  0
SECTION
  2
HEADER
  9
$ACADVER
  1
AC1018
  9
$ACADMAINTVER
 70
   104
  9
$DWGCODEPAGE
  3
ANSI_1252
  9
$TITLE
  1
O:\RAINBIRD\SpecDraw 2006\MDC\DWG\SENSDEC.DWG
  9
$SUBJECT
  1
 
  9
$AUTHOR
  1
dweyer
  9
$COMMENTS
  1
This drawing was opened and saved by 'dweyer' with AutoCAD version 16.1s (LMS Tech) using profile WatermarkID on 12-21-2005 @ 16:03:PM
  9
$LASTSAVEDBY
  1
ron
  9
$INSBASE
 10
0.1225034467745107
 20
2.125109839956107
 30
0.0
  9
$EXTMIN
 10
0.0
 20
0.0
 30
0.0
  9
$EXTMAX
 10
16.48999999999999
 20
10.44
 30
0.03
  9
$LIMMIN
 10
0.0
 20
0.0
  9
$LIMMAX
 10
8.5
 20
11.0
  9
$ORTHOMODE
 70
     1
  9
$REGENMODE
 70
     1
  9
$FILLMODE
 70
     1
  9
$QTEXTMODE
 70
     0
  9
$MIRRTEXT
 70
     0
  9
$LTSCALE
 40
1.0
  9
$ATTMODE
 70
     1
  9
$TEXTSIZE
 40
0.125
  9
$TRACEWID
 40
0.05
  9
$TEXTSTYLE
  7
ArialNarrow
  9
$CLAYER
  8
0
  9
$CELTYPE
  6
BYLAYER
  9
$CECOLOR
 62
   256
  9
$CELTSCALE
 40
1.0
  9
$DISPSILH
 70
     0
  9
$DIMSCALE
 40
1.0
  9
$DIMASZ
 40
0.18
  9
$DIMEXO
 40
0.0625
  9
$DIMDLI
 40
0.3799999999999999
  9
$DIMRND
 40
0.0
  9
$DIMDLE
 40
0.0
  9
$DIMEXE
 40
0.125
  9
$DIMTP
 40
0.0
  9
$DIMTM
 40
0.0
  9
$DIMTXT
 40
0.125
  9
$DIMCEN
 40
0.09
  9
$DIMTSZ
 40
0.0
  9
$DIMTOL
 70
     0
  9
$DIMLIM
 70
     0
  9
$DIMTIH
 70
     1
  9
$DIMTOH
 70
     1
  9
$DIMSE1
 70
     0
  9
$DIMSE2
 70
     0
  9
$DIMTAD
 70
     0
  9
$DIMZIN
 70
     0
  9
$DIMBLK
  1

  9
$DIMASO
 70
     0
  9
$DIMSHO
 70
     0
  9
$DIMPOST
  1

  9
$DIMAPOST
  1

  9
$DIMALT
 70
     0
  9
$DIMALTD
 70
     2
  9
$DIMALTF
 40
25.4
  9
$DIMLFAC
 40
1.0
  9
$DIMTOFL
 70
     0
  9
$DIMTVP
 40
0.0
  9
$DIMTIX
 70
     0
  9
$DIMSOXD
 70
     0
  9
$DIMSAH
 70
     0
  9
$DIMBLK1
  1

  9
$DIMBLK2
  1

  9
$DIMSTYLE
  2
STANDARD
  9
$DIMCLRD
 70
   256
  9
$DIMCLRE
 70
   256
  9
$DIMCLRT
 70
   256
  9
$DIMTFAC
 40
1.0
  9
$DIMGAP
 40
0.09
  9
$DIMJUST
 70
     0
  9
$DIMSD1
 70
     0
  9
$DIMSD2
 70
     0
  9
$DIMTOLJ
 70
     1
  9
$DIMTZIN
 70
     0
  9
$DIMALTZ
 70
     0
  9
$DIMALTTZ
 70
     0
  9
$DIMUPT
 70
     0
  9
$DIMDEC
 70
     4
  9
$DIMTDEC
 70
     4
  9
$DIMALTU
 70
     2
  9
$DIMALTTD
 70
     2
  9
$DIMTXSTY
  7
STANDARD
  9
$DIMAUNIT
 70
     0
  9
$DIMADEC
 70
     0
  9
$DIMALTRND
 40
0.0
  9
$DIMAZIN
 70
     0
  9
$DIMDSEP
 70
    46
  9
$DIMATFIT
 70
     3
  9
$DIMFRAC
 70
     0
  9
$DIMLDRBLK
  1

  9
$DIMLUNIT
 70
     2
  9
$DIMLWD
 70
    -1
  9
$DIMLWE
 70
    -1
  9
$DIMTMOVE
 70
     0
  9
$LUNITS
 70
     2
  9
$LUPREC
 70
     4
  9
$SKETCHINC
 40
0.1
  9
$FILLETRAD
 40
0.0
  9
$AUNITS
 70
     0
  9
$AUPREC
 70
     4
  9
$MENU
  1
c:\acad13nt\win\SUPPORT\ACAD
  9
$ELEVATION
 40
0.0
  9
$PELEVATION
 40
0.0
  9
$THICKNESS
 40
0.0
  9
$LIMCHECK
 70
     0
  9
$CHAMFERA
 40
0.0
  9
$CHAMFERB
 40
0.0
  9
$CHAMFERC
 40
0.0
  9
$CHAMFERD
 40
0.0
  9
$SKPOLY
 70
     0
  9
$TDCREATE
 40
2448656.376030093
  9
$TDUCREATE
 40
2448656.667704051
  9
$TDUPDATE
 40
2459170.449467593
  9
$TDUUPDATE
 40
2459170.741134260
  9
$TDINDWG
 40
0.8202856829
  9
$TDUSRTIMER
 40
0.8202856829
  9
$USRTIMER
 70
     1
  9
$ANGBASE
 50
0.0
  9
$ANGDIR
 70
     0
  9
$PDMODE
 70
     0
  9
$PDSIZE
 40
0.0
  9
$PLINEWID
 40
0.0
  9
$SPLFRAME
 70
     0
  9
$SPLINETYPE
 70
     6
  9
$SPLINESEGS
 70
     8
  9
$HANDSEED
  5
4682
  9
$SURFTAB1
 70
     6
  9
$SURFTAB2
 70
     6
  9
$SURFTYPE
 70
     6
  9
$SURFU
 70
     6
  9
$SURFV
 70
     6
  9
$UCSBASE
  2

  9
$UCSNAME
  2

  9
$UCSORG
 10
0.0
 20
0.0
 30
0.0
  9
$UCSXDIR
 10
1.0
 20
0.0
 30
0.0
  9
$UCSYDIR
 10
0.0
 20
1.0
 30
0.0
  9
$UCSORTHOREF
  2

  9
$UCSORTHOVIEW
 70
     0
  9
$UCSORGTOP
 10
0.0
 20
0.0
 30
0.0
  9
$UCSORGBOTTOM
 10
0.0
 20
0.0
 30
0.0
  9
$UCSORGLEFT
 10
0.0
 20
0.0
 30
0.0
  9
$UCSORGRIGHT
 10
0.0
 20
0.0
 30
0.0
  9
$UCSORGFRONT
 10
0.0
 20
0.0
 30
0.0
  9
$UCSORGBACK
 10
0.0
 20
0.0
 30
0.0
  9
$PUCSBASE
  2

  9
$PUCSNAME
  2

  9
$PUCSORG
 10
0.0
 20
0.0
 30
0.0
  9
$PUCSXDIR
 10
1.0
 20
0.0
 30
0.0
  9
$PUCSYDIR
 10
0.0
 20
1.0
 30
0.0
  9
$PUCSORTHOREF
  2

  9
$PUCSORTHOVIEW
 70
     0
  9
$PUCSORGTOP
 10
0.0
 20
0.0
 30
0.0
  9
$PUCSORGBOTTOM
 10
0.0
 20
0.0
 30
0.0
  9
$PUCSORGLEFT
 10
0.0
 20
0.0
 30
0.0
  9
$PUCSORGRIGHT
 10
0.0
 20
0.0
 30
0.0
  9
$PUCSORGFRONT
 10
0.0
 20
0.0
 30
0.0
  9
$PUCSORGBACK
 10
0.0
 20
0.0
 30
0.0
  9
$USERI1
 70
     0
  9
$USERI2
 70
     0
  9
$USERI3
 70
     0
  9
$USERI4
 70
     0
  9
$USERI5
 70
     0
  9
$USERR1
 40
0.0
  9
$USERR2
 40
0.0
  9
$USERR3
 40
0.0
  9
$USERR4
 40
0.0
  9
$USERR5
 40
0.0
  9
$WORLDVIEW
 70
     1
  9
$SHADEDGE
 70
     3
  9
$SHADEDIF
 70
    70
  9
$TILEMODE
 70
     0
  9
$MAXACTVP
 70
    16
  9
$PINSBASE
 10
0.0
 20
0.0
 30
0.0
  9
$PLIMCHECK
 70
     0
  9
$PEXTMIN
 10
-2.942250267835536
 20
-1.525631638098483
 30
0.0
  9
$PEXTMAX
 10
14.05774973216446
 20
9.474368361901516
 30
0.0
  9
$PLIMMIN
 10
-2.942250267835536
 20
-1.525631673436114
  9
$PLIMMAX
 10
14.05774973216446
 20
9.474368397239148
  9
$UNITMODE
 70
     0
  9
$VISRETAIN
 70
     0
  9
$PLINEGEN
 70
     1
  9
$PSLTSCALE
 70
     1
  9
$TREEDEPTH
 70
 -3020
  9
$CMLSTYLE
  2
STANDARD
  9
$CMLJUST
 70
     0
  9
$CMLSCALE
 40
1.0
  9
$PROXYGRAPHICS
 70
     1
  9
$MEASUREMENT
 70
     0
  9
$CELWEIGHT
370
    -1
  9
$ENDCAPS
280
     0
  9
$JOINSTYLE
280
     0
  9
$LWDISPLAY
290
     0
  9
$INSUNITS
 70
     0
  9
$HYPERLINKBASE
  1
www.aquaengineering.com
  9
$STYLESHEET
  1
OKIColorShaded.ctb
  9
$XEDIT
290
     1
  9
$CEPSNTYPE
380
     0
  9
$PSTYLEMODE
290
     1
  9
$FINGERPRINTGUID
  2
{A4923F29-6CA9-4619-A2B7-DA9F8BAD7873}
  9
$VERSIONGUID
  2
{94A11333-4520-3C41-8971-E6AADBA0EB50}
  9
$EXTNAMES
290
     1
  9
$PSVPSCALE
 40
0.0
  9
$OLESTARTUP
290
     1
  9
$SORTENTS
280
    51
  9
$INDEXCTL
280
     0
  9
$HIDETEXT
280
     0
  9
$XCLIPFRAME
290
     0
  9
$HALOGAP
280
     0
  9
$OBSCOLOR
 70
   257
  9
$OBSLTYPE
280
     0
  9
$INTERSECTIONDISPLAY
280
     0
  9
$INTERSECTIONCOLOR
 70
   257
  9
$DIMASSOC
280
     2
  9
$PROJECTNAME
  1

  0
ENDSEC
  0
SECTION
  2
CLASSES
  0
CLASS
  1
ACDBDICTIONARYWDFLT
  2
AcDbDictionaryWithDefault
  3
ObjectDBX Classes
 90
        0
 91
        1
280
     0
281
     0
  0
CLASS
  1
DICTIONARYVAR
  2
AcDbDictionaryVar
  3
ObjectDBX Classes
 90
        0
 91
       13
280
     0
281
     0
  0
CLASS
  1
PLOTSETTINGS
  2
AcDbPlotSettings
  3
ObjectDBX Classes
 90
        0
 91
       24
280
     0
281
     0
  0
CLASS
  1
TABLESTYLE
  2
AcDbTableStyle
  3
ObjectDBX Classes
 90
     4095
 91
        1
280
     0
281
     0
  0
CLASS
  1
MATERIAL
  2
AcDbMaterial
  3
ObjectDBX Classes
 90
     1153
 91
        3
280
     0
281
     0
  0
CLASS
  1
VISUALSTYLE
  2
AcDbVisualStyle
  3
ObjectDBX Classes
 90
     4095
 91
       26
280
     0
281
     0
  0
CLASS
  1
SCALE
  2
AcDbScale
  3
ObjectDBX Classes
 90
     1153
 91
       33
280
     0
281
     0
  0
CLASS
  1
MLEADERSTYLE
  2
AcDbMLeaderStyle
  3
ACDB_MLEADERSTYLE_CLASS
 90
     4095
 91
        2
280
     0
281
     0
  0
CLASS
  1
EXACXREFPANELOBJECT
  2
ExAcXREFPanelObject
  3
EXAC_ESW
 90
     1025
 91
        1
280
     0
281
     0
  0
CLASS
  1
NPOCOLLECTION
  2
AcDbImpNonPersistentObjectsCollection
  3
ObjectDBX Classes
 90
     1153
 91
        1
280
     0
281
     0
  0
CLASS
  1
CELLSTYLEMAP
  2
AcDbCellStyleMap
  3
ObjectDBX Classes
 90
     1152
 91
        1
280
     0
281
     0
  0
CLASS
  1
SORTENTSTABLE
  2
AcDbSortentsTable
  3
ObjectDBX Classes
 90
        0
 91
        2
280
     0
281
     0
  0
CLASS
  1
ACDBSECTIONVIEWSTYLE
  2
AcDbSectionViewStyle
  3
ObjectDBX Classes
 90
     1025
 91
        1
280
     0
281
     0
  0
CLASS
  1
ACDBDETAILVIEWSTYLE
  2
AcDbDetailViewStyle
  3
ObjectDBX Classes
 90
     1025
 91
        1
280
     0
281
     0
  0
CLASS
  1
FIELD
  2
AcDbField
  3
ObjectDBX Classes
 90
     1152
 91
        2
280
     0
281
     0
  0
CLASS
  1
FIELDLIST
  2
AcDbFieldList
  3
ObjectDBX Classes
 90
     1152
 91
        1
280
     0
281
     0
  0
CLASS
  1
ACAD_EVALUATION_GRAPH
  2
AcDbEvalGraph
  3
ObjectDBX Classes
 90
     1153
 91
        0
280
     0
281
     0
  0
CLASS
  1
BLOCKLINEARPARAMETER
  2
AcDbBlockLinearParameter
  3
ObjectDBX Classes
 90
     1153
 91
        0
280
     0
281
     0
  0
CLASS
  1
BLOCKLINEARGRIP
  2
AcDbBlockLinearGrip
  3
ObjectDBX Classes
 90
     1153
 91
        0
280
     0
281
     0
  0
CLASS
  1
BLOCKGRIPLOCATIONCOMPONENT
  2
AcDbBlockGripExpr
  3
ObjectDBX Classes
 90
     1153
 91
        0
280
     0
281
     0
  0
CLASS
  1
BLOCKSTRETCHACTION
  2
AcDbBlockStretchAction
  3
ObjectDBX Classes
 90
     1153
 91
        0
280
     0
281
     0
  0
CLASS
  1
ACDB_DYNAMICBLOCKPURGEPREVENTER_VERSION
  2
AcDbDynamicBlockPurgePreventer
  3
ObjectDBX Classes
 90
     1153
 91
        0
280
     0
281
     0
  0
CLASS
  1
ACDB_BLOCKREPRESENTATION_DATA
  2
AcDbBlockRepresentationData
  3
ObjectDBX Classes
 90
     1153
 91
        0
280
     0
281
     0
  0
CLASS
  1
ACAECUSTOBJ
  2
AcAeEditorObj
  3
AcAeEditorObj
 90
     1024
 91
        0
280
     0
281
     0
  0
CLASS
  1
LINEARPARAMETERENTITY
  2
AcDbBlockLinearParameterEntity
  3
ObjectDBX Classes
 90
     1025
 91
        0
280
     0
281
     1
  0
CLASS
  1
ACAEEEMGROBJ
  2
AcAeEEMgrObj
  3
AcAeEEMgrObj
 90
     1024
 91
        0
280
     0
281
     0
  0
CLASS
  1
LINEARGRIPENTITY
  2
AcDbBlockLinearGripEntity
  3
ObjectDBX Classes
 90
     1025
 91
        0
280
     0
281
     1
  0
CLASS
  1
STRETCHACTIONENTITY
  2
AcDbBlockStretchActionEntity
  3
ObjectDBX Classes
 90
     1025
 91
        0
280
     0
281
     1
  0
ENDSEC
  0
SECTION
  2
TABLES
  0
TABLE
  2
VPORT
  5
8
102
{ACAD_XDICTIONARY
360
1954
102
}
330
0
100
AcDbSymbolTable
 70
     1
  0
VPORT
  5
180A
330
8
100
AcDbSymbolTableRecord
100
AcDbViewportTableRecord
  2
*Active
 70
     0
 10
0.0
 20
0.0
 11
1.0
 21
1.0
 12
8.244999999999999
 22
5.219999999999999
 13
0.0
 23
0.0
 14
1.0
 24
1.0
 15
0.0
 25
0.0
 16
0.0
 26
0.0
 36
1.0
 17
0.0
 27
0.0
 37
0.0
 40
10.49952456687361
 41
2.292748433303491
 42
50.0
 43
0.0
 44
0.0
 50
0.0
 51
0.0
 71
     0
 72
  2000
 73
     1
 74
     0
 75
     0
 76
     0
 77
     0
 78
     0
281
     0
 65
     1
110
0.0
120
0.0
130
0.0
111
1.0
121
0.0
131
0.0
112
0.0
122
1.0
132
0.0
 79
     0
146
0.0
1001
ACAD_NAV_VCDISPLAY
1070
     3
  0
ENDTAB
  0
TABLE
  2
LTYPE
  5
5
330
0
100
AcDbSymbolTable
 70
     1
  0
LTYPE
  5
12
330
5
100
AcDbSymbolTableRecord
100
AcDbLinetypeTableRecord
  2
BYBLOCK
 70
     0
  3

 72
    65
 73
     0
 40
0.0
  0
LTYPE
  5
13
330
5
100
AcDbSymbolTableRecord
100
AcDbLinetypeTableRecord
  2
BYLAYER
 70
     0
  3

 72
    65
 73
     0
 40
0.0
  0
LTYPE
  5
14
330
5
100
AcDbSymbolTableRecord
100
AcDbLinetypeTableRecord
  2
CONTINUOUS
 70
     0
  3
Solid line
 72
    65
 73
     0
 40
0.0
  0
ENDTAB
  0
TABLE
  2
LAYER
  5
2
102
{ACAD_XDICTIONARY
360
174A
102
}
330
0
100
AcDbSymbolTable
 70
     6
  0
LAYER
  5
F
330
2
100
AcDbSymbolTableRecord
100
AcDbLayerTableRecord
  2
0
 70
     0
 62
     7
  6
CONTINUOUS
370
    -3
390
21B
1001
IDT_Size-PipeType
1000
16
  0
LAYER
  5
3AC
330
2
100
AcDbSymbolTableRecord
100
AcDbLayerTableRecord
  2
text_bubbles
 70
     0
 62
     6
  6
CONTINUOUS
370
    -3
390
21B
  0
LAYER
  5
3AD
330
2
100
AcDbSymbolTableRecord
100
AcDbLayerTableRecord
  2
image
 70
     0
 62
     7
  6
CONTINUOUS
370
    -3
390
21B
  0
LAYER
  5
17BC
330
2
100
AcDbSymbolTableRecord
100
AcDbLayerTableRecord
  2
title
 70
     0
 62
     4
  6
CONTINUOUS
370
    -3
390
21B
  0
LAYER
  5
43A2
330
2
100
AcDbSymbolTableRecord
100
AcDbLayerTableRecord
  2
viewport
 70
     0
 62
     3
  6
CONTINUOUS
290
     0
370
    -3
390
21B
  0
LAYER
  5
4516
330
2
100
AcDbSymbolTableRecord
100
AcDbLayerTableRecord
  2
leader
 70
     0
 62
     6
  6
CONTINUOUS
370
    -3
390
21B
  0
ENDTAB
  0
TABLE
  2
STYLE
  5
3
330
0
100
AcDbSymbolTable
 70
     7
  0
STYLE
  5
10
330
3
100
AcDbSymbolTableRecord
100
AcDbTextStyleTableRecord
  2
STANDARD
 70
     0
 40
0.0
 41
1.0
 50
0.0
 71
     0
 42
0.2
  3
TXT
  4

  0
STYLE
  5
1F
330
3
100
AcDbSymbolTableRecord
100
AcDbTextStyleTableRecord
  2
SIMPLEX
 70
     0
 40
0.0
 41
1.0
 50
0.0
 71
     0
 42
0.125
  3
SIMPLEX
  4

  0
STYLE
  5
31A
330
3
100
AcDbSymbolTableRecord
100
AcDbTextStyleTableRecord
  2
ROMANS
 70
     0
 40
0.0
 41
1.0
 50
0.0
 71
     0
 42
0.125
  3
romans.shx
  4

  0
STYLE
  5
17BD
330
3
100
AcDbSymbolTableRecord
100
AcDbTextStyleTableRecord
  2
L100
 70
     0
 40
0.1
 41
1.0
 50
0.0
 71
     0
 42
0.1
  3
romans.shx
  4

  0
STYLE
  5
17BE
330
3
100
AcDbSymbolTableRecord
100
AcDbTextStyleTableRecord
  2
L200
 70
     0
 40
0.2
 41
1.0
 50
0.0
 71
     0
 42
0.081
  3
arial.ttf
  4

1001
ACAD
1000
Arial
1071
       34
  0
STYLE
  5
17BF
330
3
100
AcDbSymbolTableRecord
100
AcDbTextStyleTableRecord
  2
L80
 70
     0
 40
0.08
 41
1.0
 50
0.0
 71
     0
 42
0.08
  3
ROMANS
  4

  0
STYLE
  5
19C0
330
3
100
AcDbSymbolTableRecord
100
AcDbTextStyleTableRecord
  2
ArialNarrow
 70
     0
 40
0.0
 41
0.8
 50
0.0
 71
     0
 42
0.125
  3
arial.ttf
  4

1001
ACAD
1000
Arial
1071
       34
  0
ENDTAB
  0
TABLE
  2
VIEW
  5
6
330
0
100
AcDbSymbolTable
 70
     0
  0
ENDTAB
  0
TABLE
  2
UCS
  5
7
330
0
100
AcDbSymbolTable
 70
     0
  0
ENDTAB
  0
TABLE
  2
APPID
  5
9
330
0
100
AcDbSymbolTable
 70
    52
  0
APPID
  5
11
330
9
100
AcDbSymbolTableRecord
100
AcDbRegAppTableRecord
  2
ACAD
 70
     0
  0
APPID
  5
31E
330
9
100
AcDbSymbolTableRecord
100
AcDbRegAppTableRecord
  2
WID_Sprinkler
 70
     0
  0
APPID
  5
31F
330
9
100
AcDbSymbolTableRecord
100
AcDbRegAppTableRecord
  2
WID_Valve
 70
     0
  0
APPID
  5
320
330
9
100
AcDbSymbolTableRecord
100
AcDbRegAppTableRecord
  2
WID_Fitting
 70
     0
  0
APPID
  5
321
330
9
100
AcDbSymbolTableRecord
100
AcDbRegAppTableRecord
  2
WID_HPNode
 70
     0
  0
APPID
  5
322
330
9
100
AcDbSymbolTableRecord
100
AcDbRegAppTableRecord
  2
WID_Node
 70
     0
  0
APPID
  5
323
330
9
100
AcDbSymbolTableRecord
100
AcDbRegAppTableRecord
  2
WID_Conduit
 70
     0
  0
APPID
  5
324
330
9
100
AcDbSymbolTableRecord
100
AcDbRegAppTableRecord
  2
WID_SprinklerSection
 70
     0
  0
APPID
  5
325
330
9
100
AcDbSymbolTableRecord
100
AcDbRegAppTableRecord
  2
WID_MainLineSection
 70
     0
  0
APPID
  5
326
330
9
100
AcDbSymbolTableRecord
100
AcDbRegAppTableRecord
  2
WID_ManifoldSection
 70
     0
  0
APPID
  5
327
330
9
100
AcDbSymbolTableRecord
100
AcDbRegAppTableRecord
  2
WID_DripSection
 70
     0
  0
APPID
  5
328
330
9
100
AcDbSymbolTableRecord
100
AcDbRegAppTableRecord
  2
WID_HPSection
 70
     0
  0
APPID
  5
329
330
9
100
AcDbSymbolTableRecord
100
AcDbRegAppTableRecord
  2
WID_Sleeve
 70
     0
  0
APPID
  5
32A
330
9
100
AcDbSymbolTableRecord
100
AcDbRegAppTableRecord
  2
WID_Layout
 70
     0
  0
APPID
  5
32B
330
9
100
AcDbSymbolTableRecord
100
AcDbRegAppTableRecord
  2
WID_Island
 70
     0
  0
APPID
  5
32C
330
9
100
AcDbSymbolTableRecord
100
AcDbRegAppTableRecord
  2
WID_Controller
 70
     0
  0
APPID
  5
32D
330
9
100
AcDbSymbolTableRecord
100
AcDbRegAppTableRecord
  2
WID_SprinklerLateral
 70
     0
  0
APPID
  5
32E
330
9
100
AcDbSymbolTableRecord
100
AcDbRegAppTableRecord
  2
WID_HPDripLateral
 70
     0
  0
APPID
  5
32F
330
9
100
AcDbSymbolTableRecord
100
AcDbRegAppTableRecord
  2
WID_LabelPipeSize
 70
     0
  0
APPID
  5
330
330
9
100
AcDbSymbolTableRecord
100
AcDbRegAppTableRecord
  2
WID_LabelPipeSegment
 70
     0
  0
APPID
  5
331
330
9
100
AcDbSymbolTableRecord
100
AcDbRegAppTableRecord
  2
WID_LabelValveDesignator
 70
     0
  0
APPID
  5
332
330
9
100
AcDbSymbolTableRecord
100
AcDbRegAppTableRecord
  2
WID_CheckArc
 70
     0
  0
APPID
  5
333
330
9
100
AcDbSymbolTableRecord
100
AcDbRegAppTableRecord
  2
WID_ObjectType
 70
     0
  0
APPID
  5
334
330
9
100
AcDbSymbolTableRecord
100
AcDbRegAppTableRecord
  2
WID_DripLateral
 70
     0
  0
APPID
  5
335
330
9
100
AcDbSymbolTableRecord
100
AcDbRegAppTableRecord
  2
ABNSLEADERTOOLS
 70
     0
  0
APPID
  5
336
330
9
100
AcDbSymbolTableRecord
100
AcDbRegAppTableRecord
  2
RAK
 70
     0
  0
APPID
  5
337
330
9
100
AcDbSymbolTableRecord
100
AcDbRegAppTableRecord
  2
DCO15
 70
     0
  0
APPID
  5
3B2
330
9
100
AcDbSymbolTableRecord
100
AcDbRegAppTableRecord
  2
TCAD
 70
     0
  0
APPID
  5
17F8
330
9
100
AcDbSymbolTableRecord
100
AcDbRegAppTableRecord
  2
BBSI_PltSel
 70
     0
  0
APPID
  5
17F9
330
9
100
AcDbSymbolTableRecord
100
AcDbRegAppTableRecord
  2
BBSI_Plots
 70
     0
  0
APPID
  5
17FA
330
9
100
AcDbSymbolTableRecord
100
AcDbRegAppTableRecord
  2
BBSI_Bookmarks
 70
     0
  0
APPID
  5
17FB
330
9
100
AcDbSymbolTableRecord
100
AcDbRegAppTableRecord
  2
BBSI_StampsEx
 70
     0
  0
APPID
  5
17FC
330
9
100
AcDbSymbolTableRecord
100
AcDbRegAppTableRecord
  2
BBSI_Attachs
 70
     0
  0
APPID
  5
17FD
330
9
100
AcDbSymbolTableRecord
100
AcDbRegAppTableRecord
  2
BBSI_DigSigs
 70
     0
  0
APPID
  5
17FE
330
9
100
AcDbSymbolTableRecord
100
AcDbRegAppTableRecord
  2
ACAD_PSEXT
 70
     0
  0
APPID
  5
1859
330
9
100
AcDbSymbolTableRecord
100
AcDbRegAppTableRecord
  2
ACAD_MLEADERVER
 70
     0
  0
APPID
  5
1870
330
9
100
AcDbSymbolTableRecord
100
AcDbRegAppTableRecord
  2
ACAD_EXEMPT_FROM_CAD_STANDARDS
 70
     0
  0
APPID
  5
18A0
330
9
100
AcDbSymbolTableRecord
100
AcDbRegAppTableRecord
  2
BBSI_BookmarksEx
 70
     0
  0
APPID
  5
1971
330
9
100
AcDbSymbolTableRecord
100
AcDbRegAppTableRecord
  2
IDT_Size-PipeType
 70
     0
  0
APPID
  5
1979
330
9
100
AcDbSymbolTableRecord
100
AcDbRegAppTableRecord
  2
ACAD_NAV_VCDISPLAY
 70
     0
  0
APPID
  5
1F81
330
9
100
AcDbSymbolTableRecord
100
AcDbRegAppTableRecord
  2
AcAecLayerStandard
 70
     0
  0
APPID
  5
1F82
330
9
100
AcDbSymbolTableRecord
100
AcDbRegAppTableRecord
  2
AcCmTransparency
 70
     0
  0
APPID
  5
1F83
330
9
100
AcDbSymbolTableRecord
100
AcDbRegAppTableRecord
  2
AcDbDynamicBlockGUID
 70
     0
  0
APPID
  5
1F84
330
9
100
AcDbSymbolTableRecord
100
AcDbRegAppTableRecord
  2
PLOTTRANSPARENCY
 70
     0
  0
APPID
  5
1F85
330
9
100
AcDbSymbolTableRecord
100
AcDbRegAppTableRecord
  2
ACAUTHENVIRON
 70
     0
  0
APPID
  5
1F86
330
9
100
AcDbSymbolTableRecord
100
AcDbRegAppTableRecord
  2
AcDbDynamicBlockTrueName
 70
     0
  0
APPID
  5
1F87
330
9
100
AcDbSymbolTableRecord
100
AcDbRegAppTableRecord
  2
AcDbBlockRepETag
 70
     0
  0
APPID
  5
1F88
330
9
100
AcDbSymbolTableRecord
100
AcDbRegAppTableRecord
  2
AcDbBlockRepBTag
 70
     0
  0
APPID
  5
41F3
330
9
100
AcDbSymbolTableRecord
100
AcDbRegAppTableRecord
  2
AeccLand130
 70
     0
  0
APPID
  5
4496
330
9
100
AcDbSymbolTableRecord
100
AcDbRegAppTableRecord
  2
PE_URL
 70
     0
  0
APPID
  5
4637
330
9
100
AcDbSymbolTableRecord
100
AcDbRegAppTableRecord
  2
ADE_PROJECTION
 70
     0
  0
APPID
  5
4681
330
9
100
AcDbSymbolTableRecord
100
AcDbRegAppTableRecord
  2
AcDbAttr
 70
     0
  0
ENDTAB
  0
TABLE
  2
DIMSTYLE
  5
A
330
0
100
AcDbSymbolTable
 70
     1
100
AcDbDimStyleTable
 71
     1
340
206
  0
DIMSTYLE
105
206
330
A
100
AcDbSymbolTableRecord
100
AcDbDimStyleTableRecord
  2
STANDARD
 70
     0
340
10
  0
ENDTAB
  0
TABLE
  2
BLOCK_RECORD
  5
1
330
0
100
AcDbSymbolTable
 70
     5
  0
BLOCK_RECORD
  5
18
102
{ACAD_XDICTIONARY
360
247
102
}
330
1
100
AcDbSymbolTableRecord
100
AcDbBlockTableRecord
  2
*MODEL_SPACE
340
21E
  0
BLOCK_RECORD
  5
43A4
330
1
100
AcDbSymbolTableRecord
100
AcDbBlockTableRecord
  2
*Paper_Space
340
43A3
  0
BLOCK_RECORD
  5
371
330
1
100
AcDbSymbolTableRecord
100
AcDbBlockTableRecord
  2
*X0
340
0
102
{BLKREFS
331
C50
102
}
  0
BLOCK_RECORD
  5
3A7
102
{ACAD_XDICTIONARY
360
2492
102
}
330
1
100
AcDbSymbolTableRecord
100
AcDbBlockTableRecord
  2
bubble
340
0
310
2800000020000000200000000100080000000000000400000000000000000000000000000000000000000000000080000080000000808000800000008000800080800000C0C0C000C0DCC000F0CAA6000020400000206000002080000020A0000020C0000020E00000400000004020000040400000406000004080000040A0
310
000040C0000040E00000600000006020000060400000606000006080000060A0000060C0000060E00000800000008020000080400000806000008080000080A0000080C0000080E00000A0000000A0200000A0400000A0600000A0800000A0A00000A0C00000A0E00000C0000000C0200000C0400000C0600000C0800000C0
310
A00000C0C00000C0E00000E0000000E0200000E0400000E0600000E0800000E0A00000E0C00000E0E00040000000400020004000400040006000400080004000A0004000C0004000E00040200000402020004020400040206000402080004020A0004020C0004020E000404000004040200040404000404060004040800040
310
40A0004040C0004040E00040600000406020004060400040606000406080004060A0004060C0004060E00040800000408020004080400040806000408080004080A0004080C0004080E00040A0000040A0200040A0400040A0600040A0800040A0A00040A0C00040A0E00040C0000040C0200040C0400040C0600040C08000
310
40C0A00040C0C00040C0E00040E0000040E0200040E0400040E0600040E0800040E0A00040E0C00040E0E00080000000800020008000400080006000800080008000A0008000C0008000E00080200000802020008020400080206000802080008020A0008020C0008020E00080400000804020008040400080406000804080
310
008040A0008040C0008040E00080600000806020008060400080606000806080008060A0008060C0008060E00080800000808020008080400080806000808080008080A0008080C0008080E00080A0000080A0200080A0400080A0600080A0800080A0A00080A0C00080A0E00080C0000080C0200080C0400080C0600080C0
310
800080C0A00080C0C00080C0E00080E0000080E0200080E0400080E0600080E0800080E0A00080E0C00080E0E000C0000000C0002000C0004000C0006000C0008000C000A000C000C000C000E000C0200000C0202000C0204000C0206000C0208000C020A000C020C000C020E000C0400000C0402000C0404000C0406000C0
310
408000C040A000C040C000C040E000C0600000C0602000C0604000C0606000C0608000C060A000C060C000C060E000C0800000C0802000C0804000C0806000C0808000C080A000C080C000C080E000C0A00000C0A02000C0A04000C0A06000C0A08000C0A0A000C0A0C000C0A0E000C0C00000C0C02000C0C04000C0C06000
310
C0C08000C0C0A000F0FBFF00A4A0A000808080000000FF0000FF000000FFFF00FF000000FF00FF00FFFF0000FFFFFF0008080808080808080808080808080808080808080808080808080808080808080808080808080808080808080808080808080808080808080808080808080808080808080808080808080808FDFDFD
310
08080808080808080808080808080808080808080808080808080808FD080808FDFDFDFDFDFD0808080808080808080808080808080808080808FDFD08080808080808080808FDFDFDFD080808080808080808080808080808FD08080808080808080808080808080808FD08080808080808080808080808FD080808080808
310
0808080808080808080808FD0808080808080808080808FDFD08080808080808080808080808080808080808FD080808080808080808FD080808080808080808080808080808080808080808FD0808080808080808FD08FD0808080808080808FD0808FD0808080808080808FDFD08080808080808FD0808FD080808080808
310
FD08080808FD080808080808FD08FD08080808080808FD0808FD080808080808FD08080808FD080808080808FD0808FD080808080808FD080808FD08080808FD080808080808FD08080808FD080808FD080808080808FD08080808FD0808FD0808080808080808FD0808FD0808080808FD0808080808FD08080808FD0808FD
310
0808080808080808FD0808FD0808080808FD0808080808FD0808080808FDFD08080808080808080808FDFD08080808080808FD08080808FD0808080808FDFD08080808080808080808FDFD08080808080808FD08080808FD08080808FD0808FD0808080808080808FD0808FD0808080808FD0808080808FD08080808FD0808
310
FD0808080808080808FD0808FD0808080808FD0808080808FD080808FD08080808FD080808080808FD08080808FD080808FD080808080808FD0808FD080808080808FD08080808FD080808080808FD0808FD080808080808FD0808FD080808080808FD08080808FD080808080808FD08FD08080808080808FD08FD08080808
310
08080808FD0808FD0808080808080808FDFD0808080808080808FD080808080808080808080808080808080808080808FD08080808080808080808FDFD08080808080808080808080808080808080808FD080808080808080808080808FD0808080808080808080808080808080808FD0808080808080808080808080808FD
310
08080808080808080808080808080808FD080808080808080808080808080808FDFD0808080808080808080808FDFDFD080808080808080808080808080808080808FD08080808FDFDFDFDFDFD08080808080808080808080808080808080808080808FDFDFDFD080808080808080808080808080808080808080808080808
310
0808080808080808080808080808080808080808080808080808080808080808080808080808080808080808080808080808080808080808
102
{BLKREFS
331
2425
331
245B
331
245E
331
2467
331
24A7
331
24AA
331
24AD
331
24B0
331
24B3
331
24B6
331
24B9
331
24BC
331
24BF
331
24C2
331
4510
331
4513
331
1339
331
134B
331
15DE
331
1602
331
12DF
331
131E
331
1330
331
1336
102
}
1001
AcDbDynamicBlockGUID
1000
{25E77A91-2FAA-F44A-ACB8-60B6F71FE8AC}
  0
BLOCK_RECORD
  5
17C0
102
{ACAD_XDICTIONARY
360
1929
102
}
330
1
100
AcDbSymbolTableRecord
100
AcDbBlockTableRecord
  2
titleblock
340
0
102
{BLKREFS
331
17CF
102
}
  0
BLOCK_RECORD
  5
199E
330
1
100
AcDbSymbolTableRecord
100
AcDbBlockTableRecord
  2
FlowArrow
340
0
102
{BLKREFS
331
2300
102
}
  0
BLOCK_RECORD
  5
228D
102
{ACAD_XDICTIONARY
360
467E
102
}
330
1
100
AcDbSymbolTableRecord
100
AcDbBlockTableRecord
  2
ws
340
0
310
28000000200000002000000001002000000000000010000001000000010000000000000000000000080808FF080808FF080808FF080808FF080808FF080808FF080808FF080808FF080808FF080808FF080808FF080808FF080808FF080808FF080808FF080808FF080808FF080808FF080808FF080808FF080808FF080808
310
FF080808FF080808FF080808FF080808FF080808FF080808FF080808FF080808FF080808FF080808FF080808FF080808FF080808FF080808FF080808FF080808FF080808FF080808FF080808FF080808FF080808FF080808FF080808FF080808FF080808FFFFFFFFFFFFFFFFFF080808FF080808FF080808FF080808FF0808
310
08FF080808FF080808FF080808FF080808FF080808FF080808FF080808FF080808FF080808FF080808FF080808FF080808FF080808FF080808FF080808FF080808FF080808FF080808FF080808FF080808FF080808FF080808FF080808FFFFFFFFFFFFFFFFFFFFFFFFFFFFFFFFFFFFFFFFFFFFFFFFFF080808FF080808FF08
310
0808FF080808FF080808FF080808FF080808FF080808FF080808FF080808FF080808FF080808FF080808FF080808FF080808FF080808FF080808FF080808FF080808FF080808FF080808FF080808FF080808FF080808FF080808FFFFFFFFFFFFFFFFFF080808FF080808FF080808FF080808FFFFFFFFFFFFFFFFFF080808FF
310
080808FF080808FF080808FF080808FF080808FF080808FF080808FF080808FF080808FF080808FF080808FF080808FF080808FF080808FF080808FF080808FF080808FF080808FF080808FF080808FF080808FF080808FF080808FFFFFFFFFF080808FF080808FF080808FF080808FF080808FF080808FFFFFFFFFF080808
310
FF080808FF080808FF080808FF080808FF080808FF080808FF080808FF080808FF080808FF080808FF080808FF080808FF080808FF080808FF080808FF080808FF080808FF080808FF080808FF080808FF080808FF080808FF080808FFFFFFFFFF080808FF080808FF080808FF080808FF080808FF080808FFFFFFFFFF0808
310
08FF080808FF080808FF080808FF080808FF080808FF080808FF080808FF080808FF080808FF080808FF080808FF080808FF080808FF080808FF080808FF080808FF080808FF080808FF080808FF080808FF080808FF080808FF080808FFFFFFFFFF080808FF080808FF080808FF080808FF080808FF080808FFFFFFFFFF08
310
0808FF080808FF080808FF080808FF080808FF080808FF080808FF080808FF080808FF080808FF080808FF080808FF080808FF080808FF080808FF080808FF080808FF080808FF080808FF080808FF080808FF080808FF080808FF080808FFFFFFFFFF080808FF080808FF080808FF080808FF080808FF080808FFFFFFFFFF
310
080808FF080808FF080808FF080808FF080808FF080808FF080808FF080808FF080808FF080808FF080808FF080808FF080808FF080808FF080808FF080808FF080808FF080808FF080808FF080808FF080808FF080808FF080808FF080808FFFFFFFFFF080808FF080808FF080808FF080808FF080808FF080808FFFFFFFF
310
FF080808FF080808FF080808FF080808FF080808FF080808FF080808FF080808FF080808FF080808FF080808FF080808FF080808FF080808FF080808FF080808FF080808FF080808FF080808FF080808FF080808FF080808FF080808FF080808FFFFFFFFFF080808FF080808FF080808FF080808FF080808FF080808FFFFFF
310
FFFF080808FF080808FF080808FF080808FF080808FF080808FF080808FF080808FF080808FF080808FF080808FF080808FF080808FF080808FF080808FF080808FF080808FF080808FF080808FF080808FF080808FF080808FF080808FF080808FFFFFFFFFF080808FF080808FF080808FF080808FF080808FF080808FFFF
310
FFFFFF080808FF080808FF080808FF080808FF080808FF080808FF080808FF080808FF080808FF080808FF080808FF080808FF080808FF080808FF080808FF080808FF080808FF080808FF080808FF080808FF080808FF080808FF080808FF080808FFFFFFFFFF080808FF080808FF080808FF080808FF080808FF080808FF
310
FFFFFFFF080808FF080808FF080808FF080808FF080808FF080808FF080808FF080808FF080808FF080808FF080808FF080808FF080808FF080808FF080808FF080808FF080808FF080808FF080808FF080808FF080808FF080808FF080808FF080808FFFFFFFFFF080808FF080808FF080808FF080808FF080808FF080808
310
FFFFFFFFFF080808FF080808FF080808FF080808FF080808FF080808FF080808FF080808FF080808FF080808FF080808FF080808FF080808FF080808FF080808FF080808FF080808FF080808FF080808FF080808FF080808FF080808FF080808FF080808FFFFFFFFFF080808FF080808FF080808FF080808FF080808FF0808
310
08FFFFFFFFFF080808FF080808FF080808FF080808FF080808FF080808FF080808FF080808FF080808FF080808FF080808FF080808FF080808FF080808FF080808FF080808FF080808FF080808FF080808FF080808FF080808FF080808FF080808FF080808FFFFFFFFFF080808FF080808FF080808FF080808FF080808FF08
310
0808FFFFFFFFFF080808FF080808FF080808FF080808FF080808FF080808FF080808FF080808FF080808FF080808FF080808FF080808FF080808FF080808FF080808FF080808FF080808FF080808FF080808FF080808FF080808FF080808FF080808FF080808FFFFFFFFFF080808FF080808FF080808FF080808FF080808FF
310
080808FFFFFFFFFF080808FF080808FF080808FF080808FF080808FF080808FF080808FF080808FF080808FF080808FF080808FF080808FF080808FF080808FF080808FF080808FF080808FF080808FF080808FF080808FF080808FF080808FF080808FF080808FFFFFFFFFF080808FF080808FF080808FF080808FF080808
310
FF080808FFFFFFFFFF080808FF080808FF080808FF080808FF080808FF080808FF080808FF080808FF080808FF080808FF080808FF080808FF080808FF080808FF080808FF080808FF080808FF080808FF080808FF080808FF080808FF080808FF080808FF080808FFFFFFFFFF080808FF080808FF080808FF080808FF0808
310
08FF080808FFFFFFFFFF080808FF080808FF080808FF080808FF080808FF080808FF080808FF080808FF080808FF080808FF080808FF080808FF080808FF080808FF080808FF080808FF080808FF080808FF080808FF080808FF080808FF080808FF080808FF080808FFFFFFFFFF080808FF080808FF080808FF080808FF08
310
0808FF080808FFFFFFFFFF080808FF080808FF080808FF080808FF080808FF080808FF080808FF080808FF080808FF080808FF080808FF080808FF080808FF080808FF080808FF080808FF080808FF080808FF080808FF080808FF080808FF080808FF080808FF080808FFFFFFFFFF080808FF080808FF080808FF080808FF
310
080808FF080808FFFFFFFFFF080808FF080808FF080808FF080808FF080808FF080808FF080808FF080808FF080808FF080808FF080808FF080808FF080808FF080808FF080808FF080808FF080808FF080808FF080808FF080808FF080808FF080808FF080808FF080808FFFFFFFFFF080808FF080808FF080808FF080808
310
FF080808FF080808FFFFFFFFFF080808FF080808FF080808FF080808FF080808FF080808FF080808FF080808FF080808FF080808FF080808FF080808FF080808FF080808FF080808FF080808FF080808FF080808FF080808FF080808FF080808FF080808FF080808FF080808FFFFFFFFFF080808FF080808FF080808FF0808
310
08FF080808FF080808FFFFFFFFFF080808FF080808FF080808FF080808FF080808FF080808FF080808FF080808FF080808FF080808FF080808FF080808FF080808FF080808FF080808FF080808FF080808FF080808FF080808FF080808FF080808FF080808FF080808FF080808FFFFFFFFFF080808FF080808FF080808FF08
310
0808FF080808FF080808FFFFFFFFFF080808FF080808FF080808FF080808FF080808FF080808FF080808FF080808FF080808FF080808FF080808FF080808FF080808FF080808FF080808FF080808FF080808FF080808FF080808FF080808FF080808FF080808FF080808FF080808FFFFFFFFFF080808FF080808FF080808FF
310
080808FF080808FF080808FFFFFFFFFF080808FF080808FF080808FF080808FF080808FF080808FF080808FF080808FF080808FF080808FF080808FF080808FF080808FF080808FF080808FF080808FF080808FF080808FF080808FF080808FF080808FF080808FF080808FF080808FFFFFFFFFFFFFFFFFFFFFFFFFFFFFFFF
310
FFFFFFFFFFFFFFFFFFFFFFFFFFFFFFFFFF080808FF080808FF080808FF080808FF080808FF080808FF080808FF080808FF080808FF080808FF080808FF080808FF080808FF080808FF080808FF080808FF080808FF080808FF080808FF080808FF080808FF080808FF080808FFFFFFFFFF080808FF080808FF080808FF0808
310
08FF080808FF080808FF080808FF080808FFFFFFFFFF080808FF080808FF080808FF080808FF080808FF080808FF080808FF080808FF080808FF080808FF080808FF080808FF080808FF080808FF080808FF080808FF080808FF080808FF080808FF080808FF080808FFFFFFFFFF080808FF080808FF080808FF080808FF08
310
0808FF080808FF080808FF080808FF080808FF080808FFFFFFFFFF080808FF080808FF080808FF080808FF080808FF080808FF080808FF080808FF080808FF080808FF080808FF080808FF080808FF080808FF080808FF080808FF080808FFFFFFFFFFFFFFFFFFFFFFFFFFFFFFFFFFFFFFFFFFFFFFFFFFFFFFFFFFFFFFFFFF
310
FFFFFFFFFFFFFFFFFFFFFFFFFFFFFFFFFFFFFFFFFFFFFFFFFFFFFFFFFFFFFFFFFFFFFFFFFFFFFFFF080808FF080808FF080808FF080808FF080808FF080808FF080808FF080808FF080808FF080808FF080808FF080808FF080808FF080808FFFFFFFFFFFFFFFFFFFFFFFFFFFFFFFFFFFFFFFFFFFFFFFFFFFFFFFFFFFFFFFF
310
FFFFFFFFFFFFFFFFFFFFFFFFFFFFFFFFFFFFFFFFFFFFFFFFFFFFFFFFFFFFFFFFFFFFFFFFFFFFFFFFFF080808FF080808FF080808FF080808FF080808FF080808FF080808FF080808FF080808FF080808FF080808FF080808FF080808FF080808FF080808FF080808FFFFFFFFFF080808FF080808FF080808FFFFFFFFFF0808
310
08FF080808FF080808FF080808FFFFFFFFFF080808FF080808FF080808FFFFFFFFFF080808FF080808FF080808FF080808FF080808FF080808FF080808FF080808FF080808FF080808FF080808FF080808FF080808FF080808FF080808FF080808FF080808FF080808FFFFFFFFFFFFFFFFFFFFFFFFFFFFFFFFFFFFFFFFFF08
310
0808FF080808FF080808FF080808FFFFFFFFFFFFFFFFFFFFFFFFFFFFFFFFFFFFFFFFFF080808FF080808FF080808FF080808FF080808FF080808FF080808FF080808FF080808FF080808FF080808FF080808FF080808FF080808FF080808FF080808FF080808FF080808FF080808FF080808FF080808FF080808FF080808FF
310
080808FF080808FF080808FF080808FF080808FF080808FF080808FF080808FF080808FF080808FF080808FF080808FF080808FF080808FF080808FF080808FF080808FF080808FF
102
{BLKREFS
331
22A6
331
22B1
331
235C
331
235D
102
}
  0
ENDTAB
  0
ENDSEC
  0
SECTION
  2
BLOCKS
  0
BLOCK
  5
2B
330
18
100
AcDbEntity
  8
0
100
AcDbBlockBegin
  2
*MODEL_SPACE
 70
     0
 10
0.0
 20
0.0
 30
0.0
  3
*MODEL_SPACE
  1

  0
ENDBLK
  5
2C
330
18
100
AcDbEntity
  8
0
100
AcDbBlockEnd
  0
BLOCK
  5
43AB
330
43A4
100
AcDbEntity
 67
     1
  8
0
100
AcDbBlockBegin
  2
*Paper_Space
 70
     0
 10
0.0
 20
0.0
 30
0.0
  3
*Paper_Space
  1

  0
ENDBLK
  5
43AC
330
43A4
100
AcDbEntity
 67
     1
  8
0
100
AcDbBlockEnd
  0
BLOCK
  5
3A5
330
371
100
AcDbEntity
  8
0
100
AcDbBlockBegin
  2
*X0
 70
     1
 10
0.0
 20
0.0
 30
0.0
  3
*X0
  1

  0
LINE
  5
372
330
371
100
AcDbEntity
  8
0
 62
     0
100
AcDbLine
 10
0.941886010811655
 20
5.167516578640115
 30
0.0
 11
0.8485281374238562
 21
5.260874452027914
 31
0.0
  0
LINE
  5
373
330
371
100
AcDbEntity
  8
0
 62
     0
100
AcDbLine
 10
3.709671462405301
 20
5.11502116680281
 30
0.0
 11
3.563818177180197
 21
5.260874452027914
 31
0.0
  0
LINE
  5
374
330
371
100
AcDbEntity
  8
0
 62
     0
100
AcDbLine
 10
0.941886010811655
 20
5.224085121135039
 30
0.0
 11
0.876812408671318
 21
5.289158723275376
 31
0.0
  0
LINE
  5
375
330
371
100
AcDbEntity
  8
0
 62
     0
100
AcDbLine
 10
0.676399486895569
 20
5.150160390081581
 30
0.0
 11
0.5500693208088369
 21
5.276490556168313
 31
0.0
  0
LINE
  5
376
330
371
100
AcDbEntity
  8
0
 62
     0
100
AcDbLine
 10
3.744549790343372
 20
5.136711381359662
 30
0.0
 11
3.592102448427659
 21
5.289158723275376
 31
0.0
  0
LINE
  5
377
330
371
100
AcDbEntity
  8
0
 62
     0
100
AcDbLine
 10
0.941886010811655
 20
5.280653663629962
 30
0.0
 11
0.9050966799187795
 21
5.317442994522838
 31
0.0
  0
LINE
  5
378
330
371
100
AcDbEntity
  8
0
 62
     0
100
AcDbLine
 10
0.7353910524340082
 20
5.147737367038066
 30
0.0
 11
0.5656854249492369
 21
5.317442994522838
 31
0.0
  0
LINE
  5
379
330
371
100
AcDbEntity
  8
0
 62
     0
100
AcDbLine
 10
3.450681092190351
 20
5.147737367038066
 30
0.0
 11
3.443807645535387
 21
5.154610813693031
 31
0.0
  0
LINE
  5
37A
330
371
100
AcDbEntity
  8
0
 62
     0
100
AcDbLine
 10
3.760716892535525
 20
5.177112821662434
 30
0.0
 11
3.620386719675122
 21
5.317442994522838
 31
0.0
  0
LINE
  5
37B
330
371
100
AcDbEntity
  8
0
 62
     0
100
AcDbLine
 10
0.941886010811655
 20
5.337222206124886
 30
0.0
 11
0.9333809511662421
 21
5.345727265770299
 31
0.0
  0
LINE
  5
37C
330
371
100
AcDbEntity
  8
0
 62
     0
100
AcDbLine
 10
0.7636753236814702
 20
5.176021638285527
 30
0.0
 11
0.5939696961966989
 21
5.345727265770299
 31
0.0
  0
LINE
  5
37D
330
371
100
AcDbEntity
  8
0
 62
     0
100
AcDbLine
 10
3.478965363437812
 20
5.176021638285528
 30
0.0
 11
3.443807645535388
 21
5.211179356187953
 31
0.0
  0
LINE
  5
37E
330
371
100
AcDbEntity
  8
0
 62
     0
100
AcDbLine
 10
3.776883994727679
 20
5.217514261965204
 30
0.0
 11
3.648670990922583
 21
5.3457272657703
 31
0.0
  0
LINE
  5
37F
330
371
100
AcDbEntity
  8
0
 62
     0
100
AcDbLine
 10
0.7919595949289326
 20
5.204305909532989
 30
0.0
 11
0.6222539674441612
 21
5.374011537017761
 31
0.0
  0
LINE
  5
380
330
371
100
AcDbEntity
  8
0
 62
     0
100
AcDbLine
 10
3.507249634685275
 20
5.204305909532989
 30
0.0
 11
3.443807645535388
 21
5.267747898682877
 31
0.0
  0
LINE
  5
381
330
371
100
AcDbEntity
  8
0
 62
     0
100
AcDbLine
 10
3.793051096919832
 20
5.257915702267974
 30
0.0
 11
3.676955262170046
 21
5.374011537017761
 31
0.0
  0
LINE
  5
382
330
371
100
AcDbEntity
  8
0
 62
     0
100
AcDbLine
 10
0.8202438661763942
 20
5.232590180780452
 30
0.0
 11
0.6505382386916229
 21
5.402295808265223
 31
0.0
  0
LINE
  5
383
330
371
100
AcDbEntity
  8
0
 62
     0
100
AcDbLine
 10
3.535533905932736
 20
5.232590180780451
 30
0.0
 11
3.443807645535388
 21
5.324316441177799
 31
0.0
  0
LINE
  5
384
330
371
100
AcDbEntity
  8
0
 62
     0
100
AcDbLine
 10
3.809681921166781
 20
5.297853420515949
 30
0.0
 11
3.705239533417507
 21
5.402295808265223
 31
0.0
  0
LINE
  5
385
330
371
100
AcDbEntity
  8
0
 62
     0
100
AcDbLine
 10
0.848528137423856
 20
5.260874452027914
 30
0.0
 11
0.69663330809804
 21
5.41276928135373
 31
0.0
  0
LINE
  5
386
330
371
100
AcDbEntity
  8
0
 62
     0
100
AcDbLine
 10
3.460573765236521
 20
5.024707609002049
 30
0.0
 11
3.450295253124563
 21
5.034986121114006
 31
0.0
  0
LINE
  5
387
330
371
100
AcDbEntity
  8
0
 62
     0
100
AcDbLine
 10
3.563818177180197
 20
5.260874452027914
 30
0.0
 11
3.443807645535388
 21
5.380884983672723
 31
0.0
  0
LINE
  5
388
330
371
100
AcDbEntity
  8
0
 62
     0
100
AcDbLine
 10
3.826324475503864
 20
5.33777940867379
 30
0.0
 11
3.751334602823925
 21
5.412769281353729
 31
0.0
  0
LINE
  5
389
330
371
100
AcDbEntity
  8
0
 62
     0
100
AcDbLine
 10
3.5638181771802
 20
5.260874452027914
 30
0.0
 11
3.715713006506015
 21
5.412769281353729
 31
0.0
  0
LINE
  5
38A
330
371
100
AcDbEntity
  8
0
 62
     0
100
AcDbLine
 10
0.848528137423858
 20
5.260874452027914
 30
0.0
 11
0.941886010811655
 21
5.35423232541571
 31
0.0
  0
LINE
  5
38B
330
371
100
AcDbEntity
  8
0
 62
     0
100
AcDbLine
 10
0.5473537342522463
 20
5.299111303825845
 30
0.0
 11
0.6610117117801306
 21
5.412769281353729
 31
0.0
  0
LINE
  5
38C
330
371
100
AcDbEntity
  8
0
 62
     0
100
AcDbLine
 10
3.535533905932738
 20
5.289158723275376
 30
0.0
 11
3.659144464011091
 21
5.412769281353729
 31
0.0
  0
LINE
  5
38D
330
371
100
AcDbEntity
  8
0
 62
     0
100
AcDbLine
 10
3.694607161950502
 20
5.108820724323598
 30
0.0
 11
3.705239533417509
 21
5.119453095790603
 31
0.0
  0
LINE
  5
38E
330
371
100
AcDbEntity
  8
0
 62
     0
100
AcDbLine
 10
0.8202438661763958
 20
5.289158723275375
 30
0.0
 11
0.9418860108116547
 21
5.410800867910634
 31
0.0
  0
LINE
  5
38F
330
371
100
AcDbEntity
  8
0
 62
     0
100
AcDbLine
 10
0.541290632454373
 20
5.349616744522895
 30
0.0
 11
0.6044431692852069
 21
5.412769281353729
 31
0.0
  0
LINE
  5
390
330
371
100
AcDbEntity
  8
0
 62
     0
100
AcDbLine
 10
3.507249634685276
 20
5.317442994522837
 30
0.0
 11
3.602575921516167
 21
5.412769281353728
 31
0.0
  0
LINE
  5
391
330
371
100
AcDbEntity
  8
0
 62
     0
100
AcDbLine
 10
3.598467814639128
 20
5.069249919507146
 30
0.0
 11
3.676955262170047
 21
5.147737367038065
 31
0.0
  0
LINE
  5
392
330
371
100
AcDbEntity
  8
0
 62
     0
100
AcDbLine
 10
0.9144196569418287
 20
5.100491801566189
 30
0.0
 11
0.9418860108116559
 21
5.127958155436016
 31
0.0
  0
LINE
  5
393
330
371
100
AcDbEntity
  8
0
 62
     0
100
AcDbLine
 10
0.7919595949289337
 20
5.317442994522837
 30
0.0
 11
0.8872858817598247
 21
5.412769281353727
 31
0.0
  0
LINE
  5
394
330
371
100
AcDbEntity
  8
0
 62
     0
100
AcDbLine
 10
0.5352275306564998
 20
5.400122185219946
 30
0.0
 11
0.5478746267902832
 21
5.41276928135373
 31
0.0
  0
LINE
  5
395
330
371
100
AcDbEntity
  8
0
 62
     0
100
AcDbLine
 10
3.478965363437814
 20
5.345727265770299
 30
0.0
 11
3.546007379021244
 21
5.412769281353728
 31
0.0
  0
LINE
  5
396
330
371
100
AcDbEntity
  8
0
 62
     0
100
AcDbLine
 10
3.506548117852592
 20
5.033898765215534
 30
0.0
 11
3.648670990922585
 21
5.176021638285527
 31
0.0
  0
LINE
  5
397
330
371
100
AcDbEntity
  8
0
 62
     0
100
AcDbLine
 10
3.818376618407357
 20
5.345727265770299
 30
0.0
 11
3.837686428780196
 21
5.365037076143138
 31
0.0
  0
LINE
  5
398
330
371
100
AcDbEntity
  8
0
 62
     0
100
AcDbLine
 10
0.8719889658515375
 20
5.114629652970822
 30
0.0
 11
0.9333809511662437
 21
5.176021638285527
 31
0.0
  0
LINE
  5
399
330
371
100
AcDbEntity
  8
0
 62
     0
100
AcDbLine
 10
0.7636753236814715
 20
5.345727265770299
 30
0.0
 11
0.8307173392649012
 21
5.412769281353728
 31
0.0
  0
LINE
  5
39A
330
371
100
AcDbEntity
  8
0
 62
     0
100
AcDbLine
 10
3.450681092190352
 20
5.374011537017761
 30
0.0
 11
3.48943883652632
 21
5.412769281353728
 31
0.0
  0
LINE
  5
39B
330
371
100
AcDbEntity
  8
0
 62
     0
100
AcDbLine
 10
3.450681092190352
 20
5.034600282048218
 30
0.0
 11
3.620386719675123
 21
5.204305909532989
 31
0.0
  0
LINE
  5
39C
330
371
100
AcDbEntity
  8
0
 62
     0
100
AcDbLine
 10
3.790092347159895
 20
5.374011537017761
 30
0.0
 11
3.828850091495862
 21
5.412769281353728
 31
0.0
  0
LINE
  5
39D
330
371
100
AcDbEntity
  8
0
 62
     0
100
AcDbLine
 10
0.8291399126817362
 20
5.128349142295944
 30
0.0
 11
0.9050966799187817
 21
5.204305909532989
 31
0.0
  0
LINE
  5
39E
330
371
100
AcDbEntity
  8
0
 62
     0
100
AcDbLine
 10
0.7353910524340107
 20
5.374011537017761
 30
0.0
 11
0.7741487967699778
 21
5.412769281353728
 31
0.0
  0
LINE
  5
39F
330
371
100
AcDbEntity
  8
0
 62
     0
100
AcDbLine
 10
3.443807645535387
 20
5.084295377888177
 30
0.0
 11
3.592102448427662
 21
5.232590180780452
 31
0.0
  0
LINE
  5
3A0
330
371
100
AcDbEntity
  8
0
 62
     0
100
AcDbLine
 10
3.761808075912433
 20
5.402295808265223
 30
0.0
 11
3.772281549000939
 21
5.412769281353729
 31
0.0
  0
LINE
  5
3A1
330
371
100
AcDbEntity
  8
0
 62
     0
100
AcDbLine
 10
0.7796399388918937
 20
5.135417711001025
 30
0.0
 11
0.8768124086713198
 21
5.232590180780452
 31
0.0
  0
LINE
  5
3A2
330
371
100
AcDbEntity
  8
0
 62
     0
100
AcDbLine
 10
0.7071067811865483
 20
5.402295808265223
 30
0.0
 11
0.7175802542750548
 21
5.412769281353729
 31
0.0
  0
LINE
  5
3A3
330
371
100
AcDbEntity
  8
0
 62
     0
100
AcDbLine
 10
3.443807645535387
 20
5.140863920383101
 30
0.0
 11
3.5638181771802
 21
5.260874452027914
 31
0.0
  0
LINE
  5
3A4
330
371
100
AcDbEntity
  8
0
 62
     0
100
AcDbLine
 10
0.7301399651020505
 20
5.142486279706106
 30
0.0
 11
0.8485281374238574
 21
5.260874452027913
 31
0.0
  0
ENDBLK
  5
3A6
330
371
100
AcDbEntity
  8
0
100
AcDbBlockEnd
  0
BLOCK
  5
3AA
330
3A7
100
AcDbEntity
  8
0
100
AcDbBlockBegin
  2
bubble
 70
     2
 10
0.0
 20
0.0
 30
0.0
  3
bubble
  1

  0
CIRCLE
  5
2490
330
3A7
100
AcDbEntity
  8
text_bubbles
100
AcDbCircle
 10
0.0
 20
0.0
 30
0.0
 40
0.1398891854377198
  0
ATTDEF
  5
2491
330
3A7
100
AcDbEntity
  8
text_bubbles
100
AcDbText
 10
-0.0625
 20
-0.0535714285714286
 30
0.0
 40
0.125
  1

  7
ROMANS
 72
     4
 11
0.0
 21
0.0
 31
0.0
100
AcDbAttributeDefinition
  3
Number
  2
#
 70
     0
1001
AcDbAttr
1070
     0
1070
     1
  0
ENDBLK
  5
3AB
330
3A7
100
AcDbEntity
  8
0
100
AcDbBlockEnd
  0
BLOCK
  5
17CC
330
17C0
100
AcDbEntity
  8
0
100
AcDbBlockBegin
  2
titleblock
 70
     2
 10
0.0
 20
0.0
 30
0.0
  3
titleblock
  1

  0
LWPOLYLINE
  5
17C1
330
17C0
100
AcDbEntity
  8
title
100
AcDbPolyline
 90
        4
 70
     1
 43
0.0
 10
0.0
 20
0.0
 10
16.48999999999999
 20
0.0000000000000001
 10
16.48999999999999
 20
10.44
 10
0.0
 20
10.44
  0
ATTDEF
  5
17C2
330
17C0
100
AcDbEntity
  8
title
100
AcDbText
 10
0.5055556038023421
 20
0.7842270964783673
 30
0.0
 40
0.2
  1
D
  7
L200
 72
     4
 11
0.6064423705144839
 21
0.8842270964783672
 31
0.0
100
AcDbAttributeDefinition
  3
#
  2
D
 70
     0
  0
ATTDEF
  5
17C3
330
17C0
100
AcDbEntity
  8
title
100
AcDbText
 10
1.231442370514484
 20
1.34371230274675
 30
0.0
 40
0.2
  1

  7
L200
100
AcDbAttributeDefinition
  3
DETAIL TITLE TOP LINE
  2
TITLE1
 70
     0
  0
ATTDEF
  5
17C4
330
17C0
100
AcDbEntity
  8
title
100
AcDbText
 10
1.231442370514484
 20
0.9842270964783674
 30
0.0
 40
0.2
  1
TITLE
  7
L200
100
AcDbAttributeDefinition
  3
DETAIL TITLE TOP 2ND LINE
  2
TITLE2
 70
     0
  0
ATTDEF
  5
17C5
330
17C0
100
AcDbEntity
  8
title
100
AcDbText
 10
2.713645751168312
 20
0.5927927664583189
 30
0.0
 40
0.2
  1
TITLE2
  7
L200
100
AcDbAttributeDefinition
  3
DETAIL TITLE BOTTOM 1
  2
TITLE3
 70
     0
  0
ATTDEF
  5
17C6
330
17C0
100
AcDbEntity
  8
title
100
AcDbText
 10
2.713645751168312
 20
0.2692560808167741
 30
0.0
 40
0.2
  1

  7
L200
100
AcDbAttributeDefinition
  3
DETAIL TITLE BOTTOM 2
  2
TITLE4
 70
     0
  0
ATTDEF
  5
17C7
330
17C0
100
AcDbEntity
  8
title
 62
     7
100
AcDbText
 10
8.177214829966379
 20
0.9696027915446398
 30
0.0
 40
0.08
  1
-
  7
L80
 72
     2
 11
8.261024353775903
 21
0.9696027915446398
 31
0.0
100
AcDbAttributeDefinition
  3
REVISION DATE
  2
REVISED
 70
     0
  0
ATTDEF
  5
17C8
330
17C0
100
AcDbEntity
  8
title
 62
     7
100
AcDbText
 10
0.2639423705144838
 20
0.0847116480207214
 30
0.0
 40
0.08
  1
-
  7
L80
100
AcDbAttributeDefinition
  3
DWG-NAME
  2
DWG-NAME
 70
     0
  0
LWPOLYLINE
  5
17C9
330
17C0
100
AcDbEntity
  8
title
 62
     3
100
AcDbPolyline
 90
        2
 70
     1
 43
0.03
 10
0.6064423705144839
 20
0.5417270964783675
 42
0.9999999999999998
 10
0.6064423705144839
 20
1.226727096478367
 42
0.9999999999999998
  0
ATTDEF
  5
17CA
330
17C0
100
AcDbEntity
  8
title
 62
     7
100
AcDbText
 10
1.231442370514484
 20
0.7005637793954894
 30
0.0
 40
0.1
  1
N.T.S.
  7
L100
100
AcDbAttributeDefinition
  3
SCALE
  2
SCALE
 70
     0
  0
LWPOLYLINE
  5
17CB
330
17C0
100
AcDbEntity
  8
title
 62
     3
100
AcDbPolyline
 90
        2
 70
     0
 43
0.04
 39
0.03
 10
0.9489423705144833
 20
0.8842270964783672
 10
8.261024353775903
 20
0.8842270964783672
  0
ENDBLK
  5
17CD
330
17C0
100
AcDbEntity
  8
0
100
AcDbBlockEnd
  0
BLOCK
  5
199F
330
199E
100
AcDbEntity
  8
0
100
AcDbBlockBegin
  2
FlowArrow
 70
     0
 10
0.0
 20
0.0
 30
0.0
  3
FlowArrow
  1
FlowArrow
  0
SPLINE
  5
19A0
330
199E
100
AcDbEntity
  8
0
100
AcDbSpline
210
0.0
220
0.0
230
1.0
 70
     9
 71
     3
 72
    29
 73
    25
 74
     0
 42
0.000000001
 43
0.0000000001
 40
0.0
 40
0.0
 40
0.0
 40
0.0
 40
1.0
 40
1.0
 40
1.0
 40
2.0
 40
2.0
 40
2.0
 40
3.0
 40
3.0
 40
3.0
 40
4.0
 40
4.0
 40
4.0
 40
5.0
 40
5.0
 40
5.0
 40
6.0
 40
6.0
 40
6.0
 40
7.0
 40
7.0
 40
7.0
 40
8.0
 40
8.0
 40
8.0
 40
8.0
 10
-0.3512939453125
 20
-0.001006036441171
 30
0.0
 10
-0.3512939453125
 20
-0.050637156494826
 30
0.0
 10
-0.345587158203125
 20
-0.086295556766246
 30
0.0
 10
-0.334173583984375
 20
-0.107981220881144
 30
0.0
 10
-0.322760009765625
 20
-0.129666893183186
 30
0.0
 10
-0.307230658531189
 20
-0.140509725240635
 30
0.0
 10
-0.28758544921875
 20
-0.140509741614922
 30
0.0
 10
-0.267386908531189
 20
-0.140509725240635
 30
0.0
 10
-0.251753797531128
 20
-0.129890459516079
 30
0.0
 10
-0.24068603515625
 20
-0.108651903505536
 30
0.0
 10
-0.229618353843689
 20
-0.087413380243569
 30
0.0
 10
-0.22408447265625
 20
-0.049295774871754
 30
0.0
 10
-0.22408447265625
 20
0.005700888048475
 30
0.0
 10
-0.22408447265625
 20
0.051978537670164
 30
0.0
 10
-0.229860486984253
 20
0.085792521835573
 30
0.0
 10
-0.241412353515625
 20
0.10714285691899
 30
0.0
 10
-0.252964301109314
 20
0.128493159253833
 30
0.0
 10
-0.268632025718689
 20
0.139168343169829
 30
0.0
 10
-0.28841552734375
 20
0.139168343169829
 30
0.0
 10
-0.307368950843811
 20
0.139168343169829
 30
0.0
 10
-0.322587103843689
 20
0.128325486550949
 30
0.0
 10
-0.33406982421875
 20
0.106639838810338
 30
0.0
 10
-0.345552544593811
 20
0.084954158321153
 30
0.0
 10
-0.3512939453125
 20
0.049072199903983
 30
0.0
 10
-0.3512939453125
 20
-0.001006036441171
 30
0.0
  0
SPLINE
  5
19A1
330
199E
100
AcDbEntity
  8
0
100
AcDbSpline
210
0.0
220
0.0
230
1.0
 70
     9
 71
     3
 72
    35
 73
    31
 74
     0
 42
0.000000001
 43
0.0000000001
 40
0.0
 40
0.0
 40
0.0
 40
0.0
 40
1.0
 40
1.0
 40
1.0
 40
2.0
 40
2.0
 40
2.0
 40
3.0
 40
3.0
 40
3.0
 40
4.0
 40
4.0
 40
4.0
 40
5.0
 40
5.0
 40
5.0
 40
6.0
 40
6.0
 40
6.0
 40
7.0
 40
7.0
 40
7.0
 40
8.0
 40
8.0
 40
8.0
 40
9.0
 40
9.0
 40
9.0
 40
10.0
 40
10.0
 40
10.0
 40
10.0
 10
-0.1711669921875
 20
0.188296445114832
 30
0.0
 10
-0.1437744140625
 20
0.144366196959232
 30
0.0
 10
-0.130078125
 20
0.082830315000814
 30
0.0
 10
-0.130078125
 20
0.003688815613868
 30
0.0
 10
-0.130078125
 20
-0.053767052406756
 30
0.0
 10
-0.136061658859253
 20
-0.100883081917152
 30
0.0
 10
-0.148028564453125
 20
-0.137659281104463
 30
0.0
 10
-0.159995551109314
 20
-0.174435504853206
 30
0.0
 10
-0.177288818359375
 20
-0.203051647509927
 30
0.0
 10
-0.199908447265625
 20
-0.223507729542487
 30
0.0
 10
-0.222528076171875
 20
-0.243963782408348
 30
0.0
 10
-0.250716199874878
 20
-0.254191817795967
 30
0.0
 10
-0.28447265625
 20
-0.254191819842752
 30
0.0
 10
-0.318782525062561
 20
-0.254191817795967
 30
0.0
 10
-0.347178168296814
 20
-0.245361055102946
 30
0.0
 10
-0.369659423828125
 20
-0.227699516412798
 30
0.0
 10
-0.392140719890595
 20
-0.210038007401045
 30
0.0
 10
-0.410367825031281
 20
-0.182092555555859
 30
0.0
 10
-0.4243408203125
 20
-0.14386317111117
 30
0.0
 10
-0.43831381559372
 20
-0.105633803040769
 30
0.0
 10
-0.44530029296875
 20
-0.057791197275971
 30
0.0
 10
-0.44530029296875
 20
-0.000335362003922
 30
0.0
 10
-0.44530029296875
 20
0.079923977234634
 30
0.0
 10
-0.431465671062469
 20
0.142409993593202
 30
0.0
 10
-0.40379638671875
 20
0.187122736194644
 30
0.0
 10
-0.376127142906189
 20
0.231835413298936
 30
0.0
 10
-0.33759765625
 20
0.254191784599657
 30
0.0
 10
-0.2882080078125
 20
0.254191817348232
 30
0.0
 10
-0.2375732421875
 20
0.254191784599657
 30
0.0
 10
-0.1985595703125
 20
0.232226660521857
 30
0.0
 10
-0.1711669921875
 20
0.188296445114832
 30
0.0
  0
LWPOLYLINE
  5
19A2
330
199E
100
AcDbEntity
  8
0
100
AcDbPolyline
 90
       13
 70
     1
 43
0.0
 10
0.010655784606934
 20
-0.029410840264109
 10
0.05770435333252
 20
0.245808182204034
 10
0.146671867370606
 20
0.245808182204034
 10
0.19383716583252
 20
-0.029044039852263
 10
0.226018905639649
 20
0.245808182204034
 10
0.31484375
 20
0.245808182204034
 10
0.247782516479492
 20
-0.245808182204034
 10
0.155598449707031
 20
-0.245808182204034
 10
0.102239990234375
 20
0.063715626872042
 10
0.049089050292969
 20
-0.245808182204034
 10
-0.043095016479492
 20
-0.245808182204034
 10
-0.11077880859375
 20
0.245808182204034
 10
-0.021490287780762
 20
0.245808182204034
  0
LWPOLYLINE
  5
19A3
330
199E
100
AcDbEntity
  8
0
100
AcDbPolyline
 90
        6
 70
     1
 43
0.0
 10
-0.476220703125
 20
-0.245808182204034
 10
-0.716943359375
 20
-0.245808182204034
 10
-0.716943359375
 20
0.245808182204034
 10
-0.62293701171875
 20
0.245808182204034
 10
-0.62293701171875
 20
-0.124748499356685
 10
-0.476220703125
 20
-0.124748499356685
  0
LWPOLYLINE
  5
19A4
330
199E
100
AcDbEntity
  8
0
100
AcDbPolyline
 90
       10
 70
     1
 43
0.0
 10
-0.767578125
 20
0.140174379387132
 10
-0.90557861328125
 20
0.140174379387132
 10
-0.90557861328125
 20
0.054325955510539
 10
-0.78770751953125
 20
0.054325955510539
 10
-0.78770751953125
 20
-0.044936300971059
 10
-0.90557861328125
 20
-0.044936300971059
 10
-0.90557861328125
 20
-0.245808182204034
 10
-1.0
 20
-0.245808182204034
 10
-1.0
 20
0.245808182204034
 10
-0.767578125
 20
0.245808182204034
  0
LWPOLYLINE
  5
19A5
330
199E
100
AcDbEntity
  8
0
100
AcDbPolyline
 90
        9
 70
     1
 43
0.0
 10
1.0
 20
0.0
 10
0.5
 20
-0.5
 10
0.5
 20
-0.25
 10
0.366717990977431
 20
-0.25
 10
0.366717990977431
 20
0.25
 10
0.5
 20
0.25
 10
0.5
 20
0.5
 10
1.0
 20
0.0
 10
0.5
 20
0.5
  0
ENDBLK
  5
19A6
330
199E
100
AcDbEntity
  8
0
100
AcDbBlockEnd
  0
BLOCK
  5
228E
330
228D
100
AcDbEntity
  8
0
100
AcDbBlockBegin
  2
ws
 70
     0
 10
0.0
 20
0.0
 30
0.0
  3
ws
  1

  0
LINE
  5
2290
330
228D
100
AcDbEntity
  8
0
 62
     0
100
AcDbLine
 10
0.1421998552270391
 20
0.0358487029984174
 30
0.0
 11
0.1421998552270391
 21
0.0
 31
0.0
  0
LINE
  5
2291
330
228D
100
AcDbEntity
  8
0
 62
     0
100
AcDbLine
 10
0.0537730544976203
 20
0.0358487029984174
 30
0.0
 11
0.0537730544976203
 21
0.0
 31
0.0
  0
LINE
  5
2292
330
228D
100
AcDbEntity
  8
0
 62
     0
100
AcDbLine
 10
0.0633327086305275
 20
0.0358487029984174
 30
0.0
 11
0.0633327086305275
 21
0.0
 31
0.0
  0
LINE
  5
2293
330
228D
100
AcDbEntity
  8
0
 62
     0
100
AcDbLine
 10
-0.0537730544976203
 20
0.0358487029984174
 30
0.0
 11
-0.0537730544976203
 21
0.0
 31
0.0
  0
LINE
  5
2294
330
228D
100
AcDbEntity
  8
0
 62
     0
100
AcDbLine
 10
-0.0633327086305275
 20
0.0358487029984174
 30
0.0
 11
-0.0633327086305275
 21
0.0
 31
0.0
  0
LINE
  5
2295
330
228D
100
AcDbEntity
  8
0
 62
     0
100
AcDbLine
 10
-0.1326402010941319
 20
0.0358487029984174
 30
0.0
 11
-0.1326402010941319
 21
0.0
 31
0.0
  0
LINE
  5
2296
330
228D
100
AcDbEntity
  8
0
 62
     0
100
AcDbLine
 10
-0.0701439622002287
 20
-0.0812570601297313
 30
0.0
 11
0.0701439622002216
 21
-0.0812570601297313
 31
0.0
  0
LINE
  5
2297
330
228D
100
AcDbEntity
  8
0
 62
     0
100
AcDbLine
 10
-0.1732687311589967
 20
0.0
 30
0.0
 11
0.1732687311589967
 21
0.0
 31
0.0
  0
LINE
  5
2298
330
228D
100
AcDbEntity
  8
0
 62
     0
100
AcDbLine
 10
-0.1732687311589967
 20
-0.0107546108995242
 30
0.0
 11
0.1732687311589967
 21
-0.0107546108995242
 31
0.0
  0
LINE
  5
2299
330
228D
100
AcDbEntity
  8
0
 62
     0
100
AcDbLine
 10
-0.1347911232740309
 20
-0.0215092217990476
 30
0.0
 11
-0.1347911232740309
 21
-0.0107546108995242
 31
0.0
  0
LINE
  5
229A
330
228D
100
AcDbEntity
  8
0
 62
     0
100
AcDbLine
 10
-0.1732687311589967
 20
-0.0215092217990476
 30
0.0
 11
-0.1732687311589967
 21
0.0
 31
0.0
  0
LINE
  5
229B
330
228D
100
AcDbEntity
  8
0
 62
     0
100
AcDbLine
 10
-0.1732687311589967
 20
-0.0215092217990476
 30
0.0
 11
-0.1347911232740309
 21
-0.0215092217990476
 31
0.0
  0
LINE
  5
229C
330
228D
100
AcDbEntity
  8
0
 62
     0
100
AcDbLine
 10
-0.0701439622002287
 20
-0.0812570601297313
 30
0.0
 11
-0.1347911232740309
 21
-0.0215092217990476
 31
0.0
  0
LINE
  5
229D
330
228D
100
AcDbEntity
  8
0
 62
     0
100
AcDbLine
 10
-0.0701439622002287
 20
-0.0812570601297313
 30
0.0
 11
-0.0701439622002287
 21
-0.5034352857743869
 31
0.0
  0
LINE
  5
229E
330
228D
100
AcDbEntity
  8
0
 62
     0
100
AcDbLine
 10
0.1732687311589967
 20
0.0
 30
0.0
 11
0.1732687311589967
 21
-0.0215092217990476
 31
0.0
  0
LINE
  5
229F
330
228D
100
AcDbEntity
  8
0
 62
     0
100
AcDbLine
 10
0.0701439622002216
 20
-0.0812570601297313
 30
0.0
 11
0.1347911232740291
 21
-0.0215092217990476
 31
0.0
  0
LINE
  5
22A0
330
228D
100
AcDbEntity
  8
0
 62
     0
100
AcDbLine
 10
0.1347911232740291
 20
-0.0215092217990476
 30
0.0
 11
0.1347911232740291
 21
-0.0107546108995242
 31
0.0
  0
LINE
  5
22A1
330
228D
100
AcDbEntity
  8
0
 62
     0
100
AcDbLine
 10
0.1347911232740291
 20
-0.0215092217990476
 30
0.0
 11
0.1732687311589967
 21
-0.0215092217990476
 31
0.0
  0
LINE
  5
22A2
330
228D
100
AcDbEntity
  8
0
 62
     0
100
AcDbLine
 10
0.0701439622002216
 20
-0.0812570601297331
 30
0.0
 11
0.0701439622002216
 21
-0.5034352857743745
 31
0.0
  0
LINE
  5
22A3
330
228D
100
AcDbEntity
  8
0
 62
     0
100
AcDbLine
 10
0.0537730544976203
 20
0.0358487029984174
 30
0.0
 11
0.1421998552270391
 21
0.0358487029984174
 31
0.0
  0
LINE
  5
22A4
330
228D
100
AcDbEntity
  8
0
 62
     0
100
AcDbLine
 10
-0.1326402010941319
 20
0.0358487029984174
 30
0.0
 11
-0.0537730544976203
 21
0.0358487029984174
 31
0.0
  0
ARC
  5
22A5
330
228D
100
AcDbEntity
  8
0
 62
     0
100
AcDbCircle
 10
-0.0000000000000018
 20
-0.5034352857743745
 30
0.0
 40
0.070143962200227
100
AcDbArc
 50
180.0
 51
0.0
  0
ENDBLK
  5
228F
330
228D
100
AcDbEntity
  8
0
100
AcDbBlockEnd
  0
ENDSEC
  0
SECTION
  2
ENTITIES
  0
LWPOLYLINE
  5
B99
330
18
100
AcDbEntity
  8
image
100
AcDbPolyline
 90
       16
 70
     1
 43
0.0
 10
6.849335877061026
 20
5.682204838749649
 42
0.0846731520301792
 10
6.843942532294091
 20
5.713824524701349
 42
0.0916544813065032
 10
6.829182807088477
 20
5.739562024729254
 42
0.1036340346640379
 10
6.806274500833385
 20
5.757370011115122
 42
0.1140536254072521
 10
6.780528992237298
 20
5.763320149061575
 42
0.1140536254072534
 10
6.754783483641217
 20
5.757370011115122
 42
0.1036340346640368
 10
6.731875177386122
 20
5.739562024729254
 42
0.0916544813065076
 10
6.717115452180509
 20
5.713824524701349
 42
0.0846731520301862
 10
6.711722107413573
 20
5.682204838749649
 42
0.0846731520301835
 10
6.717115452180509
 20
5.65058515279793
 42
0.091654481306508
 10
6.731875177386122
 20
5.62484765277003
 42
0.103634034664036
 10
6.754783483641217
 20
5.607039666384162
 42
0.1140536254072547
 10
6.780528992237298
 20
5.601089528437713
 42
0.1140536254072534
 10
6.806274500833385
 20
5.607039666384162
 42
0.1036340346640367
 10
6.829182807088477
 20
5.62484765277003
 42
0.0916544813065066
 10
6.843942532294091
 20
5.65058515279793
 42
0.0846731520301858
  0
LWPOLYLINE
  5
B9A
330
18
100
AcDbEntity
  8
image
100
AcDbPolyline
 90
       16
 70
     1
 43
0.0
 10
6.902421428887135
 20
5.620456526046551
 42
0.1833035428166229
 10
6.896906407076622
 20
5.611008723807399
 42
0.1024612315138192
 10
6.897641284003865
 20
5.59188915666229
 42
0.0615734602679465
 10
6.905076403877803
 20
5.572467738777337
 42
0.0478438451985803
 10
6.919815929286697
 20
5.550176450959105
 42
0.0478438451985776
 10
6.938523592031966
 20
5.531092990149202
 42
0.061573460267943
 10
6.955955758269759
 20
5.519753146214648
 42
0.1024612315138217
 10
6.974496826935173
 20
5.51502803619916
 42
0.1833035428166229
 10
6.984890549276624
 20
5.518440801736018
 42
0.1833035428166234
 10
6.990405571087149
 20
5.527888603975169
 42
0.102461231513819
 10
6.989670694159904
 20
5.547008171120262
 42
0.0615734602679484
 10
6.982235574285967
 20
5.566429589005227
 42
0.0478438451985819
 10
6.967496048877075
 20
5.588720876823456
 42
0.0478438451985799
 10
6.9487883861318
 20
5.607804337633362
 42
0.0615734602679431
 10
6.931356219894006
 20
5.6191441815679
 42
0.1024612315138189
 10
6.912815151228587
 20
5.623869291583405
 42
0.183303542816622
  0
LWPOLYLINE
  5
B9D
330
18
100
AcDbEntity
  8
image
100
AcDbPolyline
 90
        2
 70
     0
 43
0.0
 10
6.742174183034695
 20
5.136446942478565
 10
7.521768561947789
 20
5.484718952331697
  0
LWPOLYLINE
  5
B9E
330
18
100
AcDbEntity
  8
image
100
AcDbPolyline
 90
        2
 70
     0
 43
0.0
 10
6.742174183034695
 20
5.484718952331695
 10
7.521768561947789
 20
5.136446942478565
  0
LWPOLYLINE
  5
BA1
330
18
100
AcDbEntity
  8
image
100
AcDbPolyline
 90
       16
 70
     1
 43
0.0
 10
5.519616548374161
 20
5.495878244159129
 42
0.0708989349029243
 10
5.49998892757655
 20
5.477683673172066
 42
0.0824870853856804
 10
5.488596560351696
 20
5.457652303214567
 42
0.1068139206260733
 10
5.48553244597682
 20
5.43585914891546
 42
0.1340008839894652
 10
5.491413039420505
 20
5.4192111974885
 42
0.1340008839894659
 10
5.504935128258511
 20
5.407858278065694
 42
0.106813920626075
 10
5.526416130340214
 20
5.403073205362661
 42
0.0824870853856831
 10
5.549172552739337
 20
5.406704603571666
 42
0.0708989349029243
 10
5.573101497175038
 20
5.418691743754862
 42
0.0708989349029259
 10
5.592729117972655
 20
5.436886314741942
 42
0.0824870853856834
 10
5.604121485197504
 20
5.456917684699428
 42
0.1068139206260768
 10
5.607185599572382
 20
5.478710838998541
 42
0.1340008839894672
 10
5.601305006128702
 20
5.4953587904255
 42
0.1340008839894638
 10
5.587782917290693
 20
5.506711709848316
 42
0.1068139206260751
 10
5.56630191520899
 20
5.511496782551349
 42
0.082487085385683
 10
5.543545492809867
 20
5.507865384342331
 42
0.0708989349029251
  0
LWPOLYLINE
  5
BA2
330
18
100
AcDbEntity
  8
image
100
AcDbPolyline
 90
       16
 70
     1
 43
0.0
 10
5.851030907103009
 20
5.536474692311523
 42
0.0708989349029243
 10
5.831403286305397
 20
5.518280121324441
 42
0.0824870853856804
 10
5.820010919080546
 20
5.498248751366958
 42
0.1068139206260733
 10
5.816946804705674
 20
5.47645559706784
 42
0.1340008839894652
 10
5.822827398149348
 20
5.459807645640891
 42
0.1340008839894659
 10
5.836349486987357
 20
5.448454726218065
 42
0.106813920626075
 10
5.857830489069057
 20
5.443669653515032
 42
0.0824870853856831
 10
5.880586911468185
 20
5.447301051724055
 42
0.0708989349029243
 10
5.904515855903886
 20
5.459288191907251
 42
0.0708989349029259
 10
5.9241434767015
 20
5.477482762894336
 42
0.0824870853856834
 10
5.93553584392635
 20
5.497514132851819
 42
0.1068139206260768
 10
5.93859995830123
 20
5.519307287150931
 42
0.1340008839894672
 10
5.932719364857549
 20
5.535955238577889
 42
0.1340008839894638
 10
5.919197276019538
 20
5.547308158000692
 42
0.1068139206260751
 10
5.897716273937838
 20
5.552093230703741
 42
0.082487085385683
 10
5.874959851538713
 20
5.548461832494719
 42
0.0708989349029251
  0
LWPOLYLINE
  5
BA3
330
18
100
AcDbEntity
  8
image
100
AcDbPolyline
 90
       16
 70
     1
 43
0.0
 10
6.018171372105749
 20
5.517178067210437
 42
0.0708989349029243
 10
5.998543751308137
 20
5.498983496223374
 42
0.0824870853856804
 10
5.987151384083279
 20
5.478952126265875
 42
0.1068139206260733
 10
5.98408726970841
 20
5.457158971966768
 42
0.1340008839894652
 10
5.989967863152084
 20
5.440511020539814
 42
0.1340008839894659
 10
6.003489951990097
 20
5.429158101117007
 42
0.106813920626075
 10
6.024970954071791
 20
5.424373028413974
 42
0.0824870853856831
 10
6.047727376470922
 20
5.428004426622978
 42
0.0708989349029243
 10
6.071656320906626
 20
5.439991566806172
 42
0.0708989349029259
 10
6.091283941704235
 20
5.458186137793253
 42
0.0824870853856834
 10
6.102676308929092
 20
5.478217507750743
 42
0.1068139206260768
 10
6.105740423303965
 20
5.500010662049865
 42
0.1340008839894672
 10
6.099859829860285
 20
5.516658613476808
 42
0.1340008839894638
 10
6.086337741022273
 20
5.528011532899629
 42
0.1068139206260751
 10
6.064856738940573
 20
5.532796605602678
 42
0.082487085385683
 10
6.04210031654145
 20
5.52916520739364
 42
0.0708989349029251
  0
LWPOLYLINE
  5
BA4
330
18
100
AcDbEntity
  8
image
100
AcDbPolyline
 90
       16
 70
     1
 43
0.0
 10
6.14519812550783
 20
5.488233129558846
 42
0.0708989349029243
 10
6.125570504710218
 20
5.470038558571781
 42
0.0824870853856804
 10
6.11417813748536
 20
5.450007188614282
 42
0.1068139206260733
 10
6.11111402311049
 20
5.428214034315173
 42
0.1340008839894652
 10
6.116994616554165
 20
5.411566082888215
 42
0.1340008839894659
 10
6.130516705392178
 20
5.40021316346541
 42
0.106813920626075
 10
6.151997707473876
 20
5.395428090762377
 42
0.0824870853856831
 10
6.174754129873006
 20
5.39905948897138
 42
0.0708989349029243
 10
6.198683074308707
 20
5.411046629154581
 42
0.0708989349029259
 10
6.218310695106319
 20
5.42924120014166
 42
0.0824870853856834
 10
6.229703062331171
 20
5.449272570099147
 42
0.1068139206260768
 10
6.232767176706046
 20
5.471065724398259
 42
0.1340008839894672
 10
6.226886583262368
 20
5.487713675825213
 42
0.1340008839894638
 10
6.213364494424354
 20
5.499066595248034
 42
0.1068139206260751
 10
6.191883492342659
 20
5.503851667951067
 42
0.082487085385683
 10
6.169127069943531
 20
5.500220269742049
 42
0.0708989349029251
  0
LWPOLYLINE
  5
BA5
330
18
100
AcDbEntity
  8
image
100
AcDbPolyline
 90
       16
 70
     1
 43
0.0
 10
5.059897790033165
 20
5.640150987259383
 42
0.0846731520301792
 10
5.054504445266227
 20
5.671770673211083
 42
0.0916544813065032
 10
5.039744720060619
 20
5.697508173238986
 42
0.1036340346640379
 10
5.016836413805529
 20
5.715316159624853
 42
0.1140536254072521
 10
4.991090905209437
 20
5.721266297571302
 42
0.1140536254072534
 10
4.965345396613351
 20
5.715316159624853
 42
0.1036340346640368
 10
4.942437090358261
 20
5.697508173238986
 42
0.0916544813065076
 10
4.92767736515265
 20
5.671770673211083
 42
0.0846731520301862
 10
4.922284020385712
 20
5.640150987259383
 42
0.0846731520301835
 10
4.92767736515265
 20
5.608531301307662
 42
0.091654481306508
 10
4.942437090358261
 20
5.582793801279761
 42
0.103634034664036
 10
4.965345396613351
 20
5.564985814893907
 42
0.1140536254072547
 10
4.991090905209437
 20
5.559035676947457
 42
0.1140536254072534
 10
5.016836413805529
 20
5.564985814893907
 42
0.1036340346640367
 10
5.039744720060619
 20
5.582793801279761
 42
0.0916544813065066
 10
5.054504445266227
 20
5.608531301307662
 42
0.0846731520301858
  0
LWPOLYLINE
  5
BA6
330
18
100
AcDbEntity
  8
image
100
AcDbPolyline
 90
       16
 70
     1
 43
0.0
 10
5.122977583227177
 20
5.576252318358374
 42
0.1615511064879552
 10
5.109726575061971
 20
5.558620945056269
 42
0.1061532262602322
 10
5.106007943376628
 20
5.525749878630511
 42
0.0703450477663066
 10
5.114421172849592
 20
5.491269504536179
 42
0.0566056099584688
 10
5.135254414352532
 20
5.452480018557718
 42
0.0566056099584683
 10
5.164255864981795
 20
5.419350514556118
 42
0.0703450477663069
 10
5.193584810108751
 20
5.399363228457476
 42
0.1061532262602343
 10
5.225667859651247
 20
5.391300154500726
 42
0.1615511064879549
 10
5.246829975909882
 20
5.397514603580782
 42
0.1615511064879543
 10
5.260080984075093
 20
5.415145976882882
 42
0.106153226260232
 10
5.263799615760431
 20
5.44801704330865
 42
0.0703450477663075
 10
5.255386386287472
 20
5.482497417402971
 42
0.0566056099584687
 10
5.234553144784529
 20
5.521286903381451
 42
0.05660560995847
 10
5.205551694155269
 20
5.554416407383039
 42
0.0703450477663058
 10
5.17622274902831
 20
5.574403693481677
 42
0.1061532262602316
 10
5.144139699485817
 20
5.582466767438425
 42
0.1615511064879538
  0
LWPOLYLINE
  5
BA7
330
18
100
AcDbEntity
  8
image
100
AcDbPolyline
 90
       16
 70
     1
 43
0.0
 10
4.987229399281803
 20
5.532766524312775
 42
0.1833035428166229
 10
4.981714377471286
 20
5.523318722073618
 42
0.1024612315138192
 10
4.982449254398527
 20
5.504199154928508
 42
0.0615734602679465
 10
4.989884374272465
 20
5.484777737043561
 42
0.0478438451985803
 10
5.004623899681361
 20
5.462486449225334
 42
0.0478438451985776
 10
5.023331562426623
 20
5.44340298841543
 42
0.061573460267943
 10
5.040763728664424
 20
5.432063144480888
 42
0.1024612315138217
 10
5.059304797329842
 20
5.427338034465385
 42
0.1833035428166229
 10
5.069698519671289
 20
5.430750800002236
 42
0.1833035428166234
 10
5.075213541481808
 20
5.440198602241393
 42
0.102461231513819
 10
5.074478664554561
 20
5.459318169386486
 42
0.0615734602679484
 10
5.067043544680629
 20
5.47873958727146
 42
0.0478438451985819
 10
5.052304019271733
 20
5.50103087508968
 42
0.0478438451985799
 10
5.03359635652646
 20
5.520114335899572
 42
0.0615734602679431
 10
5.016164190288668
 20
5.531454179834126
 42
0.1024612315138189
 10
4.997623121623249
 20
5.536179289849632
 42
0.183303542816622
  0
LWPOLYLINE
  5
BA8
330
18
100
AcDbEntity
  8
image
100
AcDbPolyline
 90
       16
 70
     1
 43
0.0
 10
5.668488642172686
 20
5.71875721476637
 42
0.1833035428166229
 10
5.662973620362169
 20
5.709309412527213
 42
0.1024612315138192
 10
5.663708497289411
 20
5.69018984538212
 42
0.0615734602679465
 10
5.671143617163343
 20
5.670768427497167
 42
0.0478438451985803
 10
5.685883142572242
 20
5.648477139678943
 42
0.0478438451985776
 10
5.704590805317511
 20
5.629393678869019
 42
0.061573460267943
 10
5.722022971555304
 20
5.618053834934478
 42
0.1024612315138217
 10
5.740564040220723
 20
5.613328724918975
 42
0.1833035428166229
 10
5.750957762562169
 20
5.616741490455847
 42
0.1833035428166234
 10
5.756472784372686
 20
5.626189292694988
 42
0.102461231513819
 10
5.75573790744545
 20
5.645308859840097
 42
0.0615734602679484
 10
5.748302787571512
 20
5.66473027772505
 42
0.0478438451985819
 10
5.733563262162622
 20
5.68702156554327
 42
0.0478438451985799
 10
5.714855599417342
 20
5.706105026353178
 42
0.0615734602679431
 10
5.697423433179551
 20
5.717444870287737
 42
0.1024612315138189
 10
5.678882364514135
 20
5.722169980303222
 42
0.183303542816622
  0
LWPOLYLINE
  5
BA9
330
18
100
AcDbEntity
  8
image
100
AcDbPolyline
 90
       16
 70
     1
 43
0.0
 10
5.61664044443099
 20
5.597873044905831
 42
0.1615511064879552
 10
5.60338943626578
 20
5.580241671603712
 42
0.1061532262602322
 10
5.599670804580442
 20
5.547370605177947
 42
0.0703450477663066
 10
5.608084034053403
 20
5.512890231083636
 42
0.0566056099584688
 10
5.628917275556341
 20
5.474100745105163
 42
0.0566056099584683
 10
5.657918726185604
 20
5.440971241103554
 42
0.0703450477663069
 10
5.687247671312563
 20
5.420983955004915
 42
0.1061532262602343
 10
5.719330720855056
 20
5.412920881048171
 42
0.1615511064879549
 10
5.740492837113697
 20
5.419135330128218
 42
0.1615511064879543
 10
5.753743845278904
 20
5.436766703430327
 42
0.106153226260232
 10
5.757462476964244
 20
5.469637769856104
 42
0.0703450477663075
 10
5.74904924749128
 20
5.504118143950414
 42
0.0566056099584687
 10
5.728216005988345
 20
5.542907629928896
 42
0.05660560995847
 10
5.699214555359084
 20
5.576037133930475
 42
0.0703450477663058
 10
5.669885610232123
 20
5.596024420029134
 42
0.1061532262602316
 10
5.637802560689626
 20
5.604087493985884
 42
0.1615511064879538
  0
LWPOLYLINE
  5
BAA
330
18
100
AcDbEntity
  8
image
100
AcDbPolyline
 90
       16
 70
     1
 43
0.0
 10
5.213069941112312
 20
5.683658898289428
 42
0.1833035428166229
 10
5.207554919301793
 20
5.67421109605028
 42
0.1024612315138192
 10
5.208289796229033
 20
5.655091528905161
 42
0.0615734602679465
 10
5.215724916102972
 20
5.635670111020212
 42
0.0478438451985803
 10
5.230464441511864
 20
5.61337882320199
 42
0.0478438451985776
 10
5.249172104257137
 20
5.594295362392077
 42
0.061573460267943
 10
5.26660427049493
 20
5.582955518457522
 42
0.1024612315138217
 10
5.285145339160346
 20
5.578230408442035
 42
0.1833035428166229
 10
5.295539061501795
 20
5.581643173978898
 42
0.1833035428166234
 10
5.301054083312314
 20
5.591090976218046
 42
0.102461231513819
 10
5.30031920638507
 20
5.610210543363139
 42
0.0615734602679484
 10
5.292884086511142
 20
5.629631961248108
 42
0.0478438451985819
 10
5.278144561102243
 20
5.651923249066335
 42
0.0478438451985799
 10
5.25943689835697
 20
5.671006709876243
 42
0.0615734602679431
 10
5.242004732119177
 20
5.682346553810781
 42
0.1024612315138189
 10
5.223463663453761
 20
5.68707166382628
 42
0.183303542816622
  0
LWPOLYLINE
  5
BAB
330
18
100
AcDbEntity
  8
image
100
AcDbPolyline
 90
       16
 70
     1
 43
0.0
 10
5.448944595069837
 20
5.509623023977368
 42
0.0846731520301792
 10
5.443551250302899
 20
5.54124270992909
 42
0.0916544813065032
 10
5.428791525097294
 20
5.566980209956993
 42
0.1036340346640379
 10
5.405883218842198
 20
5.584788196342838
 42
0.1140536254072521
 10
5.380137710246112
 20
5.590738334289293
 42
0.1140536254072534
 10
5.35439220165002
 20
5.584788196342838
 42
0.1036340346640368
 10
5.33148389539493
 20
5.566980209956993
 42
0.0916544813065076
 10
5.316724170189322
 20
5.54124270992909
 42
0.0846731520301862
 10
5.311330825422382
 20
5.509623023977368
 42
0.0846731520301835
 10
5.316724170189322
 20
5.478003338025668
 42
0.091654481306508
 10
5.33148389539493
 20
5.452265837997767
 42
0.103634034664036
 10
5.35439220165002
 20
5.434457851611901
 42
0.1140536254072547
 10
5.380137710246112
 20
5.428507713665448
 42
0.1140536254072534
 10
5.405883218842198
 20
5.434457851611901
 42
0.1036340346640367
 10
5.428791525097294
 20
5.452265837997767
 42
0.0916544813065066
 10
5.443551250302899
 20
5.478003338025668
 42
0.0846731520301858
  0
LWPOLYLINE
  5
BAC
330
18
100
AcDbEntity
  8
image
100
AcDbPolyline
 90
       16
 70
     1
 43
0.0
 10
5.478026999010429
 20
5.663784150465536
 42
0.1833035428166229
 10
5.472511977199909
 20
5.654336348226379
 42
0.1024612315138192
 10
5.47324685412715
 20
5.63521678108127
 42
0.0615734602679465
 10
5.480681974001088
 20
5.615795363196317
 42
0.0478438451985803
 10
5.49542149940998
 20
5.59350407537809
 42
0.0478438451985776
 10
5.514129162155256
 20
5.574420614568182
 42
0.061573460267943
 10
5.531561328393049
 20
5.563080770633648
 42
0.1024612315138217
 10
5.550102397058468
 20
5.55835566061814
 42
0.1833035428166229
 10
5.560496119399914
 20
5.561768426154998
 42
0.1833035428166234
 10
5.566011141210431
 20
5.571216228394154
 42
0.102461231513819
 10
5.565276264283184
 20
5.590335795539248
 42
0.0615734602679484
 10
5.557841144409252
 20
5.609757213424217
 42
0.0478438451985819
 10
5.543101619000358
 20
5.632048501242437
 42
0.0478438451985799
 10
5.524393956255083
 20
5.651131962052343
 42
0.0615734602679431
 10
5.506961790017294
 20
5.662471805986887
 42
0.1024612315138189
 10
5.488420721351872
 20
5.667196916002385
 42
0.183303542816622
  0
LWPOLYLINE
  5
BAD
330
18
100
AcDbEntity
  8
image
100
AcDbPolyline
 90
       16
 70
     1
 43
0.0
 10
6.055988307963245
 20
5.765262704066556
 42
0.1096021439183502
 10
6.023476534623378
 20
5.759719369479414
 42
0.1024204874116924
 10
5.994220105960787
 20
5.740073715988897
 42
0.0936695383243779
 10
5.974336519043596
 20
5.71028256421871
 42
0.0882994724157594
 10
5.965845632781654
 20
5.673285763375774
 42
0.088299472415759
 10
5.970641671361716
 20
5.635631328895053
 42
0.0936695383243768
 10
5.987486269988984
 20
5.604022323064866
 42
0.1024204874116938
 10
6.014659745116102
 20
5.581583682984081
 42
0.1096021439183517
 10
6.04646522580513
 20
5.572856979013636
 42
0.109602143918351
 10
6.078976999144988
 20
5.578400313600798
 42
0.1024204874116929
 10
6.108233427807588
 20
5.598045967091309
 42
0.0936695383243769
 10
6.128117014724773
 20
5.627837118861481
 42
0.0882994724157586
 10
6.136607900986717
 20
5.664833919704419
 42
0.0882994724157589
 10
6.131811862406651
 20
5.702488354185161
 42
0.0936695383243761
 10
6.114967263779378
 20
5.734097360015342
 42
0.102420487411692
 10
6.087793788652268
 20
5.756536000096128
 42
0.1096021439183503
  0
LWPOLYLINE
  5
BAE
330
18
100
AcDbEntity
  8
image
100
AcDbPolyline
 90
       16
 70
     1
 43
0.0
 10
6.200269336692477
 20
5.681715791058394
 42
0.1615511064879552
 10
6.187018328527271
 20
5.664084417756271
 42
0.1061532262602322
 10
6.183299696841926
 20
5.63121335133049
 42
0.0703450477663066
 10
6.191712926314894
 20
5.596732977236195
 42
0.0566056099584688
 10
6.212546167817828
 20
5.557943491257717
 42
0.0566056099584683
 10
6.241547618447087
 20
5.524813987256113
 42
0.0703450477663069
 10
6.27087656357405
 20
5.504826701157474
 42
0.1061532262602343
 10
6.302959613116543
 20
5.496763627200708
 42
0.1615511064879549
 10
6.324121729375184
 20
5.502978076280783
 42
0.1615511064879543
 10
6.337372737540391
 20
5.520609449582886
 42
0.106153226260232
 10
6.341091369225731
 20
5.553480516008646
 42
0.0703450477663075
 10
6.332678139752774
 20
5.587960890102973
 42
0.0566056099584687
 10
6.311844898249828
 20
5.626750376081435
 42
0.05660560995847
 10
6.282843447620566
 20
5.659879880083039
 42
0.0703450477663058
 10
6.253514502493612
 20
5.679867166181677
 42
0.1061532262602316
 10
6.221431452951113
 20
5.687930240138427
 42
0.1615511064879538
  0
LWPOLYLINE
  5
BAF
330
18
100
AcDbEntity
  8
image
100
AcDbPolyline
 90
       16
 70
     1
 43
0.0
 10
5.952503964916564
 20
5.638947141476524
 42
0.0846731520301792
 10
5.947110620149627
 20
5.670566827428226
 42
0.0916544813065032
 10
5.932350894944015
 20
5.696304327456147
 42
0.1036340346640379
 10
5.909442588688925
 20
5.714112313841996
 42
0.1140536254072521
 10
5.883697080092835
 20
5.720062451788445
 42
0.1140536254072534
 10
5.857951571496746
 20
5.714112313841996
 42
0.1036340346640368
 10
5.83504326524166
 20
5.696304327456147
 42
0.0916544813065076
 10
5.820283540036051
 20
5.670566827428226
 42
0.0846731520301862
 10
5.814890195269116
 20
5.638947141476524
 42
0.0846731520301835
 10
5.820283540036051
 20
5.607327455524808
 42
0.091654481306508
 10
5.83504326524166
 20
5.581589955496903
 42
0.103634034664036
 10
5.857951571496746
 20
5.563781969111055
 42
0.1140536254072547
 10
5.883697080092835
 20
5.5578318311646
 42
0.1140536254072534
 10
5.909442588688925
 20
5.563781969111055
 42
0.1036340346640367
 10
5.932350894944015
 20
5.581589955496903
 42
0.0916544813065066
 10
5.947110620149627
 20
5.607327455524808
 42
0.0846731520301858
  0
LWPOLYLINE
  5
BB1
330
18
100
AcDbEntity
  8
image
100
AcDbPolyline
 90
        2
 70
     0
 43
0.0
 10
2.265954248081371
 20
5.484718952331695
 10
3.045548626994465
 20
5.136446942478565
  0
LWPOLYLINE
  5
BB2
330
18
100
AcDbEntity
  8
image
100
AcDbPolyline
 90
        2
 70
     0
 43
0.0
 10
2.265954248081371
 20
5.136446942478565
 10
3.045548626994465
 20
5.484718952331697
  0
LWPOLYLINE
  5
BBB
330
18
100
AcDbEntity
  8
image
100
AcDbPolyline
 90
       16
 70
     1
 43
0.0
 10
3.619381166566299
 20
5.477970668401216
 42
0.0708989349029243
 10
3.599753545768683
 20
5.459776097414156
 42
0.0824870853856804
 10
3.588361178543829
 20
5.439744727456657
 42
0.1068139206260733
 10
3.585297064168955
 20
5.417951573157544
 42
0.1340008839894652
 10
3.591177657612634
 20
5.40130362173059
 42
0.1340008839894659
 10
3.60469974645065
 20
5.389950702307785
 42
0.106813920626075
 10
3.626180748532346
 20
5.385165629604752
 42
0.0824870853856831
 10
3.648937170931469
 20
5.388797027813755
 42
0.0708989349029243
 10
3.672866115367172
 20
5.400784167996956
 42
0.0708989349029259
 10
3.692493736164783
 20
5.41897873898403
 42
0.0824870853856834
 10
3.70388610338964
 20
5.439010108941522
 42
0.1068139206260768
 10
3.706950217764514
 20
5.460803263240631
 42
0.1340008839894672
 10
3.701069624320838
 20
5.477451214667585
 42
0.1340008839894638
 10
3.687547535482822
 20
5.488804134090408
 42
0.1068139206260751
 10
3.666066533401128
 20
5.493589206793442
 42
0.082487085385683
 10
3.643310111002005
 20
5.489957808584419
 42
0.0708989349029251
  0
LWPOLYLINE
  5
BBC
330
18
100
AcDbEntity
  8
image
100
AcDbPolyline
 90
       16
 70
     1
 43
0.0
 10
3.824185617753311
 20
5.536411776285181
 42
0.0708989349029243
 10
3.804557996955702
 20
5.518217205298116
 42
0.0824870853856804
 10
3.793165629730848
 20
5.498185835340617
 42
0.1068139206260733
 10
3.790101515355976
 20
5.476392681041508
 42
0.1340008839894652
 10
3.795982108799652
 20
5.45974472961455
 42
0.1340008839894659
 10
3.809504197637664
 20
5.448391810191745
 42
0.106813920626075
 10
3.830985199719362
 20
5.443606737488712
 42
0.0824870853856831
 10
3.853741622118489
 20
5.447238135697714
 42
0.0708989349029243
 10
3.877670566554193
 20
5.45922527588091
 42
0.0708989349029259
 10
3.8972981873518
 20
5.47741984686799
 42
0.0824870853856834
 10
3.908690554576658
 20
5.497451216825478
 42
0.1068139206260768
 10
3.911754668951532
 20
5.519244371124591
 42
0.1340008839894672
 10
3.905874075507851
 20
5.535892322551548
 42
0.1340008839894638
 10
3.89235198666984
 20
5.547245241974367
 42
0.1068139206260751
 10
3.87087098458814
 20
5.5520303146774
 42
0.082487085385683
 10
3.848114562189017
 20
5.548398916468379
 42
0.0708989349029251
  0
LWPOLYLINE
  5
BBD
330
18
100
AcDbEntity
  8
image
100
AcDbPolyline
 90
       16
 70
     1
 43
0.0
 10
4.186464818898135
 20
5.54156848444005
 42
0.0708989349029243
 10
4.166837198100525
 20
5.523373913452985
 42
0.0824870853856804
 10
4.155444830875675
 20
5.503342543495497
 42
0.1068139206260733
 10
4.152380716500799
 20
5.481549389196377
 42
0.1340008839894652
 10
4.158261309944476
 20
5.46490143776942
 42
0.1340008839894659
 10
4.171783398782489
 20
5.453548518346615
 42
0.106813920626075
 10
4.193264400864187
 20
5.448763445643582
 42
0.0824870853856831
 10
4.216020823263315
 20
5.452394843852584
 42
0.0708989349029243
 10
4.239949767699016
 20
5.464381984035801
 42
0.0708989349029259
 10
4.259577388496632
 20
5.482576555022859
 42
0.0824870853856834
 10
4.27096975572148
 20
5.502607924980347
 42
0.1068139206260768
 10
4.274033870096355
 20
5.52440107927946
 42
0.1340008839894672
 10
4.268153276652677
 20
5.541049030706417
 42
0.1340008839894638
 10
4.254631187814664
 20
5.552401950129237
 42
0.1068139206260751
 10
4.233150185732968
 20
5.55718702283227
 42
0.082487085385683
 10
4.210393763333842
 20
5.553555624623248
 42
0.0708989349029251
  0
LWPOLYLINE
  5
BBE
330
18
100
AcDbEntity
  8
image
100
AcDbPolyline
 90
       16
 70
     1
 43
0.0
 10
4.654458120905804
 20
5.522271859338987
 42
0.0708989349029243
 10
4.634830500108195
 20
5.504077288351924
 42
0.0824870853856804
 10
4.623438132883338
 20
5.484045918394425
 42
0.1068139206260733
 10
4.620374018508469
 20
5.462252764095312
 42
0.1340008839894652
 10
4.626254611952139
 20
5.445604812668353
 42
0.1340008839894659
 10
4.639776700790157
 20
5.434251893245551
 42
0.106813920626075
 10
4.661257702871852
 20
5.429466820542513
 42
0.0824870853856831
 10
4.68401412527098
 20
5.433098218751522
 42
0.0708989349029243
 10
4.707943069706685
 20
5.445085358934717
 42
0.0708989349029259
 10
4.727570690504292
 20
5.463279929921798
 42
0.0824870853856834
 10
4.738963057729149
 20
5.483311299879286
 42
0.1068139206260768
 10
4.742027172104021
 20
5.5051044541784
 42
0.1340008839894672
 10
4.73614657866034
 20
5.521752405605353
 42
0.1340008839894638
 10
4.722624489822333
 20
5.533105325028177
 42
0.1068139206260751
 10
4.701143487740633
 20
5.53789039773121
 42
0.082487085385683
 10
4.67838706534151
 20
5.534258999522185
 42
0.0708989349029251
  0
LWPOLYLINE
  5
BBF
330
18
100
AcDbEntity
  8
image
100
AcDbPolyline
 90
       16
 70
     1
 43
0.0
 10
3.110080224280505
 20
5.489048592943223
 42
0.0708989349029243
 10
3.0904526034829
 20
5.47085402195616
 42
0.0824870853856804
 10
3.07906023625804
 20
5.450822651998663
 42
0.1068139206260733
 10
3.07599612188317
 20
5.429029497699549
 42
0.1340008839894652
 10
3.081876715326847
 20
5.412381546272595
 42
0.1340008839894659
 10
3.095398804164858
 20
5.401028626849788
 42
0.106813920626075
 10
3.116879806246558
 20
5.396243554146755
 42
0.0824870853856831
 10
3.139636228645683
 20
5.399874952355759
 42
0.0708989349029243
 10
3.163565173081382
 20
5.411862092538958
 42
0.0708989349029259
 10
3.183192793878996
 20
5.430056663526039
 42
0.0824870853856834
 10
3.194585161103852
 20
5.450088033483524
 42
0.1068139206260768
 10
3.197649275478726
 20
5.471881187782653
 42
0.1340008839894672
 10
3.191768682035045
 20
5.488529139209591
 42
0.1340008839894638
 10
3.178246593197034
 20
5.49988205863241
 42
0.1068139206260751
 10
3.156765591115334
 20
5.504667131335462
 42
0.082487085385683
 10
3.134009168716211
 20
5.501035733126427
 42
0.0708989349029251
  0
LWPOLYLINE
  5
BC0
330
18
100
AcDbEntity
  8
image
100
AcDbPolyline
 90
       16
 70
     1
 43
0.0
 10
4.021881834798863
 20
5.653894253334588
 42
0.0846731520301792
 10
4.016488490031928
 20
5.685513939286297
 42
0.0916544813065032
 10
4.001728764826316
 20
5.711251439314191
 42
0.1036340346640379
 10
3.978820458571222
 20
5.729059425700059
 42
0.1140536254072521
 10
3.953074949975137
 20
5.735009563646514
 42
0.1140536254072534
 10
3.927329441379054
 20
5.729059425700059
 42
0.1036340346640368
 10
3.904421135123955
 20
5.711251439314191
 42
0.0916544813065076
 10
3.889661409918348
 20
5.685513939286297
 42
0.0846731520301862
 10
3.884268065151411
 20
5.653894253334588
 42
0.0846731520301835
 10
3.889661409918348
 20
5.622274567382891
 42
0.091654481306508
 10
3.904421135123955
 20
5.596537067354967
 42
0.103634034664036
 10
3.927329441379054
 20
5.578729080969099
 42
0.1140536254072547
 10
3.953074949975137
 20
5.572778943022672
 42
0.1140536254072534
 10
3.978820458571226
 20
5.578729080969099
 42
0.1036340346640367
 10
4.001728764826316
 20
5.596537067354967
 42
0.0916544813065066
 10
4.016488490031923
 20
5.622274567382891
 42
0.0846731520301858
  0
LWPOLYLINE
  5
BC1
330
18
100
AcDbEntity
  8
image
100
AcDbPolyline
 90
       16
 70
     1
 43
0.0
 10
4.269647206574775
 20
5.696662902916441
 42
0.1615511064879552
 10
4.256396198409568
 20
5.679031529614336
 42
0.1061532262602322
 10
4.252677566724228
 20
5.646160463188577
 42
0.0703450477663066
 10
4.261090796197191
 20
5.611680089094246
 42
0.0566056099584688
 10
4.281924037700127
 20
5.572890603115785
 42
0.0566056099584683
 10
4.310925488329397
 20
5.539761099114185
 42
0.0703450477663069
 10
4.340254433456353
 20
5.519773813015527
 42
0.1061532262602343
 10
4.372337482998849
 20
5.511710739058781
 42
0.1615511064879549
 10
4.393499599257483
 20
5.51792518813885
 42
0.1615511064879543
 10
4.406750607422688
 20
5.535556561440953
 42
0.106153226260232
 10
4.410469239108033
 20
5.568427627866718
 42
0.0703450477663075
 10
4.402056009635071
 20
5.602908001961028
 42
0.0566056099584687
 10
4.381222768132134
 20
5.641697487939508
 42
0.05660560995847
 10
4.352221317502865
 20
5.674826991941106
 42
0.0703450477663058
 10
4.322892372375909
 20
5.694814278039745
 42
0.1061532262602316
 10
4.29080932283341
 20
5.702877351996495
 42
0.1615511064879538
  0
LWPOLYLINE
  5
BC2
330
18
100
AcDbEntity
  8
image
100
AcDbPolyline
 90
       16
 70
     1
 43
0.0
 10
4.804451713763624
 20
5.776692763846847
 42
0.1833035428166229
 10
4.798936691953111
 20
5.767244961607696
 42
0.1024612315138192
 10
4.799671568880349
 20
5.748125394462602
 42
0.0615734602679465
 10
4.80710668875429
 20
5.728703976577635
 42
0.0478438451985803
 10
4.821846214163176
 20
5.706412688759417
 42
0.0478438451985776
 10
4.840553876908453
 20
5.687329227949515
 42
0.061573460267943
 10
4.857986043146247
 20
5.675989384014961
 42
0.1024612315138217
 10
4.876527111811663
 20
5.671264273999456
 42
0.1833035428166229
 10
4.886920834153112
 20
5.674677039536314
 42
0.1833035428166234
 10
4.892435855963631
 20
5.684124841775465
 42
0.102461231513819
 10
4.891700979036384
 20
5.703244408920559
 42
0.0615734602679484
 10
4.88426585916245
 20
5.722665826805524
 42
0.0478438451985819
 10
4.86952633375356
 20
5.744957114623742
 42
0.0478438451985799
 10
4.850818671008287
 20
5.764040575433661
 42
0.0615734602679431
 10
4.833386504770494
 20
5.775380419368197
 42
0.1024612315138189
 10
4.814845436105072
 20
5.780105529383705
 42
0.183303542816622
  0
LWPOLYLINE
  5
BC3
330
18
100
AcDbEntity
  8
image
100
AcDbPolyline
 90
       16
 70
     1
 43
0.0
 10
4.752603516021929
 20
5.645655040761164
 42
0.1615511064879552
 10
4.739352507856724
 20
5.628023667459061
 42
0.1061532262602322
 10
4.73563387617138
 20
5.5951526010333
 42
0.0703450477663066
 10
4.744047105644343
 20
5.560672226938965
 42
0.0566056099584688
 10
4.764880347147284
 20
5.521882740960517
 42
0.0566056099584683
 10
4.793881797776544
 20
5.488753236958908
 42
0.0703450477663069
 10
4.823210742903503
 20
5.468765950860269
 42
0.1061532262602343
 10
4.855293792446
 20
5.460702876903525
 42
0.1615511064879549
 10
4.87645590870464
 20
5.466917325983573
 42
0.1615511064879543
 10
4.889706916869846
 20
5.484548699285682
 42
0.106153226260232
 10
4.893425548555187
 20
5.517419765711435
 42
0.0703450477663075
 10
4.885012319082225
 20
5.551900139805768
 42
0.0566056099584687
 10
4.864179077579279
 20
5.590689625784246
 42
0.05660560995847
 10
4.835177626950022
 20
5.623819129785845
 42
0.0703450477663058
 10
4.805848681823063
 20
5.643806415884467
 42
0.1061532262602316
 10
4.77376563228057
 20
5.651869489841239
 42
0.1615511064879538
  0
LWPOLYLINE
  5
BC4
330
18
100
AcDbEntity
  8
image
100
AcDbPolyline
 90
       16
 70
     1
 43
0.0
 10
4.58102280151092
 20
5.589143125104106
 42
0.0846731520301792
 10
4.575629456743984
 20
5.620762811055826
 42
0.0916544813065032
 10
4.560869731538371
 20
5.646500311083721
 42
0.1036340346640379
 10
4.537961425283276
 20
5.664308297469576
 42
0.1140536254072521
 10
4.512215916687194
 20
5.670258435416025
 42
0.1140536254072534
 10
4.486470408091108
 20
5.664308297469576
 42
0.1036340346640368
 10
4.463562101836012
 20
5.646500311083721
 42
0.0916544813065076
 10
4.448802376630402
 20
5.620762811055826
 42
0.0846731520301862
 10
4.443409031863465
 20
5.589143125104106
 42
0.0846731520301835
 10
4.448802376630396
 20
5.557523439152401
 42
0.091654481306508
 10
4.463562101836012
 20
5.531785939124484
 42
0.103634034664036
 10
4.486470408091108
 20
5.513977952738629
 42
0.1140536254072547
 10
4.512215916687194
 20
5.50802781479218
 42
0.1140536254072534
 10
4.537961425283276
 20
5.513977952738629
 42
0.1036340346640367
 10
4.560869731538371
 20
5.531785939124484
 42
0.0916544813065066
 10
4.575629456743984
 20
5.557523439152401
 42
0.0846731520301858
  0
LWPOLYLINE
  5
BC5
330
18
100
AcDbEntity
  8
image
100
AcDbPolyline
 90
       16
 70
     1
 43
0.0
 10
4.125366177845538
 20
5.780209815924628
 42
0.1096021439183502
 10
4.092854404505681
 20
5.774666481337465
 42
0.1024204874116924
 10
4.063597975843086
 20
5.755020827846948
 42
0.0936695383243779
 10
4.043714388925893
 20
5.725229676076782
 42
0.0882994724157594
 10
4.035223502663955
 20
5.688232875233843
 42
0.088299472415759
 10
4.040019541244015
 20
5.650578440753122
 42
0.0936695383243768
 10
4.056864139871287
 20
5.618969434922917
 42
0.1024204874116938
 10
4.084037614998402
 20
5.596530794842136
 42
0.1096021439183517
 10
4.115843095687425
 20
5.587804090871703
 42
0.109602143918351
 10
4.14835486902729
 20
5.593347425458865
 42
0.1024204874116929
 10
4.177611297689884
 20
5.612993078949363
 42
0.0936695383243769
 10
4.197494884607078
 20
5.642784230719549
 42
0.0882994724157586
 10
4.205985770869014
 20
5.679781031562484
 42
0.0882994724157589
 10
4.201189732288957
 20
5.717435466043211
 42
0.0936695383243761
 10
4.184345133661684
 20
5.749044471873395
 42
0.102420487411692
 10
4.157171658534567
 20
5.771483111954191
 42
0.1096021439183503
  0
LWPOLYLINE
  5
BC6
330
18
100
AcDbEntity
  8
image
100
AcDbPolyline
 90
       16
 70
     1
 43
0.0
 10
4.613990070601369
 20
5.711566146320885
 42
0.1833035428166229
 10
4.608475048790849
 20
5.702118344081734
 42
0.1024612315138192
 10
4.609209925718094
 20
5.682998776936635
 42
0.0615734602679465
 10
4.616645045592026
 20
5.663577359051672
 42
0.0478438451985803
 10
4.631384571000923
 20
5.64128607123346
 42
0.0478438451985776
 10
4.650092233746191
 20
5.622202610423537
 42
0.061573460267943
 10
4.667524399983991
 20
5.610862766488999
 42
0.1024612315138217
 10
4.686065468649406
 20
5.606137656473494
 42
0.1833035428166229
 10
4.696459190990855
 20
5.609550422010352
 42
0.1833035428166234
 10
4.701974212801369
 20
5.618998224249503
 42
0.102461231513819
 10
4.701239335874129
 20
5.638117791394597
 42
0.0615734602679484
 10
4.693804216000193
 20
5.657539209279562
 42
0.0478438451985819
 10
4.6790646905913
 20
5.679830497097775
 42
0.0478438451985799
 10
4.66035702784603
 20
5.698913957907683
 42
0.0615734602679431
 10
4.642924861608229
 20
5.710253801842236
 42
0.1024612315138189
 10
4.624383792942815
 20
5.714978911857739
 42
0.183303542816622
  0
LWPOLYLINE
  5
BC7
330
18
100
AcDbEntity
  8
image
100
AcDbPolyline
 90
       16
 70
     1
 43
0.0
 10
3.616469918445559
 20
5.698875234567898
 42
0.1833035428166229
 10
3.610954896635044
 20
5.689427432328765
 42
0.1024612315138192
 10
3.611689773562284
 20
5.670307865183648
 42
0.0615734602679465
 10
3.619124893436222
 20
5.650886447298697
 42
0.0478438451985803
 10
3.633864418845117
 20
5.628595159480477
 42
0.0478438451985776
 10
3.65257208159039
 20
5.609511698670564
 42
0.061573460267943
 10
3.670004247828183
 20
5.598171854736007
 42
0.1024612315138217
 10
3.688545316493597
 20
5.59344674472052
 42
0.1833035428166229
 10
3.698939038835048
 20
5.59685951025736
 42
0.1833035428166234
 10
3.704454060645568
 20
5.606307312496532
 42
0.102461231513819
 10
3.703719183718323
 20
5.625426879641626
 42
0.0615734602679484
 10
3.696284063844386
 20
5.644848297526579
 42
0.0478438451985819
 10
3.681544538435495
 20
5.667139585344804
 42
0.0478438451985799
 10
3.662836875690217
 20
5.686223046154728
 42
0.0615734602679431
 10
3.645404709452423
 20
5.697562890089265
 42
0.1024612315138189
 10
3.626863640787011
 20
5.702288000104756
 42
0.183303542816622
  0
LWPOLYLINE
  5
BC8
330
18
100
AcDbEntity
  8
image
100
AcDbPolyline
 90
       16
 70
     1
 43
0.0
 10
3.058780976136898
 20
5.731784877952485
 42
0.1096021439183502
 10
3.02626920279704
 20
5.726241543365322
 42
0.1024204874116924
 10
2.997012774134445
 20
5.706595889874824
 42
0.0936695383243779
 10
2.977129187217252
 20
5.676804738104639
 42
0.0882994724157594
 10
2.968638300955314
 20
5.639807937261704
 42
0.088299472415759
 10
2.973434339535375
 20
5.602153502780973
 42
0.0936695383243768
 10
2.990278938162646
 20
5.570544496950773
 42
0.1024204874116938
 10
3.017452413289761
 20
5.548105856870011
 42
0.1096021439183517
 10
3.049257893978785
 20
5.539379152899559
 42
0.109602143918351
 10
3.081769667318649
 20
5.544922487486722
 42
0.1024204874116929
 10
3.111026095981243
 20
5.564568140977222
 42
0.0936695383243769
 10
3.130909682898437
 20
5.594359292747407
 42
0.0882994724157586
 10
3.13940056916037
 20
5.631356093590335
 42
0.0882994724157589
 10
3.134604530580313
 20
5.669010528071064
 42
0.0936695383243761
 10
3.117759931953044
 20
5.700619533901271
 42
0.102420487411692
 10
3.090586456825926
 20
5.723058173982035
 42
0.1096021439183503
  0
LWPOLYLINE
  5
BC9
330
18
100
AcDbEntity
  8
image
100
AcDbPolyline
 90
       16
 70
     1
 43
0.0
 10
3.556939168757866
 20
5.558585200241546
 42
0.0846731520301792
 10
3.551545823990934
 20
5.590204886193268
 42
0.0916544813065032
 10
3.536786098785322
 20
5.615942386221167
 42
0.1036340346640379
 10
3.513877792530232
 20
5.633750372607021
 42
0.1140536254072521
 10
3.488132283934143
 20
5.63970051055347
 42
0.1140536254072534
 10
3.462386775338051
 20
5.633750372607021
 42
0.1036340346640368
 10
3.439478469082962
 20
5.615942386221167
 42
0.0916544813065076
 10
3.424718743877354
 20
5.590204886193268
 42
0.0846731520301862
 10
3.419325399110414
 20
5.558585200241546
 42
0.0846731520301835
 10
3.424718743877354
 20
5.526965514289846
 42
0.091654481306508
 10
3.439478469082962
 20
5.501228014261945
 42
0.103634034664036
 10
3.462386775338051
 20
5.483420027876075
 42
0.1140536254072547
 10
3.488132283934143
 20
5.47746988992962
 42
0.1140536254072534
 10
3.513877792530232
 20
5.483420027876075
 42
0.1036340346640367
 10
3.536786098785322
 20
5.501228014261945
 42
0.0916544813065066
 10
3.551545823990934
 20
5.526965514289846
 42
0.0846731520301858
  0
LWPOLYLINE
  5
BCA
330
18
100
AcDbEntity
  8
image
100
AcDbPolyline
 90
       16
 70
     1
 43
0.0
 10
3.767005424591356
 20
5.656728317503196
 42
0.1847277609904711
 10
3.778491656285494
 20
5.650214873083209
 42
0.1021404146396031
 10
3.801792896444201
 20
5.651452424864352
 42
0.0610262113808276
 10
3.825374639371984
 20
5.660831298413729
 42
0.0473278026433084
 10
3.852434308271702
 20
5.679146792442626
 42
0.0473278026433059
 10
3.875567134557458
 20
5.702223953241082
 42
0.0610262113808241
 10
3.889264607843044
 20
5.723588435311992
 42
0.1021404146396033
 10
3.894916296499607
 20
5.746227731738214
 42
0.1847277609904728
 10
3.890709105175586
 20
5.758744041813727
 42
0.1847277609904704
 10
3.879222873481459
 20
5.765257486233707
 42
0.1021404146396031
 10
3.855921633322747
 20
5.764019934452566
 42
0.0610262113808276
 10
3.832339890394964
 20
5.754641060903209
 42
0.0473278026433085
 10
3.805280221495243
 20
5.736325566874308
 42
0.0473278026433093
 10
3.782147395209486
 20
5.713248406075836
 42
0.0610262113808288
 10
3.768449921923904
 20
5.691883924004944
 42
0.1021404146396033
 10
3.762798233267345
 20
5.669244627578724
 42
0.1847277609904759
  0
LWPOLYLINE
  5
BCD
330
18
100
AcDbEntity
  8
image
100
AcDbPolyline
 90
       16
 70
     1
 43
0.0
 10
2.955296633090222
 20
5.605469315362432
 42
0.0846731520301792
 10
2.949903288323287
 20
5.637089001314155
 42
0.0916544813065032
 10
2.935143563117675
 20
5.662826501342033
 42
0.1036340346640379
 10
2.912235256862581
 20
5.680634487727925
 42
0.1140536254072521
 10
2.886489748266496
 20
5.686584625674353
 42
0.1140536254072534
 10
2.860744239670413
 20
5.680634487727925
 42
0.1036340346640368
 10
2.837835933415314
 20
5.662826501342033
 42
0.0916544813065076
 10
2.823076208209704
 20
5.637089001314155
 42
0.0846731520301862
 10
2.817682863442767
 20
5.605469315362432
 42
0.0846731520301835
 10
2.823076208209704
 20
5.573849629410734
 42
0.091654481306508
 10
2.837835933415314
 20
5.548112129382833
 42
0.103634034664036
 10
2.860744239670413
 20
5.530304142996962
 42
0.1140536254072547
 10
2.886489748266496
 20
5.524354005050506
 42
0.1140536254072534
 10
2.912235256862581
 20
5.530304142996962
 42
0.1036340346640367
 10
2.935143563117675
 20
5.548112129382833
 42
0.0916544813065066
 10
2.949903288323282
 20
5.573849629410734
 42
0.0846731520301858
  0
LWPOLYLINE
  5
BD3
330
18
100
AcDbEntity
  8
image
100
AcDbPolyline
 90
        4
 70
     0
 43
0.0
 10
2.346355758778781
 20
6.247039248086961
 42
0.6579550248282814
 10
2.346355758778781
 20
6.101433754399463
 42
-0.6579550248282905
 10
2.346355758778781
 20
5.955828260711964
 42
-0.7034136138651875
 10
2.346355758778781
 20
6.101433754399463
 42
-0.7034136138651875
  0
INSERT
  5
C50
330
18
100
AcDbEntity
  8
image
100
AcDbBlockReference
  2
*X0
 10
1.604591162754383
 20
0.1802268693652953
 30
0.0
 41
1.5
 42
1.5
 43
1.5
1001
ACAD
1000
HATCH
1002
{
1070
    16
1000
AR-PARQ1
1040
0.02
1040
0.7853981633974483
1002
}
  0
LWPOLYLINE
  5
CA3
330
18
100
AcDbEntity
  8
image
100
AcDbPolyline
 90
        4
 70
     0
 43
0.0
 10
7.470970232673659
 20
6.247039248086961
 42
-0.6579550248282814
 10
7.470970232673659
 20
6.101433754399463
 42
0.6579550248282905
 10
7.470970232673659
 20
5.955828260711964
 42
0.7034136138651875
 10
7.470970232673659
 20
6.101433754399463
 42
0.7034136138651875
  0
POINT
  5
D1B
330
18
100
AcDbEntity
  8
image
100
AcDbPoint
 10
3.186062611009537
 20
7.793943169128338
 30
0.0
  0
LEADER
  5
D4D
330
18
100
AcDbEntity
  8
text_bubbles
100
AcDbLeader
  3
STANDARD
 76
     2
 10
7.460003663962417
 20
5.484863728728779
 30
0.0
 10
8.014382566740723
 20
5.882341092297917
 30
0.0
1001
ACAD
1000
DSTYLE
1002
{
1070
   147
1040
0.09
1070
    77
1070
     0
1002
}
  0
LEADER
  5
D4E
330
18
100
AcDbEntity
  8
text_bubbles
100
AcDbLeader
  3
STANDARD
 76
     2
 10
7.229847928791095
 20
6.246698177674872
 30
0.0
 10
7.993632256612028
 20
6.757951435272945
 30
0.0
1001
ACAD
1000
DSTYLE
1002
{
1070
   147
1040
0.09
1070
    77
1070
     0
1002
}
  0
LEADER
  5
D4F
330
18
100
AcDbEntity
  8
text_bubbles
100
AcDbLeader
  3
STANDARD
 76
     2
 10
6.044511081005257
 20
5.43112790196642
 30
0.0
 10
6.45361804606601
 20
4.316145530319587
 30
0.0
1001
ACAD
1000
DSTYLE
1002
{
1070
   147
1040
0.09
1070
    77
1070
     0
1002
}
  0
LEADER
  5
12DC
330
18
100
AcDbEntity
  8
text_bubbles
100
AcDbLeader
  3
STANDARD
 76
     2
 10
5.554624039307965
 20
8.299380791395895
 30
0.0
 10
5.441665412520292
 20
8.710413532463375
 30
0.0
1001
ACAD
1000
DSTYLE
1002
{
1070
   147
1040
0.09
1070
    77
1070
     0
1002
}
  0
LWPOLYLINE
  5
12DD
330
18
100
AcDbEntity
  8
image
100
AcDbPolyline
 90
        2
 70
     0
 43
0.0246
 10
4.689428166596341
 20
4.833136014608055
 10
7.166619113421619
 20
4.827587531406675
  0
MTEXT
  5
12DE
102
{ACAD_XDICTIONARY
360
194F
102
}
330
18
100
AcDbEntity
  8
text_bubbles
100
AcDbMText
 10
9.425631656963266
 20
8.941495194643668
 30
0.0
 40
0.125
 41
5.877240374690064
 71
     1
 72
     5
  3
\pi-0.125,l0.125;RAIN BIRD IVM-SEN\P\PWATERPROOF CONNECTION RAIN BIRD WC20 (FOUR REQUIRED)\P\PVALVE BOX WITH COVER: RAIN BIRD VB-STD\P\PFINISH GRADE/TOP OF MULCH\P\PFLOW SENSOR\P\PCONNECT THE RED/WHITE STRIPED WIRE ON IVM-SEN TO THE FLOW SENSOR RED W
  3
IRE\P\PCONNECT THE BLACK/WHITE STRIPED WIRE ON IVM-SEN TO THE FLOW SENSOR BLACK WIRE. BE SURE TO FOLLOW ALL INSTRUCTIONS INCLUDED IN THE FLOW SENSOR.\P\PCONNECT THE RED AND BLACK WIRES ON THE IVM-SEN TO THE TWO-WIRE PATH\P\PPVC MAINLINE PIPE\P\PBRICK
  1
 (1 OF 4)\P\P3-INCH MINIMUM DEPTH OF 3/4-INCH WASHED GRAVEL\P\PTWO-WIRE CABLE BETWEEN DEVICES
  7
ROMANS
 73
     1
 44
1.0
  0
INSERT
  5
12DF
330
18
100
AcDbEntity
  8
text_bubbles
100
AcDbBlockReference
 66
     1
  2
bubble
 10
9.145682492133159
 20
8.880339493780105
 30
0.0
  0
ATTRIB
  5
24A1
330
12DF
100
AcDbEntity
  8
text_bubbles
100
AcDbText
 10
9.095087254037922
 20
8.817839493780105
 30
0.0
 40
0.125
  1
1
  7
ROMANS
 72
     4
 11
9.145682492133159
 21
8.880339493780105
 31
0.0
100
AcDbAttribute
  2
#
 70
     0
1001
AcDbAttr
1070
     0
1070
     1
  0
SEQEND
  5
12E1
330
12DF
100
AcDbEntity
  8
text_bubbles
  0
LWPOLYLINE
  5
1312
330
18
100
AcDbEntity
  8
image
100
AcDbPolyline
 90
       16
 70
     1
 43
0.0
 10
6.570219929126364
 20
5.713273539572217
 42
0.1615511064879552
 10
6.556968920961159
 20
5.695642166270094
 42
0.1061532262602322
 10
6.553250289275814
 20
5.662771099844313
 42
0.0703450477663066
 10
6.561663518748781
 20
5.628290725750018
 42
0.0566056099584688
 10
6.582496760251716
 20
5.589501239771539
 42
0.0566056099584683
 10
6.611498210880975
 20
5.556371735769936
 42
0.0703450477663069
 10
6.640827156007938
 20
5.536384449671297
 42
0.1061532262602343
 10
6.672910205550431
 20
5.528321375714531
 42
0.1615511064879549
 10
6.694072321809072
 20
5.534535824794605
 42
0.1615511064879543
 10
6.707323329974279
 20
5.552167198096709
 42
0.106153226260232
 10
6.711041961659619
 20
5.585038264522468
 42
0.0703450477663075
 10
6.702628732186662
 20
5.619518638616796
 42
0.0566056099584687
 10
6.681795490683716
 20
5.658308124595258
 42
0.05660560995847
 10
6.652794040054454
 20
5.691437628596862
 42
0.0703450477663058
 10
6.6234650949275
 20
5.7114249146955
 42
0.1061532262602316
 10
6.591382045385001
 20
5.71948798865225
 42
0.1615511064879538
  0
LWPOLYLINE
  5
1313
330
18
100
AcDbEntity
  8
image
100
AcDbPolyline
 90
       16
 70
     1
 43
0.0
 10
6.425938900397133
 20
5.796820452580378
 42
0.1096021439183502
 10
6.393427127057266
 20
5.791277117993237
 42
0.1024204874116924
 10
6.364170698394675
 20
5.77163146450272
 42
0.0936695383243779
 10
6.344287111477484
 20
5.741840312732533
 42
0.0882994724157594
 10
6.335796225215542
 20
5.704843511889597
 42
0.088299472415759
 10
6.340592263795604
 20
5.667189077408876
 42
0.0936695383243768
 10
6.357436862422872
 20
5.635580071578688
 42
0.1024204874116938
 10
6.38461033754999
 20
5.613141431497904
 42
0.1096021439183517
 10
6.416415818239018
 20
5.604414727527458
 42
0.109602143918351
 10
6.448927591578875
 20
5.609958062114621
 42
0.1024204874116929
 10
6.478184020241476
 20
5.629603715605131
 42
0.0936695383243769
 10
6.498067607158661
 20
5.659394867375304
 42
0.0882994724157586
 10
6.506558493420605
 20
5.696391668218241
 42
0.0882994724157589
 10
6.501762454840539
 20
5.734046102698984
 42
0.0936695383243761
 10
6.484917856213266
 20
5.765655108529164
 42
0.102420487411692
 10
6.457744381086156
 20
5.78809374860995
 42
0.1096021439183503
  0
LWPOLYLINE
  5
1314
330
18
100
AcDbEntity
  8
image
100
AcDbPolyline
 90
       16
 70
     1
 43
0.0
 10
6.388121964539637
 20
5.54873581572426
 42
0.0708989349029243
 10
6.368494343742025
 20
5.530541244737197
 42
0.0824870853856804
 10
6.357101976517167
 20
5.510509874779698
 42
0.1068139206260733
 10
6.354037862142298
 20
5.48871672048059
 42
0.1340008839894652
 10
6.359918455585972
 20
5.472068769053636
 42
0.1340008839894659
 10
6.373440544423985
 20
5.46071584963083
 42
0.106813920626075
 10
6.394921546505679
 20
5.455930776927797
 42
0.0824870853856831
 10
6.41767796890481
 20
5.459562175136801
 42
0.0708989349029243
 10
6.441606913340514
 20
5.471549315319995
 42
0.0708989349029259
 10
6.461234534138123
 20
5.489743886307076
 42
0.0824870853856834
 10
6.47262690136298
 20
5.509775256264566
 42
0.1068139206260768
 10
6.475691015737853
 20
5.531568410563687
 42
0.1340008839894672
 10
6.469810422294173
 20
5.548216361990631
 42
0.1340008839894638
 10
6.456288333456161
 20
5.559569281413452
 42
0.1068139206260751
 10
6.434807331374461
 20
5.564354354116501
 42
0.082487085385683
 10
6.412050908975338
 20
5.560722955907463
 42
0.0708989349029251
  0
LWPOLYLINE
  5
1315
330
18
100
AcDbEntity
  8
image
100
AcDbPolyline
 90
       16
 70
     1
 43
0.0
 10
6.515148717941718
 20
5.519790878072669
 42
0.0708989349029243
 10
6.495521097144106
 20
5.501596307085604
 42
0.0824870853856804
 10
6.484128729919248
 20
5.481564937128105
 42
0.1068139206260733
 10
6.481064615544378
 20
5.459771782828996
 42
0.1340008839894652
 10
6.486945208988053
 20
5.443123831402038
 42
0.1340008839894659
 10
6.500467297826066
 20
5.431770911979233
 42
0.106813920626075
 10
6.521948299907764
 20
5.4269858392762
 42
0.0824870853856831
 10
6.544704722306894
 20
5.430617237485202
 42
0.0708989349029243
 10
6.568633666742595
 20
5.442604377668404
 42
0.0708989349029259
 10
6.588261287540207
 20
5.460798948655483
 42
0.0824870853856834
 10
6.599653654765059
 20
5.480830318612969
 42
0.1068139206260768
 10
6.602717769139934
 20
5.502623472912082
 42
0.1340008839894672
 10
6.596837175696256
 20
5.519271424339036
 42
0.1340008839894638
 10
6.583315086858242
 20
5.530624343761857
 42
0.1068139206260751
 10
6.561834084776547
 20
5.53540941646489
 42
0.082487085385683
 10
6.539077662377419
 20
5.531778018255872
 42
0.0708989349029251
  0
LEADER
  5
1316
330
18
100
AcDbEntity
  8
text_bubbles
100
AcDbLeader
  3
STANDARD
 76
     2
 10
4.129285113858722
 20
7.743195426889565
 30
0.0
 10
3.808955360038073
 20
8.720547108700396
 30
0.0
1001
ACAD
1000
DSTYLE
1002
{
1070
   147
1040
0.09
1070
    77
1070
     0
1002
}
  0
INSERT
  5
131E
330
18
100
AcDbEntity
  8
text_bubbles
100
AcDbBlockReference
 66
     1
  2
bubble
 10
3.734745760872494
 20
8.839142831185164
 30
0.0
  0
ATTRIB
  5
249C
330
131E
100
AcDbEntity
  8
text_bubbles
100
AcDbText
 10
3.684150522777255
 20
8.776642831185164
 30
0.0
 40
0.125
  1
1
  7
ROMANS
 72
     4
 11
3.734745760872494
 21
8.839142831185164
 31
0.0
100
AcDbAttribute
  2
#
 70
     0
1001
AcDbAttr
1070
     0
1070
     1
  0
SEQEND
  5
1320
330
131E
100
AcDbEntity
  8
text_bubbles
  0
INSERT
  5
1330
330
18
100
AcDbEntity
  8
text_bubbles
100
AcDbBlockReference
 66
     1
  2
bubble
 10
5.386886058283531
 20
8.839142831185164
 30
0.0
  0
ATTRIB
  5
249D
330
1330
100
AcDbEntity
  8
text_bubbles
100
AcDbText
 10
5.327362248759722
 20
8.776642831185164
 30
0.0
 40
0.125
  1
3
  7
ROMANS
 72
     4
 11
5.386886058283531
 21
8.839142831185164
 31
0.0
100
AcDbAttribute
  2
#
 70
     0
1001
AcDbAttr
1070
     0
1070
     1
  0
SEQEND
  5
1332
330
1330
100
AcDbEntity
  8
text_bubbles
  0
INSERT
  5
1336
330
18
100
AcDbEntity
  8
text_bubbles
100
AcDbBlockReference
 66
     1
  2
bubble
 10
8.133213125379056
 20
6.807786061206632
 30
0.0
  0
ATTRIB
  5
249E
330
1336
100
AcDbEntity
  8
text_bubbles
100
AcDbText
 10
8.076665506331437
 20
6.745286061206632
 30
0.0
 40
0.125
  1
9
  7
ROMANS
 72
     4
 11
8.133213125379056
 21
6.807786061206632
 31
0.0
100
AcDbAttribute
  2
#
 70
     0
1001
AcDbAttr
1070
     0
1070
     1
  0
SEQEND
  5
1338
330
1336
100
AcDbEntity
  8
text_bubbles
  0
INSERT
  5
1339
330
18
100
AcDbEntity
  8
text_bubbles
100
AcDbBlockReference
 66
     1
  2
bubble
 10
8.128226089852093
 20
5.963653220824911
 30
0.0
  0
ATTRIB
  5
249F
330
1339
100
AcDbEntity
  8
text_bubbles
100
AcDbText
 10
8.000249899375903
 20
5.901153220824911
 30
0.0
 40
0.125
  1
10
  7
ROMANS
 72
     4
 11
8.128226089852093
 21
5.963653220824911
 31
0.0
100
AcDbAttribute
  2
#
 70
     0
1001
AcDbAttr
1070
     0
1070
     1
  0
SEQEND
  5
133B
330
1339
100
AcDbEntity
  8
text_bubbles
  0
INSERT
  5
134B
330
18
100
AcDbEntity
  8
text_bubbles
100
AcDbBlockReference
 66
     1
  2
bubble
 10
6.520381474315822
 20
4.193203858587289
 30
0.0
  0
ATTRIB
  5
24A0
330
134B
100
AcDbEntity
  8
text_bubbles
100
AcDbText
 10
6.410262426696775
 20
4.130703858587289
 30
0.0
 40
0.125
  1
11
  7
ROMANS
 72
     4
 11
6.520381474315822
 21
4.193203858587289
 31
0.0
100
AcDbAttribute
  2
#
 70
     0
1001
AcDbAttr
1070
     0
1070
     1
  0
SEQEND
  5
134D
330
134B
100
AcDbEntity
  8
text_bubbles
  0
LWPOLYLINE
  5
13D5
330
18
100
AcDbEntity
  8
image
100
AcDbPolyline
 90
        7
 70
     0
 43
0.0
 10
5.939413505359784
 20
5.958088841562671
 10
6.061906553961676
 20
5.958088841562671
 10
6.061906553961676
 20
5.934383189788812
 10
6.319559019368938
 20
5.934383189788812
 10
6.319559019368938
 20
6.290446868452715
 10
6.112572026775573
 20
6.290446868452715
 10
6.112572026775573
 20
6.536123623199969
  0
LWPOLYLINE
  5
13D6
330
18
100
AcDbEntity
  8
image
100
AcDbPolyline
 90
        3
 70
     0
 43
0.0
 10
6.061906553961676
 20
5.958088841562671
 10
6.061906553961676
 20
6.185806769208515
 42
-0.2398162149919381
 10
6.112572026775573
 20
6.290446868452715
 42
0.89232783326
  0
LWPOLYLINE
  5
13D7
330
18
100
AcDbEntity
  8
image
100
AcDbPolyline
 90
        7
 70
     0
 43
0.0
 10
5.939413505359784
 20
5.958088841562671
 10
5.816920456757891
 20
5.958088841562671
 10
5.816920456757891
 20
5.934383189788812
 10
5.55926799135063
 20
5.934383189788812
 10
5.55926799135063
 20
6.290446868452715
 10
5.766254983943994
 20
6.290446868452715
 10
5.766254983943994
 20
6.536123623199969
  0
LWPOLYLINE
  5
13D8
330
18
100
AcDbEntity
  8
image
100
AcDbPolyline
 90
        3
 70
     0
 43
0.0
 10
5.816920456757891
 20
5.958088841562671
 10
5.816920456757891
 20
6.185806769208515
 42
0.2398162149919381
 10
5.766254983943994
 20
6.290446868452715
 42
-0.89232783326
  0
LWPOLYLINE
  5
13DB
330
18
100
AcDbEntity
  8
image
100
AcDbPolyline
 90
        3
 70
     0
 43
0.0
 10
6.112572026775573
 20
6.550490684881094
 10
6.112572026775573
 20
6.663990472161988
 10
5.939413505359784
 20
6.663990472161988
  0
LWPOLYLINE
  5
13DC
330
18
100
AcDbEntity
  8
image
100
AcDbPolyline
 90
        3
 70
     0
 43
0.0
 10
5.766254983943994
 20
6.550490684881094
 10
5.766254983943994
 20
6.663990472161988
 10
5.939413505359784
 20
6.663990472161988
  0
ARC
  5
13DD
330
18
100
AcDbEntity
  8
image
100
AcDbCircle
 10
5.939876909074545
 20
6.587605594224002
 30
0.0
 40
0.0444111230689792
100
AcDbArc
 50
112.9185922251302
 51
68.39357669245548
  0
ARC
  5
13DE
330
18
100
AcDbEntity
  8
image
100
AcDbCircle
 10
5.939876909074545
 20
6.587605594224002
 30
0.0
 40
0.0367633613710598
100
AcDbArc
 50
115.2407117714066
 51
66.07145714617961
  0
LWPOLYLINE
  5
13DF
330
18
100
AcDbEntity
  8
image
100
AcDbPolyline
 90
        2
 70
     0
 43
0.0
 10
5.766254983943994
 20
6.536123623199969
 10
6.112572026775573
 20
6.536123623199969
  0
LWPOLYLINE
  5
13E0
330
18
100
AcDbEntity
  8
image
100
AcDbPolyline
 90
        2
 70
     0
 43
0.0
 10
5.766254983943994
 20
6.550490684881094
 10
6.112572026775573
 20
6.550490684881094
  0
LWPOLYLINE
  5
13E1
330
18
100
AcDbEntity
  8
image
100
AcDbPolyline
 90
        2
 70
     0
 43
0.0
 10
5.776681567526122
 20
6.550490684881094
 10
5.776681567526122
 20
6.536123623199969
  0
LWPOLYLINE
  5
13E2
330
18
100
AcDbEntity
  8
image
100
AcDbPolyline
 90
        2
 70
     0
 43
0.0
 10
6.102145443193446
 20
6.550490684881094
 10
6.102145443193446
 20
6.536123623199969
  0
CIRCLE
  5
13E3
330
18
100
AcDbEntity
  8
image
100
AcDbCircle
 10
5.939413505359784
 20
6.628072817959173
 30
0.0
 40
0.0168370016363256
  0
LWPOLYLINE
  5
13E4
330
18
100
AcDbEntity
  8
image
100
AcDbPolyline
 90
        2
 70
     0
 43
0.0
 10
5.777685608908104
 20
6.679554788983208
 10
6.10114140181146
 20
6.679554788983208
  0
LWPOLYLINE
  5
13E5
330
18
100
AcDbEntity
  8
image
100
AcDbPolyline
 90
        7
 70
     0
 43
0.0
 10
6.10114140181146
 20
6.663990472161988
 10
6.10114140181146
 20
6.679554788983208
 10
6.080442702552126
 20
6.701584283560935
 10
5.939413505359784
 20
6.701584283560935
 10
5.798384308167442
 20
6.701584283560935
 10
5.777685608908104
 20
6.679554788983208
 10
5.777685608908104
 20
6.663990472161988
  0
INSERT
  5
15DE
330
18
100
AcDbEntity
  8
text_bubbles
100
AcDbBlockReference
 66
     1
  2
bubble
 10
6.572337073624479
 20
6.809281343117944
 30
0.0
  0
ATTRIB
  5
249A
330
15DE
100
AcDbEntity
  8
text_bubbles
100
AcDbText
 10
6.51281326410067
 20
6.746781343117944
 30
0.0
 40
0.125
  1
5
  7
ROMANS
 72
     4
 11
6.572337073624479
 21
6.809281343117944
 31
0.0
100
AcDbAttribute
  2
#
 70
     0
1001
AcDbAttr
1070
     0
1070
     1
  0
SEQEND
  5
15E0
330
15DE
100
AcDbEntity
  8
text_bubbles
  0
INSERT
  5
1602
330
18
100
AcDbEntity
  8
text_bubbles
100
AcDbBlockReference
 66
     1
  2
bubble
 10
6.679763377599602
 20
8.839142831185164
 30
0.0
  0
ATTRIB
  5
249B
330
1602
100
AcDbEntity
  8
text_bubbles
100
AcDbText
 10
6.617263377599602
 20
8.776642831185164
 30
0.0
 40
0.125
  1
4
  7
ROMANS
 72
     4
 11
6.679763377599602
 21
8.839142831185164
 31
0.0
100
AcDbAttribute
  2
#
 70
     0
1001
AcDbAttr
1070
     0
1070
     1
  0
SEQEND
  5
1604
330
1602
100
AcDbEntity
  8
text_bubbles
  0
LEADER
  5
1605
330
18
100
AcDbEntity
  8
text_bubbles
100
AcDbLeader
  3
STANDARD
 76
     2
 10
6.847501358624036
 20
8.299380791395895
 30
0.0
 10
6.734542731836363
 20
8.710413532463375
 30
0.0
1001
ACAD
1000
DSTYLE
1002
{
1070
   147
1040
0.09
1070
    77
1070
     0
1002
}
  0
MTEXT
  5
1616
102
{ACAD_XDICTIONARY
360
1951
102
}
330
18
100
AcDbEntity
  8
text_bubbles
100
AcDbMText
 10
1.08672889815782
 20
3.875085281727412
 30
0.0
 40
0.125
 41
7.553740100685708
 71
     1
 72
     5
  3
{\Fromans|c0;NOTES:\P\pi-0.5,l0.5,t0.375;1.^ICOIL AN ADDITIONAL 3-FEET OF TWO-WIRE CABLE IN VALVE BOX FOR EASY SERVICING.\P\pi0,l0,tz;\P\pi-0.5,l0.5,t0.375;2.^IFOR OPTIMUM PERFORMANCE, FLOW SENSORS SHOULD BE INSTALLED A MINIMUM OF 10 PIPE DIAMETERS IN 
  1
LENGTH ON THE UPSTREAM (SUPPLY) SIDE AND A LEAST 5 PIPE DIAMETERS IN LENGTH ON THE DOWNSTREAM (DELIVERY) SIDE BEFORE MAKING ANY TRANSITIONS IN PIPE SIZE/DIRECTION OR AWAY FROM THE MASTER VALVE.}
  7
SIMPLEX
 73
     1
 44
1.0
  0
LWPOLYLINE
  5
1617
330
18
100
AcDbEntity
  8
image
100
AcDbPolyline
 90
        2
 70
     0
 43
0.0246
 10
3.597198104554214
 20
4.833136014608055
 10
2.047191758312989
 20
4.827587531406675
  0
POLYLINE
  5
1774
330
18
100
AcDbEntity
  8
image
100
AcDb2dPolyline
 66
     1
 10
0.0
 20
0.0
 30
0.0
 40
0.005
 41
0.005
  0
VERTEX
  5
1775
330
1774
100
AcDbEntity
  8
image
100
AcDbVertex
100
AcDb2dVertex
 10
7.507601373274964
 20
4.808097334091055
 30
0.0
  0
VERTEX
  5
1776
330
1774
100
AcDbEntity
  8
image
100
AcDbVertex
100
AcDb2dVertex
 10
7.505304341991637
 20
4.807525427338739
 30
0.0
  0
VERTEX
  5
1777
330
1774
100
AcDbEntity
  8
image
100
AcDbVertex
100
AcDb2dVertex
 10
7.445650677445883
 20
4.801525551670135
 30
0.0
  0
VERTEX
  5
1778
330
1774
100
AcDbEntity
  8
image
100
AcDbVertex
100
AcDb2dVertex
 10
7.370984715220165
 20
4.802226642888226
 30
0.0
  0
VERTEX
  5
1779
330
1774
100
AcDbEntity
  8
image
100
AcDbVertex
100
AcDb2dVertex
 10
7.278807259237678
 20
4.810592652348557
 30
0.0
  0
VERTEX
  5
177A
330
1774
100
AcDbEntity
  8
image
100
AcDbVertex
100
AcDb2dVertex
 10
7.166619113421619
 20
4.827587531406673
 30
0.0
  0
SEQEND
  5
177B
330
1774
100
AcDbEntity
  8
image
  0
POLYLINE
  5
177C
330
18
100
AcDbEntity
  8
image
100
AcDb2dPolyline
 66
     1
 10
0.0
 20
0.0
 30
0.0
 40
0.005
 41
0.005
  0
VERTEX
  5
177D
330
177C
100
AcDbEntity
  8
image
100
AcDbVertex
100
AcDb2dVertex
 10
7.507601373274964
 20
4.881376326166151
 30
0.0
  0
VERTEX
  5
177E
330
177C
100
AcDbEntity
  8
image
100
AcDbVertex
100
AcDb2dVertex
 10
7.485726685322513
 20
4.870207801407971
 30
0.0
  0
VERTEX
  5
177F
330
177C
100
AcDbEntity
  8
image
100
AcDbVertex
100
AcDb2dVertex
 10
7.450555831672954
 20
4.856769208415187
 30
0.0
  0
VERTEX
  5
1780
330
177C
100
AcDbEntity
  8
image
100
AcDbVertex
100
AcDb2dVertex
 10
7.409589793195687
 20
4.845616504329576
 30
0.0
  0
VERTEX
  5
1781
330
177C
100
AcDbEntity
  8
image
100
AcDbVertex
100
AcDb2dVertex
 10
7.361770836011316
 20
4.836935836868529
 30
0.0
  0
VERTEX
  5
1782
330
177C
100
AcDbEntity
  8
image
100
AcDbVertex
100
AcDb2dVertex
 10
7.306041226240445
 20
4.830913353749435
 30
0.0
  0
VERTEX
  5
1783
330
177C
100
AcDbEntity
  8
image
100
AcDbVertex
100
AcDb2dVertex
 10
7.241343230003678
 20
4.827735202689686
 30
0.0
  0
VERTEX
  5
1784
330
177C
100
AcDbEntity
  8
image
100
AcDbVertex
100
AcDb2dVertex
 10
7.166619113421619
 20
4.827587531406675
 30
0.0
  0
SEQEND
  5
1785
330
177C
100
AcDbEntity
  8
image
  0
POLYLINE
  5
1786
330
18
100
AcDbEntity
  8
image
100
AcDb2dPolyline
 66
     1
 10
0.0
 20
0.0
 30
0.0
 40
0.005
 41
0.005
  0
VERTEX
  5
1787
330
1786
100
AcDbEntity
  8
image
100
AcDbVertex
100
AcDb2dVertex
 10
1.706209498459644
 20
4.881376326166151
 30
0.0
  0
VERTEX
  5
1788
330
1786
100
AcDbEntity
  8
image
100
AcDbVertex
100
AcDb2dVertex
 10
1.728084186412095
 20
4.870207801407971
 30
0.0
  0
VERTEX
  5
1789
330
1786
100
AcDbEntity
  8
image
100
AcDbVertex
100
AcDb2dVertex
 10
1.763255040061654
 20
4.856769208415187
 30
0.0
  0
VERTEX
  5
178A
330
1786
100
AcDbEntity
  8
image
100
AcDbVertex
100
AcDb2dVertex
 10
1.804221078538921
 20
4.845616504329576
 30
0.0
  0
VERTEX
  5
178B
330
1786
100
AcDbEntity
  8
image
100
AcDbVertex
100
AcDb2dVertex
 10
1.852040035723291
 20
4.836935836868529
 30
0.0
  0
VERTEX
  5
178C
330
1786
100
AcDbEntity
  8
image
100
AcDbVertex
100
AcDb2dVertex
 10
1.907769645494163
 20
4.830913353749435
 30
0.0
  0
VERTEX
  5
178D
330
1786
100
AcDbEntity
  8
image
100
AcDbVertex
100
AcDb2dVertex
 10
1.972467641730929
 20
4.827735202689686
 30
0.0
  0
VERTEX
  5
178E
330
1786
100
AcDbEntity
  8
image
100
AcDbVertex
100
AcDb2dVertex
 10
2.047191758312989
 20
4.827587531406675
 30
0.0
  0
SEQEND
  5
178F
330
1786
100
AcDbEntity
  8
image
  0
POLYLINE
  5
1790
330
18
100
AcDbEntity
  8
image
100
AcDb2dPolyline
 66
     1
 10
0.0
 20
0.0
 30
0.0
 40
0.005
 41
0.005
  0
VERTEX
  5
1791
330
1790
100
AcDbEntity
  8
image
100
AcDbVertex
100
AcDb2dVertex
 10
1.706209498459644
 20
4.808097334091055
 30
0.0
  0
VERTEX
  5
1792
330
1790
100
AcDbEntity
  8
image
100
AcDbVertex
100
AcDb2dVertex
 10
1.708506529742971
 20
4.807525427338739
 30
0.0
  0
VERTEX
  5
1793
330
1790
100
AcDbEntity
  8
image
100
AcDbVertex
100
AcDb2dVertex
 10
1.768160194288725
 20
4.801525551670135
 30
0.0
  0
VERTEX
  5
1794
330
1790
100
AcDbEntity
  8
image
100
AcDbVertex
100
AcDb2dVertex
 10
1.842826156514442
 20
4.802226642888226
 30
0.0
  0
VERTEX
  5
1795
330
1790
100
AcDbEntity
  8
image
100
AcDbVertex
100
AcDb2dVertex
 10
1.935003612496929
 20
4.810592652348557
 30
0.0
  0
VERTEX
  5
1796
330
1790
100
AcDbEntity
  8
image
100
AcDbVertex
100
AcDb2dVertex
 10
2.047191758312989
 20
4.827587531406673
 30
0.0
  0
SEQEND
  5
1797
330
1790
100
AcDbEntity
  8
image
  0
INSERT
  5
17CF
330
18
100
AcDbEntity
  8
title
100
AcDbBlockReference
 66
     1
  2
titleblock
 10
0.0
 20
0.0
 30
0.0
  0
ATTRIB
  5
17D1
330
17CF
100
AcDbEntity
  8
title
100
AcDbText
 10
0.5055556038023421
 20
0.7842270964783673
 30
0.0
 40
0.2
  1
D
  7
L200
 72
     4
 11
0.6064423705144839
 21
0.8842270964783672
 31
0.0
100
AcDbAttribute
  2
D
 70
     0
  0
ATTRIB
  5
17D2
330
17CF
100
AcDbEntity
  8
title
100
AcDbText
 10
1.231442370514484
 20
1.34371230274675
 30
0.0
 40
0.2
  1

  7
L200
100
AcDbAttribute
  2
TITLE1
 70
     0
  0
ATTRIB
  5
17D3
330
17CF
100
AcDbEntity
  8
title
100
AcDbText
 10
1.231442370514484
 20
0.9842270964783674
 30
0.0
 40
0.2
  1
IVM-SEN AND FLOW SENSOR
  7
L200
100
AcDbAttribute
  2
TITLE2
 70
     0
  0
ATTRIB
  5
17D4
330
17CF
100
AcDbEntity
  8
title
100
AcDbText
 10
2.713645751168312
 20
0.5927927664583189
 30
0.0
 40
0.2
  1

  7
L200
100
AcDbAttribute
  2
TITLE3
 70
     0
  0
ATTRIB
  5
17D5
330
17CF
100
AcDbEntity
  8
title
100
AcDbText
 10
2.713645751168312
 20
0.2692560808167741
 30
0.0
 40
0.2
  1

  7
L200
100
AcDbAttribute
  2
TITLE4
 70
     0
  0
ATTRIB
  5
17D6
330
17CF
100
AcDbEntity
  8
title
 62
     7
100
AcDbText
 10
8.261024353775903
 20
0.9696027915446398
 30
0.0
 40
0.08
  1

  7
L80
 72
     2
 11
8.261024353775903
 21
0.9696027915446398
 31
0.0
100
AcDbAttribute
  2
REVISED
 70
     0
  0
ATTRIB
  5
17D7
102
{ACAD_XDICTIONARY
360
1972
102
}
330
17CF
100
AcDbEntity
  8
title
 62
     7
100
AcDbText
 10
0.2639423705144838
 20
0.0847116480207214
 30
0.0
 40
0.08
  1
IVM-SEN-FLOWSENSOR - 2020-11-16
  7
L80
100
AcDbAttribute
  2
DWG-NAME
 70
     0
  0
ATTRIB
  5
17D8
330
17CF
100
AcDbEntity
  8
title
 62
     7
100
AcDbText
 10
1.231442370514484
 20
0.7005637793954894
 30
0.0
 40
0.1
  1
N.T.S.
  7
L100
100
AcDbAttribute
  2
SCALE
 70
     0
  0
SEQEND
  5
17D0
330
17CF
100
AcDbEntity
  8
title
  0
LWPOLYLINE
  5
1989
330
18
100
AcDbEntity
  8
image
100
AcDbPolyline
 90
       16
 70
     1
 43
0.0
 10
3.306734867888689
 20
5.497983662456793
 42
0.0708989349029243
 10
3.287107247091084
 20
5.479789091469729
 42
0.0824870853856804
 10
3.275714879866225
 20
5.459757721512232
 42
0.1068139206260733
 10
3.272650765491354
 20
5.437964567213118
 42
0.1340008839894652
 10
3.278531358935032
 20
5.421316615786164
 42
0.1340008839894659
 10
3.292053447773042
 20
5.409963696363357
 42
0.106813920626075
 10
3.313534449854742
 20
5.405178623660324
 42
0.0824870853856831
 10
3.336290872253867
 20
5.408810021869328
 42
0.0708989349029243
 10
3.360219816689566
 20
5.420797162052528
 42
0.0708989349029259
 10
3.37984743748718
 20
5.438991733039609
 42
0.0824870853856834
 10
3.391239804712036
 20
5.459023102997093
 42
0.1068139206260768
 10
3.39430391908691
 20
5.480816257296222
 42
0.1340008839894672
 10
3.388423325643229
 20
5.49746420872316
 42
0.1340008839894638
 10
3.374901236805218
 20
5.508817128145979
 42
0.1068139206260751
 10
3.353420234723518
 20
5.513602200849032
 42
0.082487085385683
 10
3.330663812324395
 20
5.509970802639996
 42
0.0708989349029251
  0
LWPOLYLINE
  5
198A
330
18
100
AcDbEntity
  8
image
100
AcDbPolyline
 90
       16
 70
     1
 43
0.0
 10
3.255435619745082
 20
5.740719947466054
 42
0.1096021439183502
 10
3.222923846405224
 20
5.735176612878891
 42
0.1024204874116924
 10
3.193667417742629
 20
5.715530959388393
 42
0.0936695383243779
 10
3.173783830825437
 20
5.685739807618208
 42
0.0882994724157594
 10
3.165292944563498
 20
5.648743006775273
 42
0.088299472415759
 10
3.170088983143559
 20
5.611088572294542
 42
0.0936695383243768
 10
3.18693358177083
 20
5.579479566464343
 42
0.1024204874116938
 10
3.214107056897946
 20
5.55704092638358
 42
0.1096021439183517
 10
3.245912537586969
 20
5.548314222413129
 42
0.109602143918351
 10
3.278424310926833
 20
5.553857557000291
 42
0.1024204874116929
 10
3.307680739589427
 20
5.573503210490791
 42
0.0936695383243769
 10
3.327564326506621
 20
5.603294362260976
 42
0.0882994724157586
 10
3.336055212768554
 20
5.640291163103904
 42
0.0882994724157589
 10
3.331259174188497
 20
5.677945597584633
 42
0.0936695383243761
 10
3.314414575561228
 20
5.70955460341484
 42
0.102420487411692
 10
3.28724110043411
 20
5.731993243495605
 42
0.1096021439183503
  0
LWPOLYLINE
  5
2280
330
18
100
AcDbEntity
  8
image
100
AcDbPolyline
 90
        6
 70
     1
 43
0.0
 10
4.086394373079576
 20
7.476841452788567
 10
4.096474388334643
 20
7.46716054197148
 10
4.51923900380641
 20
7.430729474213878
 10
4.51923900380641
 20
7.764329543491644
 10
4.096474388334643
 20
7.727898475734042
 10
4.086394373079576
 20
7.718217564916955
  0
LWPOLYLINE
  5
228B
330
18
100
AcDbEntity
  8
image
 62
     1
100
AcDbPolyline
 90
        5
 70
   128
 43
0.005
 10
5.984392789649433
 20
6.701584283560935
 42
0.0684411705687999
 10
5.815166884243154
 20
7.217741620871834
 42
0.0550282874772547
 10
5.742310334948911
 20
7.342665209486845
 42
0.2804793965855625
 10
5.549218691937426
 20
7.398795304020097
 42
-0.1506971043280162
 10
5.132713739072839
 20
7.394669894072149
 42
-6.672190932596503
  0
INSERT
  5
22A6
330
18
100
AcDbEntity
  8
image
100
AcDbBlockReference
  2
ws
 10
5.403691084741874
 20
7.254175330094541
 30
0.0
 41
0.75
 42
0.75
 43
0.75
  0
INSERT
  5
22B1
330
18
100
AcDbEntity
  8
image
100
AcDbBlockReference
  2
ws
 10
5.02606384765256
 20
7.381226630447742
 30
0.0
 41
0.75
 42
0.75
 43
0.75
  0
LWPOLYLINE
  5
22B8
330
18
100
AcDbEntity
  8
image
100
AcDbPolyline
 90
        2
 70
     0
 43
0.005
 10
5.304210933921275
 20
7.271871041960892
 10
5.078671819302726
 20
7.273426141544153
  0
LWPOLYLINE
  5
22B9
330
18
100
AcDbEntity
  8
image
100
AcDbPolyline
 90
        4
 70
     0
 43
0.005
 10
4.973455876002388
 20
7.274151608919759
 10
4.938333050038295
 20
7.274393781955296
 42
-0.3282433324621442
 10
4.79522486913703
 20
7.389004174256541
 42
0.3116155944919499
 10
4.51923900380641
 20
7.619857585090528
  0
LWPOLYLINE
  5
22BA
330
18
100
AcDbEntity
  8
image
 62
     1
100
AcDbPolyline
 90
        3
 70
   128
 43
0.005
 10
4.926583696831961
 20
7.394669894072149
 42
-0.3351405650896335
 10
4.816579821706625
 20
7.438505111597379
 42
0.2070773344748556
 10
4.51923900380641
 20
7.690622615273099
 42
-6.732846936786873
  0
LWPOLYLINE
  5
22BB
330
18
100
AcDbEntity
  8
image
 62
     1
100
AcDbPolyline
 90
        4
 70
   128
 43
0.005
 10
4.51923900380641
 20
7.483326131398825
 42
-0.716612620504538
 10
4.580585883702326
 20
7.343452606662935
 42
-0.0975181337161221
 10
4.384507540775928
 20
7.186416306388366
 42
-0.1266101341161216
 10
3.996029485844175
 20
7.11725859359027
 42
-6.131199676482308
  0
LWPOLYLINE
  5
22BC
330
18
100
AcDbEntity
  8
image
100
AcDbPolyline
 90
        6
 70
     0
 43
0.005
 10
4.51923900380641
 20
7.55151696784074
 42
-0.4882040940923465
 10
4.689442246953433
 20
7.390058193062259
 42
-0.115839524169383
 10
4.623794910431797
 20
7.196652760777567
 42
0.119451664488154
 10
4.575423154975283
 20
7.050735403050765
 42
-0.3020627307340579
 10
4.533097708358354
 20
6.99720364975613
 42
-0.1018887948594429
 10
4.373656722933489
 20
6.990207293237069
 42
1.803000915071738
  0
INSERT
  5
2300
330
18
100
AcDbEntity
  8
image
100
AcDbBlockReference
  2
FlowArrow
 10
5.938585651490704
 20
6.408667901535199
 30
0.0
 41
0.1636577985583969
 42
0.1742711111021933
  0
LWPOLYLINE
  5
2346
330
18
100
AcDbEntity
  8
image
100
AcDbPolyline
 90
        4
 70
     0
 43
0.005
 10
5.510340976162153
 20
7.272099681593749
 10
5.579347059784709
 20
7.272099681593749
 42
-0.3405981915055001
 10
5.733695606214311
 20
7.167159176933843
 42
0.0528098193476195
 10
5.889721757489837
 20
6.701584283560935
 42
22.28559667907099
  0
INSERT
  5
235C
330
18
100
AcDbEntity
  8
image
100
AcDbBlockReference
  2
ws
 10
4.26700683151321
 20
6.976764029612662
 30
0.0
 41
0.75
 42
0.75
 43
0.75
  0
INSERT
  5
235D
330
18
100
AcDbEntity
  8
image
100
AcDbBlockReference
  2
ws
 10
3.889379594423896
 20
7.103815329965864
 30
0.0
 41
0.75
 42
0.75
 43
0.75
  0
LWPOLYLINE
  5
235E
330
18
100
AcDbEntity
  8
image
100
AcDbPolyline
 90
        2
 70
     0
 43
0.0
 10
6.957352904774163
 20
6.378960474117718
 10
7.09592407516959
 20
6.378960474117718
  0
LWPOLYLINE
  5
235F
330
18
100
AcDbEntity
  8
image
100
AcDbPolyline
 90
        2
 70
     0
 43
0.0
 10
7.086358151009676
 20
6.42293956535309
 10
7.124618357107783
 20
6.247039248086959
  0
LWPOLYLINE
  5
2360
330
18
100
AcDbEntity
  8
image
100
AcDbPolyline
 90
        2
 70
     0
 43
0.0
 10
6.998152132121292
 20
6.42293956535309
 10
7.086358151009676
 20
6.42293956535309
  0
LWPOLYLINE
  5
2361
330
18
100
AcDbEntity
  8
image
100
AcDbPolyline
 90
        2
 70
     0
 43
0.0
 10
6.786061046700192
 20
7.527267595518292
 10
6.919270390562061
 20
6.885905035774655
  0
LWPOLYLINE
  5
2362
330
18
100
AcDbEntity
  8
image
100
AcDbPolyline
 90
        2
 70
     0
 43
0.0
 10
6.919270390562061
 20
6.885905035774655
 10
6.967263045537436
 20
6.247039248086961
  0
LWPOLYLINE
  5
2363
330
18
100
AcDbEntity
  8
image
100
AcDbPolyline
 90
        2
 70
     0
 43
0.0
 10
6.962911789752599
 20
6.892049871863784
 10
6.998152132121292
 20
6.42293956535309
  0
LWPOLYLINE
  5
2364
330
18
100
AcDbEntity
  8
image
100
AcDbPolyline
 90
        2
 70
     0
 43
0.0
 10
6.8289414193713
 20
7.537076543316011
 10
6.962911789752599
 20
6.892049871863784
  0
LWPOLYLINE
  5
2365
330
18
100
AcDbEntity
  8
image
100
AcDbPolyline
 90
        2
 70
     0
 43
0.0
 10
7.521768561947789
 20
5.484718952331697
 10
6.742174183034695
 20
5.484718952331689
  0
LWPOLYLINE
  5
2366
330
18
100
AcDbEntity
  8
image
100
AcDbPolyline
 90
        2
 70
     0
 43
0.0
 10
6.742174183034695
 20
5.484718952331695
 10
6.742174183034695
 20
5.136446942478565
  0
LWPOLYLINE
  5
2367
330
18
100
AcDbEntity
  8
image
100
AcDbPolyline
 90
        2
 70
     0
 43
0.0
 10
7.239412937568003
 20
5.484718952331695
 10
7.024529807414486
 20
5.484718952331695
  0
LWPOLYLINE
  5
2368
330
18
100
AcDbEntity
  8
image
100
AcDbPolyline
 90
        2
 70
     0
 43
0.0
 10
7.239412937568326
 20
5.719274105587038
 10
7.239412937568326
 20
5.484718952331695
  0
LWPOLYLINE
  5
2369
330
18
100
AcDbEntity
  8
image
100
AcDbPolyline
 90
        2
 70
     0
 43
0.0
 10
3.045548626994465
 20
5.484718952331697
 10
2.265954248081371
 20
5.484718952331689
  0
LWPOLYLINE
  5
236A
330
18
100
AcDbEntity
  8
image
100
AcDbPolyline
 90
        2
 70
     0
 43
0.0
 10
2.265954248081371
 20
5.484718952331695
 10
2.265954248081371
 20
5.136446942478565
  0
LWPOLYLINE
  5
236B
330
18
100
AcDbEntity
  8
image
100
AcDbPolyline
 90
        2
 70
     0
 43
0.0
 10
2.265954248081371
 20
5.136446942478565
 10
3.045548626994465
 20
5.136446942478565
  0
LWPOLYLINE
  5
236C
330
18
100
AcDbEntity
  8
image
100
AcDbPolyline
 90
        2
 70
     0
 43
0.0
 10
3.045548626994465
 20
5.136446942478565
 10
3.045548626994465
 20
5.484718952331695
  0
LWPOLYLINE
  5
236D
330
18
100
AcDbEntity
  8
image
100
AcDbPolyline
 90
        2
 70
     0
 43
0.0
 10
7.521768561947789
 20
5.136446942478565
 10
7.521768561947789
 20
5.484718952331695
  0
LWPOLYLINE
  5
236E
330
18
100
AcDbEntity
  8
image
100
AcDbPolyline
 90
        2
 70
     0
 43
0.0
 10
6.742174183034695
 20
5.136446942478565
 10
7.521768561947789
 20
5.136446942478565
  0
LWPOLYLINE
  5
236F
330
18
100
AcDbEntity
  8
image
100
AcDbPolyline
 90
        2
 70
     0
 43
0.0
 10
2.548309872461004
 20
5.719274105587038
 10
2.548309872461004
 20
5.484718952331695
  0
LWPOLYLINE
  5
2370
330
18
100
AcDbEntity
  8
image
100
AcDbPolyline
 90
        2
 70
     0
 43
0.0
 10
2.868452419467264
 20
6.885905035774655
 10
2.820459764491888
 20
6.247039248086956
  0
LWPOLYLINE
  5
2371
330
18
100
AcDbEntity
  8
image
100
AcDbPolyline
 90
        2
 70
     0
 43
0.0
 10
2.763193002614833
 20
5.484718952331695
 10
2.548309872461004
 20
5.484718952331695
  0
LWPOLYLINE
  5
2372
330
18
100
AcDbEntity
  8
image
100
AcDbPolyline
 90
        2
 70
     0
 43
0.0
 10
5.55926799135063
 20
5.955828260711964
 10
2.346355758778781
 20
5.955828260711964
  0
LWPOLYLINE
  5
2373
330
18
100
AcDbEntity
  8
image
100
AcDbPolyline
 90
        2
 70
     0
 43
0.0
 10
3.178676846834916
 20
7.639694422865233
 10
3.134697755599539
 20
7.639694422865229
  0
LWPOLYLINE
  5
2374
330
18
100
AcDbEntity
  8
image
100
AcDbPolyline
 90
        2
 70
     0
 43
0.0
 10
3.178676846834916
 20
7.90356897027749
 10
3.076058967285701
 20
7.90356897027749
  0
LWPOLYLINE
  5
2375
330
18
100
AcDbEntity
  8
image
100
AcDbPolyline
 90
        2
 70
     0
 43
0.0
 10
3.108259345215879
 20
7.930897843474134
 10
6.675471547606976
 20
7.930897843474134
  0
LWPOLYLINE
  5
2376
330
18
100
AcDbEntity
  8
image
100
AcDbPolyline
 90
        2
 70
     0
 43
0.0
 10
3.108259345215879
 20
8.29938079139589
 10
3.108259345215879
 20
7.930897843474134
  0
LWPOLYLINE
  5
2377
330
18
100
AcDbEntity
  8
image
100
AcDbPolyline
 90
        2
 70
     0
 43
0.0
 10
5.55926799135063
 20
6.247039248086964
 10
2.346355758778781
 20
6.247039248086961
  0
LWPOLYLINE
  5
2378
330
18
100
AcDbEntity
  8
image
100
AcDbPolyline
 90
        2
 70
     0
 43
0.0
 10
3.017420178971866
 20
8.29938079139589
 10
3.017420178971866
 20
7.771631696571359
  0
LWPOLYLINE
  5
2379
330
18
100
AcDbEntity
  8
image
100
AcDbPolyline
 90
        2
 70
     0
 43
0.0
 10
3.017420178971866
 20
7.771631696571359
 10
2.958781390658025
 20
7.537076543316011
  0
LWPOLYLINE
  5
237A
330
18
100
AcDbEntity
  8
image
100
AcDbPolyline
 90
        2
 70
     0
 43
0.0
 10
2.958781390658025
 20
7.537076543316011
 10
2.824811020276726
 20
6.892049871863784
  0
LWPOLYLINE
  5
237B
330
18
100
AcDbEntity
  8
image
100
AcDbPolyline
 90
        2
 70
     0
 43
0.0
 10
2.824811020276726
 20
6.892049871863784
 10
2.789570677908031
 20
6.42293956535309
  0
LWPOLYLINE
  5
237C
330
18
100
AcDbEntity
  8
image
100
AcDbPolyline
 90
        2
 70
     0
 43
0.0
 10
3.001661763329133
 20
7.527267595518292
 10
2.868452419467264
 20
6.885905035774655
  0
LWPOLYLINE
  5
237D
330
18
100
AcDbEntity
  8
image
100
AcDbPolyline
 90
        2
 70
     0
 43
0.0
 10
3.084742334210092
 20
7.859589879042108
 10
3.001661763329133
 20
7.527267595518292
  0
LWPOLYLINE
  5
237E
330
18
100
AcDbEntity
  8
image
100
AcDbPolyline
 90
        2
 70
     0
 43
0.0
 10
3.076058967285701
 20
8.29938079139589
 10
3.076058967285701
 20
7.90356897027749
  0
LWPOLYLINE
  5
237F
330
18
100
AcDbEntity
  8
image
100
AcDbPolyline
 90
        2
 70
     0
 43
0.0
 10
3.178676846834916
 20
7.90356897027749
 10
3.178676846834916
 20
7.639694422865229
  0
LWPOLYLINE
  5
2380
330
18
100
AcDbEntity
  8
image
100
AcDbPolyline
 90
        2
 70
     0
 43
0.0
 10
3.134697755599539
 20
7.859589879042108
 10
3.134697755599539
 20
7.639694422865229
  0
LWPOLYLINE
  5
2381
330
18
100
AcDbEntity
  8
image
100
AcDbPolyline
 90
        2
 70
     0
 43
0.0
 10
3.134697755599539
 20
7.859589879042108
 10
3.084742334210092
 20
7.859589879042108
  0
LWPOLYLINE
  5
2382
330
18
100
AcDbEntity
  8
image
100
AcDbPolyline
 90
        2
 70
     0
 43
0.0
 10
2.789570677908031
 20
6.42293956535309
 10
2.701364659019645
 20
6.42293956535309
  0
LWPOLYLINE
  5
2383
330
18
100
AcDbEntity
  8
image
100
AcDbPolyline
 90
        2
 70
     0
 43
0.0
 10
2.701364659019645
 20
6.42293956535309
 10
2.663104452921543
 20
6.247039248086956
  0
LWPOLYLINE
  5
2384
330
18
100
AcDbEntity
  8
image
100
AcDbPolyline
 90
        2
 70
     0
 43
0.0
 10
2.830369905255157
 20
6.378960474117718
 10
2.691798734859732
 20
6.378960474117718
  0
LWPOLYLINE
  5
2385
330
18
100
AcDbEntity
  8
image
100
AcDbPolyline
 90
        2
 70
     0
 43
0.0
 10
6.675471547606976
 20
8.299380791395897
 10
3.108259345215877
 20
8.29938079139589
  0
LWPOLYLINE
  5
2386
330
18
100
AcDbEntity
  8
image
100
AcDbPolyline
 90
        2
 70
     0
 43
0.0
 10
6.675471547606976
 20
7.930897843474134
 10
6.675471547606976
 20
8.29938079139589
  0
LWPOLYLINE
  5
2388
330
18
100
AcDbEntity
  8
image
100
AcDbPolyline
 90
        2
 70
     0
 43
0.0
 10
6.711663842743629
 20
7.90356897027749
 10
6.609045963194406
 20
7.90356897027749
  0
LWPOLYLINE
  5
2389
330
18
100
AcDbEntity
  8
image
100
AcDbPolyline
 90
        2
 70
     0
 43
0.0
 10
6.653025054429782
 20
7.859589879042108
 10
6.702980475819243
 20
7.859589879042108
  0
LWPOLYLINE
  5
238A
330
18
100
AcDbEntity
  8
image
100
AcDbPolyline
 90
        2
 70
     0
 43
0.0
 10
6.653025054429782
 20
7.859589879042108
 10
6.653025054429782
 20
7.639694422865229
  0
LWPOLYLINE
  5
238B
330
18
100
AcDbEntity
  8
image
100
AcDbPolyline
 90
        2
 70
     0
 43
0.0
 10
6.609045963194406
 20
7.90356897027749
 10
6.609045963194406
 20
7.639694422865229
  0
LWPOLYLINE
  5
238C
330
18
100
AcDbEntity
  8
image
100
AcDbPolyline
 90
        2
 70
     0
 43
0.0
 10
6.711663842743629
 20
8.29938079139589
 10
6.711663842743629
 20
7.90356897027749
  0
LWPOLYLINE
  5
238D
330
18
100
AcDbEntity
  8
image
100
AcDbPolyline
 90
        2
 70
     0
 43
0.0
 10
6.702980475819243
 20
7.859589879042108
 10
6.786061046700192
 20
7.527267595518292
  0
LWPOLYLINE
  5
238E
330
18
100
AcDbEntity
  8
image
100
AcDbPolyline
 90
        2
 70
     0
 43
0.0
 10
6.770302631057464
 20
7.771631696571359
 10
6.8289414193713
 20
7.537076543316011
  0
LWPOLYLINE
  5
238F
330
18
100
AcDbEntity
  8
image
100
AcDbPolyline
 90
        2
 70
     0
 43
0.0
 10
6.770302631057464
 20
8.29938079139589
 10
6.770302631057464
 20
7.771631696571359
  0
LWPOLYLINE
  5
2390
330
18
100
AcDbEntity
  8
image
100
AcDbPolyline
 90
        2
 70
     0
 43
0.0
 10
6.653025054429782
 20
7.639694422865229
 10
6.609045963194406
 20
7.639694422865233
  0
LWPOLYLINE
  5
2392
330
18
100
AcDbEntity
  8
image
100
AcDbPolyline
 90
        2
 70
     0
 43
0.0
 10
3.076058967285701
 20
8.29938079139589
 10
3.017420178971866
 20
8.29938079139589
  0
LWPOLYLINE
  5
2393
330
18
100
AcDbEntity
  8
image
100
AcDbPolyline
 90
        2
 70
     0
 43
0.0
 10
6.319559019368938
 20
5.955828260711965
 10
7.470970232673659
 20
5.955828260711965
  0
LWPOLYLINE
  5
2394
330
18
100
AcDbEntity
  8
image
100
AcDbPolyline
 90
        2
 70
     0
 43
0.0
 10
6.319559019368938
 20
6.247039248086965
 10
7.470970232673666
 20
6.247039248086958
  0
LWPOLYLINE
  5
2395
330
18
100
AcDbEntity
  8
image
100
AcDbPolyline
 90
        2
 70
     0
 43
0.0
 10
3.017420178971866
 20
8.29938079139589
 10
2.28650921914158
 20
8.297479216190053
  0
LWPOLYLINE
  5
2396
330
18
100
AcDbEntity
  8
image
100
AcDbPolyline
 90
        2
 70
     0
 43
0.0
 10
6.770302631057464
 20
8.29938079139589
 10
7.501213485653414
 20
8.297479216190053
  0
LWPOLYLINE
  5
2397
330
18
100
AcDbEntity
  8
image
100
AcDbPolyline
 90
        2
 70
     0
 43
0.0
 10
7.187959871029798
 20
5.955828260711966
 10
7.239412937568326
 20
5.719274105587038
  0
LWPOLYLINE
  5
2398
330
18
100
AcDbEntity
  8
image
100
AcDbPolyline
 90
        2
 70
     0
 43
0.0
 10
6.989139296718001
 20
5.955828260711966
 10
7.024529807414486
 20
5.484718952331695
  0
LWPOLYLINE
  5
23C4
330
18
100
AcDbEntity
  8
image
100
AcDbPolyline
 90
        2
 70
     0
 43
0.0
 10
2.798583513311321
 20
5.955828260711963
 10
2.763193002614833
 20
5.484718952331695
  0
LWPOLYLINE
  5
23C5
330
18
100
AcDbEntity
  8
image
100
AcDbPolyline
 90
        2
 70
     0
 43
0.0
 10
2.59976293899953
 20
5.955828260711964
 10
2.548309872461004
 20
5.719274105587038
  0
LWPOLYLINE
  5
23CA
330
18
100
AcDbEntity
  8
image
100
AcDbPolyline
 90
        7
 70
     0
 43
0.005
 10
4.167526680692612
 20
6.992468840133938
 10
4.091162237920968
 20
6.992468840133938
 42
0.5218266990919354
 10
4.075051986401419
 20
6.921274730077783
 42
-0.2182388031057643
 10
4.096042629621507
 20
6.855663433809944
 42
0.0620176448162722
 10
4.102929789563148
 20
5.029445790789097
 42
0.3715056888630494
 10
4.319951539143502
 20
4.83454767181999
 42
0.008256768256916
 10
4.689428166596341
 20
4.833136014608055
 42
-6.147641264562444
  0
LWPOLYLINE
  5
23CB
330
18
100
AcDbEntity
  8
image
100
AcDbPolyline
 90
        8
 70
     0
 43
0.005
 10
4.167526680692612
 20
6.992468840133938
 10
4.079628327124211
 20
7.006130866167332
 42
0.451136075209061
 10
4.002502133062975
 20
6.902203662610737
 42
-0.0748375526889925
 10
4.019957965124973
 20
6.610466137727733
 42
0.0272951704756452
 10
3.996945533895157
 20
5.954306917176751
 42
-0.0180068789975191
 10
3.981493052878207
 20
5.017316801032812
 42
-0.4580285231107707
 10
3.785558502173458
 20
4.824871150808164
 42
0.0193802826630233
 10
3.597198104554214
 20
4.833136014608055
 42
3.955711318851062
  0
LWPOLYLINE
  5
23CF
330
18
100
AcDbEntity
  8
image
 62
     1
100
AcDbPolyline
 90
        7
 70
   128
 43
0.005
 10
3.789899443603297
 20
7.11952014048714
 10
3.713535000831654
 20
7.11952014048714
 42
0.5218266990919354
 10
3.697424749312105
 20
7.048326030430985
 42
-0.2182388031057643
 10
3.718415392532193
 20
6.982714734163145
 42
0.0620176448162722
 10
3.725302552473834
 20
5.156497091142298
 42
0.2312904253090222
 10
4.002744753981716
 20
4.868269584596646
 42
0.1074407495841182
 10
4.689428166596341
 20
4.833136014608055
 42
-6.147641264562444
  0
LWPOLYLINE
  5
23D0
330
18
100
AcDbEntity
  8
image
 62
     1
100
AcDbPolyline
 90
        8
 70
   128
 43
0.005
 10
3.789899443603297
 20
7.11952014048714
 10
3.702001090034897
 20
7.133182166520533
 42
0.451136075209061
 10
3.624874895973661
 20
7.029254962963939
 42
-0.0748375526889925
 10
3.642330728035659
 20
6.737517438080935
 42
0.0272951704756452
 10
3.619318296805843
 20
6.081358217529952
 42
0.055210889618219
 10
3.679665159814035
 20
5.081640701013569
 42
-0.2637051029862303
 10
3.639408206388878
 20
4.870380958780678
 42
-0.0943929896304923
 10
3.597198104554214
 20
4.833136014608055
 42
3.955711318851062
  0
INSERT
  5
2425
330
18
100
AcDbEntity
  8
text_bubbles
100
AcDbBlockReference
 66
     1
  2
bubble
 10
4.583769731426281
 20
8.839142831185164
 30
0.0
  0
ATTRIB
  5
2497
330
2425
100
AcDbEntity
  8
text_bubbles
100
AcDbText
 10
4.524245921902472
 20
8.776642831185164
 30
0.0
 40
0.125
  1
2
  7
ROMANS
 72
     4
 11
4.583769731426281
 21
8.839142831185164
 31
0.0
100
AcDbAttribute
  2
#
 70
     0
1001
AcDbAttr
1070
     0
1070
     1
  0
SEQEND
  5
2427
330
2425
100
AcDbEntity
  8
text_bubbles
  0
LEADER
  5
242A
330
18
100
AcDbEntity
  8
text_bubbles
100
AcDbLeader
  3
STANDARD
 76
     2
 10
4.97229079315494
 20
7.414224001038447
 30
0.0
 10
4.620568797669772
 20
8.7041805663626
 30
0.0
1001
ACAD
1000
DSTYLE
1002
{
1070
    43
1040
0.3799999999999999
1070
    44
1040
0.125
1070
   140
1040
0.125
1070
   176
1070
   256
1070
   177
1070
   256
1070
   178
1070
   256
1070
   371
1070
    -1
1070
   372
1070
    -1
1002
}
  0
INSERT
  5
245B
330
18
100
AcDbEntity
  8
text_bubbles
100
AcDbBlockReference
 66
     1
  2
bubble
 10
6.572337073624479
 20
7.468644510830773
 30
0.0
  0
ATTRIB
  5
2498
330
245B
100
AcDbEntity
  8
text_bubbles
100
AcDbText
 10
6.51281326410067
 20
7.406144510830773
 30
0.0
 40
0.125
  1
7
  7
ROMANS
 72
     4
 11
6.572337073624479
 21
7.468644510830773
 31
0.0
100
AcDbAttribute
  2
#
 70
     0
1001
AcDbAttr
1070
     0
1070
     1
  0
SEQEND
  5
245D
330
245B
100
AcDbEntity
  8
text_bubbles
  0
INSERT
  5
245E
330
18
100
AcDbEntity
  8
text_bubbles
100
AcDbBlockReference
 66
     1
  2
bubble
 10
6.572337073624479
 20
7.133593510046117
 30
0.0
  0
ATTRIB
  5
2499
330
245E
100
AcDbEntity
  8
text_bubbles
100
AcDbText
 10
6.509837073624479
 20
7.071093510046117
 30
0.0
 40
0.125
  1
6
  7
ROMANS
 72
     4
 11
6.572337073624479
 21
7.133593510046117
 31
0.0
100
AcDbAttribute
  2
#
 70
     0
1001
AcDbAttr
1070
     0
1070
     1
  0
SEQEND
  5
2460
330
245E
100
AcDbEntity
  8
text_bubbles
  0
LEADER
  5
2461
330
18
100
AcDbEntity
  8
text_bubbles
100
AcDbLeader
  3
STANDARD
 76
     2
 10
5.803752152830603
 20
7.242086616297185
 30
0.0
 10
6.438156034873407
 20
7.429091596372898
 30
0.0
1001
ACAD
1000
DSTYLE
1002
{
1070
    43
1040
0.3799999999999999
1070
    44
1040
0.125
1070
   140
1040
0.125
1070
   176
1070
   256
1070
   177
1070
   256
1070
   178
1070
   256
1070
   371
1070
    -1
1070
   372
1070
    -1
1002
}
  0
LEADER
  5
2462
330
18
100
AcDbEntity
  8
text_bubbles
100
AcDbLeader
  3
STANDARD
 76
     2
 10
5.784987843156743
 20
6.974781572436881
 30
0.0
 10
6.435209576417091
 20
7.105934267249788
 30
0.0
1001
ACAD
1000
DSTYLE
1002
{
1070
    43
1040
0.3799999999999999
1070
    44
1040
0.125
1070
   140
1040
0.125
1070
   176
1070
   256
1070
   177
1070
   256
1070
   178
1070
   256
1070
   371
1070
    -1
1070
   372
1070
    -1
1002
}
  0
LEADER
  5
2463
330
18
100
AcDbEntity
  8
text_bubbles
100
AcDbLeader
  3
STANDARD
 76
     2
 10
6.112572026775573
 20
6.458406491817381
 30
0.0
 10
6.461132169368724
 20
6.724414073385161
 30
0.0
1001
ACAD
1000
DSTYLE
1002
{
1070
    43
1040
0.3799999999999999
1070
    44
1040
0.125
1070
   140
1040
0.125
1070
   176
1070
   256
1070
   177
1070
   256
1070
   178
1070
   256
1070
   371
1070
    -1
1070
   372
1070
    -1
1002
}
  0
INSERT
  5
2467
330
18
100
AcDbEntity
  8
text_bubbles
100
AcDbBlockReference
 66
     1
  2
bubble
 10
3.815817388241095
 20
7.462258116110252
 30
0.0
  0
ATTRIB
  5
2496
330
2467
100
AcDbEntity
  8
text_bubbles
100
AcDbText
 10
3.756293578717285
 20
7.399758116110252
 30
0.0
 40
0.125
  1
8
  7
ROMANS
 72
     4
 11
3.815817388241095
 21
7.462258116110252
 31
0.0
100
AcDbAttribute
  2
#
 70
     0
1001
AcDbAttr
1070
     0
1070
     1
  0
SEQEND
  5
2469
330
2467
100
AcDbEntity
  8
text_bubbles
  0
LEADER
  5
246D
330
18
100
AcDbEntity
  8
text_bubbles
100
AcDbLeader
  3
STANDARD
 76
     2
 10
4.647398375140089
 20
7.239547288227279
 30
0.0
 10
3.95094445825321
 20
7.426068902905629
 30
0.0
1001
ACAD
1000
DSTYLE
1002
{
1070
    43
1040
0.3799999999999999
1070
    44
1040
0.125
1070
   140
1040
0.125
1070
   176
1070
   256
1070
   177
1070
   256
1070
   178
1070
   256
1070
   371
1070
    -1
1070
   372
1070
    -1
1002
}
  0
LEADER
  5
246E
330
18
100
AcDbEntity
  8
text_bubbles
100
AcDbLeader
  3
STANDARD
 76
     2
 10
4.318320848676701
 20
7.158702595847376
 30
0.0
 10
3.935554968409419
 20
7.38992626905888
 30
0.0
1001
ACAD
1000
DSTYLE
1002
{
1070
    43
1040
0.3799999999999999
1070
    44
1040
0.125
1070
   140
1040
0.125
1070
   176
1070
   256
1070
   177
1070
   256
1070
   178
1070
   256
1070
   371
1070
    -1
1070
   372
1070
    -1
1002
}
  0
INSERT
  5
24A7
330
18
100
AcDbEntity
  8
text_bubbles
100
AcDbBlockReference
 66
     1
  2
bubble
 10
9.145682492133159
 20
8.439101389751897
 30
0.0
  0
ATTRIB
  5
24A8
330
24A7
100
AcDbEntity
  8
text_bubbles
100
AcDbText
 10
9.086158682609349
 20
8.376601389751897
 30
0.0
 40
0.125
  1
2
  7
ROMANS
 72
     4
 11
9.145682492133159
 21
8.439101389751897
 31
0.0
100
AcDbAttribute
  2
#
 70
     0
1001
AcDbAttr
1070
     0
1070
     1
  0
SEQEND
  5
24A9
330
24A7
100
AcDbEntity
  8
text_bubbles
  0
INSERT
  5
24AA
330
18
100
AcDbEntity
  8
text_bubbles
100
AcDbBlockReference
 66
     1
  2
bubble
 10
9.145682492133159
 20
7.795604010617388
 30
0.0
  0
ATTRIB
  5
24AB
330
24AA
100
AcDbEntity
  8
text_bubbles
100
AcDbText
 10
9.086158682609349
 20
7.733104010617388
 30
0.0
 40
0.125
  1
3
  7
ROMANS
 72
     4
 11
9.145682492133159
 21
7.795604010617388
 31
0.0
100
AcDbAttribute
  2
#
 70
     0
1001
AcDbAttr
1070
     0
1070
     1
  0
SEQEND
  5
24AC
330
24AA
100
AcDbEntity
  8
text_bubbles
  0
INSERT
  5
24AD
330
18
100
AcDbEntity
  8
text_bubbles
100
AcDbBlockReference
 66
     1
  2
bubble
 10
9.145682492133159
 20
7.350148220388902
 30
0.0
  0
ATTRIB
  5
24AE
330
24AD
100
AcDbEntity
  8
text_bubbles
100
AcDbText
 10
9.083182492133159
 20
7.287648220388902
 30
0.0
 40
0.125
  1
4
  7
ROMANS
 72
     4
 11
9.145682492133159
 21
7.350148220388902
 31
0.0
100
AcDbAttribute
  2
#
 70
     0
1001
AcDbAttr
1070
     0
1070
     1
  0
SEQEND
  5
24AF
330
24AD
100
AcDbEntity
  8
text_bubbles
  0
INSERT
  5
24B0
330
18
100
AcDbEntity
  8
text_bubbles
100
AcDbBlockReference
 66
     1
  2
bubble
 10
9.145682492133159
 20
6.932667895146906
 30
0.0
  0
ATTRIB
  5
24B1
330
24B0
100
AcDbEntity
  8
text_bubbles
100
AcDbText
 10
9.086158682609349
 20
6.870167895146906
 30
0.0
 40
0.125
  1
5
  7
ROMANS
 72
     4
 11
9.145682492133159
 21
6.932667895146906
 31
0.0
100
AcDbAttribute
  2
#
 70
     0
1001
AcDbAttr
1070
     0
1070
     1
  0
SEQEND
  5
24B2
330
24B0
100
AcDbEntity
  8
text_bubbles
  0
INSERT
  5
24B3
330
18
100
AcDbEntity
  8
text_bubbles
100
AcDbBlockReference
 66
     1
  2
bubble
 10
9.145682492133159
 20
6.494506756386094
 30
0.0
  0
ATTRIB
  5
24B4
330
24B3
100
AcDbEntity
  8
text_bubbles
100
AcDbText
 10
9.083182492133159
 20
6.432006756386094
 30
0.0
 40
0.125
  1
6
  7
ROMANS
 72
     4
 11
9.145682492133159
 21
6.494506756386094
 31
0.0
100
AcDbAttribute
  2
#
 70
     0
1001
AcDbAttr
1070
     0
1070
     1
  0
SEQEND
  5
24B5
330
24B3
100
AcDbEntity
  8
text_bubbles
  0
INSERT
  5
24B6
330
18
100
AcDbEntity
  8
text_bubbles
100
AcDbBlockReference
 66
     1
  2
bubble
 10
9.145682492133159
 20
5.842462747294426
 30
0.0
  0
ATTRIB
  5
24B7
330
24B6
100
AcDbEntity
  8
text_bubbles
100
AcDbText
 10
9.086158682609349
 20
5.779962747294426
 30
0.0
 40
0.125
  1
7
  7
ROMANS
 72
     4
 11
9.145682492133159
 21
5.842462747294426
 31
0.0
100
AcDbAttribute
  2
#
 70
     0
1001
AcDbAttr
1070
     0
1070
     1
  0
SEQEND
  5
24B8
330
24B6
100
AcDbEntity
  8
text_bubbles
  0
INSERT
  5
24B9
330
18
100
AcDbEntity
  8
text_bubbles
100
AcDbBlockReference
 66
     1
  2
bubble
 10
9.145682492133159
 20
5.006560109626725
 30
0.0
  0
ATTRIB
  5
24BA
330
24B9
100
AcDbEntity
  8
text_bubbles
100
AcDbText
 10
9.086158682609349
 20
4.944060109626725
 30
0.0
 40
0.125
  1
8
  7
ROMANS
 72
     4
 11
9.145682492133159
 21
5.006560109626725
 31
0.0
100
AcDbAttribute
  2
#
 70
     0
1001
AcDbAttr
1070
     0
1070
     1
  0
SEQEND
  5
24BB
330
24B9
100
AcDbEntity
  8
text_bubbles
  0
INSERT
  5
24BC
330
18
100
AcDbEntity
  8
text_bubbles
100
AcDbBlockReference
 66
     1
  2
bubble
 10
9.145682492133159
 20
4.381708937993614
 30
0.0
  0
ATTRIB
  5
24BD
330
24BC
100
AcDbEntity
  8
text_bubbles
100
AcDbText
 10
9.089134873085541
 20
4.319208937993614
 30
0.0
 40
0.125
  1
9
  7
ROMANS
 72
     4
 11
9.145682492133159
 21
4.381708937993614
 31
0.0
100
AcDbAttribute
  2
#
 70
     0
1001
AcDbAttr
1070
     0
1070
     1
  0
SEQEND
  5
24BE
330
24BC
100
AcDbEntity
  8
text_bubbles
  0
INSERT
  5
24BF
330
18
100
AcDbEntity
  8
text_bubbles
100
AcDbBlockReference
 66
     1
  2
bubble
 10
9.145682492133159
 20
3.942709028072293
 30
0.0
  0
ATTRIB
  5
24C0
330
24BF
100
AcDbEntity
  8
text_bubbles
100
AcDbText
 10
9.01770630165697
 20
3.880209028072293
 30
0.0
 40
0.125
  1
10
  7
ROMANS
 72
     4
 11
9.145682492133159
 21
3.942709028072293
 31
0.0
100
AcDbAttribute
  2
#
 70
     0
1001
AcDbAttr
1070
     0
1070
     1
  0
SEQEND
  5
24C1
330
24BF
100
AcDbEntity
  8
text_bubbles
  0
INSERT
  5
24C2
330
18
100
AcDbEntity
  8
text_bubbles
100
AcDbBlockReference
 66
     1
  2
bubble
 10
9.145682492133159
 20
3.508013005666597
 30
0.0
  0
ATTRIB
  5
24C3
330
24C2
100
AcDbEntity
  8
text_bubbles
100
AcDbText
 10
9.035563444514112
 20
3.445513005666597
 30
0.0
 40
0.125
  1
11
  7
ROMANS
 72
     4
 11
9.145682492133159
 21
3.508013005666597
 31
0.0
100
AcDbAttribute
  2
#
 70
     0
1001
AcDbAttr
1070
     0
1070
     1
  0
SEQEND
  5
24C4
330
24C2
100
AcDbEntity
  8
text_bubbles
  0
INSERT
  5
4510
330
18
100
AcDbEntity
  8
text_bubbles
100
AcDbBlockReference
 66
     1
  2
bubble
 10
9.145682492133159
 20
3.091628276718243
 30
0.0
  0
ATTRIB
  5
4511
330
4510
100
AcDbEntity
  8
text_bubbles
100
AcDbText
 10
9.01770630165697
 20
3.029128276718243
 30
0.0
 40
0.125
  1
12
  7
ROMANS
 72
     4
 11
9.145682492133159
 21
3.091628276718243
 31
0.0
100
AcDbAttribute
  2
#
 70
     0
1001
AcDbAttr
1070
     0
1070
     1
  0
SEQEND
  5
4512
330
4510
100
AcDbEntity
  8
text_bubbles
  0
INSERT
  5
4513
330
18
100
AcDbEntity
  8
text_bubbles
100
AcDbBlockReference
 66
     1
  2
bubble
 10
3.979120805847653
 20
4.193203858587289
 30
0.0
  0
ATTRIB
  5
4514
330
4513
100
AcDbEntity
  8
text_bubbles
100
AcDbText
 10
3.851144615371462
 20
4.130703858587289
 30
0.0
 40
0.125
  1
12
  7
ROMANS
 72
     4
 11
3.979120805847653
 21
4.193203858587289
 31
0.0
100
AcDbAttribute
  2
#
 70
     0
1001
AcDbAttr
1070
     0
1070
     1
  0
SEQEND
  5
4515
330
4513
100
AcDbEntity
  8
text_bubbles
  0
LEADER
  5
4517
330
18
100
AcDbEntity
  8
text_bubbles
100
AcDbLeader
  3
STANDARD
 76
     2
 10
4.047149112794055
 20
4.856883183455481
 30
0.0
 10
3.993384957099038
 20
4.332363903828394
 30
0.0
1001
ACAD
1000
DSTYLE
1002
{
1070
    43
1040
0.3799999999999999
1070
    44
1040
0.125
1070
   140
1040
0.125
1070
   176
1070
   256
1070
   177
1070
   256
1070
   178
1070
   256
1070
   371
1070
    -1
1070
   372
1070
    -1
1002
}
  0
VIEWPORT
  5
43A5
102
{ACAD_XDICTIONARY
360
43A6
102
}
330
43A4
100
AcDbEntity
 67
     1
  8
0
100
AcDbViewport
 10
5.557749732164463
 20
3.974368361901517
 30
0.0
 40
25.35558285274094
 41
11.05903398926655
 68
     1
 69
     1
 12
5.557749732164463
 22
3.974368361901517
 13
0.0
 23
0.0
 14
0.5
 24
0.5
 15
0.5
 25
0.5
 16
0.0
 26
0.0
 36
1.0
 17
0.0
 27
0.0
 37
0.0
 42
50.0
 43
0.0
 44
0.0
 45
11.05903398926655
 50
0.0
 51
0.0
 72
  2000
 90
   819232
  1

281
     0
 71
     1
 74
     0
110
0.0
120
0.0
130
0.0
111
1.0
121
0.0
131
0.0
112
0.0
122
1.0
132
0.0
 79
     0
146
0.0
170
     0
  0
VIEWPORT
  5
43A8
102
{ACAD_XDICTIONARY
360
43A9
102
}
330
43A4
100
AcDbEntity
 67
     1
  8
viewport
100
AcDbViewport
 10
5.557749732164463
 20
3.974368361901516
 30
0.0
 40
17.0
 41
11.0
 68
     2
 69
     2
 12
8.244999999999995
 22
5.219999999999997
 13
0.0
 23
0.0
 14
0.5
 24
0.5
 15
0.5
 25
0.5
 16
0.0
 26
0.0
 36
1.0
 17
0.0
 27
0.0
 37
0.0
 42
50.0
 43
0.0
 44
0.0
 45
11.0
 50
0.0
 51
0.0
 72
   500
 90
   835680
  1

281
     0
 71
     1
 74
     0
110
0.0
120
0.0
130
0.0
111
1.0
121
0.0
131
0.0
112
0.0
122
1.0
132
0.0
 79
     0
146
0.0
170
     0
  0
ENDSEC
  0
SECTION
  2
OBJECTS
  0
DICTIONARY
  5
C
330
0
100
AcDbDictionary
281
     1
  3
ACAD_CIP_PREVIOUS_PRODUCT_INFO
350
1970
  3
ACAD_COLOR
350
17EA
  3
ACAD_DETAILVIEWSTYLE
350
1968
  3
ACAD_FIELDLIST
350
1976
  3
ACAD_GROUP
350
D
  3
ACAD_LAYOUT
350
21C
  3
ACAD_MATERIAL
350
17E9
  3
ACAD_MLEADERSTYLE
350
1857
  3
ACAD_MLINESTYLE
350
E
  3
ACAD_PLOTSETTINGS
350
21D
  3
ACAD_PLOTSTYLENAME
350
21A
  3
ACAD_SCALELIST
350
1835
  3
ACAD_SECTIONVIEWSTYLE
350
1966
  3
ACAD_TABLESTYLE
350
17EB
  3
ACAD_VISUALSTYLE
350
1824
  3
AcadDim
350
15F2
  3
ACDB_RECOMPOSE_DATA
350
4636
  3
AcDbVariableDictionary
350
24B
  3
AcDsDecomposeData
350
463D
  3
AcSheetSetData
350
44FF
  3
AEC_PROPERTY_SET_DEFS
350
20F7
  3
AECC_LASTSAVED_APPVERSION
350
456F
  3
ASE_INDEX_DICTIONARY
350
1991
  3
BNS_SELSET
350
300
  3
{24DE2741-47F6-4298-B91B-737E814BAE3E}
350
3E48
1001
BBSI_PltSel
1000
1
1000

1001
BBSI_Bookmarks
1000
1
1000
1
1000
0
1000
1
1000
0
1000
0
1000
0
1000
0
1000
0
1000
0
1000
0
1001
BBSI_BookmarksEx
1000
0
1000
0
1000

1000
0
1001
BBSI_Plots
1000

1000
ANSI_A_(11.00_x_8.50_Inches)
1000
279.399993896484
1000
215.899993896484
1000
0
1000
1
1000
1
1000
0
1000
3.556
1000
1
1000
0
1000
1
1000
1.27757700485006
1000
0
1000
1
1000
OKIColorShaded.ctb
1000
0
1000
0
1000
1
1000
1
1000
0
1000
0
1000
9.86161803875578
1000
-0.380845831544185
1000
23.6293092545551
1000
10.2256668955838
1000

1000

  0
DICTIONARY
  5
1954
330
8
100
AcDbDictionary
280
     1
281
     1
  0
DICTIONARY
  5
174A
330
2
100
AcDbDictionary
280
     1
281
     1
  3
ACAD_LAYERFILTERS
360
1940
  3
ACAD_LAYERSTATES
360
174B
  0
DICTIONARY
  5
247
330
18
100
AcDbDictionary
280
     1
281
     1
  3
ACAD_LAYOUTSELFREF
360
2FA
  3
ACAD_SORTENTS
360
198F
  0
DICTIONARY
  5
2492
330
3A7
100
AcDbDictionary
280
     1
281
     1
  0
DICTIONARY
  5
1929
330
17C0
100
AcDbDictionary
280
     1
281
     1
  3
ACAD_SORTENTS
360
192A
  0
DICTIONARY
  5
467E
330
228D
100
AcDbDictionary
280
     1
281
     1
  3
AcDbBlockTableRecordData
360
467F
  0
DICTIONARY
  5
194F
330
12DE
100
AcDbDictionary
280
     1
281
     1
  3
ACAD_MTEXT_2008_RT
360
4633
  0
DICTIONARY
  5
1951
330
1616
100
AcDbDictionary
280
     1
281
     1
  3
ACAD_MTEXT_2008_RT
360
4634
  0
DICTIONARY
  5
1972
330
17D7
100
AcDbDictionary
280
     1
281
     1
  3
ACAD_FIELD
360
456B
  0
DICTIONARY
  5
43A6
330
43A5
100
AcDbDictionary
280
     1
281
     1
  3
ASDK_XREC_ANNOTATION_SCALE_INFO
360
43A7
  0
DICTIONARY
  5
43A9
330
43A8
100
AcDbDictionary
280
     1
281
     1
  3
ASDK_XREC_ANNOTATION_SCALE_INFO
360
43AA
  0
XRECORD
  5
1970
102
{ACAD_REACTORS
330
C
102
}
330
C
100
AcDbXrecord
280
     1
300
ACD
300
2021
300

  0
DICTIONARY
  5
17EA
102
{ACAD_REACTORS
330
C
102
}
330
C
100
AcDbDictionary
281
     1
  0
DICTIONARY
  5
1968
102
{ACAD_REACTORS
330
C
102
}
330
C
100
AcDbDictionary
281
     1
  3
Imperial24
350
1969
  0
FIELDLIST
  5
1976
102
{ACAD_REACTORS
330
C
102
}
330
C
100
AcDbIdSet
 90
        2
330
460F
330
456C
100
AcDbFieldList
  0
DICTIONARY
  5
D
102
{ACAD_REACTORS
330
C
102
}
330
C
100
AcDbDictionary
281
     1
  0
DICTIONARY
  5
21C
102
{ACAD_REACTORS
330
C
102
}
330
C
100
AcDbDictionary
281
     1
  3
1
350
43A3
  3
Model
350
21E
  0
DICTIONARY
  5
17E9
102
{ACAD_REACTORS
330
C
102
}
330
C
100
AcDbDictionary
281
     1
  3
ByBlock
350
1814
  3
ByLayer
350
180C
  3
Global
350
181C
  0
DICTIONARY
  5
1857
102
{ACAD_REACTORS
330
C
102
}
330
C
100
AcDbDictionary
281
     1
  3
ArialNarrow
350
19C7
  3
Standard
350
1858
  0
DICTIONARY
  5
E
102
{ACAD_REACTORS
330
C
102
}
330
C
100
AcDbDictionary
281
     1
  3
STANDARD
350
1B
  0
DICTIONARY
  5
21D
102
{ACAD_REACTORS
330
C
102
}
330
C
100
AcDbDictionary
281
     1
  3
1055 B&W Full Shaded Draft
350
338
  3
1055 B&W Full Shaded Final
350
339
  3
1055 B&W Half Shaded Draft
350
33A
  3
1055 B&W Half Shaded Final
350
33B
  3
1055 Color Full Shaded Draft
350
33C
  3
1055 Color Full Shaded Final
350
33D
  3
1055 Color Half Shaded Draft
350
33E
  3
1055 Color Half Shaded Final
350
33F
  3
1055-B&W-Shaded-Draft
350
340
  3
1055-B&W-Shaded-Final
350
341
  3
1055-Color-Shaded-Draft
350
342
  3
1055-Color-Shaded-Final
350
343
  3
8500 B&W Shaded 11x17
350
344
  3
8500 B&W Shaded 8.5x11
350
345
  3
8500 Color Shaded 11x17
350
346
  3
8500 Color Shaded 8.5x11
350
347
  3
8500-B&W-Shaded-11x17
350
348
  3
8500-B&W-Shaded-8.5x11
350
349
  3
8500-Color-Shaded-11x17
350
34A
  3
8500-Color-Shaded-8.5x11
350
34B
  3
Laser Jet 5 Shaded 11x17
350
34C
  3
Laser Jet 5 Shaded 8.5x11
350
34D
  3
LaserJet5-Shaded-11x17
350
34E
  3
LaserJet5-Shaded-8.5x11
350
34F
  0
ACDBDICTIONARYWDFLT
  5
21A
102
{ACAD_REACTORS
330
C
102
}
330
C
100
AcDbDictionary
281
     1
  3
Normal
350
21B
100
AcDbDictionaryWithDefault
340
21B
  0
DICTIONARY
  5
1835
102
{ACAD_REACTORS
330
C
102
}
330
C
100
AcDbDictionary
281
     1
  3
A0
350
1836
  3
A1
350
1837
  3
A2
350
1838
  3
A3
350
1839
  3
A4
350
183A
  3
A5
350
183B
  3
A6
350
183C
  3
A7
350
183D
  3
A8
350
183E
  3
A9
350
183F
  3
B0
350
1840
  3
B1
350
1841
  3
B2
350
1842
  3
B3
350
1843
  3
B4
350
1844
  3
B5
350
1845
  3
B6
350
1846
  3
B7
350
1847
  3
B8
350
1848
  3
B9
350
1849
  3
C0
350
184A
  3
C1
350
184B
  3
C2
350
184C
  3
C3
350
184D
  3
C4
350
184E
  3
C5
350
184F
  3
C6
350
1850
  3
C7
350
1851
  3
C8
350
1852
  3
C9
350
1853
  3
D0
350
1854
  3
D1
350
1855
  3
D2
350
1856
  0
DICTIONARY
  5
1966
102
{ACAD_REACTORS
330
C
102
}
330
C
100
AcDbDictionary
281
     1
  3
Imperial24
350
1967
  0
DICTIONARY
  5
17EB
102
{ACAD_REACTORS
330
C
102
}
330
C
100
AcDbDictionary
281
     1
  3
Standard
350
17EC
  0
DICTIONARY
  5
1824
102
{ACAD_REACTORS
330
C
102
}
330
C
100
AcDbDictionary
281
     1
  3
2dWireframe
350
182A
  3
3D Hidden
350
182C
  3
3dWireframe
350
182B
  3
Basic
350
1829
  3
Brighten
350
1830
  3
ColorChange
350
1834
  3
Conceptual
350
182D
  3
Dim
350
182F
  3
EdgeColorOff
350
1965
  3
Facepattern
350
1833
  3
Flat
350
1825
  3
FlatWithEdges
350
1826
  3
Gouraud
350
1827
  3
GouraudWithEdges
350
1828
  3
Hidden
350
195D
  3
JitterOff
350
1963
  3
Linepattern
350
1832
  3
OverhangOff
350
1964
  3
Realistic
350
182E
  3
Shaded
350
1962
  3
Shaded with edges
350
1961
  3
Shades of Gray
350
195E
  3
Sketchy
350
195F
  3
Thicken
350
1831
  3
Wireframe
350
195C
  3
X-Ray
350
1960
  0
XRECORD
  5
15F2
102
{ACAD_REACTORS
330
C
102
}
330
C
100
AcDbXrecord
280
     1
 90
   990106
  3

 60
     0
 61
     0
 62
     1
 63
     3
 64
     0
 65
     0
 66
     0
 67
     3
 68
     1
 69
     0
 70
     0
 71
     0
 72
     0
 40
0.0
170
     0
  0
XRECORD
  5
4636
102
{ACAD_REACTORS
330
C
102
}
330
C
100
AcDbXrecord
280
     1
 90
        1
330
12DE
330
1616
330
17EC
  0
DICTIONARY
  5
24B
102
{ACAD_REACTORS
330
C
102
}
330
C
100
AcDbDictionary
281
     1
  3
CANNOSCALE
350
18AA
  3
CMLEADERSTYLE
350
18A8
  3
CTABLESTYLE
350
17F2
  3
CVIEWDETAILSTYLE
350
24EE
  3
CVIEWSECTIONSTYLE
350
24EF
  3
DIMASSOC
350
24C
  3
DRAWORDERCTL
350
17F3
  3
GEOMARKERVISIBILITY
350
24F0
  3
LAYEREVAL
350
195A
  3
LAYERNOTIFY
350
18AC
  3
LIGHTINGUNITS
350
18AB
  3
MSLTSCALE
350
18A9
  3
SORTENTS
350
14B0
  0
DICTIONARY
  5
463D
102
{ACAD_REACTORS
330
C
102
}
330
C
100
AcDbDictionary
281
     1
  3
AcDsRecords
350
463F
  3
AcDsSchemas
350
463E
1001
ACAD
1070
     2
  0
DICTIONARY
  5
44FF
102
{ACAD_REACTORS
330
C
102
}
330
C
100
AcDbDictionary
281
     1
  3
LayoutHandle
350
4504
  3
LayoutName
350
4503
  3
SheetDwgName
350
4502
  3
ShSetFileName
350
4501
  3
ShSetVersion
350
4500
  3
UpdateCount
350
4505
  3
UpdateTime
350
4506
  0
DICTIONARY
  5
20F7
102
{ACAD_REACTORS
330
C
102
}
330
C
100
AcDbDictionary
281
     1
  0
XRECORD
  5
456F
102
{ACAD_REACTORS
330
C
102
}
330
C
100
AcDbXrecord
280
     1
 70
    13
 70
     3
 70
   854
 70
     0
  0
DICTIONARY
  5
1991
102
{ACAD_REACTORS
330
C
102
}
330
C
100
AcDbDictionary
281
     1
  3
ASEBlockHierarchyIndexRecord
350
1992
1001
DCO15
1040
2016698009.0
  0
DICTIONARY
  5
300
102
{ACAD_REACTORS
330
C
102
}
330
0
100
AcDbDictionary
281
     1
  0
DICTIONARY
  5
3E48
102
{ACAD_REACTORS
330
C
102
}
330
C
100
AcDbDictionary
281
     1
  3
10_22_2020-16_36_44
350
3E49
  3
10_22_2020-18_58_09
350
41F2
  3
10_22_2020-20_22_06
350
4392
  3
11_03_2020-18_48_58
350
4426
  3
11_04_2020-21_58_34
350
4470
  3
11_04_2020-22_01_59
350
4494
  3
11_05_2020-17_52_14
350
44B7
  3
11_05_2020-18_18_59
350
44DA
  3
11_10_2020-18_17_17
350
456A
  3
11_16_2020-20_34_31
350
4632
  0
DICTIONARY
  5
1940
102
{ACAD_REACTORS
330
174A
102
}
330
174A
100
AcDbDictionary
281
     1
  3
_0100-
350
1943
  3
_0280-
350
1942
  3
_Add Alternate
350
1945
  3
_Bid Alternate
350
1946
  3
_Color 253
350
1948
  3
_Color 8
350
1944
  3
_Color 84
350
1947
  3
_Contours
350
194E
  3
_Demo
350
1949
  3
_Existing
350
194A
  3
_Hardscape
350
194D
  3
_NoXref
350
1941
  3
_Row
350
194B
  3
_Utility
350
194C
  0
DICTIONARY
  5
174B
102
{ACAD_REACTORS
330
174A
102
}
330
174A
100
AcDbDictionary
281
     1
  0
XRECORD
  5
2FA
102
{ACAD_REACTORS
330
247
102
}
330
247
100
AcDbXrecord
280
     1
340
18
  0
SORTENTSTABLE
  5
198F
102
{ACAD_REACTORS
330
247
102
}
330
247
100
AcDbSortentsTable
330
18
331
BBB
  5
BBC
331
BBC
  5
BBD
331
BBD
  5
BBE
331
BBE
  5
BBF
331
BBF
  5
BC0
331
BC0
  5
BC1
331
BC1
  5
BC2
331
BC2
  5
BC3
331
BC3
  5
BC4
331
BC4
  5
BC5
331
BC5
  5
BC6
331
BC6
  5
BC7
331
BC7
  5
BC8
331
BC8
  5
BC9
331
BC9
  5
BCA
331
BCA
  5
BCD
331
BCD
  5
BCE
331
BD3
  5
BD4
331
C50
  5
CA3
331
CA3
  5
CAC
331
D1B
  5
D4E
331
D4D
  5
D4F
331
D4E
  5
DA7
331
D4F
  5
DA8
331
12DC
  5
12DE
331
12DD
  5
12DF
331
12DE
  5
12E2
331
12DF
  5
12E5
331
1312
  5
1314
331
1313
  5
1315
331
1314
  5
1316
331
1315
  5
131D
331
1316
  5
131E
331
131E
  5
1336
331
1330
  5
1339
331
1336
  5
1345
331
1339
  5
134B
331
134B
  5
13D6
331
13D5
  5
13D7
331
13D6
  5
13D8
331
13D7
  5
13DB
331
13D8
  5
13DC
331
13DB
  5
13DD
331
13DC
  5
13DE
331
13DD
  5
13DF
331
13DE
  5
13E0
331
13DF
  5
13E1
331
13E0
  5
13E2
331
13E1
  5
13E3
331
13E2
  5
13E4
331
13E3
  5
13E5
331
13E4
  5
13E6
331
13E5
  5
1451
331
15DE
  5
1605
331
1602
  5
1616
331
1605
  5
1617
331
1616
  5
16AB
331
1617
  5
16AC
331
1774
  5
1786
331
177C
  5
1790
331
1786
  5
17CF
331
1790
  5
1978
331
17CF
  5
1989
331
1989
  5
198E
331
198A
  5
1990
  0
SORTENTSTABLE
  5
192A
102
{ACAD_REACTORS
330
1929
102
}
330
1929
100
AcDbSortentsTable
330
17C0
  0
DICTIONARY
  5
467F
102
{ACAD_REACTORS
330
467E
102
}
330
467E
100
AcDbDictionary
280
     1
281
     1
  3
Edit
360
4680
  0
XRECORD
  5
4633
102
{ACAD_REACTORS
330
194F
102
}
330
194F
100
AcDbXrecord
280
     1
 40
12123633.0
  1
\pxi-1,l1;RAIN BIRD IVM-SEN\P\PWATERPROOF CONNECTION RAIN BIRD WC20 (FOUR REQUIRED)\P\PVALVE BOX WITH COVER: RAIN BIRD VB-STD\P\PFINISH GRADE/TOP OF MULCH\P\PFLOW SENSOR\P\PCONNECT THE RED/WHITE STRIPED WIRE ON IVM-SEN TO THE FLOW SENSOR RED WIRE\P\P
  1
CONNECT THE BLACK/WHITE STRIPED WIRE ON IVM-SEN TO THE FLOW SENSOR BLACK WIRE. BE SURE TO FOLLOW ALL INSTRUCTIONS INCLUDED IN THE FLOW SENSOR.\P\PCONNECT THE RED AND BLACK WIRES ON THE IVM-SEN TO THE TWO-WIRE PATH\P\PPVC MAINLINE PIPE\P\PBRICK (1 OF 
  1
4)\P\P3-INCH MINIMUM DEPTH OF 3/4-INCH WASHED GRAVEL\P\PTWO-WIRE CABLE BETWEEN DEVICES
  0
XRECORD
  5
4634
102
{ACAD_REACTORS
330
1951
102
}
330
1951
100
AcDbXrecord
280
     1
 40
6713430.0
  1
{\Fromans|c0;NOTES:\P\pxi-4,l4,t3;1.^ICOIL AN ADDITIONAL 3-FEET OF TWO-WIRE CABLE IN VALVE BOX FOR EASY SERVICING.\P\pi0,l0,tz;\P\pi-4,l4,t3;2.^IFOR OPTIMUM PERFORMANCE, FLOW SENSORS SHOULD BE INSTALLED A MINIMUM OF 10 PIPE DIAMETERS IN LENGTH ON THE U
  1
PSTREAM (SUPPLY) SIDE AND A LEAST 5 PIPE DIAMETERS IN LENGTH ON THE DOWNSTREAM (DELIVERY) SIDE BEFORE MAKING ANY TRANSITIONS IN PIPE SIZE/DIRECTION OR AWAY FROM THE MASTER VALVE.}
  0
DICTIONARY
  5
456B
102
{ACAD_REACTORS
330
1972
102
}
330
1972
100
AcDbDictionary
280
     1
281
     1
  3
TEXT
360
456C
  0
XRECORD
  5
43A7
102
{ACAD_REACTORS
330
43A6
102
}
330
43A6
100
AcDbXrecord
280
     1
 90
        1
340
1836
  0
XRECORD
  5
43AA
102
{ACAD_REACTORS
330
43A9
102
}
330
43A9
100
AcDbXrecord
280
     1
 90
        1
340
1836
  0
ACDBDETAILVIEWSTYLE
  5
1969
102
{ACAD_XDICTIONARY
360
467A
102
}
102
{ACAD_REACTORS
330
1968
102
}
330
1968
100
AcDbModelDocViewStyle
 70
     0
  3
Imperial24
290
     0
100
AcDbDetailViewStyle
 70
     0
 71
     0
 90
        3
 71
     1
340
10
 62
   256
 40
0.24
340
0
 62
   256
 40
0.24
300

 40
0.36
280
     3
 71
     2
340
14
 90
       25
 62
   256
 71
     3
340
10
 62
   256
 40
0.24
 90
        1
 40
0.75
 90
        1
300
%<\AcVar ViewType \f "%tc1">% %<\AcVar ViewDetailId>%\PSCALE %<\AcVar ViewScale \f "%sn">%
 71
     4
340
14
 90
       25
 62
   256
340
14
 90
       25
 62
   256
280
     0
  0
LAYOUT
  5
43A3
102
{ACAD_XDICTIONARY
360
45F2
102
}
102
{ACAD_REACTORS
330
21C
102
}
330
21C
100
AcDbPlotSettings
  1

  2
_DWG To PDF.pc3
  4
ANSI_full_bleed_B_(17.00_x_11.00_Inches)
  6

 40
0.0
 41
0.0
 42
0.0
 43
0.0
 44
431.7999877929687
 45
279.3999938964844
 46
0.0
 47
0.0000008975758172
 48
0.0
 49
0.0
140
0.0
141
0.0
142
1.0
143
1.000000028270105
 70
   758
 72
     0
 73
     0
 74
     1
  7
Full_B&W.ctb
 75
     0
147
0.9999999717298953
 76
     0
 77
     5
 78
   300
148
74.73315680302262
149
38.75104360770147
100
AcDbLayout
  1
1
 70
     1
 71
     1
 10
-2.942250267835536
 20
-1.525631673436114
 11
14.05774973216446
 21
9.474368397239148
 12
0.0
 22
0.0
 32
0.0
 14
-2.942250267835536
 24
-1.525631638098483
 34
0.0
 15
14.05774973216446
 25
9.474368361901516
 35
0.0
146
0.0
 13
0.0
 23
0.0
 33
0.0
 16
1.0
 26
0.0
 36
0.0
 17
0.0
 27
1.0
 37
0.0
 76
     0
330
43A4
331
43A5
1001
ACAD_PSEXT
1000
_DWG To PDF.pc3
1000
DWG To PDF
1000
File
1000

1070
     0
1001
PLOTTRANSPARENCY
1071
        1
  0
LAYOUT
  5
21E
102
{ACAD_XDICTIONARY
360
45B6
102
}
102
{ACAD_REACTORS
330
21C
102
}
330
21C
100
AcDbPlotSettings
  1

  2
OKI DOKI Color Laser.pc3
  4
Letter
  6

 40
5.027082920074462
 41
5.027070522308349
 42
5.027099609375
 43
5.027084350585937
 44
279.3999938964844
 45
215.8999938964844
 46
69.51127562268418
 47
-0.0000000000000019
 48
9.861618038755779
 49
-0.3808458315441854
140
23.62930925455509
141
10.22566689558383
142
1.0
143
2.034755727814345
 70
 11956
 72
     0
 73
     1
 74
     1
  7
OKIColorShaded.ctb
 75
     0
147
0.4914594839716512
 76
     1
 77
     2
 78
   300
148
0.0
149
0.0
100
AcDbLayout
  1
Model
 70
     1
 71
     0
 10
0.0
 20
0.0
 11
12.0
 21
9.0
 12
0.0
 22
0.0
 32
0.0
 14
0.0
 24
0.0
 34
0.0
 15
0.0
 25
0.0
 35
0.0
146
0.0
 13
0.0
 23
0.0
 33
0.0
 16
1.0
 26
0.0
 36
0.0
 17
0.0
 27
1.0
 37
0.0
 76
     0
330
18
331
180A
1001
ACAD_PSEXT
1000
OKI DOKI Color Laser.pc3
1000
OKI C9500(PCL)
1000
Front
1000

1070
     0
  0
MATERIAL
  5
1814
102
{ACAD_XDICTIONARY
360
1815
102
}
102
{ACAD_REACTORS
330
17E9
102
}
330
17E9
100
AcDbMaterial
  1
ByBlock
 72
     0
 43
0.0208333333333333
 43
0.0
 43
0.0
 43
0.0
 43
0.0
 43
0.0208333333333333
 43
0.0
 43
0.0
 43
0.0
 43
0.0
 43
1.0
 43
0.0
 43
0.0
 43
0.0
 43
0.0
 43
1.0
 77
     0
 47
0.0208333333333333
 47
0.0
 47
0.0
 47
0.0
 47
0.0
 47
0.0208333333333333
 47
0.0
 47
0.0
 47
0.0
 47
0.0
 47
1.0
 47
0.0
 47
0.0
 47
0.0
 47
0.0
 47
1.0
171
     0
 49
0.0208333333333333
 49
0.0
 49
0.0
 49
0.0
 49
0.0
 49
0.0208333333333333
 49
0.0
 49
0.0
 49
0.0
 49
0.0
 49
1.0
 49
0.0
 49
0.0
 49
0.0
 49
0.0
 49
1.0
175
     0
142
0.0208333333333333
142
0.0
142
0.0
142
0.0
142
0.0
142
0.0208333333333333
142
0.0
142
0.0
142
0.0
142
0.0
142
1.0
142
0.0
142
0.0
142
0.0
142
0.0
142
1.0
179
     0
144
0.0208333333333333
144
0.0
144
0.0
144
0.0
144
0.0
144
0.0208333333333333
144
0.0
144
0.0
144
0.0
144
0.0
144
1.0
144
0.0
144
0.0
144
0.0
144
0.0
144
1.0
147
0.0208333333333333
147
0.0
147
0.0
147
0.0
147
0.0
147
0.0208333333333333
147
0.0
147
0.0
147
0.0
147
0.0
147
1.0
147
0.0
147
0.0
147
0.0
147
0.0
147
1.0
  0
MATERIAL
  5
180C
102
{ACAD_XDICTIONARY
360
180D
102
}
102
{ACAD_REACTORS
330
17E9
102
}
330
17E9
100
AcDbMaterial
  1
ByLayer
 72
     0
 43
0.0208333333333333
 43
0.0
 43
0.0
 43
0.0
 43
0.0
 43
0.0208333333333333
 43
0.0
 43
0.0
 43
0.0
 43
0.0
 43
1.0
 43
0.0
 43
0.0
 43
0.0
 43
0.0
 43
1.0
 77
     0
 47
0.0208333333333333
 47
0.0
 47
0.0
 47
0.0
 47
0.0
 47
0.0208333333333333
 47
0.0
 47
0.0
 47
0.0
 47
0.0
 47
1.0
 47
0.0
 47
0.0
 47
0.0
 47
0.0
 47
1.0
171
     0
 49
0.0208333333333333
 49
0.0
 49
0.0
 49
0.0
 49
0.0
 49
0.0208333333333333
 49
0.0
 49
0.0
 49
0.0
 49
0.0
 49
1.0
 49
0.0
 49
0.0
 49
0.0
 49
0.0
 49
1.0
175
     0
142
0.0208333333333333
142
0.0
142
0.0
142
0.0
142
0.0
142
0.0208333333333333
142
0.0
142
0.0
142
0.0
142
0.0
142
1.0
142
0.0
142
0.0
142
0.0
142
0.0
142
1.0
179
     0
144
0.0208333333333333
144
0.0
144
0.0
144
0.0
144
0.0
144
0.0208333333333333
144
0.0
144
0.0
144
0.0
144
0.0
144
1.0
144
0.0
144
0.0
144
0.0
144
0.0
144
1.0
147
0.0208333333333333
147
0.0
147
0.0
147
0.0
147
0.0
147
0.0208333333333333
147
0.0
147
0.0
147
0.0
147
0.0
147
1.0
147
0.0
147
0.0
147
0.0
147
0.0
147
1.0
  0
MATERIAL
  5
181C
102
{ACAD_XDICTIONARY
360
181D
102
}
102
{ACAD_REACTORS
330
17E9
102
}
330
17E9
100
AcDbMaterial
  1
Global
 72
     0
 43
0.0208333333333333
 43
0.0
 43
0.0
 43
0.0
 43
0.0
 43
0.0208333333333333
 43
0.0
 43
0.0
 43
0.0
 43
0.0
 43
1.0
 43
0.0
 43
0.0
 43
0.0
 43
0.0
 43
1.0
 77
     0
 47
0.0208333333333333
 47
0.0
 47
0.0
 47
0.0
 47
0.0
 47
0.0208333333333333
 47
0.0
 47
0.0
 47
0.0
 47
0.0
 47
1.0
 47
0.0
 47
0.0
 47
0.0
 47
0.0
 47
1.0
171
     0
 49
0.0208333333333333
 49
0.0
 49
0.0
 49
0.0
 49
0.0
 49
0.0208333333333333
 49
0.0
 49
0.0
 49
0.0
 49
0.0
 49
1.0
 49
0.0
 49
0.0
 49
0.0
 49
0.0
 49
1.0
175
     0
142
0.0208333333333333
142
0.0
142
0.0
142
0.0
142
0.0
142
0.0208333333333333
142
0.0
142
0.0
142
0.0
142
0.0
142
1.0
142
0.0
142
0.0
142
0.0
142
0.0
142
1.0
179
     0
144
0.0208333333333333
144
0.0
144
0.0
144
0.0
144
0.0
144
0.0208333333333333
144
0.0
144
0.0
144
0.0
144
0.0
144
1.0
144
0.0
144
0.0
144
0.0
144
0.0
144
1.0
147
0.0208333333333333
147
0.0
147
0.0
147
0.0
147
0.0
147
0.0208333333333333
147
0.0
147
0.0
147
0.0
147
0.0
147
1.0
147
0.0
147
0.0
147
0.0
147
0.0
147
1.0
  0
MLEADERSTYLE
  5
19C7
102
{ACAD_XDICTIONARY
360
467C
102
}
102
{ACAD_REACTORS
330
1857
102
}
330
1857
100
AcDbMLeaderStyle
170
     2
171
     1
172
     0
 90
        2
 40
0.0
 41
0.0
173
     1
 91
-1073741824
 92
       -2
290
     1
 42
0.05
291
     1
 43
0.125
  3

 44
0.18
300

342
19C0
174
     1
178
     1
175
     0
176
     0
 93
-1073741824
 45
0.1
292
     0
297
     0
 46
5.0
 94
-1073741824
 47
1.0
 49
1.0
140
1.0
293
     1
141
0.0
294
     1
177
     0
142
1.0
295
     0
296
     0
143
0.1
1001
ACAD_MLEADERVER
1070
     2
  0
MLEADERSTYLE
  5
1858
102
{ACAD_REACTORS
330
1857
102
}
330
1857
100
AcDbMLeaderStyle
170
     2
171
     1
172
     0
 90
        2
 40
0.0
 41
0.0
173
     1
 91
-1056964608
340
12
 92
       -2
290
     1
 42
0.09
291
     1
 43
0.36
  3
Standard
 44
0.18
300

342
10
174
     1
178
     6
175
     1
176
     0
 93
-1056964608
 45
0.18
292
     0
297
     0
 46
0.18
 94
-1056964608
 47
1.0
 49
1.0
140
1.0
293
     1
141
0.0
294
     1
177
     0
142
1.0
295
     0
296
     0
143
0.125
1001
ACAD_MLEADERVER
1070
     2
  0
MLINESTYLE
  5
1B
102
{ACAD_REACTORS
330
E
102
}
330
E
100
AcDbMlineStyle
  2
STANDARD
 70
     0
  3

 62
     0
 51
90.0
 52
90.0
 71
     2
 49
0.5
 62
   256
  6
BYLAYER
 49
-0.5
 62
   256
  6
BYLAYER
  0
PLOTSETTINGS
  5
338
102
{ACAD_REACTORS
330
21D
102
}
330
21D
100
AcDbPlotSettings
  1
1055 B&W Full Shaded Draft
  2
1055B&WDraftShaded.pc3
  4
User607
  6

 40
0.0
 41
0.0
 42
0.0
 43
0.0
 44
901.7000122070312
 45
1155.700073242187
 46
0.0
 47
0.0
 48
180377.877572
 49
80019.819395
140
180380.839082
141
80022.26069
142
1.0
143
1.0
 70
   688
 72
     0
 73
     2
 74
     5
  7
1055B&WFullDraftShaded.ctb
 75
    16
147
1.0
 76
     0
 77
     2
 78
   300
148
-4581114.014650871
149
-2032337.53763678
  0
PLOTSETTINGS
  5
339
102
{ACAD_REACTORS
330
21D
102
}
330
21D
100
AcDbPlotSettings
  1
1055 B&W Full Shaded Final
  2
1055B&WFinalShaded.pc3
  4
User258
  6

 40
4.995333194732666
 41
8.297393798828125
 42
4.99530029296875
 43
8.29736328125
 44
761.9576416015624
 45
1066.757690429687
 46
0.0
 47
0.0
 48
180377.877572
 49
80019.819395
140
180380.839082
141
80022.26069
142
1.0
143
1.0
 70
   688
 72
     0
 73
     3
 74
     5
  7
1055B&WFullFinalShaded.ctb
 75
    16
147
1.0
 76
     0
 77
     2
 78
   300
148
-4581114.014650871
149
-2032337.53763678
  0
PLOTSETTINGS
  5
33A
102
{ACAD_REACTORS
330
21D
102
}
330
21D
100
AcDbPlotSettings
  1
1055 B&W Half Shaded Draft
  2
1055B&WDraftShaded.pc3
  4
User607
  6

 40
0.0
 41
0.0
 42
0.0
 43
0.0
 44
901.7000122070312
 45
1155.700073242187
 46
0.0
 47
0.0
 48
180377.877572
 49
80019.819395
140
180380.839082
141
80022.26069
142
1.0
143
2.0
 70
   688
 72
     0
 73
     2
 74
     5
  7
1055B&WHalfDraftShaded.ctb
 75
    17
147
0.5
 76
     0
 77
     2
 78
   300
148
-4581114.014650871
149
-2032337.53763678
  0
PLOTSETTINGS
  5
33B
102
{ACAD_REACTORS
330
21D
102
}
330
21D
100
AcDbPlotSettings
  1
1055 B&W Half Shaded Final
  2
1055B&WFinalShaded.pc3
  4
User258
  6

 40
4.995333194732666
 41
8.297393798828125
 42
4.99530029296875
 43
8.29736328125
 44
761.9576416015624
 45
1066.757690429687
 46
0.0
 47
0.0
 48
180377.877572
 49
80019.819395
140
180380.839082
141
80022.26069
142
1.0
143
2.0
 70
   688
 72
     0
 73
     3
 74
     5
  7
1055B&WHalfFinalShaded.ctb
 75
    17
147
0.5
 76
     0
 77
     2
 78
   300
148
-4581114.014650871
149
-2032337.53763678
  0
PLOTSETTINGS
  5
33C
102
{ACAD_REACTORS
330
21D
102
}
330
21D
100
AcDbPlotSettings
  1
1055 Color Full Shaded Draft
  2
1055ColorDraftShaded.pc3
  4
User607
  6

 40
0.0
 41
0.0
 42
0.0
 43
0.0
 44
901.7000122070312
 45
1155.700073242187
 46
0.0
 47
0.0
 48
180377.877572
 49
80019.819395
140
180380.839082
141
80022.26069
142
1.0
143
1.0
 70
   688
 72
     0
 73
     2
 74
     5
  7
1055ColorFullDraftShaded.ctb
 75
    16
147
1.0
 76
     0
 77
     2
 78
   300
148
-4581114.014650871
149
-2032337.53763678
  0
PLOTSETTINGS
  5
33D
102
{ACAD_REACTORS
330
21D
102
}
330
21D
100
AcDbPlotSettings
  1
1055 Color Full Shaded Final
  2
1055ColorFinalShaded.pc3
  4
User607
  6

 40
0.0
 41
0.0
 42
0.0
 43
0.0
 44
901.7000122070312
 45
1155.700073242187
 46
0.0
 47
0.0
 48
180377.877572
 49
80019.819395
140
180380.839082
141
80022.26069
142
1.0
143
1.0
 70
   688
 72
     0
 73
     2
 74
     5
  7
1055ColorFullFinalShaded.ctb
 75
    16
147
1.0
 76
     0
 77
     2
 78
   300
148
-4581114.014650871
149
-2032337.53763678
  0
PLOTSETTINGS
  5
33E
102
{ACAD_REACTORS
330
21D
102
}
330
21D
100
AcDbPlotSettings
  1
1055 Color Half Shaded Draft
  2
1055ColorDraftShaded.pc3
  4
User607
  6

 40
0.0
 41
0.0
 42
0.0
 43
0.0
 44
901.7000122070312
 45
1155.700073242187
 46
0.0
 47
0.0
 48
180377.877572
 49
80019.819395
140
180380.839082
141
80022.26069
142
1.0
143
1.0
 70
   688
 72
     0
 73
     2
 74
     5
  7
1055ColorHalfDraftShaded.ctb
 75
    16
147
1.0
 76
     0
 77
     2
 78
   300
148
-4581114.014650871
149
-2032337.53763678
  0
PLOTSETTINGS
  5
33F
102
{ACAD_REACTORS
330
21D
102
}
330
21D
100
AcDbPlotSettings
  1
1055 Color Half Shaded Final
  2
1055ColorFinalShaded.pc3
  4
User607
  6

 40
0.0
 41
0.0
 42
0.0
 43
0.0
 44
901.7000122070312
 45
1155.700073242187
 46
0.0
 47
0.0
 48
180377.877572
 49
80019.819395
140
180380.839082
141
80022.26069
142
1.0
143
1.0
 70
   688
 72
     0
 73
     2
 74
     5
  7
1055ColorHalfFinalShaded.ctb
 75
    16
147
1.0
 76
     0
 77
     2
 78
   300
148
-4581114.014650871
149
-2032337.53763678
  0
PLOTSETTINGS
  5
340
102
{ACAD_REACTORS
330
21D
102
}
330
21D
100
AcDbPlotSettings
  1
1055-B&W-Shaded-Draft
  2
1055B&WDraftShaded.pc3
  4
User257
  6

 40
4.995333194732666
 41
8.297393798828125
 42
4.99530029296875
 43
8.29736328125
 44
901.6152954101562
 45
1155.615356445312
 46
0.0
 47
0.0
 48
180360.0524337165
 49
80033.77936194791
140
180369.1574725906
141
80037.61796031875
142
1.0
143
1.0
 70
  1712
 72
     0
 73
     1
 74
     4
  7
1055B&WFullDraftShaded.ctb
 75
    16
147
1.0
 76
     0
 77
     2
 78
   300
148
-4581145.331816399
149
-2032857.995793477
  0
PLOTSETTINGS
  5
341
102
{ACAD_REACTORS
330
21D
102
}
330
21D
100
AcDbPlotSettings
  1
1055-B&W-Shaded-Final
  2
1055B&WFinalShaded.pc3
  4
User607
  6

 40
0.0
 41
0.0
 42
0.0
 43
0.0
 44
901.7000122070312
 45
1155.700073242187
 46
0.0
 47
0.0
 48
180360.0524337165
 49
80033.77936194791
140
180369.1574725906
141
80037.61796031875
142
1.0
143
1.0
 70
  1712
 72
     0
 73
     1
 74
     4
  7
1055B&WFullFinalShaded.ctb
 75
    16
147
1.0
 76
     0
 77
     2
 78
   300
148
-4581145.331816399
149
-2032857.995793477
  0
PLOTSETTINGS
  5
342
102
{ACAD_REACTORS
330
21D
102
}
330
21D
100
AcDbPlotSettings
  1
1055-Color-Shaded-Draft
  2
1055ColorDraftShaded.pc3
  4
User257
  6

 40
4.995333194732666
 41
8.297393798828125
 42
4.99530029296875
 43
8.29736328125
 44
901.6152954101562
 45
1155.615356445312
 46
0.0
 47
0.0
 48
180360.0524337165
 49
80033.77936194791
140
180369.1574725906
141
80037.61796031875
142
1.0
143
1.0
 70
  1712
 72
     0
 73
     1
 74
     4
  7
1055ColorFullDraftShaded.ctb
 75
    16
147
1.0
 76
     0
 77
     2
 78
   300
148
-4581145.331816399
149
-2032857.995793477
  0
PLOTSETTINGS
  5
343
102
{ACAD_REACTORS
330
21D
102
}
330
21D
100
AcDbPlotSettings
  1
1055-Color-Shaded-Final
  2
1055ColorDraftShaded.pc3
  4
User257
  6

 40
4.995333194732666
 41
8.297393798828125
 42
4.99530029296875
 43
8.29736328125
 44
901.6152954101562
 45
1155.615356445312
 46
0.0
 47
0.0
 48
180360.0524337165
 49
80033.77936194791
140
180369.1574725906
141
80037.61796031875
142
1.0
143
1.0
 70
  1712
 72
     0
 73
     1
 74
     4
  7
1055ColorFullFinalShaded.ctb
 75
    16
147
1.0
 76
     0
 77
     2
 78
   300
148
-4581145.331816399
149
-2032857.995793477
  0
PLOTSETTINGS
  5
344
102
{ACAD_REACTORS
330
21D
102
}
330
21D
100
AcDbPlotSettings
  1
8500 B&W Shaded 11x17
  2
8500B&WShaded.pc3
  4
11x17
  6

 40
5.027083396911621
 41
5.027085304260253
 42
5.027099609375
 43
5.027069091796875
 44
279.3999938964844
 45
431.7999877929687
 46
0.0
 47
5.588
 48
180377.877572
 49
80019.819395
140
180380.839082
141
80022.26069
142
1.0
143
0.8480629150589166
 70
   692
 72
     0
 73
     1
 74
     0
  7
8500B&WShaded.ctb
 75
     0
147
1.179157798605694
 76
     0
 77
     2
 78
   300
148
-4581114.014650871
149
-2032337.53763678
  0
PLOTSETTINGS
  5
345
102
{ACAD_REACTORS
330
21D
102
}
330
21D
100
AcDbPlotSettings
  1
8500 B&W Shaded 8.5x11
  2
8500B&WShaded.pc3
  4
Letter
  6

 40
5.027083396911621
 41
5.027085304260253
 42
5.027084350585937
 43
5.027069091796875
 44
215.8999938964844
 45
279.3999938964844
 46
14.478
 47
0.0
 48
180377.877572
 49
80019.819395
140
180380.839082
141
80022.26069
142
1.0
143
1.292286209488803
 70
   692
 72
     0
 73
     1
 74
     0
  7
8500B&WShaded.ctb
 75
     0
147
0.7738223875309912
 76
     0
 77
     2
 78
   300
148
-4581114.014650871
149
-2032337.53763678
  0
PLOTSETTINGS
  5
346
102
{ACAD_REACTORS
330
21D
102
}
330
21D
100
AcDbPlotSettings
  1
8500 Color Shaded 11x17
  2
8500ColorShaded.pc3
  4
11x17
  6

 40
5.027083396911621
 41
5.027085304260253
 42
5.027099609375
 43
5.027069091796875
 44
279.3999938964844
 45
431.7999877929687
 46
0.0
 47
5.588
 48
180377.877572
 49
80019.819395
140
180380.839082
141
80022.26069
142
1.0
143
0.8480629150589166
 70
   692
 72
     0
 73
     1
 74
     0
  7
8500ColorShaded.ctb
 75
     0
147
1.179157798605694
 76
     0
 77
     2
 78
   300
148
-4581114.014650871
149
-2032337.53763678
  0
PLOTSETTINGS
  5
347
102
{ACAD_REACTORS
330
21D
102
}
330
21D
100
AcDbPlotSettings
  1
8500 Color Shaded 8.5x11
  2
8500ColorShaded.pc3
  4
Letter
  6

 40
5.027083396911621
 41
5.027085304260253
 42
5.027084350585937
 43
5.027069091796875
 44
215.8999938964844
 45
279.3999938964844
 46
14.478
 47
0.0
 48
180377.877572
 49
80019.819395
140
180380.839082
141
80022.26069
142
1.0
143
1.292286209488803
 70
   692
 72
     0
 73
     1
 74
     0
  7
8500ColorShaded.ctb
 75
     0
147
0.7738223875309912
 76
     0
 77
     2
 78
   300
148
-4581114.014650871
149
-2032337.53763678
  0
PLOTSETTINGS
  5
348
102
{ACAD_REACTORS
330
21D
102
}
330
21D
100
AcDbPlotSettings
  1
8500-B&W-Shaded-11x17
  2
8500B&WShaded.pc3
  4
11x17
  6

 40
5.027083396911621
 41
5.027085304260253
 42
5.027099609375
 43
5.027069091796875
 44
279.3999938964844
 45
431.7999877929687
 46
0.0
 47
0.0
 48
180360.0524337165
 49
80033.77936194791
140
180369.1574725906
141
80037.61796031875
142
1.0
143
4.787622939151733
 70
  1712
 72
     0
 73
     1
 74
     0
  7
8500B&WShaded.ctb
 75
     0
147
0.2088719209322652
 76
     0
 77
     2
 78
   300
148
-4580581.320935756
149
-2032339.826086972
  0
PLOTSETTINGS
  5
349
102
{ACAD_REACTORS
330
21D
102
}
330
21D
100
AcDbPlotSettings
  1
8500-B&W-Shaded-8.5x11
  2
8500B&WShaded.pc3
  4
Letter
  6

 40
5.027083396911621
 41
5.027085304260253
 42
5.027084350585937
 43
5.027069091796875
 44
215.8999938964844
 45
279.3999938964844
 46
0.0
 47
0.0
 48
180360.0524337165
 49
80033.77936194791
140
180369.1574725906
141
80037.61796031875
142
1.0
143
1.400341199009821
 70
  1712
 72
     0
 73
     1
 74
     0
  7
8500B&WShaded.ctb
 75
     0
147
0.7141116755738516
 76
     0
 77
     2
 78
   300
148
0.0
149
0.0
  0
PLOTSETTINGS
  5
34A
102
{ACAD_REACTORS
330
21D
102
}
330
21D
100
AcDbPlotSettings
  1
8500-Color-Shaded-11x17
  2
8500ColorShaded.pc3
  4
11x17
  6

 40
5.027083396911621
 41
5.027085304260253
 42
5.027099609375
 43
5.027069091796875
 44
279.3999938964844
 45
431.7999877929687
 46
0.0
 47
0.0
 48
180360.0524337165
 49
80033.77936194791
140
180369.1574725906
141
80037.61796031875
142
1.0
143
4.787622939151733
 70
  1712
 72
     0
 73
     1
 74
     0
  7
8500ColorShaded.ctb
 75
     0
147
0.2088719209322652
 76
     0
 77
     2
 78
   300
148
-4580581.320935756
149
-2032339.826086972
  0
PLOTSETTINGS
  5
34B
102
{ACAD_REACTORS
330
21D
102
}
330
21D
100
AcDbPlotSettings
  1
8500-Color-Shaded-8.5x11
  2
8500ColorShaded.pc3
  4
Letter
  6

 40
5.027083396911621
 41
5.027085304260253
 42
5.027084350585937
 43
5.027069091796875
 44
215.8999938964844
 45
279.3999938964844
 46
0.0
 47
0.0
 48
180360.0524337165
 49
80033.77936194791
140
180369.1574725906
141
80037.61796031875
142
1.0
143
1.400341199009821
 70
  1712
 72
     0
 73
     1
 74
     0
  7
8500ColorShaded.ctb
 75
     0
147
0.7141116755738516
 76
     0
 77
     2
 78
   300
148
0.0
149
0.0
  0
PLOTSETTINGS
  5
34C
102
{ACAD_REACTORS
330
21D
102
}
330
21D
100
AcDbPlotSettings
  1
Laser Jet 5 Shaded 11x17
  2
LaserJet5Shaded.pc3
  4
11x17
  6

 40
7.143749713897705
 41
5.873736858367919
 42
7.143768310546875
 43
7.14373779296875
 44
279.3999938964844
 45
431.7999877929687
 46
0.0
 47
7.365999999999998
 48
180377.877572
 49
80019.819395
140
180380.839082
141
80022.26069
142
1.0
143
0.8616048444762743
 70
   692
 72
     0
 73
     1
 74
     0
  7
LaserJet5Shaded.ctb
 75
     0
147
1.160624857683859
 76
     0
 77
     2
 78
   300
148
-4581114.014650871
149
-2032337.53763678
  0
PLOTSETTINGS
  5
34D
102
{ACAD_REACTORS
330
21D
102
}
330
21D
100
AcDbPlotSettings
  1
Laser Jet 5 Shaded 8.5x11
  2
LaserJet5Shaded.pc3
  4
Letter
  6

 40
7.143749713897705
 41
6.974400997161865
 42
7.14373779296875
 43
6.297088623046875
 44
215.8999938964844
 45
279.3999938964844
 46
13.462
 47
0.0
 48
180377.877572
 49
80019.819395
140
180380.839082
141
80022.26069
142
1.0
143
1.307909180627428
 70
   692
 72
     0
 73
     1
 74
     0
  7
LaserJet5Shaded.ctb
 75
     0
147
0.7645790814927086
 76
     0
 77
     2
 78
   300
148
-4581114.014650871
149
-2032337.53763678
  0
PLOTSETTINGS
  5
34E
102
{ACAD_REACTORS
330
21D
102
}
330
21D
100
AcDbPlotSettings
  1
LaserJet5-Shaded-11x17
  2
LaserJet5Shaded.pc3
  4
11x17
  6

 40
7.143749713897705
 41
5.873736858367919
 42
7.143768310546875
 43
7.14373779296875
 44
279.3999938964844
 45
431.7999877929687
 46
0.0
 47
0.0
 48
180360.0524337165
 49
80033.77936194791
140
180369.1574725906
141
80037.61796031875
142
1.0
143
4.864072045424008
 70
  1712
 72
     0
 73
     1
 74
     0
  7
LaserJet5Shaded.ctb
 75
     0
147
0.205589060084086
 76
     0
 77
     2
 78
   300
148
-4580581.320935756
149
-2032339.826086972
  0
PLOTSETTINGS
  5
34F
102
{ACAD_REACTORS
330
21D
102
}
330
21D
100
AcDbPlotSettings
  1
LaserJet5-Shaded-8.5x11
  2
LaserJet5Shaded.pc3
  4
Letter
  6

 40
7.143749713897705
 41
6.974400997161865
 42
7.14373779296875
 43
6.297088623046875
 44
215.8999938964844
 45
279.3999938964844
 46
0.0
 47
0.0
 48
180360.0524337165
 49
80033.77936194791
140
180369.1574725906
141
80037.61796031875
142
1.0
143
1.417270490660324
 70
  1712
 72
     0
 73
     1
 74
     0
  7
LaserJet5Shaded.ctb
 75
     0
147
0.7055816138061886
 76
     0
 77
     2
 78
   300
148
0.0
149
0.0
  0
ACDBPLACEHOLDER
  5
21B
102
{ACAD_REACTORS
330
21A
102
}
330
21A
  0
SCALE
  5
1836
102
{ACAD_REACTORS
330
1835
102
}
330
1835
100
AcDbScale
 70
     0
300
1:1
140
1.0
141
1.0
290
     1
  0
SCALE
  5
1837
102
{ACAD_REACTORS
330
1835
102
}
330
1835
100
AcDbScale
 70
     0
300
1:2
140
1.0
141
2.0
290
     0
  0
SCALE
  5
1838
102
{ACAD_REACTORS
330
1835
102
}
330
1835
100
AcDbScale
 70
     0
300
1:4
140
1.0
141
4.0
290
     0
  0
SCALE
  5
1839
102
{ACAD_REACTORS
330
1835
102
}
330
1835
100
AcDbScale
 70
     0
300
1:5
140
1.0
141
5.0
290
     0
  0
SCALE
  5
183A
102
{ACAD_REACTORS
330
1835
102
}
330
1835
100
AcDbScale
 70
     0
300
1:8
140
1.0
141
8.0
290
     0
  0
SCALE
  5
183B
102
{ACAD_REACTORS
330
1835
102
}
330
1835
100
AcDbScale
 70
     0
300
1:10
140
1.0
141
10.0
290
     0
  0
SCALE
  5
183C
102
{ACAD_REACTORS
330
1835
102
}
330
1835
100
AcDbScale
 70
     0
300
1:16
140
1.0
141
16.0
290
     0
  0
SCALE
  5
183D
102
{ACAD_REACTORS
330
1835
102
}
330
1835
100
AcDbScale
 70
     0
300
1:20
140
1.0
141
20.0
290
     0
  0
SCALE
  5
183E
102
{ACAD_REACTORS
330
1835
102
}
330
1835
100
AcDbScale
 70
     0
300
1:30
140
1.0
141
30.0
290
     0
  0
SCALE
  5
183F
102
{ACAD_REACTORS
330
1835
102
}
330
1835
100
AcDbScale
 70
     0
300
1:40
140
1.0
141
40.0
290
     0
  0
SCALE
  5
1840
102
{ACAD_REACTORS
330
1835
102
}
330
1835
100
AcDbScale
 70
     0
300
1:50
140
1.0
141
50.0
290
     0
  0
SCALE
  5
1841
102
{ACAD_REACTORS
330
1835
102
}
330
1835
100
AcDbScale
 70
     0
300
1:100
140
1.0
141
100.0
290
     0
  0
SCALE
  5
1842
102
{ACAD_REACTORS
330
1835
102
}
330
1835
100
AcDbScale
 70
     0
300
2:1
140
2.0
141
1.0
290
     0
  0
SCALE
  5
1843
102
{ACAD_REACTORS
330
1835
102
}
330
1835
100
AcDbScale
 70
     0
300
4:1
140
4.0
141
1.0
290
     0
  0
SCALE
  5
1844
102
{ACAD_REACTORS
330
1835
102
}
330
1835
100
AcDbScale
 70
     0
300
8:1
140
8.0
141
1.0
290
     0
  0
SCALE
  5
1845
102
{ACAD_REACTORS
330
1835
102
}
330
1835
100
AcDbScale
 70
     0
300
10:1
140
10.0
141
1.0
290
     0
  0
SCALE
  5
1846
102
{ACAD_REACTORS
330
1835
102
}
330
1835
100
AcDbScale
 70
     0
300
100:1
140
100.0
141
1.0
290
     0
  0
SCALE
  5
1847
102
{ACAD_REACTORS
330
1835
102
}
330
1835
100
AcDbScale
 70
     0
300
1/128" = 1'-0"
140
0.0078125
141
12.0
290
     0
  0
SCALE
  5
1848
102
{ACAD_REACTORS
330
1835
102
}
330
1835
100
AcDbScale
 70
     0
300
1/64" = 1'-0"
140
0.015625
141
12.0
290
     0
  0
SCALE
  5
1849
102
{ACAD_REACTORS
330
1835
102
}
330
1835
100
AcDbScale
 70
     0
300
1/32" = 1'-0"
140
0.03125
141
12.0
290
     0
  0
SCALE
  5
184A
102
{ACAD_REACTORS
330
1835
102
}
330
1835
100
AcDbScale
 70
     0
300
1/16" = 1'-0"
140
0.0625
141
12.0
290
     0
  0
SCALE
  5
184B
102
{ACAD_REACTORS
330
1835
102
}
330
1835
100
AcDbScale
 70
     0
300
3/32" = 1'-0"
140
0.09375
141
12.0
290
     0
  0
SCALE
  5
184C
102
{ACAD_REACTORS
330
1835
102
}
330
1835
100
AcDbScale
 70
     0
300
1/8" = 1'-0"
140
0.125
141
12.0
290
     0
  0
SCALE
  5
184D
102
{ACAD_REACTORS
330
1835
102
}
330
1835
100
AcDbScale
 70
     0
300
3/16" = 1'-0"
140
0.1875
141
12.0
290
     0
  0
SCALE
  5
184E
102
{ACAD_REACTORS
330
1835
102
}
330
1835
100
AcDbScale
 70
     0
300
1/4" = 1'-0"
140
0.25
141
12.0
290
     0
  0
SCALE
  5
184F
102
{ACAD_REACTORS
330
1835
102
}
330
1835
100
AcDbScale
 70
     0
300
3/8" = 1'-0"
140
0.375
141
12.0
290
     0
  0
SCALE
  5
1850
102
{ACAD_REACTORS
330
1835
102
}
330
1835
100
AcDbScale
 70
     0
300
1/2" = 1'-0"
140
0.5
141
12.0
290
     0
  0
SCALE
  5
1851
102
{ACAD_REACTORS
330
1835
102
}
330
1835
100
AcDbScale
 70
     0
300
3/4" = 1'-0"
140
0.75
141
12.0
290
     0
  0
SCALE
  5
1852
102
{ACAD_REACTORS
330
1835
102
}
330
1835
100
AcDbScale
 70
     0
300
1" = 1'-0"
140
1.0
141
12.0
290
     0
  0
SCALE
  5
1853
102
{ACAD_REACTORS
330
1835
102
}
330
1835
100
AcDbScale
 70
     0
300
1-1/2" = 1'-0"
140
1.5
141
12.0
290
     0
  0
SCALE
  5
1854
102
{ACAD_REACTORS
330
1835
102
}
330
1835
100
AcDbScale
 70
     0
300
3" = 1'-0"
140
3.0
141
12.0
290
     0
  0
SCALE
  5
1855
102
{ACAD_REACTORS
330
1835
102
}
330
1835
100
AcDbScale
 70
     0
300
6" = 1'-0"
140
6.0
141
12.0
290
     0
  0
SCALE
  5
1856
102
{ACAD_REACTORS
330
1835
102
}
330
1835
100
AcDbScale
 70
     0
300
1'-0" = 1'-0"
140
12.0
141
12.0
290
     0
  0
ACDBSECTIONVIEWSTYLE
  5
1967
102
{ACAD_XDICTIONARY
360
4678
102
}
102
{ACAD_REACTORS
330
1966
102
}
330
1966
100
AcDbModelDocViewStyle
 70
     0
  3
Imperial24
290
     0
100
AcDbSectionViewStyle
 70
     0
 71
     0
 90
       78
 71
     1
340
10
 62
   256
 40
0.24
340
0
340
0
 62
   256
 40
0.24
300
I, O, Q, S, X, Z
 40
0.48
 90
        3
 40
0.18
 90
        1
 71
     2
340
14
 90
       25
 62
   256
340
14
 90
       50
 62
   256
 40
0.24
 40
0.0
 40
0.24
 71
     3
340
10
 62
   256
 40
0.24
 90
        1
 40
0.75
 90
        1
300
%<\AcVar ViewType \f "%tc1">% %<\AcVar ViewSectionStartId>%-%<\AcVar ViewSectionEndId>%\PSCALE %<\AcVar ViewScale \f "%sn">%
 71
     4
 62
   256
 62
   257
300
ANSI31
 40
1.0
 90
        0
290
     0
290
     0
 90
        6
 40
0.0
 40
1.570796326794896
 40
0.2617993877991494
 40
1.308996938995747
 40
-0.2617993877991494
 40
1.832595714594046
  0
TABLESTYLE
  5
17EC
102
{ACAD_XDICTIONARY
360
18A5
102
}
102
{ACAD_REACTORS
330
17EB
102
}
330
17EB
100
AcDbTableStyle
  3
Standard
 70
     0
 71
     0
 40
0.06
 41
0.06
280
     0
281
     0
  7
STANDARD
140
0.18
170
     2
 62
     0
 63
     7
283
     0
274
    -2
284
     1
 64
     0
275
    -2
285
     1
 65
     0
276
    -2
286
     1
 66
     0
277
    -2
287
     1
 67
     0
278
    -2
288
     1
 68
     0
279
    -2
289
     1
 69
     0
  7
STANDARD
140
0.25
170
     5
 62
     0
 63
     7
283
     0
274
    -2
284
     1
 64
     0
275
    -2
285
     1
 65
     0
276
    -2
286
     1
 66
     0
277
    -2
287
     1
 67
     0
278
    -2
288
     1
 68
     0
279
    -2
289
     1
 69
     0
  7
STANDARD
140
0.18
170
     5
 62
     0
 63
     7
283
     0
274
    -2
284
     1
 64
     0
275
    -2
285
     1
 65
     0
276
    -2
286
     1
 66
     0
277
    -2
287
     1
 67
     0
278
    -2
288
     1
 68
     0
279
    -2
289
     1
 69
     0
  0
VISUALSTYLE
  5
182A
102
{ACAD_XDICTIONARY
360
464E
102
}
102
{ACAD_REACTORS
330
1824
102
}
330
1824
100
AcDbVisualStyle
  2
2dWireframe
 70
     4
 71
     0
 72
     2
 73
     0
 90
        0
 40
-0.6
 41
-30.0
 62
     5
 63
     7
421
 16777215
 74
     1
 91
        4
 64
     7
 65
   257
 75
     1
175
     1
 42
1.0
 92
        0
 66
   257
 43
1.0
 76
     1
 77
     6
 78
     2
 67
     7
 79
     5
170
     0
171
     0
290
     0
174
     0
 93
        1
 44
0.0
173
     0
291
     0
 45
0.0
1001
ACAD
1000
AcDbSavedByObjectVersion
1070
     0
  0
VISUALSTYLE
  5
182C
102
{ACAD_XDICTIONARY
360
4652
102
}
102
{ACAD_REACTORS
330
1824
102
}
330
1824
100
AcDbVisualStyle
  2
3D Hidden
 70
     6
 71
     1
 72
     2
 73
     2
 90
        0
 40
-0.6
 41
-30.0
 62
     5
 63
     7
421
 16777215
 74
     2
 91
        2
 64
     7
 65
   257
 75
     2
175
     1
 42
40.0
 92
        0
 66
   257
 43
1.0
 76
     1
 77
     6
 78
     2
 67
     7
 79
     3
170
     0
171
     0
290
     0
174
     0
 93
        1
 44
0.0
173
     0
291
     0
 45
0.0
1001
ACAD
1000
AcDbSavedByObjectVersion
1070
     0
  0
VISUALSTYLE
  5
182B
102
{ACAD_XDICTIONARY
360
4650
102
}
102
{ACAD_REACTORS
330
1824
102
}
330
1824
100
AcDbVisualStyle
  2
3dWireframe
 70
     5
 71
     0
 72
     2
 73
     0
 90
        0
 40
-0.6
 41
-30.0
 62
     5
 63
     7
421
 16777215
 74
     1
 91
        4
 64
     7
 65
   257
 75
     1
175
     1
 42
1.0
 92
        0
 66
   257
 43
1.0
 76
     1
 77
     6
 78
     2
 67
     7
 79
     5
170
     0
171
     0
290
     0
174
     0
 93
        1
 44
0.0
173
     0
291
     0
 45
0.0
1001
ACAD
1000
AcDbSavedByObjectVersion
1070
     0
  0
VISUALSTYLE
  5
1829
102
{ACAD_XDICTIONARY
360
464C
102
}
102
{ACAD_REACTORS
330
1824
102
}
330
1824
100
AcDbVisualStyle
  2
Basic
 70
     7
 71
     1
 72
     0
 73
     1
 90
        0
 40
-0.6
 41
-30.0
 62
     5
 63
     7
421
 16777215
 74
     0
 91
        4
 64
     7
 65
   257
 75
     1
175
     1
 42
1.0
 92
        8
 66
     7
 43
1.0
 76
     1
 77
     6
 78
     2
 67
     7
 79
     5
170
     0
171
     0
290
     0
174
     0
 93
        1
 44
0.0
173
     0
291
     1
 45
0.0
1001
ACAD
1000
AcDbSavedByObjectVersion
1070
     0
  0
VISUALSTYLE
  5
1830
102
{ACAD_XDICTIONARY
360
465A
102
}
102
{ACAD_REACTORS
330
1824
102
}
330
1824
100
AcDbVisualStyle
  2
Brighten
 70
    12
 71
     2
 72
     2
 73
     0
 90
        0
 40
-0.6
 41
-30.0
 62
     5
 63
     7
421
 16777215
 74
     1
 91
        4
 64
     7
 65
   257
 75
     1
175
     1
 42
1.0
 92
        8
 66
     7
 43
1.0
 76
     1
 77
     6
 78
     2
 67
     7
 79
     5
170
     0
171
     0
290
     0
174
     0
 93
        1
 44
50.0
173
     0
291
     1
 45
0.0
1001
ACAD
1000
AcDbSavedByObjectVersion
1070
     0
  0
VISUALSTYLE
  5
1834
102
{ACAD_XDICTIONARY
360
4662
102
}
102
{ACAD_REACTORS
330
1824
102
}
330
1824
100
AcDbVisualStyle
  2
ColorChange
 70
    16
 71
     2
 72
     2
 73
     3
 90
        0
 40
-0.6
 41
-30.0
 62
     5
 63
     8
421
  8421504
 74
     1
 91
        4
 64
     7
 65
   257
 75
     1
175
     1
 42
1.0
 92
        8
 66
     8
424
  8421504
 43
1.0
 76
     1
 77
     6
 78
     2
 67
     7
 79
     5
170
     0
171
     0
290
     0
174
     0
 93
        1
 44
0.0
173
     0
291
     1
 45
0.0
1001
ACAD
1000
AcDbSavedByObjectVersion
1070
     0
  0
VISUALSTYLE
  5
182D
102
{ACAD_XDICTIONARY
360
4654
102
}
102
{ACAD_REACTORS
330
1824
102
}
330
1824
100
AcDbVisualStyle
  2
Conceptual
 70
     9
 71
     3
 72
     2
 73
     0
 90
        0
 40
-0.6
 41
-30.0
 62
     5
 63
     7
421
 16777215
 74
     2
 91
        2
 64
     7
 65
   257
 75
     1
175
     1
 42
40.0
 92
        8
 66
     7
 43
1.0
 76
     1
 77
     6
 78
     2
 67
     7
 79
     3
170
     0
171
     0
290
     0
174
     0
 93
        1
 44
0.0
173
     0
291
     0
 45
0.0
1001
ACAD
1000
AcDbSavedByObjectVersion
1070
     0
  0
VISUALSTYLE
  5
182F
102
{ACAD_XDICTIONARY
360
4658
102
}
102
{ACAD_REACTORS
330
1824
102
}
330
1824
100
AcDbVisualStyle
  2
Dim
 70
    11
 71
     2
 72
     2
 73
     0
 90
        0
 40
-0.6
 41
-30.0
 62
     5
 63
     7
421
 16777215
 74
     1
 91
        4
 64
     7
 65
   257
 75
     1
175
     1
 42
1.0
 92
        8
 66
     7
 43
1.0
 76
     1
 77
     6
 78
     2
 67
     7
 79
     5
170
     0
171
     0
290
     0
174
     0
 93
        1
 44
-50.0
173
     0
291
     1
 45
0.0
1001
ACAD
1000
AcDbSavedByObjectVersion
1070
     0
  0
VISUALSTYLE
  5
1965
102
{ACAD_XDICTIONARY
360
4676
102
}
102
{ACAD_REACTORS
330
1824
102
}
330
1824
100
AcDbVisualStyle
  2
EdgeColorOff
 70
    22
 71
     2
 72
     2
 73
     0
 90
        0
 40
-0.6
 41
-30.0
 62
     5
 63
     7
421
 16777215
 74
     1
 91
        4
 64
     7
 65
   257
 75
     1
175
     1
 42
1.0
 92
        8
 66
     7
 43
1.0
 76
     1
 77
     6
 78
     2
 67
     7
 79
     5
170
     0
171
     0
290
     0
174
     0
 93
        1
 44
0.0
173
     0
291
     1
 45
0.0
1001
ACAD
1000
AcDbSavedByObjectVersion
1070
     0
  0
VISUALSTYLE
  5
1833
102
{ACAD_XDICTIONARY
360
4660
102
}
102
{ACAD_REACTORS
330
1824
102
}
330
1824
100
AcDbVisualStyle
  2
Facepattern
 70
    15
 71
     2
 72
     2
 73
     0
 90
        0
 40
-0.6
 41
-30.0
 62
     5
 63
     7
421
 16777215
 74
     1
 91
        4
 64
     7
 65
   257
 75
     1
175
     1
 42
1.0
 92
        8
 66
     7
 43
1.0
 76
     1
 77
     6
 78
     2
 67
     7
 79
     5
170
     0
171
     0
290
     0
174
     0
 93
        1
 44
0.0
173
     0
291
     1
 45
0.0
1001
ACAD
1000
AcDbSavedByObjectVersion
1070
     0
  0
VISUALSTYLE
  5
1825
102
{ACAD_XDICTIONARY
360
4644
102
}
102
{ACAD_REACTORS
330
1824
102
}
330
1824
100
AcDbVisualStyle
  2
Flat
 70
     0
 71
     2
 72
     1
 73
     1
 90
        2
 40
-0.6
 41
30.0
 62
     5
 63
     7
421
 16777215
 74
     0
 91
        4
 64
     7
 65
   257
 75
     1
175
     1
 42
1.0
 92
        8
 66
     7
 43
1.0
 76
     1
 77
     6
 78
     2
 67
     7
 79
     5
170
     0
171
     0
290
     0
174
     0
 93
       13
 44
0.0
173
     0
291
     1
 45
0.0
1001
ACAD
1000
AcDbSavedByObjectVersion
1070
     0
  0
VISUALSTYLE
  5
1826
102
{ACAD_XDICTIONARY
360
4646
102
}
102
{ACAD_REACTORS
330
1824
102
}
330
1824
100
AcDbVisualStyle
  2
FlatWithEdges
 70
     1
 71
     2
 72
     1
 73
     1
 90
        2
 40
-0.6
 41
30.0
 62
     5
 63
     7
421
 16777215
 74
     1
 91
        4
 64
     7
 65
   257
 75
     1
175
     1
 42
1.0
 92
        0
 66
   257
 43
1.0
 76
     1
 77
     6
 78
     2
 67
     7
 79
     5
170
     0
171
     0
290
     0
174
     0
 93
       13
 44
0.0
173
     0
291
     1
 45
0.0
1001
ACAD
1000
AcDbSavedByObjectVersion
1070
     0
  0
VISUALSTYLE
  5
1827
102
{ACAD_XDICTIONARY
360
4648
102
}
102
{ACAD_REACTORS
330
1824
102
}
330
1824
100
AcDbVisualStyle
  2
Gouraud
 70
     2
 71
     2
 72
     2
 73
     1
 90
        2
 40
-0.6
 41
30.0
 62
     5
 63
     7
421
 16777215
 74
     0
 91
        4
 64
     7
 65
   257
 75
     1
175
     1
 42
1.0
 92
        0
 66
     7
 43
1.0
 76
     1
 77
     6
 78
     2
 67
     7
 79
     5
170
     0
171
     0
290
     0
174
     0
 93
       13
 44
0.0
173
     0
291
     1
 45
0.0
1001
ACAD
1000
AcDbSavedByObjectVersion
1070
     0
  0
VISUALSTYLE
  5
1828
102
{ACAD_XDICTIONARY
360
464A
102
}
102
{ACAD_REACTORS
330
1824
102
}
330
1824
100
AcDbVisualStyle
  2
GouraudWithEdges
 70
     3
 71
     2
 72
     2
 73
     1
 90
        2
 40
-0.6
 41
30.0
 62
     5
 63
     7
421
 16777215
 74
     1
 91
        4
 64
     7
 65
   257
 75
     1
175
     1
 42
1.0
 92
        0
 66
   257
 43
1.0
 76
     1
 77
     6
 78
     2
 67
     7
 79
     5
170
     0
171
     0
290
     0
174
     0
 93
       13
 44
0.0
173
     0
291
     1
 45
0.0
1001
ACAD
1000
AcDbSavedByObjectVersion
1070
     0
  0
VISUALSTYLE
  5
195D
102
{ACAD_XDICTIONARY
360
4666
102
}
102
{ACAD_REACTORS
330
1824
102
}
330
1824
100
AcDbVisualStyle
  2
Hidden
 70
     6
 71
     1
 72
     2
 73
     2
 90
        0
 40
-0.6
 41
-30.0
 62
     5
 63
     7
421
 16777215
 74
     2
 91
        2
 64
     7
 65
   257
 75
     2
175
     1
 42
40.0
 92
        0
 66
   257
 43
1.0
 76
     1
 77
     6
 78
     2
 67
     7
 79
     3
170
     0
171
     0
290
     0
174
     0
 93
        1
 44
0.0
173
     0
291
     0
 45
0.0
1001
ACAD
1000
AcDbSavedByObjectVersion
1070
     0
  0
VISUALSTYLE
  5
1963
102
{ACAD_XDICTIONARY
360
4672
102
}
102
{ACAD_REACTORS
330
1824
102
}
330
1824
100
AcDbVisualStyle
  2
JitterOff
 70
    20
 71
     2
 72
     2
 73
     0
 90
        0
 40
-0.6
 41
-30.0
 62
     5
 63
     7
421
 16777215
 74
     1
 91
        4
 64
     7
 65
   257
 75
     1
175
     1
 42
1.0
 92
       10
 66
     7
 43
1.0
 76
     1
 77
     6
 78
     2
 67
     7
 79
     5
170
     0
171
     0
290
     0
174
     0
 93
        1
 44
0.0
173
     0
291
     1
 45
0.0
1001
ACAD
1000
AcDbSavedByObjectVersion
1070
     0
  0
VISUALSTYLE
  5
1832
102
{ACAD_XDICTIONARY
360
465E
102
}
102
{ACAD_REACTORS
330
1824
102
}
330
1824
100
AcDbVisualStyle
  2
Linepattern
 70
    14
 71
     2
 72
     2
 73
     0
 90
        0
 40
-0.6
 41
-30.0
 62
     5
 63
     7
421
 16777215
 74
     1
 91
        4
 64
     7
 65
   257
 75
     7
175
     7
 42
1.0
 92
        8
 66
     7
 43
1.0
 76
     1
 77
     6
 78
     2
 67
     7
 79
     5
170
     0
171
     0
290
     0
174
     0
 93
        1
 44
0.0
173
     0
291
     1
 45
0.0
1001
ACAD
1000
AcDbSavedByObjectVersion
1070
     0
  0
VISUALSTYLE
  5
1964
102
{ACAD_XDICTIONARY
360
4674
102
}
102
{ACAD_REACTORS
330
1824
102
}
330
1824
100
AcDbVisualStyle
  2
OverhangOff
 70
    21
 71
     2
 72
     2
 73
     0
 90
        0
 40
-0.6
 41
-30.0
 62
     5
 63
     7
421
 16777215
 74
     1
 91
        4
 64
     7
 65
   257
 75
     1
175
     1
 42
1.0
 92
        9
 66
     7
 43
1.0
 76
     1
 77
     6
 78
     2
 67
     7
 79
     5
170
     0
171
     0
290
     0
174
     0
 93
        1
 44
0.0
173
     0
291
     1
 45
0.0
1001
ACAD
1000
AcDbSavedByObjectVersion
1070
     0
  0
VISUALSTYLE
  5
182E
102
{ACAD_XDICTIONARY
360
4656
102
}
102
{ACAD_REACTORS
330
1824
102
}
330
1824
100
AcDbVisualStyle
  2
Realistic
 70
     8
 71
     2
 72
     2
 73
     0
 90
        0
 40
-0.6
 41
-30.0
 62
     5
 63
     7
421
 16777215
 74
     1
 91
        0
 64
     7
 65
   257
 75
     1
175
     1
 42
1.0
 92
        8
 66
     8
424
  7895160
 43
1.0
 76
     1
 77
     6
 78
     2
 67
     7
 79
     5
170
     0
171
     0
290
     0
174
     0
 93
       13
 44
0.0
173
     0
291
     0
 45
0.0
1001
ACAD
1000
AcDbSavedByObjectVersion
1070
     0
  0
VISUALSTYLE
  5
1962
102
{ACAD_XDICTIONARY
360
4670
102
}
102
{ACAD_REACTORS
330
1824
102
}
330
1824
100
AcDbVisualStyle
  2
Shaded
 70
    27
 71
     2
 72
     2
 73
     1
 90
        2
 40
-0.6
 41
30.0
 62
     5
 63
     7
421
 16777215
 74
     0
 91
        4
 64
     7
 65
   257
 75
     1
175
     1
 42
1.0
 92
        8
 66
   257
 43
1.0
 76
     1
 77
     6
 78
     2
 67
     8
425
  7895160
 79
     3
170
     0
171
     0
290
     0
174
     0
 93
        5
 44
0.0
173
     0
291
     0
 45
0.0
1001
ACAD
1000
AcDbSavedByObjectVersion
1070
     0
  0
VISUALSTYLE
  5
1961
102
{ACAD_XDICTIONARY
360
466E
102
}
102
{ACAD_REACTORS
330
1824
102
}
330
1824
100
AcDbVisualStyle
  2
Shaded with edges
 70
    26
 71
     2
 72
     2
 73
     1
 90
        2
 40
-0.6
 41
30.0
 62
     5
 63
     7
421
 16777215
 74
     1
 91
        2
 64
     7
 65
   257
 75
     2
175
     1
 42
1.0
 92
        8
 66
   257
 43
1.0
 76
     1
 77
     6
 78
     2
 67
     7
 79
     3
170
     0
171
     0
290
     0
174
     0
 93
        5
 44
0.0
173
     0
291
     0
 45
0.0
1001
ACAD
1000
AcDbSavedByObjectVersion
1070
     0
  0
VISUALSTYLE
  5
195E
102
{ACAD_XDICTIONARY
360
4668
102
}
102
{ACAD_REACTORS
330
1824
102
}
330
1824
100
AcDbVisualStyle
  2
Shades of Gray
 70
    23
 71
     2
 72
     2
 73
     3
 90
        0
 40
-0.6
 41
-30.0
 62
     5
 63
     7
421
 16777215
 74
     2
 91
        2
 64
     7
 65
     7
 75
     1
175
     1
 42
40.0
 92
        8
 66
     7
 43
1.0
 76
     1
 77
     6
 78
     2
 67
     7
 79
     3
170
     0
171
     0
290
     0
174
     0
 93
        1
 44
0.0
173
     0
291
     0
 45
0.0
1001
ACAD
1000
AcDbSavedByObjectVersion
1070
     0
  0
VISUALSTYLE
  5
195F
102
{ACAD_XDICTIONARY
360
466A
102
}
102
{ACAD_REACTORS
330
1824
102
}
330
1824
100
AcDbVisualStyle
  2
Sketchy
 70
    24
 71
     1
 72
     2
 73
     2
 90
        0
 40
-0.6
 41
-30.0
 62
     5
 63
     7
421
 16777215
 74
     2
 91
        2
 64
     7
 65
     7
 75
     1
175
     1
 42
40.0
 92
       11
 66
     7
 43
1.0
 76
     1
 77
     6
 78
     2
 67
     7
 79
     6
170
     0
171
     0
290
     0
174
     0
 93
        1
 44
0.0
173
     0
291
     0
 45
0.0
1001
ACAD
1000
AcDbSavedByObjectVersion
1070
     0
  0
VISUALSTYLE
  5
1831
102
{ACAD_XDICTIONARY
360
465C
102
}
102
{ACAD_REACTORS
330
1824
102
}
330
1824
100
AcDbVisualStyle
  2
Thicken
 70
    13
 71
     2
 72
     2
 73
     0
 90
        0
 40
-0.6
 41
-30.0
 62
     5
 63
     7
421
 16777215
 74
     1
 91
        4
 64
     7
 65
   257
 75
     1
175
     1
 42
1.0
 92
       12
 66
     7
 43
1.0
 76
     1
 77
     6
 78
     2
 67
     7
 79
     5
170
     0
171
     0
290
     0
174
     0
 93
        1
 44
0.0
173
     0
291
     1
 45
0.0
1001
ACAD
1000
AcDbSavedByObjectVersion
1070
     0
  0
VISUALSTYLE
  5
195C
102
{ACAD_XDICTIONARY
360
4664
102
}
102
{ACAD_REACTORS
330
1824
102
}
330
1824
100
AcDbVisualStyle
  2
Wireframe
 70
     5
 71
     0
 72
     2
 73
     0
 90
        0
 40
-0.6
 41
-30.0
 62
     5
 63
     7
421
 16777215
 74
     1
 91
        4
 64
     7
 65
   257
 75
     1
175
     1
 42
1.0
 92
        0
 66
   257
 43
1.0
 76
     1
 77
     6
 78
     2
 67
     7
 79
     3
170
     0
171
     0
290
     0
174
     0
 93
        1
 44
0.0
173
     0
291
     0
 45
0.0
1001
ACAD
1000
AcDbSavedByObjectVersion
1070
     0
  0
VISUALSTYLE
  5
1960
102
{ACAD_XDICTIONARY
360
466C
102
}
102
{ACAD_REACTORS
330
1824
102
}
330
1824
100
AcDbVisualStyle
  2
X-Ray
 70
    25
 71
     2
 72
     2
 73
     1
 90
        1
 40
0.5
 41
-30.0
 62
     5
 63
     7
421
 16777215
 74
     1
 91
        0
 64
     7
 65
   257
 75
     1
175
     1
 42
1.0
 92
        8
 66
     7
 43
1.0
 76
     1
 77
     6
 78
     2
 67
     7
 79
     3
170
     0
171
     0
290
     0
174
     0
 93
       13
 44
0.0
173
     0
291
     0
 45
0.0
1001
ACAD
1000
AcDbSavedByObjectVersion
1070
     0
  0
DICTIONARYVAR
  5
18AA
102
{ACAD_REACTORS
330
24B
102
}
330
24B
100
DictionaryVariables
280
     0
  1
1:1
  0
DICTIONARYVAR
  5
18A8
102
{ACAD_REACTORS
330
24B
102
}
330
24B
100
DictionaryVariables
280
     0
  1
ArialNarrow
  0
DICTIONARYVAR
  5
17F2
102
{ACAD_REACTORS
330
24B
102
}
330
24B
100
DictionaryVariables
280
     0
  1
STANDARD
  0
DICTIONARYVAR
  5
24EE
102
{ACAD_REACTORS
330
24B
102
}
330
24B
100
DictionaryVariables
280
     0
  1
Imperial24
  0
DICTIONARYVAR
  5
24EF
102
{ACAD_REACTORS
330
24B
102
}
330
24B
100
DictionaryVariables
280
     0
  1
Imperial24
  0
DICTIONARYVAR
  5
24C
102
{ACAD_REACTORS
330
24B
102
}
330
24B
100
DictionaryVariables
280
     0
  1
1
  0
DICTIONARYVAR
  5
17F3
102
{ACAD_REACTORS
330
24B
102
}
330
24B
100
DictionaryVariables
280
     0
  1
3
  0
DICTIONARYVAR
  5
24F0
102
{ACAD_REACTORS
330
24B
102
}
330
24B
100
DictionaryVariables
280
     0
  1
0
  0
DICTIONARYVAR
  5
195A
102
{ACAD_REACTORS
330
24B
102
}
330
24B
100
DictionaryVariables
280
     0
  1
0
  0
DICTIONARYVAR
  5
18AC
102
{ACAD_REACTORS
330
24B
102
}
330
24B
100
DictionaryVariables
280
     0
  1
15
  0
DICTIONARYVAR
  5
18AB
102
{ACAD_REACTORS
330
24B
102
}
330
24B
100
DictionaryVariables
280
     0
  1
0
  0
DICTIONARYVAR
  5
18A9
102
{ACAD_REACTORS
330
24B
102
}
330
24B
100
DictionaryVariables
280
     0
  1
0
  0
DICTIONARYVAR
  5
14B0
102
{ACAD_REACTORS
330
24B
102
}
330
24B
100
DictionaryVariables
280
     0
  1
1
  0
DICTIONARY
  5
463F
102
{ACAD_REACTORS
330
463D
102
}
330
463D
100
AcDbDictionary
281
     1
  0
DICTIONARY
  5
463E
102
{ACAD_REACTORS
330
463D
102
}
330
463D
100
AcDbDictionary
281
     1
  3
1240777898880
350
4638
  3
1240777898896
350
4639
  3
1240777898912
350
463A
  3
1240777898928
350
463B
  3
1240777898944
350
463C
  0
XRECORD
  5
4504
102
{ACAD_REACTORS
330
44FF
102
}
330
44FF
100
AcDbXrecord
280
     1
  1
43a3
  0
XRECORD
  5
4503
102
{ACAD_REACTORS
330
44FF
102
}
330
44FF
100
AcDbXrecord
280
     1
  1
1
  0
XRECORD
  5
4502
102
{ACAD_REACTORS
330
44FF
102
}
330
44FF
100
AcDbXrecord
280
     1
  1
O:\RAIN BIRD\IVM2020\IVM-SEN-FLOWSENSOR.dwg
  0
XRECORD
  5
4501
102
{ACAD_REACTORS
330
44FF
102
}
330
44FF
100
AcDbXrecord
280
     1
  1
o:\rain bird\IVM2020\RainBird.dst
  0
XRECORD
  5
4500
102
{ACAD_REACTORS
330
44FF
102
}
330
44FF
100
AcDbXrecord
280
     1
 90
        2
  0
XRECORD
  5
4505
102
{ACAD_REACTORS
330
44FF
102
}
330
44FF
100
AcDbXrecord
280
     1
 90
        1
  0
XRECORD
  5
4506
102
{ACAD_REACTORS
330
44FF
102
}
330
44FF
100
AcDbXrecord
280
     1
  1
2020/11/06 17:35:54.779
  0
XRECORD
  5
1992
102
{ACAD_REACTORS
330
1991
102
}
330
1991
100
AcDbXrecord
280
     1
330
2300
330
235C
330
235D
330
22A6
330
22B1
330
2467
330
24A7
330
24AA
330
24AD
330
24B0
330
24B3
330
24B6
330
24B9
330
24BC
330
24BF
330
24C2
330
C50
330
2425
330
245B
330
245E
330
15DE
330
1602
330
131E
330
1330
330
1336
330
1339
330
134B
330
12DF
330
17CF
  0
XRECORD
  5
3E49
102
{ACAD_REACTORS
330
3E48
102
}
330
3E48
100
AcDbXrecord
280
     1
 70
  1214
  1
13.3.854.0
  1
C3D_854_20200226_1539
  1
Autodesk Civil 3D
  1
854_20200226_1539
  1
ACAD-4101:409
1001
ACAD
1070
   160
1000
5F91B51C
  0
XRECORD
  5
41F2
102
{ACAD_REACTORS
330
3E48
102
}
330
3E48
100
AcDbXrecord
280
     1
 70
  1214
  1
13.3.854.0
  1
C3D_854_20200226_1539
  1
Autodesk Civil 3D
  1
854_20200226_1539
  1
ACAD-4101:409
1001
ACAD
1070
   160
1000
5F91D641
  0
XRECORD
  5
4392
102
{ACAD_REACTORS
330
3E48
102
}
330
3E48
100
AcDbXrecord
280
     1
 70
  1214
  1
13.3.854.0
  1
C3D_854_20200226_1539
  1
Autodesk Civil 3D
  1
854_20200226_1539
  1
ACAD-4101:409
1001
ACAD
1070
   160
1000
5F91E9EE
  0
XRECORD
  5
4426
102
{ACAD_REACTORS
330
3E48
102
}
330
3E48
100
AcDbXrecord
280
     1
 70
  1214
  1
13.3.854.0
  1
C3D_854_20200226_1539
  1
Autodesk Civil 3D
  1
854_20200226_1539
  1
ACAD-4101:409
1001
ACAD
1070
   160
1000
5FA1A61A
  0
XRECORD
  5
4470
102
{ACAD_REACTORS
330
3E48
102
}
330
3E48
100
AcDbXrecord
280
     1
 70
  1214
  1
13.3.854.0
  1
C3D_854_20200226_1539
  1
Autodesk Civil 3D
  1
854_20200226_1539
  1
ACAD-4101:409
1001
ACAD
1070
   160
1000
5FA3240A
  0
XRECORD
  5
4494
102
{ACAD_REACTORS
330
3E48
102
}
330
3E48
100
AcDbXrecord
280
     1
 70
  1214
  1
13.3.854.0
  1
C3D_854_20200226_1539
  1
Autodesk Civil 3D
  1
854_20200226_1539
  1
ACAD-4101:409
1001
ACAD
1070
   160
1000
5FA324D7
  0
XRECORD
  5
44B7
102
{ACAD_REACTORS
330
3E48
102
}
330
3E48
100
AcDbXrecord
280
     1
 70
  1214
  1
13.3.854.0
  1
C3D_854_20200226_1539
  1
Autodesk Civil 3D
  1
854_20200226_1539
  1
ACAD-4101:409
1001
ACAD
1070
   160
1000
5FA43BCE
  0
XRECORD
  5
44DA
102
{ACAD_REACTORS
330
3E48
102
}
330
3E48
100
AcDbXrecord
280
     1
 70
  1214
  1
13.3.854.0
  1
C3D_854_20200226_1539
  1
Autodesk Civil 3D
  1
854_20200226_1539
  1
ACAD-4101:409
1001
ACAD
1070
   160
1000
5FA44213
  0
XRECORD
  5
456A
102
{ACAD_REACTORS
330
3E48
102
}
330
3E48
100
AcDbXrecord
280
     1
 70
  1214
  1
13.3.854.0
  1
C3D_854_20200226_1539
  1
Autodesk Civil 3D
  1
854_20200226_1539
  1
ACAD-4101:409
1001
ACAD
1070
   160
1000
5FAAD92D
  0
XRECORD
  5
4632
102
{ACAD_REACTORS
330
3E48
102
}
330
3E48
100
AcDbXrecord
280
     1
 70
  1214
  1
13.3.854.0
  1
C3D_854_20200226_1539
  1
Autodesk Civil 3D
  1
854_20200226_1539
  1
ACAD-4101:409
1001
ACAD
1070
   160
1000
5FB2E257
  0
XRECORD
  5
1943
102
{ACAD_REACTORS
330
1940
102
}
330
1940
100
AcDbXrecord
280
     1
  1
_0100-
  1
*0100-*
  1
*
  1
*
 70
     0
  1
*
  1
*
  0
XRECORD
  5
1942
102
{ACAD_REACTORS
330
1940
102
}
330
1940
100
AcDbXrecord
280
     1
  1
_0280-
  1
*0280-*
  1
*
  1
*
 70
     0
  1
*
  1
*
  0
XRECORD
  5
1945
102
{ACAD_REACTORS
330
1940
102
}
330
1940
100
AcDbXrecord
280
     1
  1
_Add Alternate
  1
*add*alt*
  1
*
  1
*
 70
     0
  1
*
  1
*
  0
XRECORD
  5
1946
102
{ACAD_REACTORS
330
1940
102
}
330
1940
100
AcDbXrecord
280
     1
  1
_Bid Alternate
  1
*bid*alt*
  1
*
  1
*
 70
     0
  1
*
  1
*
  0
XRECORD
  5
1948
102
{ACAD_REACTORS
330
1940
102
}
330
1940
100
AcDbXrecord
280
     1
  1
_Color 253
  1
*
  1
253
  1
*
 70
     0
  1
*
  1
*
  0
XRECORD
  5
1944
102
{ACAD_REACTORS
330
1940
102
}
330
1940
100
AcDbXrecord
280
     1
  1
_Color 8
  1
*
  1
8
  1
*
 70
     0
  1
*
  1
*
  0
XRECORD
  5
1947
102
{ACAD_REACTORS
330
1940
102
}
330
1940
100
AcDbXrecord
280
     1
  1
_Color 84
  1
*
  1
84
  1
*
 70
     0
  1
*
  1
*
  0
XRECORD
  5
194E
102
{ACAD_REACTORS
330
1940
102
}
330
1940
100
AcDbXrecord
280
     1
  1
_Contours
  1
*contour*,*cont-*,*cp cont*,*p-cont*
  1
*
  1
*
 70
     0
  1
*
  1
*
  0
XRECORD
  5
1949
102
{ACAD_REACTORS
330
1940
102
}
330
1940
100
AcDbXrecord
280
     1
  1
_Demo
  1
*demo*
  1
*
  1
*
 70
     0
  1
*
  1
*
  0
XRECORD
  5
194A
102
{ACAD_REACTORS
330
1940
102
}
330
1940
100
AcDbXrecord
280
     1
  1
_Existing
  1
*exist*,*ex*
  1
*
  1
*
 70
     0
  1
*
  1
*
  0
XRECORD
  5
194D
102
{ACAD_REACTORS
330
1940
102
}
330
1940
100
AcDbXrecord
280
     1
  1
_Hardscape
  1
*sidewalk*,*sw*,*curb*,*walk*,*-lip*,*tbc*
  1
*
  1
*
 70
     0
  1
*
  1
*
  0
XRECORD
  5
1941
102
{ACAD_REACTORS
330
1940
102
}
330
1940
100
AcDbXrecord
280
     1
  1
_NoXref
  1
~*|*
  1
*
  1
*
 70
     0
  1
*
  1
*
  0
XRECORD
  5
194B
102
{ACAD_REACTORS
330
1940
102
}
330
1940
100
AcDbXrecord
280
     1
  1
_Row
  1
*row*
  1
*
  1
*
 70
     0
  1
*
  1
*
  0
XRECORD
  5
194C
102
{ACAD_REACTORS
330
1940
102
}
330
1940
100
AcDbXrecord
280
     1
  1
_Utility
  1
*ut-*,*utility*,*wat*
  1
*
  1
*
 70
     0
  1
*
  1
*
  0
XRECORD
  5
4680
102
{ACAD_REACTORS
330
467F
102
}
330
467F
100
AcDbXrecord
280
     1
1070
     0
1070
     1
1070
     0
  0
FIELD
  5
456C
102
{ACAD_REACTORS
330
456B
102
}
330
456B
100
AcDbField
  1
_text
  2
%<\_FldIdx 0>% - 2020-11-16
 90
        1
360
460F
 97
        0
  4

 91
       63
 92
        0
 94
        9
 95
        2
 96
        0
300

 93
        1
  6
ACFD_FIELDTEXT_CHECKSUM
 90
        2
140
28154.0
  7
ACFD_FIELD_VALUE
 90
        0
 91
        0
301

 98
        0
  0
DICTIONARY
  5
467A
330
1969
100
AcDbDictionary
280
     1
281
     1
  3
ACAD_XREC_ROUNDTRIP
360
467B
  0
DICTIONARY
  5
45F2
330
43A3
100
AcDbDictionary
280
     1
281
     1
  0
DICTIONARY
  5
45B6
330
21E
100
AcDbDictionary
280
     1
281
     1
  0
DICTIONARY
  5
1815
330
1814
100
AcDbDictionary
280
     1
281
     1
  3
ACAD_XREC_ROUNDTRIP
360
4642
  3
BUMPTILE
360
1817
  3
DIFFUSETILE
360
1816
  3
OPACITYTILE
360
181A
  3
REFLECTIONTILE
360
1819
  3
REFRACTIONTILE
360
181B
  3
SPECULARTILE
360
1818
  0
DICTIONARY
  5
180D
330
180C
100
AcDbDictionary
280
     1
281
     1
  3
ACAD_XREC_ROUNDTRIP
360
4641
  3
BUMPTILE
360
180F
  3
DIFFUSETILE
360
180E
  3
OPACITYTILE
360
1812
  3
REFLECTIONTILE
360
1811
  3
REFRACTIONTILE
360
1813
  3
SPECULARTILE
360
1810
  0
DICTIONARY
  5
181D
330
181C
100
AcDbDictionary
280
     1
281
     1
  3
ACAD_XREC_ROUNDTRIP
360
4643
  3
BUMPTILE
360
181F
  3
DIFFUSETILE
360
181E
  3
OPACITYTILE
360
1822
  3
REFLECTIONTILE
360
1821
  3
REFRACTIONTILE
360
1823
  3
SPECULARTILE
360
1820
  0
DICTIONARY
  5
467C
330
19C7
100
AcDbDictionary
280
     1
281
     1
  3
ACAD_XREC_ROUNDTRIP
360
467D
  0
DICTIONARY
  5
4678
330
1967
100
AcDbDictionary
280
     1
281
     1
  3
ACAD_XREC_ROUNDTRIP
360
4679
  0
DICTIONARY
  5
18A5
330
17EC
100
AcDbDictionary
280
     1
281
     1
  3
ACAD_ROUNDTRIP_2008_TABLESTYLE_CELLSTYLEMAP
360
4635
  3
ACAD_XREC_ROUNDTRIP
360
4640
  0
DICTIONARY
  5
464E
330
182A
100
AcDbDictionary
280
     1
281
     1
  3
ACAD_XREC_ROUNDTRIP
360
464F
  0
DICTIONARY
  5
4652
330
182C
100
AcDbDictionary
280
     1
281
     1
  3
ACAD_XREC_ROUNDTRIP
360
4653
  0
DICTIONARY
  5
4650
330
182B
100
AcDbDictionary
280
     1
281
     1
  3
ACAD_XREC_ROUNDTRIP
360
4651
  0
DICTIONARY
  5
464C
330
1829
100
AcDbDictionary
280
     1
281
     1
  3
ACAD_XREC_ROUNDTRIP
360
464D
  0
DICTIONARY
  5
465A
330
1830
100
AcDbDictionary
280
     1
281
     1
  3
ACAD_XREC_ROUNDTRIP
360
465B
  0
DICTIONARY
  5
4662
330
1834
100
AcDbDictionary
280
     1
281
     1
  3
ACAD_XREC_ROUNDTRIP
360
4663
  0
DICTIONARY
  5
4654
330
182D
100
AcDbDictionary
280
     1
281
     1
  3
ACAD_XREC_ROUNDTRIP
360
4655
  0
DICTIONARY
  5
4658
330
182F
100
AcDbDictionary
280
     1
281
     1
  3
ACAD_XREC_ROUNDTRIP
360
4659
  0
DICTIONARY
  5
4676
330
1965
100
AcDbDictionary
280
     1
281
     1
  3
ACAD_XREC_ROUNDTRIP
360
4677
  0
DICTIONARY
  5
4660
330
1833
100
AcDbDictionary
280
     1
281
     1
  3
ACAD_XREC_ROUNDTRIP
360
4661
  0
DICTIONARY
  5
4644
330
1825
100
AcDbDictionary
280
     1
281
     1
  3
ACAD_XREC_ROUNDTRIP
360
4645
  0
DICTIONARY
  5
4646
330
1826
100
AcDbDictionary
280
     1
281
     1
  3
ACAD_XREC_ROUNDTRIP
360
4647
  0
DICTIONARY
  5
4648
330
1827
100
AcDbDictionary
280
     1
281
     1
  3
ACAD_XREC_ROUNDTRIP
360
4649
  0
DICTIONARY
  5
464A
330
1828
100
AcDbDictionary
280
     1
281
     1
  3
ACAD_XREC_ROUNDTRIP
360
464B
  0
DICTIONARY
  5
4666
330
195D
100
AcDbDictionary
280
     1
281
     1
  3
ACAD_XREC_ROUNDTRIP
360
4667
  0
DICTIONARY
  5
4672
330
1963
100
AcDbDictionary
280
     1
281
     1
  3
ACAD_XREC_ROUNDTRIP
360
4673
  0
DICTIONARY
  5
465E
330
1832
100
AcDbDictionary
280
     1
281
     1
  3
ACAD_XREC_ROUNDTRIP
360
465F
  0
DICTIONARY
  5
4674
330
1964
100
AcDbDictionary
280
     1
281
     1
  3
ACAD_XREC_ROUNDTRIP
360
4675
  0
DICTIONARY
  5
4656
330
182E
100
AcDbDictionary
280
     1
281
     1
  3
ACAD_XREC_ROUNDTRIP
360
4657
  0
DICTIONARY
  5
4670
330
1962
100
AcDbDictionary
280
     1
281
     1
  3
ACAD_XREC_ROUNDTRIP
360
4671
  0
DICTIONARY
  5
466E
330
1961
100
AcDbDictionary
280
     1
281
     1
  3
ACAD_XREC_ROUNDTRIP
360
466F
  0
DICTIONARY
  5
4668
330
195E
100
AcDbDictionary
280
     1
281
     1
  3
ACAD_XREC_ROUNDTRIP
360
4669
  0
DICTIONARY
  5
466A
330
195F
100
AcDbDictionary
280
     1
281
     1
  3
ACAD_XREC_ROUNDTRIP
360
466B
  0
DICTIONARY
  5
465C
330
1831
100
AcDbDictionary
280
     1
281
     1
  3
ACAD_XREC_ROUNDTRIP
360
465D
  0
DICTIONARY
  5
4664
330
195C
100
AcDbDictionary
280
     1
281
     1
  3
ACAD_XREC_ROUNDTRIP
360
4665
  0
DICTIONARY
  5
466C
330
1960
100
AcDbDictionary
280
     1
281
     1
  3
ACAD_XREC_ROUNDTRIP
360
466D
  0
XRECORD
  5
4638
102
{ACAD_REACTORS
330
463E
102
}
330
463E
100
AcDbXrecord
280
     1
  1
AcDb_Thumbnail_Schema
102
{ATTRRECORD
341
4639
  2
AcDbDs::TreatedAsObjectData
280
     1
291
     1
102
ATTRRECORD}
102
{ATTRRECORD
341
463A
  2
AcDbDs::Legacy
280
     1
291
     1
102
ATTRRECORD}
  2
AcDbDs::ID
280
    10
 91
        8
102
{ATTRRECORD
341
463B
  2
AcDs:Indexable
280
     1
291
     1
102
ATTRRECORD}
102
{ATTRRECORD
341
463C
  2
AcDbDs::HandleAttribute
280
     7
282
     1
102
ATTRRECORD}
  2
Thumbnail_Data
280
    15
 91
        0
  0
XRECORD
  5
4639
102
{ACAD_REACTORS
330
463E
102
}
330
463E
100
AcDbXrecord
280
     1
  1
AcDbDs::TreatedAsObjectDataSchema
  2
AcDbDs::TreatedAsObjectData
280
     1
 91
        0
  0
XRECORD
  5
463A
102
{ACAD_REACTORS
330
463E
102
}
330
463E
100
AcDbXrecord
280
     1
  1
AcDbDs::LegacySchema
  2
AcDbDs::Legacy
280
     1
 91
        0
  0
XRECORD
  5
463B
102
{ACAD_REACTORS
330
463E
102
}
330
463E
100
AcDbXrecord
280
     1
  1
AcDbDs::IndexedPropertySchema
  2
AcDs:Indexable
280
     1
 91
        0
  0
XRECORD
  5
463C
102
{ACAD_REACTORS
330
463E
102
}
330
463E
100
AcDbXrecord
280
     1
  1
AcDbDs::HandleAttributeSchema
  2
AcDbDs::HandleAttribute
280
     7
 91
        1
284
     1
  0
FIELD
  5
460F
330
456C
100
AcDbField
  1
AcVar
  2
\AcVar Filename \f "%tc4%fn2"
 90
        0
 97
        0
  4
%tc4%fn2
 91
       63
 92
        0
 94
       59
 95
        2
 96
        0
300

 93
        1
  6
Variable
 90
        4
  1
Filename
  7
ACFD_FIELD_VALUE
 90
        4
  1
O:\RAIN BIRD\IVM2020\IVM-SEN-FLOWSENSOR.dwg
301
IVM-SEN-FLOWSENSOR
 98
       18
  0
XRECORD
  5
467B
102
{ACAD_REACTORS
330
467A
102
}
330
467A
100
AcDbXrecord
280
     1
102
DISPLAYNAME
  1
Imperial24
102
FLAGS
 90
        0
  0
XRECORD
  5
4642
102
{ACAD_REACTORS
330
1815
102
}
330
1815
100
AcDbXrecord
280
     1
102
MATERIAL
148
0.0
149
0.0
149
0.0
 93
        0
 94
      127
282
     0
 72
     0
 77
     0
171
     0
175
     0
179
     0
273
     0
  0
XRECORD
  5
1817
102
{ACAD_REACTORS
330
1815
102
}
330
1815
100
AcDbXrecord
280
     1
270
     1
271
     1
  0
XRECORD
  5
1816
102
{ACAD_REACTORS
330
1815
102
}
330
1815
100
AcDbXrecord
280
     1
270
     1
271
     1
  0
XRECORD
  5
181A
102
{ACAD_REACTORS
330
1815
102
}
330
1815
100
AcDbXrecord
280
     1
270
     1
271
     1
  0
XRECORD
  5
1819
102
{ACAD_REACTORS
330
1815
102
}
330
1815
100
AcDbXrecord
280
     1
270
     1
271
     1
  0
XRECORD
  5
181B
102
{ACAD_REACTORS
330
1815
102
}
330
1815
100
AcDbXrecord
280
     1
270
     1
271
     1
  0
XRECORD
  5
1818
102
{ACAD_REACTORS
330
1815
102
}
330
1815
100
AcDbXrecord
280
     1
270
     1
271
     1
  0
XRECORD
  5
4641
102
{ACAD_REACTORS
330
180D
102
}
330
180D
100
AcDbXrecord
280
     1
102
MATERIAL
148
0.0
149
0.0
149
0.0
 93
        0
 94
      127
282
     0
 72
     0
 77
     0
171
     0
175
     0
179
     0
273
     0
  0
XRECORD
  5
180F
102
{ACAD_REACTORS
330
180D
102
}
330
180D
100
AcDbXrecord
280
     1
270
     1
271
     1
  0
XRECORD
  5
180E
102
{ACAD_REACTORS
330
180D
102
}
330
180D
100
AcDbXrecord
280
     1
270
     1
271
     1
  0
XRECORD
  5
1812
102
{ACAD_REACTORS
330
180D
102
}
330
180D
100
AcDbXrecord
280
     1
270
     1
271
     1
  0
XRECORD
  5
1811
102
{ACAD_REACTORS
330
180D
102
}
330
180D
100
AcDbXrecord
280
     1
270
     1
271
     1
  0
XRECORD
  5
1813
102
{ACAD_REACTORS
330
180D
102
}
330
180D
100
AcDbXrecord
280
     1
270
     1
271
     1
  0
XRECORD
  5
1810
102
{ACAD_REACTORS
330
180D
102
}
330
180D
100
AcDbXrecord
280
     1
270
     1
271
     1
  0
XRECORD
  5
4643
102
{ACAD_REACTORS
330
181D
102
}
330
181D
100
AcDbXrecord
280
     1
102
MATERIAL
148
0.0
149
0.0
149
0.0
 93
        0
 94
      127
282
     0
 72
     0
 77
     0
171
     0
175
     0
179
     0
273
     0
  0
XRECORD
  5
181F
102
{ACAD_REACTORS
330
181D
102
}
330
181D
100
AcDbXrecord
280
     1
270
     1
271
     1
  0
XRECORD
  5
181E
102
{ACAD_REACTORS
330
181D
102
}
330
181D
100
AcDbXrecord
280
     1
270
     1
271
     1
  0
XRECORD
  5
1822
102
{ACAD_REACTORS
330
181D
102
}
330
181D
100
AcDbXrecord
280
     1
270
     1
271
     1
  0
XRECORD
  5
1821
102
{ACAD_REACTORS
330
181D
102
}
330
181D
100
AcDbXrecord
280
     1
270
     1
271
     1
  0
XRECORD
  5
1823
102
{ACAD_REACTORS
330
181D
102
}
330
181D
100
AcDbXrecord
280
     1
270
     1
271
     1
  0
XRECORD
  5
1820
102
{ACAD_REACTORS
330
181D
102
}
330
181D
100
AcDbXrecord
280
     1
270
     1
271
     1
  0
XRECORD
  5
467D
102
{ACAD_REACTORS
330
467C
102
}
330
467C
100
AcDbXrecord
280
     1
102
ACAD_ROUNDTRIP_2012_MLEADER_STYLE
298
     1
  0
XRECORD
  5
4679
102
{ACAD_REACTORS
330
4678
102
}
330
4678
100
AcDbXrecord
280
     1
102
DISPLAYNAME
  1
Imperial24
102
FLAGS
 90
        0
  0
CELLSTYLEMAP
  5
4635
102
{ACAD_REACTORS
330
18A5
102
}
330
18A5
100
AcDbCellStyleMap
 90
        3
300
CELLSTYLE
  1
TABLEFORMAT_BEGIN
 90
        5
170
     1
 91
        0
 92
    32768
 62
   257
 93
        1
300
CONTENTFORMAT
  1
CONTENTFORMAT_BEGIN
 90
        0
 91
        0
 92
        4
 93
        0
300

 40
0.0
140
1.0
 94
        5
 62
     0
340
10
144
0.25
309
CONTENTFORMAT_END
171
     0
 94
        6
 95
        1
302
GRIDFORMAT
  1
GRIDFORMAT_BEGIN
 90
        0
 91
        1
 62
     0
 92
       -2
340
0
 93
        0
 40
0.045
309
GRIDFORMAT_END
 95
        2
302
GRIDFORMAT
  1
GRIDFORMAT_BEGIN
 90
        0
 91
        1
 62
     0
 92
       -2
340
0
 93
        0
 40
0.045
309
GRIDFORMAT_END
 95
        4
302
GRIDFORMAT
  1
GRIDFORMAT_BEGIN
 90
        0
 91
        1
 62
     0
 92
       -2
340
0
 93
        0
 40
0.045
309
GRIDFORMAT_END
 95
        8
302
GRIDFORMAT
  1
GRIDFORMAT_BEGIN
 90
        0
 91
        1
 62
     0
 92
       -2
340
0
 93
        0
 40
0.045
309
GRIDFORMAT_END
 95
       16
302
GRIDFORMAT
  1
GRIDFORMAT_BEGIN
 90
        0
 91
        1
 62
     0
 92
       -2
340
0
 93
        0
 40
0.045
309
GRIDFORMAT_END
 95
       32
302
GRIDFORMAT
  1
GRIDFORMAT_BEGIN
 90
        0
 91
        1
 62
     0
 92
       -2
340
0
 93
        0
 40
0.045
309
GRIDFORMAT_END
309
TABLEFORMAT_END
  1
CELLSTYLE_BEGIN
 90
        1
 91
        1
300
_TITLE
309
CELLSTYLE_END
300
CELLSTYLE
  1
TABLEFORMAT_BEGIN
 90
        5
170
     1
 91
        0
 92
        0
 62
   257
 93
        1
300
CONTENTFORMAT
  1
CONTENTFORMAT_BEGIN
 90
        0
 91
        0
 92
        4
 93
        0
300

 40
0.0
140
1.0
 94
        5
 62
     0
340
10
144
0.18
309
CONTENTFORMAT_END
171
     0
 94
        6
 95
        1
302
GRIDFORMAT
  1
GRIDFORMAT_BEGIN
 90
        0
 91
        1
 62
     0
 92
       -2
340
0
 93
        0
 40
0.045
309
GRIDFORMAT_END
 95
        2
302
GRIDFORMAT
  1
GRIDFORMAT_BEGIN
 90
        0
 91
        1
 62
     0
 92
       -2
340
0
 93
        0
 40
0.045
309
GRIDFORMAT_END
 95
        4
302
GRIDFORMAT
  1
GRIDFORMAT_BEGIN
 90
        0
 91
        1
 62
     0
 92
       -2
340
0
 93
        0
 40
0.045
309
GRIDFORMAT_END
 95
        8
302
GRIDFORMAT
  1
GRIDFORMAT_BEGIN
 90
        0
 91
        1
 62
     0
 92
       -2
340
0
 93
        0
 40
0.045
309
GRIDFORMAT_END
 95
       16
302
GRIDFORMAT
  1
GRIDFORMAT_BEGIN
 90
        0
 91
        1
 62
     0
 92
       -2
340
0
 93
        0
 40
0.045
309
GRIDFORMAT_END
 95
       32
302
GRIDFORMAT
  1
GRIDFORMAT_BEGIN
 90
        0
 91
        1
 62
     0
 92
       -2
340
0
 93
        0
 40
0.045
309
GRIDFORMAT_END
309
TABLEFORMAT_END
  1
CELLSTYLE_BEGIN
 90
        2
 91
        1
300
_HEADER
309
CELLSTYLE_END
300
CELLSTYLE
  1
TABLEFORMAT_BEGIN
 90
        5
170
     1
 91
        0
 92
        0
 62
   257
 93
        1
300
CONTENTFORMAT
  1
CONTENTFORMAT_BEGIN
 90
        0
 91
        0
 92
        4
 93
        0
300

 40
0.0
140
1.0
 94
        2
 62
     0
340
10
144
0.18
309
CONTENTFORMAT_END
171
     0
 94
        6
 95
        1
302
GRIDFORMAT
  1
GRIDFORMAT_BEGIN
 90
        0
 91
        1
 62
     0
 92
       -2
340
0
 93
        0
 40
0.045
309
GRIDFORMAT_END
 95
        2
302
GRIDFORMAT
  1
GRIDFORMAT_BEGIN
 90
        0
 91
        1
 62
     0
 92
       -2
340
0
 93
        0
 40
0.045
309
GRIDFORMAT_END
 95
        4
302
GRIDFORMAT
  1
GRIDFORMAT_BEGIN
 90
        0
 91
        1
 62
     0
 92
       -2
340
0
 93
        0
 40
0.045
309
GRIDFORMAT_END
 95
        8
302
GRIDFORMAT
  1
GRIDFORMAT_BEGIN
 90
        0
 91
        1
 62
     0
 92
       -2
340
0
 93
        0
 40
0.045
309
GRIDFORMAT_END
 95
       16
302
GRIDFORMAT
  1
GRIDFORMAT_BEGIN
 90
        0
 91
        1
 62
     0
 92
       -2
340
0
 93
        0
 40
0.045
309
GRIDFORMAT_END
 95
       32
302
GRIDFORMAT
  1
GRIDFORMAT_BEGIN
 90
        0
 91
        1
 62
     0
 92
       -2
340
0
 93
        0
 40
0.045
309
GRIDFORMAT_END
309
TABLEFORMAT_END
  1
CELLSTYLE_BEGIN
 90
        3
 91
        2
300
_DATA
309
CELLSTYLE_END
  0
XRECORD
  5
4640
102
{ACAD_REACTORS
330
18A5
102
}
330
18A5
100
AcDbXrecord
280
     1
102
ACAD_ROUNDTRIP_PRE2007_TABLESTYLE
 90
        4
 91
        0
  1

 92
        4
 93
        0
  2

 94
        4
 95
        0
  3

  0
XRECORD
  5
464F
102
{ACAD_REACTORS
330
464E
102
}
330
464E
100
AcDbXrecord
280
     1
102
RTVSPost2010Prop28
280
     1
102
RTVSPost2010PropOp28
 70
     1
102
RTVSPost2010Prop29
280
     1
102
RTVSPost2010PropOp29
 70
     1
102
RTVSPost2010Prop30
280
     0
102
RTVSPost2010PropOp30
 70
     1
102
RTVSPost2010Prop31
280
     0
102
RTVSPost2010PropOp31
 70
     1
102
RTVSPost2010Prop32
280
     0
102
RTVSPost2010PropOp32
 70
     1
102
RTVSPost2010Prop33
280
     0
102
RTVSPost2010PropOp33
 70
     1
102
RTVSPost2010Prop34
280
     0
102
RTVSPost2010PropOp34
 70
     1
102
RTVSPost2010Prop35
280
     0
102
RTVSPost2010PropOp35
 70
     1
102
RTVSPost2010Prop36
280
     0
102
RTVSPost2010PropOp36
 70
     1
102
RTVSPost2010Prop37
 90
       50
102
RTVSPost2010PropOp37
 70
     1
102
RTVSPost2010Prop38
140
0.0
102
RTVSPost2010PropOp38
 70
     1
102
RTVSPost2010Prop39
140
1.0
102
RTVSPost2010PropOp39
 70
     1
102
RTVSPost2010Prop40
 90
        0
102
RTVSPost2010PropOp40
 70
     1
102
RTVSPost2010Prop41ColorIndex
 90
       18
102
RTVSPost2010Prop41ColorRGB
 90
        0
102
RTVSPost2010PropOp41
 70
     1
102
RTVSPost2010Prop42
 90
       50
102
RTVSPost2010PropOp42
 70
     1
102
RTVSPost2010Prop43
 90
        3
102
RTVSPost2010PropOp43
 70
     1
102
RTVSPost2010Prop44ColorIndex
 90
        5
102
RTVSPost2010Prop44ColorRGB
 90
      255
102
RTVSPost2010PropOp44
 70
     1
102
RTVSPost2010Prop45
280
     0
102
RTVSPost2010PropOp45
 70
     1
102
RTVSPost2010Prop46
 90
       50
102
RTVSPost2010PropOp46
 70
     1
102
RTVSPost2010Prop47
 90
       50
102
RTVSPost2010PropOp47
 70
     1
102
RTVSPost2010Prop48
 90
       50
102
RTVSPost2010PropOp48
 70
     1
102
RTVSPost2010Prop49
280
     0
102
RTVSPost2010PropOp49
 70
     1
102
RTVSPost2010Prop50
 90
       50
102
RTVSPost2010PropOp50
 70
     1
102
RTVSPost2010Prop51ColorIndex
 90
      256
102
RTVSPost2010Prop51ColorRGB
 90
-16777216
102
RTVSPost2010PropOp51
 70
     0
102
RTVSPost2010Prop52
140
1.0
102
RTVSPost2010PropOp52
 70
     0
102
RTVSPost2010Prop53
 90
        2
102
RTVSPost2010PropOp53
 70
     1
102
RTVSPost2010Prop54
  1
strokes_ogs.tif
102
RTVSPost2010PropOp54
 70
     1
102
RTVSPost2010Prop55
280
     0
102
RTVSPost2010PropOp55
 70
     1
102
RTVSPost2010Prop56
140
1.0
102
RTVSPost2010PropOp56
 70
     1
102
RTVSPost2010Prop57
140
1.0
102
RTVSPost2010PropOp57
 70
     1
102
RTVSPropertyOp0
 70
     1
102
RTVSPropertyOp1
 70
     1
102
RTVSPropertyOp2
 70
     1
102
RTVSPropertyOp3
 70
     1
102
RTVSPropertyOp4
 70
     1
102
RTVSPropertyOp5
 70
     1
102
RTVSPropertyOp6
 70
     1
102
RTVSPropertyOp7
 70
     1
102
RTVSPropertyOp8
 70
     1
102
RTVSPropertyOp9
 70
     1
102
RTVSPropertyOp10
 70
     1
102
RTVSPropertyOp11
 70
     1
102
RTVSPropertyOp12
 70
     1
102
RTVSPropertyOp13
 70
     1
102
RTVSPropertyOp14
 70
     1
102
RTVSPropertyOp15
 70
     1
102
RTVSPropertyOp16
 70
     1
102
RTVSPropertyOp17
 70
     1
102
RTVSPropertyOp18
 70
     1
102
RTVSPropertyOp19
 70
     1
102
RTVSPropertyOp20
 70
     1
102
RTVSPropertyOp21
 70
     1
102
RTVSPropertyOp22
 70
     1
102
RTVSPropertyOp23
 70
     1
102
RTVSPropertyOp24
 70
     1
102
RTVSPropertyOp25
 70
     1
102
RTVSPropertyOp26
 70
     1
102
RTVSPropertyOp27
 70
     1
102
RTVSPropertyOp28
 70
     1
102
RTVSPropertyOp29
 70
     1
102
RTVSPropertyOp30
 70
     1
102
RTVSPropertyOp31
 70
     1
102
RTVSPropertyOp32
 70
     1
102
RTVSPropertyOp33
 70
     1
102
RTVSPropertyOp34
 70
     1
102
RTVSPropertyOp35
 70
     1
102
RTVSPropertyOp36
 70
     1
102
RTVSPropertyOp37
 70
     1
102
RTVSPropertyOp38
 70
     1
102
RTVSPropertyOp39
 70
     1
102
RTVSPropertyOp40
 70
     1
102
RTVSPropertyOp41
 70
     1
102
RTVSPropertyOp42
 70
     1
102
RTVSPropertyOp43
 70
     1
102
RTVSPropertyOp44
 70
     1
102
RTVSPropertyOp45
 70
     1
102
RTVSPropertyOp46
 70
     1
102
RTVSPropertyOp47
 70
     1
102
RTVSPropertyOp48
 70
     1
102
RTVSPropertyOp49
 70
     1
102
RTVSPropertyOp50
 70
     1
102
RTVSPropertyOp51
 70
     0
102
RTVSPropertyOp52
 70
     0
102
RTVSPropertyOp53
 70
     1
102
RTVSPropertyOp54
 70
     1
102
RTVSPropertyOp55
 70
     1
102
RTVSPropertyOp56
 70
     1
102
RTVSPropertyOp57
 70
     1
102
RTVSPropertyOp58
 70
     1
102
RTVSPropertyOp59
 70
     1
102
RTVSPropertyOp60
 70
     1
102
RTVSPropertyOp61
 70
     1
102
RTVSPropertyOp62
 70
     1
  0
XRECORD
  5
4653
102
{ACAD_REACTORS
330
4652
102
}
330
4652
100
AcDbXrecord
280
     1
102
RTVSPost2010Prop28
280
     0
102
RTVSPost2010PropOp28
 70
     1
102
RTVSPost2010Prop29
280
     1
102
RTVSPost2010PropOp29
 70
     1
102
RTVSPost2010Prop30
280
     1
102
RTVSPost2010PropOp30
 70
     1
102
RTVSPost2010Prop31
280
     0
102
RTVSPost2010PropOp31
 70
     1
102
RTVSPost2010Prop32
280
     0
102
RTVSPost2010PropOp32
 70
     1
102
RTVSPost2010Prop33
280
     0
102
RTVSPost2010PropOp33
 70
     1
102
RTVSPost2010Prop34
280
     0
102
RTVSPost2010PropOp34
 70
     1
102
RTVSPost2010Prop35
280
     0
102
RTVSPost2010PropOp35
 70
     1
102
RTVSPost2010Prop36
280
     0
102
RTVSPost2010PropOp36
 70
     1
102
RTVSPost2010Prop37
 90
       50
102
RTVSPost2010PropOp37
 70
     1
102
RTVSPost2010Prop38
140
0.0
102
RTVSPost2010PropOp38
 70
     1
102
RTVSPost2010Prop39
140
1.0
102
RTVSPost2010PropOp39
 70
     1
102
RTVSPost2010Prop40
 90
        0
102
RTVSPost2010PropOp40
 70
     1
102
RTVSPost2010Prop41ColorIndex
 90
       18
102
RTVSPost2010Prop41ColorRGB
 90
        0
102
RTVSPost2010PropOp41
 70
     1
102
RTVSPost2010Prop42
 90
       50
102
RTVSPost2010PropOp42
 70
     1
102
RTVSPost2010Prop43
 90
        3
102
RTVSPost2010PropOp43
 70
     1
102
RTVSPost2010Prop44ColorIndex
 90
        5
102
RTVSPost2010Prop44ColorRGB
 90
      255
102
RTVSPost2010PropOp44
 70
     1
102
RTVSPost2010Prop45
280
     0
102
RTVSPost2010PropOp45
 70
     1
102
RTVSPost2010Prop46
 90
       50
102
RTVSPost2010PropOp46
 70
     1
102
RTVSPost2010Prop47
 90
       50
102
RTVSPost2010PropOp47
 70
     1
102
RTVSPost2010Prop48
 90
       50
102
RTVSPost2010PropOp48
 70
     1
102
RTVSPost2010Prop49
280
     0
102
RTVSPost2010PropOp49
 70
     1
102
RTVSPost2010Prop50
 90
       50
102
RTVSPost2010PropOp50
 70
     1
102
RTVSPost2010Prop51ColorIndex
 90
      256
102
RTVSPost2010Prop51ColorRGB
 90
-16777216
102
RTVSPost2010PropOp51
 70
     0
102
RTVSPost2010Prop52
140
1.0
102
RTVSPost2010PropOp52
 70
     0
102
RTVSPost2010Prop53
 90
        2
102
RTVSPost2010PropOp53
 70
     1
102
RTVSPost2010Prop54
  1
strokes_ogs.tif
102
RTVSPost2010PropOp54
 70
     1
102
RTVSPost2010Prop55
280
     0
102
RTVSPost2010PropOp55
 70
     1
102
RTVSPost2010Prop56
140
1.0
102
RTVSPost2010PropOp56
 70
     1
102
RTVSPost2010Prop57
140
1.0
102
RTVSPost2010PropOp57
 70
     1
102
RTVSPropertyOp0
 70
     1
102
RTVSPropertyOp1
 70
     1
102
RTVSPropertyOp2
 70
     1
102
RTVSPropertyOp3
 70
     1
102
RTVSPropertyOp4
 70
     1
102
RTVSPropertyOp5
 70
     1
102
RTVSPropertyOp6
 70
     1
102
RTVSPropertyOp7
 70
     1
102
RTVSPropertyOp8
 70
     1
102
RTVSPropertyOp9
 70
     1
102
RTVSPropertyOp10
 70
     1
102
RTVSPropertyOp11
 70
     1
102
RTVSPropertyOp12
 70
     1
102
RTVSPropertyOp13
 70
     1
102
RTVSPropertyOp14
 70
     1
102
RTVSPropertyOp15
 70
     1
102
RTVSPropertyOp16
 70
     1
102
RTVSPropertyOp17
 70
     1
102
RTVSPropertyOp18
 70
     1
102
RTVSPropertyOp19
 70
     1
102
RTVSPropertyOp20
 70
     1
102
RTVSPropertyOp21
 70
     1
102
RTVSPropertyOp22
 70
     1
102
RTVSPropertyOp23
 70
     1
102
RTVSPropertyOp24
 70
     1
102
RTVSPropertyOp25
 70
     1
102
RTVSPropertyOp26
 70
     1
102
RTVSPropertyOp27
 70
     1
102
RTVSPropertyOp28
 70
     1
102
RTVSPropertyOp29
 70
     1
102
RTVSPropertyOp30
 70
     1
102
RTVSPropertyOp31
 70
     1
102
RTVSPropertyOp32
 70
     1
102
RTVSPropertyOp33
 70
     1
102
RTVSPropertyOp34
 70
     1
102
RTVSPropertyOp35
 70
     1
102
RTVSPropertyOp36
 70
     1
102
RTVSPropertyOp37
 70
     1
102
RTVSPropertyOp38
 70
     1
102
RTVSPropertyOp39
 70
     1
102
RTVSPropertyOp40
 70
     1
102
RTVSPropertyOp41
 70
     1
102
RTVSPropertyOp42
 70
     1
102
RTVSPropertyOp43
 70
     1
102
RTVSPropertyOp44
 70
     1
102
RTVSPropertyOp45
 70
     1
102
RTVSPropertyOp46
 70
     1
102
RTVSPropertyOp47
 70
     1
102
RTVSPropertyOp48
 70
     1
102
RTVSPropertyOp49
 70
     1
102
RTVSPropertyOp50
 70
     1
102
RTVSPropertyOp51
 70
     0
102
RTVSPropertyOp52
 70
     0
102
RTVSPropertyOp53
 70
     1
102
RTVSPropertyOp54
 70
     1
102
RTVSPropertyOp55
 70
     1
102
RTVSPropertyOp56
 70
     1
102
RTVSPropertyOp57
 70
     1
102
RTVSPropertyOp58
 70
     1
102
RTVSPropertyOp59
 70
     1
102
RTVSPropertyOp60
 70
     1
102
RTVSPropertyOp61
 70
     1
102
RTVSPropertyOp62
 70
     1
  0
XRECORD
  5
4651
102
{ACAD_REACTORS
330
4650
102
}
330
4650
100
AcDbXrecord
280
     1
102
RTVSPost2010Prop28
280
     0
102
RTVSPost2010PropOp28
 70
     1
102
RTVSPost2010Prop29
280
     1
102
RTVSPost2010PropOp29
 70
     1
102
RTVSPost2010Prop30
280
     1
102
RTVSPost2010PropOp30
 70
     1
102
RTVSPost2010Prop31
280
     0
102
RTVSPost2010PropOp31
 70
     1
102
RTVSPost2010Prop32
280
     0
102
RTVSPost2010PropOp32
 70
     1
102
RTVSPost2010Prop33
280
     0
102
RTVSPost2010PropOp33
 70
     1
102
RTVSPost2010Prop34
280
     0
102
RTVSPost2010PropOp34
 70
     1
102
RTVSPost2010Prop35
280
     0
102
RTVSPost2010PropOp35
 70
     1
102
RTVSPost2010Prop36
280
     0
102
RTVSPost2010PropOp36
 70
     1
102
RTVSPost2010Prop37
 90
       50
102
RTVSPost2010PropOp37
 70
     1
102
RTVSPost2010Prop38
140
0.0
102
RTVSPost2010PropOp38
 70
     1
102
RTVSPost2010Prop39
140
1.0
102
RTVSPost2010PropOp39
 70
     1
102
RTVSPost2010Prop40
 90
        0
102
RTVSPost2010PropOp40
 70
     1
102
RTVSPost2010Prop41ColorIndex
 90
       18
102
RTVSPost2010Prop41ColorRGB
 90
        0
102
RTVSPost2010PropOp41
 70
     1
102
RTVSPost2010Prop42
 90
       50
102
RTVSPost2010PropOp42
 70
     1
102
RTVSPost2010Prop43
 90
        3
102
RTVSPost2010PropOp43
 70
     1
102
RTVSPost2010Prop44ColorIndex
 90
        5
102
RTVSPost2010Prop44ColorRGB
 90
      255
102
RTVSPost2010PropOp44
 70
     1
102
RTVSPost2010Prop45
280
     0
102
RTVSPost2010PropOp45
 70
     1
102
RTVSPost2010Prop46
 90
       50
102
RTVSPost2010PropOp46
 70
     1
102
RTVSPost2010Prop47
 90
       50
102
RTVSPost2010PropOp47
 70
     1
102
RTVSPost2010Prop48
 90
       50
102
RTVSPost2010PropOp48
 70
     1
102
RTVSPost2010Prop49
280
     0
102
RTVSPost2010PropOp49
 70
     1
102
RTVSPost2010Prop50
 90
       50
102
RTVSPost2010PropOp50
 70
     1
102
RTVSPost2010Prop51ColorIndex
 90
      256
102
RTVSPost2010Prop51ColorRGB
 90
-16777216
102
RTVSPost2010PropOp51
 70
     0
102
RTVSPost2010Prop52
140
1.0
102
RTVSPost2010PropOp52
 70
     0
102
RTVSPost2010Prop53
 90
        2
102
RTVSPost2010PropOp53
 70
     1
102
RTVSPost2010Prop54
  1
strokes_ogs.tif
102
RTVSPost2010PropOp54
 70
     1
102
RTVSPost2010Prop55
280
     0
102
RTVSPost2010PropOp55
 70
     1
102
RTVSPost2010Prop56
140
1.0
102
RTVSPost2010PropOp56
 70
     1
102
RTVSPost2010Prop57
140
1.0
102
RTVSPost2010PropOp57
 70
     1
102
RTVSPropertyOp0
 70
     1
102
RTVSPropertyOp1
 70
     1
102
RTVSPropertyOp2
 70
     1
102
RTVSPropertyOp3
 70
     1
102
RTVSPropertyOp4
 70
     1
102
RTVSPropertyOp5
 70
     1
102
RTVSPropertyOp6
 70
     1
102
RTVSPropertyOp7
 70
     1
102
RTVSPropertyOp8
 70
     1
102
RTVSPropertyOp9
 70
     1
102
RTVSPropertyOp10
 70
     1
102
RTVSPropertyOp11
 70
     1
102
RTVSPropertyOp12
 70
     1
102
RTVSPropertyOp13
 70
     1
102
RTVSPropertyOp14
 70
     1
102
RTVSPropertyOp15
 70
     1
102
RTVSPropertyOp16
 70
     1
102
RTVSPropertyOp17
 70
     1
102
RTVSPropertyOp18
 70
     1
102
RTVSPropertyOp19
 70
     1
102
RTVSPropertyOp20
 70
     1
102
RTVSPropertyOp21
 70
     1
102
RTVSPropertyOp22
 70
     1
102
RTVSPropertyOp23
 70
     1
102
RTVSPropertyOp24
 70
     1
102
RTVSPropertyOp25
 70
     1
102
RTVSPropertyOp26
 70
     1
102
RTVSPropertyOp27
 70
     1
102
RTVSPropertyOp28
 70
     1
102
RTVSPropertyOp29
 70
     1
102
RTVSPropertyOp30
 70
     1
102
RTVSPropertyOp31
 70
     1
102
RTVSPropertyOp32
 70
     1
102
RTVSPropertyOp33
 70
     1
102
RTVSPropertyOp34
 70
     1
102
RTVSPropertyOp35
 70
     1
102
RTVSPropertyOp36
 70
     1
102
RTVSPropertyOp37
 70
     1
102
RTVSPropertyOp38
 70
     1
102
RTVSPropertyOp39
 70
     1
102
RTVSPropertyOp40
 70
     1
102
RTVSPropertyOp41
 70
     1
102
RTVSPropertyOp42
 70
     1
102
RTVSPropertyOp43
 70
     1
102
RTVSPropertyOp44
 70
     1
102
RTVSPropertyOp45
 70
     1
102
RTVSPropertyOp46
 70
     1
102
RTVSPropertyOp47
 70
     1
102
RTVSPropertyOp48
 70
     1
102
RTVSPropertyOp49
 70
     1
102
RTVSPropertyOp50
 70
     1
102
RTVSPropertyOp51
 70
     0
102
RTVSPropertyOp52
 70
     0
102
RTVSPropertyOp53
 70
     1
102
RTVSPropertyOp54
 70
     1
102
RTVSPropertyOp55
 70
     1
102
RTVSPropertyOp56
 70
     1
102
RTVSPropertyOp57
 70
     1
102
RTVSPropertyOp58
 70
     1
102
RTVSPropertyOp59
 70
     1
102
RTVSPropertyOp60
 70
     1
102
RTVSPropertyOp61
 70
     1
102
RTVSPropertyOp62
 70
     1
  0
XRECORD
  5
464D
102
{ACAD_REACTORS
330
464C
102
}
330
464C
100
AcDbXrecord
280
     1
102
RTVSPost2010Prop28
280
     0
102
RTVSPost2010PropOp28
 70
     1
102
RTVSPost2010Prop29
280
     1
102
RTVSPost2010PropOp29
 70
     1
102
RTVSPost2010Prop30
280
     1
102
RTVSPost2010PropOp30
 70
     1
102
RTVSPost2010Prop31
280
     0
102
RTVSPost2010PropOp31
 70
     1
102
RTVSPost2010Prop32
280
     0
102
RTVSPost2010PropOp32
 70
     1
102
RTVSPost2010Prop33
280
     0
102
RTVSPost2010PropOp33
 70
     1
102
RTVSPost2010Prop34
280
     0
102
RTVSPost2010PropOp34
 70
     1
102
RTVSPost2010Prop35
280
     0
102
RTVSPost2010PropOp35
 70
     1
102
RTVSPost2010Prop36
280
     0
102
RTVSPost2010PropOp36
 70
     1
102
RTVSPost2010Prop37
 90
       50
102
RTVSPost2010PropOp37
 70
     1
102
RTVSPost2010Prop38
140
0.0
102
RTVSPost2010PropOp38
 70
     1
102
RTVSPost2010Prop39
140
1.0
102
RTVSPost2010PropOp39
 70
     1
102
RTVSPost2010Prop40
 90
        0
102
RTVSPost2010PropOp40
 70
     1
102
RTVSPost2010Prop41ColorIndex
 90
       18
102
RTVSPost2010Prop41ColorRGB
 90
        0
102
RTVSPost2010PropOp41
 70
     1
102
RTVSPost2010Prop42
 90
       50
102
RTVSPost2010PropOp42
 70
     1
102
RTVSPost2010Prop43
 90
        3
102
RTVSPost2010PropOp43
 70
     1
102
RTVSPost2010Prop44ColorIndex
 90
        5
102
RTVSPost2010Prop44ColorRGB
 90
      255
102
RTVSPost2010PropOp44
 70
     1
102
RTVSPost2010Prop45
280
     0
102
RTVSPost2010PropOp45
 70
     1
102
RTVSPost2010Prop46
 90
       50
102
RTVSPost2010PropOp46
 70
     1
102
RTVSPost2010Prop47
 90
       50
102
RTVSPost2010PropOp47
 70
     1
102
RTVSPost2010Prop48
 90
       50
102
RTVSPost2010PropOp48
 70
     1
102
RTVSPost2010Prop49
280
     0
102
RTVSPost2010PropOp49
 70
     1
102
RTVSPost2010Prop50
 90
       50
102
RTVSPost2010PropOp50
 70
     1
102
RTVSPost2010Prop51ColorIndex
 90
      256
102
RTVSPost2010Prop51ColorRGB
 90
-16777216
102
RTVSPost2010PropOp51
 70
     0
102
RTVSPost2010Prop52
140
1.0
102
RTVSPost2010PropOp52
 70
     0
102
RTVSPost2010Prop53
 90
        2
102
RTVSPost2010PropOp53
 70
     1
102
RTVSPost2010Prop54
  1
strokes_ogs.tif
102
RTVSPost2010PropOp54
 70
     1
102
RTVSPost2010Prop55
280
     0
102
RTVSPost2010PropOp55
 70
     1
102
RTVSPost2010Prop56
140
1.0
102
RTVSPost2010PropOp56
 70
     1
102
RTVSPost2010Prop57
140
1.0
102
RTVSPost2010PropOp57
 70
     1
102
RTVSPropertyOp0
 70
     1
102
RTVSPropertyOp1
 70
     1
102
RTVSPropertyOp2
 70
     1
102
RTVSPropertyOp3
 70
     1
102
RTVSPropertyOp4
 70
     1
102
RTVSPropertyOp5
 70
     1
102
RTVSPropertyOp6
 70
     1
102
RTVSPropertyOp7
 70
     1
102
RTVSPropertyOp8
 70
     1
102
RTVSPropertyOp9
 70
     1
102
RTVSPropertyOp10
 70
     1
102
RTVSPropertyOp11
 70
     1
102
RTVSPropertyOp12
 70
     1
102
RTVSPropertyOp13
 70
     1
102
RTVSPropertyOp14
 70
     1
102
RTVSPropertyOp15
 70
     1
102
RTVSPropertyOp16
 70
     1
102
RTVSPropertyOp17
 70
     1
102
RTVSPropertyOp18
 70
     1
102
RTVSPropertyOp19
 70
     1
102
RTVSPropertyOp20
 70
     1
102
RTVSPropertyOp21
 70
     1
102
RTVSPropertyOp22
 70
     1
102
RTVSPropertyOp23
 70
     1
102
RTVSPropertyOp24
 70
     1
102
RTVSPropertyOp25
 70
     1
102
RTVSPropertyOp26
 70
     1
102
RTVSPropertyOp27
 70
     1
102
RTVSPropertyOp28
 70
     1
102
RTVSPropertyOp29
 70
     1
102
RTVSPropertyOp30
 70
     1
102
RTVSPropertyOp31
 70
     1
102
RTVSPropertyOp32
 70
     1
102
RTVSPropertyOp33
 70
     1
102
RTVSPropertyOp34
 70
     1
102
RTVSPropertyOp35
 70
     1
102
RTVSPropertyOp36
 70
     1
102
RTVSPropertyOp37
 70
     1
102
RTVSPropertyOp38
 70
     1
102
RTVSPropertyOp39
 70
     1
102
RTVSPropertyOp40
 70
     1
102
RTVSPropertyOp41
 70
     1
102
RTVSPropertyOp42
 70
     1
102
RTVSPropertyOp43
 70
     1
102
RTVSPropertyOp44
 70
     1
102
RTVSPropertyOp45
 70
     1
102
RTVSPropertyOp46
 70
     1
102
RTVSPropertyOp47
 70
     1
102
RTVSPropertyOp48
 70
     1
102
RTVSPropertyOp49
 70
     1
102
RTVSPropertyOp50
 70
     1
102
RTVSPropertyOp51
 70
     0
102
RTVSPropertyOp52
 70
     0
102
RTVSPropertyOp53
 70
     1
102
RTVSPropertyOp54
 70
     1
102
RTVSPropertyOp55
 70
     1
102
RTVSPropertyOp56
 70
     1
102
RTVSPropertyOp57
 70
     1
102
RTVSPropertyOp58
 70
     1
102
RTVSPropertyOp59
 70
     1
102
RTVSPropertyOp60
 70
     1
102
RTVSPropertyOp61
 70
     1
102
RTVSPropertyOp62
 70
     1
  0
XRECORD
  5
465B
102
{ACAD_REACTORS
330
465A
102
}
330
465A
100
AcDbXrecord
280
     1
102
RTVSPost2010Prop28
280
     0
102
RTVSPost2010PropOp28
 70
     1
102
RTVSPost2010Prop29
280
     1
102
RTVSPost2010PropOp29
 70
     1
102
RTVSPost2010Prop30
280
     1
102
RTVSPost2010PropOp30
 70
     1
102
RTVSPost2010Prop31
280
     0
102
RTVSPost2010PropOp31
 70
     1
102
RTVSPost2010Prop32
280
     0
102
RTVSPost2010PropOp32
 70
     1
102
RTVSPost2010Prop33
280
     0
102
RTVSPost2010PropOp33
 70
     1
102
RTVSPost2010Prop34
280
     0
102
RTVSPost2010PropOp34
 70
     1
102
RTVSPost2010Prop35
280
     0
102
RTVSPost2010PropOp35
 70
     1
102
RTVSPost2010Prop36
280
     0
102
RTVSPost2010PropOp36
 70
     1
102
RTVSPost2010Prop37
 90
       50
102
RTVSPost2010PropOp37
 70
     1
102
RTVSPost2010Prop38
140
0.0
102
RTVSPost2010PropOp38
 70
     1
102
RTVSPost2010Prop39
140
1.0
102
RTVSPost2010PropOp39
 70
     1
102
RTVSPost2010Prop40
 90
        0
102
RTVSPost2010PropOp40
 70
     1
102
RTVSPost2010Prop41ColorIndex
 90
       18
102
RTVSPost2010Prop41ColorRGB
 90
        0
102
RTVSPost2010PropOp41
 70
     1
102
RTVSPost2010Prop42
 90
       50
102
RTVSPost2010PropOp42
 70
     1
102
RTVSPost2010Prop43
 90
        3
102
RTVSPost2010PropOp43
 70
     1
102
RTVSPost2010Prop44ColorIndex
 90
        5
102
RTVSPost2010Prop44ColorRGB
 90
      255
102
RTVSPost2010PropOp44
 70
     1
102
RTVSPost2010Prop45
280
     0
102
RTVSPost2010PropOp45
 70
     1
102
RTVSPost2010Prop46
 90
       50
102
RTVSPost2010PropOp46
 70
     1
102
RTVSPost2010Prop47
 90
       50
102
RTVSPost2010PropOp47
 70
     1
102
RTVSPost2010Prop48
 90
       50
102
RTVSPost2010PropOp48
 70
     1
102
RTVSPost2010Prop49
280
     0
102
RTVSPost2010PropOp49
 70
     1
102
RTVSPost2010Prop50
 90
       50
102
RTVSPost2010PropOp50
 70
     1
102
RTVSPost2010Prop51ColorIndex
 90
      256
102
RTVSPost2010Prop51ColorRGB
 90
-16777216
102
RTVSPost2010PropOp51
 70
     0
102
RTVSPost2010Prop52
140
1.0
102
RTVSPost2010PropOp52
 70
     0
102
RTVSPost2010Prop53
 90
        2
102
RTVSPost2010PropOp53
 70
     1
102
RTVSPost2010Prop54
  1
strokes_ogs.tif
102
RTVSPost2010PropOp54
 70
     1
102
RTVSPost2010Prop55
280
     0
102
RTVSPost2010PropOp55
 70
     1
102
RTVSPost2010Prop56
140
1.0
102
RTVSPost2010PropOp56
 70
     1
102
RTVSPost2010Prop57
140
1.0
102
RTVSPost2010PropOp57
 70
     1
102
RTVSPropertyOp0
 70
     1
102
RTVSPropertyOp1
 70
     1
102
RTVSPropertyOp2
 70
     1
102
RTVSPropertyOp3
 70
     1
102
RTVSPropertyOp4
 70
     1
102
RTVSPropertyOp5
 70
     1
102
RTVSPropertyOp6
 70
     1
102
RTVSPropertyOp7
 70
     1
102
RTVSPropertyOp8
 70
     1
102
RTVSPropertyOp9
 70
     1
102
RTVSPropertyOp10
 70
     1
102
RTVSPropertyOp11
 70
     1
102
RTVSPropertyOp12
 70
     1
102
RTVSPropertyOp13
 70
     1
102
RTVSPropertyOp14
 70
     1
102
RTVSPropertyOp15
 70
     1
102
RTVSPropertyOp16
 70
     1
102
RTVSPropertyOp17
 70
     1
102
RTVSPropertyOp18
 70
     1
102
RTVSPropertyOp19
 70
     1
102
RTVSPropertyOp20
 70
     1
102
RTVSPropertyOp21
 70
     1
102
RTVSPropertyOp22
 70
     1
102
RTVSPropertyOp23
 70
     1
102
RTVSPropertyOp24
 70
     1
102
RTVSPropertyOp25
 70
     1
102
RTVSPropertyOp26
 70
     1
102
RTVSPropertyOp27
 70
     1
102
RTVSPropertyOp28
 70
     1
102
RTVSPropertyOp29
 70
     1
102
RTVSPropertyOp30
 70
     1
102
RTVSPropertyOp31
 70
     1
102
RTVSPropertyOp32
 70
     1
102
RTVSPropertyOp33
 70
     1
102
RTVSPropertyOp34
 70
     1
102
RTVSPropertyOp35
 70
     1
102
RTVSPropertyOp36
 70
     1
102
RTVSPropertyOp37
 70
     1
102
RTVSPropertyOp38
 70
     1
102
RTVSPropertyOp39
 70
     1
102
RTVSPropertyOp40
 70
     1
102
RTVSPropertyOp41
 70
     1
102
RTVSPropertyOp42
 70
     1
102
RTVSPropertyOp43
 70
     1
102
RTVSPropertyOp44
 70
     1
102
RTVSPropertyOp45
 70
     1
102
RTVSPropertyOp46
 70
     1
102
RTVSPropertyOp47
 70
     1
102
RTVSPropertyOp48
 70
     1
102
RTVSPropertyOp49
 70
     1
102
RTVSPropertyOp50
 70
     1
102
RTVSPropertyOp51
 70
     0
102
RTVSPropertyOp52
 70
     0
102
RTVSPropertyOp53
 70
     1
102
RTVSPropertyOp54
 70
     1
102
RTVSPropertyOp55
 70
     1
102
RTVSPropertyOp56
 70
     1
102
RTVSPropertyOp57
 70
     1
102
RTVSPropertyOp58
 70
     1
102
RTVSPropertyOp59
 70
     1
102
RTVSPropertyOp60
 70
     1
102
RTVSPropertyOp61
 70
     1
102
RTVSPropertyOp62
 70
     1
  0
XRECORD
  5
4663
102
{ACAD_REACTORS
330
4662
102
}
330
4662
100
AcDbXrecord
280
     1
102
RTVSPost2010Prop28
280
     0
102
RTVSPost2010PropOp28
 70
     1
102
RTVSPost2010Prop29
280
     1
102
RTVSPost2010PropOp29
 70
     1
102
RTVSPost2010Prop30
280
     1
102
RTVSPost2010PropOp30
 70
     1
102
RTVSPost2010Prop31
280
     0
102
RTVSPost2010PropOp31
 70
     1
102
RTVSPost2010Prop32
280
     0
102
RTVSPost2010PropOp32
 70
     1
102
RTVSPost2010Prop33
280
     0
102
RTVSPost2010PropOp33
 70
     1
102
RTVSPost2010Prop34
280
     0
102
RTVSPost2010PropOp34
 70
     1
102
RTVSPost2010Prop35
280
     0
102
RTVSPost2010PropOp35
 70
     1
102
RTVSPost2010Prop36
280
     0
102
RTVSPost2010PropOp36
 70
     1
102
RTVSPost2010Prop37
 90
       50
102
RTVSPost2010PropOp37
 70
     1
102
RTVSPost2010Prop38
140
0.0
102
RTVSPost2010PropOp38
 70
     1
102
RTVSPost2010Prop39
140
1.0
102
RTVSPost2010PropOp39
 70
     1
102
RTVSPost2010Prop40
 90
        0
102
RTVSPost2010PropOp40
 70
     1
102
RTVSPost2010Prop41ColorIndex
 90
       18
102
RTVSPost2010Prop41ColorRGB
 90
        0
102
RTVSPost2010PropOp41
 70
     1
102
RTVSPost2010Prop42
 90
       50
102
RTVSPost2010PropOp42
 70
     1
102
RTVSPost2010Prop43
 90
        3
102
RTVSPost2010PropOp43
 70
     1
102
RTVSPost2010Prop44ColorIndex
 90
        5
102
RTVSPost2010Prop44ColorRGB
 90
      255
102
RTVSPost2010PropOp44
 70
     1
102
RTVSPost2010Prop45
280
     0
102
RTVSPost2010PropOp45
 70
     1
102
RTVSPost2010Prop46
 90
       50
102
RTVSPost2010PropOp46
 70
     1
102
RTVSPost2010Prop47
 90
       50
102
RTVSPost2010PropOp47
 70
     1
102
RTVSPost2010Prop48
 90
       50
102
RTVSPost2010PropOp48
 70
     1
102
RTVSPost2010Prop49
280
     0
102
RTVSPost2010PropOp49
 70
     1
102
RTVSPost2010Prop50
 90
       50
102
RTVSPost2010PropOp50
 70
     1
102
RTVSPost2010Prop51ColorIndex
 90
      256
102
RTVSPost2010Prop51ColorRGB
 90
-16777216
102
RTVSPost2010PropOp51
 70
     0
102
RTVSPost2010Prop52
140
1.0
102
RTVSPost2010PropOp52
 70
     0
102
RTVSPost2010Prop53
 90
        2
102
RTVSPost2010PropOp53
 70
     1
102
RTVSPost2010Prop54
  1
strokes_ogs.tif
102
RTVSPost2010PropOp54
 70
     1
102
RTVSPost2010Prop55
280
     0
102
RTVSPost2010PropOp55
 70
     1
102
RTVSPost2010Prop56
140
1.0
102
RTVSPost2010PropOp56
 70
     1
102
RTVSPost2010Prop57
140
1.0
102
RTVSPost2010PropOp57
 70
     1
102
RTVSPropertyOp0
 70
     1
102
RTVSPropertyOp1
 70
     1
102
RTVSPropertyOp2
 70
     1
102
RTVSPropertyOp3
 70
     1
102
RTVSPropertyOp4
 70
     1
102
RTVSPropertyOp5
 70
     1
102
RTVSPropertyOp6
 70
     1
102
RTVSPropertyOp7
 70
     1
102
RTVSPropertyOp8
 70
     1
102
RTVSPropertyOp9
 70
     1
102
RTVSPropertyOp10
 70
     1
102
RTVSPropertyOp11
 70
     1
102
RTVSPropertyOp12
 70
     1
102
RTVSPropertyOp13
 70
     1
102
RTVSPropertyOp14
 70
     1
102
RTVSPropertyOp15
 70
     1
102
RTVSPropertyOp16
 70
     1
102
RTVSPropertyOp17
 70
     1
102
RTVSPropertyOp18
 70
     1
102
RTVSPropertyOp19
 70
     1
102
RTVSPropertyOp20
 70
     1
102
RTVSPropertyOp21
 70
     1
102
RTVSPropertyOp22
 70
     1
102
RTVSPropertyOp23
 70
     1
102
RTVSPropertyOp24
 70
     1
102
RTVSPropertyOp25
 70
     1
102
RTVSPropertyOp26
 70
     1
102
RTVSPropertyOp27
 70
     1
102
RTVSPropertyOp28
 70
     1
102
RTVSPropertyOp29
 70
     1
102
RTVSPropertyOp30
 70
     1
102
RTVSPropertyOp31
 70
     1
102
RTVSPropertyOp32
 70
     1
102
RTVSPropertyOp33
 70
     1
102
RTVSPropertyOp34
 70
     1
102
RTVSPropertyOp35
 70
     1
102
RTVSPropertyOp36
 70
     1
102
RTVSPropertyOp37
 70
     1
102
RTVSPropertyOp38
 70
     1
102
RTVSPropertyOp39
 70
     1
102
RTVSPropertyOp40
 70
     1
102
RTVSPropertyOp41
 70
     1
102
RTVSPropertyOp42
 70
     1
102
RTVSPropertyOp43
 70
     1
102
RTVSPropertyOp44
 70
     1
102
RTVSPropertyOp45
 70
     1
102
RTVSPropertyOp46
 70
     1
102
RTVSPropertyOp47
 70
     1
102
RTVSPropertyOp48
 70
     1
102
RTVSPropertyOp49
 70
     1
102
RTVSPropertyOp50
 70
     1
102
RTVSPropertyOp51
 70
     0
102
RTVSPropertyOp52
 70
     0
102
RTVSPropertyOp53
 70
     1
102
RTVSPropertyOp54
 70
     1
102
RTVSPropertyOp55
 70
     1
102
RTVSPropertyOp56
 70
     1
102
RTVSPropertyOp57
 70
     1
102
RTVSPropertyOp58
 70
     1
102
RTVSPropertyOp59
 70
     1
102
RTVSPropertyOp60
 70
     1
102
RTVSPropertyOp61
 70
     1
102
RTVSPropertyOp62
 70
     1
  0
XRECORD
  5
4655
102
{ACAD_REACTORS
330
4654
102
}
330
4654
100
AcDbXrecord
280
     1
102
RTVSPost2010Prop28
280
     0
102
RTVSPost2010PropOp28
 70
     1
102
RTVSPost2010Prop29
280
     1
102
RTVSPost2010PropOp29
 70
     1
102
RTVSPost2010Prop30
280
     1
102
RTVSPost2010PropOp30
 70
     1
102
RTVSPost2010Prop31
280
     0
102
RTVSPost2010PropOp31
 70
     1
102
RTVSPost2010Prop32
280
     0
102
RTVSPost2010PropOp32
 70
     1
102
RTVSPost2010Prop33
280
     0
102
RTVSPost2010PropOp33
 70
     1
102
RTVSPost2010Prop34
280
     0
102
RTVSPost2010PropOp34
 70
     1
102
RTVSPost2010Prop35
280
     0
102
RTVSPost2010PropOp35
 70
     1
102
RTVSPost2010Prop36
280
     0
102
RTVSPost2010PropOp36
 70
     1
102
RTVSPost2010Prop37
 90
       50
102
RTVSPost2010PropOp37
 70
     1
102
RTVSPost2010Prop38
140
0.0
102
RTVSPost2010PropOp38
 70
     1
102
RTVSPost2010Prop39
140
1.0
102
RTVSPost2010PropOp39
 70
     1
102
RTVSPost2010Prop40
 90
        0
102
RTVSPost2010PropOp40
 70
     1
102
RTVSPost2010Prop41ColorIndex
 90
       18
102
RTVSPost2010Prop41ColorRGB
 90
        0
102
RTVSPost2010PropOp41
 70
     1
102
RTVSPost2010Prop42
 90
       50
102
RTVSPost2010PropOp42
 70
     1
102
RTVSPost2010Prop43
 90
        3
102
RTVSPost2010PropOp43
 70
     1
102
RTVSPost2010Prop44ColorIndex
 90
        5
102
RTVSPost2010Prop44ColorRGB
 90
      255
102
RTVSPost2010PropOp44
 70
     1
102
RTVSPost2010Prop45
280
     0
102
RTVSPost2010PropOp45
 70
     1
102
RTVSPost2010Prop46
 90
       50
102
RTVSPost2010PropOp46
 70
     1
102
RTVSPost2010Prop47
 90
       50
102
RTVSPost2010PropOp47
 70
     1
102
RTVSPost2010Prop48
 90
       50
102
RTVSPost2010PropOp48
 70
     1
102
RTVSPost2010Prop49
280
     0
102
RTVSPost2010PropOp49
 70
     1
102
RTVSPost2010Prop50
 90
       50
102
RTVSPost2010PropOp50
 70
     1
102
RTVSPost2010Prop51ColorIndex
 90
      256
102
RTVSPost2010Prop51ColorRGB
 90
-16777216
102
RTVSPost2010PropOp51
 70
     0
102
RTVSPost2010Prop52
140
1.0
102
RTVSPost2010PropOp52
 70
     0
102
RTVSPost2010Prop53
 90
        2
102
RTVSPost2010PropOp53
 70
     1
102
RTVSPost2010Prop54
  1
strokes_ogs.tif
102
RTVSPost2010PropOp54
 70
     1
102
RTVSPost2010Prop55
280
     0
102
RTVSPost2010PropOp55
 70
     1
102
RTVSPost2010Prop56
140
1.0
102
RTVSPost2010PropOp56
 70
     1
102
RTVSPost2010Prop57
140
1.0
102
RTVSPost2010PropOp57
 70
     1
102
RTVSPropertyOp0
 70
     1
102
RTVSPropertyOp1
 70
     1
102
RTVSPropertyOp2
 70
     1
102
RTVSPropertyOp3
 70
     1
102
RTVSPropertyOp4
 70
     1
102
RTVSPropertyOp5
 70
     1
102
RTVSPropertyOp6
 70
     1
102
RTVSPropertyOp7
 70
     1
102
RTVSPropertyOp8
 70
     1
102
RTVSPropertyOp9
 70
     1
102
RTVSPropertyOp10
 70
     1
102
RTVSPropertyOp11
 70
     1
102
RTVSPropertyOp12
 70
     1
102
RTVSPropertyOp13
 70
     1
102
RTVSPropertyOp14
 70
     1
102
RTVSPropertyOp15
 70
     1
102
RTVSPropertyOp16
 70
     1
102
RTVSPropertyOp17
 70
     1
102
RTVSPropertyOp18
 70
     1
102
RTVSPropertyOp19
 70
     1
102
RTVSPropertyOp20
 70
     1
102
RTVSPropertyOp21
 70
     1
102
RTVSPropertyOp22
 70
     1
102
RTVSPropertyOp23
 70
     1
102
RTVSPropertyOp24
 70
     1
102
RTVSPropertyOp25
 70
     1
102
RTVSPropertyOp26
 70
     1
102
RTVSPropertyOp27
 70
     1
102
RTVSPropertyOp28
 70
     1
102
RTVSPropertyOp29
 70
     1
102
RTVSPropertyOp30
 70
     1
102
RTVSPropertyOp31
 70
     1
102
RTVSPropertyOp32
 70
     1
102
RTVSPropertyOp33
 70
     1
102
RTVSPropertyOp34
 70
     1
102
RTVSPropertyOp35
 70
     1
102
RTVSPropertyOp36
 70
     1
102
RTVSPropertyOp37
 70
     1
102
RTVSPropertyOp38
 70
     1
102
RTVSPropertyOp39
 70
     1
102
RTVSPropertyOp40
 70
     1
102
RTVSPropertyOp41
 70
     1
102
RTVSPropertyOp42
 70
     1
102
RTVSPropertyOp43
 70
     1
102
RTVSPropertyOp44
 70
     1
102
RTVSPropertyOp45
 70
     1
102
RTVSPropertyOp46
 70
     1
102
RTVSPropertyOp47
 70
     1
102
RTVSPropertyOp48
 70
     1
102
RTVSPropertyOp49
 70
     1
102
RTVSPropertyOp50
 70
     1
102
RTVSPropertyOp51
 70
     0
102
RTVSPropertyOp52
 70
     0
102
RTVSPropertyOp53
 70
     1
102
RTVSPropertyOp54
 70
     1
102
RTVSPropertyOp55
 70
     1
102
RTVSPropertyOp56
 70
     1
102
RTVSPropertyOp57
 70
     1
102
RTVSPropertyOp58
 70
     1
102
RTVSPropertyOp59
 70
     1
102
RTVSPropertyOp60
 70
     1
102
RTVSPropertyOp61
 70
     1
102
RTVSPropertyOp62
 70
     1
  0
XRECORD
  5
4659
102
{ACAD_REACTORS
330
4658
102
}
330
4658
100
AcDbXrecord
280
     1
102
RTVSPost2010Prop28
280
     0
102
RTVSPost2010PropOp28
 70
     1
102
RTVSPost2010Prop29
280
     1
102
RTVSPost2010PropOp29
 70
     1
102
RTVSPost2010Prop30
280
     1
102
RTVSPost2010PropOp30
 70
     1
102
RTVSPost2010Prop31
280
     0
102
RTVSPost2010PropOp31
 70
     1
102
RTVSPost2010Prop32
280
     0
102
RTVSPost2010PropOp32
 70
     1
102
RTVSPost2010Prop33
280
     0
102
RTVSPost2010PropOp33
 70
     1
102
RTVSPost2010Prop34
280
     0
102
RTVSPost2010PropOp34
 70
     1
102
RTVSPost2010Prop35
280
     0
102
RTVSPost2010PropOp35
 70
     1
102
RTVSPost2010Prop36
280
     0
102
RTVSPost2010PropOp36
 70
     1
102
RTVSPost2010Prop37
 90
       50
102
RTVSPost2010PropOp37
 70
     1
102
RTVSPost2010Prop38
140
0.0
102
RTVSPost2010PropOp38
 70
     1
102
RTVSPost2010Prop39
140
1.0
102
RTVSPost2010PropOp39
 70
     1
102
RTVSPost2010Prop40
 90
        0
102
RTVSPost2010PropOp40
 70
     1
102
RTVSPost2010Prop41ColorIndex
 90
       18
102
RTVSPost2010Prop41ColorRGB
 90
        0
102
RTVSPost2010PropOp41
 70
     1
102
RTVSPost2010Prop42
 90
       50
102
RTVSPost2010PropOp42
 70
     1
102
RTVSPost2010Prop43
 90
        3
102
RTVSPost2010PropOp43
 70
     1
102
RTVSPost2010Prop44ColorIndex
 90
        5
102
RTVSPost2010Prop44ColorRGB
 90
      255
102
RTVSPost2010PropOp44
 70
     1
102
RTVSPost2010Prop45
280
     0
102
RTVSPost2010PropOp45
 70
     1
102
RTVSPost2010Prop46
 90
       50
102
RTVSPost2010PropOp46
 70
     1
102
RTVSPost2010Prop47
 90
       50
102
RTVSPost2010PropOp47
 70
     1
102
RTVSPost2010Prop48
 90
       50
102
RTVSPost2010PropOp48
 70
     1
102
RTVSPost2010Prop49
280
     0
102
RTVSPost2010PropOp49
 70
     1
102
RTVSPost2010Prop50
 90
       50
102
RTVSPost2010PropOp50
 70
     1
102
RTVSPost2010Prop51ColorIndex
 90
      256
102
RTVSPost2010Prop51ColorRGB
 90
-16777216
102
RTVSPost2010PropOp51
 70
     0
102
RTVSPost2010Prop52
140
1.0
102
RTVSPost2010PropOp52
 70
     0
102
RTVSPost2010Prop53
 90
        2
102
RTVSPost2010PropOp53
 70
     1
102
RTVSPost2010Prop54
  1
strokes_ogs.tif
102
RTVSPost2010PropOp54
 70
     1
102
RTVSPost2010Prop55
280
     0
102
RTVSPost2010PropOp55
 70
     1
102
RTVSPost2010Prop56
140
1.0
102
RTVSPost2010PropOp56
 70
     1
102
RTVSPost2010Prop57
140
1.0
102
RTVSPost2010PropOp57
 70
     1
102
RTVSPropertyOp0
 70
     1
102
RTVSPropertyOp1
 70
     1
102
RTVSPropertyOp2
 70
     1
102
RTVSPropertyOp3
 70
     1
102
RTVSPropertyOp4
 70
     1
102
RTVSPropertyOp5
 70
     1
102
RTVSPropertyOp6
 70
     1
102
RTVSPropertyOp7
 70
     1
102
RTVSPropertyOp8
 70
     1
102
RTVSPropertyOp9
 70
     1
102
RTVSPropertyOp10
 70
     1
102
RTVSPropertyOp11
 70
     1
102
RTVSPropertyOp12
 70
     1
102
RTVSPropertyOp13
 70
     1
102
RTVSPropertyOp14
 70
     1
102
RTVSPropertyOp15
 70
     1
102
RTVSPropertyOp16
 70
     1
102
RTVSPropertyOp17
 70
     1
102
RTVSPropertyOp18
 70
     1
102
RTVSPropertyOp19
 70
     1
102
RTVSPropertyOp20
 70
     1
102
RTVSPropertyOp21
 70
     1
102
RTVSPropertyOp22
 70
     1
102
RTVSPropertyOp23
 70
     1
102
RTVSPropertyOp24
 70
     1
102
RTVSPropertyOp25
 70
     1
102
RTVSPropertyOp26
 70
     1
102
RTVSPropertyOp27
 70
     1
102
RTVSPropertyOp28
 70
     1
102
RTVSPropertyOp29
 70
     1
102
RTVSPropertyOp30
 70
     1
102
RTVSPropertyOp31
 70
     1
102
RTVSPropertyOp32
 70
     1
102
RTVSPropertyOp33
 70
     1
102
RTVSPropertyOp34
 70
     1
102
RTVSPropertyOp35
 70
     1
102
RTVSPropertyOp36
 70
     1
102
RTVSPropertyOp37
 70
     1
102
RTVSPropertyOp38
 70
     1
102
RTVSPropertyOp39
 70
     1
102
RTVSPropertyOp40
 70
     1
102
RTVSPropertyOp41
 70
     1
102
RTVSPropertyOp42
 70
     1
102
RTVSPropertyOp43
 70
     1
102
RTVSPropertyOp44
 70
     1
102
RTVSPropertyOp45
 70
     1
102
RTVSPropertyOp46
 70
     1
102
RTVSPropertyOp47
 70
     1
102
RTVSPropertyOp48
 70
     1
102
RTVSPropertyOp49
 70
     1
102
RTVSPropertyOp50
 70
     1
102
RTVSPropertyOp51
 70
     0
102
RTVSPropertyOp52
 70
     0
102
RTVSPropertyOp53
 70
     1
102
RTVSPropertyOp54
 70
     1
102
RTVSPropertyOp55
 70
     1
102
RTVSPropertyOp56
 70
     1
102
RTVSPropertyOp57
 70
     1
102
RTVSPropertyOp58
 70
     1
102
RTVSPropertyOp59
 70
     1
102
RTVSPropertyOp60
 70
     1
102
RTVSPropertyOp61
 70
     1
102
RTVSPropertyOp62
 70
     1
  0
XRECORD
  5
4677
102
{ACAD_REACTORS
330
4676
102
}
330
4676
100
AcDbXrecord
280
     1
102
RTVSPost2010Prop28
280
     0
102
RTVSPost2010PropOp28
 70
     0
102
RTVSPost2010Prop29
280
     1
102
RTVSPost2010PropOp29
 70
     0
102
RTVSPost2010Prop30
280
     1
102
RTVSPost2010PropOp30
 70
     0
102
RTVSPost2010Prop31
280
     0
102
RTVSPost2010PropOp31
 70
     0
102
RTVSPost2010Prop32
280
     0
102
RTVSPost2010PropOp32
 70
     0
102
RTVSPost2010Prop33
280
     0
102
RTVSPost2010PropOp33
 70
     0
102
RTVSPost2010Prop34
280
     0
102
RTVSPost2010PropOp34
 70
     0
102
RTVSPost2010Prop35
280
     0
102
RTVSPost2010PropOp35
 70
     0
102
RTVSPost2010Prop36
280
     0
102
RTVSPost2010PropOp36
 70
     0
102
RTVSPost2010Prop37
 90
       50
102
RTVSPost2010PropOp37
 70
     0
102
RTVSPost2010Prop38
140
0.0
102
RTVSPost2010PropOp38
 70
     0
102
RTVSPost2010Prop39
140
1.0
102
RTVSPost2010PropOp39
 70
     0
102
RTVSPost2010Prop40
 90
        0
102
RTVSPost2010PropOp40
 70
     0
102
RTVSPost2010Prop41ColorIndex
 90
       18
102
RTVSPost2010Prop41ColorRGB
 90
        0
102
RTVSPost2010PropOp41
 70
     0
102
RTVSPost2010Prop42
 90
       50
102
RTVSPost2010PropOp42
 70
     0
102
RTVSPost2010Prop43
 90
        3
102
RTVSPost2010PropOp43
 70
     0
102
RTVSPost2010Prop44ColorIndex
 90
        5
102
RTVSPost2010Prop44ColorRGB
 90
      255
102
RTVSPost2010PropOp44
 70
     0
102
RTVSPost2010Prop45
280
     0
102
RTVSPost2010PropOp45
 70
     0
102
RTVSPost2010Prop46
 90
       50
102
RTVSPost2010PropOp46
 70
     0
102
RTVSPost2010Prop47
 90
       50
102
RTVSPost2010PropOp47
 70
     0
102
RTVSPost2010Prop48
 90
       50
102
RTVSPost2010PropOp48
 70
     0
102
RTVSPost2010Prop49
280
     0
102
RTVSPost2010PropOp49
 70
     0
102
RTVSPost2010Prop50
 90
       50
102
RTVSPost2010PropOp50
 70
     0
102
RTVSPost2010Prop51ColorIndex
 90
      256
102
RTVSPost2010Prop51ColorRGB
 90
-16777216
102
RTVSPost2010PropOp51
 70
     0
102
RTVSPost2010Prop52
140
1.0
102
RTVSPost2010PropOp52
 70
     0
102
RTVSPost2010Prop53
 90
        2
102
RTVSPost2010PropOp53
 70
     0
102
RTVSPost2010Prop54
  1
strokes_ogs.tif
102
RTVSPost2010PropOp54
 70
     0
102
RTVSPost2010Prop55
280
     0
102
RTVSPost2010PropOp55
 70
     0
102
RTVSPost2010Prop56
140
1.0
102
RTVSPost2010PropOp56
 70
     0
102
RTVSPost2010Prop57
140
1.0
102
RTVSPost2010PropOp57
 70
     0
102
RTVSPropertyOp0
 70
     0
102
RTVSPropertyOp1
 70
     0
102
RTVSPropertyOp2
 70
     0
102
RTVSPropertyOp3
 70
     0
102
RTVSPropertyOp4
 70
     0
102
RTVSPropertyOp5
 70
     0
102
RTVSPropertyOp6
 70
     0
102
RTVSPropertyOp7
 70
     0
102
RTVSPropertyOp8
 70
     0
102
RTVSPropertyOp9
 70
     0
102
RTVSPropertyOp10
 70
     0
102
RTVSPropertyOp11
 70
     0
102
RTVSPropertyOp12
 70
     0
102
RTVSPropertyOp13
 70
     0
102
RTVSPropertyOp14
 70
     2
102
RTVSPropertyOp15
 70
     0
102
RTVSPropertyOp16
 70
     0
102
RTVSPropertyOp17
 70
     0
102
RTVSPropertyOp18
 70
     0
102
RTVSPropertyOp19
 70
     0
102
RTVSPropertyOp20
 70
     0
102
RTVSPropertyOp21
 70
     0
102
RTVSPropertyOp22
 70
     0
102
RTVSPropertyOp23
 70
     0
102
RTVSPropertyOp24
 70
     0
102
RTVSPropertyOp25
 70
     0
102
RTVSPropertyOp26
 70
     0
102
RTVSPropertyOp27
 70
     0
102
RTVSPropertyOp28
 70
     0
102
RTVSPropertyOp29
 70
     0
102
RTVSPropertyOp30
 70
     0
102
RTVSPropertyOp31
 70
     0
102
RTVSPropertyOp32
 70
     0
102
RTVSPropertyOp33
 70
     0
102
RTVSPropertyOp34
 70
     0
102
RTVSPropertyOp35
 70
     0
102
RTVSPropertyOp36
 70
     0
102
RTVSPropertyOp37
 70
     0
102
RTVSPropertyOp38
 70
     0
102
RTVSPropertyOp39
 70
     0
102
RTVSPropertyOp40
 70
     0
102
RTVSPropertyOp41
 70
     0
102
RTVSPropertyOp42
 70
     0
102
RTVSPropertyOp43
 70
     0
102
RTVSPropertyOp44
 70
     0
102
RTVSPropertyOp45
 70
     0
102
RTVSPropertyOp46
 70
     0
102
RTVSPropertyOp47
 70
     0
102
RTVSPropertyOp48
 70
     0
102
RTVSPropertyOp49
 70
     0
102
RTVSPropertyOp50
 70
     0
102
RTVSPropertyOp51
 70
     0
102
RTVSPropertyOp52
 70
     0
102
RTVSPropertyOp53
 70
     0
102
RTVSPropertyOp54
 70
     0
102
RTVSPropertyOp55
 70
     0
102
RTVSPropertyOp56
 70
     0
102
RTVSPropertyOp57
 70
     0
102
RTVSPropertyOp58
 70
     1
102
RTVSPropertyOp59
 70
     1
102
RTVSPropertyOp60
 70
     1
102
RTVSPropertyOp61
 70
     1
102
RTVSPropertyOp62
 70
     1
  0
XRECORD
  5
4661
102
{ACAD_REACTORS
330
4660
102
}
330
4660
100
AcDbXrecord
280
     1
102
RTVSPost2010Prop28
280
     0
102
RTVSPost2010PropOp28
 70
     1
102
RTVSPost2010Prop29
280
     1
102
RTVSPost2010PropOp29
 70
     1
102
RTVSPost2010Prop30
280
     1
102
RTVSPost2010PropOp30
 70
     1
102
RTVSPost2010Prop31
280
     0
102
RTVSPost2010PropOp31
 70
     1
102
RTVSPost2010Prop32
280
     0
102
RTVSPost2010PropOp32
 70
     1
102
RTVSPost2010Prop33
280
     0
102
RTVSPost2010PropOp33
 70
     1
102
RTVSPost2010Prop34
280
     0
102
RTVSPost2010PropOp34
 70
     1
102
RTVSPost2010Prop35
280
     0
102
RTVSPost2010PropOp35
 70
     1
102
RTVSPost2010Prop36
280
     0
102
RTVSPost2010PropOp36
 70
     1
102
RTVSPost2010Prop37
 90
       50
102
RTVSPost2010PropOp37
 70
     1
102
RTVSPost2010Prop38
140
0.0
102
RTVSPost2010PropOp38
 70
     1
102
RTVSPost2010Prop39
140
1.0
102
RTVSPost2010PropOp39
 70
     1
102
RTVSPost2010Prop40
 90
        0
102
RTVSPost2010PropOp40
 70
     1
102
RTVSPost2010Prop41ColorIndex
 90
       18
102
RTVSPost2010Prop41ColorRGB
 90
        0
102
RTVSPost2010PropOp41
 70
     1
102
RTVSPost2010Prop42
 90
       50
102
RTVSPost2010PropOp42
 70
     1
102
RTVSPost2010Prop43
 90
        3
102
RTVSPost2010PropOp43
 70
     1
102
RTVSPost2010Prop44ColorIndex
 90
        5
102
RTVSPost2010Prop44ColorRGB
 90
      255
102
RTVSPost2010PropOp44
 70
     1
102
RTVSPost2010Prop45
280
     0
102
RTVSPost2010PropOp45
 70
     1
102
RTVSPost2010Prop46
 90
       50
102
RTVSPost2010PropOp46
 70
     1
102
RTVSPost2010Prop47
 90
       50
102
RTVSPost2010PropOp47
 70
     1
102
RTVSPost2010Prop48
 90
       50
102
RTVSPost2010PropOp48
 70
     1
102
RTVSPost2010Prop49
280
     0
102
RTVSPost2010PropOp49
 70
     1
102
RTVSPost2010Prop50
 90
       50
102
RTVSPost2010PropOp50
 70
     1
102
RTVSPost2010Prop51ColorIndex
 90
      256
102
RTVSPost2010Prop51ColorRGB
 90
-16777216
102
RTVSPost2010PropOp51
 70
     0
102
RTVSPost2010Prop52
140
1.0
102
RTVSPost2010PropOp52
 70
     0
102
RTVSPost2010Prop53
 90
        2
102
RTVSPost2010PropOp53
 70
     1
102
RTVSPost2010Prop54
  1
strokes_ogs.tif
102
RTVSPost2010PropOp54
 70
     1
102
RTVSPost2010Prop55
280
     0
102
RTVSPost2010PropOp55
 70
     1
102
RTVSPost2010Prop56
140
1.0
102
RTVSPost2010PropOp56
 70
     1
102
RTVSPost2010Prop57
140
1.0
102
RTVSPost2010PropOp57
 70
     1
102
RTVSPropertyOp0
 70
     1
102
RTVSPropertyOp1
 70
     1
102
RTVSPropertyOp2
 70
     1
102
RTVSPropertyOp3
 70
     1
102
RTVSPropertyOp4
 70
     1
102
RTVSPropertyOp5
 70
     1
102
RTVSPropertyOp6
 70
     1
102
RTVSPropertyOp7
 70
     1
102
RTVSPropertyOp8
 70
     1
102
RTVSPropertyOp9
 70
     1
102
RTVSPropertyOp10
 70
     1
102
RTVSPropertyOp11
 70
     1
102
RTVSPropertyOp12
 70
     1
102
RTVSPropertyOp13
 70
     1
102
RTVSPropertyOp14
 70
     1
102
RTVSPropertyOp15
 70
     1
102
RTVSPropertyOp16
 70
     1
102
RTVSPropertyOp17
 70
     1
102
RTVSPropertyOp18
 70
     1
102
RTVSPropertyOp19
 70
     1
102
RTVSPropertyOp20
 70
     1
102
RTVSPropertyOp21
 70
     1
102
RTVSPropertyOp22
 70
     1
102
RTVSPropertyOp23
 70
     1
102
RTVSPropertyOp24
 70
     1
102
RTVSPropertyOp25
 70
     1
102
RTVSPropertyOp26
 70
     1
102
RTVSPropertyOp27
 70
     1
102
RTVSPropertyOp28
 70
     1
102
RTVSPropertyOp29
 70
     1
102
RTVSPropertyOp30
 70
     1
102
RTVSPropertyOp31
 70
     1
102
RTVSPropertyOp32
 70
     1
102
RTVSPropertyOp33
 70
     1
102
RTVSPropertyOp34
 70
     1
102
RTVSPropertyOp35
 70
     1
102
RTVSPropertyOp36
 70
     1
102
RTVSPropertyOp37
 70
     1
102
RTVSPropertyOp38
 70
     1
102
RTVSPropertyOp39
 70
     1
102
RTVSPropertyOp40
 70
     1
102
RTVSPropertyOp41
 70
     1
102
RTVSPropertyOp42
 70
     1
102
RTVSPropertyOp43
 70
     1
102
RTVSPropertyOp44
 70
     1
102
RTVSPropertyOp45
 70
     1
102
RTVSPropertyOp46
 70
     1
102
RTVSPropertyOp47
 70
     1
102
RTVSPropertyOp48
 70
     1
102
RTVSPropertyOp49
 70
     1
102
RTVSPropertyOp50
 70
     1
102
RTVSPropertyOp51
 70
     0
102
RTVSPropertyOp52
 70
     0
102
RTVSPropertyOp53
 70
     1
102
RTVSPropertyOp54
 70
     1
102
RTVSPropertyOp55
 70
     1
102
RTVSPropertyOp56
 70
     1
102
RTVSPropertyOp57
 70
     1
102
RTVSPropertyOp58
 70
     1
102
RTVSPropertyOp59
 70
     1
102
RTVSPropertyOp60
 70
     1
102
RTVSPropertyOp61
 70
     1
102
RTVSPropertyOp62
 70
     1
  0
XRECORD
  5
4645
102
{ACAD_REACTORS
330
4644
102
}
330
4644
100
AcDbXrecord
280
     1
102
RTVSPost2010Prop28
280
     0
102
RTVSPost2010PropOp28
 70
     1
102
RTVSPost2010Prop29
280
     1
102
RTVSPost2010PropOp29
 70
     1
102
RTVSPost2010Prop30
280
     1
102
RTVSPost2010PropOp30
 70
     1
102
RTVSPost2010Prop31
280
     0
102
RTVSPost2010PropOp31
 70
     1
102
RTVSPost2010Prop32
280
     0
102
RTVSPost2010PropOp32
 70
     1
102
RTVSPost2010Prop33
280
     0
102
RTVSPost2010PropOp33
 70
     1
102
RTVSPost2010Prop34
280
     0
102
RTVSPost2010PropOp34
 70
     1
102
RTVSPost2010Prop35
280
     0
102
RTVSPost2010PropOp35
 70
     1
102
RTVSPost2010Prop36
280
     0
102
RTVSPost2010PropOp36
 70
     1
102
RTVSPost2010Prop37
 90
       50
102
RTVSPost2010PropOp37
 70
     1
102
RTVSPost2010Prop38
140
0.0
102
RTVSPost2010PropOp38
 70
     1
102
RTVSPost2010Prop39
140
1.0
102
RTVSPost2010PropOp39
 70
     1
102
RTVSPost2010Prop40
 90
        0
102
RTVSPost2010PropOp40
 70
     1
102
RTVSPost2010Prop41ColorIndex
 90
       18
102
RTVSPost2010Prop41ColorRGB
 90
        0
102
RTVSPost2010PropOp41
 70
     1
102
RTVSPost2010Prop42
 90
       50
102
RTVSPost2010PropOp42
 70
     1
102
RTVSPost2010Prop43
 90
        3
102
RTVSPost2010PropOp43
 70
     1
102
RTVSPost2010Prop44ColorIndex
 90
        5
102
RTVSPost2010Prop44ColorRGB
 90
      255
102
RTVSPost2010PropOp44
 70
     1
102
RTVSPost2010Prop45
280
     0
102
RTVSPost2010PropOp45
 70
     1
102
RTVSPost2010Prop46
 90
       50
102
RTVSPost2010PropOp46
 70
     1
102
RTVSPost2010Prop47
 90
       50
102
RTVSPost2010PropOp47
 70
     1
102
RTVSPost2010Prop48
 90
       50
102
RTVSPost2010PropOp48
 70
     1
102
RTVSPost2010Prop49
280
     0
102
RTVSPost2010PropOp49
 70
     1
102
RTVSPost2010Prop50
 90
       50
102
RTVSPost2010PropOp50
 70
     1
102
RTVSPost2010Prop51ColorIndex
 90
      256
102
RTVSPost2010Prop51ColorRGB
 90
-16777216
102
RTVSPost2010PropOp51
 70
     0
102
RTVSPost2010Prop52
140
1.0
102
RTVSPost2010PropOp52
 70
     0
102
RTVSPost2010Prop53
 90
        2
102
RTVSPost2010PropOp53
 70
     1
102
RTVSPost2010Prop54
  1
strokes_ogs.tif
102
RTVSPost2010PropOp54
 70
     1
102
RTVSPost2010Prop55
280
     0
102
RTVSPost2010PropOp55
 70
     1
102
RTVSPost2010Prop56
140
1.0
102
RTVSPost2010PropOp56
 70
     1
102
RTVSPost2010Prop57
140
1.0
102
RTVSPost2010PropOp57
 70
     1
102
RTVSPropertyOp0
 70
     1
102
RTVSPropertyOp1
 70
     1
102
RTVSPropertyOp2
 70
     1
102
RTVSPropertyOp3
 70
     1
102
RTVSPropertyOp4
 70
     1
102
RTVSPropertyOp5
 70
     1
102
RTVSPropertyOp6
 70
     1
102
RTVSPropertyOp7
 70
     1
102
RTVSPropertyOp8
 70
     1
102
RTVSPropertyOp9
 70
     1
102
RTVSPropertyOp10
 70
     1
102
RTVSPropertyOp11
 70
     1
102
RTVSPropertyOp12
 70
     1
102
RTVSPropertyOp13
 70
     1
102
RTVSPropertyOp14
 70
     1
102
RTVSPropertyOp15
 70
     1
102
RTVSPropertyOp16
 70
     1
102
RTVSPropertyOp17
 70
     1
102
RTVSPropertyOp18
 70
     1
102
RTVSPropertyOp19
 70
     1
102
RTVSPropertyOp20
 70
     1
102
RTVSPropertyOp21
 70
     1
102
RTVSPropertyOp22
 70
     1
102
RTVSPropertyOp23
 70
     1
102
RTVSPropertyOp24
 70
     1
102
RTVSPropertyOp25
 70
     1
102
RTVSPropertyOp26
 70
     1
102
RTVSPropertyOp27
 70
     1
102
RTVSPropertyOp28
 70
     1
102
RTVSPropertyOp29
 70
     1
102
RTVSPropertyOp30
 70
     1
102
RTVSPropertyOp31
 70
     1
102
RTVSPropertyOp32
 70
     1
102
RTVSPropertyOp33
 70
     1
102
RTVSPropertyOp34
 70
     1
102
RTVSPropertyOp35
 70
     1
102
RTVSPropertyOp36
 70
     1
102
RTVSPropertyOp37
 70
     1
102
RTVSPropertyOp38
 70
     1
102
RTVSPropertyOp39
 70
     1
102
RTVSPropertyOp40
 70
     1
102
RTVSPropertyOp41
 70
     1
102
RTVSPropertyOp42
 70
     1
102
RTVSPropertyOp43
 70
     1
102
RTVSPropertyOp44
 70
     1
102
RTVSPropertyOp45
 70
     1
102
RTVSPropertyOp46
 70
     1
102
RTVSPropertyOp47
 70
     1
102
RTVSPropertyOp48
 70
     1
102
RTVSPropertyOp49
 70
     1
102
RTVSPropertyOp50
 70
     1
102
RTVSPropertyOp51
 70
     0
102
RTVSPropertyOp52
 70
     0
102
RTVSPropertyOp53
 70
     1
102
RTVSPropertyOp54
 70
     1
102
RTVSPropertyOp55
 70
     1
102
RTVSPropertyOp56
 70
     1
102
RTVSPropertyOp57
 70
     1
102
RTVSPropertyOp58
 70
     1
102
RTVSPropertyOp59
 70
     1
102
RTVSPropertyOp60
 70
     1
102
RTVSPropertyOp61
 70
     1
102
RTVSPropertyOp62
 70
     1
  0
XRECORD
  5
4647
102
{ACAD_REACTORS
330
4646
102
}
330
4646
100
AcDbXrecord
280
     1
102
RTVSPost2010Prop28
280
     0
102
RTVSPost2010PropOp28
 70
     1
102
RTVSPost2010Prop29
280
     1
102
RTVSPost2010PropOp29
 70
     1
102
RTVSPost2010Prop30
280
     1
102
RTVSPost2010PropOp30
 70
     1
102
RTVSPost2010Prop31
280
     0
102
RTVSPost2010PropOp31
 70
     1
102
RTVSPost2010Prop32
280
     0
102
RTVSPost2010PropOp32
 70
     1
102
RTVSPost2010Prop33
280
     0
102
RTVSPost2010PropOp33
 70
     1
102
RTVSPost2010Prop34
280
     0
102
RTVSPost2010PropOp34
 70
     1
102
RTVSPost2010Prop35
280
     0
102
RTVSPost2010PropOp35
 70
     1
102
RTVSPost2010Prop36
280
     0
102
RTVSPost2010PropOp36
 70
     1
102
RTVSPost2010Prop37
 90
       50
102
RTVSPost2010PropOp37
 70
     1
102
RTVSPost2010Prop38
140
0.0
102
RTVSPost2010PropOp38
 70
     1
102
RTVSPost2010Prop39
140
1.0
102
RTVSPost2010PropOp39
 70
     1
102
RTVSPost2010Prop40
 90
        0
102
RTVSPost2010PropOp40
 70
     1
102
RTVSPost2010Prop41ColorIndex
 90
       18
102
RTVSPost2010Prop41ColorRGB
 90
        0
102
RTVSPost2010PropOp41
 70
     1
102
RTVSPost2010Prop42
 90
       50
102
RTVSPost2010PropOp42
 70
     1
102
RTVSPost2010Prop43
 90
        3
102
RTVSPost2010PropOp43
 70
     1
102
RTVSPost2010Prop44ColorIndex
 90
        5
102
RTVSPost2010Prop44ColorRGB
 90
      255
102
RTVSPost2010PropOp44
 70
     1
102
RTVSPost2010Prop45
280
     0
102
RTVSPost2010PropOp45
 70
     1
102
RTVSPost2010Prop46
 90
       50
102
RTVSPost2010PropOp46
 70
     1
102
RTVSPost2010Prop47
 90
       50
102
RTVSPost2010PropOp47
 70
     1
102
RTVSPost2010Prop48
 90
       50
102
RTVSPost2010PropOp48
 70
     1
102
RTVSPost2010Prop49
280
     0
102
RTVSPost2010PropOp49
 70
     1
102
RTVSPost2010Prop50
 90
       50
102
RTVSPost2010PropOp50
 70
     1
102
RTVSPost2010Prop51ColorIndex
 90
      256
102
RTVSPost2010Prop51ColorRGB
 90
-16777216
102
RTVSPost2010PropOp51
 70
     0
102
RTVSPost2010Prop52
140
1.0
102
RTVSPost2010PropOp52
 70
     0
102
RTVSPost2010Prop53
 90
        2
102
RTVSPost2010PropOp53
 70
     1
102
RTVSPost2010Prop54
  1
strokes_ogs.tif
102
RTVSPost2010PropOp54
 70
     1
102
RTVSPost2010Prop55
280
     0
102
RTVSPost2010PropOp55
 70
     1
102
RTVSPost2010Prop56
140
1.0
102
RTVSPost2010PropOp56
 70
     1
102
RTVSPost2010Prop57
140
1.0
102
RTVSPost2010PropOp57
 70
     1
102
RTVSPropertyOp0
 70
     1
102
RTVSPropertyOp1
 70
     1
102
RTVSPropertyOp2
 70
     1
102
RTVSPropertyOp3
 70
     1
102
RTVSPropertyOp4
 70
     1
102
RTVSPropertyOp5
 70
     1
102
RTVSPropertyOp6
 70
     1
102
RTVSPropertyOp7
 70
     1
102
RTVSPropertyOp8
 70
     1
102
RTVSPropertyOp9
 70
     1
102
RTVSPropertyOp10
 70
     1
102
RTVSPropertyOp11
 70
     1
102
RTVSPropertyOp12
 70
     1
102
RTVSPropertyOp13
 70
     1
102
RTVSPropertyOp14
 70
     1
102
RTVSPropertyOp15
 70
     1
102
RTVSPropertyOp16
 70
     1
102
RTVSPropertyOp17
 70
     1
102
RTVSPropertyOp18
 70
     1
102
RTVSPropertyOp19
 70
     1
102
RTVSPropertyOp20
 70
     1
102
RTVSPropertyOp21
 70
     1
102
RTVSPropertyOp22
 70
     1
102
RTVSPropertyOp23
 70
     1
102
RTVSPropertyOp24
 70
     1
102
RTVSPropertyOp25
 70
     1
102
RTVSPropertyOp26
 70
     1
102
RTVSPropertyOp27
 70
     1
102
RTVSPropertyOp28
 70
     1
102
RTVSPropertyOp29
 70
     1
102
RTVSPropertyOp30
 70
     1
102
RTVSPropertyOp31
 70
     1
102
RTVSPropertyOp32
 70
     1
102
RTVSPropertyOp33
 70
     1
102
RTVSPropertyOp34
 70
     1
102
RTVSPropertyOp35
 70
     1
102
RTVSPropertyOp36
 70
     1
102
RTVSPropertyOp37
 70
     1
102
RTVSPropertyOp38
 70
     1
102
RTVSPropertyOp39
 70
     1
102
RTVSPropertyOp40
 70
     1
102
RTVSPropertyOp41
 70
     1
102
RTVSPropertyOp42
 70
     1
102
RTVSPropertyOp43
 70
     1
102
RTVSPropertyOp44
 70
     1
102
RTVSPropertyOp45
 70
     1
102
RTVSPropertyOp46
 70
     1
102
RTVSPropertyOp47
 70
     1
102
RTVSPropertyOp48
 70
     1
102
RTVSPropertyOp49
 70
     1
102
RTVSPropertyOp50
 70
     1
102
RTVSPropertyOp51
 70
     0
102
RTVSPropertyOp52
 70
     0
102
RTVSPropertyOp53
 70
     1
102
RTVSPropertyOp54
 70
     1
102
RTVSPropertyOp55
 70
     1
102
RTVSPropertyOp56
 70
     1
102
RTVSPropertyOp57
 70
     1
102
RTVSPropertyOp58
 70
     1
102
RTVSPropertyOp59
 70
     1
102
RTVSPropertyOp60
 70
     1
102
RTVSPropertyOp61
 70
     1
102
RTVSPropertyOp62
 70
     1
  0
XRECORD
  5
4649
102
{ACAD_REACTORS
330
4648
102
}
330
4648
100
AcDbXrecord
280
     1
102
RTVSPost2010Prop28
280
     0
102
RTVSPost2010PropOp28
 70
     1
102
RTVSPost2010Prop29
280
     1
102
RTVSPost2010PropOp29
 70
     1
102
RTVSPost2010Prop30
280
     1
102
RTVSPost2010PropOp30
 70
     1
102
RTVSPost2010Prop31
280
     0
102
RTVSPost2010PropOp31
 70
     1
102
RTVSPost2010Prop32
280
     0
102
RTVSPost2010PropOp32
 70
     1
102
RTVSPost2010Prop33
280
     0
102
RTVSPost2010PropOp33
 70
     1
102
RTVSPost2010Prop34
280
     0
102
RTVSPost2010PropOp34
 70
     1
102
RTVSPost2010Prop35
280
     0
102
RTVSPost2010PropOp35
 70
     1
102
RTVSPost2010Prop36
280
     0
102
RTVSPost2010PropOp36
 70
     1
102
RTVSPost2010Prop37
 90
       50
102
RTVSPost2010PropOp37
 70
     1
102
RTVSPost2010Prop38
140
0.0
102
RTVSPost2010PropOp38
 70
     1
102
RTVSPost2010Prop39
140
1.0
102
RTVSPost2010PropOp39
 70
     1
102
RTVSPost2010Prop40
 90
        0
102
RTVSPost2010PropOp40
 70
     1
102
RTVSPost2010Prop41ColorIndex
 90
       18
102
RTVSPost2010Prop41ColorRGB
 90
        0
102
RTVSPost2010PropOp41
 70
     1
102
RTVSPost2010Prop42
 90
       50
102
RTVSPost2010PropOp42
 70
     1
102
RTVSPost2010Prop43
 90
        3
102
RTVSPost2010PropOp43
 70
     1
102
RTVSPost2010Prop44ColorIndex
 90
        5
102
RTVSPost2010Prop44ColorRGB
 90
      255
102
RTVSPost2010PropOp44
 70
     1
102
RTVSPost2010Prop45
280
     0
102
RTVSPost2010PropOp45
 70
     1
102
RTVSPost2010Prop46
 90
       50
102
RTVSPost2010PropOp46
 70
     1
102
RTVSPost2010Prop47
 90
       50
102
RTVSPost2010PropOp47
 70
     1
102
RTVSPost2010Prop48
 90
       50
102
RTVSPost2010PropOp48
 70
     1
102
RTVSPost2010Prop49
280
     0
102
RTVSPost2010PropOp49
 70
     1
102
RTVSPost2010Prop50
 90
       50
102
RTVSPost2010PropOp50
 70
     1
102
RTVSPost2010Prop51ColorIndex
 90
      256
102
RTVSPost2010Prop51ColorRGB
 90
-16777216
102
RTVSPost2010PropOp51
 70
     0
102
RTVSPost2010Prop52
140
1.0
102
RTVSPost2010PropOp52
 70
     0
102
RTVSPost2010Prop53
 90
        2
102
RTVSPost2010PropOp53
 70
     1
102
RTVSPost2010Prop54
  1
strokes_ogs.tif
102
RTVSPost2010PropOp54
 70
     1
102
RTVSPost2010Prop55
280
     0
102
RTVSPost2010PropOp55
 70
     1
102
RTVSPost2010Prop56
140
1.0
102
RTVSPost2010PropOp56
 70
     1
102
RTVSPost2010Prop57
140
1.0
102
RTVSPost2010PropOp57
 70
     1
102
RTVSPropertyOp0
 70
     1
102
RTVSPropertyOp1
 70
     1
102
RTVSPropertyOp2
 70
     1
102
RTVSPropertyOp3
 70
     1
102
RTVSPropertyOp4
 70
     1
102
RTVSPropertyOp5
 70
     1
102
RTVSPropertyOp6
 70
     1
102
RTVSPropertyOp7
 70
     1
102
RTVSPropertyOp8
 70
     1
102
RTVSPropertyOp9
 70
     1
102
RTVSPropertyOp10
 70
     1
102
RTVSPropertyOp11
 70
     1
102
RTVSPropertyOp12
 70
     1
102
RTVSPropertyOp13
 70
     1
102
RTVSPropertyOp14
 70
     1
102
RTVSPropertyOp15
 70
     1
102
RTVSPropertyOp16
 70
     1
102
RTVSPropertyOp17
 70
     1
102
RTVSPropertyOp18
 70
     1
102
RTVSPropertyOp19
 70
     1
102
RTVSPropertyOp20
 70
     1
102
RTVSPropertyOp21
 70
     1
102
RTVSPropertyOp22
 70
     1
102
RTVSPropertyOp23
 70
     1
102
RTVSPropertyOp24
 70
     1
102
RTVSPropertyOp25
 70
     1
102
RTVSPropertyOp26
 70
     1
102
RTVSPropertyOp27
 70
     1
102
RTVSPropertyOp28
 70
     1
102
RTVSPropertyOp29
 70
     1
102
RTVSPropertyOp30
 70
     1
102
RTVSPropertyOp31
 70
     1
102
RTVSPropertyOp32
 70
     1
102
RTVSPropertyOp33
 70
     1
102
RTVSPropertyOp34
 70
     1
102
RTVSPropertyOp35
 70
     1
102
RTVSPropertyOp36
 70
     1
102
RTVSPropertyOp37
 70
     1
102
RTVSPropertyOp38
 70
     1
102
RTVSPropertyOp39
 70
     1
102
RTVSPropertyOp40
 70
     1
102
RTVSPropertyOp41
 70
     1
102
RTVSPropertyOp42
 70
     1
102
RTVSPropertyOp43
 70
     1
102
RTVSPropertyOp44
 70
     1
102
RTVSPropertyOp45
 70
     1
102
RTVSPropertyOp46
 70
     1
102
RTVSPropertyOp47
 70
     1
102
RTVSPropertyOp48
 70
     1
102
RTVSPropertyOp49
 70
     1
102
RTVSPropertyOp50
 70
     1
102
RTVSPropertyOp51
 70
     0
102
RTVSPropertyOp52
 70
     0
102
RTVSPropertyOp53
 70
     1
102
RTVSPropertyOp54
 70
     1
102
RTVSPropertyOp55
 70
     1
102
RTVSPropertyOp56
 70
     1
102
RTVSPropertyOp57
 70
     1
102
RTVSPropertyOp58
 70
     1
102
RTVSPropertyOp59
 70
     1
102
RTVSPropertyOp60
 70
     1
102
RTVSPropertyOp61
 70
     1
102
RTVSPropertyOp62
 70
     1
  0
XRECORD
  5
464B
102
{ACAD_REACTORS
330
464A
102
}
330
464A
100
AcDbXrecord
280
     1
102
RTVSPost2010Prop28
280
     0
102
RTVSPost2010PropOp28
 70
     1
102
RTVSPost2010Prop29
280
     1
102
RTVSPost2010PropOp29
 70
     1
102
RTVSPost2010Prop30
280
     1
102
RTVSPost2010PropOp30
 70
     1
102
RTVSPost2010Prop31
280
     0
102
RTVSPost2010PropOp31
 70
     1
102
RTVSPost2010Prop32
280
     0
102
RTVSPost2010PropOp32
 70
     1
102
RTVSPost2010Prop33
280
     0
102
RTVSPost2010PropOp33
 70
     1
102
RTVSPost2010Prop34
280
     0
102
RTVSPost2010PropOp34
 70
     1
102
RTVSPost2010Prop35
280
     0
102
RTVSPost2010PropOp35
 70
     1
102
RTVSPost2010Prop36
280
     0
102
RTVSPost2010PropOp36
 70
     1
102
RTVSPost2010Prop37
 90
       50
102
RTVSPost2010PropOp37
 70
     1
102
RTVSPost2010Prop38
140
0.0
102
RTVSPost2010PropOp38
 70
     1
102
RTVSPost2010Prop39
140
1.0
102
RTVSPost2010PropOp39
 70
     1
102
RTVSPost2010Prop40
 90
        0
102
RTVSPost2010PropOp40
 70
     1
102
RTVSPost2010Prop41ColorIndex
 90
       18
102
RTVSPost2010Prop41ColorRGB
 90
        0
102
RTVSPost2010PropOp41
 70
     1
102
RTVSPost2010Prop42
 90
       50
102
RTVSPost2010PropOp42
 70
     1
102
RTVSPost2010Prop43
 90
        3
102
RTVSPost2010PropOp43
 70
     1
102
RTVSPost2010Prop44ColorIndex
 90
        5
102
RTVSPost2010Prop44ColorRGB
 90
      255
102
RTVSPost2010PropOp44
 70
     1
102
RTVSPost2010Prop45
280
     0
102
RTVSPost2010PropOp45
 70
     1
102
RTVSPost2010Prop46
 90
       50
102
RTVSPost2010PropOp46
 70
     1
102
RTVSPost2010Prop47
 90
       50
102
RTVSPost2010PropOp47
 70
     1
102
RTVSPost2010Prop48
 90
       50
102
RTVSPost2010PropOp48
 70
     1
102
RTVSPost2010Prop49
280
     0
102
RTVSPost2010PropOp49
 70
     1
102
RTVSPost2010Prop50
 90
       50
102
RTVSPost2010PropOp50
 70
     1
102
RTVSPost2010Prop51ColorIndex
 90
      256
102
RTVSPost2010Prop51ColorRGB
 90
-16777216
102
RTVSPost2010PropOp51
 70
     0
102
RTVSPost2010Prop52
140
1.0
102
RTVSPost2010PropOp52
 70
     0
102
RTVSPost2010Prop53
 90
        2
102
RTVSPost2010PropOp53
 70
     1
102
RTVSPost2010Prop54
  1
strokes_ogs.tif
102
RTVSPost2010PropOp54
 70
     1
102
RTVSPost2010Prop55
280
     0
102
RTVSPost2010PropOp55
 70
     1
102
RTVSPost2010Prop56
140
1.0
102
RTVSPost2010PropOp56
 70
     1
102
RTVSPost2010Prop57
140
1.0
102
RTVSPost2010PropOp57
 70
     1
102
RTVSPropertyOp0
 70
     1
102
RTVSPropertyOp1
 70
     1
102
RTVSPropertyOp2
 70
     1
102
RTVSPropertyOp3
 70
     1
102
RTVSPropertyOp4
 70
     1
102
RTVSPropertyOp5
 70
     1
102
RTVSPropertyOp6
 70
     1
102
RTVSPropertyOp7
 70
     1
102
RTVSPropertyOp8
 70
     1
102
RTVSPropertyOp9
 70
     1
102
RTVSPropertyOp10
 70
     1
102
RTVSPropertyOp11
 70
     1
102
RTVSPropertyOp12
 70
     1
102
RTVSPropertyOp13
 70
     1
102
RTVSPropertyOp14
 70
     1
102
RTVSPropertyOp15
 70
     1
102
RTVSPropertyOp16
 70
     1
102
RTVSPropertyOp17
 70
     1
102
RTVSPropertyOp18
 70
     1
102
RTVSPropertyOp19
 70
     1
102
RTVSPropertyOp20
 70
     1
102
RTVSPropertyOp21
 70
     1
102
RTVSPropertyOp22
 70
     1
102
RTVSPropertyOp23
 70
     1
102
RTVSPropertyOp24
 70
     1
102
RTVSPropertyOp25
 70
     1
102
RTVSPropertyOp26
 70
     1
102
RTVSPropertyOp27
 70
     1
102
RTVSPropertyOp28
 70
     1
102
RTVSPropertyOp29
 70
     1
102
RTVSPropertyOp30
 70
     1
102
RTVSPropertyOp31
 70
     1
102
RTVSPropertyOp32
 70
     1
102
RTVSPropertyOp33
 70
     1
102
RTVSPropertyOp34
 70
     1
102
RTVSPropertyOp35
 70
     1
102
RTVSPropertyOp36
 70
     1
102
RTVSPropertyOp37
 70
     1
102
RTVSPropertyOp38
 70
     1
102
RTVSPropertyOp39
 70
     1
102
RTVSPropertyOp40
 70
     1
102
RTVSPropertyOp41
 70
     1
102
RTVSPropertyOp42
 70
     1
102
RTVSPropertyOp43
 70
     1
102
RTVSPropertyOp44
 70
     1
102
RTVSPropertyOp45
 70
     1
102
RTVSPropertyOp46
 70
     1
102
RTVSPropertyOp47
 70
     1
102
RTVSPropertyOp48
 70
     1
102
RTVSPropertyOp49
 70
     1
102
RTVSPropertyOp50
 70
     1
102
RTVSPropertyOp51
 70
     0
102
RTVSPropertyOp52
 70
     0
102
RTVSPropertyOp53
 70
     1
102
RTVSPropertyOp54
 70
     1
102
RTVSPropertyOp55
 70
     1
102
RTVSPropertyOp56
 70
     1
102
RTVSPropertyOp57
 70
     1
102
RTVSPropertyOp58
 70
     1
102
RTVSPropertyOp59
 70
     1
102
RTVSPropertyOp60
 70
     1
102
RTVSPropertyOp61
 70
     1
102
RTVSPropertyOp62
 70
     1
  0
XRECORD
  5
4667
102
{ACAD_REACTORS
330
4666
102
}
330
4666
100
AcDbXrecord
280
     1
102
RTVSPost2010Prop28
280
     0
102
RTVSPost2010PropOp28
 70
     1
102
RTVSPost2010Prop29
280
     1
102
RTVSPost2010PropOp29
 70
     1
102
RTVSPost2010Prop30
280
     1
102
RTVSPost2010PropOp30
 70
     1
102
RTVSPost2010Prop31
280
     0
102
RTVSPost2010PropOp31
 70
     1
102
RTVSPost2010Prop32
280
     0
102
RTVSPost2010PropOp32
 70
     1
102
RTVSPost2010Prop33
280
     0
102
RTVSPost2010PropOp33
 70
     1
102
RTVSPost2010Prop34
280
     0
102
RTVSPost2010PropOp34
 70
     1
102
RTVSPost2010Prop35
280
     0
102
RTVSPost2010PropOp35
 70
     1
102
RTVSPost2010Prop36
280
     0
102
RTVSPost2010PropOp36
 70
     1
102
RTVSPost2010Prop37
 90
       50
102
RTVSPost2010PropOp37
 70
     1
102
RTVSPost2010Prop38
140
0.0
102
RTVSPost2010PropOp38
 70
     1
102
RTVSPost2010Prop39
140
1.0
102
RTVSPost2010PropOp39
 70
     1
102
RTVSPost2010Prop40
 90
        0
102
RTVSPost2010PropOp40
 70
     1
102
RTVSPost2010Prop41ColorIndex
 90
       18
102
RTVSPost2010Prop41ColorRGB
 90
        0
102
RTVSPost2010PropOp41
 70
     1
102
RTVSPost2010Prop42
 90
       50
102
RTVSPost2010PropOp42
 70
     1
102
RTVSPost2010Prop43
 90
        3
102
RTVSPost2010PropOp43
 70
     1
102
RTVSPost2010Prop44ColorIndex
 90
        5
102
RTVSPost2010Prop44ColorRGB
 90
      255
102
RTVSPost2010PropOp44
 70
     1
102
RTVSPost2010Prop45
280
     0
102
RTVSPost2010PropOp45
 70
     1
102
RTVSPost2010Prop46
 90
       50
102
RTVSPost2010PropOp46
 70
     1
102
RTVSPost2010Prop47
 90
       50
102
RTVSPost2010PropOp47
 70
     1
102
RTVSPost2010Prop48
 90
       50
102
RTVSPost2010PropOp48
 70
     1
102
RTVSPost2010Prop49
280
     0
102
RTVSPost2010PropOp49
 70
     1
102
RTVSPost2010Prop50
 90
       50
102
RTVSPost2010PropOp50
 70
     1
102
RTVSPost2010Prop51ColorIndex
 90
      256
102
RTVSPost2010Prop51ColorRGB
 90
-16777216
102
RTVSPost2010PropOp51
 70
     0
102
RTVSPost2010Prop52
140
1.0
102
RTVSPost2010PropOp52
 70
     0
102
RTVSPost2010Prop53
 90
        2
102
RTVSPost2010PropOp53
 70
     1
102
RTVSPost2010Prop54
  1
strokes_ogs.tif
102
RTVSPost2010PropOp54
 70
     1
102
RTVSPost2010Prop55
280
     0
102
RTVSPost2010PropOp55
 70
     1
102
RTVSPost2010Prop56
140
1.0
102
RTVSPost2010PropOp56
 70
     1
102
RTVSPost2010Prop57
140
1.0
102
RTVSPost2010PropOp57
 70
     1
102
RTVSPropertyOp0
 70
     1
102
RTVSPropertyOp1
 70
     1
102
RTVSPropertyOp2
 70
     1
102
RTVSPropertyOp3
 70
     1
102
RTVSPropertyOp4
 70
     1
102
RTVSPropertyOp5
 70
     1
102
RTVSPropertyOp6
 70
     1
102
RTVSPropertyOp7
 70
     1
102
RTVSPropertyOp8
 70
     1
102
RTVSPropertyOp9
 70
     1
102
RTVSPropertyOp10
 70
     1
102
RTVSPropertyOp11
 70
     1
102
RTVSPropertyOp12
 70
     1
102
RTVSPropertyOp13
 70
     1
102
RTVSPropertyOp14
 70
     1
102
RTVSPropertyOp15
 70
     1
102
RTVSPropertyOp16
 70
     1
102
RTVSPropertyOp17
 70
     1
102
RTVSPropertyOp18
 70
     1
102
RTVSPropertyOp19
 70
     1
102
RTVSPropertyOp20
 70
     1
102
RTVSPropertyOp21
 70
     1
102
RTVSPropertyOp22
 70
     1
102
RTVSPropertyOp23
 70
     1
102
RTVSPropertyOp24
 70
     1
102
RTVSPropertyOp25
 70
     1
102
RTVSPropertyOp26
 70
     1
102
RTVSPropertyOp27
 70
     1
102
RTVSPropertyOp28
 70
     1
102
RTVSPropertyOp29
 70
     1
102
RTVSPropertyOp30
 70
     1
102
RTVSPropertyOp31
 70
     1
102
RTVSPropertyOp32
 70
     1
102
RTVSPropertyOp33
 70
     1
102
RTVSPropertyOp34
 70
     1
102
RTVSPropertyOp35
 70
     1
102
RTVSPropertyOp36
 70
     1
102
RTVSPropertyOp37
 70
     1
102
RTVSPropertyOp38
 70
     1
102
RTVSPropertyOp39
 70
     1
102
RTVSPropertyOp40
 70
     1
102
RTVSPropertyOp41
 70
     1
102
RTVSPropertyOp42
 70
     1
102
RTVSPropertyOp43
 70
     1
102
RTVSPropertyOp44
 70
     1
102
RTVSPropertyOp45
 70
     1
102
RTVSPropertyOp46
 70
     1
102
RTVSPropertyOp47
 70
     1
102
RTVSPropertyOp48
 70
     1
102
RTVSPropertyOp49
 70
     1
102
RTVSPropertyOp50
 70
     1
102
RTVSPropertyOp51
 70
     0
102
RTVSPropertyOp52
 70
     0
102
RTVSPropertyOp53
 70
     1
102
RTVSPropertyOp54
 70
     1
102
RTVSPropertyOp55
 70
     1
102
RTVSPropertyOp56
 70
     1
102
RTVSPropertyOp57
 70
     1
102
RTVSPropertyOp58
 70
     1
102
RTVSPropertyOp59
 70
     1
102
RTVSPropertyOp60
 70
     1
102
RTVSPropertyOp61
 70
     1
102
RTVSPropertyOp62
 70
     1
  0
XRECORD
  5
4673
102
{ACAD_REACTORS
330
4672
102
}
330
4672
100
AcDbXrecord
280
     1
102
RTVSPost2010Prop28
280
     0
102
RTVSPost2010PropOp28
 70
     0
102
RTVSPost2010Prop29
280
     1
102
RTVSPost2010PropOp29
 70
     0
102
RTVSPost2010Prop30
280
     1
102
RTVSPost2010PropOp30
 70
     0
102
RTVSPost2010Prop31
280
     0
102
RTVSPost2010PropOp31
 70
     0
102
RTVSPost2010Prop32
280
     0
102
RTVSPost2010PropOp32
 70
     0
102
RTVSPost2010Prop33
280
     0
102
RTVSPost2010PropOp33
 70
     0
102
RTVSPost2010Prop34
280
     0
102
RTVSPost2010PropOp34
 70
     0
102
RTVSPost2010Prop35
280
     0
102
RTVSPost2010PropOp35
 70
     0
102
RTVSPost2010Prop36
280
     0
102
RTVSPost2010PropOp36
 70
     0
102
RTVSPost2010Prop37
 90
       50
102
RTVSPost2010PropOp37
 70
     0
102
RTVSPost2010Prop38
140
0.0
102
RTVSPost2010PropOp38
 70
     0
102
RTVSPost2010Prop39
140
1.0
102
RTVSPost2010PropOp39
 70
     0
102
RTVSPost2010Prop40
 90
        0
102
RTVSPost2010PropOp40
 70
     0
102
RTVSPost2010Prop41ColorIndex
 90
       18
102
RTVSPost2010Prop41ColorRGB
 90
        0
102
RTVSPost2010PropOp41
 70
     0
102
RTVSPost2010Prop42
 90
       50
102
RTVSPost2010PropOp42
 70
     0
102
RTVSPost2010Prop43
 90
        3
102
RTVSPost2010PropOp43
 70
     0
102
RTVSPost2010Prop44ColorIndex
 90
        5
102
RTVSPost2010Prop44ColorRGB
 90
      255
102
RTVSPost2010PropOp44
 70
     0
102
RTVSPost2010Prop45
280
     0
102
RTVSPost2010PropOp45
 70
     0
102
RTVSPost2010Prop46
 90
       50
102
RTVSPost2010PropOp46
 70
     0
102
RTVSPost2010Prop47
 90
       50
102
RTVSPost2010PropOp47
 70
     0
102
RTVSPost2010Prop48
 90
       50
102
RTVSPost2010PropOp48
 70
     0
102
RTVSPost2010Prop49
280
     0
102
RTVSPost2010PropOp49
 70
     0
102
RTVSPost2010Prop50
 90
       50
102
RTVSPost2010PropOp50
 70
     0
102
RTVSPost2010Prop51ColorIndex
 90
      256
102
RTVSPost2010Prop51ColorRGB
 90
-16777216
102
RTVSPost2010PropOp51
 70
     0
102
RTVSPost2010Prop52
140
1.0
102
RTVSPost2010PropOp52
 70
     0
102
RTVSPost2010Prop53
 90
        2
102
RTVSPost2010PropOp53
 70
     0
102
RTVSPost2010Prop54
  1
strokes_ogs.tif
102
RTVSPost2010PropOp54
 70
     0
102
RTVSPost2010Prop55
280
     0
102
RTVSPost2010PropOp55
 70
     0
102
RTVSPost2010Prop56
140
1.0
102
RTVSPost2010PropOp56
 70
     0
102
RTVSPost2010Prop57
140
1.0
102
RTVSPost2010PropOp57
 70
     0
102
RTVSPropertyOp0
 70
     0
102
RTVSPropertyOp1
 70
     0
102
RTVSPropertyOp2
 70
     0
102
RTVSPropertyOp3
 70
     0
102
RTVSPropertyOp4
 70
     0
102
RTVSPropertyOp5
 70
     0
102
RTVSPropertyOp6
 70
     0
102
RTVSPropertyOp7
 70
     0
102
RTVSPropertyOp8
 70
     0
102
RTVSPropertyOp9
 70
     0
102
RTVSPropertyOp10
 70
     0
102
RTVSPropertyOp11
 70
     0
102
RTVSPropertyOp12
 70
     0
102
RTVSPropertyOp13
 70
     0
102
RTVSPropertyOp14
 70
     2
102
RTVSPropertyOp15
 70
     0
102
RTVSPropertyOp16
 70
     0
102
RTVSPropertyOp17
 70
     0
102
RTVSPropertyOp18
 70
     0
102
RTVSPropertyOp19
 70
     0
102
RTVSPropertyOp20
 70
     0
102
RTVSPropertyOp21
 70
     0
102
RTVSPropertyOp22
 70
     0
102
RTVSPropertyOp23
 70
     0
102
RTVSPropertyOp24
 70
     0
102
RTVSPropertyOp25
 70
     0
102
RTVSPropertyOp26
 70
     0
102
RTVSPropertyOp27
 70
     0
102
RTVSPropertyOp28
 70
     0
102
RTVSPropertyOp29
 70
     0
102
RTVSPropertyOp30
 70
     0
102
RTVSPropertyOp31
 70
     0
102
RTVSPropertyOp32
 70
     0
102
RTVSPropertyOp33
 70
     0
102
RTVSPropertyOp34
 70
     0
102
RTVSPropertyOp35
 70
     0
102
RTVSPropertyOp36
 70
     0
102
RTVSPropertyOp37
 70
     0
102
RTVSPropertyOp38
 70
     0
102
RTVSPropertyOp39
 70
     0
102
RTVSPropertyOp40
 70
     0
102
RTVSPropertyOp41
 70
     0
102
RTVSPropertyOp42
 70
     0
102
RTVSPropertyOp43
 70
     0
102
RTVSPropertyOp44
 70
     0
102
RTVSPropertyOp45
 70
     0
102
RTVSPropertyOp46
 70
     0
102
RTVSPropertyOp47
 70
     0
102
RTVSPropertyOp48
 70
     0
102
RTVSPropertyOp49
 70
     0
102
RTVSPropertyOp50
 70
     0
102
RTVSPropertyOp51
 70
     0
102
RTVSPropertyOp52
 70
     0
102
RTVSPropertyOp53
 70
     0
102
RTVSPropertyOp54
 70
     0
102
RTVSPropertyOp55
 70
     0
102
RTVSPropertyOp56
 70
     0
102
RTVSPropertyOp57
 70
     0
102
RTVSPropertyOp58
 70
     1
102
RTVSPropertyOp59
 70
     1
102
RTVSPropertyOp60
 70
     1
102
RTVSPropertyOp61
 70
     1
102
RTVSPropertyOp62
 70
     1
  0
XRECORD
  5
465F
102
{ACAD_REACTORS
330
465E
102
}
330
465E
100
AcDbXrecord
280
     1
102
RTVSPost2010Prop28
280
     0
102
RTVSPost2010PropOp28
 70
     1
102
RTVSPost2010Prop29
280
     1
102
RTVSPost2010PropOp29
 70
     1
102
RTVSPost2010Prop30
280
     1
102
RTVSPost2010PropOp30
 70
     1
102
RTVSPost2010Prop31
280
     0
102
RTVSPost2010PropOp31
 70
     1
102
RTVSPost2010Prop32
280
     0
102
RTVSPost2010PropOp32
 70
     1
102
RTVSPost2010Prop33
280
     0
102
RTVSPost2010PropOp33
 70
     1
102
RTVSPost2010Prop34
280
     0
102
RTVSPost2010PropOp34
 70
     1
102
RTVSPost2010Prop35
280
     0
102
RTVSPost2010PropOp35
 70
     1
102
RTVSPost2010Prop36
280
     0
102
RTVSPost2010PropOp36
 70
     1
102
RTVSPost2010Prop37
 90
       50
102
RTVSPost2010PropOp37
 70
     1
102
RTVSPost2010Prop38
140
0.0
102
RTVSPost2010PropOp38
 70
     1
102
RTVSPost2010Prop39
140
1.0
102
RTVSPost2010PropOp39
 70
     1
102
RTVSPost2010Prop40
 90
        0
102
RTVSPost2010PropOp40
 70
     1
102
RTVSPost2010Prop41ColorIndex
 90
       18
102
RTVSPost2010Prop41ColorRGB
 90
        0
102
RTVSPost2010PropOp41
 70
     1
102
RTVSPost2010Prop42
 90
       50
102
RTVSPost2010PropOp42
 70
     1
102
RTVSPost2010Prop43
 90
        3
102
RTVSPost2010PropOp43
 70
     1
102
RTVSPost2010Prop44ColorIndex
 90
        5
102
RTVSPost2010Prop44ColorRGB
 90
      255
102
RTVSPost2010PropOp44
 70
     1
102
RTVSPost2010Prop45
280
     0
102
RTVSPost2010PropOp45
 70
     1
102
RTVSPost2010Prop46
 90
       50
102
RTVSPost2010PropOp46
 70
     1
102
RTVSPost2010Prop47
 90
       50
102
RTVSPost2010PropOp47
 70
     1
102
RTVSPost2010Prop48
 90
       50
102
RTVSPost2010PropOp48
 70
     1
102
RTVSPost2010Prop49
280
     0
102
RTVSPost2010PropOp49
 70
     1
102
RTVSPost2010Prop50
 90
       50
102
RTVSPost2010PropOp50
 70
     1
102
RTVSPost2010Prop51ColorIndex
 90
      256
102
RTVSPost2010Prop51ColorRGB
 90
-16777216
102
RTVSPost2010PropOp51
 70
     0
102
RTVSPost2010Prop52
140
1.0
102
RTVSPost2010PropOp52
 70
     0
102
RTVSPost2010Prop53
 90
        2
102
RTVSPost2010PropOp53
 70
     1
102
RTVSPost2010Prop54
  1
strokes_ogs.tif
102
RTVSPost2010PropOp54
 70
     1
102
RTVSPost2010Prop55
280
     0
102
RTVSPost2010PropOp55
 70
     1
102
RTVSPost2010Prop56
140
1.0
102
RTVSPost2010PropOp56
 70
     1
102
RTVSPost2010Prop57
140
1.0
102
RTVSPost2010PropOp57
 70
     1
102
RTVSPropertyOp0
 70
     1
102
RTVSPropertyOp1
 70
     1
102
RTVSPropertyOp2
 70
     1
102
RTVSPropertyOp3
 70
     1
102
RTVSPropertyOp4
 70
     1
102
RTVSPropertyOp5
 70
     1
102
RTVSPropertyOp6
 70
     1
102
RTVSPropertyOp7
 70
     1
102
RTVSPropertyOp8
 70
     1
102
RTVSPropertyOp9
 70
     1
102
RTVSPropertyOp10
 70
     1
102
RTVSPropertyOp11
 70
     1
102
RTVSPropertyOp12
 70
     1
102
RTVSPropertyOp13
 70
     1
102
RTVSPropertyOp14
 70
     1
102
RTVSPropertyOp15
 70
     1
102
RTVSPropertyOp16
 70
     1
102
RTVSPropertyOp17
 70
     1
102
RTVSPropertyOp18
 70
     1
102
RTVSPropertyOp19
 70
     1
102
RTVSPropertyOp20
 70
     1
102
RTVSPropertyOp21
 70
     1
102
RTVSPropertyOp22
 70
     1
102
RTVSPropertyOp23
 70
     1
102
RTVSPropertyOp24
 70
     1
102
RTVSPropertyOp25
 70
     1
102
RTVSPropertyOp26
 70
     1
102
RTVSPropertyOp27
 70
     1
102
RTVSPropertyOp28
 70
     1
102
RTVSPropertyOp29
 70
     1
102
RTVSPropertyOp30
 70
     1
102
RTVSPropertyOp31
 70
     1
102
RTVSPropertyOp32
 70
     1
102
RTVSPropertyOp33
 70
     1
102
RTVSPropertyOp34
 70
     1
102
RTVSPropertyOp35
 70
     1
102
RTVSPropertyOp36
 70
     1
102
RTVSPropertyOp37
 70
     1
102
RTVSPropertyOp38
 70
     1
102
RTVSPropertyOp39
 70
     1
102
RTVSPropertyOp40
 70
     1
102
RTVSPropertyOp41
 70
     1
102
RTVSPropertyOp42
 70
     1
102
RTVSPropertyOp43
 70
     1
102
RTVSPropertyOp44
 70
     1
102
RTVSPropertyOp45
 70
     1
102
RTVSPropertyOp46
 70
     1
102
RTVSPropertyOp47
 70
     1
102
RTVSPropertyOp48
 70
     1
102
RTVSPropertyOp49
 70
     1
102
RTVSPropertyOp50
 70
     1
102
RTVSPropertyOp51
 70
     0
102
RTVSPropertyOp52
 70
     0
102
RTVSPropertyOp53
 70
     1
102
RTVSPropertyOp54
 70
     1
102
RTVSPropertyOp55
 70
     1
102
RTVSPropertyOp56
 70
     1
102
RTVSPropertyOp57
 70
     1
102
RTVSPropertyOp58
 70
     1
102
RTVSPropertyOp59
 70
     1
102
RTVSPropertyOp60
 70
     1
102
RTVSPropertyOp61
 70
     1
102
RTVSPropertyOp62
 70
     1
  0
XRECORD
  5
4675
102
{ACAD_REACTORS
330
4674
102
}
330
4674
100
AcDbXrecord
280
     1
102
RTVSPost2010Prop28
280
     0
102
RTVSPost2010PropOp28
 70
     0
102
RTVSPost2010Prop29
280
     1
102
RTVSPost2010PropOp29
 70
     0
102
RTVSPost2010Prop30
280
     1
102
RTVSPost2010PropOp30
 70
     0
102
RTVSPost2010Prop31
280
     0
102
RTVSPost2010PropOp31
 70
     0
102
RTVSPost2010Prop32
280
     0
102
RTVSPost2010PropOp32
 70
     0
102
RTVSPost2010Prop33
280
     0
102
RTVSPost2010PropOp33
 70
     0
102
RTVSPost2010Prop34
280
     0
102
RTVSPost2010PropOp34
 70
     0
102
RTVSPost2010Prop35
280
     0
102
RTVSPost2010PropOp35
 70
     0
102
RTVSPost2010Prop36
280
     0
102
RTVSPost2010PropOp36
 70
     0
102
RTVSPost2010Prop37
 90
       50
102
RTVSPost2010PropOp37
 70
     0
102
RTVSPost2010Prop38
140
0.0
102
RTVSPost2010PropOp38
 70
     0
102
RTVSPost2010Prop39
140
1.0
102
RTVSPost2010PropOp39
 70
     0
102
RTVSPost2010Prop40
 90
        0
102
RTVSPost2010PropOp40
 70
     0
102
RTVSPost2010Prop41ColorIndex
 90
       18
102
RTVSPost2010Prop41ColorRGB
 90
        0
102
RTVSPost2010PropOp41
 70
     0
102
RTVSPost2010Prop42
 90
       50
102
RTVSPost2010PropOp42
 70
     0
102
RTVSPost2010Prop43
 90
        3
102
RTVSPost2010PropOp43
 70
     0
102
RTVSPost2010Prop44ColorIndex
 90
        5
102
RTVSPost2010Prop44ColorRGB
 90
      255
102
RTVSPost2010PropOp44
 70
     0
102
RTVSPost2010Prop45
280
     0
102
RTVSPost2010PropOp45
 70
     0
102
RTVSPost2010Prop46
 90
       50
102
RTVSPost2010PropOp46
 70
     0
102
RTVSPost2010Prop47
 90
       50
102
RTVSPost2010PropOp47
 70
     0
102
RTVSPost2010Prop48
 90
       50
102
RTVSPost2010PropOp48
 70
     0
102
RTVSPost2010Prop49
280
     0
102
RTVSPost2010PropOp49
 70
     0
102
RTVSPost2010Prop50
 90
       50
102
RTVSPost2010PropOp50
 70
     0
102
RTVSPost2010Prop51ColorIndex
 90
      256
102
RTVSPost2010Prop51ColorRGB
 90
-16777216
102
RTVSPost2010PropOp51
 70
     0
102
RTVSPost2010Prop52
140
1.0
102
RTVSPost2010PropOp52
 70
     0
102
RTVSPost2010Prop53
 90
        2
102
RTVSPost2010PropOp53
 70
     0
102
RTVSPost2010Prop54
  1
strokes_ogs.tif
102
RTVSPost2010PropOp54
 70
     0
102
RTVSPost2010Prop55
280
     0
102
RTVSPost2010PropOp55
 70
     0
102
RTVSPost2010Prop56
140
1.0
102
RTVSPost2010PropOp56
 70
     0
102
RTVSPost2010Prop57
140
1.0
102
RTVSPost2010PropOp57
 70
     0
102
RTVSPropertyOp0
 70
     0
102
RTVSPropertyOp1
 70
     0
102
RTVSPropertyOp2
 70
     0
102
RTVSPropertyOp3
 70
     0
102
RTVSPropertyOp4
 70
     0
102
RTVSPropertyOp5
 70
     0
102
RTVSPropertyOp6
 70
     0
102
RTVSPropertyOp7
 70
     0
102
RTVSPropertyOp8
 70
     0
102
RTVSPropertyOp9
 70
     0
102
RTVSPropertyOp10
 70
     0
102
RTVSPropertyOp11
 70
     0
102
RTVSPropertyOp12
 70
     0
102
RTVSPropertyOp13
 70
     0
102
RTVSPropertyOp14
 70
     2
102
RTVSPropertyOp15
 70
     0
102
RTVSPropertyOp16
 70
     0
102
RTVSPropertyOp17
 70
     0
102
RTVSPropertyOp18
 70
     0
102
RTVSPropertyOp19
 70
     0
102
RTVSPropertyOp20
 70
     0
102
RTVSPropertyOp21
 70
     0
102
RTVSPropertyOp22
 70
     0
102
RTVSPropertyOp23
 70
     0
102
RTVSPropertyOp24
 70
     0
102
RTVSPropertyOp25
 70
     0
102
RTVSPropertyOp26
 70
     0
102
RTVSPropertyOp27
 70
     0
102
RTVSPropertyOp28
 70
     0
102
RTVSPropertyOp29
 70
     0
102
RTVSPropertyOp30
 70
     0
102
RTVSPropertyOp31
 70
     0
102
RTVSPropertyOp32
 70
     0
102
RTVSPropertyOp33
 70
     0
102
RTVSPropertyOp34
 70
     0
102
RTVSPropertyOp35
 70
     0
102
RTVSPropertyOp36
 70
     0
102
RTVSPropertyOp37
 70
     0
102
RTVSPropertyOp38
 70
     0
102
RTVSPropertyOp39
 70
     0
102
RTVSPropertyOp40
 70
     0
102
RTVSPropertyOp41
 70
     0
102
RTVSPropertyOp42
 70
     0
102
RTVSPropertyOp43
 70
     0
102
RTVSPropertyOp44
 70
     0
102
RTVSPropertyOp45
 70
     0
102
RTVSPropertyOp46
 70
     0
102
RTVSPropertyOp47
 70
     0
102
RTVSPropertyOp48
 70
     0
102
RTVSPropertyOp49
 70
     0
102
RTVSPropertyOp50
 70
     0
102
RTVSPropertyOp51
 70
     0
102
RTVSPropertyOp52
 70
     0
102
RTVSPropertyOp53
 70
     0
102
RTVSPropertyOp54
 70
     0
102
RTVSPropertyOp55
 70
     0
102
RTVSPropertyOp56
 70
     0
102
RTVSPropertyOp57
 70
     0
102
RTVSPropertyOp58
 70
     1
102
RTVSPropertyOp59
 70
     1
102
RTVSPropertyOp60
 70
     1
102
RTVSPropertyOp61
 70
     1
102
RTVSPropertyOp62
 70
     1
  0
XRECORD
  5
4657
102
{ACAD_REACTORS
330
4656
102
}
330
4656
100
AcDbXrecord
280
     1
102
RTVSPost2010Prop28
280
     0
102
RTVSPost2010PropOp28
 70
     1
102
RTVSPost2010Prop29
280
     1
102
RTVSPost2010PropOp29
 70
     1
102
RTVSPost2010Prop30
280
     1
102
RTVSPost2010PropOp30
 70
     1
102
RTVSPost2010Prop31
280
     0
102
RTVSPost2010PropOp31
 70
     1
102
RTVSPost2010Prop32
280
     0
102
RTVSPost2010PropOp32
 70
     1
102
RTVSPost2010Prop33
280
     0
102
RTVSPost2010PropOp33
 70
     1
102
RTVSPost2010Prop34
280
     0
102
RTVSPost2010PropOp34
 70
     1
102
RTVSPost2010Prop35
280
     0
102
RTVSPost2010PropOp35
 70
     1
102
RTVSPost2010Prop36
280
     0
102
RTVSPost2010PropOp36
 70
     1
102
RTVSPost2010Prop37
 90
       50
102
RTVSPost2010PropOp37
 70
     1
102
RTVSPost2010Prop38
140
0.0
102
RTVSPost2010PropOp38
 70
     1
102
RTVSPost2010Prop39
140
1.0
102
RTVSPost2010PropOp39
 70
     1
102
RTVSPost2010Prop40
 90
        0
102
RTVSPost2010PropOp40
 70
     1
102
RTVSPost2010Prop41ColorIndex
 90
       18
102
RTVSPost2010Prop41ColorRGB
 90
        0
102
RTVSPost2010PropOp41
 70
     1
102
RTVSPost2010Prop42
 90
       50
102
RTVSPost2010PropOp42
 70
     1
102
RTVSPost2010Prop43
 90
        3
102
RTVSPost2010PropOp43
 70
     1
102
RTVSPost2010Prop44ColorIndex
 90
        5
102
RTVSPost2010Prop44ColorRGB
 90
      255
102
RTVSPost2010PropOp44
 70
     1
102
RTVSPost2010Prop45
280
     0
102
RTVSPost2010PropOp45
 70
     1
102
RTVSPost2010Prop46
 90
       50
102
RTVSPost2010PropOp46
 70
     1
102
RTVSPost2010Prop47
 90
       50
102
RTVSPost2010PropOp47
 70
     1
102
RTVSPost2010Prop48
 90
       50
102
RTVSPost2010PropOp48
 70
     1
102
RTVSPost2010Prop49
280
     0
102
RTVSPost2010PropOp49
 70
     1
102
RTVSPost2010Prop50
 90
       50
102
RTVSPost2010PropOp50
 70
     1
102
RTVSPost2010Prop51ColorIndex
 90
      256
102
RTVSPost2010Prop51ColorRGB
 90
-16777216
102
RTVSPost2010PropOp51
 70
     0
102
RTVSPost2010Prop52
140
1.0
102
RTVSPost2010PropOp52
 70
     0
102
RTVSPost2010Prop53
 90
        2
102
RTVSPost2010PropOp53
 70
     1
102
RTVSPost2010Prop54
  1
strokes_ogs.tif
102
RTVSPost2010PropOp54
 70
     1
102
RTVSPost2010Prop55
280
     0
102
RTVSPost2010PropOp55
 70
     1
102
RTVSPost2010Prop56
140
1.0
102
RTVSPost2010PropOp56
 70
     1
102
RTVSPost2010Prop57
140
1.0
102
RTVSPost2010PropOp57
 70
     1
102
RTVSPropertyOp0
 70
     1
102
RTVSPropertyOp1
 70
     1
102
RTVSPropertyOp2
 70
     1
102
RTVSPropertyOp3
 70
     1
102
RTVSPropertyOp4
 70
     1
102
RTVSPropertyOp5
 70
     1
102
RTVSPropertyOp6
 70
     1
102
RTVSPropertyOp7
 70
     1
102
RTVSPropertyOp8
 70
     1
102
RTVSPropertyOp9
 70
     1
102
RTVSPropertyOp10
 70
     1
102
RTVSPropertyOp11
 70
     1
102
RTVSPropertyOp12
 70
     1
102
RTVSPropertyOp13
 70
     1
102
RTVSPropertyOp14
 70
     1
102
RTVSPropertyOp15
 70
     1
102
RTVSPropertyOp16
 70
     1
102
RTVSPropertyOp17
 70
     1
102
RTVSPropertyOp18
 70
     1
102
RTVSPropertyOp19
 70
     1
102
RTVSPropertyOp20
 70
     1
102
RTVSPropertyOp21
 70
     1
102
RTVSPropertyOp22
 70
     1
102
RTVSPropertyOp23
 70
     1
102
RTVSPropertyOp24
 70
     1
102
RTVSPropertyOp25
 70
     1
102
RTVSPropertyOp26
 70
     1
102
RTVSPropertyOp27
 70
     1
102
RTVSPropertyOp28
 70
     1
102
RTVSPropertyOp29
 70
     1
102
RTVSPropertyOp30
 70
     1
102
RTVSPropertyOp31
 70
     1
102
RTVSPropertyOp32
 70
     1
102
RTVSPropertyOp33
 70
     1
102
RTVSPropertyOp34
 70
     1
102
RTVSPropertyOp35
 70
     1
102
RTVSPropertyOp36
 70
     1
102
RTVSPropertyOp37
 70
     1
102
RTVSPropertyOp38
 70
     1
102
RTVSPropertyOp39
 70
     1
102
RTVSPropertyOp40
 70
     1
102
RTVSPropertyOp41
 70
     1
102
RTVSPropertyOp42
 70
     1
102
RTVSPropertyOp43
 70
     1
102
RTVSPropertyOp44
 70
     1
102
RTVSPropertyOp45
 70
     1
102
RTVSPropertyOp46
 70
     1
102
RTVSPropertyOp47
 70
     1
102
RTVSPropertyOp48
 70
     1
102
RTVSPropertyOp49
 70
     1
102
RTVSPropertyOp50
 70
     1
102
RTVSPropertyOp51
 70
     0
102
RTVSPropertyOp52
 70
     0
102
RTVSPropertyOp53
 70
     1
102
RTVSPropertyOp54
 70
     1
102
RTVSPropertyOp55
 70
     1
102
RTVSPropertyOp56
 70
     1
102
RTVSPropertyOp57
 70
     1
102
RTVSPropertyOp58
 70
     1
102
RTVSPropertyOp59
 70
     1
102
RTVSPropertyOp60
 70
     1
102
RTVSPropertyOp61
 70
     1
102
RTVSPropertyOp62
 70
     1
  0
XRECORD
  5
4671
102
{ACAD_REACTORS
330
4670
102
}
330
4670
100
AcDbXrecord
280
     1
102
RTVSPost2010Prop28
280
     0
102
RTVSPost2010PropOp28
 70
     1
102
RTVSPost2010Prop29
280
     1
102
RTVSPost2010PropOp29
 70
     1
102
RTVSPost2010Prop30
280
     1
102
RTVSPost2010PropOp30
 70
     1
102
RTVSPost2010Prop31
280
     0
102
RTVSPost2010PropOp31
 70
     1
102
RTVSPost2010Prop32
280
     0
102
RTVSPost2010PropOp32
 70
     1
102
RTVSPost2010Prop33
280
     0
102
RTVSPost2010PropOp33
 70
     1
102
RTVSPost2010Prop34
280
     0
102
RTVSPost2010PropOp34
 70
     1
102
RTVSPost2010Prop35
280
     0
102
RTVSPost2010PropOp35
 70
     1
102
RTVSPost2010Prop36
280
     0
102
RTVSPost2010PropOp36
 70
     1
102
RTVSPost2010Prop37
 90
       50
102
RTVSPost2010PropOp37
 70
     1
102
RTVSPost2010Prop38
140
0.0
102
RTVSPost2010PropOp38
 70
     1
102
RTVSPost2010Prop39
140
1.0
102
RTVSPost2010PropOp39
 70
     1
102
RTVSPost2010Prop40
 90
        0
102
RTVSPost2010PropOp40
 70
     1
102
RTVSPost2010Prop41ColorIndex
 90
       18
102
RTVSPost2010Prop41ColorRGB
 90
        0
102
RTVSPost2010PropOp41
 70
     1
102
RTVSPost2010Prop42
 90
       50
102
RTVSPost2010PropOp42
 70
     1
102
RTVSPost2010Prop43
 90
        3
102
RTVSPost2010PropOp43
 70
     1
102
RTVSPost2010Prop44ColorIndex
 90
        5
102
RTVSPost2010Prop44ColorRGB
 90
      255
102
RTVSPost2010PropOp44
 70
     1
102
RTVSPost2010Prop45
280
     0
102
RTVSPost2010PropOp45
 70
     1
102
RTVSPost2010Prop46
 90
       50
102
RTVSPost2010PropOp46
 70
     1
102
RTVSPost2010Prop47
 90
       50
102
RTVSPost2010PropOp47
 70
     1
102
RTVSPost2010Prop48
 90
       50
102
RTVSPost2010PropOp48
 70
     1
102
RTVSPost2010Prop49
280
     0
102
RTVSPost2010PropOp49
 70
     1
102
RTVSPost2010Prop50
 90
       50
102
RTVSPost2010PropOp50
 70
     1
102
RTVSPost2010Prop51ColorIndex
 90
      256
102
RTVSPost2010Prop51ColorRGB
 90
-16777216
102
RTVSPost2010PropOp51
 70
     0
102
RTVSPost2010Prop52
140
1.0
102
RTVSPost2010PropOp52
 70
     0
102
RTVSPost2010Prop53
 90
        2
102
RTVSPost2010PropOp53
 70
     1
102
RTVSPost2010Prop54
  1
strokes_ogs.tif
102
RTVSPost2010PropOp54
 70
     1
102
RTVSPost2010Prop55
280
     0
102
RTVSPost2010PropOp55
 70
     1
102
RTVSPost2010Prop56
140
1.0
102
RTVSPost2010PropOp56
 70
     1
102
RTVSPost2010Prop57
140
1.0
102
RTVSPost2010PropOp57
 70
     1
102
RTVSPropertyOp0
 70
     1
102
RTVSPropertyOp1
 70
     1
102
RTVSPropertyOp2
 70
     1
102
RTVSPropertyOp3
 70
     1
102
RTVSPropertyOp4
 70
     1
102
RTVSPropertyOp5
 70
     1
102
RTVSPropertyOp6
 70
     1
102
RTVSPropertyOp7
 70
     1
102
RTVSPropertyOp8
 70
     1
102
RTVSPropertyOp9
 70
     1
102
RTVSPropertyOp10
 70
     1
102
RTVSPropertyOp11
 70
     1
102
RTVSPropertyOp12
 70
     1
102
RTVSPropertyOp13
 70
     1
102
RTVSPropertyOp14
 70
     1
102
RTVSPropertyOp15
 70
     1
102
RTVSPropertyOp16
 70
     1
102
RTVSPropertyOp17
 70
     1
102
RTVSPropertyOp18
 70
     1
102
RTVSPropertyOp19
 70
     1
102
RTVSPropertyOp20
 70
     1
102
RTVSPropertyOp21
 70
     1
102
RTVSPropertyOp22
 70
     1
102
RTVSPropertyOp23
 70
     1
102
RTVSPropertyOp24
 70
     1
102
RTVSPropertyOp25
 70
     1
102
RTVSPropertyOp26
 70
     1
102
RTVSPropertyOp27
 70
     1
102
RTVSPropertyOp28
 70
     1
102
RTVSPropertyOp29
 70
     1
102
RTVSPropertyOp30
 70
     1
102
RTVSPropertyOp31
 70
     1
102
RTVSPropertyOp32
 70
     1
102
RTVSPropertyOp33
 70
     1
102
RTVSPropertyOp34
 70
     1
102
RTVSPropertyOp35
 70
     1
102
RTVSPropertyOp36
 70
     1
102
RTVSPropertyOp37
 70
     1
102
RTVSPropertyOp38
 70
     1
102
RTVSPropertyOp39
 70
     1
102
RTVSPropertyOp40
 70
     1
102
RTVSPropertyOp41
 70
     1
102
RTVSPropertyOp42
 70
     1
102
RTVSPropertyOp43
 70
     1
102
RTVSPropertyOp44
 70
     1
102
RTVSPropertyOp45
 70
     1
102
RTVSPropertyOp46
 70
     1
102
RTVSPropertyOp47
 70
     1
102
RTVSPropertyOp48
 70
     1
102
RTVSPropertyOp49
 70
     1
102
RTVSPropertyOp50
 70
     1
102
RTVSPropertyOp51
 70
     0
102
RTVSPropertyOp52
 70
     0
102
RTVSPropertyOp53
 70
     1
102
RTVSPropertyOp54
 70
     1
102
RTVSPropertyOp55
 70
     1
102
RTVSPropertyOp56
 70
     1
102
RTVSPropertyOp57
 70
     1
102
RTVSPropertyOp58
 70
     1
102
RTVSPropertyOp59
 70
     1
102
RTVSPropertyOp60
 70
     1
102
RTVSPropertyOp61
 70
     1
102
RTVSPropertyOp62
 70
     1
  0
XRECORD
  5
466F
102
{ACAD_REACTORS
330
466E
102
}
330
466E
100
AcDbXrecord
280
     1
102
RTVSPost2010Prop28
280
     0
102
RTVSPost2010PropOp28
 70
     1
102
RTVSPost2010Prop29
280
     1
102
RTVSPost2010PropOp29
 70
     1
102
RTVSPost2010Prop30
280
     1
102
RTVSPost2010PropOp30
 70
     1
102
RTVSPost2010Prop31
280
     0
102
RTVSPost2010PropOp31
 70
     1
102
RTVSPost2010Prop32
280
     0
102
RTVSPost2010PropOp32
 70
     1
102
RTVSPost2010Prop33
280
     0
102
RTVSPost2010PropOp33
 70
     1
102
RTVSPost2010Prop34
280
     0
102
RTVSPost2010PropOp34
 70
     1
102
RTVSPost2010Prop35
280
     0
102
RTVSPost2010PropOp35
 70
     1
102
RTVSPost2010Prop36
280
     0
102
RTVSPost2010PropOp36
 70
     1
102
RTVSPost2010Prop37
 90
       50
102
RTVSPost2010PropOp37
 70
     1
102
RTVSPost2010Prop38
140
0.0
102
RTVSPost2010PropOp38
 70
     1
102
RTVSPost2010Prop39
140
1.0
102
RTVSPost2010PropOp39
 70
     1
102
RTVSPost2010Prop40
 90
        0
102
RTVSPost2010PropOp40
 70
     1
102
RTVSPost2010Prop41ColorIndex
 90
       18
102
RTVSPost2010Prop41ColorRGB
 90
        0
102
RTVSPost2010PropOp41
 70
     1
102
RTVSPost2010Prop42
 90
       50
102
RTVSPost2010PropOp42
 70
     1
102
RTVSPost2010Prop43
 90
        3
102
RTVSPost2010PropOp43
 70
     1
102
RTVSPost2010Prop44ColorIndex
 90
        5
102
RTVSPost2010Prop44ColorRGB
 90
      255
102
RTVSPost2010PropOp44
 70
     1
102
RTVSPost2010Prop45
280
     0
102
RTVSPost2010PropOp45
 70
     1
102
RTVSPost2010Prop46
 90
       50
102
RTVSPost2010PropOp46
 70
     1
102
RTVSPost2010Prop47
 90
       50
102
RTVSPost2010PropOp47
 70
     1
102
RTVSPost2010Prop48
 90
       50
102
RTVSPost2010PropOp48
 70
     1
102
RTVSPost2010Prop49
280
     0
102
RTVSPost2010PropOp49
 70
     1
102
RTVSPost2010Prop50
 90
       50
102
RTVSPost2010PropOp50
 70
     1
102
RTVSPost2010Prop51ColorIndex
 90
      256
102
RTVSPost2010Prop51ColorRGB
 90
-16777216
102
RTVSPost2010PropOp51
 70
     0
102
RTVSPost2010Prop52
140
1.0
102
RTVSPost2010PropOp52
 70
     0
102
RTVSPost2010Prop53
 90
        2
102
RTVSPost2010PropOp53
 70
     1
102
RTVSPost2010Prop54
  1
strokes_ogs.tif
102
RTVSPost2010PropOp54
 70
     1
102
RTVSPost2010Prop55
280
     0
102
RTVSPost2010PropOp55
 70
     1
102
RTVSPost2010Prop56
140
1.0
102
RTVSPost2010PropOp56
 70
     1
102
RTVSPost2010Prop57
140
1.0
102
RTVSPost2010PropOp57
 70
     1
102
RTVSPropertyOp0
 70
     1
102
RTVSPropertyOp1
 70
     1
102
RTVSPropertyOp2
 70
     1
102
RTVSPropertyOp3
 70
     1
102
RTVSPropertyOp4
 70
     1
102
RTVSPropertyOp5
 70
     1
102
RTVSPropertyOp6
 70
     1
102
RTVSPropertyOp7
 70
     1
102
RTVSPropertyOp8
 70
     1
102
RTVSPropertyOp9
 70
     1
102
RTVSPropertyOp10
 70
     1
102
RTVSPropertyOp11
 70
     1
102
RTVSPropertyOp12
 70
     1
102
RTVSPropertyOp13
 70
     1
102
RTVSPropertyOp14
 70
     1
102
RTVSPropertyOp15
 70
     1
102
RTVSPropertyOp16
 70
     1
102
RTVSPropertyOp17
 70
     1
102
RTVSPropertyOp18
 70
     1
102
RTVSPropertyOp19
 70
     1
102
RTVSPropertyOp20
 70
     1
102
RTVSPropertyOp21
 70
     1
102
RTVSPropertyOp22
 70
     1
102
RTVSPropertyOp23
 70
     1
102
RTVSPropertyOp24
 70
     1
102
RTVSPropertyOp25
 70
     1
102
RTVSPropertyOp26
 70
     1
102
RTVSPropertyOp27
 70
     1
102
RTVSPropertyOp28
 70
     1
102
RTVSPropertyOp29
 70
     1
102
RTVSPropertyOp30
 70
     1
102
RTVSPropertyOp31
 70
     1
102
RTVSPropertyOp32
 70
     1
102
RTVSPropertyOp33
 70
     1
102
RTVSPropertyOp34
 70
     1
102
RTVSPropertyOp35
 70
     1
102
RTVSPropertyOp36
 70
     1
102
RTVSPropertyOp37
 70
     1
102
RTVSPropertyOp38
 70
     1
102
RTVSPropertyOp39
 70
     1
102
RTVSPropertyOp40
 70
     1
102
RTVSPropertyOp41
 70
     1
102
RTVSPropertyOp42
 70
     1
102
RTVSPropertyOp43
 70
     1
102
RTVSPropertyOp44
 70
     1
102
RTVSPropertyOp45
 70
     1
102
RTVSPropertyOp46
 70
     1
102
RTVSPropertyOp47
 70
     1
102
RTVSPropertyOp48
 70
     1
102
RTVSPropertyOp49
 70
     1
102
RTVSPropertyOp50
 70
     1
102
RTVSPropertyOp51
 70
     0
102
RTVSPropertyOp52
 70
     0
102
RTVSPropertyOp53
 70
     1
102
RTVSPropertyOp54
 70
     1
102
RTVSPropertyOp55
 70
     1
102
RTVSPropertyOp56
 70
     1
102
RTVSPropertyOp57
 70
     1
102
RTVSPropertyOp58
 70
     1
102
RTVSPropertyOp59
 70
     1
102
RTVSPropertyOp60
 70
     1
102
RTVSPropertyOp61
 70
     1
102
RTVSPropertyOp62
 70
     1
  0
XRECORD
  5
4669
102
{ACAD_REACTORS
330
4668
102
}
330
4668
100
AcDbXrecord
280
     1
102
RTVSPost2010Prop28
280
     0
102
RTVSPost2010PropOp28
 70
     1
102
RTVSPost2010Prop29
280
     1
102
RTVSPost2010PropOp29
 70
     1
102
RTVSPost2010Prop30
280
     1
102
RTVSPost2010PropOp30
 70
     1
102
RTVSPost2010Prop31
280
     0
102
RTVSPost2010PropOp31
 70
     1
102
RTVSPost2010Prop32
280
     0
102
RTVSPost2010PropOp32
 70
     1
102
RTVSPost2010Prop33
280
     0
102
RTVSPost2010PropOp33
 70
     1
102
RTVSPost2010Prop34
280
     0
102
RTVSPost2010PropOp34
 70
     1
102
RTVSPost2010Prop35
280
     0
102
RTVSPost2010PropOp35
 70
     1
102
RTVSPost2010Prop36
280
     0
102
RTVSPost2010PropOp36
 70
     1
102
RTVSPost2010Prop37
 90
       50
102
RTVSPost2010PropOp37
 70
     1
102
RTVSPost2010Prop38
140
0.0
102
RTVSPost2010PropOp38
 70
     1
102
RTVSPost2010Prop39
140
1.0
102
RTVSPost2010PropOp39
 70
     1
102
RTVSPost2010Prop40
 90
        0
102
RTVSPost2010PropOp40
 70
     1
102
RTVSPost2010Prop41ColorIndex
 90
       18
102
RTVSPost2010Prop41ColorRGB
 90
        0
102
RTVSPost2010PropOp41
 70
     1
102
RTVSPost2010Prop42
 90
       50
102
RTVSPost2010PropOp42
 70
     1
102
RTVSPost2010Prop43
 90
        3
102
RTVSPost2010PropOp43
 70
     1
102
RTVSPost2010Prop44ColorIndex
 90
        5
102
RTVSPost2010Prop44ColorRGB
 90
      255
102
RTVSPost2010PropOp44
 70
     1
102
RTVSPost2010Prop45
280
     0
102
RTVSPost2010PropOp45
 70
     1
102
RTVSPost2010Prop46
 90
       50
102
RTVSPost2010PropOp46
 70
     1
102
RTVSPost2010Prop47
 90
       50
102
RTVSPost2010PropOp47
 70
     1
102
RTVSPost2010Prop48
 90
       50
102
RTVSPost2010PropOp48
 70
     1
102
RTVSPost2010Prop49
280
     0
102
RTVSPost2010PropOp49
 70
     1
102
RTVSPost2010Prop50
 90
       50
102
RTVSPost2010PropOp50
 70
     1
102
RTVSPost2010Prop51ColorIndex
 90
      256
102
RTVSPost2010Prop51ColorRGB
 90
-16777216
102
RTVSPost2010PropOp51
 70
     0
102
RTVSPost2010Prop52
140
1.0
102
RTVSPost2010PropOp52
 70
     0
102
RTVSPost2010Prop53
 90
        2
102
RTVSPost2010PropOp53
 70
     1
102
RTVSPost2010Prop54
  1
strokes_ogs.tif
102
RTVSPost2010PropOp54
 70
     1
102
RTVSPost2010Prop55
280
     0
102
RTVSPost2010PropOp55
 70
     1
102
RTVSPost2010Prop56
140
1.0
102
RTVSPost2010PropOp56
 70
     1
102
RTVSPost2010Prop57
140
1.0
102
RTVSPost2010PropOp57
 70
     1
102
RTVSPropertyOp0
 70
     1
102
RTVSPropertyOp1
 70
     1
102
RTVSPropertyOp2
 70
     1
102
RTVSPropertyOp3
 70
     1
102
RTVSPropertyOp4
 70
     1
102
RTVSPropertyOp5
 70
     1
102
RTVSPropertyOp6
 70
     1
102
RTVSPropertyOp7
 70
     1
102
RTVSPropertyOp8
 70
     1
102
RTVSPropertyOp9
 70
     1
102
RTVSPropertyOp10
 70
     1
102
RTVSPropertyOp11
 70
     1
102
RTVSPropertyOp12
 70
     1
102
RTVSPropertyOp13
 70
     1
102
RTVSPropertyOp14
 70
     1
102
RTVSPropertyOp15
 70
     1
102
RTVSPropertyOp16
 70
     1
102
RTVSPropertyOp17
 70
     1
102
RTVSPropertyOp18
 70
     1
102
RTVSPropertyOp19
 70
     1
102
RTVSPropertyOp20
 70
     1
102
RTVSPropertyOp21
 70
     1
102
RTVSPropertyOp22
 70
     1
102
RTVSPropertyOp23
 70
     1
102
RTVSPropertyOp24
 70
     1
102
RTVSPropertyOp25
 70
     1
102
RTVSPropertyOp26
 70
     1
102
RTVSPropertyOp27
 70
     1
102
RTVSPropertyOp28
 70
     1
102
RTVSPropertyOp29
 70
     1
102
RTVSPropertyOp30
 70
     1
102
RTVSPropertyOp31
 70
     1
102
RTVSPropertyOp32
 70
     1
102
RTVSPropertyOp33
 70
     1
102
RTVSPropertyOp34
 70
     1
102
RTVSPropertyOp35
 70
     1
102
RTVSPropertyOp36
 70
     1
102
RTVSPropertyOp37
 70
     1
102
RTVSPropertyOp38
 70
     1
102
RTVSPropertyOp39
 70
     1
102
RTVSPropertyOp40
 70
     1
102
RTVSPropertyOp41
 70
     1
102
RTVSPropertyOp42
 70
     1
102
RTVSPropertyOp43
 70
     1
102
RTVSPropertyOp44
 70
     1
102
RTVSPropertyOp45
 70
     1
102
RTVSPropertyOp46
 70
     1
102
RTVSPropertyOp47
 70
     1
102
RTVSPropertyOp48
 70
     1
102
RTVSPropertyOp49
 70
     1
102
RTVSPropertyOp50
 70
     1
102
RTVSPropertyOp51
 70
     0
102
RTVSPropertyOp52
 70
     0
102
RTVSPropertyOp53
 70
     1
102
RTVSPropertyOp54
 70
     1
102
RTVSPropertyOp55
 70
     1
102
RTVSPropertyOp56
 70
     1
102
RTVSPropertyOp57
 70
     1
102
RTVSPropertyOp58
 70
     1
102
RTVSPropertyOp59
 70
     1
102
RTVSPropertyOp60
 70
     1
102
RTVSPropertyOp61
 70
     1
102
RTVSPropertyOp62
 70
     1
  0
XRECORD
  5
466B
102
{ACAD_REACTORS
330
466A
102
}
330
466A
100
AcDbXrecord
280
     1
102
RTVSPost2010Prop28
280
     0
102
RTVSPost2010PropOp28
 70
     1
102
RTVSPost2010Prop29
280
     1
102
RTVSPost2010PropOp29
 70
     1
102
RTVSPost2010Prop30
280
     1
102
RTVSPost2010PropOp30
 70
     1
102
RTVSPost2010Prop31
280
     0
102
RTVSPost2010PropOp31
 70
     1
102
RTVSPost2010Prop32
280
     0
102
RTVSPost2010PropOp32
 70
     1
102
RTVSPost2010Prop33
280
     0
102
RTVSPost2010PropOp33
 70
     1
102
RTVSPost2010Prop34
280
     0
102
RTVSPost2010PropOp34
 70
     1
102
RTVSPost2010Prop35
280
     0
102
RTVSPost2010PropOp35
 70
     1
102
RTVSPost2010Prop36
280
     0
102
RTVSPost2010PropOp36
 70
     1
102
RTVSPost2010Prop37
 90
       50
102
RTVSPost2010PropOp37
 70
     1
102
RTVSPost2010Prop38
140
0.0
102
RTVSPost2010PropOp38
 70
     1
102
RTVSPost2010Prop39
140
1.0
102
RTVSPost2010PropOp39
 70
     1
102
RTVSPost2010Prop40
 90
        0
102
RTVSPost2010PropOp40
 70
     1
102
RTVSPost2010Prop41ColorIndex
 90
       18
102
RTVSPost2010Prop41ColorRGB
 90
        0
102
RTVSPost2010PropOp41
 70
     1
102
RTVSPost2010Prop42
 90
       50
102
RTVSPost2010PropOp42
 70
     1
102
RTVSPost2010Prop43
 90
        3
102
RTVSPost2010PropOp43
 70
     1
102
RTVSPost2010Prop44ColorIndex
 90
        5
102
RTVSPost2010Prop44ColorRGB
 90
      255
102
RTVSPost2010PropOp44
 70
     1
102
RTVSPost2010Prop45
280
     0
102
RTVSPost2010PropOp45
 70
     1
102
RTVSPost2010Prop46
 90
       50
102
RTVSPost2010PropOp46
 70
     1
102
RTVSPost2010Prop47
 90
       50
102
RTVSPost2010PropOp47
 70
     1
102
RTVSPost2010Prop48
 90
       50
102
RTVSPost2010PropOp48
 70
     1
102
RTVSPost2010Prop49
280
     0
102
RTVSPost2010PropOp49
 70
     1
102
RTVSPost2010Prop50
 90
       50
102
RTVSPost2010PropOp50
 70
     1
102
RTVSPost2010Prop51ColorIndex
 90
      256
102
RTVSPost2010Prop51ColorRGB
 90
-16777216
102
RTVSPost2010PropOp51
 70
     0
102
RTVSPost2010Prop52
140
1.0
102
RTVSPost2010PropOp52
 70
     0
102
RTVSPost2010Prop53
 90
        2
102
RTVSPost2010PropOp53
 70
     1
102
RTVSPost2010Prop54
  1
strokes_ogs.tif
102
RTVSPost2010PropOp54
 70
     1
102
RTVSPost2010Prop55
280
     0
102
RTVSPost2010PropOp55
 70
     1
102
RTVSPost2010Prop56
140
1.0
102
RTVSPost2010PropOp56
 70
     1
102
RTVSPost2010Prop57
140
1.0
102
RTVSPost2010PropOp57
 70
     1
102
RTVSPropertyOp0
 70
     1
102
RTVSPropertyOp1
 70
     1
102
RTVSPropertyOp2
 70
     1
102
RTVSPropertyOp3
 70
     1
102
RTVSPropertyOp4
 70
     1
102
RTVSPropertyOp5
 70
     1
102
RTVSPropertyOp6
 70
     1
102
RTVSPropertyOp7
 70
     1
102
RTVSPropertyOp8
 70
     1
102
RTVSPropertyOp9
 70
     1
102
RTVSPropertyOp10
 70
     1
102
RTVSPropertyOp11
 70
     1
102
RTVSPropertyOp12
 70
     1
102
RTVSPropertyOp13
 70
     1
102
RTVSPropertyOp14
 70
     1
102
RTVSPropertyOp15
 70
     1
102
RTVSPropertyOp16
 70
     1
102
RTVSPropertyOp17
 70
     1
102
RTVSPropertyOp18
 70
     1
102
RTVSPropertyOp19
 70
     1
102
RTVSPropertyOp20
 70
     1
102
RTVSPropertyOp21
 70
     1
102
RTVSPropertyOp22
 70
     1
102
RTVSPropertyOp23
 70
     1
102
RTVSPropertyOp24
 70
     1
102
RTVSPropertyOp25
 70
     1
102
RTVSPropertyOp26
 70
     1
102
RTVSPropertyOp27
 70
     1
102
RTVSPropertyOp28
 70
     1
102
RTVSPropertyOp29
 70
     1
102
RTVSPropertyOp30
 70
     1
102
RTVSPropertyOp31
 70
     1
102
RTVSPropertyOp32
 70
     1
102
RTVSPropertyOp33
 70
     1
102
RTVSPropertyOp34
 70
     1
102
RTVSPropertyOp35
 70
     1
102
RTVSPropertyOp36
 70
     1
102
RTVSPropertyOp37
 70
     1
102
RTVSPropertyOp38
 70
     1
102
RTVSPropertyOp39
 70
     1
102
RTVSPropertyOp40
 70
     1
102
RTVSPropertyOp41
 70
     1
102
RTVSPropertyOp42
 70
     1
102
RTVSPropertyOp43
 70
     1
102
RTVSPropertyOp44
 70
     1
102
RTVSPropertyOp45
 70
     1
102
RTVSPropertyOp46
 70
     1
102
RTVSPropertyOp47
 70
     1
102
RTVSPropertyOp48
 70
     1
102
RTVSPropertyOp49
 70
     1
102
RTVSPropertyOp50
 70
     1
102
RTVSPropertyOp51
 70
     0
102
RTVSPropertyOp52
 70
     0
102
RTVSPropertyOp53
 70
     1
102
RTVSPropertyOp54
 70
     1
102
RTVSPropertyOp55
 70
     1
102
RTVSPropertyOp56
 70
     1
102
RTVSPropertyOp57
 70
     1
102
RTVSPropertyOp58
 70
     1
102
RTVSPropertyOp59
 70
     1
102
RTVSPropertyOp60
 70
     1
102
RTVSPropertyOp61
 70
     1
102
RTVSPropertyOp62
 70
     1
  0
XRECORD
  5
465D
102
{ACAD_REACTORS
330
465C
102
}
330
465C
100
AcDbXrecord
280
     1
102
RTVSPost2010Prop28
280
     0
102
RTVSPost2010PropOp28
 70
     1
102
RTVSPost2010Prop29
280
     1
102
RTVSPost2010PropOp29
 70
     1
102
RTVSPost2010Prop30
280
     1
102
RTVSPost2010PropOp30
 70
     1
102
RTVSPost2010Prop31
280
     0
102
RTVSPost2010PropOp31
 70
     1
102
RTVSPost2010Prop32
280
     0
102
RTVSPost2010PropOp32
 70
     1
102
RTVSPost2010Prop33
280
     0
102
RTVSPost2010PropOp33
 70
     1
102
RTVSPost2010Prop34
280
     0
102
RTVSPost2010PropOp34
 70
     1
102
RTVSPost2010Prop35
280
     0
102
RTVSPost2010PropOp35
 70
     1
102
RTVSPost2010Prop36
280
     0
102
RTVSPost2010PropOp36
 70
     1
102
RTVSPost2010Prop37
 90
       50
102
RTVSPost2010PropOp37
 70
     1
102
RTVSPost2010Prop38
140
0.0
102
RTVSPost2010PropOp38
 70
     1
102
RTVSPost2010Prop39
140
1.0
102
RTVSPost2010PropOp39
 70
     1
102
RTVSPost2010Prop40
 90
        0
102
RTVSPost2010PropOp40
 70
     1
102
RTVSPost2010Prop41ColorIndex
 90
       18
102
RTVSPost2010Prop41ColorRGB
 90
        0
102
RTVSPost2010PropOp41
 70
     1
102
RTVSPost2010Prop42
 90
       50
102
RTVSPost2010PropOp42
 70
     1
102
RTVSPost2010Prop43
 90
        3
102
RTVSPost2010PropOp43
 70
     1
102
RTVSPost2010Prop44ColorIndex
 90
        5
102
RTVSPost2010Prop44ColorRGB
 90
      255
102
RTVSPost2010PropOp44
 70
     1
102
RTVSPost2010Prop45
280
     0
102
RTVSPost2010PropOp45
 70
     1
102
RTVSPost2010Prop46
 90
       50
102
RTVSPost2010PropOp46
 70
     1
102
RTVSPost2010Prop47
 90
       50
102
RTVSPost2010PropOp47
 70
     1
102
RTVSPost2010Prop48
 90
       50
102
RTVSPost2010PropOp48
 70
     1
102
RTVSPost2010Prop49
280
     0
102
RTVSPost2010PropOp49
 70
     1
102
RTVSPost2010Prop50
 90
       50
102
RTVSPost2010PropOp50
 70
     1
102
RTVSPost2010Prop51ColorIndex
 90
      256
102
RTVSPost2010Prop51ColorRGB
 90
-16777216
102
RTVSPost2010PropOp51
 70
     0
102
RTVSPost2010Prop52
140
1.0
102
RTVSPost2010PropOp52
 70
     0
102
RTVSPost2010Prop53
 90
        2
102
RTVSPost2010PropOp53
 70
     1
102
RTVSPost2010Prop54
  1
strokes_ogs.tif
102
RTVSPost2010PropOp54
 70
     1
102
RTVSPost2010Prop55
280
     0
102
RTVSPost2010PropOp55
 70
     1
102
RTVSPost2010Prop56
140
1.0
102
RTVSPost2010PropOp56
 70
     1
102
RTVSPost2010Prop57
140
1.0
102
RTVSPost2010PropOp57
 70
     1
102
RTVSPropertyOp0
 70
     1
102
RTVSPropertyOp1
 70
     1
102
RTVSPropertyOp2
 70
     1
102
RTVSPropertyOp3
 70
     1
102
RTVSPropertyOp4
 70
     1
102
RTVSPropertyOp5
 70
     1
102
RTVSPropertyOp6
 70
     1
102
RTVSPropertyOp7
 70
     1
102
RTVSPropertyOp8
 70
     1
102
RTVSPropertyOp9
 70
     1
102
RTVSPropertyOp10
 70
     1
102
RTVSPropertyOp11
 70
     1
102
RTVSPropertyOp12
 70
     1
102
RTVSPropertyOp13
 70
     1
102
RTVSPropertyOp14
 70
     1
102
RTVSPropertyOp15
 70
     1
102
RTVSPropertyOp16
 70
     1
102
RTVSPropertyOp17
 70
     1
102
RTVSPropertyOp18
 70
     1
102
RTVSPropertyOp19
 70
     1
102
RTVSPropertyOp20
 70
     1
102
RTVSPropertyOp21
 70
     1
102
RTVSPropertyOp22
 70
     1
102
RTVSPropertyOp23
 70
     1
102
RTVSPropertyOp24
 70
     1
102
RTVSPropertyOp25
 70
     1
102
RTVSPropertyOp26
 70
     1
102
RTVSPropertyOp27
 70
     1
102
RTVSPropertyOp28
 70
     1
102
RTVSPropertyOp29
 70
     1
102
RTVSPropertyOp30
 70
     1
102
RTVSPropertyOp31
 70
     1
102
RTVSPropertyOp32
 70
     1
102
RTVSPropertyOp33
 70
     1
102
RTVSPropertyOp34
 70
     1
102
RTVSPropertyOp35
 70
     1
102
RTVSPropertyOp36
 70
     1
102
RTVSPropertyOp37
 70
     1
102
RTVSPropertyOp38
 70
     1
102
RTVSPropertyOp39
 70
     1
102
RTVSPropertyOp40
 70
     1
102
RTVSPropertyOp41
 70
     1
102
RTVSPropertyOp42
 70
     1
102
RTVSPropertyOp43
 70
     1
102
RTVSPropertyOp44
 70
     1
102
RTVSPropertyOp45
 70
     1
102
RTVSPropertyOp46
 70
     1
102
RTVSPropertyOp47
 70
     1
102
RTVSPropertyOp48
 70
     1
102
RTVSPropertyOp49
 70
     1
102
RTVSPropertyOp50
 70
     1
102
RTVSPropertyOp51
 70
     0
102
RTVSPropertyOp52
 70
     0
102
RTVSPropertyOp53
 70
     1
102
RTVSPropertyOp54
 70
     1
102
RTVSPropertyOp55
 70
     1
102
RTVSPropertyOp56
 70
     1
102
RTVSPropertyOp57
 70
     1
102
RTVSPropertyOp58
 70
     1
102
RTVSPropertyOp59
 70
     1
102
RTVSPropertyOp60
 70
     1
102
RTVSPropertyOp61
 70
     1
102
RTVSPropertyOp62
 70
     1
  0
XRECORD
  5
4665
102
{ACAD_REACTORS
330
4664
102
}
330
4664
100
AcDbXrecord
280
     1
102
RTVSPost2010Prop28
280
     0
102
RTVSPost2010PropOp28
 70
     1
102
RTVSPost2010Prop29
280
     1
102
RTVSPost2010PropOp29
 70
     1
102
RTVSPost2010Prop30
280
     1
102
RTVSPost2010PropOp30
 70
     1
102
RTVSPost2010Prop31
280
     0
102
RTVSPost2010PropOp31
 70
     1
102
RTVSPost2010Prop32
280
     0
102
RTVSPost2010PropOp32
 70
     1
102
RTVSPost2010Prop33
280
     0
102
RTVSPost2010PropOp33
 70
     1
102
RTVSPost2010Prop34
280
     0
102
RTVSPost2010PropOp34
 70
     1
102
RTVSPost2010Prop35
280
     0
102
RTVSPost2010PropOp35
 70
     1
102
RTVSPost2010Prop36
280
     0
102
RTVSPost2010PropOp36
 70
     1
102
RTVSPost2010Prop37
 90
       50
102
RTVSPost2010PropOp37
 70
     1
102
RTVSPost2010Prop38
140
0.0
102
RTVSPost2010PropOp38
 70
     1
102
RTVSPost2010Prop39
140
1.0
102
RTVSPost2010PropOp39
 70
     1
102
RTVSPost2010Prop40
 90
        0
102
RTVSPost2010PropOp40
 70
     1
102
RTVSPost2010Prop41ColorIndex
 90
       18
102
RTVSPost2010Prop41ColorRGB
 90
        0
102
RTVSPost2010PropOp41
 70
     1
102
RTVSPost2010Prop42
 90
       50
102
RTVSPost2010PropOp42
 70
     1
102
RTVSPost2010Prop43
 90
        3
102
RTVSPost2010PropOp43
 70
     1
102
RTVSPost2010Prop44ColorIndex
 90
        5
102
RTVSPost2010Prop44ColorRGB
 90
      255
102
RTVSPost2010PropOp44
 70
     1
102
RTVSPost2010Prop45
280
     0
102
RTVSPost2010PropOp45
 70
     1
102
RTVSPost2010Prop46
 90
       50
102
RTVSPost2010PropOp46
 70
     1
102
RTVSPost2010Prop47
 90
       50
102
RTVSPost2010PropOp47
 70
     1
102
RTVSPost2010Prop48
 90
       50
102
RTVSPost2010PropOp48
 70
     1
102
RTVSPost2010Prop49
280
     0
102
RTVSPost2010PropOp49
 70
     1
102
RTVSPost2010Prop50
 90
       50
102
RTVSPost2010PropOp50
 70
     1
102
RTVSPost2010Prop51ColorIndex
 90
      256
102
RTVSPost2010Prop51ColorRGB
 90
-16777216
102
RTVSPost2010PropOp51
 70
     0
102
RTVSPost2010Prop52
140
1.0
102
RTVSPost2010PropOp52
 70
     0
102
RTVSPost2010Prop53
 90
        2
102
RTVSPost2010PropOp53
 70
     1
102
RTVSPost2010Prop54
  1
strokes_ogs.tif
102
RTVSPost2010PropOp54
 70
     1
102
RTVSPost2010Prop55
280
     0
102
RTVSPost2010PropOp55
 70
     1
102
RTVSPost2010Prop56
140
1.0
102
RTVSPost2010PropOp56
 70
     1
102
RTVSPost2010Prop57
140
1.0
102
RTVSPost2010PropOp57
 70
     1
102
RTVSPropertyOp0
 70
     1
102
RTVSPropertyOp1
 70
     1
102
RTVSPropertyOp2
 70
     1
102
RTVSPropertyOp3
 70
     1
102
RTVSPropertyOp4
 70
     1
102
RTVSPropertyOp5
 70
     1
102
RTVSPropertyOp6
 70
     1
102
RTVSPropertyOp7
 70
     1
102
RTVSPropertyOp8
 70
     1
102
RTVSPropertyOp9
 70
     1
102
RTVSPropertyOp10
 70
     1
102
RTVSPropertyOp11
 70
     1
102
RTVSPropertyOp12
 70
     1
102
RTVSPropertyOp13
 70
     1
102
RTVSPropertyOp14
 70
     1
102
RTVSPropertyOp15
 70
     1
102
RTVSPropertyOp16
 70
     1
102
RTVSPropertyOp17
 70
     1
102
RTVSPropertyOp18
 70
     1
102
RTVSPropertyOp19
 70
     1
102
RTVSPropertyOp20
 70
     1
102
RTVSPropertyOp21
 70
     1
102
RTVSPropertyOp22
 70
     1
102
RTVSPropertyOp23
 70
     1
102
RTVSPropertyOp24
 70
     1
102
RTVSPropertyOp25
 70
     1
102
RTVSPropertyOp26
 70
     1
102
RTVSPropertyOp27
 70
     1
102
RTVSPropertyOp28
 70
     1
102
RTVSPropertyOp29
 70
     1
102
RTVSPropertyOp30
 70
     1
102
RTVSPropertyOp31
 70
     1
102
RTVSPropertyOp32
 70
     1
102
RTVSPropertyOp33
 70
     1
102
RTVSPropertyOp34
 70
     1
102
RTVSPropertyOp35
 70
     1
102
RTVSPropertyOp36
 70
     1
102
RTVSPropertyOp37
 70
     1
102
RTVSPropertyOp38
 70
     1
102
RTVSPropertyOp39
 70
     1
102
RTVSPropertyOp40
 70
     1
102
RTVSPropertyOp41
 70
     1
102
RTVSPropertyOp42
 70
     1
102
RTVSPropertyOp43
 70
     1
102
RTVSPropertyOp44
 70
     1
102
RTVSPropertyOp45
 70
     1
102
RTVSPropertyOp46
 70
     1
102
RTVSPropertyOp47
 70
     1
102
RTVSPropertyOp48
 70
     1
102
RTVSPropertyOp49
 70
     1
102
RTVSPropertyOp50
 70
     1
102
RTVSPropertyOp51
 70
     0
102
RTVSPropertyOp52
 70
     0
102
RTVSPropertyOp53
 70
     1
102
RTVSPropertyOp54
 70
     1
102
RTVSPropertyOp55
 70
     1
102
RTVSPropertyOp56
 70
     1
102
RTVSPropertyOp57
 70
     1
102
RTVSPropertyOp58
 70
     1
102
RTVSPropertyOp59
 70
     1
102
RTVSPropertyOp60
 70
     1
102
RTVSPropertyOp61
 70
     1
102
RTVSPropertyOp62
 70
     1
  0
XRECORD
  5
466D
102
{ACAD_REACTORS
330
466C
102
}
330
466C
100
AcDbXrecord
280
     1
102
RTVSPost2010Prop28
280
     0
102
RTVSPost2010PropOp28
 70
     1
102
RTVSPost2010Prop29
280
     1
102
RTVSPost2010PropOp29
 70
     1
102
RTVSPost2010Prop30
280
     1
102
RTVSPost2010PropOp30
 70
     1
102
RTVSPost2010Prop31
280
     0
102
RTVSPost2010PropOp31
 70
     1
102
RTVSPost2010Prop32
280
     0
102
RTVSPost2010PropOp32
 70
     1
102
RTVSPost2010Prop33
280
     0
102
RTVSPost2010PropOp33
 70
     1
102
RTVSPost2010Prop34
280
     0
102
RTVSPost2010PropOp34
 70
     1
102
RTVSPost2010Prop35
280
     0
102
RTVSPost2010PropOp35
 70
     1
102
RTVSPost2010Prop36
280
     0
102
RTVSPost2010PropOp36
 70
     1
102
RTVSPost2010Prop37
 90
       50
102
RTVSPost2010PropOp37
 70
     1
102
RTVSPost2010Prop38
140
0.0
102
RTVSPost2010PropOp38
 70
     1
102
RTVSPost2010Prop39
140
1.0
102
RTVSPost2010PropOp39
 70
     1
102
RTVSPost2010Prop40
 90
        0
102
RTVSPost2010PropOp40
 70
     1
102
RTVSPost2010Prop41ColorIndex
 90
       18
102
RTVSPost2010Prop41ColorRGB
 90
        0
102
RTVSPost2010PropOp41
 70
     1
102
RTVSPost2010Prop42
 90
       50
102
RTVSPost2010PropOp42
 70
     1
102
RTVSPost2010Prop43
 90
        3
102
RTVSPost2010PropOp43
 70
     1
102
RTVSPost2010Prop44ColorIndex
 90
        5
102
RTVSPost2010Prop44ColorRGB
 90
      255
102
RTVSPost2010PropOp44
 70
     1
102
RTVSPost2010Prop45
280
     0
102
RTVSPost2010PropOp45
 70
     1
102
RTVSPost2010Prop46
 90
       50
102
RTVSPost2010PropOp46
 70
     1
102
RTVSPost2010Prop47
 90
       50
102
RTVSPost2010PropOp47
 70
     1
102
RTVSPost2010Prop48
 90
       50
102
RTVSPost2010PropOp48
 70
     1
102
RTVSPost2010Prop49
280
     0
102
RTVSPost2010PropOp49
 70
     1
102
RTVSPost2010Prop50
 90
       50
102
RTVSPost2010PropOp50
 70
     1
102
RTVSPost2010Prop51ColorIndex
 90
      256
102
RTVSPost2010Prop51ColorRGB
 90
-16777216
102
RTVSPost2010PropOp51
 70
     0
102
RTVSPost2010Prop52
140
1.0
102
RTVSPost2010PropOp52
 70
     0
102
RTVSPost2010Prop53
 90
        2
102
RTVSPost2010PropOp53
 70
     1
102
RTVSPost2010Prop54
  1
strokes_ogs.tif
102
RTVSPost2010PropOp54
 70
     1
102
RTVSPost2010Prop55
280
     0
102
RTVSPost2010PropOp55
 70
     1
102
RTVSPost2010Prop56
140
1.0
102
RTVSPost2010PropOp56
 70
     1
102
RTVSPost2010Prop57
140
1.0
102
RTVSPost2010PropOp57
 70
     1
102
RTVSPropertyOp0
 70
     1
102
RTVSPropertyOp1
 70
     1
102
RTVSPropertyOp2
 70
     1
102
RTVSPropertyOp3
 70
     1
102
RTVSPropertyOp4
 70
     1
102
RTVSPropertyOp5
 70
     1
102
RTVSPropertyOp6
 70
     1
102
RTVSPropertyOp7
 70
     1
102
RTVSPropertyOp8
 70
     1
102
RTVSPropertyOp9
 70
     1
102
RTVSPropertyOp10
 70
     1
102
RTVSPropertyOp11
 70
     1
102
RTVSPropertyOp12
 70
     1
102
RTVSPropertyOp13
 70
     1
102
RTVSPropertyOp14
 70
     1
102
RTVSPropertyOp15
 70
     1
102
RTVSPropertyOp16
 70
     1
102
RTVSPropertyOp17
 70
     1
102
RTVSPropertyOp18
 70
     1
102
RTVSPropertyOp19
 70
     1
102
RTVSPropertyOp20
 70
     1
102
RTVSPropertyOp21
 70
     1
102
RTVSPropertyOp22
 70
     1
102
RTVSPropertyOp23
 70
     1
102
RTVSPropertyOp24
 70
     1
102
RTVSPropertyOp25
 70
     1
102
RTVSPropertyOp26
 70
     1
102
RTVSPropertyOp27
 70
     1
102
RTVSPropertyOp28
 70
     1
102
RTVSPropertyOp29
 70
     1
102
RTVSPropertyOp30
 70
     1
102
RTVSPropertyOp31
 70
     1
102
RTVSPropertyOp32
 70
     1
102
RTVSPropertyOp33
 70
     1
102
RTVSPropertyOp34
 70
     1
102
RTVSPropertyOp35
 70
     1
102
RTVSPropertyOp36
 70
     1
102
RTVSPropertyOp37
 70
     1
102
RTVSPropertyOp38
 70
     1
102
RTVSPropertyOp39
 70
     1
102
RTVSPropertyOp40
 70
     1
102
RTVSPropertyOp41
 70
     1
102
RTVSPropertyOp42
 70
     1
102
RTVSPropertyOp43
 70
     1
102
RTVSPropertyOp44
 70
     1
102
RTVSPropertyOp45
 70
     1
102
RTVSPropertyOp46
 70
     1
102
RTVSPropertyOp47
 70
     1
102
RTVSPropertyOp48
 70
     1
102
RTVSPropertyOp49
 70
     1
102
RTVSPropertyOp50
 70
     1
102
RTVSPropertyOp51
 70
     0
102
RTVSPropertyOp52
 70
     0
102
RTVSPropertyOp53
 70
     1
102
RTVSPropertyOp54
 70
     1
102
RTVSPropertyOp55
 70
     1
102
RTVSPropertyOp56
 70
     1
102
RTVSPropertyOp57
 70
     1
102
RTVSPropertyOp58
 70
     1
102
RTVSPropertyOp59
 70
     1
102
RTVSPropertyOp60
 70
     1
102
RTVSPropertyOp61
 70
     1
102
RTVSPropertyOp62
 70
     1
  0
ENDSEC
  0
EOF
