  0
SECTION
  2
HEADER
  9
$ACADVER
  1
AC1018
  9
$ACADMAINTVER
 70
   104
  9
$DWGCODEPAGE
  3
ANSI_1252
  9
$LASTSAVEDBY
  1
dweyer
  9
$INSBASE
 10
0.0
 20
0.0
 30
0.0
  9
$EXTMIN
 10
-0.7883638221367111
 20
-2.575807391661656
 30
0.0
  9
$EXTMAX
 10
10.31874616393905
 20
6.409069739670239
 30
0.03
  9
$LIMMIN
 10
0.0
 20
0.0
  9
$LIMMAX
 10
12.0
 20
9.0
  9
$ORTHOMODE
 70
     1
  9
$REGENMODE
 70
     1
  9
$FILLMODE
 70
     1
  9
$QTEXTMODE
 70
     0
  9
$MIRRTEXT
 70
     0
  9
$LTSCALE
 40
1.0
  9
$ATTMODE
 70
     1
  9
$TEXTSIZE
 40
0.125
  9
$TRACEWID
 40
0.05
  9
$TEXTSTYLE
  7
ROMANS
  9
$CLAYER
  8
image
  9
$CELTYPE
  6
ByLayer
  9
$CECOLOR
 62
   256
  9
$CELTSCALE
 40
1.0
  9
$DISPSILH
 70
     0
  9
$DIMSCALE
 40
1.0
  9
$DIMASZ
 40
0.18
  9
$DIMEXO
 40
0.0625
  9
$DIMDLI
 40
0.38
  9
$DIMRND
 40
0.0
  9
$DIMDLE
 40
0.0
  9
$DIMEXE
 40
0.125
  9
$DIMTP
 40
0.0
  9
$DIMTM
 40
0.0
  9
$DIMTXT
 40
0.125
  9
$DIMCEN
 40
0.09
  9
$DIMTSZ
 40
0.0
  9
$DIMTOL
 70
     0
  9
$DIMLIM
 70
     0
  9
$DIMTIH
 70
     1
  9
$DIMTOH
 70
     1
  9
$DIMSE1
 70
     0
  9
$DIMSE2
 70
     0
  9
$DIMTAD
 70
     0
  9
$DIMZIN
 70
     0
  9
$DIMBLK
  1

  9
$DIMASO
 70
     1
  9
$DIMSHO
 70
     1
  9
$DIMPOST
  1

  9
$DIMAPOST
  1

  9
$DIMALT
 70
     0
  9
$DIMALTD
 70
     2
  9
$DIMALTF
 40
25.4
  9
$DIMLFAC
 40
1.0
  9
$DIMTOFL
 70
     0
  9
$DIMTVP
 40
0.0
  9
$DIMTIX
 70
     0
  9
$DIMSOXD
 70
     0
  9
$DIMSAH
 70
     0
  9
$DIMBLK1
  1

  9
$DIMBLK2
  1

  9
$DIMSTYLE
  2
Standard
  9
$DIMCLRD
 70
   256
  9
$DIMCLRE
 70
   256
  9
$DIMCLRT
 70
   256
  9
$DIMTFAC
 40
1.0
  9
$DIMGAP
 40
0.09
  9
$DIMJUST
 70
     0
  9
$DIMSD1
 70
     0
  9
$DIMSD2
 70
     0
  9
$DIMTOLJ
 70
     1
  9
$DIMTZIN
 70
     0
  9
$DIMALTZ
 70
     0
  9
$DIMALTTZ
 70
     0
  9
$DIMUPT
 70
     0
  9
$DIMDEC
 70
     4
  9
$DIMTDEC
 70
     4
  9
$DIMALTU
 70
     2
  9
$DIMALTTD
 70
     2
  9
$DIMTXSTY
  7
Arial
  9
$DIMAUNIT
 70
     0
  9
$DIMADEC
 70
     0
  9
$DIMALTRND
 40
0.0
  9
$DIMAZIN
 70
     0
  9
$DIMDSEP
 70
    46
  9
$DIMATFIT
 70
     3
  9
$DIMFRAC
 70
     0
  9
$DIMLDRBLK
  1

  9
$DIMLUNIT
 70
     2
  9
$DIMLWD
 70
    -1
  9
$DIMLWE
 70
    -1
  9
$DIMTMOVE
 70
     2
  9
$LUNITS
 70
     2
  9
$LUPREC
 70
     3
  9
$SKETCHINC
 40
0.1
  9
$FILLETRAD
 40
0.0
  9
$AUNITS
 70
     0
  9
$AUPREC
 70
     0
  9
$MENU
  1
ACAD
  9
$ELEVATION
 40
0.0
  9
$PELEVATION
 40
0.0
  9
$THICKNESS
 40
0.0
  9
$LIMCHECK
 70
     0
  9
$CHAMFERA
 40
0.0
  9
$CHAMFERB
 40
0.0
  9
$CHAMFERC
 40
0.0
  9
$CHAMFERD
 40
0.0
  9
$SKPOLY
 70
     0
  9
$TDCREATE
 40
2449623.385097569
  9
$TDUCREATE
 40
2449623.676764236
  9
$TDUPDATE
 40
2455215.472248646
  9
$TDUUPDATE
 40
2455215.763915313
  9
$TDINDWG
 40
0.7034374653
  9
$TDUSRTIMER
 40
0.7034374653
  9
$USRTIMER
 70
     1
  9
$ANGBASE
 50
0.0
  9
$ANGDIR
 70
     0
  9
$PDMODE
 70
     0
  9
$PDSIZE
 40
0.0
  9
$PLINEWID
 40
0.0
  9
$SPLFRAME
 70
     0
  9
$SPLINETYPE
 70
     6
  9
$SPLINESEGS
 70
     8
  9
$HANDSEED
  5
1FDF
  9
$SURFTAB1
 70
     6
  9
$SURFTAB2
 70
     6
  9
$SURFTYPE
 70
     6
  9
$SURFU
 70
     6
  9
$SURFV
 70
     6
  9
$UCSBASE
  2

  9
$UCSNAME
  2

  9
$UCSORG
 10
0.0
 20
0.0
 30
0.0
  9
$UCSXDIR
 10
1.0
 20
0.0
 30
0.0
  9
$UCSYDIR
 10
0.0
 20
1.0
 30
0.0
  9
$UCSORTHOREF
  2

  9
$UCSORTHOVIEW
 70
     0
  9
$UCSORGTOP
 10
0.0
 20
0.0
 30
0.0
  9
$UCSORGBOTTOM
 10
0.0
 20
0.0
 30
0.0
  9
$UCSORGLEFT
 10
0.0
 20
0.0
 30
0.0
  9
$UCSORGRIGHT
 10
0.0
 20
0.0
 30
0.0
  9
$UCSORGFRONT
 10
0.0
 20
0.0
 30
0.0
  9
$UCSORGBACK
 10
0.0
 20
0.0
 30
0.0
  9
$PUCSBASE
  2

  9
$PUCSNAME
  2

  9
$PUCSORG
 10
0.0
 20
0.0
 30
0.0
  9
$PUCSXDIR
 10
1.0
 20
0.0
 30
0.0
  9
$PUCSYDIR
 10
0.0
 20
1.0
 30
0.0
  9
$PUCSORTHOREF
  2

  9
$PUCSORTHOVIEW
 70
     0
  9
$PUCSORGTOP
 10
0.0
 20
0.0
 30
0.0
  9
$PUCSORGBOTTOM
 10
0.0
 20
0.0
 30
0.0
  9
$PUCSORGLEFT
 10
0.0
 20
0.0
 30
0.0
  9
$PUCSORGRIGHT
 10
0.0
 20
0.0
 30
0.0
  9
$PUCSORGFRONT
 10
0.0
 20
0.0
 30
0.0
  9
$PUCSORGBACK
 10
0.0
 20
0.0
 30
0.0
  9
$USERI1
 70
     0
  9
$USERI2
 70
     0
  9
$USERI3
 70
     0
  9
$USERI4
 70
     0
  9
$USERI5
 70
     0
  9
$USERR1
 40
0.0
  9
$USERR2
 40
0.0
  9
$USERR3
 40
0.0
  9
$USERR4
 40
0.0
  9
$USERR5
 40
0.0
  9
$WORLDVIEW
 70
     1
  9
$SHADEDGE
 70
     3
  9
$SHADEDIF
 70
    70
  9
$TILEMODE
 70
     1
  9
$MAXACTVP
 70
    16
  9
$PINSBASE
 10
0.0
 20
0.0
 30
0.0
  9
$PLIMCHECK
 70
     0
  9
$PEXTMIN
 10
1.000000000000000E+20
 20
1.000000000000000E+20
 30
1.000000000000000E+20
  9
$PEXTMAX
 10
-1.000000000000000E+20
 20
-1.000000000000000E+20
 30
-1.000000000000000E+20
  9
$PLIMMIN
 10
0.0
 20
0.0
  9
$PLIMMAX
 10
12.0
 20
9.0
  9
$UNITMODE
 70
     0
  9
$VISRETAIN
 70
     0
  9
$PLINEGEN
 70
     1
  9
$PSLTSCALE
 70
     1
  9
$TREEDEPTH
 70
  3020
  9
$CMLSTYLE
  2
Standard
  9
$CMLJUST
 70
     0
  9
$CMLSCALE
 40
1.0
  9
$PROXYGRAPHICS
 70
     1
  9
$MEASUREMENT
 70
     0
  9
$CELWEIGHT
370
    -1
  9
$ENDCAPS
280
     0
  9
$JOINSTYLE
280
     0
  9
$LWDISPLAY
290
     0
  9
$INSUNITS
 70
     0
  9
$HYPERLINKBASE
  1

  9
$STYLESHEET
  1
pdf bw shaded.ctb
  9
$XEDIT
290
     1
  9
$CEPSNTYPE
380
     0
  9
$PSTYLEMODE
290
     1
  9
$FINGERPRINTGUID
  2
{BABA690E-B222-4C7F-A977-1D628397D578}
  9
$VERSIONGUID
  2
{29C97D65-BCBF-42CA-979D-E5733D6D60B5}
  9
$EXTNAMES
290
     1
  9
$PSVPSCALE
 40
0.0
  9
$OLESTARTUP
290
     1
  9
$SORTENTS
280
    48
  9
$INDEXCTL
280
     0
  9
$HIDETEXT
280
     1
  9
$XCLIPFRAME
290
     0
  9
$HALOGAP
280
     0
  9
$OBSCOLOR
 70
   257
  9
$OBSLTYPE
280
     0
  9
$INTERSECTIONDISPLAY
280
     0
  9
$INTERSECTIONCOLOR
 70
   257
  9
$DIMASSOC
280
     1
  9
$PROJECTNAME
  1

  0
ENDSEC
  0
SECTION
  2
CLASSES
  0
CLASS
  1
ACDBDICTIONARYWDFLT
  2
AcDbDictionaryWithDefault
  3
ObjectDBX Classes
 90
        0
 91
        1
280
     0
281
     0
  0
CLASS
  1
DICTIONARYVAR
  2
AcDbDictionaryVar
  3
ObjectDBX Classes
 90
        0
 91
       12
280
     0
281
     0
  0
CLASS
  1
PLOTSETTINGS
  2
AcDbPlotSettings
  3
ObjectDBX Classes
 90
        0
 91
       76
280
     0
281
     0
  0
CLASS
  1
MATERIAL
  2
AcDbMaterial
  3
ObjectDBX Classes
 90
     1153
 91
        3
280
     0
281
     0
  0
CLASS
  1
VISUALSTYLE
  2
AcDbVisualStyle
  3
ObjectDBX Classes
 90
     4095
 91
       16
280
     0
281
     0
  0
CLASS
  1
TABLESTYLE
  2
AcDbTableStyle
  3
ObjectDBX Classes
 90
     4095
 91
        1
280
     0
281
     0
  0
CLASS
  1
SCALE
  2
AcDbScale
  3
ObjectDBX Classes
 90
     1153
 91
       33
280
     0
281
     0
  0
CLASS
  1
MLEADERSTYLE
  2
AcDbMLeaderStyle
  3
ACDB_MLEADERSTYLE_CLASS
 90
     4095
 91
        1
280
     0
281
     0
  0
CLASS
  1
EXACXREFPANELOBJECT
  2
ExAcXREFPanelObject
  3
EXAC_ESW
 90
     1025
 91
        0
280
     0
281
     0
  0
CLASS
  1
NPOCOLLECTION
  2
AcDbImpNonPersistentObjectsCollection
  3
ObjectDBX Classes
 90
     1153
 91
        0
280
     0
281
     0
  0
CLASS
  1
LAYER_INDEX
  2
AcDbLayerIndex
  3
ObjectDBX Classes
 90
        0
 91
        0
280
     0
281
     0
  0
CLASS
  1
SPATIAL_INDEX
  2
AcDbSpatialIndex
  3
ObjectDBX Classes
 90
        0
 91
        0
280
     0
281
     0
  0
CLASS
  1
IDBUFFER
  2
AcDbIdBuffer
  3
ObjectDBX Classes
 90
        0
 91
        4
280
     0
281
     0
  0
CLASS
  1
CELLSTYLEMAP
  2
AcDbCellStyleMap
  3
ObjectDBX Classes
 90
     1152
 91
        8
280
     0
281
     0
  0
CLASS
  1
AEC_REFEDIT_STATUS_TRACKER
  2
AecDbRefEditStatusTracker
  3
AecArchBase50|Product Desc: Autodesk Architectural Desktop 2007 |Company: Autodesk,Inc. |WEB Address: www.autodesk.com
 90
      129
 91
        0
280
     0
281
     0
  0
CLASS
  1
SORTENTSTABLE
  2
AcDbSortentsTable
  3
ObjectDBX Classes
 90
        0
 91
        2
280
     0
281
     0
  0
ENDSEC
  0
SECTION
  2
TABLES
  0
TABLE
  2
VPORT
  5
8
330
0
100
AcDbSymbolTable
 70
     1
  0
VPORT
  5
1B89
330
8
100
AcDbSymbolTableRecord
100
AcDbViewportTableRecord
  2
*Active
 70
     0
 10
0.0
 20
0.0
 11
1.0
 21
1.0
 12
4.765191170901172
 22
1.916631174004291
 13
0.0
 23
0.0
 14
0.14
 24
0.14
 15
0.14
 25
0.14
 16
0.0
 26
0.0
 36
1.0
 17
0.0
 27
0.0
 37
0.0
 40
9.064624561491646
 41
2.308148148148148
 42
50.0
 43
0.0
 44
0.0
 50
0.0
 51
0.0
 71
     0
 72
  4000
 73
     1
 74
     1
 75
     0
 76
     0
 77
     0
 78
     0
281
     0
 65
     1
110
0.0
120
0.0
130
0.0
111
1.0
121
0.0
131
0.0
112
0.0
122
1.0
132
0.0
 79
     0
146
0.0
  0
ENDTAB
  0
TABLE
  2
LTYPE
  5
5
330
0
100
AcDbSymbolTable
 70
     1
  0
LTYPE
  5
13
330
5
100
AcDbSymbolTableRecord
100
AcDbLinetypeTableRecord
  2
ByBlock
 70
     0
  3

 72
    65
 73
     0
 40
0.0
  0
LTYPE
  5
14
330
5
100
AcDbSymbolTableRecord
100
AcDbLinetypeTableRecord
  2
ByLayer
 70
     0
  3

 72
    65
 73
     0
 40
0.0
  0
LTYPE
  5
15
330
5
100
AcDbSymbolTableRecord
100
AcDbLinetypeTableRecord
  2
CONTINUOUS
 70
     0
  3
Solid line
 72
    65
 73
     0
 40
0.0
  0
ENDTAB
  0
TABLE
  2
LAYER
  5
2
102
{ACAD_XDICTIONARY
360
1B01
102
}
330
0
100
AcDbSymbolTable
 70
     4
  0
LAYER
  5
10
330
2
100
AcDbSymbolTableRecord
100
AcDbLayerTableRecord
  2
0
 70
     0
 62
     7
  6
CONTINUOUS
370
    -3
390
F
  0
LAYER
  5
2D
330
2
100
AcDbSymbolTableRecord
100
AcDbLayerTableRecord
  2
text_bubbles
 70
     0
 62
     6
  6
CONTINUOUS
370
    -3
390
F
  0
LAYER
  5
2E
330
2
100
AcDbSymbolTableRecord
100
AcDbLayerTableRecord
  2
image
 70
     0
 62
     7
  6
CONTINUOUS
370
    -3
390
F
  0
LAYER
  5
19C7
330
2
100
AcDbSymbolTableRecord
100
AcDbLayerTableRecord
  2
title
 70
     0
 62
     4
  6
CONTINUOUS
370
    -3
390
F
  0
ENDTAB
  0
TABLE
  2
STYLE
  5
3
330
0
100
AcDbSymbolTable
 70
     6
  0
STYLE
  5
11
330
3
100
AcDbSymbolTableRecord
100
AcDbTextStyleTableRecord
  2
STANDARD
 70
     0
 40
0.0
 41
1.0
 50
0.0
 71
     0
 42
0.2
  3
txt
  4

  0
STYLE
  5
25
330
3
100
AcDbSymbolTableRecord
100
AcDbTextStyleTableRecord
  2
ROMANS
 70
     0
 40
0.0
 41
1.0
 50
0.0
 71
     0
 42
0.125
  3
ROMANS.SHX
  4

  0
STYLE
  5
19C8
330
3
100
AcDbSymbolTableRecord
100
AcDbTextStyleTableRecord
  2
L100
 70
     0
 40
0.1
 41
1.0
 50
0.0
 71
     0
 42
0.1
  3
romans.shx
  4

  0
STYLE
  5
19C9
330
3
100
AcDbSymbolTableRecord
100
AcDbTextStyleTableRecord
  2
L200
 70
     0
 40
0.2
 41
1.0
 50
0.0
 71
     0
 42
0.081
  3
ARIAL.TTF
  4

1001
ACAD
1000
Arial
1071
       34
  0
STYLE
  5
19CA
330
3
100
AcDbSymbolTableRecord
100
AcDbTextStyleTableRecord
  2
L80
 70
     0
 40
0.08
 41
1.0
 50
0.0
 71
     0
 42
0.08
  3
ROMANS
  4

  0
STYLE
  5
1D6B
330
3
100
AcDbSymbolTableRecord
100
AcDbTextStyleTableRecord
  2
Arial
 70
     0
 40
0.0
 41
1.0
 50
0.0
 71
     0
 42
0.125
  3
ARIAL.TTF
  4

1001
ACAD
1000
Arial
1071
       34
  0
ENDTAB
  0
TABLE
  2
VIEW
  5
6
330
0
100
AcDbSymbolTable
 70
     0
  0
ENDTAB
  0
TABLE
  2
UCS
  5
7
330
0
100
AcDbSymbolTable
 70
     0
  0
ENDTAB
  0
TABLE
  2
APPID
  5
9
330
0
100
AcDbSymbolTable
 70
    14
  0
APPID
  5
12
330
9
100
AcDbSymbolTableRecord
100
AcDbRegAppTableRecord
  2
ACAD
 70
     0
  0
APPID
  5
19CB
330
9
100
AcDbSymbolTableRecord
100
AcDbRegAppTableRecord
  2
RAK
 70
     0
  0
APPID
  5
19CC
330
9
100
AcDbSymbolTableRecord
100
AcDbRegAppTableRecord
  2
DCO15
 70
     0
  0
APPID
  5
1BDC
330
9
100
AcDbSymbolTableRecord
100
AcDbRegAppTableRecord
  2
ACAD_MLEADERVER
 70
     0
  0
APPID
  5
1BEF
330
9
100
AcDbSymbolTableRecord
100
AcDbRegAppTableRecord
  2
ACAD_PSEXT
 70
     0
  0
APPID
  5
1C70
330
9
100
AcDbSymbolTableRecord
100
AcDbRegAppTableRecord
  2
BBSI_PltSel
 70
     0
  0
APPID
  5
1C71
330
9
100
AcDbSymbolTableRecord
100
AcDbRegAppTableRecord
  2
BBSI_Plots
 70
     0
  0
APPID
  5
1C72
330
9
100
AcDbSymbolTableRecord
100
AcDbRegAppTableRecord
  2
BBSI_Bookmarks
 70
     0
  0
APPID
  5
1C73
330
9
100
AcDbSymbolTableRecord
100
AcDbRegAppTableRecord
  2
BBSI_BookmarksEx
 70
     0
  0
APPID
  5
1CC9
330
9
100
AcDbSymbolTableRecord
100
AcDbRegAppTableRecord
  2
ACAD_EXEMPT_FROM_CAD_STANDARDS
 70
     0
  0
APPID
  5
1D49
330
9
100
AcDbSymbolTableRecord
100
AcDbRegAppTableRecord
  2
BBSI_StampsEx
 70
     0
  0
APPID
  5
1D4A
330
9
100
AcDbSymbolTableRecord
100
AcDbRegAppTableRecord
  2
BBSI_Attachs
 70
     0
  0
APPID
  5
1D4B
330
9
100
AcDbSymbolTableRecord
100
AcDbRegAppTableRecord
  2
BBSI_DigSigs
 70
     0
  0
APPID
  5
1D6C
330
9
100
AcDbSymbolTableRecord
100
AcDbRegAppTableRecord
  2
ADE
 70
     0
  0
ENDTAB
  0
TABLE
  2
DIMSTYLE
  5
A
330
0
100
AcDbSymbolTable
 70
     1
100
AcDbDimStyleTable
 71
     1
340
DC2
  0
DIMSTYLE
105
DC2
330
A
100
AcDbSymbolTableRecord
100
AcDbDimStyleTableRecord
  2
Standard
 70
     0
340
11
  0
ENDTAB
  0
TABLE
  2
BLOCK_RECORD
  5
1
330
0
100
AcDbSymbolTable
 70
     1
  0
BLOCK_RECORD
  5
1E
102
{ACAD_XDICTIONARY
360
1C43
102
}
330
1
100
AcDbSymbolTableRecord
100
AcDbBlockTableRecord
  2
*Model_Space
340
21
  0
BLOCK_RECORD
  5
1A
330
1
100
AcDbSymbolTableRecord
100
AcDbBlockTableRecord
  2
*Paper_Space
340
1D
  0
BLOCK_RECORD
  5
19CD
102
{ACAD_XDICTIONARY
360
1D47
102
}
330
1
100
AcDbSymbolTableRecord
100
AcDbBlockTableRecord
  2
titleblock
340
0
102
{BLKREFS
331
19DC
102
}
  0
ENDTAB
  0
ENDSEC
  0
SECTION
  2
BLOCKS
  0
BLOCK
  5
36
330
1E
100
AcDbEntity
  8
0
100
AcDbBlockBegin
  2
*Model_Space
 70
     0
 10
0.0
 20
0.0
 30
0.0
  3
*Model_Space
  1

  0
ENDBLK
  5
37
330
1E
100
AcDbEntity
  8
0
100
AcDbBlockEnd
  0
BLOCK
  5
34
330
1A
100
AcDbEntity
 67
     1
  8
0
100
AcDbBlockBegin
  2
*Paper_Space
 70
     0
 10
0.0
 20
0.0
 30
0.0
  3
*Paper_Space
  1

  0
ENDBLK
  5
35
330
1A
100
AcDbEntity
 67
     1
  8
0
100
AcDbBlockEnd
  0
BLOCK
  5
19D9
330
19CD
100
AcDbEntity
  8
0
100
AcDbBlockBegin
  2
titleblock
 70
     2
 10
0.0
 20
0.0
 30
0.0
  3
titleblock
  1

  0
LWPOLYLINE
  5
19CE
330
19CD
100
AcDbEntity
  8
image
100
AcDbPolyline
 90
        4
 70
     1
 43
0.0
 10
0.0
 20
0.0
 10
11.10710998607576
 20
0.0
 10
11.10710998607576
 20
8.984877131331895
 10
0.0
 20
8.984877131331895
  0
ATTDEF
  5
19CF
330
19CD
100
AcDbEntity
  8
title
100
AcDbText
 10
0.5055556038023421
 20
0.7842270964783672
 30
0.0
 40
0.2
  1
D
  7
L200
 72
     4
 11
0.6064423705144839
 21
0.8842270964783672
 31
0.0
100
AcDbAttributeDefinition
  3
#
  2
D
 70
     0
  0
ATTDEF
  5
19D0
330
19CD
100
AcDbEntity
  8
title
100
AcDbText
 10
1.231442370514484
 20
1.34371230274675
 30
0.0
 40
0.2
  1

  7
L200
100
AcDbAttributeDefinition
  3
DETAIL TITLE TOP LINE
  2
TITLE1
 70
     0
  0
ATTDEF
  5
19D1
330
19CD
100
AcDbEntity
  8
title
100
AcDbText
 10
1.231442370514484
 20
0.9842270964783674
 30
0.0
 40
0.2
  1
TITLE
  7
L200
100
AcDbAttributeDefinition
  3
DETAIL TITLE TOP 2ND LINE
  2
TITLE2
 70
     0
  0
ATTDEF
  5
19D2
330
19CD
100
AcDbEntity
  8
title
100
AcDbText
 10
2.713645751168312
 20
0.5927927664583188
 30
0.0
 40
0.2
  1
TITLE2
  7
L200
100
AcDbAttributeDefinition
  3
DETAIL TITLE BOTTOM 1
  2
TITLE3
 70
     0
  0
ATTDEF
  5
19D3
330
19CD
100
AcDbEntity
  8
title
100
AcDbText
 10
2.713645751168312
 20
0.2692560808167741
 30
0.0
 40
0.2
  1

  7
L200
100
AcDbAttributeDefinition
  3
DETAIL TITLE BOTTOM 2
  2
TITLE4
 70
     0
  0
ATTDEF
  5
19D4
330
19CD
100
AcDbEntity
  8
title
 62
     7
100
AcDbText
 10
8.177214829966379
 20
0.9696027915446398
 30
0.0
 40
0.08
  1
-
  7
L80
 72
     2
 11
8.261024353775903
 21
0.9696027915446398
 31
0.0
100
AcDbAttributeDefinition
  3
REVISION DATE
  2
REVISED
 70
     0
  0
ATTDEF
  5
19D5
330
19CD
100
AcDbEntity
  8
title
 62
     7
100
AcDbText
 10
0.2639423705144839
 20
0.0847116480207215
 30
0.0
 40
0.08
  1
-
  7
L80
100
AcDbAttributeDefinition
  3
DWG-NAME
  2
DWG-NAME
 70
     0
  0
LWPOLYLINE
  5
19D6
330
19CD
100
AcDbEntity
  8
title
 62
     3
100
AcDbPolyline
 90
        2
 70
     1
 43
0.03
 10
0.6064423705144839
 20
0.5417270964783674
 42
0.9999999999999998
 10
0.6064423705144839
 20
1.226727096478367
 42
0.9999999999999998
  0
ATTDEF
  5
19D7
330
19CD
100
AcDbEntity
  8
title
 62
     7
100
AcDbText
 10
1.231442370514484
 20
0.7005637793954893
 30
0.0
 40
0.1
  1
N.T.S.
  7
L100
100
AcDbAttributeDefinition
  3
SCALE
  2
SCALE
 70
     0
  0
LWPOLYLINE
  5
19D8
330
19CD
100
AcDbEntity
  8
title
 62
     3
100
AcDbPolyline
 90
        2
 70
     0
 43
0.04
 39
0.03
 10
0.9489423705144833
 20
0.8842270964783672
 10
8.261024353775903
 20
0.8842270964783672
  0
ENDBLK
  5
19DA
330
19CD
100
AcDbEntity
  8
0
100
AcDbBlockEnd
  0
ENDSEC
  0
SECTION
  2
ENTITIES
  0
LINE
  5
1FD
330
1E
100
AcDbEntity
  8
image
100
AcDbLine
 10
0.7346460815480514
 20
2.273886536208995
 30
0.0
 11
1.947548832070689
 21
2.273886536208997
 31
0.0
  0
LINE
  5
72F
330
1E
100
AcDbEntity
  8
image
100
AcDbLine
 10
2.426614934190362
 20
4.05396021115359
 30
0.0
 11
2.128639079358345
 21
4.05396021115359
 31
0.0
  0
LINE
  5
731
330
1E
100
AcDbEntity
  8
image
100
AcDbLine
 10
2.128639079358345
 20
4.05396021115359
 30
0.0
 11
2.128639079358346
 21
4.203103035321024
 31
0.0
  0
LINE
  5
732
330
1E
100
AcDbEntity
  8
image
100
AcDbLine
 10
2.146136298061193
 20
4.203103035321024
 30
0.0
 11
2.146136298061194
 21
4.05396021115359
 31
0.0
  0
LINE
  5
73F
330
1E
100
AcDbEntity
  8
image
100
AcDbLine
 10
2.235225823888264
 20
4.203103035321024
 30
0.0
 11
2.235225823888266
 21
4.05396021115359
 31
0.0
  0
LINE
  5
740
330
1E
100
AcDbEntity
  8
image
100
AcDbLine
 10
2.262137317339135
 20
4.203103035321024
 30
0.0
 11
2.262137317339136
 21
4.05396021115359
 31
0.0
  0
LINE
  5
741
330
1E
100
AcDbEntity
  8
image
100
AcDbLine
 10
2.209388255776943
 20
4.203103035321024
 30
0.0
 11
2.209388255776946
 21
4.05396021115359
 31
0.0
  0
LINE
  5
742
330
1E
100
AcDbEntity
  8
image
100
AcDbLine
 10
2.185395860394755
 20
4.203103035321024
 30
0.0
 11
2.185395860394757
 21
4.05396021115359
 31
0.0
  0
LINE
  5
743
330
1E
100
AcDbEntity
  8
image
100
AcDbLine
 10
2.165598303627299
 20
4.203103035321024
 30
0.0
 11
2.1655983036273
 21
4.05396021115359
 31
0.0
  0
LINE
  5
744
330
1E
100
AcDbEntity
  8
image
100
AcDbLine
 10
2.318413093803167
 20
4.203103035321024
 30
0.0
 11
2.318413093803167
 21
4.05396021115359
 31
0.0
  0
LINE
  5
745
330
1E
100
AcDbEntity
  8
image
100
AcDbLine
 10
2.290532557193063
 20
4.203103035321024
 30
0.0
 11
2.290532557193063
 21
4.05396021115359
 31
0.0
  0
LINE
  5
746
330
1E
100
AcDbEntity
  8
image
100
AcDbLine
 10
2.389655709921411
 20
4.203103035321026
 30
0.0
 11
2.38965570992141
 21
4.05396021115359
 31
0.0
  0
LINE
  5
747
330
1E
100
AcDbEntity
  8
image
100
AcDbLine
 10
2.369858153153955
 20
4.203103035321026
 30
0.0
 11
2.369858153153953
 21
4.05396021115359
 31
0.0
  0
LINE
  5
748
330
1E
100
AcDbEntity
  8
image
100
AcDbLine
 10
2.345865757771766
 20
4.203103035321024
 30
0.0
 11
2.345865757771764
 21
4.05396021115359
 31
0.0
  0
LINE
  5
75F
330
1E
100
AcDbEntity
  8
image
100
AcDbLine
 10
2.409117715487517
 20
4.203103035321026
 30
0.0
 11
2.409117715487516
 21
4.05396021115359
 31
0.0
  0
LINE
  5
760
330
1E
100
AcDbEntity
  8
image
100
AcDbLine
 10
2.426614934190362
 20
4.05396021115359
 30
0.0
 11
2.426614934190364
 21
4.203103035321026
 31
0.0
  0
LINE
  5
776
330
1E
100
AcDbEntity
  8
image
100
AcDbLine
 10
0.7346460815480514
 20
2.003790903441898
 30
0.0
 11
1.947548832070689
 21
2.003790903441898
 31
0.0
  0
LINE
  5
777
330
1E
100
AcDbEntity
  8
image
100
AcDbLine
 10
2.607705181478018
 20
2.273886536208997
 30
0.0
 11
3.567950140593854
 21
2.273886536208995
 31
0.0
  0
LINE
  5
778
330
1E
100
AcDbEntity
  8
image
100
AcDbLine
 10
2.607705181478018
 20
2.003790903441898
 30
0.0
 11
3.567950140593854
 21
2.003790903441898
 31
0.0
  0
LINE
  5
779
330
1E
100
AcDbEntity
  8
image
100
AcDbLine
 10
2.371904589746925
 20
4.05396021115359
 30
0.0
 11
2.371904589746925
 21
2.435294014112613
 31
0.0
  0
LINE
  5
77A
330
1E
100
AcDbEntity
  8
image
100
AcDbLine
 10
2.183349423801784
 20
4.05396021115359
 30
0.0
 11
2.183349423801784
 21
2.435294014112613
 31
0.0
  0
LINE
  5
77B
330
1E
100
AcDbEntity
  8
image
100
AcDbLine
 10
2.202204940396298
 20
2.470250652985977
 30
0.0
 11
2.3530490764638
 21
2.47026182777492
 31
0.0
  0
LINE
  5
77C
330
1E
100
AcDbEntity
  8
image
100
AcDbLine
 10
2.202204940396298
 20
4.01753200306668
 30
0.0
 11
2.3530490764638
 21
4.017543177855621
 31
0.0
  0
LWPOLYLINE
  5
77D
330
1E
100
AcDbEntity
  8
image
100
AcDbPolyline
 90
        4
 70
     0
 43
0.0
 10
0.7346460815480514
 20
2.273886536208995
 42
0.6860361716026362
 10
0.7346460815480514
 20
2.138838719825447
 42
-0.6860361716026375
 10
0.7346460815480514
 20
2.003790903441898
 42
-0.6803544335886503
 10
0.7346460815480514
 20
2.138838719825447
 42
-0.6803544335886503
  0
LWPOLYLINE
  5
783
330
1E
100
AcDbEntity
  8
image
100
AcDbPolyline
 90
        4
 70
     0
 43
0.0
 10
3.567950140593854
 20
2.273886536208995
 42
-0.6860361716026362
 10
3.567950140593854
 20
2.138838719825447
 42
0.6860361716026375
 10
3.567950140593854
 20
2.003790903441898
 42
0.6803544335886503
 10
3.567950140593854
 20
2.138838719825447
 42
0.6803544335886503
  0
LINE
  5
961
330
1E
100
AcDbEntity
  8
image
100
AcDbLine
 10
2.183349423801784
 20
2.505778937999777
 30
0.0
 11
2.371904589746925
 21
2.505778937999777
 31
0.0
  0
LINE
  5
962
330
1E
100
AcDbEntity
  8
image
100
AcDbLine
 10
2.277627006774354
 20
1.962263506754086
 30
0.0
 11
2.607705181478018
 21
1.962263506754086
 31
0.0
  0
LINE
  5
963
330
1E
100
AcDbEntity
  8
image
100
AcDbLine
 10
2.607705181478018
 20
1.962263506754086
 30
0.0
 11
2.607705181478018
 21
2.315413932896807
 31
0.0
  0
LINE
  5
964
330
1E
100
AcDbEntity
  8
image
100
AcDbLine
 10
2.607705181478018
 20
2.315413932896807
 30
0.0
 11
2.426536255871456
 21
2.315413932896807
 31
0.0
  0
LINE
  5
965
330
1E
100
AcDbEntity
  8
image
100
AcDbLine
 10
2.426536255871456
 20
2.315413932896807
 30
0.0
 11
2.426536255871456
 21
2.435294014112613
 31
0.0
  0
LINE
  5
966
330
1E
100
AcDbEntity
  8
image
100
AcDbLine
 10
2.426536255871456
 20
2.435294014112613
 30
0.0
 11
2.277627006774354
 21
2.435294014112613
 31
0.0
  0
LINE
  5
967
330
1E
100
AcDbEntity
  8
image
100
AcDbLine
 10
2.277627006774354
 20
2.435294014112613
 30
0.0
 11
2.128717757677252
 21
2.435294014112613
 31
0.0
  0
LINE
  5
968
330
1E
100
AcDbEntity
  8
image
100
AcDbLine
 10
2.128717757677252
 20
2.435294014112613
 30
0.0
 11
2.128717757677252
 21
2.315413932896807
 31
0.0
  0
LINE
  5
969
330
1E
100
AcDbEntity
  8
image
100
AcDbLine
 10
2.128717757677252
 20
2.315413932896807
 30
0.0
 11
1.947548832070689
 21
2.315413932896807
 31
0.0
  0
LINE
  5
96A
330
1E
100
AcDbEntity
  8
image
100
AcDbLine
 10
1.947548832070689
 20
2.315413932896807
 30
0.0
 11
1.947548832070689
 21
1.962263506754086
 31
0.0
  0
LINE
  5
96B
330
1E
100
AcDbEntity
  8
image
100
AcDbLine
 10
1.947548832070689
 20
1.962263506754086
 30
0.0
 11
2.277627006774354
 21
1.962263506754086
 31
0.0
  0
LINE
  5
96C
330
1E
100
AcDbEntity
  8
image
100
AcDbLine
 10
2.371904589746925
 20
3.983475287266426
 30
0.0
 11
2.183349423801784
 21
3.983475287266425
 31
0.0
  0
CIRCLE
  5
C7A
330
1E
100
AcDbEntity
  8
text_bubbles
100
AcDbCircle
 10
5.960877841463147
 20
4.996003945560176
 30
0.0
 40
0.15625
  0
TEXT
  5
C7B
330
1E
100
AcDbEntity
  8
text_bubbles
100
AcDbText
 10
5.901354031939337
 20
4.933503945560176
 30
0.0
 40
0.125
  1
2
  7
ROMANS
 72
     4
 11
5.960877841463147
 21
4.996003945560176
 31
0.0
100
AcDbText
  0
CIRCLE
  5
C7C
330
1E
100
AcDbEntity
  8
text_bubbles
100
AcDbCircle
 10
5.960877841463147
 20
3.261577285163109
 30
0.0
 40
0.15625
  0
TEXT
  5
C7D
330
1E
100
AcDbEntity
  8
text_bubbles
100
AcDbText
 10
5.901354031939337
 20
3.199077285163109
 30
0.0
 40
0.125
  1
5
  7
ROMANS
 72
     4
 11
5.960877841463147
 21
3.261577285163109
 31
0.0
100
AcDbText
  0
CIRCLE
  5
C7E
330
1E
100
AcDbEntity
  8
text_bubbles
100
AcDbCircle
 10
5.960877841463147
 20
4.555199896218218
 30
0.0
 40
0.15625
  0
TEXT
  5
C7F
330
1E
100
AcDbEntity
  8
text_bubbles
100
AcDbText
 10
5.901354031939337
 20
4.492699896218218
 30
0.0
 40
0.125
  1
3
  7
ROMANS
 72
     4
 11
5.960877841463147
 21
4.555199896218218
 31
0.0
100
AcDbText
  0
CIRCLE
  5
C80
330
1E
100
AcDbEntity
  8
text_bubbles
100
AcDbCircle
 10
5.960877841463147
 20
2.82150771829196
 30
0.0
 40
0.15625
  0
TEXT
  5
C81
330
1E
100
AcDbEntity
  8
text_bubbles
100
AcDbText
 10
5.898377841463147
 20
2.75900771829196
 30
0.0
 40
0.125
  1
6
  7
ROMANS
 72
     4
 11
5.960877841463147
 21
2.82150771829196
 31
0.0
100
AcDbText
  0
CIRCLE
  5
C82
330
1E
100
AcDbEntity
  8
text_bubbles
100
AcDbCircle
 10
5.960877841463147
 20
3.88875291233987
 30
0.0
 40
0.15625
  0
TEXT
  5
C83
330
1E
100
AcDbEntity
  8
text_bubbles
100
AcDbText
 10
5.898377841463147
 20
3.82625291233987
 30
0.0
 40
0.125
  1
4
  7
ROMANS
 72
     4
 11
5.960877841463147
 21
3.88875291233987
 31
0.0
100
AcDbText
  0
CIRCLE
  5
C86
330
1E
100
AcDbEntity
  8
text_bubbles
100
AcDbCircle
 10
5.960877841463147
 20
5.440117638418121
 30
0.0
 40
0.15625
  0
TEXT
  5
C87
330
1E
100
AcDbEntity
  8
text_bubbles
100
AcDbText
 10
5.910282603367909
 20
5.377617638418121
 30
0.0
 40
0.125
  1
1
  7
ROMANS
 72
     4
 11
5.960877841463147
 21
5.440117638418121
 31
0.0
100
AcDbText
  0
TEXT
  5
C9A
330
1E
100
AcDbEntity
  8
text_bubbles
100
AcDbText
 10
0.3630388453003728
 20
5.359464194912129
 30
0.0
 40
0.125
  1
1
  7
ROMANS
 72
     4
 11
0.413634083395611
 21
5.421964194912129
 31
0.0
100
AcDbText
  0
CIRCLE
  5
C9B
330
1E
100
AcDbEntity
  8
text_bubbles
100
AcDbCircle
 10
0.413634083395611
 20
5.421964194912129
 30
0.0
 40
0.15625
  0
INSERT
  5
19DC
330
1E
100
AcDbEntity
  8
title
100
AcDbBlockReference
 66
     1
  2
titleblock
 10
-0.7883638221367111
 20
-2.575807391661656
 30
0.0
  0
ATTRIB
  5
19DD
330
19DC
100
AcDbEntity
  8
title
100
AcDbText
 10
-0.2828082183343695
 20
-1.791580295183289
 30
0.0
 40
0.2
  1
D
  7
L200
 72
     4
 11
-0.1819214516222276
 21
-1.691580295183289
 31
0.0
100
AcDbAttribute
  2
D
 70
     0
  0
ATTRIB
  5
19DE
330
19DC
100
AcDbEntity
  8
title
100
AcDbText
 10
0.4430785483777724
 20
-1.232095088914905
 30
0.0
 40
0.2
  1
XERI-BUG 1/2" FPT X BARB SINGLE OUTLET
  7
L200
100
AcDbAttribute
  2
TITLE1
 70
     0
  0
ATTRIB
  5
19DF
330
19DC
100
AcDbEntity
  8
title
100
AcDbText
 10
0.4430785483777724
 20
-1.591580295183288
 30
0.0
 40
0.2
  1
EMITTER INTO PVC, WITH 1/4" TUBING, 
  7
L200
100
AcDbAttribute
  2
TITLE2
 70
     0
  0
ATTRIB
  5
19E0
330
19DC
100
AcDbEntity
  8
title
100
AcDbText
 10
1.925281929031601
 20
-1.983014625203337
 30
0.0
 40
0.2
  1
STAKE AND BUG CAP
  7
L200
100
AcDbAttribute
  2
TITLE3
 70
     0
  0
ATTRIB
  5
19E1
330
19DC
100
AcDbEntity
  8
title
100
AcDbText
 10
1.925281929031601
 20
-2.306551310844882
 30
0.0
 40
0.2
  1
OPTION 2
  7
L200
100
AcDbAttribute
  2
TITLE4
 70
     0
  0
ATTRIB
  5
19E2
330
19DC
100
AcDbEntity
  8
title
 62
     7
100
AcDbText
 10
6.905041484020144
 20
-1.606204600117016
 30
0.0
 40
0.08
  1
1-18-10
  7
L80
 72
     2
 11
7.472660531639192
 21
-1.606204600117016
 31
0.0
100
AcDbAttribute
  2
REVISED
 70
     0
  0
ATTRIB
  5
19E3
330
19DC
100
AcDbEntity
  8
title
 62
     7
100
AcDbText
 10
-0.524421451622227
 20
-2.491095743640935
 30
0.0
 40
0.08
  1
Xeri-Bug XBT Option 2.dwg
  7
L80
100
AcDbAttribute
  2
DWG-NAME
 70
     0
  0
ATTRIB
  5
19E4
330
19DC
100
AcDbEntity
  8
title
 62
     7
100
AcDbText
 10
0.4430785483777724
 20
-1.875243612266167
 30
0.0
 40
0.1
  1
N.T.S.
  7
L100
100
AcDbAttribute
  2
SCALE
 70
     0
  0
SEQEND
  5
19E5
330
19DC
100
AcDbEntity
  8
title
  0
LINE
  5
1C6D
330
1E
100
AcDbEntity
  8
image
100
AcDbLine
 10
2.128639079358346
 20
4.203103035321024
 30
0.0
 11
2.426614934190364
 21
4.203103035321026
 31
0.0
  0
LINE
  5
1C8C
330
1E
100
AcDbEntity
  8
image
100
AcDbLine
 10
2.27758138910123
 20
4.283224361869148
 30
0.0
 11
2.371858956792921
 21
4.283278039503448
 31
0.0
  0
LINE
  5
1C8D
330
1E
100
AcDbEntity
  8
image
100
AcDbLine
 10
2.354918849900127
 20
4.309117633581813
 30
0.0
 11
2.366278466356752
 21
4.283273317055622
 31
0.0
  0
LINE
  5
1C8E
330
1E
100
AcDbEntity
  8
image
100
AcDbLine
 10
2.183349439082662
 20
4.203049357686726
 30
0.0
 11
2.183303821409537
 21
4.28317068423485
 31
0.0
  0
LINE
  5
1C8F
330
1E
100
AcDbEntity
  8
image
100
AcDbLine
 10
2.300180002960492
 20
4.309086467612219
 30
0.0
 11
2.288849823166804
 21
4.28322923248179
 31
0.0
  0
LINE
  5
1C90
330
1E
100
AcDbEntity
  8
image
100
AcDbLine
 10
2.300180002960492
 20
4.309086467612219
 30
0.0
 11
2.354918849900127
 21
4.309117633581813
 31
0.0
  0
LINE
  5
1C91
330
1E
100
AcDbEntity
  8
image
100
AcDbLine
 10
2.300180002960492
 20
4.309086467612219
 30
0.0
 11
2.300175945945555
 21
4.347657746345454
 31
0.0
  0
LINE
  5
1C92
330
1E
100
AcDbEntity
  8
image
100
AcDbLine
 10
2.354918849900127
 20
4.309117633581813
 30
0.0
 11
2.354914810629767
 21
4.347657746345454
 31
0.0
  0
LINE
  5
1C93
330
1E
100
AcDbEntity
  8
image
100
AcDbLine
 10
2.27758138910123
 20
4.283224361869148
 30
0.0
 11
2.183303821409537
 21
4.28317068423485
 31
0.0
  0
LINE
  5
1C94
330
1E
100
AcDbEntity
  8
image
100
AcDbLine
 10
2.277622317114817
 20
4.211339793521354
 30
0.0
 11
2.183344749423125
 21
4.211286115887054
 31
0.0
  0
LINE
  5
1C95
330
1E
100
AcDbEntity
  8
image
100
AcDbLine
 10
2.277627006774354
 20
4.203103035321025
 30
0.0
 11
2.183349439082663
 21
4.20304935768673
 31
0.0
  0
LINE
  5
1C96
330
1E
100
AcDbEntity
  8
image
100
AcDbLine
 10
2.277627006774355
 20
4.203103035321025
 30
0.0
 11
2.371904574466047
 21
4.203156712955326
 31
0.0
  0
LINE
  5
1C97
330
1E
100
AcDbEntity
  8
image
100
AcDbLine
 10
2.371904574466048
 20
4.203156712955324
 30
0.0
 11
2.371858956792921
 21
4.283278039503448
 31
0.0
  0
LINE
  5
1C98
330
1E
100
AcDbEntity
  8
image
100
AcDbLine
 10
2.277622317114818
 20
4.211339793521354
 30
0.0
 11
2.37189988480651
 21
4.211393471155654
 31
0.0
  0
LINE
  5
1C99
330
1E
100
AcDbEntity
  8
image
100
AcDbLine
 10
2.297432574827977
 20
4.347656732197993
 30
0.0
 11
2.357416331792628
 21
4.347658949008087
 31
0.0
  0
LINE
  5
1CA0
330
1E
100
AcDbEntity
  8
image
100
AcDbLine
 10
0.3117622241792912
 20
3.228528613581937
 30
0.0
 11
0.6707321904303527
 21
3.228528613581937
 31
0.0
  0
HATCH
  5
1CBE
330
1E
100
AcDbEntity
  8
image
100
AcDbHatch
 10
0.0
 20
0.0
 30
0.0
210
0.0
220
0.0
230
1.0
  2
EARTH
 70
     0
 71
     0
 91
        1
 92
        7
 72
     0
 73
     1
 93
        6
 10
3.375333885695935
 20
3.050999496879785
 10
3.420392571305043
 20
3.228528613581937
 10
2.371904589746925
 20
3.228528613581937
 10
2.371904589746925
 20
2.615288043624524
 10
2.732223989019592
 20
2.600790707400517
 10
3.342563953206152
 20
2.72766772215287
 97
        0
 75
     0
 76
     1
 52
45.0
 41
0.65
 77
     0
 78
     6
 53
45.0
 43
0.0
 44
-0.3888670185530512
 45
0.0
 46
0.229809703885628
 79
     2
 49
0.1625
 49
-0.1625
 53
45.0
 43
-0.0430893194785553
 44
-0.3457776990744959
 45
0.0
 46
0.229809703885628
 79
     2
 49
0.1625
 49
-0.1625
 53
45.0
 43
-0.0861786389571105
 44
-0.3026883795959407
 45
0.0
 46
0.229809703885628
 79
     2
 49
0.1625
 49
-0.1625
 53
135.0
 43
-0.0861786389571105
 44
-0.2739621666102372
 45
-0.2298097038856279
 46
0.0
 79
     2
 49
0.1625
 49
-0.1625
 53
135.0
 43
-0.0430893194785552
 44
-0.230872847131682
 45
-0.2298097038856279
 46
0.0
 79
     2
 49
0.1625
 49
-0.1625
 53
135.0
 43
0.0
 44
-0.1877835276531267
 45
-0.2298097038856279
 46
0.0
 79
     2
 49
0.1625
 49
-0.1625
 47
0.0040928071557717
 98
        1
 10
3.031249651424523
 20
2.858637552353171
1001
ACAD
1010
0.0
1020
0.0
1030
0.0
  0
LINE
  5
1CBF
330
1E
100
AcDbEntity
  8
image
100
AcDbLine
 10
2.371904589746925
 20
3.228528613581937
 30
0.0
 11
3.45748790830817
 21
3.228528613581937
 31
0.0
  0
TEXT
  5
1CC4
330
1E
100
AcDbEntity
  8
text_bubbles
100
AcDbText
 10
3.268769864162385
 20
1.263345308770371
 30
0.0
 40
0.125
  1
9
  7
ROMANS
 72
     4
 11
3.325317483210004
 21
1.325845308770371
 31
0.0
100
AcDbText
  0
CIRCLE
  5
1CC5
330
1E
100
AcDbEntity
  8
text_bubbles
100
AcDbCircle
 10
3.325317483210004
 20
1.325845308770371
 30
0.0
 40
0.15625
  0
TEXT
  5
1CC6
330
1E
100
AcDbEntity
  8
text_bubbles
100
AcDbText
 10
2.700512395108745
 20
1.263345308770371
 30
0.0
 40
0.125
  1
8
  7
ROMANS
 72
     4
 11
2.760036204632554
 21
1.325845308770371
 31
0.0
100
AcDbText
  0
CIRCLE
  5
1CC7
330
1E
100
AcDbEntity
  8
text_bubbles
100
AcDbCircle
 10
2.760036204632554
 20
1.325845308770371
 30
0.0
 40
0.15625
  0
LEADER
  5
1CD2
330
1E
100
AcDbEntity
  8
text_bubbles
100
AcDbLeader
  3
Standard
 76
     2
 10
2.341191178566562
 20
1.962263506754086
 30
0.0
 10
2.674137322996731
 20
1.456365210064063
 30
0.0
1001
ACAD
1000
DSTYLE
1002
{
1070
    44
1040
0.125
1070
   140
1040
0.125
1070
   176
1070
   256
1070
   177
1070
   256
1070
   178
1070
   256
1070
   279
1070
     2
1070
   371
1070
    -1
1070
   372
1070
    -1
1002
}
  0
LEADER
  5
1CD3
330
1E
100
AcDbEntity
  8
text_bubbles
100
AcDbLeader
  3
Standard
 76
     2
 10
2.90324290594359
 20
2.003790903441898
 30
0.0
 10
3.242736216067326
 20
1.458489180913451
 30
0.0
1001
ACAD
1000
DSTYLE
1002
{
1070
    44
1040
0.125
1070
   140
1040
0.125
1070
   176
1070
   256
1070
   177
1070
   256
1070
   178
1070
   256
1070
   279
1070
     2
1070
   371
1070
    -1
1070
   372
1070
    -1
1002
}
  0
LINE
  5
1CD4
330
1E
100
AcDbEntity
  8
image
100
AcDbLine
 10
0.3049609240048783
 20
3.760427190190122
 30
0.0
 11
0.6481208701963701
 21
3.760427190190122
 31
0.0
  0
LINE
  5
1CD5
330
1E
100
AcDbEntity
  8
image
100
AcDbLine
 10
2.371904589746925
 20
3.760427190190122
 30
0.0
 11
3.389914950792216
 21
3.760427190190122
 31
0.0
  0
HATCH
  5
1D03
330
1E
100
AcDbEntity
  8
image
100
AcDbHatch
 10
0.0
 20
0.0
 30
0.0
210
0.0
220
0.0
230
1.0
  2
AR-SAND
 70
     0
 71
     0
 91
        1
 92
        7
 72
     0
 73
     1
 93
        4
 10
3.389914950792216
 20
3.760427190190122
 10
2.371904589746925
 20
3.760427190190122
 10
2.371904589746925
 20
3.228528613581937
 10
3.373236756062119
 20
3.228528613581937
 97
        0
 75
     0
 76
     1
 52
0.0
 41
0.125
 77
     0
 78
     4
 53
37.5
 43
0.0
 44
-0.3888670185530512
 45
-0.007874169763701
 46
0.2408529711266448
 79
     6
 49
0.0
 49
-0.19
 49
0.0
 49
-0.2125
 49
0.0
 49
-0.203125
 53
7.499999999999999
 43
0.0
 44
-0.3888670185530512
 45
0.2212220881584659
 46
0.3527682581537175
 79
     6
 49
0.0
 49
-0.1025
 49
0.0
 49
-0.17125
 49
0.0
 49
-0.065625
 53
327.5
 43
-0.15375
 44
-0.3888670185530512
 45
0.3892677327189369
 46
0.0007073816921206
 79
     6
 49
0.0
 49
-0.0625
 49
0.0
 49
-0.225
 49
0.0
 49
-0.29375
 53
317.5
 43
-0.15375
 44
-0.3888670185530512
 45
0.3757658255715366
 46
0.1097094456167811
 79
     6
 49
0.0
 49
-0.03125
 49
0.0
 49
-0.1475
 49
0.0
 49
-0.16875
 47
0.0083335721423804
 98
        1
 10
2.606313292617548
 20
3.552230528125638
1001
ACAD
1010
0.0
1020
0.0
1030
0.0
  0
TEXT
  5
1D07
330
1E
100
AcDbEntity
  8
text_bubbles
100
AcDbText
 10
0.7424968733121861
 20
5.359464194912129
 30
0.0
 40
0.125
  1
2
  7
ROMANS
 72
     4
 11
0.8020206828359956
 21
5.421964194912129
 31
0.0
100
AcDbText
  0
CIRCLE
  5
1D08
330
1E
100
AcDbEntity
  8
text_bubbles
100
AcDbCircle
 10
0.8020206828359956
 20
5.421964194912129
 30
0.0
 40
0.15625
  0
TEXT
  5
1D0B
330
1E
100
AcDbEntity
  8
text_bubbles
100
AcDbText
 10
4.123084570537111
 20
3.424894044399948
 30
0.0
 40
0.125
  1
6
  7
ROMANS
 72
     4
 11
4.185584570537111
 21
3.487394044399948
 31
0.0
100
AcDbText
  0
CIRCLE
  5
1D0C
330
1E
100
AcDbEntity
  8
text_bubbles
100
AcDbCircle
 10
4.185584570537111
 20
3.487394044399948
 30
0.0
 40
0.15625
  0
TEXT
  5
1D0D
330
1E
100
AcDbEntity
  8
text_bubbles
100
AcDbText
 10
4.126060761013301
 20
2.698608466375039
 30
0.0
 40
0.125
  1
7
  7
ROMANS
 72
     4
 11
4.185584570537111
 21
2.761108466375039
 31
0.0
100
AcDbText
  0
CIRCLE
  5
1D0E
330
1E
100
AcDbEntity
  8
text_bubbles
100
AcDbCircle
 10
4.185584570537111
 20
2.761108466375039
 30
0.0
 40
0.15625
  0
LEADER
  5
1D0F
330
1E
100
AcDbEntity
  8
text_bubbles
100
AcDbLeader
  3
Standard
 76
     2
 10
3.389914950792216
 20
3.760427190190122
 30
0.0
 10
4.037793749634371
 20
3.538108300353223
 30
0.0
1001
ACAD
1000
DSTYLE
1002
{
1070
    44
1040
0.125
1070
   140
1040
0.125
1070
   176
1070
   256
1070
   177
1070
   256
1070
   178
1070
   256
1070
   279
1070
     2
1070
   371
1070
    -1
1070
   372
1070
    -1
1002
}
  0
LEADER
  5
1D10
330
1E
100
AcDbEntity
  8
text_bubbles
100
AcDbLeader
  3
Standard
 76
     2
 10
3.45748790830817
 20
3.228528613581937
 30
0.0
 10
4.054097722508268
 20
2.845519788455908
 30
0.0
1001
ACAD
1000
DSTYLE
1002
{
1070
    44
1040
0.125
1070
   140
1040
0.125
1070
   176
1070
   256
1070
   177
1070
   256
1070
   178
1070
   256
1070
   279
1070
     2
1070
   371
1070
    -1
1070
   372
1070
    -1
1002
}
  0
MTEXT
  5
1D11
102
{ACAD_XDICTIONARY
360
1FD7
102
}
330
1E
100
AcDbEntity
  8
text_bubbles
100
AcDbMText
 10
6.242399876735138
 20
5.501951385137789
 30
0.0
 40
0.125
 41
3.663889530550077
 71
     1
 72
     5
  3
\A1;DIFFUSER BUG CAP:\P  RAIN BIRD DBC-025 \PUNIVERSAL {\H0.7x;\S1#4;\H1.4286x;" TUBING STAKE:\P  RAIN BIRD TS-025\P\H0.7x;\S1#4;\H1.4286x;" DISTRIBUTION TUBING:\P  RAIN BIRD XQ TUBING\P  (LENGTH AS REQUIRED)}\P\pi-0.25,l0.25;SINGLE OUTLET {\H0.7x;\S
  3
1#2;}" FPT INLET X BARB OUTLET EMITTER:\P\pi0,l0;  RAIN BIRD XERI-BUG XBT EMITTER\P\pi-0.25,l0.25;PVC SCH 80 NIPPLE         (LENGTH AS REQUIRED)\PTOP OF MULCH\P\P\pi0,l0;FINISH GRADE \P\pi-0.25,l0.25; \P\pi0,l0;PVC SCH 40 TEE OR ELL \P\PPVC LATERAL P
  1
IPE
  7
ROMANS
 73
     1
 44
1.0
  0
MTEXT
  5
1D22
102
{ACAD_XDICTIONARY
360
1FD9
102
}
330
1E
100
AcDbEntity
  8
image
100
AcDbMText
 10
0.5278582525395184
 20
0.8204352488216153
 30
0.0
 40
0.125
 41
6.66072973614517
 71
     1
 72
     5
  1
\A1;NOTE: \P\pi-0.375,l0.375,t0.375;1. RAIN BIRD XERI-BUG {\H0.7x;\S1#2;}" FPT X BARB EMITTERS ARE AVAILABLE IN THE FOLLOWING MODELS:\P\pt0.375,0.5,2.5;^I^IXBT-10 1.0 GPH^IXBT-20 2.0 GPH 
  7
ROMANS
 73
     1
 44
1.0
  0
LINE
  5
1DBD
330
1E
100
AcDbEntity
  8
image
100
AcDbLine
 10
0.3840575989576261
 20
4.361185478061445
 30
0.0
 11
0.4023943072631912
 21
4.448555059093944
 31
0.0
  0
LINE
  5
1DBE
330
1E
100
AcDbEntity
  8
image
100
AcDbLine
 10
0.3756474599268547
 20
4.362950557673755
 30
0.0
 11
0.3939841682324206
 21
4.450320138706253
 31
0.0
  0
LINE
  5
1DBF
330
1E
100
AcDbEntity
  8
image
100
AcDbLine
 10
0.4535020833051516
 20
4.437828804368297
 30
0.0
 11
0.4467107094127984
 21
4.405469698157844
 31
0.0
  0
LINE
  5
1DC0
330
1E
100
AcDbEntity
  8
image
100
AcDbLine
 10
0.3956029333708387
 20
4.416195952883493
 30
0.0
 11
0.4467107094127984
 21
4.405469698157844
 31
0.0
  0
LINE
  5
1DC1
330
1E
100
AcDbEntity
  8
image
100
AcDbLine
 10
0.3525845533733972
 20
4.513739695967709
 30
0.0
 11
0.4049861940182834
 21
4.502741891149566
 31
0.0
  0
LINE
  5
1DC2
330
1E
100
AcDbEntity
  8
image
100
AcDbLine
 10
0.4123208765379857
 20
4.537689719738752
 30
0.0
 11
0.3939841682324206
 21
4.450320138706253
 31
0.0
  0
LINE
  5
1DC3
330
1E
100
AcDbEntity
  8
image
100
AcDbLine
 10
0.4207310155687562
 20
4.535924640126443
 30
0.0
 11
0.4023943072631912
 21
4.448555059093944
 31
0.0
  0
LINE
  5
1DC4
330
1E
100
AcDbEntity
  8
image
100
AcDbLine
 10
0.4535020833051516
 20
4.437828804368297
 30
0.0
 11
0.4602934571975032
 21
4.470187910578749
 31
0.0
  0
LINE
  5
1DC5
330
1E
100
AcDbEntity
  8
image
100
AcDbLine
 10
0.4091856811555436
 20
4.480914165304394
 30
0.0
 11
0.4602934571975032
 21
4.470187910578749
 31
0.0
  0
LWPOLYLINE
  5
1DC6
330
1E
100
AcDbEntity
  8
image
100
AcDbPolyline
 90
        2
 70
   128
 43
0.0
 10
0.5540619461623618
 20
4.447731944614163
 10
0.4598089691687549
 20
4.467879452845679
  0
LWPOLYLINE
  5
1DC7
330
1E
100
AcDbEntity
  8
image
100
AcDbPolyline
 90
        2
 70
   128
 43
0.0
 10
0.5416591143939426
 20
4.389046712270117
 10
0.4474259865437579
 20
4.408877805120807
  0
LINE
  5
1DC8
330
1E
100
AcDbEntity
  8
image
100
AcDbLine
 10
0.3756474599268556
 20
4.362950557673755
 30
0.0
 11
0.3840575989576261
 21
4.361185478061445
 31
0.0
  0
LINE
  5
1DC9
330
1E
100
AcDbEntity
  8
image
100
AcDbLine
 10
0.3305805018016708
 20
4.408896191081081
 30
0.0
 11
0.3829821424465579
 21
4.397898386262941
 31
0.0
  0
LINE
  5
1DCA
330
1E
100
AcDbEntity
  8
image
100
AcDbLine
 10
0.3415825275875345
 20
4.461317943524395
 30
0.0
 11
0.3525845533733972
 21
4.513739695967709
 31
0.0
  0
LINE
  5
1DCB
330
1E
100
AcDbEntity
  8
image
100
AcDbLine
 10
0.3415825275875345
 20
4.461317943524395
 30
0.0
 11
0.3305805018016708
 21
4.408896191081081
 31
0.0
  0
LINE
  5
1DCC
330
1E
100
AcDbEntity
  8
image
100
AcDbLine
 10
0.3346916875703015
 20
4.486413266979543
 30
0.0
 11
0.3463364881083947
 21
4.483969312135991
 31
0.0
  0
LINE
  5
1DCD
330
1E
100
AcDbEntity
  8
image
100
AcDbLine
 10
0.3299377270494422
 20
4.463761898367947
 30
0.0
 11
0.3251837665285811
 21
4.441110529756352
 31
0.0
  0
LINE
  5
1DCE
330
1E
100
AcDbEntity
  8
image
100
AcDbLine
 10
0.3251837665285811
 20
4.441110529756352
 30
0.0
 11
0.3368285670666725
 21
4.438666574912803
 31
0.0
  0
LINE
  5
1DCF
330
1E
100
AcDbEntity
  8
image
100
AcDbLine
 10
0.3299377270494422
 20
4.463761898367947
 30
0.0
 11
0.3346916875703015
 21
4.486413266979543
 31
0.0
  0
LINE
  5
1DD0
330
1E
100
AcDbEntity
  8
image
100
AcDbLine
 10
0.4123208765379857
 20
4.537689719738752
 30
0.0
 11
0.4207310155687562
 21
4.535924640126443
 31
0.0
  0
LWPOLYLINE
  5
1DF3
330
1E
100
AcDbEntity
  8
image
100
AcDbPolyline
 90
        3
 70
     0
 43
0.0
 10
0.6910763582786599
 20
4.387262391180026
 10
0.6910763582786599
 20
2.749961514942135
 10
0.6910763582786599
 20
2.749961514942135
  0
LWPOLYLINE
  5
1DF4
330
1E
100
AcDbEntity
  8
image
100
AcDbPolyline
 90
        3
 70
     0
 43
0.0
 10
0.7099525963618936
 20
4.387262391180026
 10
0.7099525963618936
 20
2.749961514942135
 10
0.7099525963618936
 20
2.749961514942135
  0
LWPOLYLINE
  5
1DF5
330
1E
100
AcDbEntity
  8
image
100
AcDbPolyline
 90
        3
 70
     0
 43
0.0
 10
0.6231375174648442
 20
4.348124397575089
 10
0.6910763582786599
 20
2.749961514942135
 10
0.6910763582786599
 20
2.749961514942135
  0
LWPOLYLINE
  5
1DF6
330
1E
100
AcDbEntity
  8
image
100
AcDbPolyline
 90
        3
 70
     0
 43
0.0
 10
0.778434217811741
 20
4.315852726136782
 10
0.7099525963618936
 20
2.749961514942135
 10
0.7099525963618936
 20
2.749961514942135
  0
LWPOLYLINE
  5
1DF7
330
1E
100
AcDbEntity
  8
image
100
AcDbPolyline
 90
       10
 70
     0
 43
0.0
 10
0.6910763582786599
 20
2.749961514942135
 10
0.6921551976231682
 20
2.746726147057164
 10
0.6943128763121856
 20
2.743489629023637
 10
0.697008824524902
 20
2.741333100483176
 10
0.7007847622306818
 20
2.740793680810922
 10
0.7045595497879065
 20
2.741333100483176
 10
0.707255498000623
 20
2.743489629023637
 10
0.7094131766896395
 20
2.746726147057164
 10
0.7099525963618936
 20
2.749961514942135
 10
0.7099525963618936
 20
2.749961514942135
  0
LWPOLYLINE
  5
1DF8
330
1E
100
AcDbEntity
  8
image
100
AcDbPolyline
 90
        2
 70
     0
 43
0.0
 10
0.7099525963618936
 20
4.330096557555179
 10
0.8447776105630282
 20
4.302053635489288
  0
LWPOLYLINE
  5
1DF9
330
1E
100
AcDbEntity
  8
image
100
AcDbPolyline
 90
        3
 70
     0
 43
0.0
 10
0.7784439428069696
 20
4.425013717197938
 10
0.8663497968589792
 20
4.406676898786958
 10
0.8663497968589792
 20
4.406676898786958
  0
LWPOLYLINE
  5
1DFA
330
1E
100
AcDbEntity
  8
image
100
AcDbPolyline
 90
        2
 70
     0
 43
0.0
 10
0.5589484424387968
 20
4.470852887854
 10
0.623124431505838
 20
4.45737084649331
  0
LWPOLYLINE
  5
1DFB
330
1E
100
AcDbEntity
  8
image
100
AcDbPolyline
 90
        2
 70
     0
 43
0.0
 10
0.623124431505838
 20
4.470852887854
 10
0.623124431505838
 20
4.45737084649331
  0
LWPOLYLINE
  5
1DFC
330
1E
100
AcDbEntity
  8
image
100
AcDbPolyline
 90
        3
 70
     0
 43
0.0
 10
0.5589484424387968
 20
4.470852887854
 10
0.5368368364705917
 20
4.366229624556329
 10
0.5373762561428467
 20
4.366229624556329
  0
LWPOLYLINE
  5
1DFD
330
1E
100
AcDbEntity
  8
image
100
AcDbPolyline
 90
        2
 70
     0
 43
0.0
 10
0.7784439428069696
 20
4.470852887854
 10
0.7784439428069696
 20
4.425013717197938
  0
LWPOLYLINE
  5
1DFE
330
1E
100
AcDbEntity
  8
image
100
AcDbPolyline
 90
        2
 70
     0
 43
0.0
 10
0.5368368364705917
 20
4.366229624556329
 10
0.6910763582786599
 20
4.333871345112404
  0
LWPOLYLINE
  5
1DFF
330
1E
100
AcDbEntity
  8
image
100
AcDbPolyline
 90
        4
 70
     0
 43
0.0
 10
0.6614151771960053
 20
4.394811966294474
 10
0.6711224309994721
 20
4.391576598409503
 10
0.680829684802939
 20
4.388880650196789
 10
0.6910763582786599
 20
4.387262391180026
  0
LWPOLYLINE
  5
1E00
330
1E
100
AcDbEntity
  8
image
100
AcDbPolyline
 90
        8
 70
     0
 43
0.0
 10
0.6614151771960053
 20
4.394811966294474
 10
0.6592574985069888
 20
4.40559805944245
 10
0.6560221306220182
 20
4.415844732918172
 10
0.6511685037202844
 20
4.425551986721638
 10
0.6457754571462973
 20
4.434720971001405
 10
0.6387641515555469
 20
4.443348235311809
 10
0.6312145764410975
 20
4.450898960574813
 10
0.623124431505838
 20
4.45737084649331
  0
LWPOLYLINE
  5
1E01
330
1E
100
AcDbEntity
  8
image
100
AcDbPolyline
 90
        8
 70
     0
 43
0.0
 10
0.7099525963618936
 20
4.387262391180026
 10
0.7212781091821237
 20
4.388880650196789
 10
0.7326024718537978
 20
4.392116018081759
 10
0.7433885650017729
 20
4.396430225311238
 10
0.7530958188052397
 20
4.401823271885225
 10
0.7628042227572616
 20
4.408833427327421
 10
0.7708932175439652
 20
4.416384152590426
 10
0.7784439428069696
 20
4.425013717197938
  0
LWPOLYLINE
  5
1E02
330
1E
100
AcDbEntity
  8
image
100
AcDbPolyline
 90
        2
 70
     0
 43
0.0
 10
0.623124431505838
 20
4.470852887854
 10
0.7784439428069696
 20
4.470852887854
  0
LWPOLYLINE
  5
1E03
330
1E
100
AcDbEntity
  8
image
100
AcDbPolyline
 90
        2
 70
     0
 43
0.0
 10
0.8663497968589792
 20
4.406676898786958
 10
0.8447776105630282
 20
4.302053635489288
  0
POLYLINE
  5
1E0B
330
1E
100
AcDbEntity
  8
image
100
AcDb2dPolyline
 66
     1
 10
0.0
 20
0.0
 30
0.0
 70
   132
 75
     6
  0
VERTEX
  5
1E12
330
1E0B
100
AcDbEntity
  8
image
100
AcDbVertex
100
AcDb2dVertex
 10
0.863259454095229
 20
4.39168900000766
 30
0.0
 70
    16
  0
VERTEX
  5
1E21
330
1E0B
100
AcDbEntity
  8
image
100
AcDbVertex
100
AcDb2dVertex
 10
0.863259454095229
 20
4.39168900000766
 30
0.0
 70
     8
  0
VERTEX
  5
1E22
330
1E0B
100
AcDbEntity
  8
image
100
AcDbVertex
100
AcDb2dVertex
 10
0.892892833777179
 20
4.383064023067951
 30
0.0
 70
     8
  0
VERTEX
  5
1E23
330
1E0B
100
AcDbEntity
  8
image
100
AcDbVertex
100
AcDb2dVertex
 10
0.9195658412793331
 20
4.375520040152873
 30
0.0
 70
     8
  0
VERTEX
  5
1E24
330
1E0B
100
AcDbEntity
  8
image
100
AcDbVertex
100
AcDb2dVertex
 10
0.9436451202510179
 20
4.368980167575632
 30
0.0
 70
     8
  0
VERTEX
  5
1E25
330
1E0B
100
AcDbEntity
  8
image
100
AcDbVertex
100
AcDb2dVertex
 10
0.9654973143415586
 20
4.36336752164943
 30
0.0
 70
     8
  0
VERTEX
  5
1E26
330
1E0B
100
AcDbEntity
  8
image
100
AcDbVertex
100
AcDb2dVertex
 10
0.9854890672002817
 20
4.358605218687471
 30
0.0
 70
     8
  0
VERTEX
  5
1E27
330
1E0B
100
AcDbEntity
  8
image
100
AcDbVertex
100
AcDb2dVertex
 10
1.003987022476512
 20
4.35461637500296
 30
0.0
 70
     8
  0
VERTEX
  5
1E28
330
1E0B
100
AcDbEntity
  8
image
100
AcDbVertex
100
AcDb2dVertex
 10
1.021357823819577
 20
4.351324106909101
 30
0.0
 70
     8
  0
VERTEX
  5
1E29
330
1E0B
100
AcDbEntity
  8
image
100
AcDbVertex
100
AcDb2dVertex
 10
1.037968114878802
 20
4.348651530719096
 30
0.0
 70
     8
  0
VERTEX
  5
1E2A
330
1E0B
100
AcDbEntity
  8
image
100
AcDbVertex
100
AcDb2dVertex
 10
1.054126544482666
 20
4.346538534692861
 30
0.0
 70
     8
  0
VERTEX
  5
1E2B
330
1E0B
100
AcDbEntity
  8
image
100
AcDbVertex
100
AcDb2dVertex
 10
1.069909782176258
 20
4.34499209487715
 30
0.0
 70
     8
  0
VERTEX
  5
1E2C
330
1E0B
100
AcDbEntity
  8
image
100
AcDbVertex
100
AcDb2dVertex
 10
1.085336502683821
 20
4.344035959265429
 30
0.0
 70
     8
  0
VERTEX
  5
1E2D
330
1E0B
100
AcDbEntity
  8
image
100
AcDbVertex
100
AcDb2dVertex
 10
1.100425380729598
 20
4.343693875851162
 30
0.0
 70
     8
  0
VERTEX
  5
1E2E
330
1E0B
100
AcDbEntity
  8
image
100
AcDbVertex
100
AcDb2dVertex
 10
1.115195091037831
 20
4.343989592627814
 30
0.0
 70
     8
  0
VERTEX
  5
1E2F
330
1E0B
100
AcDbEntity
  8
image
100
AcDbVertex
100
AcDb2dVertex
 10
1.129664308332763
 20
4.344946857588852
 30
0.0
 70
     8
  0
VERTEX
  5
1E30
330
1E0B
100
AcDbEntity
  8
image
100
AcDbVertex
100
AcDb2dVertex
 10
1.143851707338636
 20
4.346589418727738
 30
0.0
 70
     8
  0
VERTEX
  5
1E31
330
1E0B
100
AcDbEntity
  8
image
100
AcDbVertex
100
AcDb2dVertex
 10
1.157775962779693
 20
4.348941024037939
 30
0.0
 70
     8
  0
VERTEX
  5
1E32
330
1E0B
100
AcDbEntity
  8
image
100
AcDbVertex
100
AcDb2dVertex
 10
1.171486025033439
 20
4.352007327857593
 30
0.0
 70
     8
  0
VERTEX
  5
1E33
330
1E0B
100
AcDbEntity
  8
image
100
AcDbVertex
100
AcDb2dVertex
 10
1.185151947090431
 20
4.355721609903532
 30
0.0
 70
     8
  0
VERTEX
  5
1E34
330
1E0B
100
AcDbEntity
  8
image
100
AcDbVertex
100
AcDb2dVertex
 10
1.198974057594489
 20
4.359999056237262
 30
0.0
 70
     8
  0
VERTEX
  5
1E35
330
1E0B
100
AcDbEntity
  8
image
100
AcDbVertex
100
AcDb2dVertex
 10
1.21315268518943
 20
4.364754852920286
 30
0.0
 70
     8
  0
VERTEX
  5
1E36
330
1E0B
100
AcDbEntity
  8
image
100
AcDbVertex
100
AcDb2dVertex
 10
1.227888158519076
 20
4.369904186014111
 30
0.0
 70
     8
  0
VERTEX
  5
1E37
330
1E0B
100
AcDbEntity
  8
image
100
AcDbVertex
100
AcDb2dVertex
 10
1.243380806227245
 20
4.375362241580242
 30
0.0
 70
     8
  0
VERTEX
  5
1E38
330
1E0B
100
AcDbEntity
  8
image
100
AcDbVertex
100
AcDb2dVertex
 10
1.259830956957756
 20
4.381044205680183
 30
0.0
 70
     8
  0
VERTEX
  5
1E39
330
1E0B
100
AcDbEntity
  8
image
100
AcDbVertex
100
AcDb2dVertex
 10
1.277438939354429
 20
4.38686526437544
 30
0.0
 70
     8
  0
VERTEX
  5
1E3A
330
1E0B
100
AcDbEntity
  8
image
100
AcDbVertex
100
AcDb2dVertex
 10
1.296330949147017
 20
4.392761524493519
 30
0.0
 70
     8
  0
VERTEX
  5
1E3B
330
1E0B
100
AcDbEntity
  8
image
100
AcDbVertex
100
AcDb2dVertex
 10
1.316336650409013
 20
4.398752775925919
 30
0.0
 70
     8
  0
VERTEX
  5
1E3C
330
1E0B
100
AcDbEntity
  8
image
100
AcDbVertex
100
AcDb2dVertex
 10
1.337211574299843
 20
4.404879729330142
 30
0.0
 70
     8
  0
VERTEX
  5
1E3D
330
1E0B
100
AcDbEntity
  8
image
100
AcDbVertex
100
AcDb2dVertex
 10
1.358711251978934
 20
4.411183095363687
 30
0.0
 70
     8
  0
VERTEX
  5
1E3E
330
1E0B
100
AcDbEntity
  8
image
100
AcDbVertex
100
AcDb2dVertex
 10
1.380591214605712
 20
4.417703584684057
 30
0.0
 70
     8
  0
VERTEX
  5
1E3F
330
1E0B
100
AcDbEntity
  8
image
100
AcDbVertex
100
AcDb2dVertex
 10
1.402606993339603
 20
4.424481907948751
 30
0.0
 70
     8
  0
VERTEX
  5
1E40
330
1E0B
100
AcDbEntity
  8
image
100
AcDbVertex
100
AcDb2dVertex
 10
1.424514119340035
 20
4.43155877581527
 30
0.0
 70
     8
  0
VERTEX
  5
1E41
330
1E0B
100
AcDbEntity
  8
image
100
AcDbVertex
100
AcDb2dVertex
 10
1.446068123766434
 20
4.438974898941114
 30
0.0
 70
     8
  0
VERTEX
  5
1E42
330
1E0B
100
AcDbEntity
  8
image
100
AcDbVertex
100
AcDb2dVertex
 10
1.467102066098141
 20
4.446744412982699
 30
0.0
 70
     8
  0
VERTEX
  5
1E43
330
1E0B
100
AcDbEntity
  8
image
100
AcDbVertex
100
AcDb2dVertex
 10
1.487759119094156
 20
4.454775153592103
 30
0.0
 70
     8
  0
VERTEX
  5
1E44
330
1E0B
100
AcDbEntity
  8
image
100
AcDbVertex
100
AcDb2dVertex
 10
1.508259983833395
 20
4.462948381420315
 30
0.0
 70
     8
  0
VERTEX
  5
1E45
330
1E0B
100
AcDbEntity
  8
image
100
AcDbVertex
100
AcDb2dVertex
 10
1.528825361394773
 20
4.47114535711833
 30
0.0
 70
     8
  0
VERTEX
  5
1E46
330
1E0B
100
AcDbEntity
  8
image
100
AcDbVertex
100
AcDb2dVertex
 10
1.549675952857206
 20
4.479247341337138
 30
0.0
 70
     8
  0
VERTEX
  5
1E47
330
1E0B
100
AcDbEntity
  8
image
100
AcDbVertex
100
AcDb2dVertex
 10
1.571032459299608
 20
4.487135594727732
 30
0.0
 70
     8
  0
VERTEX
  5
1E48
330
1E0B
100
AcDbEntity
  8
image
100
AcDbVertex
100
AcDb2dVertex
 10
1.593115581800895
 20
4.494691377941102
 30
0.0
 70
     8
  0
VERTEX
  5
1E49
330
1E0B
100
AcDbEntity
  8
image
100
AcDbVertex
100
AcDb2dVertex
 10
1.616146021439982
 20
4.501795951628242
 30
0.0
 70
     8
  0
VERTEX
  5
1E4A
330
1E0B
100
AcDbEntity
  8
image
100
AcDbVertex
100
AcDb2dVertex
 10
1.640276571258086
 20
4.508357716857866
 30
0.0
 70
     8
  0
VERTEX
  5
1E4B
330
1E0B
100
AcDbEntity
  8
image
100
AcDbVertex
100
AcDb2dVertex
 10
1.665388392145623
 20
4.514393636369582
 30
0.0
 70
     8
  0
VERTEX
  5
1E4C
330
1E0B
100
AcDbEntity
  8
image
100
AcDbVertex
100
AcDb2dVertex
 10
1.691294736955313
 20
4.51994781332072
 30
0.0
 70
     8
  0
VERTEX
  5
1E4D
330
1E0B
100
AcDbEntity
  8
image
100
AcDbVertex
100
AcDb2dVertex
 10
1.717808858539875
 20
4.525064350868611
 30
0.0
 70
     8
  0
VERTEX
  5
1E4E
330
1E0B
100
AcDbEntity
  8
image
100
AcDbVertex
100
AcDb2dVertex
 10
1.744744009752026
 20
4.529787352170587
 30
0.0
 70
     8
  0
VERTEX
  5
1E4F
330
1E0B
100
AcDbEntity
  8
image
100
AcDbVertex
100
AcDb2dVertex
 10
1.771913443444487
 20
4.534160920383977
 30
0.0
 70
     8
  0
VERTEX
  5
1E50
330
1E0B
100
AcDbEntity
  8
image
100
AcDbVertex
100
AcDb2dVertex
 10
1.799130412469974
 20
4.538229158666114
 30
0.0
 70
     8
  0
VERTEX
  5
1E51
330
1E0B
100
AcDbEntity
  8
image
100
AcDbVertex
100
AcDb2dVertex
 10
1.826208169681208
 20
4.542036170174326
 30
0.0
 70
     8
  0
VERTEX
  5
1E52
330
1E0B
100
AcDbEntity
  8
image
100
AcDbVertex
100
AcDb2dVertex
 10
1.853000712769384
 20
4.545623796371911
 30
0.0
 70
     8
  0
VERTEX
  5
1E53
330
1E0B
100
AcDbEntity
  8
image
100
AcDbVertex
100
AcDb2dVertex
 10
1.879525018779605
 20
4.549024831946029
 30
0.0
 70
     8
  0
VERTEX
  5
1E54
330
1E0B
100
AcDbEntity
  8
image
100
AcDbVertex
100
AcDb2dVertex
 10
1.905838809595454
 20
4.552269809889805
 30
0.0
 70
     8
  0
VERTEX
  5
1E55
330
1E0B
100
AcDbEntity
  8
image
100
AcDbVertex
100
AcDb2dVertex
 10
1.931999807100511
 20
4.555389263196365
 30
0.0
 70
     8
  0
VERTEX
  5
1E56
330
1E0B
100
AcDbEntity
  8
image
100
AcDbVertex
100
AcDb2dVertex
 10
1.958065733178356
 20
4.558413724858833
 30
0.0
 70
     8
  0
VERTEX
  5
1E57
330
1E0B
100
AcDbEntity
  8
image
100
AcDbVertex
100
AcDb2dVertex
 10
1.984094309712572
 20
4.561373727870336
 30
0.0
 70
     8
  0
VERTEX
  5
1E58
330
1E0B
100
AcDbEntity
  8
image
100
AcDbVertex
100
AcDb2dVertex
 10
2.01014325858674
 20
4.564299805223998
 30
0.0
 70
     8
  0
VERTEX
  5
1E59
330
1E0B
100
AcDbEntity
  8
image
100
AcDbVertex
100
AcDb2dVertex
 10
2.03627030168444
 20
4.567222489912945
 30
0.0
 70
     8
  0
VERTEX
  5
1E5A
330
1E0B
100
AcDbEntity
  8
image
100
AcDbVertex
100
AcDb2dVertex
 10
2.062468082353786
 20
4.570151959608423
 30
0.0
 70
     8
  0
VERTEX
  5
1E5B
330
1E0B
100
AcDbEntity
  8
image
100
AcDbVertex
100
AcDb2dVertex
 10
2.088468929801019
 20
4.573016970694157
 30
0.0
 70
     8
  0
VERTEX
  5
1E5C
330
1E0B
100
AcDbEntity
  8
image
100
AcDbVertex
100
AcDb2dVertex
 10
2.113940094696914
 20
4.575725924231992
 30
0.0
 70
     8
  0
VERTEX
  5
1E5D
330
1E0B
100
AcDbEntity
  8
image
100
AcDbVertex
100
AcDb2dVertex
 10
2.138548827712244
 20
4.578187221283771
 30
0.0
 70
     8
  0
VERTEX
  5
1E5E
330
1E0B
100
AcDbEntity
  8
image
100
AcDbVertex
100
AcDb2dVertex
 10
2.161962379517782
 20
4.580309262911341
 30
0.0
 70
     8
  0
VERTEX
  5
1E5F
330
1E0B
100
AcDbEntity
  8
image
100
AcDbVertex
100
AcDb2dVertex
 10
2.183848000784302
 20
4.582000450176545
 30
0.0
 70
     8
  0
VERTEX
  5
1E60
330
1E0B
100
AcDbEntity
  8
image
100
AcDbVertex
100
AcDb2dVertex
 10
2.203872942182579
 20
4.583169184141229
 30
0.0
 70
     8
  0
VERTEX
  5
1E61
330
1E0B
100
AcDbEntity
  8
image
100
AcDbVertex
100
AcDb2dVertex
 10
2.221704454383385
 20
4.583723865867237
 30
0.0
 70
     8
  0
VERTEX
  5
1E62
330
1E0B
100
AcDbEntity
  8
image
100
AcDbVertex
100
AcDb2dVertex
 10
2.237118440917813
 20
4.583585901205203
 30
0.0
 70
     8
  0
VERTEX
  5
1E63
330
1E0B
100
AcDbEntity
  8
image
100
AcDbVertex
100
AcDb2dVertex
 10
2.250325416758234
 20
4.582728715160911
 30
0.0
 70
     8
  0
VERTEX
  5
1E64
330
1E0B
100
AcDbEntity
  8
image
100
AcDbVertex
100
AcDb2dVertex
 10
2.261644549737335
 20
4.581138737528936
 30
0.0
 70
     8
  0
VERTEX
  5
1E65
330
1E0B
100
AcDbEntity
  8
image
100
AcDbVertex
100
AcDb2dVertex
 10
2.271395007687804
 20
4.57880239810385
 30
0.0
 70
     8
  0
VERTEX
  5
1E66
330
1E0B
100
AcDbEntity
  8
image
100
AcDbVertex
100
AcDb2dVertex
 10
2.27989595844233
 20
4.575706126680229
 30
0.0
 70
     8
  0
VERTEX
  5
1E67
330
1E0B
100
AcDbEntity
  8
image
100
AcDbVertex
100
AcDb2dVertex
 10
2.287466569833601
 20
4.571836353052644
 30
0.0
 70
     8
  0
VERTEX
  5
1E68
330
1E0B
100
AcDbEntity
  8
image
100
AcDbVertex
100
AcDb2dVertex
 10
2.294426009694305
 20
4.567179507015669
 30
0.0
 70
     8
  0
VERTEX
  5
1E69
330
1E0B
100
AcDbEntity
  8
image
100
AcDbVertex
100
AcDb2dVertex
 10
2.301093445857131
 20
4.561722018363878
 30
0.0
 70
     8
  0
VERTEX
  5
1E6A
330
1E0B
100
AcDbEntity
  8
image
100
AcDbVertex
100
AcDb2dVertex
 10
2.307718440366571
 20
4.555439856508845
 30
0.0
 70
     8
  0
VERTEX
  5
1E6B
330
1E0B
100
AcDbEntity
  8
image
100
AcDbVertex
100
AcDb2dVertex
 10
2.31427213211433
 20
4.548267149330145
 30
0.0
 70
     8
  0
VERTEX
  5
1E6C
330
1E0B
100
AcDbEntity
  8
image
100
AcDbVertex
100
AcDb2dVertex
 10
2.32065605420392
 20
4.540127564324355
 30
0.0
 70
     8
  0
VERTEX
  5
1E6D
330
1E0B
100
AcDbEntity
  8
image
100
AcDbVertex
100
AcDb2dVertex
 10
2.326771739738851
 20
4.530944768988049
 30
0.0
 70
     8
  0
VERTEX
  5
1E6E
330
1E0B
100
AcDbEntity
  8
image
100
AcDbVertex
100
AcDb2dVertex
 10
2.332520721822632
 20
4.520642430817805
 30
0.0
 70
     8
  0
VERTEX
  5
1E6F
330
1E0B
100
AcDbEntity
  8
image
100
AcDbVertex
100
AcDb2dVertex
 10
2.337804533558775
 20
4.509144217310197
 30
0.0
 70
     8
  0
VERTEX
  5
1E70
330
1E0B
100
AcDbEntity
  8
image
100
AcDbVertex
100
AcDb2dVertex
 10
2.342524708050788
 20
4.496373795961801
 30
0.0
 70
     8
  0
VERTEX
  5
1E71
330
1E0B
100
AcDbEntity
  8
image
100
AcDbVertex
100
AcDb2dVertex
 10
2.346582778402183
 20
4.482254834269194
 30
0.0
 70
     8
  0
VERTEX
  5
1E72
330
1E0B
100
AcDbEntity
  8
image
100
AcDbVertex
100
AcDb2dVertex
 10
2.349907662027447
 20
4.466781435590439
 30
0.0
 70
     8
  0
VERTEX
  5
1E73
330
1E0B
100
AcDbEntity
  8
image
100
AcDbVertex
100
AcDb2dVertex
 10
2.352537813584977
 20
4.450229446729558
 30
0.0
 70
     8
  0
VERTEX
  5
1E74
330
1E0B
100
AcDbEntity
  8
image
100
AcDbVertex
100
AcDb2dVertex
 10
2.354539072044144
 20
4.432945150352058
 30
0.0
 70
     8
  0
VERTEX
  5
1E75
330
1E0B
100
AcDbEntity
  8
image
100
AcDbVertex
100
AcDb2dVertex
 10
2.355977276374324
 20
4.415274829123448
 30
0.0
 70
     8
  0
VERTEX
  5
1E76
330
1E0B
100
AcDbEntity
  8
image
100
AcDbVertex
100
AcDb2dVertex
 10
2.356918265544888
 20
4.397564765709237
 30
0.0
 70
     8
  0
VERTEX
  5
1E77
330
1E0B
100
AcDbEntity
  8
image
100
AcDbVertex
100
AcDb2dVertex
 10
2.357427878525212
 20
4.380161242774934
 30
0.0
 70
     8
  0
VERTEX
  5
1E78
330
1E0B
100
AcDbEntity
  8
image
100
AcDbVertex
100
AcDb2dVertex
 10
2.357571954284667
 20
4.363410542986048
 30
0.0
 70
     8
  0
VERTEX
  5
1E79
330
1E0B
100
AcDbEntity
  8
image
100
AcDbVertex
100
AcDb2dVertex
 10
2.357416331792628
 20
4.347658949008087
 30
0.0
 70
     8
  0
VERTEX
  5
1E13
330
1E0B
100
AcDbEntity
  8
image
100
AcDbVertex
100
AcDb2dVertex
 10
0.9465548682862239
 20
4.367179395080664
 30
0.0
 70
    16
  0
VERTEX
  5
1E14
330
1E0B
100
AcDbEntity
  8
image
100
AcDbVertex
100
AcDb2dVertex
 10
1.042169358980286
 20
4.342861576403797
 30
0.0
 70
    16
  0
VERTEX
  5
1E15
330
1E0B
100
AcDbEntity
  8
image
100
AcDbVertex
100
AcDb2dVertex
 10
1.160383630412476
 20
4.34112457428029
 30
0.0
 70
    16
  0
VERTEX
  5
1E16
330
1E0B
100
AcDbEntity
  8
image
100
AcDbVertex
100
AcDb2dVertex
 10
1.262951896047964
 20
4.386286270702679
 30
0.0
 70
    16
  0
VERTEX
  5
1E17
330
1E0B
100
AcDbEntity
  8
image
100
AcDbVertex
100
AcDb2dVertex
 10
1.452442421522239
 20
4.434921929161636
 30
0.0
 70
    16
  0
VERTEX
  5
1E18
330
1E0B
100
AcDbEntity
  8
image
100
AcDbVertex
100
AcDb2dVertex
 10
1.603687160461684
 20
4.507875406297459
 30
0.0
 70
    16
  0
VERTEX
  5
1E19
330
1E0B
100
AcDbEntity
  8
image
100
AcDbVertex
100
AcDb2dVertex
 10
1.829685065270918
 20
4.544352155417983
 30
0.0
 70
    16
  0
VERTEX
  5
1E1A
330
1E0B
100
AcDbEntity
  8
image
100
AcDbVertex
100
AcDb2dVertex
 10
2.034821596541894
 20
4.566932993076565
 30
0.0
 70
    16
  0
VERTEX
  5
1E1B
330
1E0B
100
AcDbEntity
  8
image
100
AcDbVertex
100
AcDb2dVertex
 10
2.248650358668147
 20
4.591250811753432
 30
0.0
 70
    16
  0
VERTEX
  5
1E1C
330
1E0B
100
AcDbEntity
  8
image
100
AcDbVertex
100
AcDb2dVertex
 10
2.300803695085825
 20
4.570406955113132
 30
0.0
 70
    16
  0
VERTEX
  5
1E1D
330
1E0B
100
AcDbEntity
  8
image
100
AcDbVertex
100
AcDb2dVertex
 10
2.354695536131339
 20
4.49745347797731
 30
0.0
 70
    16
  0
VERTEX
  5
1E1E
330
1E0B
100
AcDbEntity
  8
image
100
AcDbVertex
100
AcDb2dVertex
 10
2.35817239924506
 20
4.388023251720963
 30
0.0
 70
    16
  0
VERTEX
  5
1E1F
330
1E0B
100
AcDbEntity
  8
image
100
AcDbVertex
100
AcDb2dVertex
 10
2.357416331792628
 20
4.347658949008087
 30
0.0
 70
    16
  0
SEQEND
  5
1E20
330
1E0B
100
AcDbEntity
  8
image
  0
POLYLINE
  5
1E11
330
1E
100
AcDbEntity
  8
image
100
AcDb2dPolyline
 66
     1
 10
0.0
 20
0.0
 30
0.0
 70
   132
 75
     6
  0
VERTEX
  5
1E7A
330
1E11
100
AcDbEntity
  8
image
100
AcDbVertex
100
AcDb2dVertex
 10
0.851105032936778
 20
4.332741094234656
 30
0.0
 70
    16
  0
VERTEX
  5
1E89
330
1E11
100
AcDbEntity
  8
image
100
AcDbVertex
100
AcDb2dVertex
 10
0.851105032936778
 20
4.332741094234656
 30
0.0
 70
     8
  0
VERTEX
  5
1E8A
330
1E11
100
AcDbEntity
  8
image
100
AcDbVertex
100
AcDb2dVertex
 10
0.879694718035375
 20
4.324432004750351
 30
0.0
 70
     8
  0
VERTEX
  5
1E8B
330
1E11
100
AcDbEntity
  8
image
100
AcDbVertex
100
AcDb2dVertex
 10
0.9059693595256842
 20
4.317037062551165
 30
0.0
 70
     8
  0
VERTEX
  5
1E8C
330
1E11
100
AcDbEntity
  8
image
100
AcDbVertex
100
AcDb2dVertex
 10
0.9302218420614661
 20
4.310509304809199
 30
0.0
 70
     8
  0
VERTEX
  5
1E8D
330
1E11
100
AcDbEntity
  8
image
100
AcDbVertex
100
AcDb2dVertex
 10
0.9527450502964814
 20
4.304801768696553
 30
0.0
 70
     8
  0
VERTEX
  5
1E8E
330
1E11
100
AcDbEntity
  8
image
100
AcDbVertex
100
AcDb2dVertex
 10
0.9738318688844902
 20
4.299867491385325
 30
0.0
 70
     8
  0
VERTEX
  5
1E8F
330
1E11
100
AcDbEntity
  8
image
100
AcDbVertex
100
AcDb2dVertex
 10
0.9937751824792531
 20
4.295659510047612
 30
0.0
 70
     8
  0
VERTEX
  5
1E90
330
1E11
100
AcDbEntity
  8
image
100
AcDbVertex
100
AcDb2dVertex
 10
1.01286787573453
 20
4.292130861855516
 30
0.0
 70
     8
  0
VERTEX
  5
1E91
330
1E11
100
AcDbEntity
  8
image
100
AcDbVertex
100
AcDb2dVertex
 10
1.031402833304083
 20
4.289234583981135
 30
0.0
 70
     8
  0
VERTEX
  5
1E92
330
1E11
100
AcDbEntity
  8
image
100
AcDbVertex
100
AcDb2dVertex
 10
1.049620427201995
 20
4.286935778811693
 30
0.0
 70
     8
  0
VERTEX
  5
1E93
330
1E11
100
AcDbEntity
  8
image
100
AcDbVertex
100
AcDb2dVertex
 10
1.067550978883643
 20
4.285247809594917
 30
0.0
 70
     8
  0
VERTEX
  5
1E94
330
1E11
100
AcDbEntity
  8
image
100
AcDbVertex
100
AcDb2dVertex
 10
1.085172297164729
 20
4.284196104793657
 30
0.0
 70
     8
  0
VERTEX
  5
1E95
330
1E11
100
AcDbEntity
  8
image
100
AcDbVertex
100
AcDb2dVertex
 10
1.102462190860953
 20
4.283806092870767
 30
0.0
 70
     8
  0
VERTEX
  5
1E96
330
1E11
100
AcDbEntity
  8
image
100
AcDbVertex
100
AcDb2dVertex
 10
1.119398468788016
 20
4.284103202289097
 30
0.0
 70
     8
  0
VERTEX
  5
1E97
330
1E11
100
AcDbEntity
  8
image
100
AcDbVertex
100
AcDb2dVertex
 10
1.13595893976162
 20
4.285112861511499
 30
0.0
 70
     8
  0
VERTEX
  5
1E98
330
1E11
100
AcDbEntity
  8
image
100
AcDbVertex
100
AcDb2dVertex
 10
1.152121412597465
 20
4.286860499000826
 30
0.0
 70
     8
  0
VERTEX
  5
1E99
330
1E11
100
AcDbEntity
  8
image
100
AcDbVertex
100
AcDb2dVertex
 10
1.167863696111251
 20
4.289371543219928
 30
0.0
 70
     8
  0
VERTEX
  5
1E9A
330
1E11
100
AcDbEntity
  8
image
100
AcDbVertex
100
AcDb2dVertex
 10
1.183202706516512
 20
4.292650894934583
 30
0.0
 70
     8
  0
VERTEX
  5
1E9B
330
1E11
100
AcDbEntity
  8
image
100
AcDbVertex
100
AcDb2dVertex
 10
1.198311789618103
 20
4.296621344122263
 30
0.0
 70
     8
  0
VERTEX
  5
1E9C
330
1E11
100
AcDbEntity
  8
image
100
AcDbVertex
100
AcDb2dVertex
 10
1.21340339861871
 20
4.301185153063365
 30
0.0
 70
     8
  0
VERTEX
  5
1E9D
330
1E11
100
AcDbEntity
  8
image
100
AcDbVertex
100
AcDb2dVertex
 10
1.228689986721023
 20
4.306244584038289
 30
0.0
 70
     8
  0
VERTEX
  5
1E9E
330
1E11
100
AcDbEntity
  8
image
100
AcDbVertex
100
AcDb2dVertex
 10
1.244384007127727
 20
4.311701899327432
 30
0.0
 70
     8
  0
VERTEX
  5
1E9F
330
1E11
100
AcDbEntity
  8
image
100
AcDbVertex
100
AcDb2dVertex
 10
1.26069791304151
 20
4.317459361211191
 30
0.0
 70
     8
  0
VERTEX
  5
1EA0
330
1E11
100
AcDbEntity
  8
image
100
AcDbVertex
100
AcDb2dVertex
 10
1.277844157665058
 20
4.323419231969964
 30
0.0
 70
     8
  0
VERTEX
  5
1EA1
330
1E11
100
AcDbEntity
  8
image
100
AcDbVertex
100
AcDb2dVertex
 10
1.296035194201061
 20
4.32948377388415
 30
0.0
 70
     8
  0
VERTEX
  5
1EA2
330
1E11
100
AcDbEntity
  8
image
100
AcDbVertex
100
AcDb2dVertex
 10
1.315408279782977
 20
4.335578832759538
 30
0.0
 70
     8
  0
VERTEX
  5
1EA3
330
1E11
100
AcDbEntity
  8
image
100
AcDbVertex
100
AcDb2dVertex
 10
1.335799887267368
 20
4.341724588503488
 30
0.0
 70
     8
  0
VERTEX
  5
1EA4
330
1E11
100
AcDbEntity
  8
image
100
AcDbVertex
100
AcDb2dVertex
 10
1.356971293441565
 20
4.347964804548754
 30
0.0
 70
     8
  0
VERTEX
  5
1EA5
330
1E11
100
AcDbEntity
  8
image
100
AcDbVertex
100
AcDb2dVertex
 10
1.378683775092902
 20
4.354343244328084
 30
0.0
 70
     8
  0
VERTEX
  5
1EA6
330
1E11
100
AcDbEntity
  8
image
100
AcDbVertex
100
AcDb2dVertex
 10
1.400698609008713
 20
4.360903671274235
 30
0.0
 70
     8
  0
VERTEX
  5
1EA7
330
1E11
100
AcDbEntity
  8
image
100
AcDbVertex
100
AcDb2dVertex
 10
1.422777071976331
 20
4.367689848819957
 30
0.0
 70
     8
  0
VERTEX
  5
1EA8
330
1E11
100
AcDbEntity
  8
image
100
AcDbVertex
100
AcDb2dVertex
 10
1.444680440783089
 20
4.374745540398003
 30
0.0
 70
     8
  0
VERTEX
  5
1EA9
330
1E11
100
AcDbEntity
  8
image
100
AcDbVertex
100
AcDb2dVertex
 10
1.46616999221632
 20
4.382114509441125
 30
0.0
 70
     8
  0
VERTEX
  5
1EAA
330
1E11
100
AcDbEntity
  8
image
100
AcDbVertex
100
AcDb2dVertex
 10
1.487082238212829
 20
4.389813774198042
 30
0.0
 70
     8
  0
VERTEX
  5
1EAB
330
1E11
100
AcDbEntity
  8
image
100
AcDbVertex
100
AcDb2dVertex
 10
1.507554631307302
 20
4.39775337218135
 30
0.0
 70
     8
  0
VERTEX
  5
1EAC
330
1E11
100
AcDbEntity
  8
image
100
AcDbVertex
100
AcDb2dVertex
 10
1.527799859183897
 20
4.40581659571961
 30
0.0
 70
     8
  0
VERTEX
  5
1EAD
330
1E11
100
AcDbEntity
  8
image
100
AcDbVertex
100
AcDb2dVertex
 10
1.548030609526774
 20
4.413886737141384
 30
0.0
 70
     8
  0
VERTEX
  5
1EAE
330
1E11
100
AcDbEntity
  8
image
100
AcDbVertex
100
AcDb2dVertex
 10
1.568459570020088
 20
4.421847088775233
 30
0.0
 70
     8
  0
VERTEX
  5
1EAF
330
1E11
100
AcDbEntity
  8
image
100
AcDbVertex
100
AcDb2dVertex
 10
1.589299428347999
 20
4.429580942949718
 30
0.0
 70
     8
  0
VERTEX
  5
1EB0
330
1E11
100
AcDbEntity
  8
image
100
AcDbVertex
100
AcDb2dVertex
 10
1.610762872194665
 20
4.436971591993404
 30
0.0
 70
     8
  0
VERTEX
  5
1EB1
330
1E11
100
AcDbEntity
  8
image
100
AcDbVertex
100
AcDb2dVertex
 10
1.633062589244242
 20
4.44390232823485
 30
0.0
 70
     8
  0
VERTEX
  5
1EB2
330
1E11
100
AcDbEntity
  8
image
100
AcDbVertex
100
AcDb2dVertex
 10
1.656350015624317
 20
4.450283866579954
 30
0.0
 70
     8
  0
VERTEX
  5
1EB3
330
1E11
100
AcDbEntity
  8
image
100
AcDbVertex
100
AcDb2dVertex
 10
1.680531581236179
 20
4.456136612243946
 30
0.0
 70
     8
  0
VERTEX
  5
1EB4
330
1E11
100
AcDbEntity
  8
image
100
AcDbVertex
100
AcDb2dVertex
 10
1.705452464424546
 20
4.461508393019395
 30
0.0
 70
     8
  0
VERTEX
  5
1EB5
330
1E11
100
AcDbEntity
  8
image
100
AcDbVertex
100
AcDb2dVertex
 10
1.730957843534135
 20
4.466447036698866
 30
0.0
 70
     8
  0
VERTEX
  5
1EB6
330
1E11
100
AcDbEntity
  8
image
100
AcDbVertex
100
AcDb2dVertex
 10
1.756892896909662
 20
4.471000371074927
 30
0.0
 70
     8
  0
VERTEX
  5
1EB7
330
1E11
100
AcDbEntity
  8
image
100
AcDbVertex
100
AcDb2dVertex
 10
1.783102802895845
 20
4.475216223940143
 30
0.0
 70
     8
  0
VERTEX
  5
1EB8
330
1E11
100
AcDbEntity
  8
image
100
AcDbVertex
100
AcDb2dVertex
 10
1.809432739837402
 20
4.479142423087081
 30
0.0
 70
     8
  0
VERTEX
  5
1EB9
330
1E11
100
AcDbEntity
  8
image
100
AcDbVertex
100
AcDb2dVertex
 10
1.835727886079049
 20
4.482826796308308
 30
0.0
 70
     8
  0
VERTEX
  5
1EBA
330
1E11
100
AcDbEntity
  8
image
100
AcDbVertex
100
AcDb2dVertex
 10
1.861861606253732
 20
4.486313305431198
 30
0.0
 70
     8
  0
VERTEX
  5
1EBB
330
1E11
100
AcDbEntity
  8
image
100
AcDbVertex
100
AcDb2dVertex
 10
1.887820010147313
 20
4.489630448422355
 30
0.0
 70
     8
  0
VERTEX
  5
1EBC
330
1E11
100
AcDbEntity
  8
image
100
AcDbVertex
100
AcDb2dVertex
 10
1.913617393833883
 20
4.492802857283193
 30
0.0
 70
     8
  0
VERTEX
  5
1EBD
330
1E11
100
AcDbEntity
  8
image
100
AcDbVertex
100
AcDb2dVertex
 10
1.939268053387531
 20
4.495855164015123
 30
0.0
 70
     8
  0
VERTEX
  5
1EBE
330
1E11
100
AcDbEntity
  8
image
100
AcDbVertex
100
AcDb2dVertex
 10
1.964786284882347
 20
4.498812000619559
 30
0.0
 70
     8
  0
VERTEX
  5
1EBF
330
1E11
100
AcDbEntity
  8
image
100
AcDbVertex
100
AcDb2dVertex
 10
1.990186384392423
 20
4.501697999097912
 30
0.0
 70
     8
  0
VERTEX
  5
1EC0
330
1E11
100
AcDbEntity
  8
image
100
AcDbVertex
100
AcDb2dVertex
 10
2.015482647991848
 20
4.504537791451596
 30
0.0
 70
     8
  0
VERTEX
  5
1EC1
330
1E11
100
AcDbEntity
  8
image
100
AcDbVertex
100
AcDb2dVertex
 10
2.040689371754713
 20
4.507356009682022
 30
0.0
 70
     8
  0
VERTEX
  5
1EC2
330
1E11
100
AcDbEntity
  8
image
100
AcDbVertex
100
AcDb2dVertex
 10
2.065762534599556
 20
4.510162853933366
 30
0.0
 70
     8
  0
VERTEX
  5
1EC3
330
1E11
100
AcDbEntity
  8
image
100
AcDbVertex
100
AcDb2dVertex
 10
2.090424846822709
 20
4.512910796920855
 30
0.0
 70
     8
  0
VERTEX
  5
1EC4
330
1E11
100
AcDbEntity
  8
image
100
AcDbVertex
100
AcDb2dVertex
 10
2.114340701564951
 20
4.515537879502474
 30
0.0
 70
     8
  0
VERTEX
  5
1EC5
330
1E11
100
AcDbEntity
  8
image
100
AcDbVertex
100
AcDb2dVertex
 10
2.137174491967062
 20
4.517982142536214
 30
0.0
 70
     8
  0
VERTEX
  5
1EC6
330
1E11
100
AcDbEntity
  8
image
100
AcDbVertex
100
AcDb2dVertex
 10
2.158590611169821
 20
4.520181626880063
 30
0.0
 70
     8
  0
VERTEX
  5
1EC7
330
1E11
100
AcDbEntity
  8
image
100
AcDbVertex
100
AcDb2dVertex
 10
2.178253452314007
 20
4.522074373392008
 30
0.0
 70
     8
  0
VERTEX
  5
1EC8
330
1E11
100
AcDbEntity
  8
image
100
AcDbVertex
100
AcDb2dVertex
 10
2.1958274085404
 20
4.523598422930039
 30
0.0
 70
     8
  0
VERTEX
  5
1EC9
330
1E11
100
AcDbEntity
  8
image
100
AcDbVertex
100
AcDb2dVertex
 10
2.21097687298978
 20
4.524691816352143
 30
0.0
 70
     8
  0
VERTEX
  5
1ECA
330
1E11
100
AcDbEntity
  8
image
100
AcDbVertex
100
AcDb2dVertex
 10
2.223483048032383
 20
4.525301699090966
 30
0.0
 70
     8
  0
VERTEX
  5
1ECB
330
1E11
100
AcDbEntity
  8
image
100
AcDbVertex
100
AcDb2dVertex
 10
2.233594372956275
 20
4.525411634877776
 30
0.0
 70
     8
  0
VERTEX
  5
1ECC
330
1E11
100
AcDbEntity
  8
image
100
AcDbVertex
100
AcDb2dVertex
 10
2.24167609627898
 20
4.525014292018502
 30
0.0
 70
     8
  0
VERTEX
  5
1ECD
330
1E11
100
AcDbEntity
  8
image
100
AcDbVertex
100
AcDb2dVertex
 10
2.24809346651802
 20
4.524102338819069
 30
0.0
 70
     8
  0
VERTEX
  5
1ECE
330
1E11
100
AcDbEntity
  8
image
100
AcDbVertex
100
AcDb2dVertex
 10
2.253211732190919
 20
4.522668443585405
 30
0.0
 70
     8
  0
VERTEX
  5
1ECF
330
1E11
100
AcDbEntity
  8
image
100
AcDbVertex
100
AcDb2dVertex
 10
2.2573961418152
 20
4.520705274623435
 30
0.0
 70
     8
  0
VERTEX
  5
1ED0
330
1E11
100
AcDbEntity
  8
image
100
AcDbVertex
100
AcDb2dVertex
 10
2.261011943908386
 20
4.518205500239087
 30
0.0
 70
     8
  0
VERTEX
  5
1ED1
330
1E11
100
AcDbEntity
  8
image
100
AcDbVertex
100
AcDb2dVertex
 10
2.264424386988001
 20
4.515161788738287
 30
0.0
 70
     8
  0
VERTEX
  5
1ED2
330
1E11
100
AcDbEntity
  8
image
100
AcDbVertex
100
AcDb2dVertex
 10
2.26792476974363
 20
4.511564854160729
 30
0.0
 70
     8
  0
VERTEX
  5
1ED3
330
1E11
100
AcDbEntity
  8
image
100
AcDbVertex
100
AcDb2dVertex
 10
2.271508591553112
 20
4.507397593481183
 30
0.0
 70
     8
  0
VERTEX
  5
1ED4
330
1E11
100
AcDbEntity
  8
image
100
AcDbVertex
100
AcDb2dVertex
 10
2.275097401966349
 20
4.502640949408183
 30
0.0
 70
     8
  0
VERTEX
  5
1ED5
330
1E11
100
AcDbEntity
  8
image
100
AcDbVertex
100
AcDb2dVertex
 10
2.278612750533241
 20
4.497275864650266
 30
0.0
 70
     8
  0
VERTEX
  5
1ED6
330
1E11
100
AcDbEntity
  8
image
100
AcDbVertex
100
AcDb2dVertex
 10
2.28197618680369
 20
4.491283281915968
 30
0.0
 70
     8
  0
VERTEX
  5
1ED7
330
1E11
100
AcDbEntity
  8
image
100
AcDbVertex
100
AcDb2dVertex
 10
2.285109260327598
 20
4.484644143913825
 30
0.0
 70
     8
  0
VERTEX
  5
1ED8
330
1E11
100
AcDbEntity
  8
image
100
AcDbVertex
100
AcDb2dVertex
 10
2.287933520654866
 20
4.477339393352373
 30
0.0
 70
     8
  0
VERTEX
  5
1ED9
330
1E11
100
AcDbEntity
  8
image
100
AcDbVertex
100
AcDb2dVertex
 10
2.290370517335395
 20
4.469349972940149
 30
0.0
 70
     8
  0
VERTEX
  5
1EDA
330
1E11
100
AcDbEntity
  8
image
100
AcDbVertex
100
AcDb2dVertex
 10
2.292363299239372
 20
4.460684737173216
 30
0.0
 70
     8
  0
VERTEX
  5
1EDB
330
1E11
100
AcDbEntity
  8
image
100
AcDbVertex
100
AcDb2dVertex
 10
2.293940912518128
 20
4.451464187697756
 30
0.0
 70
     8
  0
VERTEX
  5
1EDC
330
1E11
100
AcDbEntity
  8
image
100
AcDbVertex
100
AcDb2dVertex
 10
2.295153902643277
 20
4.441836737947478
 30
0.0
 70
     8
  0
VERTEX
  5
1EDD
330
1E11
100
AcDbEntity
  8
image
100
AcDbVertex
100
AcDb2dVertex
 10
2.296052815086436
 20
4.431950801356093
 30
0.0
 70
     8
  0
VERTEX
  5
1EDE
330
1E11
100
AcDbEntity
  8
image
100
AcDbVertex
100
AcDb2dVertex
 10
2.296688195319219
 20
4.421954791357307
 30
0.0
 70
     8
  0
VERTEX
  5
1EDF
330
1E11
100
AcDbEntity
  8
image
100
AcDbVertex
100
AcDb2dVertex
 10
2.297110588813243
 20
4.411997121384831
 30
0.0
 70
     8
  0
VERTEX
  5
1EE0
330
1E11
100
AcDbEntity
  8
image
100
AcDbVertex
100
AcDb2dVertex
 10
2.297370541040124
 20
4.402226204872375
 30
0.0
 70
     8
  0
VERTEX
  5
1EE1
330
1E11
100
AcDbEntity
  8
image
100
AcDbVertex
100
AcDb2dVertex
 10
2.297518597471476
 20
4.392790455253648
 30
0.0
 70
     8
  0
VERTEX
  5
1EE3
330
1E11
100
AcDbEntity
  8
image
100
AcDbVertex
100
AcDb2dVertex
 10
2.297598826935702
 20
4.383839216925965
 30
0.0
 70
     8
  0
VERTEX
  5
1EE4
330
1E11
100
AcDbEntity
  8
image
100
AcDbVertex
100
AcDb2dVertex
 10
2.297629391688345
 20
4.37552555814106
 30
0.0
 70
     8
  0
VERTEX
  5
1EE5
330
1E11
100
AcDbEntity
  8
image
100
AcDbVertex
100
AcDb2dVertex
 10
2.297621977341732
 20
4.368003478114274
 30
0.0
 70
     8
  0
VERTEX
  5
1EE6
330
1E11
100
AcDbEntity
  8
image
100
AcDbVertex
100
AcDb2dVertex
 10
2.297588269508195
 20
4.361426976060949
 30
0.0
 70
     8
  0
VERTEX
  5
1EE7
330
1E11
100
AcDbEntity
  8
image
100
AcDbVertex
100
AcDb2dVertex
 10
2.297539953800062
 20
4.355950051196423
 30
0.0
 70
     8
  0
VERTEX
  5
1EE8
330
1E11
100
AcDbEntity
  8
image
100
AcDbVertex
100
AcDb2dVertex
 10
2.297488715829663
 20
4.351726702736041
 30
0.0
 70
     8
  0
VERTEX
  5
1EE9
330
1E11
100
AcDbEntity
  8
image
100
AcDbVertex
100
AcDb2dVertex
 10
2.297446241209325
 20
4.348910929895139
 30
0.0
 70
     8
  0
VERTEX
  5
1EEA
330
1E11
100
AcDbEntity
  8
image
100
AcDbVertex
100
AcDb2dVertex
 10
2.297424215551378
 20
4.347656731889061
 30
0.0
 70
     8
  0
VERTEX
  5
1E7B
330
1E11
100
AcDbEntity
  8
image
100
AcDbVertex
100
AcDb2dVertex
 10
0.9306912599252074
 20
4.309322914493766
 30
0.0
 70
    16
  0
VERTEX
  5
1E7C
330
1E11
100
AcDbEntity
  8
image
100
AcDbVertex
100
AcDb2dVertex
 10
1.03422791097837
 20
4.282990237423122
 30
0.0
 70
    16
  0
VERTEX
  5
1E7D
330
1E11
100
AcDbEntity
  8
image
100
AcDbVertex
100
AcDb2dVertex
 10
1.172582421512393
 20
4.280957301165234
 30
0.0
 70
    16
  0
VERTEX
  5
1E7E
330
1E11
100
AcDbEntity
  8
image
100
AcDbVertex
100
AcDb2dVertex
 10
1.282624579639563
 20
4.32940981723551
 30
0.0
 70
    16
  0
VERTEX
  5
1E7F
330
1E11
100
AcDbEntity
  8
image
100
AcDbVertex
100
AcDb2dVertex
 10
1.473130425135716
 20
4.378306073197625
 30
0.0
 70
    16
  0
VERTEX
  5
1E80
330
1E11
100
AcDbEntity
  8
image
100
AcDbVertex
100
AcDb2dVertex
 10
1.621873673115492
 20
4.45005294662074
 30
0.0
 70
    16
  0
VERTEX
  5
1E81
330
1E11
100
AcDbEntity
  8
image
100
AcDbVertex
100
AcDb2dVertex
 10
1.837750417867769
 20
4.484896109728518
 30
0.0
 70
    16
  0
VERTEX
  5
1E82
330
1E11
100
AcDbEntity
  8
image
100
AcDbVertex
100
AcDb2dVertex
 10
2.041491971887725
 20
4.507323392315034
 30
0.0
 70
    16
  0
VERTEX
  5
1E83
330
1E11
100
AcDbEntity
  8
image
100
AcDbVertex
100
AcDb2dVertex
 10
2.24041792510961
 20
4.529946379103483
 30
0.0
 70
    16
  0
VERTEX
  5
1E84
330
1E11
100
AcDbEntity
  8
image
100
AcDbVertex
100
AcDb2dVertex
 10
2.262697565612517
 20
4.521041989383891
 30
0.0
 70
    16
  0
VERTEX
  5
1E85
330
1E11
100
AcDbEntity
  8
image
100
AcDbVertex
100
AcDb2dVertex
 10
2.295338134368328
 20
4.476856395790673
 30
0.0
 70
    16
  0
VERTEX
  5
1E86
330
1E11
100
AcDbEntity
  8
image
100
AcDbVertex
100
AcDb2dVertex
 10
2.298173000926543
 20
4.387632265094308
 30
0.0
 70
    16
  0
VERTEX
  5
1E87
330
1E11
100
AcDbEntity
  8
image
100
AcDbVertex
100
AcDb2dVertex
 10
2.297445298145088
 20
4.348782271934092
 30
0.0
 70
    16
  0
VERTEX
  5
1EE2
330
1E11
100
AcDbEntity
  8
image
100
AcDbVertex
100
AcDb2dVertex
 10
2.297424215551378
 20
4.347656731889061
 30
0.0
 70
    16
  0
SEQEND
  5
1E88
330
1E11
100
AcDbEntity
  8
image
  0
LINE
  5
1EEB
330
1E
100
AcDbEntity
  8
image
100
AcDbLine
 10
0.7541436151029748
 20
3.760427190190122
 30
0.0
 11
2.183349423801784
 21
3.760427190190122
 31
0.0
  0
LINE
  5
1EEC
330
1E
100
AcDbEntity
  8
image
100
AcDbLine
 10
0.7308819244359681
 20
3.228528613581937
 30
0.0
 11
2.183349423801784
 21
3.228528613581937
 31
0.0
  0
HATCH
  5
1F02
330
1E
100
AcDbEntity
  8
image
100
AcDbHatch
 10
0.0
 20
0.0
 30
0.0
210
0.0
220
0.0
230
1.0
  2
AR-SAND
 70
     0
 71
     0
 91
        1
 92
        7
 72
     0
 73
     1
 93
        4
 10
2.183349423801784
 20
3.760427190190122
 10
0.7541436151029748
 20
3.760427190190122
 10
0.7308819244359681
 20
3.228528613581937
 10
2.183349423801784
 20
3.228528613581937
 97
        0
 75
     0
 76
     1
 52
0.0
 41
0.125
 77
     0
 78
     4
 53
37.5
 43
0.0
 44
-0.3888670185530512
 45
-0.007874169763701
 46
0.2408529711266448
 79
     6
 49
0.0
 49
-0.19
 49
0.0
 49
-0.2125
 49
0.0
 49
-0.203125
 53
7.499999999999999
 43
0.0
 44
-0.3888670185530512
 45
0.2212220881584659
 46
0.3527682581537175
 79
     6
 49
0.0
 49
-0.1025
 49
0.0
 49
-0.17125
 49
0.0
 49
-0.065625
 53
327.5
 43
-0.15375
 44
-0.3888670185530512
 45
0.3892677327189369
 46
0.0007073816921206
 79
     6
 49
0.0
 49
-0.0625
 49
0.0
 49
-0.225
 49
0.0
 49
-0.29375
 53
317.5
 43
-0.15375
 44
-0.3888670185530512
 45
0.3757658255715366
 46
0.1097094456167811
 79
     6
 49
0.0
 49
-0.03125
 49
0.0
 49
-0.1475
 49
0.0
 49
-0.16875
 47
0.0037129190324767
 98
        2
 10
1.213419712917383
 20
3.470907636732031
 10
0.4553486865541402
 20
3.586008140132509
1001
ACAD
1010
0.0
1020
0.0
1030
0.0
  0
HATCH
  5
1F03
330
1E
100
AcDbEntity
  8
image
100
AcDbHatch
 10
0.0
 20
0.0
 30
0.0
210
0.0
220
0.0
230
1.0
  2
AR-SAND
 70
     0
 71
     0
 91
        1
 92
        7
 72
     0
 73
     1
 93
        4
 10
0.6481208701963701
 20
3.760427190190122
 10
0.3049609240048783
 20
3.760427190190122
 10
0.3117622241792912
 20
3.228528613581937
 10
0.6707321904303529
 20
3.228528613581937
 97
        0
 75
     0
 76
     1
 52
0.0
 41
0.125
 77
     0
 78
     4
 53
37.5
 43
0.0
 44
-0.3888670185530512
 45
-0.007874169763701
 46
0.2408529711266448
 79
     6
 49
0.0
 49
-0.19
 49
0.0
 49
-0.2125
 49
0.0
 49
-0.203125
 53
7.499999999999999
 43
0.0
 44
-0.3888670185530512
 45
0.2212220881584659
 46
0.3527682581537175
 79
     6
 49
0.0
 49
-0.1025
 49
0.0
 49
-0.17125
 49
0.0
 49
-0.065625
 53
327.5
 43
-0.15375
 44
-0.3888670185530512
 45
0.3892677327189369
 46
0.0007073816921206
 79
     6
 49
0.0
 49
-0.0625
 49
0.0
 49
-0.225
 49
0.0
 49
-0.29375
 53
317.5
 43
-0.15375
 44
-0.3888670185530512
 45
0.3757658255715366
 46
0.1097094456167811
 79
     6
 49
0.0
 49
-0.03125
 49
0.0
 49
-0.1475
 49
0.0
 49
-0.16875
 47
0.0037129190324767
 98
        2
 10
1.213419712917383
 20
3.470907636732031
 10
0.4553486865541402
 20
3.586008140132509
1001
ACAD
1010
0.0
1020
0.0
1030
0.0
  0
HATCH
  5
1F1D
330
1E
100
AcDbEntity
  8
image
100
AcDbHatch
 10
0.0
 20
0.0
 30
0.0
210
0.0
220
0.0
230
1.0
  2
EARTH
 70
     0
 71
     0
 91
        1
 92
        7
 72
     0
 73
     1
 93
        8
 10
2.183349423801784
 20
3.228528613581937
 10
0.7308819244359681
 20
3.228528613581937
 10
0.7136538984010127
 20
2.834594971486064
 10
0.8306681509651625
 20
2.802582214133174
 10
1.049914200292801
 20
2.698620477976867
 10
1.499554396545866
 20
2.668917133834449
 10
1.956626641626207
 20
2.642926683966453
 10
2.183349423801784
 20
2.631787937827505
 97
        0
 75
     0
 76
     1
 52
45.0
 41
0.65
 77
     0
 78
     6
 53
45.0
 43
0.0
 44
-0.3888670185530512
 45
0.0
 46
0.229809703885628
 79
     2
 49
0.1625
 49
-0.1625
 53
45.0
 43
-0.0430893194785553
 44
-0.3457776990744959
 45
0.0
 46
0.229809703885628
 79
     2
 49
0.1625
 49
-0.1625
 53
45.0
 43
-0.0861786389571105
 44
-0.3026883795959407
 45
0.0
 46
0.229809703885628
 79
     2
 49
0.1625
 49
-0.1625
 53
135.0
 43
-0.0861786389571105
 44
-0.2739621666102372
 45
-0.2298097038856279
 46
0.0
 79
     2
 49
0.1625
 49
-0.1625
 53
135.0
 43
-0.0430893194785552
 44
-0.230872847131682
 45
-0.2298097038856279
 46
0.0
 79
     2
 49
0.1625
 49
-0.1625
 53
135.0
 43
0.0
 44
-0.1877835276531267
 45
-0.2298097038856279
 46
0.0
 79
     2
 49
0.1625
 49
-0.1625
 47
0.0037129190324767
 98
        2
 10
1.020185907555973
 20
2.980802321198143
 10
0.5110891745432121
 20
3.095902824598621
1001
ACAD
1010
0.0
1020
0.0
1030
0.0
  0
HATCH
  5
1F1E
330
1E
100
AcDbEntity
  8
image
100
AcDbHatch
 10
0.0
 20
0.0
 30
0.0
210
0.0
220
0.0
230
1.0
  2
EARTH
 70
     0
 71
     0
 91
        1
 92
        7
 72
     0
 73
     1
 93
        5
 10
0.6707321904303529
 20
3.228528613581937
 10
0.3117622241792913
 20
3.228528613581937
 10
0.3958921010804858
 20
2.969663575059195
 10
0.5185212720844101
 20
2.887979352286009
 10
0.6871705377493642
 20
2.841840288871359
 97
        0
 75
     0
 76
     1
 52
45.0
 41
0.65
 77
     0
 78
     6
 53
45.0
 43
0.0
 44
-0.3888670185530512
 45
0.0
 46
0.229809703885628
 79
     2
 49
0.1625
 49
-0.1625
 53
45.0
 43
-0.0430893194785553
 44
-0.3457776990744959
 45
0.0
 46
0.229809703885628
 79
     2
 49
0.1625
 49
-0.1625
 53
45.0
 43
-0.0861786389571105
 44
-0.3026883795959407
 45
0.0
 46
0.229809703885628
 79
     2
 49
0.1625
 49
-0.1625
 53
135.0
 43
-0.0861786389571105
 44
-0.2739621666102372
 45
-0.2298097038856279
 46
0.0
 79
     2
 49
0.1625
 49
-0.1625
 53
135.0
 43
-0.0430893194785552
 44
-0.230872847131682
 45
-0.2298097038856279
 46
0.0
 79
     2
 49
0.1625
 49
-0.1625
 53
135.0
 43
0.0
 44
-0.1877835276531267
 45
-0.2298097038856279
 46
0.0
 79
     2
 49
0.1625
 49
-0.1625
 47
0.0037129190324767
 98
        2
 10
1.020185907555973
 20
2.980802321198143
 10
0.5110891745432121
 20
3.095902824598621
1001
ACAD
1010
0.0
1020
0.0
1030
0.0
  0
TEXT
  5
1F24
330
1E
100
AcDbEntity
  8
text_bubbles
100
AcDbText
 10
1.187340349794231
 20
5.359464194912129
 30
0.0
 40
0.125
  1
3
  7
ROMANS
 72
     4
 11
1.246864159318041
 21
5.421964194912129
 31
0.0
100
AcDbText
  0
CIRCLE
  5
1F25
330
1E
100
AcDbEntity
  8
text_bubbles
100
AcDbCircle
 10
1.246864159318041
 20
5.421964194912129
 30
0.0
 40
0.15625
  0
TEXT
  5
1F26
330
1E
100
AcDbEntity
  8
text_bubbles
100
AcDbText
 10
2.619995443087621
 20
5.359464194912129
 30
0.0
 40
0.125
  1
4
  7
ROMANS
 72
     4
 11
2.682495443087621
 21
5.421964194912129
 31
0.0
100
AcDbText
  0
CIRCLE
  5
1F27
330
1E
100
AcDbEntity
  8
text_bubbles
100
AcDbCircle
 10
2.682495443087621
 20
5.421964194912129
 30
0.0
 40
0.15625
  0
TEXT
  5
1F28
330
1E
100
AcDbEntity
  8
text_bubbles
100
AcDbText
 10
3.411557878346409
 20
5.359464194912129
 30
0.0
 40
0.125
  1
5
  7
ROMANS
 72
     4
 11
3.471081687870219
 21
5.421964194912129
 31
0.0
100
AcDbText
  0
CIRCLE
  5
1F29
330
1E
100
AcDbEntity
  8
text_bubbles
100
AcDbCircle
 10
3.471081687870219
 20
5.421964194912129
 30
0.0
 40
0.15625
  0
LEADER
  5
1F2C
330
1E
100
AcDbEntity
  8
text_bubbles
100
AcDbLeader
  3
Standard
 76
     2
 10
0.4123208765379857
 20
4.537689719738752
 30
0.0
 10
0.4134020419299786
 20
5.265714367210598
 30
0.0
1001
ACAD
1000
DSTYLE
1002
{
1070
    44
1040
0.125
1070
   140
1040
0.125
1070
   176
1070
   256
1070
   177
1070
   256
1070
   178
1070
   256
1070
   279
1070
     2
1070
   371
1070
    -1
1070
   372
1070
    -1
1002
}
  0
LEADER
  5
1F2D
330
1E
100
AcDbEntity
  8
text_bubbles
100
AcDbLeader
  3
Standard
 76
     2
 10
0.6857581120922858
 20
4.470852887854
 30
0.0
 10
0.7830620101549634
 20
5.266868639752823
 30
0.0
1001
ACAD
1000
DSTYLE
1002
{
1070
    44
1040
0.125
1070
   140
1040
0.125
1070
   176
1070
   256
1070
   177
1070
   256
1070
   178
1070
   256
1070
   279
1070
     2
1070
   371
1070
    -1
1070
   372
1070
    -1
1002
}
  0
LEADER
  5
1F2E
330
1E
100
AcDbEntity
  8
text_bubbles
100
AcDbLeader
  3
Standard
 76
     2
 10
1.054126544482666
 20
4.346538534692861
 30
0.0
 10
1.219300233846821
 20
5.268164674390715
 30
0.0
1001
ACAD
1000
DSTYLE
1002
{
1070
    44
1040
0.125
1070
   140
1040
0.125
1070
   176
1070
   256
1070
   177
1070
   256
1070
   178
1070
   256
1070
   279
1070
     2
1070
   371
1070
    -1
1070
   372
1070
    -1
1002
}
  0
LEADER
  5
1F2F
330
1E
100
AcDbEntity
  8
text_bubbles
100
AcDbLeader
  3
Standard
 76
     2
 10
2.371887742460202
 20
4.232719874432521
 30
0.0
 10
2.643010479075712
 20
5.270785492321525
 30
0.0
1001
ACAD
1000
DSTYLE
1002
{
1070
    44
1040
0.125
1070
   140
1040
0.125
1070
   176
1070
   256
1070
   177
1070
   256
1070
   178
1070
   256
1070
   279
1070
     2
1070
   371
1070
    -1
1070
   372
1070
    -1
1002
}
  0
LEADER
  5
1F31
330
1E
100
AcDbEntity
  8
text_bubbles
100
AcDbLeader
  3
Standard
 76
     2
 10
2.371904589746925
 20
3.821920705895217
 30
0.0
 10
3.382608176445759
 20
5.29317560738891
 30
0.0
1001
ACAD
1000
DSTYLE
1002
{
1070
    44
1040
0.125
1070
   140
1040
0.125
1070
   176
1070
   256
1070
   177
1070
   256
1070
   178
1070
   256
1070
   279
1070
     2
1070
   371
1070
    -1
1070
   372
1070
    -1
1002
}
  0
CIRCLE
  5
1F3A
330
1E
100
AcDbEntity
  8
text_bubbles
100
AcDbCircle
 10
5.960877841463147
 20
2.395279916111966
 30
0.0
 40
0.15625
  0
TEXT
  5
1F3B
330
1E
100
AcDbEntity
  8
text_bubbles
100
AcDbText
 10
5.901354031939337
 20
2.332779916111966
 30
0.0
 40
0.125
  1
7
  7
ROMANS
 72
     4
 11
5.960877841463147
 21
2.395279916111966
 31
0.0
100
AcDbText
  0
CIRCLE
  5
1F3C
330
1E
100
AcDbEntity
  8
text_bubbles
100
AcDbCircle
 10
5.960877841463147
 20
1.982583158286051
 30
0.0
 40
0.15625
  0
TEXT
  5
1F3D
330
1E
100
AcDbEntity
  8
text_bubbles
100
AcDbText
 10
5.901354031939337
 20
1.920083158286051
 30
0.0
 40
0.125
  1
8
  7
ROMANS
 72
     4
 11
5.960877841463147
 21
1.982583158286051
 31
0.0
100
AcDbText
  0
CIRCLE
  5
1F3E
330
1E
100
AcDbEntity
  8
text_bubbles
100
AcDbCircle
 10
5.960877841463147
 20
1.563120888835708
 30
0.0
 40
0.15625
  0
TEXT
  5
1F3F
330
1E
100
AcDbEntity
  8
text_bubbles
100
AcDbText
 10
5.904330222415528
 20
1.500620888835708
 30
0.0
 40
0.125
  1
9
  7
ROMANS
 72
     4
 11
5.960877841463147
 21
1.563120888835708
 31
0.0
100
AcDbText
  0
VIEWPORT
  5
1C7
330
1A
100
AcDbEntity
 67
     1
  8
0
100
AcDbViewport
 10
6.172388059701492
 20
4.5
 30
0.0
 40
12.34477611940298
 41
9.0
 68
     1
 69
     1
 12
6.172388059701492
 22
4.5
 13
0.0
 23
0.0
 14
0.14
 24
0.14
 15
0.14
 25
0.14
 16
0.0
 26
0.0
 36
1.0
 17
0.0
 27
0.0
 37
0.0
 42
50.0
 43
0.0
 44
0.0
 45
9.0
 50
0.0
 51
0.0
 72
   100
 90
    32800
  1

281
     0
 71
     0
 74
     0
110
0.0
120
0.0
130
0.0
111
0.0
121
0.0
131
0.0
112
0.0
122
0.0
132
0.0
 79
     0
146
0.0
170
     0
  0
ENDSEC
  0
SECTION
  2
OBJECTS
  0
DICTIONARY
  5
C
330
0
100
AcDbDictionary
281
     1
  3
ACAD_COLOR
350
1BB5
  3
ACAD_GROUP
350
D
  3
ACAD_LAYOUT
350
19
  3
ACAD_MATERIAL
350
1B8B
  3
ACAD_MLEADERSTYLE
350
1BDA
  3
ACAD_MLINESTYLE
350
16
  3
ACAD_PLOTSETTINGS
350
18
  3
ACAD_PLOTSTYLENAME
350
E
  3
ACAD_SCALELIST
350
1BB8
  3
ACAD_TABLESTYLE
350
1BB6
  3
ACAD_VISUALSTYLE
350
1BA4
  3
ACDB_RECOMPOSE_DATA
350
1C52
  3
AcDbVariableDictionary
350
DC5
  3
AEC_PROPERTY_SET_DEFS
350
1C8A
1001
BBSI_PltSel
1000
1
1000

1001
BBSI_Bookmarks
1000
1
1000
1
1000
0
1000
1
1000
0
1000
0
1000
0
1000
0
1000
0
1000
0
1000
0
1001
BBSI_BookmarksEx
1000
0
1000
0
1000

1000
0
1001
BBSI_Plots
1000

1000
ANSI_A_(11.00_x_8.50_Inches)
1000
279.399993896484
1000
215.899993896484
1000
0
1000
1
1000
1
1000
1.1533222293858E-14
1000
17.9871359092673
1000
1
1000
0
1000
1
1000
1.56885758041751
1000
0
1000
1
1000
PDF BW Shaded.ctb
1000
0
1000
0
1000
1
1000
1
1000
0
1000
0
1000
0
1000
0
1000
0
1000
0
1000

1000

  0
DICTIONARY
  5
1B01
330
2
100
AcDbDictionary
280
     1
281
     1
  3
ACAD_LAYERFILTERS
360
1FA8
  3
ACAD_LAYERSTATES
360
1B02
  0
DICTIONARY
  5
1C43
330
1E
100
AcDbDictionary
280
     1
281
     1
  3
ACAD_SORTENTS
360
1CBD
  0
DICTIONARY
  5
1D47
330
19CD
100
AcDbDictionary
280
     1
281
     1
  3
ACAD_SORTENTS
360
1D48
  0
DICTIONARY
  5
1FD7
330
1D11
100
AcDbDictionary
280
     1
281
     1
  3
ACAD_MTEXT_2008_RT
360
1FD8
  0
DICTIONARY
  5
1FD9
330
1D22
100
AcDbDictionary
280
     1
281
     1
  3
ACAD_MTEXT_2008_RT
360
1FDA
  0
DICTIONARY
  5
1BB5
102
{ACAD_REACTORS
330
C
102
}
330
C
100
AcDbDictionary
281
     1
  0
DICTIONARY
  5
D
102
{ACAD_REACTORS
330
C
102
}
330
C
100
AcDbDictionary
281
     1
  0
DICTIONARY
  5
19
102
{ACAD_REACTORS
330
C
102
}
330
C
100
AcDbDictionary
281
     1
  3
Layout1
350
1D
  3
Model
350
21
  0
DICTIONARY
  5
1B8B
102
{ACAD_REACTORS
330
C
102
}
330
C
100
AcDbDictionary
281
     1
  3
ByBlock
350
1B94
  3
ByLayer
350
1B8C
  3
Global
350
1B9C
  0
DICTIONARY
  5
1BDA
102
{ACAD_REACTORS
330
C
102
}
330
C
100
AcDbDictionary
281
     1
  3
Standard
350
1BDB
  0
DICTIONARY
  5
16
102
{ACAD_REACTORS
330
C
102
}
330
C
100
AcDbDictionary
281
     1
  3
Standard
350
17
  0
DICTIONARY
  5
18
102
{ACAD_REACTORS
330
C
102
}
330
C
100
AcDbDictionary
281
     1
  3
1055 24x36 BW
350
1BEE
  3
1055 24x36 BW Final
350
1BF0
  3
1055 24x36 Color
350
1BF1
  3
1055 24x36 Color Shaded
350
1BF2
  3
1055 30x42 BW
350
1BF3
  3
1055 30x42 BW Final
350
1BF4
  3
1055 B&W Draft
350
1BF5
  3
1055 B&W Final
350
1BF6
  3
1055 BW Half
350
1BF7
  3
1055 Color Draft
350
1BF8
  3
1055 Color Final
350
1BF9
  3
1055+ 24x36 BW
350
1BFA
  3
1055+ 24x36 BW Final
350
1BFB
  3
1055+ 24x36 Color
350
1BFC
  3
1055+ 24x36 Color Shaded
350
1BFD
  3
1055+ 30x42 BW
350
1BFE
  3
1055+ 30x42 BW Final
350
1BFF
  3
1055+ B&W Draft
350
1C00
  3
1055+ B&W Final
350
1C01
  3
1055+ BW Half
350
1C02
  3
1055+ Color Draft
350
1C03
  3
1055+ Color Final
350
1C04
  3
_1055 22x34 True Centered BW
350
1C05
  3
_1055 24x36 True Centered BW
350
1C06
  3
_1055 24x36 True Centered BW Final
350
1C07
  3
_1055 24x36 True Centered Color
350
1C08
  3
_1055 30x42 True Centered BW
350
1C09
  3
_1055+ 22x34 True Centered BW
350
1C0A
  3
_1055+ 24x36 True Centered BW
350
1C0B
  3
_1055+ 24x36 True Centered BW Final
350
1C0C
  3
_1055+ 24x36 True Centered Color
350
1C0D
  3
DWF BW 11x17 Fit
350
1C0E
  3
DWF BW 11x17 Half
350
1C0F
  3
DWF BW 22x34
350
1C10
  3
DWF BW 24x36
350
1C11
  3
DWF BW 30x42
350
1C12
  3
DWF BW 36x48
350
1C13
  3
Laser5 11x17 Fit
350
1C14
  3
Laser5 11x17 Full
350
1C15
  3
Laser5 11x17 Half
350
1C16
  3
Laser5 8x11 Fit
350
1C17
  3
Laser5 8x11 Half
350
1C18
  3
Laser5 8x11 Portrait Fit
350
1C19
  3
LaserJet5 11x17
350
1C1A
  3
LaserJet5 8.5x11
350
1C1B
  3
Oki9500 11x17 BW Fit
350
1C1C
  3
Oki9500 11x17 BW Full
350
1C1D
  3
Oki9500 11x17 BW Half
350
1C1E
  3
Oki9500 11x17 Color Fit
350
1C1F
  3
Oki9500 11x17 Color Full
350
1C20
  3
Oki9500 11x17 Color Half
350
1C21
  3
Oki9500 8x11 BW Fit
350
1C22
  3
Oki9500 8x11 BW Portrait Fit
350
1C23
  3
Oki9500 8x11 Color Fit
350
1C24
  3
Oki9500 8x11 Color Portrait Fit
350
1C25
  3
OKI9500 B&W 11x17
350
1C26
  3
OKI9500 B&W 8.5x11
350
1C27
  3
OKI9500 Color 11x17
350
1C28
  3
OKI9500 Color 8.5x11
350
1C29
  3
Oki9600 11x17 BW Fit
350
1C2A
  3
Oki9600 11x17 BW Full
350
1C2B
  3
Oki9600 11x17 BW Half
350
1C2C
  3
Oki9600 11x17 Color Fit
350
1C2D
  3
Oki9600 11x17 Color Full
350
1C2E
  3
Oki9600 11x17 Color Half
350
1C2F
  3
Oki9600 8x11 BW Fit
350
1C30
  3
Oki9600 8x11 BW Portrait Fit
350
1C31
  3
Oki9600 8x11 Color Fit
350
1C32
  3
Oki9600 8x11 Color Portrait Fit
350
1C33
  3
OKI9600 B&W 11x17
350
1C34
  3
OKI9600 B&W 8.5x11
350
1C35
  3
OKI9600 Color 11x17
350
1C36
  3
OKI9600 Color 8.5x11
350
1C37
  3
PHX Kyocera 11x17 Fit
350
1C38
  3
PHX Oki9500 11x17 BW Fit
350
1C39
  3
PHX Oki9500 11x17 BW Half
350
1C3A
  0
ACDBDICTIONARYWDFLT
  5
E
102
{ACAD_REACTORS
330
C
102
}
330
C
100
AcDbDictionary
281
     1
  3
Normal
350
F
100
AcDbDictionaryWithDefault
340
F
  0
DICTIONARY
  5
1BB8
102
{ACAD_REACTORS
330
C
102
}
330
C
100
AcDbDictionary
281
     1
  3
A0
350
1BB9
  3
A1
350
1BBA
  3
A2
350
1BBB
  3
A3
350
1BBC
  3
A4
350
1BBD
  3
A5
350
1BBE
  3
A6
350
1BBF
  3
A7
350
1BC0
  3
A8
350
1BC1
  3
A9
350
1BC2
  3
B0
350
1BC3
  3
B1
350
1BC4
  3
B2
350
1BC5
  3
B3
350
1BC6
  3
B4
350
1BC7
  3
B5
350
1BC8
  3
B6
350
1BC9
  3
B7
350
1BCA
  3
B8
350
1BCB
  3
B9
350
1BCC
  3
C0
350
1BCD
  3
C1
350
1BCE
  3
C2
350
1BCF
  3
C3
350
1BD0
  3
C4
350
1BD1
  3
C5
350
1BD2
  3
C6
350
1BD3
  3
C7
350
1BD4
  3
C8
350
1BD5
  3
C9
350
1BD6
  3
D0
350
1BD7
  3
D1
350
1BD8
  3
D2
350
1BD9
  0
DICTIONARY
  5
1BB6
102
{ACAD_REACTORS
330
C
102
}
330
C
100
AcDbDictionary
281
     1
  3
Standard
350
1BB7
  0
DICTIONARY
  5
1BA4
102
{ACAD_REACTORS
330
C
102
}
330
C
100
AcDbDictionary
281
     1
  3
2dWireframe
350
1BAA
  3
3D Hidden
350
1BAC
  3
3dWireframe
350
1BAB
  3
Basic
350
1BA9
  3
Brighten
350
1BB0
  3
ColorChange
350
1BB4
  3
Conceptual
350
1BAD
  3
Dim
350
1BAF
  3
Facepattern
350
1BB3
  3
Flat
350
1BA5
  3
FlatWithEdges
350
1BA6
  3
Gouraud
350
1BA7
  3
GouraudWithEdges
350
1BA8
  3
Linepattern
350
1BB2
  3
Realistic
350
1BAE
  3
Thicken
350
1BB1
  0
XRECORD
  5
1C52
102
{ACAD_REACTORS
330
C
102
}
330
C
100
AcDbXrecord
280
     1
 90
        1
330
1BB7
330
1D11
330
1D22
  0
DICTIONARY
  5
DC5
102
{ACAD_REACTORS
330
C
102
}
330
C
100
AcDbDictionary
281
     1
  3
CANNOSCALE
350
1C56
  3
CMLEADERSTYLE
350
1C54
  3
CTABLESTYLE
350
1C53
  3
DIMASSOC
350
DC8
  3
HIDETEXT
350
DC7
  3
LAYEREVAL
350
1FCC
  3
LAYERNOTIFY
350
1C58
  3
LIGHTINGUNITS
350
1C57
  3
MSLTSCALE
350
1C55
  3
SORTENTS
350
DC6
  3
UPDATETHUMBNAIL
350
1D57
  0
DICTIONARY
  5
1C8A
102
{ACAD_REACTORS
330
C
102
}
330
C
100
AcDbDictionary
281
     1
  0
DICTIONARY
  5
1FA8
102
{ACAD_REACTORS
330
1B01
102
}
330
1B01
100
AcDbDictionary
281
     1
  3
_0100-
350
1FAB
  3
_0280-
350
1FAA
  3
_Color 253
350
1FAE
  3
_Color 8
350
1FAC
  3
_Color 84
350
1FAD
  3
_Contours
350
1FB3
  3
_Existing
350
1FAF
  3
_Hardscape
350
1FB2
  3
_NoXref
350
1FA9
  3
_Row
350
1FB0
  3
_Utility
350
1FB1
  0
DICTIONARY
  5
1B02
102
{ACAD_REACTORS
330
1B01
102
}
330
1B01
100
AcDbDictionary
281
     1
  0
SORTENTSTABLE
  5
1CBD
102
{ACAD_REACTORS
330
1C43
102
}
330
1C43
100
AcDbSortentsTable
330
1E
331
1C8F
  5
1C97
331
77D
  5
967
331
1C97
  5
1CA3
331
1D0E
  5
1DC0
331
1DC1
  5
1DC9
331
1DC9
  5
1DF3
331
965
  5
C72
331
1CBF
  5
1CD9
331
C7D
  5
C85
331
19DC
  5
1C6D
331
1CC7
  5
1D08
331
744
  5
744
331
1DF9
  5
1E01
331
1E01
  5
1EEE
331
776
  5
776
331
1C90
  5
1C98
331
1D07
  5
1D10
331
1C98
  5
1CBF
331
1D0F
  5
1DC1
331
1CA0
  5
1CD7
331
1FD
  5
1FD
331
1E11
  5
1F05
331
1F1D
  5
1CD5
331
1DC2
  5
1DCA
331
1DCA
  5
1DF4
331
966
  5
C73
331
C7E
  5
C86
331
C86
  5
19C6
331
745
  5
745
331
1DFA
  5
1E02
331
1E02
  5
1EEF
331
777
  5
777
331
1C91
  5
1C99
331
1D08
  5
1D11
331
1C99
  5
1CC4
331
1D10
  5
1DC2
331
1F1E
  5
1CD6
331
1DC3
  5
1DCB
331
1DCB
  5
1DF5
331
967
  5
C74
331
C7F
  5
C87
331
C87
  5
19DC
331
746
  5
746
331
1DF3
  5
1DFB
331
1DFB
  5
1E03
331
1E03
  5
1EF0
331
760
  5
760
331
778
  5
778
331
1C92
  5
1C9A
331
1D11
  5
1DC3
331
72F
  5
72F
331
1E0B
  5
1F04
331
73F
  5
73F
331
1DC4
  5
1DCC
331
1DCC
  5
1DF6
331
968
  5
C75
331
C80
  5
C8A
331
1CD2
  5
1D0B
331
747
  5
747
331
75F
  5
75F
331
1DF4
  5
1DFC
331
1DFC
  5
1E0B
331
779
  5
963
331
1C93
  5
1C9B
331
1D22
  5
1DC4
331
1DBD
  5
1DC5
331
1DC5
  5
1DCD
331
1DCD
  5
1DF7
331
961
  5
969
331
969
  5
C76
331
C81
  5
C8B
331
1CD3
  5
1D0C
331
740
  5
740
331
748
  5
748
331
1DF5
  5
1DFD
331
1DFD
  5
1E11
331
1C8C
  5
1C94
331
1D03
  5
962
331
77A
  5
964
331
1C94
  5
1C9C
331
1D0B
  5
1DBD
331
731
  5
731
331
1DBE
  5
1DC6
331
1DC6
  5
1DCE
331
1DCE
  5
1DF8
331
962
  5
96A
331
96A
  5
C77
331
1CC4
  5
1CDA
331
C7A
  5
C82
331
1C6D
  5
1C93
331
C82
  5
C8C
331
1CD4
  5
1D0D
331
741
  5
741
331
1DF6
  5
1DFE
331
1DFE
  5
1EEB
331
1F02
  5
1CD2
331
C9A
  5
1B6D
331
1C8D
  5
1C95
331
77B
  5
965
331
1C95
  5
1CA0
331
1D0C
  5
1DBE
331
783
  5
968
331
732
  5
732
331
1DBF
  5
1DC7
331
1DC7
  5
1DCF
331
1DCF
  5
1DF9
331
963
  5
96B
331
96B
  5
C78
331
C7B
  5
C83
331
1CC5
  5
1CEE
331
C83
  5
C93
331
1CD5
  5
1D0F
331
742
  5
742
331
1DF7
  5
1DFF
331
1DFF
  5
1EEC
331
1EEB
  5
1D0E
331
1F03
  5
1CD3
331
C9B
  5
1B6E
331
1C8E
  5
1C96
331
77C
  5
966
331
1C96
  5
1CA1
331
1D0D
  5
1DBF
331
1DC0
  5
1DC8
331
1DC8
  5
1DD0
331
964
  5
96C
331
96C
  5
C79
331
1CBE
  5
77A
331
C7C
  5
C84
331
1CC6
  5
1D07
331
743
  5
743
331
1DD0
  5
1DFA
331
1DF8
  5
1E00
331
1EEC
  5
1CD8
331
1E00
  5
1EED
  0
SORTENTSTABLE
  5
1D48
102
{ACAD_REACTORS
330
1D47
102
}
330
1D47
100
AcDbSortentsTable
330
19CD
  0
XRECORD
  5
1FD8
102
{ACAD_REACTORS
330
1FD7
102
}
330
1FD7
100
AcDbXrecord
280
     1
 40
8568049.0
  1
\A1;DIFFUSER BUG CAP:\P  RAIN BIRD DBC-025 \PUNIVERSAL {\H0.7x;\S1#4;\H1.4286x;" TUBING STAKE:\P  RAIN BIRD TS-025\P\H0.7x;\S1#4;\H1.4286x;" DISTRIBUTION TUBING:\P  RAIN BIRD XQ TUBING\P  (LENGTH AS REQUIRED)}\P\pxi-2,l2;SINGLE OUTLET {\H0.7x;\S1#2;}
  1
" FPT INLET X BARB OUTLET EMITTER:\P\pi0,l0;  RAIN BIRD XERI-BUG XBT EMITTER\P\pi-2,l2;PVC SCH 80 NIPPLE         (LENGTH AS REQUIRED)\PTOP OF MULCH\P\P\pi0,l0;FINISH GRADE \P\pi-2,l2; \P\pi0,l0;PVC SCH 40 TEE OR ELL \P\PPVC LATERAL PIPE
  0
XRECORD
  5
1FDA
102
{ACAD_REACTORS
330
1FD9
102
}
330
1FD9
100
AcDbXrecord
280
     1
 40
1050164.0
  1
\A1;NOTE: \P\pxi-3,l3,t3;1. RAIN BIRD XERI-BUG {\H0.7x;\S1#2;}" FPT X BARB EMITTERS ARE AVAILABLE IN THE FOLLOWING MODELS:\P^I^IXBT-10 1.0 GPH^IXBT-20 2.0 GPH 
  0
LAYOUT
  5
1D
102
{ACAD_REACTORS
330
19
102
}
330
19
100
AcDbPlotSettings
  1

  2
S:\AutoCAD 2002\Plotters\1055B&WDraftShaded.pc3
  4

  6

 40
0.0
 41
0.0
 42
0.0
 43
0.0
 44
0.0
 45
0.0
 46
0.0
 47
0.0
 48
0.0
 49
0.0
140
0.0
141
0.0
142
1.0
143
1.0
 70
   688
 72
     0
 73
     0
 74
     5
  7
TRexLJ5Shaded2.ctb
 75
    16
147
1.0
 76
     0
 77
     2
 78
   300
148
0.0
149
0.0
100
AcDbLayout
  1
Layout1
 70
     1
 71
     1
 10
0.0
 20
0.0
 11
12.0
 21
9.0
 12
0.0
 22
0.0
 32
0.0
 14
1.000000000000000E+20
 24
1.000000000000000E+20
 34
1.000000000000000E+20
 15
-1.000000000000000E+20
 25
-1.000000000000000E+20
 35
-1.000000000000000E+20
146
0.0
 13
0.0
 23
0.0
 33
0.0
 16
1.0
 26
0.0
 36
0.0
 17
0.0
 27
1.0
 37
0.0
 76
     0
330
1A
331
1C7
  0
LAYOUT
  5
21
102
{ACAD_REACTORS
330
19
102
}
330
19
100
AcDbPlotSettings
  1
LaserJet5 8.5x11
  2
LaserJet5Shaded-8x11.pc3
  4
Letter
  6

 40
5.873749732971191
 41
5.873734951019287
 42
6.55108642578125
 43
5.027084350585937
 44
279.3999938964844
 45
215.8999938964844
 46
6.777533422616061
 47
0.0000000000000042
 48
0.0
 49
0.0
140
0.0
141
0.0
142
1.0
143
1.113252673269694
 70
 11956
 72
     0
 73
     0
 74
     1
  7
laserjet5shaded.ctb
 75
     0
147
0.8982686716241477
 76
     0
 77
     2
 78
   300
148
20.02444108227246
149
65.42550774820606
100
AcDbLayout
  1
Model
 70
     1
 71
     0
 10
0.0
 20
0.0
 11
12.0
 21
9.0
 12
0.0
 22
0.0
 32
0.0
 14
0.0
 24
0.0
 34
0.0
 15
0.0
 25
0.0
 35
0.0
146
0.0
 13
0.0
 23
0.0
 33
0.0
 16
1.0
 26
0.0
 36
0.0
 17
0.0
 27
1.0
 37
0.0
 76
     0
330
1E
331
1B89
1001
ACAD_PSEXT
1000
LaserJet5Shaded-8x11.pc3
1000
HP LaserJet 5Si
1000
CAD Area
1000

1070
     0
  0
MATERIAL
  5
1B94
102
{ACAD_XDICTIONARY
360
1B95
102
}
102
{ACAD_REACTORS
330
1B8B
102
}
330
1B8B
100
AcDbMaterial
  1
ByBlock
 72
     0
 43
0.0208333333333333
 43
0.0
 43
0.0
 43
0.0
 43
0.0
 43
0.0208333333333333
 43
0.0
 43
0.0
 43
0.0
 43
0.0
 43
1.0
 43
0.0
 43
0.0
 43
0.0
 43
0.0
 43
1.0
 77
     0
 47
0.0208333333333333
 47
0.0
 47
0.0
 47
0.0
 47
0.0
 47
0.0208333333333333
 47
0.0
 47
0.0
 47
0.0
 47
0.0
 47
1.0
 47
0.0
 47
0.0
 47
0.0
 47
0.0
 47
1.0
171
     0
 49
0.0208333333333333
 49
0.0
 49
0.0
 49
0.0
 49
0.0
 49
0.0208333333333333
 49
0.0
 49
0.0
 49
0.0
 49
0.0
 49
1.0
 49
0.0
 49
0.0
 49
0.0
 49
0.0
 49
1.0
175
     0
142
0.0208333333333333
142
0.0
142
0.0
142
0.0
142
0.0
142
0.0208333333333333
142
0.0
142
0.0
142
0.0
142
0.0
142
1.0
142
0.0
142
0.0
142
0.0
142
0.0
142
1.0
179
     0
144
0.0208333333333333
144
0.0
144
0.0
144
0.0
144
0.0
144
0.0208333333333333
144
0.0
144
0.0
144
0.0
144
0.0
144
1.0
144
0.0
144
0.0
144
0.0
144
0.0
144
1.0
147
0.0208333333333333
147
0.0
147
0.0
147
0.0
147
0.0
147
0.0208333333333333
147
0.0
147
0.0
147
0.0
147
0.0
147
1.0
147
0.0
147
0.0
147
0.0
147
0.0
147
1.0
  0
MATERIAL
  5
1B8C
102
{ACAD_XDICTIONARY
360
1B8D
102
}
102
{ACAD_REACTORS
330
1B8B
102
}
330
1B8B
100
AcDbMaterial
  1
ByLayer
 72
     0
 43
0.0208333333333333
 43
0.0
 43
0.0
 43
0.0
 43
0.0
 43
0.0208333333333333
 43
0.0
 43
0.0
 43
0.0
 43
0.0
 43
1.0
 43
0.0
 43
0.0
 43
0.0
 43
0.0
 43
1.0
 77
     0
 47
0.0208333333333333
 47
0.0
 47
0.0
 47
0.0
 47
0.0
 47
0.0208333333333333
 47
0.0
 47
0.0
 47
0.0
 47
0.0
 47
1.0
 47
0.0
 47
0.0
 47
0.0
 47
0.0
 47
1.0
171
     0
 49
0.0208333333333333
 49
0.0
 49
0.0
 49
0.0
 49
0.0
 49
0.0208333333333333
 49
0.0
 49
0.0
 49
0.0
 49
0.0
 49
1.0
 49
0.0
 49
0.0
 49
0.0
 49
0.0
 49
1.0
175
     0
142
0.0208333333333333
142
0.0
142
0.0
142
0.0
142
0.0
142
0.0208333333333333
142
0.0
142
0.0
142
0.0
142
0.0
142
1.0
142
0.0
142
0.0
142
0.0
142
0.0
142
1.0
179
     0
144
0.0208333333333333
144
0.0
144
0.0
144
0.0
144
0.0
144
0.0208333333333333
144
0.0
144
0.0
144
0.0
144
0.0
144
1.0
144
0.0
144
0.0
144
0.0
144
0.0
144
1.0
147
0.0208333333333333
147
0.0
147
0.0
147
0.0
147
0.0
147
0.0208333333333333
147
0.0
147
0.0
147
0.0
147
0.0
147
1.0
147
0.0
147
0.0
147
0.0
147
0.0
147
1.0
  0
MATERIAL
  5
1B9C
102
{ACAD_XDICTIONARY
360
1B9D
102
}
102
{ACAD_REACTORS
330
1B8B
102
}
330
1B8B
100
AcDbMaterial
  1
Global
 72
     0
 43
0.0208333333333333
 43
0.0
 43
0.0
 43
0.0
 43
0.0
 43
0.0208333333333333
 43
0.0
 43
0.0
 43
0.0
 43
0.0
 43
1.0
 43
0.0
 43
0.0
 43
0.0
 43
0.0
 43
1.0
 77
     0
 47
0.0208333333333333
 47
0.0
 47
0.0
 47
0.0
 47
0.0
 47
0.0208333333333333
 47
0.0
 47
0.0
 47
0.0
 47
0.0
 47
1.0
 47
0.0
 47
0.0
 47
0.0
 47
0.0
 47
1.0
171
     0
 49
0.0208333333333333
 49
0.0
 49
0.0
 49
0.0
 49
0.0
 49
0.0208333333333333
 49
0.0
 49
0.0
 49
0.0
 49
0.0
 49
1.0
 49
0.0
 49
0.0
 49
0.0
 49
0.0
 49
1.0
175
     0
142
0.0208333333333333
142
0.0
142
0.0
142
0.0
142
0.0
142
0.0208333333333333
142
0.0
142
0.0
142
0.0
142
0.0
142
1.0
142
0.0
142
0.0
142
0.0
142
0.0
142
1.0
179
     0
144
0.0208333333333333
144
0.0
144
0.0
144
0.0
144
0.0
144
0.0208333333333333
144
0.0
144
0.0
144
0.0
144
0.0
144
1.0
144
0.0
144
0.0
144
0.0
144
0.0
144
1.0
147
0.0208333333333333
147
0.0
147
0.0
147
0.0
147
0.0
147
0.0208333333333333
147
0.0
147
0.0
147
0.0
147
0.0
147
1.0
147
0.0
147
0.0
147
0.0
147
0.0
147
1.0
  0
MLEADERSTYLE
  5
1BDB
102
{ACAD_REACTORS
330
1BDA
102
}
330
1BDA
100
AcDbMLeaderStyle
170
     2
171
     1
172
     0
 90
        2
 40
0.0
 41
0.0
173
     1
 91
-1056964608
340
13
 92
       -2
290
     1
 42
0.09
291
     1
 43
0.36
  3
Standard
 44
0.18
300

342
11
174
     1
178
     6
175
     1
176
     0
 93
-1056964608
 45
0.18
292
     0
297
     0
 46
0.18
 94
-1056964608
 47
1.0
 49
1.0
140
1.0
293
     1
141
0.0
294
     1
177
     0
142
1.0
295
     0
296
     0
143
0.125
1001
ACAD_MLEADERVER
1070
     2
  0
MLINESTYLE
  5
17
102
{ACAD_REACTORS
330
16
102
}
330
16
100
AcDbMlineStyle
  2
STANDARD
 70
     0
  3

 62
   256
 51
90.0
 52
90.0
 71
     2
 49
0.5
 62
   256
  6
BYLAYER
 49
-0.5
 62
   256
  6
BYLAYER
  0
PLOTSETTINGS
  5
1BEE
102
{ACAD_REACTORS
330
18
102
}
330
18
100
AcDbPlotSettings
  1
1055 24x36 BW
  2
1055B&WDraftShaded.pc3
  4
User257
  6

 40
14.98600006103515
 41
8.297271728515625
 42
14.9859619140625
 43
8.29736328125
 44
914.3153076171875
 45
1269.915283203125
 46
0.0
 47
0.0
 48
0.0
 49
0.0
140
0.0
141
0.0
142
1.0
143
1.0
 70
  2800
 72
     0
 73
     2
 74
     1
  7
1055B&WFullDraftShaded.ctb
 75
    16
147
1.0
 76
     0
 77
     2
 78
   300
148
-75.74468520391772
149
-27.53050504688192
1001
ACAD_PSEXT
1000
1055B&WDraftShaded.pc3
1000
HP DesignJet 1055CM by HP
1000
FRONT
1000

1070
     0
  0
PLOTSETTINGS
  5
1BF0
102
{ACAD_REACTORS
330
18
102
}
330
18
100
AcDbPlotSettings
  1
1055 24x36 BW Final
  2
1055B&WFinalShaded.pc3
  4
User257
  6

 40
14.98600006103515
 41
8.297271728515625
 42
14.9859619140625
 43
8.29736328125
 44
914.357666015625
 45
1269.957641601562
 46
0.0
 47
0.0
 48
0.0
 49
0.0
140
0.0
141
0.0
142
1.0
143
1.0
 70
  2800
 72
     0
 73
     2
 74
     1
  7
1055B&WFullFinalShaded.ctb
 75
    16
147
1.0
 76
     0
 77
     2
 78
   300
148
-75.74468520391772
149
-27.53050504688192
1001
ACAD_PSEXT
1000
1055B&WFinalShaded.pc3
1000
HP DesignJet 1055CM by HP
1000
FRONT
1000

1070
     0
  0
PLOTSETTINGS
  5
1BF1
102
{ACAD_REACTORS
330
18
102
}
330
18
100
AcDbPlotSettings
  1
1055 24x36 Color
  2
1055ColorDraftShaded.pc3
  4
User257
  6

 40
14.98600006103515
 41
8.297271728515625
 42
14.9859619140625
 43
8.29736328125
 44
914.3153076171875
 45
1269.915283203125
 46
0.0
 47
0.0
 48
0.0
 49
0.0
140
0.0
141
0.0
142
1.0
143
1.0
 70
  2800
 72
     0
 73
     2
 74
     1
  7
Color.ctb
 75
    16
147
1.0
 76
     0
 77
     2
 78
   300
148
-75.74468520391772
149
-27.53050504688192
1001
ACAD_PSEXT
1000
1055ColorDraftShaded.pc3
1000
HP DesignJet 1055CM by HP
1000
FRONT
1000

1070
     0
  0
PLOTSETTINGS
  5
1BF2
102
{ACAD_REACTORS
330
18
102
}
330
18
100
AcDbPlotSettings
  1
1055 24x36 Color Shaded
  2
1055ColorDraftShaded.pc3
  4
User257
  6

 40
14.98600006103515
 41
8.297271728515625
 42
14.9859619140625
 43
8.29736328125
 44
914.3153076171875
 45
1269.915283203125
 46
0.0
 47
0.0
 48
0.0
 49
0.0
140
0.0
141
0.0
142
1.0
143
1.0
 70
  2800
 72
     0
 73
     2
 74
     1
  7
1055ColorFullDraftShaded.ctb
 75
    16
147
1.0
 76
     0
 77
     2
 78
   300
148
-75.74468520391772
149
-27.53050504688192
1001
ACAD_PSEXT
1000
1055ColorDraftShaded.pc3
1000
HP DesignJet 1055CM by HP
1000
FRONT
1000

1070
     0
  0
PLOTSETTINGS
  5
1BF3
102
{ACAD_REACTORS
330
18
102
}
330
18
100
AcDbPlotSettings
  1
1055 30x42 BW
  2
1055B&WDraftShaded.pc3
  4
User257
  6

 40
14.98600006103515
 41
8.297271728515625
 42
14.9859619140625
 43
8.29736328125
 44
914.3153076171875
 45
1269.915283203125
 46
0.0
 47
0.0
 48
0.0
 49
0.0
140
0.0
141
0.0
142
1.0
143
1.0
 70
  2800
 72
     0
 73
     1
 74
     1
  7
1055B&WFullDraftShaded.ctb
 75
    16
147
1.0
 76
     0
 77
     2
 78
   300
148
-75.74468520391772
149
-27.53050504688192
1001
ACAD_PSEXT
1000
1055B&WDraftShaded.pc3
1000
HP DesignJet 1055CM by HP
1000
FRONT
1000

1070
     0
  0
PLOTSETTINGS
  5
1BF4
102
{ACAD_REACTORS
330
18
102
}
330
18
100
AcDbPlotSettings
  1
1055 30x42 BW Final
  2
1055B&WFinalShaded.pc3
  4
User257
  6

 40
14.98600006103515
 41
8.297271728515625
 42
14.9859619140625
 43
8.29736328125
 44
914.357666015625
 45
1269.957641601562
 46
0.0
 47
0.0
 48
0.0
 49
0.0
140
0.0
141
0.0
142
1.0
143
1.0
 70
  2800
 72
     0
 73
     1
 74
     1
  7
1055B&WFullFinalShaded.ctb
 75
    16
147
1.0
 76
     0
 77
     2
 78
   300
148
-75.74468520391772
149
-27.53050504688192
1001
ACAD_PSEXT
1000
1055B&WFinalShaded.pc3
1000
HP DesignJet 1055CM by HP
1000
FRONT
1000

1070
     0
  0
PLOTSETTINGS
  5
1BF5
102
{ACAD_REACTORS
330
18
102
}
330
18
100
AcDbPlotSettings
  1
1055 B&W Draft
  2
1055B&WDraftShaded.pc3
  4
User257
  6

 40
4.995333194732666
 41
8.297271728515625
 42
4.99530029296875
 43
8.29736328125
 44
914.3153076171875
 45
1269.915283203125
 46
0.0
 47
0.0
 48
0.0
 49
0.0
140
0.0
141
0.0
142
1.0
143
30.0
 70
 11936
 72
     0
 73
     2
 74
     1
  7
1055B&WFullDraftShaded.ctb
 75
     0
147
3.484472351238056
 76
     0
 77
     2
 78
   300
148
-119.4582094169044
149
-58.17053554795709
1001
ACAD_PSEXT
1000
1055B&WDraftShaded.pc3
1000
HP DesignJet 1055CM by HP
1000
\\aqua-srv01
1000

1070
     0
  0
PLOTSETTINGS
  5
1BF6
102
{ACAD_REACTORS
330
18
102
}
330
18
100
AcDbPlotSettings
  1
1055 B&W Final
  2
1055B&WFinalShaded.pc3
  4
User257
  6

 40
4.995333194732666
 41
8.297271728515625
 42
4.99530029296875
 43
8.29736328125
 44
914.357666015625
 45
1269.957641601562
 46
0.0
 47
0.0
 48
0.0
 49
0.0
140
0.0
141
0.0
142
1.0
143
30.0
 70
 11936
 72
     0
 73
     2
 74
     1
  7
1055B&WFullFinalShaded.ctb
 75
     0
147
3.484472351238056
 76
     0
 77
     2
 78
   300
148
-119.4582094169044
149
-58.17053554795709
1001
ACAD_PSEXT
1000
1055B&WFinalShaded.pc3
1000
HP DesignJet 1055CM by HP
1000
\\aqua-srv01
1000

1070
     0
  0
PLOTSETTINGS
  5
1BF7
102
{ACAD_REACTORS
330
18
102
}
330
18
100
AcDbPlotSettings
  1
1055 BW Half
  2
1055B&WDraftShaded.pc3
  4
User257
  6

 40
14.98600006103515
 41
8.297271728515625
 42
14.9859619140625
 43
8.29736328125
 44
914.3153076171875
 45
1269.915283203125
 46
0.0
 47
0.0
 48
0.0
 49
0.0
140
0.0
141
0.0
142
1.0
143
2.0
 70
  2800
 72
     0
 73
     2
 74
     1
  7
1055B&WFullDraftShaded.ctb
 75
    17
147
0.5
 76
     0
 77
     2
 78
   300
148
-75.74468520391772
149
-27.53050504688192
1001
ACAD_PSEXT
1000
1055B&WDraftShaded.pc3
1000
HP DesignJet 1055CM by HP
1000
FRONT
1000

1070
     0
  0
PLOTSETTINGS
  5
1BF8
102
{ACAD_REACTORS
330
18
102
}
330
18
100
AcDbPlotSettings
  1
1055 Color Draft
  2
1055ColorDraftShaded.pc3
  4
User257
  6

 40
4.995333194732666
 41
8.297271728515625
 42
4.99530029296875
 43
8.29736328125
 44
914.3153076171875
 45
1269.915283203125
 46
0.0
 47
0.0
 48
0.0
 49
0.0
140
0.0
141
0.0
142
1.0
143
30.0
 70
 11936
 72
     0
 73
     2
 74
     1
  7
1055ColorFullDraftShaded.ctb
 75
     0
147
3.484472351238056
 76
     0
 77
     2
 78
   300
148
-119.4582094169044
149
-58.17053554795709
1001
ACAD_PSEXT
1000
1055ColorDraftShaded.pc3
1000
HP DesignJet 1055CM by HP
1000
\\aqua-srv01
1000

1070
     0
  0
PLOTSETTINGS
  5
1BF9
102
{ACAD_REACTORS
330
18
102
}
330
18
100
AcDbPlotSettings
  1
1055 Color Final
  2
1055ColorFinalShaded.pc3
  4
User257
  6

 40
4.995333194732666
 41
8.297271728515625
 42
4.99530029296875
 43
8.29736328125
 44
914.357666015625
 45
1269.957641601562
 46
0.0
 47
0.0
 48
0.0
 49
0.0
140
0.0
141
0.0
142
1.0
143
30.0
 70
 11936
 72
     0
 73
     2
 74
     1
  7
1055ColorFullFinalShaded.ctb
 75
     0
147
3.484472351238056
 76
     0
 77
     2
 78
   300
148
-119.4582094169044
149
-58.17053554795709
1001
ACAD_PSEXT
1000
1055ColorFinalShaded.pc3
1000
HP DesignJet 1055CM by HP
1000
\\aqua-srv01
1000

1070
     0
  0
PLOTSETTINGS
  5
1BFA
102
{ACAD_REACTORS
330
18
102
}
330
18
100
AcDbPlotSettings
  1
1055+ 24x36 BW
  2
1055_PLUS_B&WDraftShaded.pc3
  4
User257
  6

 40
14.98600006103515
 41
8.297271728515625
 42
14.9859619140625
 43
8.29736328125
 44
914.3153076171875
 45
1269.915283203125
 46
0.0
 47
0.0
 48
0.0
 49
0.0
140
0.0
141
0.0
142
1.0
143
1.0
 70
  2800
 72
     0
 73
     2
 74
     1
  7
1055B&WFullDraftShaded.ctb
 75
    16
147
1.0
 76
     0
 77
     2
 78
   300
148
-75.74468520391772
149
-27.53050504688192
1001
ACAD_PSEXT
1000
1055_PLUS_B&WDraftShaded.pc3
1000
HP DesignJet 1055CM by HP
1000
FRONT
1000

1070
     0
  0
PLOTSETTINGS
  5
1BFB
102
{ACAD_REACTORS
330
18
102
}
330
18
100
AcDbPlotSettings
  1
1055+ 24x36 BW Final
  2
1055_PLUS_B&WFinalShaded.pc3
  4
User257
  6

 40
14.98600006103515
 41
8.297271728515625
 42
14.9859619140625
 43
8.29736328125
 44
914.357666015625
 45
1269.957641601562
 46
0.0
 47
0.0
 48
0.0
 49
0.0
140
0.0
141
0.0
142
1.0
143
1.0
 70
  2800
 72
     0
 73
     2
 74
     1
  7
1055B&WFullFinalShaded.ctb
 75
    16
147
1.0
 76
     0
 77
     2
 78
   300
148
-75.74468520391772
149
-27.53050504688192
1001
ACAD_PSEXT
1000
1055_PLUS_B&WFinalShaded.pc3
1000
HP DesignJet 1055CM by HP
1000
FRONT
1000

1070
     0
  0
PLOTSETTINGS
  5
1BFC
102
{ACAD_REACTORS
330
18
102
}
330
18
100
AcDbPlotSettings
  1
1055+ 24x36 Color
  2
1055_PLUS_ColorDraftShaded.pc3
  4
User257
  6

 40
14.98600006103515
 41
8.297271728515625
 42
14.9859619140625
 43
8.29736328125
 44
914.3153076171875
 45
1269.915283203125
 46
0.0
 47
0.0
 48
0.0
 49
0.0
140
0.0
141
0.0
142
1.0
143
1.0
 70
  2800
 72
     0
 73
     2
 74
     1
  7
Color.ctb
 75
    16
147
1.0
 76
     0
 77
     2
 78
   300
148
-75.74468520391772
149
-27.53050504688192
1001
ACAD_PSEXT
1000
1055_PLUS_ColorDraftShaded.pc3
1000
HP DesignJet 1055CM by HP
1000
FRONT
1000

1070
     0
  0
PLOTSETTINGS
  5
1BFD
102
{ACAD_REACTORS
330
18
102
}
330
18
100
AcDbPlotSettings
  1
1055+ 24x36 Color Shaded
  2
1055_PLUS_ColorDraftShaded.pc3
  4
User257
  6

 40
14.98600006103515
 41
8.297271728515625
 42
14.9859619140625
 43
8.29736328125
 44
914.3153076171875
 45
1269.915283203125
 46
0.0
 47
0.0
 48
0.0
 49
0.0
140
0.0
141
0.0
142
1.0
143
1.0
 70
  2800
 72
     0
 73
     2
 74
     1
  7
1055ColorFullDraftShaded.ctb
 75
    16
147
1.0
 76
     0
 77
     2
 78
   300
148
-75.74468520391772
149
-27.53050504688192
1001
ACAD_PSEXT
1000
1055_PLUS_ColorDraftShaded.pc3
1000
HP DesignJet 1055CM by HP
1000
FRONT
1000

1070
     0
  0
PLOTSETTINGS
  5
1BFE
102
{ACAD_REACTORS
330
18
102
}
330
18
100
AcDbPlotSettings
  1
1055+ 30x42 BW
  2
1055_PLUS_B&WDraftShaded.pc3
  4
User257
  6

 40
14.98600006103515
 41
8.297271728515625
 42
14.9859619140625
 43
8.29736328125
 44
914.3153076171875
 45
1269.915283203125
 46
0.0
 47
0.0
 48
0.0
 49
0.0
140
0.0
141
0.0
142
1.0
143
1.0
 70
  2800
 72
     0
 73
     1
 74
     1
  7
1055B&WFullDraftShaded.ctb
 75
    16
147
1.0
 76
     0
 77
     2
 78
   300
148
-75.74468520391772
149
-27.53050504688192
1001
ACAD_PSEXT
1000
1055_PLUS_B&WDraftShaded.pc3
1000
HP DesignJet 1055CM by HP
1000
FRONT
1000

1070
     0
  0
PLOTSETTINGS
  5
1BFF
102
{ACAD_REACTORS
330
18
102
}
330
18
100
AcDbPlotSettings
  1
1055+ 30x42 BW Final
  2
1055_PLUS_B&WFinalShaded.pc3
  4
User257
  6

 40
14.98600006103515
 41
8.297271728515625
 42
14.9859619140625
 43
8.29736328125
 44
914.357666015625
 45
1269.957641601562
 46
0.0
 47
0.0
 48
0.0
 49
0.0
140
0.0
141
0.0
142
1.0
143
1.0
 70
  2800
 72
     0
 73
     1
 74
     1
  7
1055B&WFullFinalShaded.ctb
 75
    16
147
1.0
 76
     0
 77
     2
 78
   300
148
-75.74468520391772
149
-27.53050504688192
1001
ACAD_PSEXT
1000
1055_PLUS_B&WFinalShaded.pc3
1000
HP DesignJet 1055CM by HP
1000
FRONT
1000

1070
     0
  0
PLOTSETTINGS
  5
1C00
102
{ACAD_REACTORS
330
18
102
}
330
18
100
AcDbPlotSettings
  1
1055+ B&W Draft
  2
1055_PLUS_B&WDraftShaded.pc3
  4
User257
  6

 40
4.995333194732666
 41
13.2926607131958
 42
4.99530029296875
 43
13.292724609375
 44
914.3153076171875
 45
1269.915283203125
 46
0.0
 47
0.0
 48
0.0
 49
0.0
140
0.0
141
0.0
142
1.0
143
30.0
 70
 11936
 72
     0
 73
     2
 74
     1
  7
1055B&WFullDraftShaded.ctb
 75
     0
147
3.484472351238056
 76
     0
 77
     2
 78
   300
148
-119.4582094169044
149
-58.17053554795709
1001
ACAD_PSEXT
1000
1055_PLUS_B&WDraftShaded.pc3
1000
HP DesignJet 1055CM by HP
1000
\\aqua-srv01
1000

1070
     0
  0
PLOTSETTINGS
  5
1C01
102
{ACAD_REACTORS
330
18
102
}
330
18
100
AcDbPlotSettings
  1
1055+ B&W Final
  2
1055_PLUS_B&WFinalShaded.pc3
  4
User257
  6

 40
4.995333194732666
 41
13.2926607131958
 42
4.99530029296875
 43
13.292724609375
 44
914.357666015625
 45
1269.957641601562
 46
0.0
 47
0.0
 48
0.0
 49
0.0
140
0.0
141
0.0
142
1.0
143
30.0
 70
 11936
 72
     0
 73
     2
 74
     1
  7
1055B&WFullFinalShaded.ctb
 75
     0
147
3.484472351238056
 76
     0
 77
     2
 78
   300
148
-119.4582094169044
149
-58.17053554795709
1001
ACAD_PSEXT
1000
1055_PLUS_B&WFinalShaded.pc3
1000
HP DesignJet 1055CM by HP
1000
\\aqua-srv01
1000

1070
     0
  0
PLOTSETTINGS
  5
1C02
102
{ACAD_REACTORS
330
18
102
}
330
18
100
AcDbPlotSettings
  1
1055+ BW Half
  2
1055_PLUS_B&WDraftShaded.pc3
  4
User257
  6

 40
14.98600006103515
 41
8.297271728515625
 42
14.9859619140625
 43
8.29736328125
 44
914.3153076171875
 45
1269.915283203125
 46
0.0
 47
0.0
 48
0.0
 49
0.0
140
0.0
141
0.0
142
1.0
143
2.0
 70
  2800
 72
     0
 73
     2
 74
     1
  7
1055B&WFullDraftShaded.ctb
 75
    17
147
0.5
 76
     0
 77
     2
 78
   300
148
-75.74468520391772
149
-27.53050504688192
1001
ACAD_PSEXT
1000
1055_PLUS_B&WDraftShaded.pc3
1000
HP DesignJet 1055CM by HP
1000
FRONT
1000

1070
     0
  0
PLOTSETTINGS
  5
1C03
102
{ACAD_REACTORS
330
18
102
}
330
18
100
AcDbPlotSettings
  1
1055+ Color Draft
  2
1055_PLUS_ColorDraftShaded.pc3
  4
User257
  6

 40
4.995333194732666
 41
8.297271728515625
 42
4.99530029296875
 43
8.29736328125
 44
914.3153076171875
 45
1269.915283203125
 46
0.0
 47
0.0
 48
0.0
 49
0.0
140
0.0
141
0.0
142
1.0
143
30.0
 70
 11936
 72
     0
 73
     2
 74
     1
  7
1055ColorFullDraftShaded.ctb
 75
     0
147
3.484472351238056
 76
     0
 77
     2
 78
   300
148
-119.4582094169044
149
-58.17053554795709
1001
ACAD_PSEXT
1000
1055_PLUS_ColorDraftShaded.pc3
1000
HP DesignJet 1055CM by HP
1000
\\aqua-srv01
1000

1070
     0
  0
PLOTSETTINGS
  5
1C04
102
{ACAD_REACTORS
330
18
102
}
330
18
100
AcDbPlotSettings
  1
1055+ Color Final
  2
1055_PLUS_ColorFinalShaded.pc3
  4
User257
  6

 40
4.995333194732666
 41
13.2926607131958
 42
4.99530029296875
 43
13.292724609375
 44
914.357666015625
 45
1269.957641601562
 46
0.0
 47
0.0
 48
0.0
 49
0.0
140
0.0
141
0.0
142
1.0
143
30.0
 70
 11936
 72
     0
 73
     2
 74
     1
  7
1055ColorFullFinalShaded.ctb
 75
     0
147
3.484472351238056
 76
     0
 77
     2
 78
   300
148
-119.4582094169044
149
-58.17053554795709
1001
ACAD_PSEXT
1000
1055_PLUS_ColorFinalShaded.pc3
1000
HP DesignJet 1055CM by HP
1000
\\aqua-srv01
1000

1070
     0
  0
PLOTSETTINGS
  5
1C05
102
{ACAD_REACTORS
330
18
102
}
330
18
100
AcDbPlotSettings
  1
_1055 22x34 True Centered BW
  2
1055B&WDraftShaded 24x36 true.pc3
  4
User1639
  6

 40
0.0
 41
0.0
 42
0.0
 43
0.0
 44
863.6000366210938
 45
558.7999877929687
 46
379.1860116761152
 47
224.9166389522296
 48
0.0
 49
0.0
140
0.0
141
0.0
142
1.0
143
1.0
 70
  2804
 72
     0
 73
     0
 74
     1
  7
1055B&WFullDraftShaded.ctb
 75
    16
147
1.0
 76
     0
 77
     2
 78
   300
148
-75.74468520391772
149
-27.53050504688192
1001
ACAD_PSEXT
1000
1055B&WDraftShaded 24x36 true.pc3
1000
HP DesignJet 1055CM by HP
1000
FRONT
1000

1070
     0
  0
PLOTSETTINGS
  5
1C06
102
{ACAD_REACTORS
330
18
102
}
330
18
100
AcDbPlotSettings
  1
_1055 24x36 True Centered BW
  2
1055B&WDraftShaded 24x36 true.pc3
  4
User1308
  6

 40
14.98600006103515
 41
8.297332763671875
 42
14.9859619140625
 43
8.29736328125
 44
914.3153076171875
 45
609.5153198242187
 46
389.5576661866133
 47
241.9769569453936
 48
0.0
 49
0.0
140
0.0
141
0.0
142
1.0
143
1.0
 70
  2804
 72
     0
 73
     0
 74
     1
  7
1055B&WFullDraftShaded.ctb
 75
    16
147
1.0
 76
     0
 77
     2
 78
   300
148
-75.74468520391772
149
-27.53050504688192
1001
ACAD_PSEXT
1000
1055B&WDraftShaded 24x36 true.pc3
1000
HP DesignJet 1055CM by HP
1000
FRONT
1000

1070
     0
  0
PLOTSETTINGS
  5
1C07
102
{ACAD_REACTORS
330
18
102
}
330
18
100
AcDbPlotSettings
  1
_1055 24x36 True Centered BW Final
  2
1055B&WFinalShaded 24x36 true.pc3
  4
User1308
  6

 40
14.98600006103515
 41
8.297332763671875
 42
14.9859619140625
 43
8.29736328125
 44
914.357666015625
 45
609.5576782226562
 46
389.578845385832
 47
241.9981361446124
 48
0.0
 49
0.0
140
0.0
141
0.0
142
1.0
143
1.0
 70
  2804
 72
     0
 73
     0
 74
     1
  7
1055B&WFullFinalShaded.ctb
 75
    16
147
1.0
 76
     0
 77
     2
 78
   300
148
-75.74468520391772
149
-27.53050504688192
1001
ACAD_PSEXT
1000
1055B&WFinalShaded 24x36 true.pc3
1000
HP DesignJet 1055CM by HP
1000
FRONT
1000

1070
     0
  0
PLOTSETTINGS
  5
1C08
102
{ACAD_REACTORS
330
18
102
}
330
18
100
AcDbPlotSettings
  1
_1055 24x36 True Centered Color
  2
1055ColorDraftShaded 24x36 true.pc3
  4
User1308
  6

 40
14.98600006103515
 41
8.297332763671875
 42
14.9859619140625
 43
8.29736328125
 44
914.3153076171875
 45
609.5153198242187
 46
389.5576661866133
 47
241.9769569453936
 48
0.0
 49
0.0
140
0.0
141
0.0
142
1.0
143
1.0
 70
  2804
 72
     0
 73
     0
 74
     1
  7
1055ColorFullDraftShaded.ctb
 75
    16
147
1.0
 76
     0
 77
     2
 78
   300
148
-75.74468520391772
149
-27.53050504688192
1001
ACAD_PSEXT
1000
1055ColorDraftShaded 24x36 true.pc3
1000
HP DesignJet 1055CM by HP
1000
FRONT
1000

1070
     0
  0
PLOTSETTINGS
  5
1C09
102
{ACAD_REACTORS
330
18
102
}
330
18
100
AcDbPlotSettings
  1
_1055 30x42 True Centered BW
  2
1055B&WDraftShaded 30x42 true.pc3
  4
User286
  6

 40
0.0
 41
0.0
 42
-0.08465576171875
 43
-0.084716796875
 44
761.9153442382812
 45
1066.71533203125
 46
326.5166450557452
 47
480.7860177796309
 48
0.0
 49
0.0
140
0.0
141
0.0
142
1.0
143
1.0
 70
  2804
 72
     0
 73
     1
 74
     1
  7
1055B&WFullDraftShaded.ctb
 75
    16
147
1.0
 76
     0
 77
     2
 78
   300
148
-75.74468520391772
149
-27.53050504688192
1001
ACAD_PSEXT
1000
1055B&WDraftShaded 30x42 true.pc3
1000
HP DesignJet 1055CM by HP
1000
FRONT
1000

1070
     0
  0
PLOTSETTINGS
  5
1C0A
102
{ACAD_REACTORS
330
18
102
}
330
18
100
AcDbPlotSettings
  1
_1055+ 22x34 True Centered BW
  2
1055_PLUS_B&WDraftShaded 24x36 true.pc3
  4
User1639
  6

 40
0.0
 41
0.0
 42
0.0
 43
0.0
 44
863.6000366210938
 45
558.7999877929687
 46
379.1860116761152
 47
224.9166389522296
 48
0.0
 49
0.0
140
0.0
141
0.0
142
1.0
143
1.0
 70
  2804
 72
     0
 73
     0
 74
     1
  7
1055B&WFullDraftShaded.ctb
 75
    16
147
1.0
 76
     0
 77
     2
 78
   300
148
-75.74468520391772
149
-27.53050504688192
1001
ACAD_PSEXT
1000
1055_PLUS_B&WDraftShaded 24x36 true.pc3
1000
HP DesignJet 1055CM by HP
1000
FRONT
1000

1070
     0
  0
PLOTSETTINGS
  5
1C0B
102
{ACAD_REACTORS
330
18
102
}
330
18
100
AcDbPlotSettings
  1
_1055+ 24x36 True Centered BW
  2
1055_PLUS_B&WDraftShaded 24x36 true.pc3
  4
User1308
  6

 40
14.98600006103515
 41
8.297332763671875
 42
14.9859619140625
 43
8.29736328125
 44
914.3153076171875
 45
609.5153198242187
 46
389.5576661866133
 47
241.9769569453936
 48
0.0
 49
0.0
140
0.0
141
0.0
142
1.0
143
1.0
 70
  2804
 72
     0
 73
     0
 74
     1
  7
1055B&WFullDraftShaded.ctb
 75
    16
147
1.0
 76
     0
 77
     2
 78
   300
148
-75.74468520391772
149
-27.53050504688192
1001
ACAD_PSEXT
1000
1055_PLUS_B&WDraftShaded 24x36 true.pc3
1000
HP DesignJet 1055CM by HP
1000
FRONT
1000

1070
     0
  0
PLOTSETTINGS
  5
1C0C
102
{ACAD_REACTORS
330
18
102
}
330
18
100
AcDbPlotSettings
  1
_1055+ 24x36 True Centered BW Final
  2
1055_PLUS_B&WFinalShaded 24x36 true.pc3
  4
User1308
  6

 40
14.98600006103515
 41
8.297332763671875
 42
14.9859619140625
 43
8.29736328125
 44
914.357666015625
 45
609.5576782226562
 46
389.578845385832
 47
241.9981361446124
 48
0.0
 49
0.0
140
0.0
141
0.0
142
1.0
143
1.0
 70
  2804
 72
     0
 73
     0
 74
     1
  7
1055B&WFullFinalShaded.ctb
 75
    16
147
1.0
 76
     0
 77
     2
 78
   300
148
-75.74468520391772
149
-27.53050504688192
1001
ACAD_PSEXT
1000
1055_PLUS_B&WFinalShaded 24x36 true.pc3
1000
HP DesignJet 1055CM by HP
1000
FRONT
1000

1070
     0
  0
PLOTSETTINGS
  5
1C0D
102
{ACAD_REACTORS
330
18
102
}
330
18
100
AcDbPlotSettings
  1
_1055+ 24x36 True Centered Color
  2
1055_PLUS_ColorDraftShaded 24x36 true.pc3
  4
User1308
  6

 40
14.98600006103515
 41
8.297332763671875
 42
14.9859619140625
 43
8.29736328125
 44
914.3153076171875
 45
609.5153198242187
 46
389.5576661866133
 47
241.9769569453936
 48
0.0
 49
0.0
140
0.0
141
0.0
142
1.0
143
1.0
 70
  2804
 72
     0
 73
     0
 74
     1
  7
1055ColorFullDraftShaded.ctb
 75
    16
147
1.0
 76
     0
 77
     2
 78
   300
148
-75.74468520391772
149
-27.53050504688192
1001
ACAD_PSEXT
1000
1055_PLUS_ColorDraftShaded 24x36 true.pc3
1000
HP DesignJet 1055CM by HP
1000
FRONT
1000

1070
     0
  0
PLOTSETTINGS
  5
1C0E
102
{ACAD_REACTORS
330
18
102
}
330
18
100
AcDbPlotSettings
  1
DWF BW 11x17 Fit
  2
DWF-BW_11x17.pc3
  4
UserDefinedImperial (17.00 x 11.00Inches)
  6

 40
0.0
 41
0.0
 42
0.0
 43
0.0
 44
431.7999877929687
 45
279.3999938964844
 46
80.99316641155249
 47
0.000000000000005
 48
0.0
 49
0.0
140
0.0
141
0.0
142
1.0
143
0.3900025492802298
 70
  2740
 72
     0
 73
     0
 74
     1
  7
1055B&WFullFinalShaded.ctb
 75
     0
147
2.564085803658341
 76
     0
 77
     2
 78
   300
148
-75.74468520391772
149
-27.53050504688192
1001
ACAD_PSEXT
1000
DWF-BW_11x17.pc3
1000
DWF eView (optimized for viewing)
1000
File
1000

1070
     0
  0
PLOTSETTINGS
  5
1C0F
102
{ACAD_REACTORS
330
18
102
}
330
18
100
AcDbPlotSettings
  1
DWF BW 11x17 Half
  2
DWF-BW_11x17.pc3
  4
UserDefinedImperial (17.00 x 11.00Inches)
  6

 40
0.0
 41
0.0
 42
0.0
 43
0.0
 44
431.7999877929687
 45
279.3999938964844
 46
189.5929905792686
 47
112.4583194761148
 48
0.0
 49
0.0
140
0.0
141
0.0
142
1.0
143
2.0
 70
  2740
 72
     0
 73
     0
 74
     1
  7
1055B&WFullFinalShaded.ctb
 75
    17
147
0.5
 76
     0
 77
     2
 78
   300
148
-75.74468520391772
149
-27.53050504688192
1001
ACAD_PSEXT
1000
DWF-BW_11x17.pc3
1000
DWF eView (optimized for viewing)
1000
File
1000

1070
     0
  0
PLOTSETTINGS
  5
1C10
102
{ACAD_REACTORS
330
18
102
}
330
18
100
AcDbPlotSettings
  1
DWF BW 22x34
  2
DWF-BW_22x34.pc3
  4
UserDefinedImperial (34.00 x 22.00Inches)
  6

 40
0.0
 41
0.0
 42
0.0
 43
0.0
 44
863.5999755859375
 45
558.7999877929687
 46
379.1859811585372
 47
224.9166389522296
 48
0.0
 49
0.0
140
0.0
141
0.0
142
1.0
143
1.0
 70
  2740
 72
     0
 73
     0
 74
     1
  7
1055B&WFullFinalShaded.ctb
 75
    16
147
1.0
 76
     0
 77
     2
 78
   300
148
-75.74468520391772
149
-27.53050504688192
1001
ACAD_PSEXT
1000
DWF-BW_22x34.pc3
1000
DWF eView (optimized for viewing)
1000
File
1000

1070
     0
  0
PLOTSETTINGS
  5
1C11
102
{ACAD_REACTORS
330
18
102
}
330
18
100
AcDbPlotSettings
  1
DWF BW 24x36
  2
DWF-BW_24x36.pc3
  4
UserDefinedImperial (36.00 x 24.00Inches)
  6

 40
0.0
 41
0.0
 42
0.0
 43
0.0
 44
914.4000244140626
 45
609.5999755859375
 46
404.5860055725996
 47
250.3166328487139
 48
0.0
 49
0.0
140
0.0
141
0.0
142
1.0
143
1.0
 70
  2740
 72
     0
 73
     0
 74
     1
  7
1055B&WFullFinalShaded.ctb
 75
    16
147
1.0
 76
     0
 77
     2
 78
   300
148
-75.74468520391772
149
-27.53050504688192
1001
ACAD_PSEXT
1000
DWF-BW_24x36.pc3
1000
DWF eView (optimized for viewing)
1000
File
1000

1070
     0
  0
PLOTSETTINGS
  5
1C12
102
{ACAD_REACTORS
330
18
102
}
330
18
100
AcDbPlotSettings
  1
DWF BW 30x42
  2
DWF-BW_30x42.pc3
  4
UserDefinedImperial (42.00 x 30.00Inches)
  6

 40
0.0
 41
0.0
 42
0.0
 43
0.0
 44
1066.800048828125
 45
762.0
 46
480.7860177796309
 47
326.5166450557452
 48
0.0
 49
0.0
140
0.0
141
0.0
142
1.0
143
1.0
 70
  2740
 72
     0
 73
     0
 74
     1
  7
1055B&WFullFinalShaded.ctb
 75
    16
147
1.0
 76
     0
 77
     2
 78
   300
148
-75.74468520391772
149
-27.53050504688192
1001
ACAD_PSEXT
1000
DWF-BW_30x42.pc3
1000
DWF eView (optimized for viewing)
1000
File
1000

1070
     0
  0
PLOTSETTINGS
  5
1C13
102
{ACAD_REACTORS
330
18
102
}
330
18
100
AcDbPlotSettings
  1
DWF BW 36x48
  2
DWF-BW_36x48.pc3
  4
UserDefinedImperial (48.00 x 36.00Inches)
  6

 40
0.0
 41
0.0
 42
0.0
 43
0.0
 44
1219.199951171875
 45
914.4000244140626
 46
556.9859689515058
 47
402.7166572627765
 48
0.0
 49
0.0
140
0.0
141
0.0
142
1.0
143
1.0
 70
  2740
 72
     0
 73
     0
 74
     1
  7
1055B&WFullFinalShaded.ctb
 75
    16
147
1.0
 76
     0
 77
     2
 78
   300
148
-75.74468520391772
149
-27.53050504688192
1001
ACAD_PSEXT
1000
DWF-BW_36x48.pc3
1000
DWF eView (optimized for viewing)
1000
File
1000

1070
     0
  0
PLOTSETTINGS
  5
1C14
102
{ACAD_REACTORS
330
18
102
}
330
18
100
AcDbPlotSettings
  1
Laser5 11x17 Fit
  2
LaserJet5Shaded.pc3
  4
11x17
  6

 40
5.873749732971191
 41
5.027085304260253
 42
5.873748779296875
 43
5.027069091796875
 44
431.7999877929687
 45
279.3999938964844
 46
79.97401308328474
 47
0.0
 48
0.0
 49
0.0
140
0.0
141
0.0
142
1.0
143
0.4045605831172927
 70
  2740
 72
     0
 73
     0
 74
     1
  7
LaserJet5Shaded.ctb
 75
     0
147
2.471817675104729
 76
     0
 77
     2
 78
   300
148
-75.74468520391772
149
-27.53050504688192
1001
ACAD_PSEXT
1000
LaserJet5Shaded.pc3
1000
HP LaserJet 5Si
1000
\\aqua-srv01
1000

1070
     0
  0
PLOTSETTINGS
  5
1C15
102
{ACAD_REACTORS
330
18
102
}
330
18
100
AcDbPlotSettings
  1
Laser5 11x17 Full
  2
LaserJet5Shaded.pc3
  4
11x17
  6

 40
5.873749732971191
 41
5.027085304260253
 42
5.873748779296875
 43
5.027069091796875
 44
431.7999877929687
 45
279.3999938964844
 46
157.4122380059187
 47
80.18956480595884
 48
0.0
 49
0.0
140
0.0
141
0.0
142
1.0
143
1.0
 70
  2724
 72
     0
 73
     0
 74
     1
  7
LaserJet5Shaded.ctb
 75
     0
147
2.433550528115671
 76
     0
 77
     2
 78
   300
148
-75.74468520391772
149
-27.53050504688192
1001
ACAD_PSEXT
1000
LaserJet5Shaded.pc3
1000
HP LaserJet 5Si
1000
\\aqua-srv01
1000

1070
     0
  0
PLOTSETTINGS
  5
1C16
102
{ACAD_REACTORS
330
18
102
}
330
18
100
AcDbPlotSettings
  1
Laser5 11x17 Half
  2
LaserJet5Shaded.pc3
  4
11x17
  6

 40
5.873749732971191
 41
5.027085304260253
 42
5.873748779296875
 43
5.027069091796875
 44
431.7999877929687
 45
279.3999938964844
 46
183.7192413231345
 47
107.4312422780862
 48
0.0
 49
0.0
140
0.0
141
0.0
142
1.0
143
2.0
 70
  2740
 72
     0
 73
     0
 74
     1
  7
LaserJet5Shaded.ctb
 75
    17
147
0.5
 76
     0
 77
     2
 78
   300
148
-75.74468520391772
149
-27.53050504688192
1001
ACAD_PSEXT
1000
LaserJet5Shaded.pc3
1000
HP LaserJet 5Si
1000
\\aqua-srv01
1000

1070
     0
  0
PLOTSETTINGS
  5
1C17
102
{ACAD_REACTORS
330
18
102
}
330
18
100
AcDbPlotSettings
  1
Laser5 8x11 Fit
  2
LaserJet5Shaded-8x11.pc3
  4
Letter
  6

 40
5.873749732971191
 41
5.027085304260253
 42
5.873748779296875
 43
5.027084350585937
 44
279.3999938964844
 45
215.8999938964844
 46
34.4346667826652
 47
0.0
 48
0.0
 49
0.0
140
0.0
141
0.0
142
1.0
143
0.5293607985003172
 70
  2740
 72
     0
 73
     0
 74
     1
  7
LaserJet5Shaded.ctb
 75
     0
147
1.889070748784206
 76
     0
 77
     2
 78
   300
148
-75.74468520391772
149
-27.53050504688192
1001
ACAD_PSEXT
1000
LaserJet5Shaded-8x11.pc3
1000
HP LaserJet 5Si
1000
\\aqua-srv01
1000

1070
     0
  0
PLOTSETTINGS
  5
1C18
102
{ACAD_REACTORS
330
18
102
}
330
18
100
AcDbPlotSettings
  1
Laser5 8x11 Half
  2
LaserJet5Shaded-8x11.pc3
  4
Letter
  6

 40
5.873749732971191
 41
5.027085304260253
 42
5.873748779296875
 43
5.027084350585937
 44
279.3999938964844
 45
215.8999938964844
 46
107.5192443748923
 47
75.68123464869171
 48
0.0
 49
0.0
140
0.0
141
0.0
142
1.0
143
2.0
 70
  2740
 72
     0
 73
     0
 74
     1
  7
LaserJet5Shaded.ctb
 75
    17
147
0.5
 76
     0
 77
     2
 78
   300
148
-75.74468520391772
149
-27.53050504688192
1001
ACAD_PSEXT
1000
LaserJet5Shaded-8x11.pc3
1000
HP LaserJet 5Si
1000
\\aqua-srv01
1000

1070
     0
  0
PLOTSETTINGS
  5
1C19
102
{ACAD_REACTORS
330
18
102
}
330
18
100
AcDbPlotSettings
  1
Laser5 8x11 Portrait Fit
  2
LaserJet5Shaded-8x11.pc3
  4
Letter
  6

 40
5.873749732971191
 41
5.027085304260253
 42
5.873748779296875
 43
5.027084350585937
 44
279.3999938964844
 45
215.8999938964844
 46
27.24653799736659
 47
0.0000000000000029
 48
0.0
 49
0.0
140
0.0
141
0.0
142
1.0
143
0.5111981924167587
 70
  2740
 72
     0
 73
     1
 74
     1
  7
LaserJet5Shaded.ctb
 75
     0
147
1.956188450652308
 76
     0
 77
     2
 78
   300
148
-75.74468520391772
149
-27.53050504688192
1001
ACAD_PSEXT
1000
LaserJet5Shaded-8x11.pc3
1000
HP LaserJet 5Si
1000
\\aqua-srv01
1000

1070
     0
  0
PLOTSETTINGS
  5
1C1A
102
{ACAD_REACTORS
330
18
102
}
330
18
100
AcDbPlotSettings
  1
LaserJet5 11x17
  2
LaserJet5Shaded.pc3
  4
11x17
  6

 40
7.111999988555908
 41
5.079999923706054
 42
7.11199951171875
 43
5.079986572265625
 44
279.3999938964844
 45
431.7999877929687
 46
0.0
 47
74.88489939702606
 48
0.0
 49
0.0
140
0.0
141
0.0
142
1.0
143
0.3551636250563743
 70
 11956
 72
     0
 73
     1
 74
     1
  7
LaserJet5Shaded.ctb
 75
     0
147
2.815603652658045
 76
     0
 77
     2
 78
   300
148
-119.4582094169044
149
-58.17053554795709
1001
ACAD_PSEXT
1000
LaserJet5Shaded.pc3
1000
HP LaserJet 5Si
1000
\\aqua-srv01
1000

1070
     0
  0
PLOTSETTINGS
  5
1C1B
102
{ACAD_REACTORS
330
18
102
}
330
18
100
AcDbPlotSettings
  1
LaserJet5 8.5x11
  2
LaserJet5Shaded-8x11.pc3
  4
Letter
  6

 40
5.873749732971191
 41
5.873734951019287
 42
6.55108642578125
 43
5.027084350585937
 44
279.3999938964844
 45
215.8999938964844
 46
28.40045128601757
 47
0.0000000000000046
 48
0.0
 49
0.0
140
0.0
141
0.0
142
1.0
143
0.4594207153946231
 70
 11956
 72
     0
 73
     0
 74
     1
  7
LaserJet5Shaded.ctb
 75
     0
147
2.176654135286525
 76
     0
 77
     2
 78
   300
148
-119.4582094169044
149
-58.17053554795709
1001
ACAD_PSEXT
1000
LaserJet5Shaded-8x11.pc3
1000
HP LaserJet 5Si
1000
CAD Area
1000

1070
     0
  0
PLOTSETTINGS
  5
1C1C
102
{ACAD_REACTORS
330
18
102
}
330
18
100
AcDbPlotSettings
  1
Oki9500 11x17 BW Fit
  2
OKI DOKI Color Laser.pc3
  4
Tabloid
  6

 40
5.027083396911621
 41
5.027085304260253
 42
5.027099609375
 43
5.027069091796875
 44
431.7999877929687
 45
279.3999938964844
 46
80.82067083627547
 47
0.0
 48
0.0
 49
0.0
140
0.0
141
0.0
142
1.0
143
0.4045605831172927
 70
  2740
 72
     0
 73
     0
 74
     1
  7
OKIB&WShaded.ctb
 75
     0
147
2.471817675104729
 76
     0
 77
     2
 78
   300
148
-75.74468520391772
149
-27.53050504688192
1001
ACAD_PSEXT
1000
OKI DOKI Color Laser.pc3
1000
OKI C9500(PCL)
1000
FRONT
1000

1070
     0
  0
PLOTSETTINGS
  5
1C1D
102
{ACAD_REACTORS
330
18
102
}
330
18
100
AcDbPlotSettings
  1
Oki9500 11x17 BW Full
  2
OKI DOKI Color Laser.pc3
  4
Tabloid
  6

 40
5.027083396911621
 41
5.027085304260253
 42
5.027099609375
 43
5.027069091796875
 44
431.7999877929687
 45
279.3999938964844
 46
158.2588957589094
 47
80.18956480595884
 48
0.0
 49
0.0
140
0.0
141
0.0
142
1.0
143
1.0
 70
  2724
 72
     0
 73
     0
 74
     1
  7
OKIB&WShaded.ctb
 75
     0
147
2.471817675104729
 76
     0
 77
     2
 78
   300
148
-75.74468520391772
149
-27.53050504688192
1001
ACAD_PSEXT
1000
OKI DOKI Color Laser.pc3
1000
OKI C9500(PCL)
1000
FRONT
1000

1070
     0
  0
PLOTSETTINGS
  5
1C1E
102
{ACAD_REACTORS
330
18
102
}
330
18
100
AcDbPlotSettings
  1
Oki9500 11x17 BW Half
  2
OKI DOKI Color Laser.pc3
  4
Tabloid
  6

 40
5.027083396911621
 41
5.027085304260253
 42
5.027099609375
 43
5.027069091796875
 44
431.7999877929687
 45
279.3999938964844
 46
184.5658990761252
 47
107.4312422780862
 48
0.0
 49
0.0
140
0.0
141
0.0
142
1.0
143
2.0
 70
  2740
 72
     0
 73
     0
 74
     1
  7
OKIB&WShaded.ctb
 75
    17
147
0.5
 76
     0
 77
     2
 78
   300
148
-75.74468520391772
149
-27.53050504688192
1001
ACAD_PSEXT
1000
OKI DOKI Color Laser.pc3
1000
OKI C9500(PCL)
1000
FRONT
1000

1070
     0
  0
PLOTSETTINGS
  5
1C1F
102
{ACAD_REACTORS
330
18
102
}
330
18
100
AcDbPlotSettings
  1
Oki9500 11x17 Color Fit
  2
OKI DOKI Color Laser.pc3
  4
Tabloid
  6

 40
5.027083396911621
 41
5.027085304260253
 42
5.027099609375
 43
5.027069091796875
 44
431.7999877929687
 45
279.3999938964844
 46
80.82067083627547
 47
0.0
 48
0.0
 49
0.0
140
0.0
141
0.0
142
1.0
143
0.4045605831172927
 70
  2740
 72
     0
 73
     0
 74
     1
  7
OKIColorShaded.ctb
 75
     0
147
2.471817675104729
 76
     0
 77
     2
 78
   300
148
-75.74468520391772
149
-27.53050504688192
1001
ACAD_PSEXT
1000
OKI DOKI Color Laser.pc3
1000
OKI C9500(PCL)
1000
FRONT
1000

1070
     0
  0
PLOTSETTINGS
  5
1C20
102
{ACAD_REACTORS
330
18
102
}
330
18
100
AcDbPlotSettings
  1
Oki9500 11x17 Color Full
  2
OKI DOKI Color Laser.pc3
  4
Tabloid
  6

 40
5.027082920074462
 41
5.027085781097412
 42
5.027099609375
 43
5.027069091796875
 44
431.7999877929687
 45
279.3999938964844
 46
158.258895997328
 47
80.18956456754025
 48
0.0
 49
0.0
140
0.0
141
0.0
142
1.0
143
1.0
 70
  2724
 72
     0
 73
     0
 74
     1
  7
OKIColorShaded.ctb
 75
     0
147
2.471817675104729
 76
     0
 77
     2
 78
   300
148
-75.74468520391772
149
-27.53050504688192
1001
ACAD_PSEXT
1000
OKI DOKI Color Laser.pc3
1000
OKI C9600(PCL)
1000
FRONT
1000

1070
     0
  0
PLOTSETTINGS
  5
1C21
102
{ACAD_REACTORS
330
18
102
}
330
18
100
AcDbPlotSettings
  1
Oki9500 11x17 Color Half
  2
OKI DOKI Color Laser.pc3
  4
Tabloid
  6

 40
5.027083396911621
 41
5.027085304260253
 42
5.027099609375
 43
5.027069091796875
 44
431.7999877929687
 45
279.3999938964844
 46
184.5658990761252
 47
107.4312422780862
 48
0.0
 49
0.0
140
0.0
141
0.0
142
1.0
143
2.0
 70
  2740
 72
     0
 73
     0
 74
     1
  7
OKIColorShaded.ctb
 75
    17
147
0.5
 76
     0
 77
     2
 78
   300
148
-75.74468520391772
149
-27.53050504688192
1001
ACAD_PSEXT
1000
OKI DOKI Color Laser.pc3
1000
OKI C9500(PCL)
1000
FRONT
1000

1070
     0
  0
PLOTSETTINGS
  5
1C22
102
{ACAD_REACTORS
330
18
102
}
330
18
100
AcDbPlotSettings
  1
Oki9500 8x11 BW Fit
  2
OKI DOKI Color Laser8x11.pc3
  4
Letter
  6

 40
5.027083396911621
 41
5.027085304260253
 42
5.027099609375
 43
5.027084350585937
 44
279.3999938964844
 45
215.8999938964844
 46
35.28132453565591
 47
0.0
 48
0.0
 49
0.0
140
0.0
141
0.0
142
1.0
143
0.5293607985003172
 70
  2740
 72
     0
 73
     0
 74
     1
  7
OKIB&WShaded.ctb
 75
     0
147
1.889070748784206
 76
     0
 77
     2
 78
   300
148
-75.74468520391772
149
-27.53050504688192
1001
ACAD_PSEXT
1000
OKI DOKI Color Laser8x11.pc3
1000
OKI C9500(PCL)
1000
FRONT
1000

1070
     0
  0
PLOTSETTINGS
  5
1C23
102
{ACAD_REACTORS
330
18
102
}
330
18
100
AcDbPlotSettings
  1
Oki9500 8x11 BW Portrait Fit
  2
OKI DOKI Color Laser8x11.pc3
  4
Letter
  6

 40
5.027083396911621
 41
5.027085304260253
 42
5.027099609375
 43
5.027084350585937
 44
279.3999938964844
 45
215.8999938964844
 46
28.0931957503573
 47
0.0000000000000029
 48
0.0
 49
0.0
140
0.0
141
0.0
142
1.0
143
0.5111981924167587
 70
  2740
 72
     0
 73
     1
 74
     1
  7
OKIB&WShaded.ctb
 75
     0
147
1.956188450652308
 76
     0
 77
     2
 78
   300
148
-75.74468520391772
149
-27.53050504688192
1001
ACAD_PSEXT
1000
OKI DOKI Color Laser8x11.pc3
1000
OKI C9500(PCL)
1000
FRONT
1000

1070
     0
  0
PLOTSETTINGS
  5
1C24
102
{ACAD_REACTORS
330
18
102
}
330
18
100
AcDbPlotSettings
  1
Oki9500 8x11 Color Fit
  2
OKI DOKI Color Laser8x11.pc3
  4
Letter
  6

 40
5.027083396911621
 41
5.027085304260253
 42
5.027099609375
 43
5.027084350585937
 44
279.3999938964844
 45
215.8999938964844
 46
35.28132453565591
 47
0.0
 48
0.0
 49
0.0
140
0.0
141
0.0
142
1.0
143
0.5293607985003172
 70
  2740
 72
     0
 73
     0
 74
     1
  7
OKIColorShaded.ctb
 75
     0
147
1.889070748784206
 76
     0
 77
     2
 78
   300
148
-75.74468520391772
149
-27.53050504688192
1001
ACAD_PSEXT
1000
OKI DOKI Color Laser8x11.pc3
1000
OKI C9500(PCL)
1000
FRONT
1000

1070
     0
  0
PLOTSETTINGS
  5
1C25
102
{ACAD_REACTORS
330
18
102
}
330
18
100
AcDbPlotSettings
  1
Oki9500 8x11 Color Portrait Fit
  2
OKI DOKI Color Laser8x11.pc3
  4
Letter
  6

 40
5.027083396911621
 41
5.027085304260253
 42
5.027099609375
 43
5.027084350585937
 44
279.3999938964844
 45
215.8999938964844
 46
28.0931957503573
 47
0.0000000000000029
 48
0.0
 49
0.0
140
0.0
141
0.0
142
1.0
143
0.5111981924167587
 70
  2740
 72
     0
 73
     1
 74
     1
  7
OKIColorShaded.ctb
 75
     0
147
1.956188450652308
 76
     0
 77
     2
 78
   300
148
-75.74468520391772
149
-27.53050504688192
1001
ACAD_PSEXT
1000
OKI DOKI Color Laser8x11.pc3
1000
OKI C9500(PCL)
1000
FRONT
1000

1070
     0
  0
PLOTSETTINGS
  5
1C26
102
{ACAD_REACTORS
330
18
102
}
330
18
100
AcDbPlotSettings
  1
OKI9500 B&W 11x17
  2
OKI DOKI Color Laser.pc3
  4
11x17
  6

 40
5.873749732971191
 41
5.873734951019287
 42
5.873748779296875
 43
5.027069091796875
 44
431.7999877929687
 45
279.3999938964844
 46
72.38759962724653
 47
0.0000000000000057
 48
0.0
 49
0.0
140
0.0
141
0.0
142
1.0
143
0.3507677900220671
 70
 11956
 72
     0
 73
     0
 74
     1
  7
OKIB&WShaded.ctb
 75
     0
147
2.850888902704233
 76
     0
 77
     2
 78
   300
148
-119.4582094169044
149
-58.17053554795709
1001
ACAD_PSEXT
1000
OKI DOKI Color Laser.pc3
1000
HP LaserJet 5Si
1000
CAD Area
1000

1070
     0
  0
PLOTSETTINGS
  5
1C27
102
{ACAD_REACTORS
330
18
102
}
330
18
100
AcDbPlotSettings
  1
OKI9500 B&W 8.5x11
  2
OKI DOKI Color Laser8x11.pc3
  4
Letter
  6

 40
5.873749732971191
 41
5.873734951019287
 42
6.55108642578125
 43
5.027084350585937
 44
279.3999938964844
 45
215.8999938964844
 46
28.40045128601757
 47
0.0000000000000046
 48
0.0
 49
0.0
140
0.0
141
0.0
142
1.0
143
0.4594207153946231
 70
 11956
 72
     0
 73
     0
 74
     1
  7
OKIB&WShaded.ctb
 75
     0
147
2.176654135286525
 76
     0
 77
     2
 78
   300
148
-119.4582094169044
149
-58.17053554795709
1001
ACAD_PSEXT
1000
OKI DOKI Color Laser8x11.pc3
1000
HP LaserJet 5Si
1000
CAD Area
1000

1070
     0
  0
PLOTSETTINGS
  5
1C28
102
{ACAD_REACTORS
330
18
102
}
330
18
100
AcDbPlotSettings
  1
OKI9500 Color 11x17
  2
OKI DOKI Color Laser.pc3
  4
Tabloid
  6

 40
5.027083396911621
 41
5.027085304260253
 42
5.027099609375
 43
5.027069091796875
 44
431.7999877929687
 45
279.3999938964844
 46
72.80024597690952
 47
0.0
 48
0.0
 49
0.0
140
0.0
141
0.0
142
1.0
143
0.349665202263268
 70
 11956
 72
     0
 73
     0
 74
     1
  7
OKIColorShaded.ctb
 75
     0
147
2.859878516727796
 76
     0
 77
     2
 78
   300
148
-119.4582094169044
149
-58.17053554795709
1001
ACAD_PSEXT
1000
OKI DOKI Color Laser.pc3
1000
OKI C9500(PCL)
1000
FRONT
1000

1070
     0
  0
PLOTSETTINGS
  5
1C29
102
{ACAD_REACTORS
330
18
102
}
330
18
100
AcDbPlotSettings
  1
OKI9500 Color 8.5x11
  2
OKI DOKI Color Laser8x11.pc3
  4
Letter
  6

 40
5.873749732971191
 41
5.873734951019287
 42
6.55108642578125
 43
5.027084350585937
 44
279.3999938964844
 45
215.8999938964844
 46
28.40045128601757
 47
0.0000000000000046
 48
0.0
 49
0.0
140
0.0
141
0.0
142
1.0
143
0.4594207153946231
 70
 11956
 72
     0
 73
     0
 74
     1
  7
OKIColorShaded.ctb
 75
     0
147
2.176654135286525
 76
     0
 77
     2
 78
   300
148
-119.4582094169044
149
-58.17053554795709
1001
ACAD_PSEXT
1000
OKI DOKI Color Laser8x11.pc3
1000
HP LaserJet 5Si
1000
CAD Area
1000

1070
     0
  0
PLOTSETTINGS
  5
1C2A
102
{ACAD_REACTORS
330
18
102
}
330
18
100
AcDbPlotSettings
  1
Oki9600 11x17 BW Fit
  2
9600 BW 11x17.pc3
  4
Tabloid
  6

 40
5.027082920074462
 41
5.027085781097412
 42
5.027099609375
 43
5.027069091796875
 44
431.7999877929687
 45
279.3999938964844
 46
80.82067130493244
 47
0.000000000000007
 48
0.0
 49
0.0
140
0.0
141
0.0
142
1.0
143
0.4045605838335077
 70
  2804
 72
     0
 73
     0
 74
     1
  7
OKIB&WShaded.ctb
 75
     0
147
2.47181767072874
 76
     0
 77
     2
 78
   300
148
-75.74468520391772
149
-27.53050504688192
1001
ACAD_PSEXT
1000
9600 BW 11x17.pc3
1000
OKI C9600(PCL)
1000
Expansion Area
1000

1070
     0
  0
PLOTSETTINGS
  5
1C2B
102
{ACAD_REACTORS
330
18
102
}
330
18
100
AcDbPlotSettings
  1
Oki9600 11x17 BW Full
  2
9600 BW 11x17.pc3
  4
Tabloid
  6

 40
5.027082920074462
 41
5.027085781097412
 42
5.027099609375
 43
5.027069091796875
 44
431.7999877929687
 45
279.3999938964844
 46
158.258895997328
 47
80.18956456754025
 48
0.0
 49
0.0
140
0.0
141
0.0
142
1.0
143
1.0
 70
  2788
 72
     0
 73
     0
 74
     1
  7
OKIB&WShaded.ctb
 75
     0
147
2.47181767072874
 76
     0
 77
     2
 78
   300
148
-75.74468520391772
149
-27.53050504688192
1001
ACAD_PSEXT
1000
9600 BW 11x17.pc3
1000
OKI C9600(PCL)
1000
Expansion Area
1000

1070
     0
  0
PLOTSETTINGS
  5
1C2C
102
{ACAD_REACTORS
330
18
102
}
330
18
100
AcDbPlotSettings
  1
Oki9600 11x17 BW Half
  2
9600 BW 11x17.pc3
  4
Tabloid
  6

 40
5.027082920074462
 41
5.027085781097412
 42
5.027099609375
 43
5.027069091796875
 44
431.7999877929687
 45
279.3999938964844
 46
184.5658993145439
 47
107.4312420396676
 48
0.0
 49
0.0
140
0.0
141
0.0
142
1.0
143
2.0
 70
  2788
 72
     0
 73
     0
 74
     1
  7
OKIB&WShaded.ctb
 75
     0
147
2.47181767072874
 76
     0
 77
     2
 78
   300
148
-75.74468520391772
149
-27.53050504688192
1001
ACAD_PSEXT
1000
9600 BW 11x17.pc3
1000
OKI C9600(PCL)
1000
Expansion Area
1000

1070
     0
  0
PLOTSETTINGS
  5
1C2D
102
{ACAD_REACTORS
330
18
102
}
330
18
100
AcDbPlotSettings
  1
Oki9600 11x17 Color Fit
  2
9600 Color 11x17.pc3
  4
Tabloid
  6

 40
5.027082920074462
 41
5.027085781097412
 42
5.027099609375
 43
5.027069091796875
 44
431.7999877929687
 45
279.3999938964844
 46
80.82067130493244
 47
0.000000000000007
 48
0.0
 49
0.0
140
0.0
141
0.0
142
1.0
143
0.4045605838335077
 70
  2804
 72
     0
 73
     0
 74
     1
  7
OKIColorShaded.ctb
 75
     0
147
2.47181767072874
 76
     0
 77
     2
 78
   300
148
-75.74468520391772
149
-27.53050504688192
1001
ACAD_PSEXT
1000
9600 Color 11x17.pc3
1000
OKI C9600(PCL)
1000
Expansion Area
1000

1070
     0
  0
PLOTSETTINGS
  5
1C2E
102
{ACAD_REACTORS
330
18
102
}
330
18
100
AcDbPlotSettings
  1
Oki9600 11x17 Color Full
  2
9600 Color 11x17.pc3
  4
Tabloid
  6

 40
5.027082920074462
 41
5.027085781097412
 42
5.027099609375
 43
5.027069091796875
 44
431.7999877929687
 45
279.3999938964844
 46
158.258895997328
 47
80.18956456754025
 48
0.0
 49
0.0
140
0.0
141
0.0
142
1.0
143
1.0
 70
  2788
 72
     0
 73
     0
 74
     1
  7
OKIColorShaded.ctb
 75
     0
147
2.47181767072874
 76
     0
 77
     2
 78
   300
148
-75.74468520391772
149
-27.53050504688192
1001
ACAD_PSEXT
1000
9600 Color 11x17.pc3
1000
OKI C9600(PCL)
1000
Expansion Area
1000

1070
     0
  0
PLOTSETTINGS
  5
1C2F
102
{ACAD_REACTORS
330
18
102
}
330
18
100
AcDbPlotSettings
  1
Oki9600 11x17 Color Half
  2
9600 Color 11x17.pc3
  4
Tabloid
  6

 40
5.027082920074462
 41
5.027085781097412
 42
5.027099609375
 43
5.027069091796875
 44
431.7999877929687
 45
279.3999938964844
 46
184.5658993145439
 47
107.4312420396676
 48
0.0
 49
0.0
140
0.0
141
0.0
142
1.0
143
2.0
 70
  2788
 72
     0
 73
     0
 74
     1
  7
OKIColorShaded.ctb
 75
     0
147
2.47181767072874
 76
     0
 77
     2
 78
   300
148
-75.74468520391772
149
-27.53050504688192
1001
ACAD_PSEXT
1000
9600 Color 11x17.pc3
1000
OKI C9600(PCL)
1000
Expansion Area
1000

1070
     0
  0
PLOTSETTINGS
  5
1C30
102
{ACAD_REACTORS
330
18
102
}
330
18
100
AcDbPlotSettings
  1
Oki9600 8x11 BW Fit
  2
9600 BW 8.5x11.pc3
  4
Letter
  6

 40
5.027082920074462
 41
5.027070522308349
 42
5.027099609375
 43
5.027084350585937
 44
279.3999938964844
 45
215.8999938964844
 46
35.28131763668624
 47
0.0000000000000033
 48
0.0
 49
0.0
140
0.0
141
0.0
142
1.0
143
0.5293607604865011
 70
  2804
 72
     0
 73
     0
 74
     1
  7
OKIB&WShaded.ctb
 75
     0
147
1.889070884439876
 76
     0
 77
     2
 78
   300
148
-75.74468520391772
149
-27.53050504688192
1001
ACAD_PSEXT
1000
9600 BW 8.5x11.pc3
1000
OKI C9600(PCL)
1000
Expansion Area
1000

1070
     0
  0
PLOTSETTINGS
  5
1C31
102
{ACAD_REACTORS
330
18
102
}
330
18
100
AcDbPlotSettings
  1
Oki9600 8x11 BW Portrait Fit
  2
9600 BW 8.5x11.pc3
  4
Letter
  6

 40
5.027082920074462
 41
5.027070522308349
 42
5.027099609375
 43
5.027084350585937
 44
279.3999938964844
 45
215.8999938964844
 46
28.09318833520237
 47
-0.0000000000000029
 48
0.0
 49
0.0
140
0.0
141
0.0
142
1.0
143
0.5111981557072135
 70
  2804
 72
     0
 73
     1
 74
     1
  7
OKIB&WShaded.ctb
 75
     0
147
1.956188591127753
 76
     0
 77
     2
 78
   300
148
-75.74468520391772
149
-27.53050504688192
1001
ACAD_PSEXT
1000
9600 BW 8.5x11.pc3
1000
OKI C9600(PCL)
1000
Expansion Area
1000

1070
     0
  0
PLOTSETTINGS
  5
1C32
102
{ACAD_REACTORS
330
18
102
}
330
18
100
AcDbPlotSettings
  1
Oki9600 8x11 Color Fit
  2
9600 Color 8.5x11.pc3
  4
Letter
  6

 40
5.027082920074462
 41
5.027070522308349
 42
5.027099609375
 43
5.027084350585937
 44
279.3999938964844
 45
215.8999938964844
 46
35.28131763668624
 47
0.0000000000000033
 48
0.0
 49
0.0
140
0.0
141
0.0
142
1.0
143
0.5293607604865011
 70
  2804
 72
     0
 73
     0
 74
     1
  7
OKIColorShaded.ctb
 75
     0
147
1.889070884439876
 76
     0
 77
     2
 78
   300
148
-75.74468520391772
149
-27.53050504688192
1001
ACAD_PSEXT
1000
9600 Color 8.5x11.pc3
1000
OKI C9600(PCL)
1000
Expansion Area
1000

1070
     0
  0
PLOTSETTINGS
  5
1C33
102
{ACAD_REACTORS
330
18
102
}
330
18
100
AcDbPlotSettings
  1
Oki9600 8x11 Color Portrait Fit
  2
9600 Color 8.5x11.pc3
  4
Letter
  6

 40
5.027082920074462
 41
5.027070522308349
 42
5.027099609375
 43
5.027084350585937
 44
279.3999938964844
 45
215.8999938964844
 46
28.09318833520237
 47
-0.0000000000000029
 48
0.0
 49
0.0
140
0.0
141
0.0
142
1.0
143
0.5111981557072135
 70
  2804
 72
     0
 73
     1
 74
     1
  7
OKIColorShaded.ctb
 75
     0
147
1.956188591127753
 76
     0
 77
     2
 78
   300
148
-75.74468520391772
149
-27.53050504688192
1001
ACAD_PSEXT
1000
9600 Color 8.5x11.pc3
1000
OKI C9600(PCL)
1000
Expansion Area
1000

1070
     0
  0
PLOTSETTINGS
  5
1C34
102
{ACAD_REACTORS
330
18
102
}
330
18
100
AcDbPlotSettings
  1
OKI9600 B&W 11x17
  2
9600 BW 11x17.pc3
  4
Tabloid
  6

 40
5.027082920074462
 41
5.027085781097412
 42
5.027099609375
 43
5.027069091796875
 44
431.7999877929687
 45
279.3999938964844
 46
72.80024645976547
 47
-0.0000000000000027
 48
0.0
 49
0.0
140
0.0
141
0.0
142
1.0
143
0.3496652028822988
 70
 11956
 72
     0
 73
     0
 74
     1
  7
OKIB&WShaded.ctb
 75
     0
147
2.859878511664802
 76
     0
 77
     2
 78
   300
148
-119.4582094169044
149
-58.17053554795709
1001
ACAD_PSEXT
1000
9600 BW 11x17.pc3
1000
OKI C9600(PCL)
1000
Expansion Area
1000

1070
     0
  0
PLOTSETTINGS
  5
1C35
102
{ACAD_REACTORS
330
18
102
}
330
18
100
AcDbPlotSettings
  1
OKI9600 B&W 8.5x11
  2
9600 BW 8.5x11.pc3
  4
Letter
  6

 40
5.027082920074462
 41
5.027070522308349
 42
5.027099609375
 43
5.027084350585937
 44
279.3999938964844
 45
215.8999938964844
 46
29.15175911978468
 47
0.0000000000000065
 48
0.0
 49
0.0
140
0.0
141
0.0
142
1.0
143
0.4575310722549676
 70
 11956
 72
     0
 73
     0
 74
     1
  7
OKIB&WShaded.ctb
 75
     0
147
2.185643906262899
 76
     0
 77
     2
 78
   300
148
-119.4582094169044
149
-58.17053554795709
1001
ACAD_PSEXT
1000
9600 BW 8.5x11.pc3
1000
OKI C9600(PCL)
1000
Expansion Area
1000

1070
     0
  0
PLOTSETTINGS
  5
1C36
102
{ACAD_REACTORS
330
18
102
}
330
18
100
AcDbPlotSettings
  1
OKI9600 Color 11x17
  2
9600 Color 11x17.pc3
  4
Tabloid
  6

 40
5.027082920074462
 41
5.027085781097412
 42
5.027099609375
 43
5.027069091796875
 44
431.7999877929687
 45
279.3999938964844
 46
72.80024645976547
 47
-0.0000000000000027
 48
0.0
 49
0.0
140
0.0
141
0.0
142
1.0
143
0.3496652028822988
 70
 11956
 72
     0
 73
     0
 74
     1
  7
OKIColorShaded.ctb
 75
     0
147
2.859878511664802
 76
     0
 77
     2
 78
   300
148
-119.4582094169044
149
-58.17053554795709
1001
ACAD_PSEXT
1000
9600 Color 11x17.pc3
1000
OKI C9600(PCL)
1000
Expansion Area
1000

1070
     0
  0
PLOTSETTINGS
  5
1C37
102
{ACAD_REACTORS
330
18
102
}
330
18
100
AcDbPlotSettings
  1
OKI9600 Color 8.5x11
  2
9600 Color 8.5x11.pc3
  4
Letter
  6

 40
5.027082920074462
 41
5.027070522308349
 42
5.027099609375
 43
5.027084350585937
 44
279.3999938964844
 45
215.8999938964844
 46
29.15175911978468
 47
0.0000000000000065
 48
0.0
 49
0.0
140
0.0
141
0.0
142
1.0
143
0.4575310722549676
 70
 11956
 72
     0
 73
     0
 74
     1
  7
OKIColorShaded.ctb
 75
     0
147
2.185643906262899
 76
     0
 77
     2
 78
   300
148
-119.4582094169044
149
-58.17053554795709
1001
ACAD_PSEXT
1000
9600 Color 8.5x11.pc3
1000
OKI C9600(PCL)
1000
Expansion Area
1000

1070
     0
  0
PLOTSETTINGS
  5
1C38
102
{ACAD_REACTORS
330
18
102
}
330
18
100
AcDbPlotSettings
  1
PHX Kyocera 11x17 Fit
  2
PHX_Kyocera.pc3
  4
Tabloid
  6

 40
4.984749794006347
 41
5.069418907165527
 42
5.069427490234375
 43
4.9847412109375
 44
431.7999877929687
 45
279.3999938964844
 46
80.8206764601584
 47
-0.0000000000000226
 48
0.0
 49
0.0
140
0.0
141
0.0
142
1.0
143
0.4045605917118723
 70
  2740
 72
     0
 73
     0
 74
     1
  7
LaserJet5Shaded.ctb
 75
     0
147
2.471817622592858
 76
     0
 77
     2
 78
   300
148
-75.74468520391772
149
-27.53050504688192
1001
ACAD_PSEXT
1000
PHX_Kyocera.pc3
1000
Kyocera Mita KM-2050 KX
1000
Arizona
1000

1070
     0
  0
PLOTSETTINGS
  5
1C39
102
{ACAD_REACTORS
330
18
102
}
330
18
100
AcDbPlotSettings
  1
PHX Oki9500 11x17 BW Fit
  2
PHX OKI BW.pc3
  4
Tabloid
  6

 40
5.027082920074462
 41
5.027085781097412
 42
5.027099609375
 43
5.027069091796875
 44
431.7999877929687
 45
279.3999938964844
 46
80.82067130493246
 47
0.0
 48
0.0
 49
0.0
140
0.0
141
0.0
142
1.0
143
0.4045605838335077
 70
  2740
 72
     0
 73
     0
 74
     1
  7
OKIB&WShaded.ctb
 75
     0
147
2.47181767072874
 76
     0
 77
     2
 78
   300
148
-75.74468520391772
149
-27.53050504688192
1001
ACAD_PSEXT
1000
PHX OKI BW.pc3
1000
OKI C9500(PCL)
1000
Arizona
1000

1070
     0
  0
PLOTSETTINGS
  5
1C3A
102
{ACAD_REACTORS
330
18
102
}
330
18
100
AcDbPlotSettings
  1
PHX Oki9500 11x17 BW Half
  2
PHX OKI BW.pc3
  4
Tabloid
  6

 40
5.027082920074462
 41
5.027085781097412
 42
5.027099609375
 43
5.027069091796875
 44
431.7999877929687
 45
279.3999938964844
 46
184.5658993145439
 47
107.4312420396676
 48
0.0
 49
0.0
140
0.0
141
0.0
142
1.0
143
2.0
 70
  2724
 72
     0
 73
     0
 74
     1
  7
OKIB&WShaded.ctb
 75
     0
147
2.47181767072874
 76
     0
 77
     2
 78
   300
148
-75.74468520391772
149
-27.53050504688192
1001
ACAD_PSEXT
1000
PHX OKI BW.pc3
1000
OKI C9500(PCL)
1000
Arizona
1000

1070
     0
  0
ACDBPLACEHOLDER
  5
F
102
{ACAD_REACTORS
330
E
102
}
330
E
  0
SCALE
  5
1BB9
102
{ACAD_REACTORS
330
1BB8
102
}
330
1BB8
100
AcDbScale
 70
     0
300
1:1
140
1.0
141
1.0
290
     1
  0
SCALE
  5
1BBA
102
{ACAD_REACTORS
330
1BB8
102
}
330
1BB8
100
AcDbScale
 70
     0
300
1:2
140
1.0
141
2.0
290
     0
  0
SCALE
  5
1BBB
102
{ACAD_REACTORS
330
1BB8
102
}
330
1BB8
100
AcDbScale
 70
     0
300
1:4
140
1.0
141
4.0
290
     0
  0
SCALE
  5
1BBC
102
{ACAD_REACTORS
330
1BB8
102
}
330
1BB8
100
AcDbScale
 70
     0
300
1:5
140
1.0
141
5.0
290
     0
  0
SCALE
  5
1BBD
102
{ACAD_REACTORS
330
1BB8
102
}
330
1BB8
100
AcDbScale
 70
     0
300
1:8
140
1.0
141
8.0
290
     0
  0
SCALE
  5
1BBE
102
{ACAD_REACTORS
330
1BB8
102
}
330
1BB8
100
AcDbScale
 70
     0
300
1:10
140
1.0
141
10.0
290
     0
  0
SCALE
  5
1BBF
102
{ACAD_REACTORS
330
1BB8
102
}
330
1BB8
100
AcDbScale
 70
     0
300
1:16
140
1.0
141
16.0
290
     0
  0
SCALE
  5
1BC0
102
{ACAD_REACTORS
330
1BB8
102
}
330
1BB8
100
AcDbScale
 70
     0
300
1:20
140
1.0
141
20.0
290
     0
  0
SCALE
  5
1BC1
102
{ACAD_REACTORS
330
1BB8
102
}
330
1BB8
100
AcDbScale
 70
     0
300
1:30
140
1.0
141
30.0
290
     0
  0
SCALE
  5
1BC2
102
{ACAD_REACTORS
330
1BB8
102
}
330
1BB8
100
AcDbScale
 70
     0
300
1:40
140
1.0
141
40.0
290
     0
  0
SCALE
  5
1BC3
102
{ACAD_REACTORS
330
1BB8
102
}
330
1BB8
100
AcDbScale
 70
     0
300
1:50
140
1.0
141
50.0
290
     0
  0
SCALE
  5
1BC4
102
{ACAD_REACTORS
330
1BB8
102
}
330
1BB8
100
AcDbScale
 70
     0
300
1:100
140
1.0
141
100.0
290
     0
  0
SCALE
  5
1BC5
102
{ACAD_REACTORS
330
1BB8
102
}
330
1BB8
100
AcDbScale
 70
     0
300
2:1
140
2.0
141
1.0
290
     0
  0
SCALE
  5
1BC6
102
{ACAD_REACTORS
330
1BB8
102
}
330
1BB8
100
AcDbScale
 70
     0
300
4:1
140
4.0
141
1.0
290
     0
  0
SCALE
  5
1BC7
102
{ACAD_REACTORS
330
1BB8
102
}
330
1BB8
100
AcDbScale
 70
     0
300
8:1
140
8.0
141
1.0
290
     0
  0
SCALE
  5
1BC8
102
{ACAD_REACTORS
330
1BB8
102
}
330
1BB8
100
AcDbScale
 70
     0
300
10:1
140
10.0
141
1.0
290
     0
  0
SCALE
  5
1BC9
102
{ACAD_REACTORS
330
1BB8
102
}
330
1BB8
100
AcDbScale
 70
     0
300
100:1
140
100.0
141
1.0
290
     0
  0
SCALE
  5
1BCA
102
{ACAD_REACTORS
330
1BB8
102
}
330
1BB8
100
AcDbScale
 70
     0
300
1/128" = 1'-0"
140
0.0078125
141
12.0
290
     0
  0
SCALE
  5
1BCB
102
{ACAD_REACTORS
330
1BB8
102
}
330
1BB8
100
AcDbScale
 70
     0
300
1/64" = 1'-0"
140
0.015625
141
12.0
290
     0
  0
SCALE
  5
1BCC
102
{ACAD_REACTORS
330
1BB8
102
}
330
1BB8
100
AcDbScale
 70
     0
300
1/32" = 1'-0"
140
0.03125
141
12.0
290
     0
  0
SCALE
  5
1BCD
102
{ACAD_REACTORS
330
1BB8
102
}
330
1BB8
100
AcDbScale
 70
     0
300
1/16" = 1'-0"
140
0.0625
141
12.0
290
     0
  0
SCALE
  5
1BCE
102
{ACAD_REACTORS
330
1BB8
102
}
330
1BB8
100
AcDbScale
 70
     0
300
3/32" = 1'-0"
140
0.09375
141
12.0
290
     0
  0
SCALE
  5
1BCF
102
{ACAD_REACTORS
330
1BB8
102
}
330
1BB8
100
AcDbScale
 70
     0
300
1/8" = 1'-0"
140
0.125
141
12.0
290
     0
  0
SCALE
  5
1BD0
102
{ACAD_REACTORS
330
1BB8
102
}
330
1BB8
100
AcDbScale
 70
     0
300
3/16" = 1'-0"
140
0.1875
141
12.0
290
     0
  0
SCALE
  5
1BD1
102
{ACAD_REACTORS
330
1BB8
102
}
330
1BB8
100
AcDbScale
 70
     0
300
1/4" = 1'-0"
140
0.25
141
12.0
290
     0
  0
SCALE
  5
1BD2
102
{ACAD_REACTORS
330
1BB8
102
}
330
1BB8
100
AcDbScale
 70
     0
300
3/8" = 1'-0"
140
0.375
141
12.0
290
     0
  0
SCALE
  5
1BD3
102
{ACAD_REACTORS
330
1BB8
102
}
330
1BB8
100
AcDbScale
 70
     0
300
1/2" = 1'-0"
140
0.5
141
12.0
290
     0
  0
SCALE
  5
1BD4
102
{ACAD_REACTORS
330
1BB8
102
}
330
1BB8
100
AcDbScale
 70
     0
300
3/4" = 1'-0"
140
0.75
141
12.0
290
     0
  0
SCALE
  5
1BD5
102
{ACAD_REACTORS
330
1BB8
102
}
330
1BB8
100
AcDbScale
 70
     0
300
1" = 1'-0"
140
1.0
141
12.0
290
     0
  0
SCALE
  5
1BD6
102
{ACAD_REACTORS
330
1BB8
102
}
330
1BB8
100
AcDbScale
 70
     0
300
1-1/2" = 1'-0"
140
1.5
141
12.0
290
     0
  0
SCALE
  5
1BD7
102
{ACAD_REACTORS
330
1BB8
102
}
330
1BB8
100
AcDbScale
 70
     0
300
3" = 1'-0"
140
3.0
141
12.0
290
     0
  0
SCALE
  5
1BD8
102
{ACAD_REACTORS
330
1BB8
102
}
330
1BB8
100
AcDbScale
 70
     0
300
6" = 1'-0"
140
6.0
141
12.0
290
     0
  0
SCALE
  5
1BD9
102
{ACAD_REACTORS
330
1BB8
102
}
330
1BB8
100
AcDbScale
 70
     0
300
1'-0" = 1'-0"
140
12.0
141
12.0
290
     0
  0
TABLESTYLE
  5
1BB7
102
{ACAD_XDICTIONARY
360
1C50
102
}
102
{ACAD_REACTORS
330
1BB6
102
}
330
1BB6
100
AcDbTableStyle
  3
Standard
 70
     0
 71
     0
 40
0.06
 41
0.06
280
     0
281
     0
  7
STANDARD
140
0.18
170
     2
 62
     0
 63
     7
283
     0
274
    -2
284
     1
 64
     0
275
    -2
285
     1
 65
     0
276
    -2
286
     1
 66
     0
277
    -2
287
     1
 67
     0
278
    -2
288
     1
 68
     0
279
    -2
289
     1
 69
     0
  7
STANDARD
140
0.25
170
     5
 62
     0
 63
     7
283
     0
274
    -2
284
     1
 64
     0
275
    -2
285
     1
 65
     0
276
    -2
286
     1
 66
     0
277
    -2
287
     1
 67
     0
278
    -2
288
     1
 68
     0
279
    -2
289
     1
 69
     0
  7
STANDARD
140
0.18
170
     5
 62
     0
 63
     7
283
     0
274
    -2
284
     1
 64
     0
275
    -2
285
     1
 65
     0
276
    -2
286
     1
 66
     0
277
    -2
287
     1
 67
     0
278
    -2
288
     1
 68
     0
279
    -2
289
     1
 69
     0
  0
VISUALSTYLE
  5
1BAA
102
{ACAD_REACTORS
330
1BA4
102
}
330
1BA4
100
AcDbVisualStyle
  2
2dWireframe
 70
     4
 71
     0
 72
     2
 73
     0
 90
        0
 40
-0.6
 41
-30.0
 62
     5
 63
     7
421
 16777215
 74
     1
 91
        4
 64
     7
 65
   257
 75
     1
175
     1
 42
1.0
 92
        0
 66
   257
 43
1.0
 76
     1
 77
     6
 78
     2
 67
     7
 79
     5
170
     0
171
     0
290
     0
174
     0
 93
        1
 44
0.0
173
     0
291
     0
 45
0.0
1001
ACAD
1000
AcDbSavedByObjectVersion
1070
     0
  0
VISUALSTYLE
  5
1BAC
102
{ACAD_REACTORS
330
1BA4
102
}
330
1BA4
100
AcDbVisualStyle
  2
3D Hidden
 70
     6
 71
     1
 72
     2
 73
     2
 90
        0
 40
-0.6
 41
-30.0
 62
     5
 63
     7
421
 16777215
 74
     2
 91
        2
 64
     7
 65
   257
 75
     2
175
     1
 42
40.0
 92
        0
 66
   257
 43
1.0
 76
     1
 77
     6
 78
     2
 67
     7
 79
     3
170
     0
171
     0
290
     0
174
     0
 93
        1
 44
0.0
173
     0
291
     0
 45
0.0
1001
ACAD
1000
AcDbSavedByObjectVersion
1070
     0
  0
VISUALSTYLE
  5
1BAB
102
{ACAD_REACTORS
330
1BA4
102
}
330
1BA4
100
AcDbVisualStyle
  2
3dWireframe
 70
     5
 71
     0
 72
     2
 73
     0
 90
        0
 40
-0.6
 41
-30.0
 62
     5
 63
     7
421
 16777215
 74
     1
 91
        4
 64
     7
 65
   257
 75
     1
175
     1
 42
1.0
 92
        0
 66
   257
 43
1.0
 76
     1
 77
     6
 78
     2
 67
     7
 79
     5
170
     0
171
     0
290
     0
174
     0
 93
        1
 44
0.0
173
     0
291
     0
 45
0.0
1001
ACAD
1000
AcDbSavedByObjectVersion
1070
     0
  0
VISUALSTYLE
  5
1BA9
102
{ACAD_REACTORS
330
1BA4
102
}
330
1BA4
100
AcDbVisualStyle
  2
Basic
 70
     7
 71
     1
 72
     0
 73
     1
 90
        0
 40
-0.6
 41
-30.0
 62
     5
 63
     7
421
 16777215
 74
     0
 91
        4
 64
     7
 65
   257
 75
     1
175
     1
 42
1.0
 92
        8
 66
     7
 43
1.0
 76
     1
 77
     6
 78
     2
 67
     7
 79
     5
170
     0
171
     0
290
     0
174
     0
 93
        1
 44
0.0
173
     0
291
     1
 45
0.0
1001
ACAD
1000
AcDbSavedByObjectVersion
1070
     0
  0
VISUALSTYLE
  5
1BB0
102
{ACAD_REACTORS
330
1BA4
102
}
330
1BA4
100
AcDbVisualStyle
  2
Brighten
 70
    12
 71
     2
 72
     2
 73
     0
 90
        0
 40
-0.6
 41
-30.0
 62
     5
 63
     7
421
 16777215
 74
     1
 91
        4
 64
     7
 65
   257
 75
     1
175
     1
 42
1.0
 92
        8
 66
     7
 43
1.0
 76
     1
 77
     6
 78
     2
 67
     7
 79
     5
170
     0
171
     0
290
     0
174
     0
 93
        1
 44
50.0
173
     0
291
     1
 45
0.0
1001
ACAD
1000
AcDbSavedByObjectVersion
1070
     0
  0
VISUALSTYLE
  5
1BB4
102
{ACAD_REACTORS
330
1BA4
102
}
330
1BA4
100
AcDbVisualStyle
  2
ColorChange
 70
    16
 71
     2
 72
     2
 73
     3
 90
        0
 40
-0.6
 41
-30.0
 62
     5
 63
     8
421
  8421504
 74
     1
 91
        4
 64
     7
 65
   257
 75
     1
175
     1
 42
1.0
 92
        8
 66
     8
424
  8421504
 43
1.0
 76
     1
 77
     6
 78
     2
 67
     7
 79
     5
170
     0
171
     0
290
     0
174
     0
 93
        1
 44
0.0
173
     0
291
     1
 45
0.0
1001
ACAD
1000
AcDbSavedByObjectVersion
1070
     0
  0
VISUALSTYLE
  5
1BAD
102
{ACAD_REACTORS
330
1BA4
102
}
330
1BA4
100
AcDbVisualStyle
  2
Conceptual
 70
     9
 71
     3
 72
     2
 73
     0
 90
        0
 40
-0.6
 41
-30.0
 62
     5
 63
     7
421
 16777215
 74
     2
 91
        2
 64
     7
 65
   257
 75
     1
175
     1
 42
40.0
 92
        8
 66
     7
 43
1.0
 76
     1
 77
     6
 78
     2
 67
     7
 79
     3
170
     0
171
     0
290
     0
174
     0
 93
        1
 44
0.0
173
     0
291
     0
 45
0.0
1001
ACAD
1000
AcDbSavedByObjectVersion
1070
     0
  0
VISUALSTYLE
  5
1BAF
102
{ACAD_REACTORS
330
1BA4
102
}
330
1BA4
100
AcDbVisualStyle
  2
Dim
 70
    11
 71
     2
 72
     2
 73
     0
 90
        0
 40
-0.6
 41
-30.0
 62
     5
 63
     7
421
 16777215
 74
     1
 91
        4
 64
     7
 65
   257
 75
     1
175
     1
 42
1.0
 92
        8
 66
     7
 43
1.0
 76
     1
 77
     6
 78
     2
 67
     7
 79
     5
170
     0
171
     0
290
     0
174
     0
 93
        1
 44
-50.0
173
     0
291
     1
 45
0.0
1001
ACAD
1000
AcDbSavedByObjectVersion
1070
     0
  0
VISUALSTYLE
  5
1BB3
102
{ACAD_REACTORS
330
1BA4
102
}
330
1BA4
100
AcDbVisualStyle
  2
Facepattern
 70
    15
 71
     2
 72
     2
 73
     0
 90
        0
 40
-0.6
 41
-30.0
 62
     5
 63
     7
421
 16777215
 74
     1
 91
        4
 64
     7
 65
   257
 75
     1
175
     1
 42
1.0
 92
        8
 66
     7
 43
1.0
 76
     1
 77
     6
 78
     2
 67
     7
 79
     5
170
     0
171
     0
290
     0
174
     0
 93
        1
 44
0.0
173
     0
291
     1
 45
0.0
1001
ACAD
1000
AcDbSavedByObjectVersion
1070
     0
  0
VISUALSTYLE
  5
1BA5
102
{ACAD_REACTORS
330
1BA4
102
}
330
1BA4
100
AcDbVisualStyle
  2
Flat
 70
     0
 71
     2
 72
     1
 73
     1
 90
        2
 40
-0.6
 41
30.0
 62
     5
 63
     7
421
 16777215
 74
     0
 91
        4
 64
     7
 65
   257
 75
     1
175
     1
 42
1.0
 92
        8
 66
     7
 43
1.0
 76
     1
 77
     6
 78
     2
 67
     7
 79
     5
170
     0
171
     0
290
     0
174
     0
 93
       13
 44
0.0
173
     0
291
     1
 45
0.0
1001
ACAD
1000
AcDbSavedByObjectVersion
1070
     0
  0
VISUALSTYLE
  5
1BA6
102
{ACAD_REACTORS
330
1BA4
102
}
330
1BA4
100
AcDbVisualStyle
  2
FlatWithEdges
 70
     1
 71
     2
 72
     1
 73
     1
 90
        2
 40
-0.6
 41
30.0
 62
     5
 63
     7
421
 16777215
 74
     1
 91
        4
 64
     7
 65
   257
 75
     1
175
     1
 42
1.0
 92
        0
 66
   257
 43
1.0
 76
     1
 77
     6
 78
     2
 67
     7
 79
     5
170
     0
171
     0
290
     0
174
     0
 93
       13
 44
0.0
173
     0
291
     1
 45
0.0
1001
ACAD
1000
AcDbSavedByObjectVersion
1070
     0
  0
VISUALSTYLE
  5
1BA7
102
{ACAD_REACTORS
330
1BA4
102
}
330
1BA4
100
AcDbVisualStyle
  2
Gouraud
 70
     2
 71
     2
 72
     2
 73
     1
 90
        2
 40
-0.6
 41
30.0
 62
     5
 63
     7
421
 16777215
 74
     0
 91
        4
 64
     7
 65
   257
 75
     1
175
     1
 42
1.0
 92
        0
 66
     7
 43
1.0
 76
     1
 77
     6
 78
     2
 67
     7
 79
     5
170
     0
171
     0
290
     0
174
     0
 93
       13
 44
0.0
173
     0
291
     1
 45
0.0
1001
ACAD
1000
AcDbSavedByObjectVersion
1070
     0
  0
VISUALSTYLE
  5
1BA8
102
{ACAD_REACTORS
330
1BA4
102
}
330
1BA4
100
AcDbVisualStyle
  2
GouraudWithEdges
 70
     3
 71
     2
 72
     2
 73
     1
 90
        2
 40
-0.6
 41
30.0
 62
     5
 63
     7
421
 16777215
 74
     1
 91
        4
 64
     7
 65
   257
 75
     1
175
     1
 42
1.0
 92
        0
 66
   257
 43
1.0
 76
     1
 77
     6
 78
     2
 67
     7
 79
     5
170
     0
171
     0
290
     0
174
     0
 93
       13
 44
0.0
173
     0
291
     1
 45
0.0
1001
ACAD
1000
AcDbSavedByObjectVersion
1070
     0
  0
VISUALSTYLE
  5
1BB2
102
{ACAD_REACTORS
330
1BA4
102
}
330
1BA4
100
AcDbVisualStyle
  2
Linepattern
 70
    14
 71
     2
 72
     2
 73
     0
 90
        0
 40
-0.6
 41
-30.0
 62
     5
 63
     7
421
 16777215
 74
     1
 91
        4
 64
     7
 65
   257
 75
     7
175
     7
 42
1.0
 92
        8
 66
     7
 43
1.0
 76
     1
 77
     6
 78
     2
 67
     7
 79
     5
170
     0
171
     0
290
     0
174
     0
 93
        1
 44
0.0
173
     0
291
     1
 45
0.0
1001
ACAD
1000
AcDbSavedByObjectVersion
1070
     0
  0
VISUALSTYLE
  5
1BAE
102
{ACAD_REACTORS
330
1BA4
102
}
330
1BA4
100
AcDbVisualStyle
  2
Realistic
 70
     8
 71
     2
 72
     2
 73
     0
 90
        0
 40
-0.6
 41
-30.0
 62
     5
 63
     7
421
 16777215
 74
     1
 91
        0
 64
     7
 65
   257
 75
     1
175
     1
 42
1.0
 92
        8
 66
     8
424
  7895160
 43
1.0
 76
     1
 77
     6
 78
     2
 67
     7
 79
     5
170
     0
171
     0
290
     0
174
     0
 93
       13
 44
0.0
173
     0
291
     0
 45
0.0
1001
ACAD
1000
AcDbSavedByObjectVersion
1070
     0
  0
VISUALSTYLE
  5
1BB1
102
{ACAD_REACTORS
330
1BA4
102
}
330
1BA4
100
AcDbVisualStyle
  2
Thicken
 70
    13
 71
     2
 72
     2
 73
     0
 90
        0
 40
-0.6
 41
-30.0
 62
     5
 63
     7
421
 16777215
 74
     1
 91
        4
 64
     7
 65
   257
 75
     1
175
     1
 42
1.0
 92
       12
 66
     7
 43
1.0
 76
     1
 77
     6
 78
     2
 67
     7
 79
     5
170
     0
171
     0
290
     0
174
     0
 93
        1
 44
0.0
173
     0
291
     1
 45
0.0
1001
ACAD
1000
AcDbSavedByObjectVersion
1070
     0
  0
DICTIONARYVAR
  5
1C56
102
{ACAD_REACTORS
330
DC5
102
}
330
DC5
100
DictionaryVariables
280
     0
  1
1:1
  0
DICTIONARYVAR
  5
1C54
102
{ACAD_REACTORS
330
DC5
102
}
330
DC5
100
DictionaryVariables
280
     0
  1
STANDARD
  0
DICTIONARYVAR
  5
1C53
102
{ACAD_REACTORS
330
DC5
102
}
330
DC5
100
DictionaryVariables
280
     0
  1
STANDARD
  0
DICTIONARYVAR
  5
DC8
102
{ACAD_REACTORS
330
DC5
102
}
330
DC5
100
DictionaryVariables
280
     0
  1
1
  0
DICTIONARYVAR
  5
DC7
102
{ACAD_REACTORS
330
DC5
102
}
330
DC5
100
DictionaryVariables
280
     0
  1
1
  0
DICTIONARYVAR
  5
1FCC
102
{ACAD_REACTORS
330
DC5
102
}
330
DC5
100
DictionaryVariables
280
     0
  1
0
  0
DICTIONARYVAR
  5
1C58
102
{ACAD_REACTORS
330
DC5
102
}
330
DC5
100
DictionaryVariables
280
     0
  1
15
  0
DICTIONARYVAR
  5
1C57
102
{ACAD_REACTORS
330
DC5
102
}
330
DC5
100
DictionaryVariables
280
     0
  1
0
  0
DICTIONARYVAR
  5
1C55
102
{ACAD_REACTORS
330
DC5
102
}
330
DC5
100
DictionaryVariables
280
     0
  1
0
  0
DICTIONARYVAR
  5
DC6
102
{ACAD_REACTORS
330
DC5
102
}
330
DC5
100
DictionaryVariables
280
     0
  1
1
  0
DICTIONARYVAR
  5
1D57
102
{ACAD_REACTORS
330
DC5
102
}
330
DC5
100
DictionaryVariables
280
     0
  1
0
  0
XRECORD
  5
1FAB
102
{ACAD_REACTORS
330
1FA8
102
}
330
1FA8
100
AcDbXrecord
280
     1
  1
_0100-
  1
*0100-*
  1
*
  1
*
 70
     0
  1
*
  1
*
  0
XRECORD
  5
1FAA
102
{ACAD_REACTORS
330
1FA8
102
}
330
1FA8
100
AcDbXrecord
280
     1
  1
_0280-
  1
*0280-*
  1
*
  1
*
 70
     0
  1
*
  1
*
  0
XRECORD
  5
1FAE
102
{ACAD_REACTORS
330
1FA8
102
}
330
1FA8
100
AcDbXrecord
280
     1
  1
_Color 253
  1
*
  1
253
  1
*
 70
     0
  1
*
  1
*
  0
XRECORD
  5
1FAC
102
{ACAD_REACTORS
330
1FA8
102
}
330
1FA8
100
AcDbXrecord
280
     1
  1
_Color 8
  1
*
  1
8
  1
*
 70
     0
  1
*
  1
*
  0
XRECORD
  5
1FAD
102
{ACAD_REACTORS
330
1FA8
102
}
330
1FA8
100
AcDbXrecord
280
     1
  1
_Color 84
  1
*
  1
84
  1
*
 70
     0
  1
*
  1
*
  0
XRECORD
  5
1FB3
102
{ACAD_REACTORS
330
1FA8
102
}
330
1FA8
100
AcDbXrecord
280
     1
  1
_Contours
  1
*contour*,*cont-*,*cp cont*,*p-cont*
  1
*
  1
*
 70
     0
  1
*
  1
*
  0
XRECORD
  5
1FAF
102
{ACAD_REACTORS
330
1FA8
102
}
330
1FA8
100
AcDbXrecord
280
     1
  1
_Existing
  1
*exist*
  1
*
  1
*
 70
     0
  1
*
  1
*
  0
XRECORD
  5
1FB2
102
{ACAD_REACTORS
330
1FA8
102
}
330
1FA8
100
AcDbXrecord
280
     1
  1
_Hardscape
  1
*sidewalk*,*sw*,*curb*,*walk*,*-lip*,*tbc*
  1
*
  1
*
 70
     0
  1
*
  1
*
  0
XRECORD
  5
1FA9
102
{ACAD_REACTORS
330
1FA8
102
}
330
1FA8
100
AcDbXrecord
280
     1
  1
_NoXref
  1
~*|*
  1
*
  1
*
 70
     0
  1
*
  1
*
  0
XRECORD
  5
1FB0
102
{ACAD_REACTORS
330
1FA8
102
}
330
1FA8
100
AcDbXrecord
280
     1
  1
_Row
  1
*row*
  1
*
  1
*
 70
     0
  1
*
  1
*
  0
XRECORD
  5
1FB1
102
{ACAD_REACTORS
330
1FA8
102
}
330
1FA8
100
AcDbXrecord
280
     1
  1
_Utility
  1
*ut-*,*utility*,*wat*
  1
*
  1
*
 70
     0
  1
*
  1
*
  0
DICTIONARY
  5
1B95
330
1B94
100
AcDbDictionary
280
     1
281
     1
  3
ACAD_XREC_ROUNDTRIP
360
1FDC
  3
BUMPTILE
360
1B97
  3
DIFFUSETILE
360
1B96
  3
OPACITYTILE
360
1B9A
  3
REFLECTIONTILE
360
1B99
  3
REFRACTIONTILE
360
1B9B
  3
SPECULARTILE
360
1B98
  0
DICTIONARY
  5
1B8D
330
1B8C
100
AcDbDictionary
280
     1
281
     1
  3
ACAD_XREC_ROUNDTRIP
360
1FDB
  3
BUMPTILE
360
1B8F
  3
DIFFUSETILE
360
1B8E
  3
OPACITYTILE
360
1B92
  3
REFLECTIONTILE
360
1B91
  3
REFRACTIONTILE
360
1B93
  3
SPECULARTILE
360
1B90
  0
DICTIONARY
  5
1B9D
330
1B9C
100
AcDbDictionary
280
     1
281
     1
  3
ACAD_XREC_ROUNDTRIP
360
1FDD
  3
BUMPTILE
360
1B9F
  3
DIFFUSETILE
360
1B9E
  3
OPACITYTILE
360
1BA2
  3
REFLECTIONTILE
360
1BA1
  3
REFRACTIONTILE
360
1BA3
  3
SPECULARTILE
360
1BA0
  0
DICTIONARY
  5
1C50
330
1BB7
100
AcDbDictionary
280
     1
281
     1
  3
ACAD_ROUNDTRIP_2008_TABLESTYLE_CELLSTYLEMAP
360
1FD6
  3
ACAD_XREC_ROUNDTRIP
360
1FDE
  0
XRECORD
  5
1FDC
102
{ACAD_REACTORS
330
1B95
102
}
330
1B95
100
AcDbXrecord
280
     1
102
MATERIAL
148
0.0
149
0.0
149
0.0
 93
        0
 94
      127
282
     0
 72
     0
 77
     0
171
     0
175
     0
179
     0
273
     0
  0
XRECORD
  5
1B97
102
{ACAD_REACTORS
330
1B95
102
}
330
1B95
100
AcDbXrecord
280
     1
270
     1
271
     1
  0
XRECORD
  5
1B96
102
{ACAD_REACTORS
330
1B95
102
}
330
1B95
100
AcDbXrecord
280
     1
270
     1
271
     1
  0
XRECORD
  5
1B9A
102
{ACAD_REACTORS
330
1B95
102
}
330
1B95
100
AcDbXrecord
280
     1
270
     1
271
     1
  0
XRECORD
  5
1B99
102
{ACAD_REACTORS
330
1B95
102
}
330
1B95
100
AcDbXrecord
280
     1
270
     1
271
     1
  0
XRECORD
  5
1B9B
102
{ACAD_REACTORS
330
1B95
102
}
330
1B95
100
AcDbXrecord
280
     1
270
     1
271
     1
  0
XRECORD
  5
1B98
102
{ACAD_REACTORS
330
1B95
102
}
330
1B95
100
AcDbXrecord
280
     1
270
     1
271
     1
  0
XRECORD
  5
1FDB
102
{ACAD_REACTORS
330
1B8D
102
}
330
1B8D
100
AcDbXrecord
280
     1
102
MATERIAL
148
0.0
149
0.0
149
0.0
 93
        0
 94
      127
282
     0
 72
     0
 77
     0
171
     0
175
     0
179
     0
273
     0
  0
XRECORD
  5
1B8F
102
{ACAD_REACTORS
330
1B8D
102
}
330
1B8D
100
AcDbXrecord
280
     1
270
     1
271
     1
  0
XRECORD
  5
1B8E
102
{ACAD_REACTORS
330
1B8D
102
}
330
1B8D
100
AcDbXrecord
280
     1
270
     1
271
     1
  0
XRECORD
  5
1B92
102
{ACAD_REACTORS
330
1B8D
102
}
330
1B8D
100
AcDbXrecord
280
     1
270
     1
271
     1
  0
XRECORD
  5
1B91
102
{ACAD_REACTORS
330
1B8D
102
}
330
1B8D
100
AcDbXrecord
280
     1
270
     1
271
     1
  0
XRECORD
  5
1B93
102
{ACAD_REACTORS
330
1B8D
102
}
330
1B8D
100
AcDbXrecord
280
     1
270
     1
271
     1
  0
XRECORD
  5
1B90
102
{ACAD_REACTORS
330
1B8D
102
}
330
1B8D
100
AcDbXrecord
280
     1
270
     1
271
     1
  0
XRECORD
  5
1FDD
102
{ACAD_REACTORS
330
1B9D
102
}
330
1B9D
100
AcDbXrecord
280
     1
102
MATERIAL
148
0.0
149
0.0
149
0.0
 93
        0
 94
      127
282
     0
 72
     0
 77
     0
171
     0
175
     0
179
     0
273
     0
  0
XRECORD
  5
1B9F
102
{ACAD_REACTORS
330
1B9D
102
}
330
1B9D
100
AcDbXrecord
280
     1
270
     1
271
     1
  0
XRECORD
  5
1B9E
102
{ACAD_REACTORS
330
1B9D
102
}
330
1B9D
100
AcDbXrecord
280
     1
270
     1
271
     1
  0
XRECORD
  5
1BA2
102
{ACAD_REACTORS
330
1B9D
102
}
330
1B9D
100
AcDbXrecord
280
     1
270
     1
271
     1
  0
XRECORD
  5
1BA1
102
{ACAD_REACTORS
330
1B9D
102
}
330
1B9D
100
AcDbXrecord
280
     1
270
     1
271
     1
  0
XRECORD
  5
1BA3
102
{ACAD_REACTORS
330
1B9D
102
}
330
1B9D
100
AcDbXrecord
280
     1
270
     1
271
     1
  0
XRECORD
  5
1BA0
102
{ACAD_REACTORS
330
1B9D
102
}
330
1B9D
100
AcDbXrecord
280
     1
270
     1
271
     1
  0
CELLSTYLEMAP
  5
1FD6
102
{ACAD_REACTORS
330
1C50
102
}
330
1C50
100
AcDbCellStyleMap
 90
        3
300
CELLSTYLE
  1
TABLEFORMAT_BEGIN
 90
        5
170
     1
 91
        0
 92
    32768
 62
   257
 93
        1
300
CONTENTFORMAT
  1
CONTENTFORMAT_BEGIN
 90
        0
 91
        0
 92
      512
 93
        0
300

 40
0.0
140
1.0
 94
        5
 62
     0
340
11
144
0.25
309
CONTENTFORMAT_END
171
     0
 94
        0
309
TABLEFORMAT_END
  1
CELLSTYLE_BEGIN
 90
        1
 91
        1
300
_TITLE
309
CELLSTYLE_END
300
CELLSTYLE
  1
TABLEFORMAT_BEGIN
 90
        5
170
     1
 91
        0
 92
        0
 62
   257
 93
        1
300
CONTENTFORMAT
  1
CONTENTFORMAT_BEGIN
 90
        0
 91
        0
 92
      512
 93
        0
300

 40
0.0
140
1.0
 94
        5
 62
     0
340
11
144
0.18
309
CONTENTFORMAT_END
171
     0
 94
        0
309
TABLEFORMAT_END
  1
CELLSTYLE_BEGIN
 90
        2
 91
        1
300
_HEADER
309
CELLSTYLE_END
300
CELLSTYLE
  1
TABLEFORMAT_BEGIN
 90
        5
170
     1
 91
        0
 92
        0
 62
   257
 93
        1
300
CONTENTFORMAT
  1
CONTENTFORMAT_BEGIN
 90
        0
 91
        0
 92
      512
 93
        0
300

 40
0.0
140
1.0
 94
        2
 62
     0
340
11
144
0.18
309
CONTENTFORMAT_END
171
     0
 94
        0
309
TABLEFORMAT_END
  1
CELLSTYLE_BEGIN
 90
        3
 91
        2
300
_DATA
309
CELLSTYLE_END
  0
XRECORD
  5
1FDE
102
{ACAD_REACTORS
330
1C50
102
}
330
1C50
100
AcDbXrecord
280
     1
102
ACAD_ROUNDTRIP_PRE2007_TABLESTYLE
 90
      512
 91
        0
  1

 92
      512
 93
        0
  2

 94
      512
 95
        0
  3

  0
ENDSEC
  0
EOF
