  0
SECTION
  2
HEADER
  9
$ACADVER
  1
AC1018
  9
$ACADMAINTVER
 70
   104
  9
$DWGCODEPAGE
  3
ANSI_1252
  9
$LASTSAVEDBY
  1
dweyer
  9
$INSBASE
 10
0.0
 20
0.0
 30
0.0
  9
$EXTMIN
 10
0.3016247911453088
 20
-3.564081505678487
 30
0.0
  9
$EXTMAX
 10
9.887703281736905
 20
6.875918494321512
 30
0.03
  9
$LIMMIN
 10
0.0
 20
0.0
  9
$LIMMAX
 10
12.0
 20
9.0
  9
$ORTHOMODE
 70
     1
  9
$REGENMODE
 70
     1
  9
$FILLMODE
 70
     1
  9
$QTEXTMODE
 70
     0
  9
$MIRRTEXT
 70
     0
  9
$LTSCALE
 40
1.0
  9
$ATTMODE
 70
     1
  9
$TEXTSIZE
 40
0.125
  9
$TRACEWID
 40
0.05
  9
$TEXTSTYLE
  7
ROMANS
  9
$CLAYER
  8
0
  9
$CELTYPE
  6
BYLAYER
  9
$CECOLOR
 62
   256
  9
$CELTSCALE
 40
1.0
  9
$DISPSILH
 70
     0
  9
$DIMSCALE
 40
1.0
  9
$DIMASZ
 40
0.18
  9
$DIMEXO
 40
0.0625
  9
$DIMDLI
 40
0.38
  9
$DIMRND
 40
0.0
  9
$DIMDLE
 40
0.0
  9
$DIMEXE
 40
0.125
  9
$DIMTP
 40
0.0
  9
$DIMTM
 40
0.0
  9
$DIMTXT
 40
0.125
  9
$DIMCEN
 40
0.09
  9
$DIMTSZ
 40
0.0
  9
$DIMTOL
 70
     0
  9
$DIMLIM
 70
     0
  9
$DIMTIH
 70
     1
  9
$DIMTOH
 70
     1
  9
$DIMSE1
 70
     0
  9
$DIMSE2
 70
     0
  9
$DIMTAD
 70
     0
  9
$DIMZIN
 70
     0
  9
$DIMBLK
  1

  9
$DIMASO
 70
     1
  9
$DIMSHO
 70
     1
  9
$DIMPOST
  1

  9
$DIMAPOST
  1

  9
$DIMALT
 70
     0
  9
$DIMALTD
 70
     2
  9
$DIMALTF
 40
25.4
  9
$DIMLFAC
 40
1.0
  9
$DIMTOFL
 70
     0
  9
$DIMTVP
 40
0.0
  9
$DIMTIX
 70
     0
  9
$DIMSOXD
 70
     0
  9
$DIMSAH
 70
     0
  9
$DIMBLK1
  1

  9
$DIMBLK2
  1

  9
$DIMSTYLE
  2
STANDARD
  9
$DIMCLRD
 70
   256
  9
$DIMCLRE
 70
   256
  9
$DIMCLRT
 70
   256
  9
$DIMTFAC
 40
1.0
  9
$DIMGAP
 40
0.09
  9
$DIMJUST
 70
     0
  9
$DIMSD1
 70
     0
  9
$DIMSD2
 70
     0
  9
$DIMTOLJ
 70
     1
  9
$DIMTZIN
 70
     0
  9
$DIMALTZ
 70
     0
  9
$DIMALTTZ
 70
     0
  9
$DIMUPT
 70
     0
  9
$DIMDEC
 70
     4
  9
$DIMTDEC
 70
     4
  9
$DIMALTU
 70
     2
  9
$DIMALTTD
 70
     2
  9
$DIMTXSTY
  7
Arial
  9
$DIMAUNIT
 70
     0
  9
$DIMADEC
 70
     0
  9
$DIMALTRND
 40
0.0
  9
$DIMAZIN
 70
     0
  9
$DIMDSEP
 70
    46
  9
$DIMATFIT
 70
     3
  9
$DIMFRAC
 70
     0
  9
$DIMLDRBLK
  1

  9
$DIMLUNIT
 70
     2
  9
$DIMLWD
 70
    -1
  9
$DIMLWE
 70
    -1
  9
$DIMTMOVE
 70
     2
  9
$LUNITS
 70
     2
  9
$LUPREC
 70
     3
  9
$SKETCHINC
 40
0.1
  9
$FILLETRAD
 40
0.0
  9
$AUNITS
 70
     0
  9
$AUPREC
 70
     0
  9
$MENU
  1
ACAD
  9
$ELEVATION
 40
0.0
  9
$PELEVATION
 40
0.0
  9
$THICKNESS
 40
0.0
  9
$LIMCHECK
 70
     0
  9
$CHAMFERA
 40
0.0
  9
$CHAMFERB
 40
0.0
  9
$CHAMFERC
 40
0.0
  9
$CHAMFERD
 40
0.0
  9
$SKPOLY
 70
     0
  9
$TDCREATE
 40
2449623.385097569
  9
$TDUCREATE
 40
2449623.676764236
  9
$TDUPDATE
 40
2455211.632581667
  9
$TDUUPDATE
 40
2455211.924248334
  9
$TDINDWG
 40
1.3672311111
  9
$TDUSRTIMER
 40
1.3672311111
  9
$USRTIMER
 70
     1
  9
$ANGBASE
 50
0.0
  9
$ANGDIR
 70
     0
  9
$PDMODE
 70
     0
  9
$PDSIZE
 40
0.0
  9
$PLINEWID
 40
0.0
  9
$SPLFRAME
 70
     0
  9
$SPLINETYPE
 70
     6
  9
$SPLINESEGS
 70
     8
  9
$HANDSEED
  5
2045
  9
$SURFTAB1
 70
     6
  9
$SURFTAB2
 70
     6
  9
$SURFTYPE
 70
     6
  9
$SURFU
 70
     6
  9
$SURFV
 70
     6
  9
$UCSBASE
  2

  9
$UCSNAME
  2

  9
$UCSORG
 10
0.0
 20
0.0
 30
0.0
  9
$UCSXDIR
 10
1.0
 20
0.0
 30
0.0
  9
$UCSYDIR
 10
0.0
 20
1.0
 30
0.0
  9
$UCSORTHOREF
  2

  9
$UCSORTHOVIEW
 70
     0
  9
$UCSORGTOP
 10
0.0
 20
0.0
 30
0.0
  9
$UCSORGBOTTOM
 10
0.0
 20
0.0
 30
0.0
  9
$UCSORGLEFT
 10
0.0
 20
0.0
 30
0.0
  9
$UCSORGRIGHT
 10
0.0
 20
0.0
 30
0.0
  9
$UCSORGFRONT
 10
0.0
 20
0.0
 30
0.0
  9
$UCSORGBACK
 10
0.0
 20
0.0
 30
0.0
  9
$PUCSBASE
  2

  9
$PUCSNAME
  2

  9
$PUCSORG
 10
0.0
 20
0.0
 30
0.0
  9
$PUCSXDIR
 10
1.0
 20
0.0
 30
0.0
  9
$PUCSYDIR
 10
0.0
 20
1.0
 30
0.0
  9
$PUCSORTHOREF
  2

  9
$PUCSORTHOVIEW
 70
     0
  9
$PUCSORGTOP
 10
0.0
 20
0.0
 30
0.0
  9
$PUCSORGBOTTOM
 10
0.0
 20
0.0
 30
0.0
  9
$PUCSORGLEFT
 10
0.0
 20
0.0
 30
0.0
  9
$PUCSORGRIGHT
 10
0.0
 20
0.0
 30
0.0
  9
$PUCSORGFRONT
 10
0.0
 20
0.0
 30
0.0
  9
$PUCSORGBACK
 10
0.0
 20
0.0
 30
0.0
  9
$USERI1
 70
     0
  9
$USERI2
 70
     0
  9
$USERI3
 70
     0
  9
$USERI4
 70
     0
  9
$USERI5
 70
     0
  9
$USERR1
 40
0.0
  9
$USERR2
 40
0.0
  9
$USERR3
 40
0.0
  9
$USERR4
 40
0.0
  9
$USERR5
 40
0.0
  9
$WORLDVIEW
 70
     1
  9
$SHADEDGE
 70
     3
  9
$SHADEDIF
 70
    70
  9
$TILEMODE
 70
     1
  9
$MAXACTVP
 70
    16
  9
$PINSBASE
 10
0.0
 20
0.0
 30
0.0
  9
$PLIMCHECK
 70
     0
  9
$PEXTMIN
 10
1.000000000000000E+20
 20
1.000000000000000E+20
 30
1.000000000000000E+20
  9
$PEXTMAX
 10
-1.000000000000000E+20
 20
-1.000000000000000E+20
 30
-1.000000000000000E+20
  9
$PLIMMIN
 10
0.0
 20
0.0
  9
$PLIMMAX
 10
12.0
 20
9.0
  9
$UNITMODE
 70
     0
  9
$VISRETAIN
 70
     0
  9
$PLINEGEN
 70
     1
  9
$PSLTSCALE
 70
     1
  9
$TREEDEPTH
 70
  3020
  9
$CMLSTYLE
  2
STANDARD
  9
$CMLJUST
 70
     0
  9
$CMLSCALE
 40
1.0
  9
$PROXYGRAPHICS
 70
     1
  9
$MEASUREMENT
 70
     0
  9
$CELWEIGHT
370
    -1
  9
$ENDCAPS
280
     0
  9
$JOINSTYLE
280
     0
  9
$LWDISPLAY
290
     0
  9
$INSUNITS
 70
     0
  9
$HYPERLINKBASE
  1

  9
$STYLESHEET
  1
pdf bw shaded.ctb
  9
$XEDIT
290
     1
  9
$CEPSNTYPE
380
     0
  9
$PSTYLEMODE
290
     1
  9
$FINGERPRINTGUID
  2
{228DEDB4-28D2-412D-8B14-2DF4BA74DCDB}
  9
$VERSIONGUID
  2
{6DE02B1B-F846-42F7-B70B-E7907B9A4671}
  9
$EXTNAMES
290
     1
  9
$PSVPSCALE
 40
0.0
  9
$OLESTARTUP
290
     1
  9
$SORTENTS
280
    48
  9
$INDEXCTL
280
     0
  9
$HIDETEXT
280
     0
  9
$XCLIPFRAME
290
     0
  9
$HALOGAP
280
     0
  9
$OBSCOLOR
 70
   257
  9
$OBSLTYPE
280
     0
  9
$INTERSECTIONDISPLAY
280
     0
  9
$INTERSECTIONCOLOR
 70
   257
  9
$DIMASSOC
280
     1
  9
$PROJECTNAME
  1

  0
ENDSEC
  0
SECTION
  2
CLASSES
  0
CLASS
  1
DICTIONARYVAR
  2
AcDbDictionaryVar
  3
ObjectDBX Classes
 90
        0
 91
       12
280
     0
281
     0
  0
CLASS
  1
ACDBDICTIONARYWDFLT
  2
AcDbDictionaryWithDefault
  3
ObjectDBX Classes
 90
        0
 91
        1
280
     0
281
     0
  0
CLASS
  1
MATERIAL
  2
AcDbMaterial
  3
ObjectDBX Classes
 90
     1153
 91
        3
280
     0
281
     0
  0
CLASS
  1
VISUALSTYLE
  2
AcDbVisualStyle
  3
ObjectDBX Classes
 90
     4095
 91
       16
280
     0
281
     0
  0
CLASS
  1
TABLESTYLE
  2
AcDbTableStyle
  3
ObjectDBX Classes
 90
     4095
 91
        1
280
     0
281
     0
  0
CLASS
  1
SCALE
  2
AcDbScale
  3
ObjectDBX Classes
 90
     1153
 91
       33
280
     0
281
     0
  0
CLASS
  1
MLEADERSTYLE
  2
AcDbMLeaderStyle
  3
ACDB_MLEADERSTYLE_CLASS
 90
     4095
 91
        1
280
     0
281
     0
  0
CLASS
  1
EXACXREFPANELOBJECT
  2
ExAcXREFPanelObject
  3
EXAC_ESW
 90
     1025
 91
        0
280
     0
281
     0
  0
CLASS
  1
NPOCOLLECTION
  2
AcDbImpNonPersistentObjectsCollection
  3
ObjectDBX Classes
 90
     1153
 91
        0
280
     0
281
     0
  0
CLASS
  1
PLOTSETTINGS
  2
AcDbPlotSettings
  3
ObjectDBX Classes
 90
        0
 91
       76
280
     0
281
     0
  0
CLASS
  1
LAYER_INDEX
  2
AcDbLayerIndex
  3
ObjectDBX Classes
 90
        0
 91
        0
280
     0
281
     0
  0
CLASS
  1
SPATIAL_INDEX
  2
AcDbSpatialIndex
  3
ObjectDBX Classes
 90
        0
 91
        0
280
     0
281
     0
  0
CLASS
  1
IDBUFFER
  2
AcDbIdBuffer
  3
ObjectDBX Classes
 90
        0
 91
        4
280
     0
281
     0
  0
CLASS
  1
CELLSTYLEMAP
  2
AcDbCellStyleMap
  3
ObjectDBX Classes
 90
     1152
 91
        7
280
     0
281
     0
  0
CLASS
  1
AEC_REFEDIT_STATUS_TRACKER
  2
AecDbRefEditStatusTracker
  3
AecArchBase50|Product Desc: Autodesk Architectural Desktop 2007 |Company: Autodesk,Inc. |WEB Address: www.autodesk.com
 90
      129
 91
        0
280
     0
281
     0
  0
CLASS
  1
SORTENTSTABLE
  2
AcDbSortentsTable
  3
ObjectDBX Classes
 90
        0
 91
        1
280
     0
281
     0
  0
ENDSEC
  0
SECTION
  2
TABLES
  0
TABLE
  2
VPORT
  5
8
330
0
100
AcDbSymbolTable
 70
     1
  0
VPORT
  5
1C07
330
8
100
AcDbSymbolTableRecord
100
AcDbViewportTableRecord
  2
*Active
 70
     0
 10
0.0
 20
0.0
 11
1.0
 21
1.0
 12
5.094664036441105
 22
1.655918494321511
 13
0.0
 23
0.0
 14
0.14
 24
0.14
 15
0.14
 25
0.14
 16
0.0
 26
0.0
 36
1.0
 17
0.0
 27
0.0
 37
0.0
 40
10.53266272189349
 41
2.308148148148148
 42
50.0
 43
0.0
 44
0.0
 50
0.0
 51
0.0
 71
     0
 72
  4000
 73
     1
 74
     1
 75
     0
 76
     0
 77
     0
 78
     0
281
     0
 65
     1
110
0.0
120
0.0
130
0.0
111
1.0
121
0.0
131
0.0
112
0.0
122
1.0
132
0.0
 79
     0
146
0.0
  0
ENDTAB
  0
TABLE
  2
LTYPE
  5
5
330
0
100
AcDbSymbolTable
 70
     1
  0
LTYPE
  5
11
330
5
100
AcDbSymbolTableRecord
100
AcDbLinetypeTableRecord
  2
BYBLOCK
 70
     0
  3

 72
    65
 73
     0
 40
0.0
  0
LTYPE
  5
12
330
5
100
AcDbSymbolTableRecord
100
AcDbLinetypeTableRecord
  2
BYLAYER
 70
     0
  3

 72
    65
 73
     0
 40
0.0
  0
LTYPE
  5
13
330
5
100
AcDbSymbolTableRecord
100
AcDbLinetypeTableRecord
  2
CONTINUOUS
 70
     0
  3
Solid line
 72
    65
 73
     0
 40
0.0
  0
ENDTAB
  0
TABLE
  2
LAYER
  5
2
102
{ACAD_XDICTIONARY
360
1455
102
}
330
0
100
AcDbSymbolTable
 70
     4
  0
LAYER
  5
E
330
2
100
AcDbSymbolTableRecord
100
AcDbLayerTableRecord
  2
0
 70
     0
 62
     7
  6
CONTINUOUS
370
    -3
390
143F
1001
RAK
1000
{PC-05-W/ PFR-FRA-LEADERS
1070
     0
1070
     7
1000
CONTINUOUS
1070
     1
1000
PC-05-W/ PFR-FRA-LEADERS}
1000
{PC-05-W/ PFR-FRA-BUBBLES
1070
     0
1070
     7
1000
CONTINUOUS
1070
     1
1000
PC-05-W/ PFR-FRA-BUBBLES}
1000
{PC-05-W/ PFR-12-FRA-050-LEADERS
1070
     0
1070
     7
1000
CONTINUOUS
1070
     1
1000
PC-05-W/ PFR-12-FRA-050-LEADERS}
1000
{PC-05-W/ PFR-12-FRA-050-BUBBLES
1070
     0
1070
     7
1000
CONTINUOUS
1070
     1
1000
PC-05-W/ PFR-12-FRA-050-BUBBLES}
1000
{PC-07-W/ PFR-FRA-LEADERS
1070
     0
1070
     7
1000
CONTINUOUS
1070
     1
1000
PC-07-W/ PFR-FRA-LEADERS}
1000
{PC-07-W/ PFR-FRA-BUBBLES
1070
     0
1070
     7
1000
CONTINUOUS
1070
     1
1000
PC-07-W/ PFR-FRA-BUBBLES}
1000
{PC-07-W/ PFR-12-FRA-050-LEADERS
1070
     0
1070
     7
1000
CONTINUOUS
1070
     1
1000
PC-07-W/ PFR-12-FRA-050-LEADERS}
1000
{PC-07-W/ PFR-12-FRA-050-BUBBLES
1070
     0
1070
     7
1000
CONTINUOUS
1070
     1
1000
PC-07-W/ PFR-12-FRA-050-BUBBLES}
1000
{PC-10-W/ PFR-FRA-LEADERS
1070
     0
1070
     7
1000
CONTINUOUS
1070
     1
1000
PC-10-W/ PFR-FRA-LEADERS}
1000
{PC-10-W/ PFR-FRA-BUBBLES
1070
     0
1070
     7
1000
CONTINUOUS
1070
     1
1000
PC-10-W/ PFR-FRA-BUBBLES}
1000
{PC-10-W/ PFR-12-FRA-050-LEADERS
1070
     0
1070
     7
1000
CONTINUOUS
1070
     1
1000
PC-10-W/ PFR-12-FRA-050-LEADERS}
1000
{PC-10-W/ PFR-12-FRA-050-BUBBLES
1070
     0
1070
     7
1000
CONTINUOUS
1070
     1
1000
PC-10-W/ PFR-12-FRA-050-BUBBLES}
1000
{PC-12-W/ PFR-FRA-LEADERS
1070
     0
1070
     7
1000
CONTINUOUS
1070
     1
1000
PC-12-W/ PFR-FRA-LEADERS}
1000
{PC-12-W/ PFR-FRA-BUBBLES
1070
     0
1070
     7
1000
CONTINUOUS
1070
     1
1000
PC-12-W/ PFR-FRA-BUBBLES}
1000
{PC-12-W/ PFR-12-FRA-050-LEADERS
1070
     0
1070
     7
1000
CONTINUOUS
1070
     1
1000
PC-12-W/ PFR-12-FRA-050-LEADERS}
1000
{PC-12-W/ PFR-12-FRA-050-BUBBLES
1070
     0
1070
     7
1000
CONTINUOUS
1070
     1
1000
PC-12-W/ PFR-12-FRA-050-BUBBLES}
1000
{PC-18-W/ PFR-FRA-LEADERS
1070
     0
1070
     7
1000
CONTINUOUS
1070
     1
1000
PC-18-W/ PFR-FRA-LEADERS}
1000
{PC-18-W/ PFR-FRA-BUBBLES
1070
     0
1070
     7
1000
CONTINUOUS
1070
     1
1000
PC-18-W/ PFR-FRA-BUBBLES}
1000
{PC-18-W/ PFR-12-FRA-050-LEADERS
1070
     0
1070
     7
1000
CONTINUOUS
1070
     1
1000
PC-18-W/ PFR-12-FRA-050-LEADERS}
1000
{PC-18-W/ PFR-12-FRA-050-BUBBLES
1070
     0
1070
     7
1000
CONTINUOUS
1070
     1
1000
PC-18-W/ PFR-12-FRA-050-BUBBLES}
1000
{PC-24-W/ PFR-FRA-LEADERS
1070
     0
1070
     7
1000
CONTINUOUS
1070
     1
1000
PC-24-W/ PFR-FRA-LEADERS}
1000
{PC-24-W/ PFR-FRA-BUBBLES
1070
     0
1070
     7
1000
CONTINUOUS
1070
     1
1000
PC-24-W/ PFR-FRA-BUBBLES}
1000
{PC-24-W/ PFR-12-FRA-050-LEADERS
1070
     0
1070
     7
1000
CONTINUOUS
1070
     1
1000
PC-24-W/ PFR-12-FRA-050-LEADERS}
1000
{PC-24-W/ PFR-12-FRA-050-BUBBLES
1070
     0
1070
     7
1000
CONTINUOUS
1070
     1
1000
PC-24-W/ PFR-12-FRA-050-BUBBLES}
  0
LAYER
  5
26
330
2
100
AcDbSymbolTableRecord
100
AcDbLayerTableRecord
  2
text_bubbles
 70
     0
 62
     6
  6
CONTINUOUS
370
    -3
390
143F
1001
RAK
1000
{PC-05-W/ PFR-FRA-LEADERS
1070
     0
1070
    -6
1000
CONTINUOUS
1000
PC-05-W/ PFR-FRA-LEADERS}
1000
{PC-05-W/ PFR-FRA-BUBBLES
1070
     0
1070
     6
1000
CONTINUOUS
1000
PC-05-W/ PFR-FRA-BUBBLES}
1000
{PC-05-W/ PFR-12-FRA-050-LEADERS
1070
     0
1070
    -6
1000
CONTINUOUS
1000
PC-05-W/ PFR-12-FRA-050-LEADERS}
1000
{PC-05-W/ PFR-12-FRA-050-BUBBLES
1070
     0
1070
     6
1000
CONTINUOUS
1000
PC-05-W/ PFR-12-FRA-050-BUBBLES}
1000
{PC-07-W/ PFR-FRA-LEADERS
1070
     0
1070
    -6
1000
CONTINUOUS
1000
PC-07-W/ PFR-FRA-LEADERS}
1000
{PC-07-W/ PFR-FRA-BUBBLES
1070
     0
1070
     6
1000
CONTINUOUS
1000
PC-07-W/ PFR-FRA-BUBBLES}
1000
{PC-07-W/ PFR-12-FRA-050-LEADERS
1070
     0
1070
    -6
1000
CONTINUOUS
1000
PC-07-W/ PFR-12-FRA-050-LEADERS}
1000
{PC-07-W/ PFR-12-FRA-050-BUBBLES
1070
     0
1070
     6
1000
CONTINUOUS
1000
PC-07-W/ PFR-12-FRA-050-BUBBLES}
1000
{PC-10-W/ PFR-FRA-LEADERS
1070
     0
1070
    -6
1000
CONTINUOUS
1000
PC-10-W/ PFR-FRA-LEADERS}
1000
{PC-10-W/ PFR-FRA-BUBBLES
1070
     0
1070
     6
1000
CONTINUOUS
1000
PC-10-W/ PFR-FRA-BUBBLES}
1000
{PC-10-W/ PFR-12-FRA-050-LEADERS
1070
     0
1070
    -6
1000
CONTINUOUS
1000
PC-10-W/ PFR-12-FRA-050-LEADERS}
1000
{PC-10-W/ PFR-12-FRA-050-BUBBLES
1070
     0
1070
     6
1000
CONTINUOUS
1000
PC-10-W/ PFR-12-FRA-050-BUBBLES}
1000
{PC-12-W/ PFR-FRA-LEADERS
1070
     0
1070
    -6
1000
CONTINUOUS
1000
PC-12-W/ PFR-FRA-LEADERS}
1000
{PC-12-W/ PFR-FRA-BUBBLES
1070
     0
1070
     6
1000
CONTINUOUS
1000
PC-12-W/ PFR-FRA-BUBBLES}
1000
{PC-12-W/ PFR-12-FRA-050-LEADERS
1070
     0
1070
    -6
1000
CONTINUOUS
1000
PC-12-W/ PFR-12-FRA-050-LEADERS}
1000
{PC-12-W/ PFR-12-FRA-050-BUBBLES
1070
     0
1070
     6
1000
CONTINUOUS
1000
PC-12-W/ PFR-12-FRA-050-BUBBLES}
1000
{PC-18-W/ PFR-FRA-LEADERS
1070
     0
1070
    -6
1000
CONTINUOUS
1000
PC-18-W/ PFR-FRA-LEADERS}
1000
{PC-18-W/ PFR-FRA-BUBBLES
1070
     0
1070
     6
1000
CONTINUOUS
1000
PC-18-W/ PFR-FRA-BUBBLES}
1000
{PC-18-W/ PFR-12-FRA-050-LEADERS
1070
     0
1070
    -6
1000
CONTINUOUS
1000
PC-18-W/ PFR-12-FRA-050-LEADERS}
1000
{PC-18-W/ PFR-12-FRA-050-BUBBLES
1070
     0
1070
     6
1000
CONTINUOUS
1000
PC-18-W/ PFR-12-FRA-050-BUBBLES}
1000
{PC-24-W/ PFR-FRA-LEADERS
1070
     0
1070
    -6
1000
CONTINUOUS
1000
PC-24-W/ PFR-FRA-LEADERS}
1000
{PC-24-W/ PFR-FRA-BUBBLES
1070
     0
1070
     6
1000
CONTINUOUS
1000
PC-24-W/ PFR-FRA-BUBBLES}
1000
{PC-24-W/ PFR-12-FRA-050-LEADERS
1070
     0
1070
    -6
1000
CONTINUOUS
1000
PC-24-W/ PFR-12-FRA-050-LEADERS}
1000
{PC-24-W/ PFR-12-FRA-050-BUBBLES
1070
     0
1070
     6
1000
CONTINUOUS
1000
PC-24-W/ PFR-12-FRA-050-BUBBLES}
  0
LAYER
  5
27
330
2
100
AcDbSymbolTableRecord
100
AcDbLayerTableRecord
  2
image
 70
     0
 62
     7
  6
CONTINUOUS
370
    -3
390
143F
1001
RAK
1000
{PC-05-W/ PFR-FRA-LEADERS
1070
     0
1070
     7
1000
CONTINUOUS
1000
PC-05-W/ PFR-FRA-LEADERS}
1000
{PC-05-W/ PFR-FRA-BUBBLES
1070
     0
1070
     7
1000
CONTINUOUS
1000
PC-05-W/ PFR-FRA-BUBBLES}
1000
{PC-05-W/ PFR-12-FRA-050-LEADERS
1070
     0
1070
     7
1000
CONTINUOUS
1000
PC-05-W/ PFR-12-FRA-050-LEADERS}
1000
{PC-05-W/ PFR-12-FRA-050-BUBBLES
1070
     0
1070
     7
1000
CONTINUOUS
1000
PC-05-W/ PFR-12-FRA-050-BUBBLES}
1000
{PC-07-W/ PFR-FRA-LEADERS
1070
     0
1070
     7
1000
CONTINUOUS
1000
PC-07-W/ PFR-FRA-LEADERS}
1000
{PC-07-W/ PFR-FRA-BUBBLES
1070
     0
1070
     7
1000
CONTINUOUS
1000
PC-07-W/ PFR-FRA-BUBBLES}
1000
{PC-07-W/ PFR-12-FRA-050-LEADERS
1070
     0
1070
     7
1000
CONTINUOUS
1000
PC-07-W/ PFR-12-FRA-050-LEADERS}
1000
{PC-07-W/ PFR-12-FRA-050-BUBBLES
1070
     0
1070
     7
1000
CONTINUOUS
1000
PC-07-W/ PFR-12-FRA-050-BUBBLES}
1000
{PC-10-W/ PFR-FRA-LEADERS
1070
     0
1070
     7
1000
CONTINUOUS
1000
PC-10-W/ PFR-FRA-LEADERS}
1000
{PC-10-W/ PFR-FRA-BUBBLES
1070
     0
1070
     7
1000
CONTINUOUS
1000
PC-10-W/ PFR-FRA-BUBBLES}
1000
{PC-10-W/ PFR-12-FRA-050-LEADERS
1070
     0
1070
     7
1000
CONTINUOUS
1000
PC-10-W/ PFR-12-FRA-050-LEADERS}
1000
{PC-10-W/ PFR-12-FRA-050-BUBBLES
1070
     0
1070
     7
1000
CONTINUOUS
1000
PC-10-W/ PFR-12-FRA-050-BUBBLES}
1000
{PC-12-W/ PFR-FRA-LEADERS
1070
     0
1070
     7
1000
CONTINUOUS
1000
PC-12-W/ PFR-FRA-LEADERS}
1000
{PC-12-W/ PFR-FRA-BUBBLES
1070
     0
1070
     7
1000
CONTINUOUS
1000
PC-12-W/ PFR-FRA-BUBBLES}
1000
{PC-12-W/ PFR-12-FRA-050-LEADERS
1070
     0
1070
     7
1000
CONTINUOUS
1000
PC-12-W/ PFR-12-FRA-050-LEADERS}
1000
{PC-12-W/ PFR-12-FRA-050-BUBBLES
1070
     0
1070
     7
1000
CONTINUOUS
1000
PC-12-W/ PFR-12-FRA-050-BUBBLES}
1000
{PC-18-W/ PFR-FRA-LEADERS
1070
     0
1070
     7
1000
CONTINUOUS
1000
PC-18-W/ PFR-FRA-LEADERS}
1000
{PC-18-W/ PFR-FRA-BUBBLES
1070
     0
1070
     7
1000
CONTINUOUS
1000
PC-18-W/ PFR-FRA-BUBBLES}
1000
{PC-18-W/ PFR-12-FRA-050-LEADERS
1070
     0
1070
     7
1000
CONTINUOUS
1000
PC-18-W/ PFR-12-FRA-050-LEADERS}
1000
{PC-18-W/ PFR-12-FRA-050-BUBBLES
1070
     0
1070
     7
1000
CONTINUOUS
1000
PC-18-W/ PFR-12-FRA-050-BUBBLES}
1000
{PC-24-W/ PFR-FRA-LEADERS
1070
     0
1070
     7
1000
CONTINUOUS
1000
PC-24-W/ PFR-FRA-LEADERS}
1000
{PC-24-W/ PFR-FRA-BUBBLES
1070
     0
1070
     7
1000
CONTINUOUS
1000
PC-24-W/ PFR-FRA-BUBBLES}
1000
{PC-24-W/ PFR-12-FRA-050-LEADERS
1070
     0
1070
     7
1000
CONTINUOUS
1000
PC-24-W/ PFR-12-FRA-050-LEADERS}
1000
{PC-24-W/ PFR-12-FRA-050-BUBBLES
1070
     0
1070
     7
1000
CONTINUOUS
1000
PC-24-W/ PFR-12-FRA-050-BUBBLES}
  0
LAYER
  5
1BCB
330
2
100
AcDbSymbolTableRecord
100
AcDbLayerTableRecord
  2
title
 70
     0
 62
     4
  6
CONTINUOUS
370
    -3
390
143F
  0
ENDTAB
  0
TABLE
  2
STYLE
  5
3
330
0
100
AcDbSymbolTable
 70
     6
  0
STYLE
  5
F
330
3
100
AcDbSymbolTableRecord
100
AcDbTextStyleTableRecord
  2
STANDARD
 70
     0
 40
0.0
 41
1.0
 50
0.0
 71
     0
 42
0.2
  3
txt
  4

  0
STYLE
  5
1F
330
3
100
AcDbSymbolTableRecord
100
AcDbTextStyleTableRecord
  2
ROMANS
 70
     0
 40
0.0
 41
1.0
 50
0.0
 71
     0
 42
0.125
  3
ROMANS.SHX
  4

  0
STYLE
  5
1BCC
330
3
100
AcDbSymbolTableRecord
100
AcDbTextStyleTableRecord
  2
L100
 70
     0
 40
0.1
 41
1.0
 50
0.0
 71
     0
 42
0.1
  3
romans.shx
  4

  0
STYLE
  5
1BCD
330
3
100
AcDbSymbolTableRecord
100
AcDbTextStyleTableRecord
  2
L200
 70
     0
 40
0.2
 41
1.0
 50
0.0
 71
     0
 42
0.081
  3
ARIAL.TTF
  4

1001
ACAD
1000
Arial
1071
       34
  0
STYLE
  5
1BCE
330
3
100
AcDbSymbolTableRecord
100
AcDbTextStyleTableRecord
  2
L80
 70
     0
 40
0.08
 41
1.0
 50
0.0
 71
     0
 42
0.08
  3
ROMANS
  4

  0
STYLE
  5
1D1B
330
3
100
AcDbSymbolTableRecord
100
AcDbTextStyleTableRecord
  2
Arial
 70
     0
 40
0.0
 41
1.0
 50
0.0
 71
     0
 42
0.125
  3
ARIAL.TTF
  4

1001
ACAD
1000
Arial
1071
       34
  0
ENDTAB
  0
TABLE
  2
VIEW
  5
6
330
0
100
AcDbSymbolTable
 70
     0
  0
ENDTAB
  0
TABLE
  2
UCS
  5
7
330
0
100
AcDbSymbolTable
 70
     0
  0
ENDTAB
  0
TABLE
  2
APPID
  5
9
330
0
100
AcDbSymbolTable
 70
    15
  0
APPID
  5
10
330
9
100
AcDbSymbolTableRecord
100
AcDbRegAppTableRecord
  2
ACAD
 70
     0
  0
APPID
  5
68A
330
9
100
AcDbSymbolTableRecord
100
AcDbRegAppTableRecord
  2
RAK
 70
     0
  0
APPID
  5
1453
330
9
100
AcDbSymbolTableRecord
100
AcDbRegAppTableRecord
  2
BBSI_Plots
 70
     0
  0
APPID
  5
1454
330
9
100
AcDbSymbolTableRecord
100
AcDbRegAppTableRecord
  2
BBSI_Stamp
 70
     0
  0
APPID
  5
1BCF
330
9
100
AcDbSymbolTableRecord
100
AcDbRegAppTableRecord
  2
DCO15
 70
     0
  0
APPID
  5
1C5A
330
9
100
AcDbSymbolTableRecord
100
AcDbRegAppTableRecord
  2
ACAD_MLEADERVER
 70
     0
  0
APPID
  5
1C6D
330
9
100
AcDbSymbolTableRecord
100
AcDbRegAppTableRecord
  2
ACAD_PSEXT
 70
     0
  0
APPID
  5
1D06
330
9
100
AcDbSymbolTableRecord
100
AcDbRegAppTableRecord
  2
ACAD_EXEMPT_FROM_CAD_STANDARDS
 70
     0
  0
APPID
  5
1D1C
330
9
100
AcDbSymbolTableRecord
100
AcDbRegAppTableRecord
  2
AcAecLayerStandard
 70
     0
  0
APPID
  5
1D1D
330
9
100
AcDbSymbolTableRecord
100
AcDbRegAppTableRecord
  2
BBSI_PltSel
 70
     0
  0
APPID
  5
1D1E
330
9
100
AcDbSymbolTableRecord
100
AcDbRegAppTableRecord
  2
BBSI_Bookmarks
 70
     0
  0
APPID
  5
1D1F
330
9
100
AcDbSymbolTableRecord
100
AcDbRegAppTableRecord
  2
BBSI_BookmarksEx
 70
     0
  0
APPID
  5
1DF9
330
9
100
AcDbSymbolTableRecord
100
AcDbRegAppTableRecord
  2
BBSI_StampsEx
 70
     0
  0
APPID
  5
1DFA
330
9
100
AcDbSymbolTableRecord
100
AcDbRegAppTableRecord
  2
BBSI_Attachs
 70
     0
  0
APPID
  5
1DFB
330
9
100
AcDbSymbolTableRecord
100
AcDbRegAppTableRecord
  2
BBSI_DigSigs
 70
     0
  0
ENDTAB
  0
TABLE
  2
DIMSTYLE
  5
A
330
0
100
AcDbSymbolTable
 70
     1
100
AcDbDimStyleTable
 71
     1
340
565
  0
DIMSTYLE
105
565
330
A
100
AcDbSymbolTableRecord
100
AcDbDimStyleTableRecord
  2
STANDARD
 70
     0
340
F
  0
ENDTAB
  0
TABLE
  2
BLOCK_RECORD
  5
1
330
0
100
AcDbSymbolTable
 70
     2
  0
BLOCK_RECORD
  5
17
102
{ACAD_XDICTIONARY
360
1CC1
102
}
330
1
100
AcDbSymbolTableRecord
100
AcDbBlockTableRecord
  2
*MODEL_SPACE
340
1442
  0
BLOCK_RECORD
  5
14
330
1
100
AcDbSymbolTableRecord
100
AcDbBlockTableRecord
  2
*PAPER_SPACE
340
1443
  0
BLOCK_RECORD
  5
1D
330
1
100
AcDbSymbolTableRecord
100
AcDbBlockTableRecord
  2
*X0
340
0
102
{BLKREFS
331
246
102
}
  0
BLOCK_RECORD
  5
1BD0
102
{ACAD_XDICTIONARY
360
1D17
102
}
330
1
100
AcDbSymbolTableRecord
100
AcDbBlockTableRecord
  2
titleblock
340
0
102
{BLKREFS
331
1BDF
102
}
  0
ENDTAB
  0
ENDSEC
  0
SECTION
  2
BLOCKS
  0
BLOCK
  5
40
330
17
100
AcDbEntity
  8
0
100
AcDbBlockBegin
  2
*MODEL_SPACE
 70
     0
 10
0.0
 20
0.0
 30
0.0
  3
*MODEL_SPACE
  1

  0
ENDBLK
  5
41
330
17
100
AcDbEntity
  8
0
100
AcDbBlockEnd
  0
BLOCK
  5
3E
330
14
100
AcDbEntity
 67
     1
  8
0
100
AcDbBlockBegin
  2
*PAPER_SPACE
 70
     0
 10
0.0
 20
0.0
 30
0.0
  3
*PAPER_SPACE
  1

  0
ENDBLK
  5
3F
330
14
100
AcDbEntity
 67
     1
  8
0
100
AcDbBlockEnd
  0
BLOCK
  5
EC
330
1D
100
AcDbEntity
  8
0
100
AcDbBlockBegin
  2
*X0
 70
     1
 10
0.0
 20
0.0
 30
0.0
  3
*X0
  1

  0
LINE
  5
ED
330
1D
100
AcDbEntity
  8
0
 62
     0
100
AcDbLine
 10
2.108065548508725
 20
3.790251887828908
 30
0.0
 11
2.108065548508725
 21
3.790251887828908
 31
0.0
  0
LINE
  5
EE
330
1D
100
AcDbEntity
  8
0
 62
     0
100
AcDbLine
 10
2.236985466306051
 20
3.889175620042825
 30
0.0
 11
2.236985466306051
 21
3.889175620042825
 31
0.0
  0
LINE
  5
EF
330
1D
100
AcDbEntity
  8
0
 62
     0
100
AcDbLine
 10
2.357575174030319
 20
3.981707357252151
 30
0.0
 11
2.357575174030319
 21
3.981707357252151
 31
0.0
  0
LINE
  5
F0
330
1D
100
AcDbEntity
  8
0
 62
     0
100
AcDbLine
 10
1.717386519326661
 20
3.687989352375499
 30
0.0
 11
1.717386519326661
 21
3.687989352375499
 31
0.0
  0
LINE
  5
F1
330
1D
100
AcDbEntity
  8
0
 62
     0
100
AcDbLine
 10
1.846306437123987
 20
3.786913084589417
 30
0.0
 11
1.846306437123987
 21
3.786913084589417
 31
0.0
  0
LINE
  5
F2
330
1D
100
AcDbEntity
  8
0
 62
     0
100
AcDbLine
 10
2.101766212697765
 20
3.982934264730224
 30
0.0
 11
2.101766212697765
 21
3.982934264730224
 31
0.0
  0
LINE
  5
F3
330
1D
100
AcDbEntity
  8
0
 62
     0
100
AcDbLine
 10
1.455627407941922
 20
3.684650549136007
 30
0.0
 11
1.455627407941922
 21
3.684650549136007
 31
0.0
  0
LINE
  5
F4
330
1D
100
AcDbEntity
  8
0
 62
     0
100
AcDbLine
 10
1.57621711566619
 20
3.777182286345333
 30
0.0
 11
1.57621711566619
 21
3.777182286345333
 31
0.0
  0
LINE
  5
F5
330
1D
100
AcDbEntity
  8
0
 62
     0
100
AcDbLine
 10
1.7110871835157
 20
3.880671729276815
 30
0.0
 11
1.7110871835157
 21
3.880671729276815
 31
0.0
  0
LINE
  5
F6
330
1D
100
AcDbEntity
  8
0
 62
     0
100
AcDbLine
 10
1.840007101313026
 20
3.979595461490732
 30
0.0
 11
1.840007101313026
 21
3.979595461490732
 31
0.0
  0
LINE
  5
F7
330
1D
100
AcDbEntity
  8
0
 62
     0
100
AcDbLine
 10
1.185538086484126
 20
3.674919750891923
 30
0.0
 11
1.185538086484126
 21
3.674919750891923
 31
0.0
  0
LINE
  5
F8
330
1D
100
AcDbEntity
  8
0
 62
     0
100
AcDbLine
 10
1.320408154333636
 20
3.778409193823406
 30
0.0
 11
1.320408154333636
 21
3.778409193823406
 31
0.0
  0
LINE
  5
F9
330
1D
100
AcDbEntity
  8
0
 62
     0
100
AcDbLine
 10
1.449328072130962
 20
3.877332926037323
 30
0.0
 11
1.449328072130962
 21
3.877332926037323
 31
0.0
  0
LINE
  5
FA
330
1D
100
AcDbEntity
  8
0
 62
     0
100
AcDbLine
 10
1.569917779855229
 20
3.969864663246648
 30
0.0
 11
1.569917779855229
 21
3.969864663246648
 31
0.0
  0
LINE
  5
FB
330
1D
100
AcDbEntity
  8
0
 62
     0
100
AcDbLine
 10
1.058649042948897
 20
3.775070390583914
 30
0.0
 11
1.058649042948897
 21
3.775070390583914
 31
0.0
  0
LINE
  5
FC
330
1D
100
AcDbEntity
  8
0
 62
     0
100
AcDbLine
 10
1.179238750673165
 20
3.867602127793239
 30
0.0
 11
1.179238750673165
 21
3.867602127793239
 31
0.0
  0
LINE
  5
FD
330
1D
100
AcDbEntity
  8
0
 62
     0
100
AcDbLine
 10
1.314108818522675
 20
3.971091570724722
 30
0.0
 11
1.314108818522675
 21
3.971091570724722
 31
0.0
  0
LINE
  5
FE
330
1D
100
AcDbEntity
  8
0
 62
     0
100
AcDbLine
 10
1.052349707137936
 20
3.967752767485229
 30
0.0
 11
1.052349707137936
 21
3.967752767485229
 31
0.0
  0
LINE
  5
FF
330
1D
100
AcDbEntity
  8
0
 62
     0
100
AcDbLine
 10
2.243284802117012
 20
3.696493243141509
 30
0.0
 11
2.243284802117012
 21
3.696493243141509
 31
0.0
  0
LINE
  5
100
330
1D
100
AcDbEntity
  8
0
 62
     0
100
AcDbLine
 10
2.36387450984128
 20
3.789024980350835
 30
0.0
 11
2.36387450984128
 21
3.789024980350835
 31
0.0
  0
LINE
  5
101
330
1D
100
AcDbEntity
  8
0
 62
     0
100
AcDbLine
 10
2.49874457769079
 20
3.892514423282317
 30
0.0
 11
2.49874457769079
 21
3.892514423282317
 31
0.0
  0
LINE
  5
102
330
1D
100
AcDbEntity
  8
0
 62
     0
100
AcDbLine
 10
2.627664495488116
 20
3.991438155496235
 30
0.0
 11
2.627664495488116
 21
3.991438155496235
 31
0.0
  0
LINE
  5
103
330
1D
100
AcDbEntity
  8
0
 62
     0
100
AcDbLine
 10
2.50504391350175
 20
3.699832046381002
 30
0.0
 11
2.50504391350175
 21
3.699832046381002
 31
0.0
  0
LINE
  5
104
330
1D
100
AcDbEntity
  8
0
 62
     0
100
AcDbLine
 10
2.633963831299076
 20
3.798755778594919
 30
0.0
 11
2.633963831299076
 21
3.798755778594919
 31
0.0
  0
LINE
  5
105
330
1D
100
AcDbEntity
  8
0
 62
     0
100
AcDbLine
 10
2.754553539023344
 20
3.891287515804245
 30
0.0
 11
2.754553539023344
 21
3.891287515804245
 31
0.0
  0
LINE
  5
106
330
1D
100
AcDbEntity
  8
0
 62
     0
100
AcDbLine
 10
2.889423606872854
 20
3.994776958735727
 30
0.0
 11
2.889423606872854
 21
3.994776958735727
 31
0.0
  0
LINE
  5
107
330
1D
100
AcDbEntity
  8
0
 62
     0
100
AcDbLine
 10
2.760852874834305
 20
3.698605138902929
 30
0.0
 11
2.760852874834305
 21
3.698605138902929
 31
0.0
  0
LINE
  5
108
330
1D
100
AcDbEntity
  8
0
 62
     0
100
AcDbLine
 10
2.895722942683815
 20
3.802094581834411
 30
0.0
 11
2.895722942683815
 21
3.802094581834411
 31
0.0
  0
LINE
  5
109
330
1D
100
AcDbEntity
  8
0
 62
     0
100
AcDbLine
 10
2.248658861625921
 20
3.66193725970711
 30
0.0
 11
2.248658861625921
 21
3.66193725970711
 31
0.0
  0
LINE
  5
10A
330
1D
100
AcDbEntity
  8
0
 62
     0
100
AcDbLine
 10
2.300709716848046
 20
3.668789884798662
 30
0.0
 11
2.300709716848046
 21
3.668789884798662
 31
0.0
  0
LINE
  5
10B
330
1D
100
AcDbEntity
  8
0
 62
     0
100
AcDbLine
 10
2.382008195480698
 20
3.679493032560706
 30
0.0
 11
2.382008195480698
 21
3.679493032560706
 31
0.0
  0
LINE
  5
10C
330
1D
100
AcDbEntity
  8
0
 62
     0
100
AcDbLine
 10
2.51783614148891
 20
3.697375120894854
 30
0.0
 11
2.51783614148891
 21
3.697375120894854
 31
0.0
  0
LINE
  5
10D
330
1D
100
AcDbEntity
  8
0
 62
     0
100
AcDbLine
 10
2.569886996711035
 20
3.704227745986406
 30
0.0
 11
2.569886996711035
 21
3.704227745986406
 31
0.0
  0
LINE
  5
10E
330
1D
100
AcDbEntity
  8
0
 62
     0
100
AcDbLine
 10
2.651185475343688
 20
3.714930893748451
 30
0.0
 11
2.651185475343688
 21
3.714930893748451
 31
0.0
  0
LINE
  5
10F
330
1D
100
AcDbEntity
  8
0
 62
     0
100
AcDbLine
 10
2.7870134213519
 20
3.732812982082598
 30
0.0
 11
2.7870134213519
 21
3.732812982082598
 31
0.0
  0
LINE
  5
110
330
1D
100
AcDbEntity
  8
0
 62
     0
100
AcDbLine
 10
2.839064276574025
 20
3.73966560717415
 30
0.0
 11
2.839064276574025
 21
3.73966560717415
 31
0.0
  0
LINE
  5
111
330
1D
100
AcDbEntity
  8
0
 62
     0
100
AcDbLine
 10
2.920362755206677
 20
3.750368754936195
 30
0.0
 11
2.920362755206677
 21
3.750368754936195
 31
0.0
  0
LINE
  5
112
330
1D
100
AcDbEntity
  8
0
 62
     0
100
AcDbLine
 10
1.079750132837746
 20
3.766962560291363
 30
0.0
 11
1.079750132837746
 21
3.766962560291363
 31
0.0
  0
LINE
  5
113
330
1D
100
AcDbEntity
  8
0
 62
     0
100
AcDbLine
 10
1.131800988059871
 20
3.773815185382916
 30
0.0
 11
1.131800988059871
 21
3.773815185382916
 31
0.0
  0
LINE
  5
114
330
1D
100
AcDbEntity
  8
0
 62
     0
100
AcDbLine
 10
1.213099466692523
 20
3.78451833314496
 30
0.0
 11
1.213099466692523
 21
3.78451833314496
 31
0.0
  0
LINE
  5
115
330
1D
100
AcDbEntity
  8
0
 62
     0
100
AcDbLine
 10
1.348927412700735
 20
3.802400421479107
 30
0.0
 11
1.348927412700735
 21
3.802400421479107
 31
0.0
  0
LINE
  5
116
330
1D
100
AcDbEntity
  8
0
 62
     0
100
AcDbLine
 10
1.40097826792286
 20
3.80925304657066
 30
0.0
 11
1.40097826792286
 21
3.80925304657066
 31
0.0
  0
LINE
  5
117
330
1D
100
AcDbEntity
  8
0
 62
     0
100
AcDbLine
 10
1.482276746555513
 20
3.819956194332704
 30
0.0
 11
1.482276746555513
 21
3.819956194332704
 31
0.0
  0
LINE
  5
118
330
1D
100
AcDbEntity
  8
0
 62
     0
100
AcDbLine
 10
1.618104692563725
 20
3.837838282666851
 30
0.0
 11
1.618104692563725
 21
3.837838282666851
 31
0.0
  0
LINE
  5
119
330
1D
100
AcDbEntity
  8
0
 62
     0
100
AcDbLine
 10
1.67015554778585
 20
3.844690907758404
 30
0.0
 11
1.67015554778585
 21
3.844690907758404
 31
0.0
  0
LINE
  5
11A
330
1D
100
AcDbEntity
  8
0
 62
     0
100
AcDbLine
 10
1.751454026418503
 20
3.855394055520448
 30
0.0
 11
1.751454026418503
 21
3.855394055520448
 31
0.0
  0
LINE
  5
11B
330
1D
100
AcDbEntity
  8
0
 62
     0
100
AcDbLine
 10
1.887281972426715
 20
3.873276143854595
 30
0.0
 11
1.887281972426715
 21
3.873276143854595
 31
0.0
  0
LINE
  5
11C
330
1D
100
AcDbEntity
  8
0
 62
     0
100
AcDbLine
 10
2.020631306281492
 20
3.890831916708192
 30
0.0
 11
2.020631306281492
 21
3.890831916708192
 31
0.0
  0
LINE
  5
11D
330
1D
100
AcDbEntity
  8
0
 62
     0
100
AcDbLine
 10
2.156459252289704
 20
3.908714005042339
 30
0.0
 11
2.156459252289704
 21
3.908714005042339
 31
0.0
  0
LINE
  5
11E
330
1D
100
AcDbEntity
  8
0
 62
     0
100
AcDbLine
 10
2.208510107511829
 20
3.915566630133892
 30
0.0
 11
2.208510107511829
 21
3.915566630133892
 31
0.0
  0
LINE
  5
11F
330
1D
100
AcDbEntity
  8
0
 62
     0
100
AcDbLine
 10
2.289808586144482
 20
3.926269777895936
 30
0.0
 11
2.289808586144482
 21
3.926269777895936
 31
0.0
  0
LINE
  5
120
330
1D
100
AcDbEntity
  8
0
 62
     0
100
AcDbLine
 10
2.425636532152694
 20
3.944151866230083
 30
0.0
 11
2.425636532152694
 21
3.944151866230083
 31
0.0
  0
LINE
  5
121
330
1D
100
AcDbEntity
  8
0
 62
     0
100
AcDbLine
 10
2.477687387374819
 20
3.951004491321636
 30
0.0
 11
2.477687387374819
 21
3.951004491321636
 31
0.0
  0
LINE
  5
122
330
1D
100
AcDbEntity
  8
0
 62
     0
100
AcDbLine
 10
2.558985866007471
 20
3.96170763908368
 30
0.0
 11
2.558985866007471
 21
3.96170763908368
 31
0.0
  0
LINE
  5
123
330
1D
100
AcDbEntity
  8
0
 62
     0
100
AcDbLine
 10
2.694813812015683
 20
3.979589727417828
 30
0.0
 11
2.694813812015683
 21
3.979589727417828
 31
0.0
  0
LINE
  5
124
330
1D
100
AcDbEntity
  8
0
 62
     0
100
AcDbLine
 10
2.746864667237808
 20
3.98644235250938
 30
0.0
 11
2.746864667237808
 21
3.98644235250938
 31
0.0
  0
LINE
  5
125
330
1D
100
AcDbEntity
  8
0
 62
     0
100
AcDbLine
 10
2.828163145870461
 20
3.997145500271424
 30
0.0
 11
2.828163145870461
 21
3.997145500271424
 31
0.0
  0
LINE
  5
126
330
1D
100
AcDbEntity
  8
0
 62
     0
100
AcDbLine
 10
0.9875505235015292
 20
4.013739305626593
 30
0.0
 11
0.9875505235015292
 21
4.013739305626593
 31
0.0
  0
LINE
  5
127
330
1D
100
AcDbEntity
  8
0
 62
     0
100
AcDbLine
 10
1.039601378723654
 20
4.020591930718146
 30
0.0
 11
1.039601378723654
 21
4.020591930718146
 31
0.0
  0
LINE
  5
128
330
1D
100
AcDbEntity
  8
0
 62
     0
100
AcDbLine
 10
1.120899857356306
 20
4.03129507848019
 30
0.0
 11
1.120899857356306
 21
4.03129507848019
 31
0.0
  0
LINE
  5
129
330
1D
100
AcDbEntity
  8
0
 62
     0
100
AcDbLine
 10
1.256727803364519
 20
4.049177166814337
 30
0.0
 11
1.256727803364519
 21
4.049177166814337
 31
0.0
  0
LINE
  5
12A
330
1D
100
AcDbEntity
  8
0
 62
     0
100
AcDbLine
 10
1.308778658586644
 20
4.05602979190589
 30
0.0
 11
1.308778658586644
 21
4.05602979190589
 31
0.0
  0
LINE
  5
12B
330
1D
100
AcDbEntity
  8
0
 62
     0
100
AcDbLine
 10
1.698936483706016
 20
4.012222625296478
 30
0.0
 11
1.698936483706016
 21
4.012222625296478
 31
0.0
  0
LINE
  5
12C
330
1D
100
AcDbEntity
  8
0
 62
     0
100
AcDbLine
 10
1.74110605599666
 20
3.985357644879136
 30
0.0
 11
1.74110605599666
 21
3.985357644879136
 31
0.0
  0
LINE
  5
12D
330
1D
100
AcDbEntity
  8
0
 62
     0
100
AcDbLine
 10
1.89291651624298
 20
3.888643715376708
 30
0.0
 11
1.89291651624298
 21
3.888643715376708
 31
0.0
  0
LINE
  5
12E
330
1D
100
AcDbEntity
  8
0
 62
     0
100
AcDbLine
 10
2.091113506009008
 20
3.762378307415204
 30
0.0
 11
2.091113506009008
 21
3.762378307415204
 31
0.0
  0
LINE
  5
12F
330
1D
100
AcDbEntity
  8
0
 62
     0
100
AcDbLine
 10
2.133283078299652
 20
3.735513326997863
 30
0.0
 11
2.133283078299652
 21
3.735513326997863
 31
0.0
  0
LINE
  5
130
330
1D
100
AcDbEntity
  8
0
 62
     0
100
AcDbLine
 10
2.052520242171811
 20
3.985923550232833
 30
0.0
 11
2.052520242171811
 21
3.985923550232833
 31
0.0
  0
LINE
  5
131
330
1D
100
AcDbEntity
  8
0
 62
     0
100
AcDbLine
 10
2.20433070241813
 20
3.889209620730404
 30
0.0
 11
2.20433070241813
 21
3.889209620730404
 31
0.0
  0
LINE
  5
132
330
1D
100
AcDbEntity
  8
0
 62
     0
100
AcDbLine
 10
2.402527692184158
 20
3.762944212768901
 30
0.0
 11
2.402527692184158
 21
3.762944212768901
 31
0.0
  0
LINE
  5
133
330
1D
100
AcDbEntity
  8
0
 62
     0
100
AcDbLine
 10
2.444697264474803
 20
3.736079232351559
 30
0.0
 11
2.444697264474803
 21
3.736079232351559
 31
0.0
  0
LINE
  5
134
330
1D
100
AcDbEntity
  8
0
 62
     0
100
AcDbLine
 10
2.321764856056316
 20
4.01335443600387
 30
0.0
 11
2.321764856056316
 21
4.01335443600387
 31
0.0
  0
LINE
  5
135
330
1D
100
AcDbEntity
  8
0
 62
     0
100
AcDbLine
 10
2.36393442834696
 20
3.986489455586529
 30
0.0
 11
2.36393442834696
 21
3.986489455586529
 31
0.0
  0
LINE
  5
136
330
1D
100
AcDbEntity
  8
0
 62
     0
100
AcDbLine
 10
2.51574488859328
 20
3.889775526084101
 30
0.0
 11
2.51574488859328
 21
3.889775526084101
 31
0.0
  0
LINE
  5
137
330
1D
100
AcDbEntity
  8
0
 62
     0
100
AcDbLine
 10
2.713941878359308
 20
3.763510118122597
 30
0.0
 11
2.713941878359308
 21
3.763510118122597
 31
0.0
  0
LINE
  5
138
330
1D
100
AcDbEntity
  8
0
 62
     0
100
AcDbLine
 10
2.756111450649952
 20
3.736645137705256
 30
0.0
 11
2.756111450649952
 21
3.736645137705256
 31
0.0
  0
LINE
  5
139
330
1D
100
AcDbEntity
  8
0
 62
     0
100
AcDbLine
 10
2.633179042231465
 20
4.013920341357567
 30
0.0
 11
2.633179042231465
 21
4.013920341357567
 31
0.0
  0
LINE
  5
13A
330
1D
100
AcDbEntity
  8
0
 62
     0
100
AcDbLine
 10
2.675348614522109
 20
3.987055360940226
 30
0.0
 11
2.675348614522109
 21
3.987055360940226
 31
0.0
  0
LINE
  5
13B
330
1D
100
AcDbEntity
  8
0
 62
     0
100
AcDbLine
 10
2.827159074768428
 20
3.890341431437798
 30
0.0
 11
2.827159074768428
 21
3.890341431437798
 31
0.0
  0
LINE
  5
13C
330
1D
100
AcDbEntity
  8
0
 62
     0
100
AcDbLine
 10
2.944593228406615
 20
4.014486246711264
 30
0.0
 11
2.944593228406615
 21
4.014486246711264
 31
0.0
  0
LINE
  5
13D
330
1D
100
AcDbEntity
  8
0
 62
     0
100
AcDbLine
 10
1.387522297530868
 20
4.011656719942781
 30
0.0
 11
1.387522297530868
 21
4.011656719942781
 31
0.0
  0
LINE
  5
13E
330
1D
100
AcDbEntity
  8
0
 62
     0
100
AcDbLine
 10
1.429691869821512
 20
3.984791739525439
 30
0.0
 11
1.429691869821512
 21
3.984791739525439
 31
0.0
  0
LINE
  5
13F
330
1D
100
AcDbEntity
  8
0
 62
     0
100
AcDbLine
 10
1.581502330067831
 20
3.888077810023011
 30
0.0
 11
1.581502330067831
 21
3.888077810023011
 31
0.0
  0
LINE
  5
140
330
1D
100
AcDbEntity
  8
0
 62
     0
100
AcDbLine
 10
1.779699319833859
 20
3.761812402061508
 30
0.0
 11
1.779699319833859
 21
3.761812402061508
 31
0.0
  0
LINE
  5
141
330
1D
100
AcDbEntity
  8
0
 62
     0
100
AcDbLine
 10
1.821868892124504
 20
3.734947421644166
 30
0.0
 11
1.821868892124504
 21
3.734947421644166
 31
0.0
  0
LINE
  5
142
330
1D
100
AcDbEntity
  8
0
 62
     0
100
AcDbLine
 10
1.076108111355717
 20
4.011090814589085
 30
0.0
 11
1.076108111355717
 21
4.011090814589085
 31
0.0
  0
LINE
  5
143
330
1D
100
AcDbEntity
  8
0
 62
     0
100
AcDbLine
 10
1.118277683646362
 20
3.984225834171744
 30
0.0
 11
1.118277683646362
 21
3.984225834171744
 31
0.0
  0
LINE
  5
144
330
1D
100
AcDbEntity
  8
0
 62
     0
100
AcDbLine
 10
1.270088143892681
 20
3.887511904669315
 30
0.0
 11
1.270088143892681
 21
3.887511904669315
 31
0.0
  0
LINE
  5
145
330
1D
100
AcDbEntity
  8
0
 62
     0
100
AcDbLine
 10
1.468285133658709
 20
3.761246496707812
 30
0.0
 11
1.468285133658709
 21
3.761246496707812
 31
0.0
  0
LINE
  5
146
330
1D
100
AcDbEntity
  8
0
 62
     0
100
AcDbLine
 10
1.510454705949354
 20
3.73438151629047
 30
0.0
 11
1.510454705949354
 21
3.73438151629047
 31
0.0
  0
LINE
  5
147
330
1D
100
AcDbEntity
  8
0
 62
     0
100
AcDbLine
 10
0.9586739577175324
 20
3.886945999315618
 30
0.0
 11
0.9586739577175324
 21
3.886945999315618
 31
0.0
  0
LINE
  5
148
330
1D
100
AcDbEntity
  8
0
 62
     0
100
AcDbLine
 10
1.15687094748356
 20
3.760680591354114
 30
0.0
 11
1.15687094748356
 21
3.760680591354114
 31
0.0
  0
LINE
  5
149
330
1D
100
AcDbEntity
  8
0
 62
     0
100
AcDbLine
 10
1.199040519774204
 20
3.733815610936773
 30
0.0
 11
1.199040519774204
 21
3.733815610936773
 31
0.0
  0
LINE
  5
14A
330
1D
100
AcDbEntity
  8
0
 62
     0
100
AcDbLine
 10
1.417174071524071
 20
4.037115113469638
 30
0.0
 11
1.417174071524071
 21
4.037115113469638
 31
0.0
  0
LINE
  5
14B
330
1D
100
AcDbEntity
  8
0
 62
     0
100
AcDbLine
 10
1.516706511993438
 20
3.945910435441524
 30
0.0
 11
1.516706511993438
 21
3.945910435441524
 31
0.0
  0
LINE
  5
14C
330
1D
100
AcDbEntity
  8
0
 62
     0
100
AcDbLine
 10
1.535138445413691
 20
3.929020680251132
 30
0.0
 11
1.535138445413691
 21
3.929020680251132
 31
0.0
  0
LINE
  5
14D
330
1D
100
AcDbEntity
  8
0
 62
     0
100
AcDbLine
 10
1.622137171157286
 20
3.849301035752484
 30
0.0
 11
1.622137171157286
 21
3.849301035752484
 31
0.0
  0
LINE
  5
14E
330
1D
100
AcDbEntity
  8
0
 62
     0
100
AcDbLine
 10
1.721669611626652
 20
3.75809635772437
 30
0.0
 11
1.721669611626652
 21
3.75809635772437
 31
0.0
  0
LINE
  5
14F
330
1D
100
AcDbEntity
  8
0
 62
     0
100
AcDbLine
 10
1.740101545046905
 20
3.741206602533979
 30
0.0
 11
1.740101545046905
 21
3.741206602533979
 31
0.0
  0
LINE
  5
150
330
1D
100
AcDbEntity
  8
0
 62
     0
100
AcDbLine
 10
1.8271002707905
 20
3.661486958035331
 30
0.0
 11
1.8271002707905
 21
3.661486958035331
 31
0.0
  0
LINE
  5
151
330
1D
100
AcDbEntity
  8
0
 62
     0
100
AcDbLine
 10
1.817319172450666
 20
4.033677991934949
 30
0.0
 11
1.817319172450666
 21
4.033677991934949
 31
0.0
  0
LINE
  5
152
330
1D
100
AcDbEntity
  8
0
 62
     0
100
AcDbLine
 10
1.83575110587092
 20
4.016788236744557
 30
0.0
 11
1.83575110587092
 21
4.016788236744557
 31
0.0
  0
LINE
  5
153
330
1D
100
AcDbEntity
  8
0
 62
     0
100
AcDbLine
 10
2.022282272083882
 20
3.845863914217795
 30
0.0
 11
2.022282272083882
 21
3.845863914217795
 31
0.0
  0
LINE
  5
154
330
1D
100
AcDbEntity
  8
0
 62
     0
100
AcDbLine
 10
2.040714205504135
 20
3.828974159027404
 30
0.0
 11
2.040714205504135
 21
3.828974159027404
 31
0.0
  0
LINE
  5
155
330
1D
100
AcDbEntity
  8
0
 62
     0
100
AcDbLine
 10
2.127712931247729
 20
3.749254514528756
 30
0.0
 11
2.127712931247729
 21
3.749254514528756
 31
0.0
  0
LINE
  5
156
330
1D
100
AcDbEntity
  8
0
 62
     0
100
AcDbLine
 10
2.227245371717096
 20
3.658049836500642
 30
0.0
 11
2.227245371717096
 21
3.658049836500642
 31
0.0
  0
LINE
  5
157
330
1D
100
AcDbEntity
  8
0
 62
     0
100
AcDbLine
 10
2.223362492071744
 20
4.024836148739334
 30
0.0
 11
2.223362492071744
 21
4.024836148739334
 31
0.0
  0
LINE
  5
158
330
1D
100
AcDbEntity
  8
0
 62
     0
100
AcDbLine
 10
2.322894932541111
 20
3.93363147071122
 30
0.0
 11
2.322894932541111
 21
3.93363147071122
 31
0.0
  0
LINE
  5
159
330
1D
100
AcDbEntity
  8
0
 62
     0
100
AcDbLine
 10
2.341326865961364
 20
3.916741715520828
 30
0.0
 11
2.341326865961364
 21
3.916741715520828
 31
0.0
  0
LINE
  5
15A
330
1D
100
AcDbEntity
  8
0
 62
     0
100
AcDbLine
 10
2.428325591704958
 20
3.83702207102218
 30
0.0
 11
2.428325591704958
 21
3.83702207102218
 31
0.0
  0
LINE
  5
15B
330
1D
100
AcDbEntity
  8
0
 62
     0
100
AcDbLine
 10
2.527858032174325
 20
3.745817392994066
 30
0.0
 11
2.527858032174325
 21
3.745817392994066
 31
0.0
  0
LINE
  5
15C
330
1D
100
AcDbEntity
  8
0
 62
     0
100
AcDbLine
 10
2.546289965594578
 20
3.728927637803675
 30
0.0
 11
2.546289965594578
 21
3.728927637803675
 31
0.0
  0
LINE
  5
15D
330
1D
100
AcDbEntity
  8
0
 62
     0
100
AcDbLine
 10
2.623507592998341
 20
4.021399027204645
 30
0.0
 11
2.623507592998341
 21
4.021399027204645
 31
0.0
  0
LINE
  5
15E
330
1D
100
AcDbEntity
  8
0
 62
     0
100
AcDbLine
 10
2.641939526418594
 20
4.004509272014253
 30
0.0
 11
2.641939526418594
 21
4.004509272014253
 31
0.0
  0
LINE
  5
15F
330
1D
100
AcDbEntity
  8
0
 62
     0
100
AcDbLine
 10
2.728938252162188
 20
3.924789627515605
 30
0.0
 11
2.728938252162188
 21
3.924789627515605
 31
0.0
  0
LINE
  5
160
330
1D
100
AcDbEntity
  8
0
 62
     0
100
AcDbLine
 10
2.828470692631555
 20
3.833584949487491
 30
0.0
 11
2.828470692631555
 21
3.833584949487491
 31
0.0
  0
LINE
  5
161
330
1D
100
AcDbEntity
  8
0
 62
     0
100
AcDbLine
 10
2.846902626051808
 20
3.816695194297099
 30
0.0
 11
2.846902626051808
 21
3.816695194297099
 31
0.0
  0
LINE
  5
162
330
1D
100
AcDbEntity
  8
0
 62
     0
100
AcDbLine
 10
2.933901351795403
 20
3.736975549798451
 30
0.0
 11
2.933901351795403
 21
3.736975549798451
 31
0.0
  0
LINE
  5
163
330
1D
100
AcDbEntity
  8
0
 62
     0
100
AcDbLine
 10
1.011130751902993
 20
4.045956956665253
 30
0.0
 11
1.011130751902993
 21
4.045956956665253
 31
0.0
  0
LINE
  5
164
330
1D
100
AcDbEntity
  8
0
 62
     0
100
AcDbLine
 10
1.029562685323246
 20
4.029067201474861
 30
0.0
 11
1.029562685323246
 21
4.029067201474861
 31
0.0
  0
LINE
  5
165
330
1D
100
AcDbEntity
  8
0
 62
     0
100
AcDbLine
 10
1.116561411066841
 20
3.949347556976213
 30
0.0
 11
1.116561411066841
 21
3.949347556976213
 31
0.0
  0
LINE
  5
166
330
1D
100
AcDbEntity
  8
0
 62
     0
100
AcDbLine
 10
1.216093851536208
 20
3.858142878948099
 30
0.0
 11
1.216093851536208
 21
3.858142878948099
 31
0.0
  0
LINE
  5
167
330
1D
100
AcDbEntity
  8
0
 62
     0
100
AcDbLine
 10
1.234525784956461
 20
3.841253123757707
 30
0.0
 11
1.234525784956461
 21
3.841253123757707
 31
0.0
  0
LINE
  5
168
330
1D
100
AcDbEntity
  8
0
 62
     0
100
AcDbLine
 10
1.321524510700056
 20
3.761533479259059
 30
0.0
 11
1.321524510700056
 21
3.761533479259059
 31
0.0
  0
LINE
  5
169
330
1D
100
AcDbEntity
  8
0
 62
     0
100
AcDbLine
 10
1.421056951169422
 20
3.670328801230945
 30
0.0
 11
1.421056951169422
 21
3.670328801230945
 31
0.0
  0
LINE
  5
16A
330
1D
100
AcDbEntity
  8
0
 62
     0
100
AcDbLine
 10
1.020911850242827
 20
3.673765922765634
 30
0.0
 11
1.020911850242827
 21
3.673765922765634
 31
0.0
  0
ENDBLK
  5
16B
330
1D
100
AcDbEntity
  8
0
100
AcDbBlockEnd
  0
BLOCK
  5
1BDC
330
1BD0
100
AcDbEntity
  8
0
100
AcDbBlockBegin
  2
titleblock
 70
     2
 10
0.0
 20
0.0
 30
0.0
  3
titleblock
  1

  0
LWPOLYLINE
  5
1BD1
330
1BD0
100
AcDbEntity
  8
title
100
AcDbPolyline
 90
        4
 70
     1
 43
0.0
 10
0.0
 20
0.0
 10
9.586078490591596
 20
0.0
 10
9.586078490591596
 20
10.44
 10
0.0
 20
10.44
  0
ATTDEF
  5
1BD2
330
1BD0
100
AcDbEntity
  8
title
100
AcDbText
 10
0.5055556038023421
 20
0.7842270964783672
 30
0.0
 40
0.2
  1
D
  7
L200
 72
     4
 11
0.6064423705144839
 21
0.8842270964783672
 31
0.0
100
AcDbAttributeDefinition
  3
#
  2
D
 70
     0
  0
ATTDEF
  5
1BD3
330
1BD0
100
AcDbEntity
  8
title
100
AcDbText
 10
1.231442370514484
 20
1.34371230274675
 30
0.0
 40
0.2
  1

  7
L200
100
AcDbAttributeDefinition
  3
DETAIL TITLE TOP LINE
  2
TITLE1
 70
     0
  0
ATTDEF
  5
1BD4
330
1BD0
100
AcDbEntity
  8
title
100
AcDbText
 10
1.231442370514484
 20
0.9842270964783674
 30
0.0
 40
0.2
  1
TITLE
  7
L200
100
AcDbAttributeDefinition
  3
DETAIL TITLE TOP 2ND LINE
  2
TITLE2
 70
     0
  0
ATTDEF
  5
1BD5
330
1BD0
100
AcDbEntity
  8
title
100
AcDbText
 10
2.713645751168312
 20
0.5927927664583188
 30
0.0
 40
0.2
  1
TITLE2
  7
L200
100
AcDbAttributeDefinition
  3
DETAIL TITLE BOTTOM 1
  2
TITLE3
 70
     0
  0
ATTDEF
  5
1BD6
330
1BD0
100
AcDbEntity
  8
title
100
AcDbText
 10
2.713645751168312
 20
0.2692560808167741
 30
0.0
 40
0.2
  1

  7
L200
100
AcDbAttributeDefinition
  3
DETAIL TITLE BOTTOM 2
  2
TITLE4
 70
     0
  0
ATTDEF
  5
1BD7
330
1BD0
100
AcDbEntity
  8
title
 62
     7
100
AcDbText
 10
8.177214829966379
 20
0.9696027915446398
 30
0.0
 40
0.08
  1
-
  7
L80
 72
     2
 11
8.261024353775903
 21
0.9696027915446398
 31
0.0
100
AcDbAttributeDefinition
  3
REVISION DATE
  2
REVISED
 70
     0
  0
ATTDEF
  5
1BD8
330
1BD0
100
AcDbEntity
  8
title
 62
     7
100
AcDbText
 10
0.2639423705144838
 20
0.0847116480207215
 30
0.0
 40
0.08
  1
-
  7
L80
100
AcDbAttributeDefinition
  3
DWG-NAME
  2
DWG-NAME
 70
     0
  0
LWPOLYLINE
  5
1BD9
330
1BD0
100
AcDbEntity
  8
title
 62
     3
100
AcDbPolyline
 90
        2
 70
     1
 43
0.03
 10
0.6064423705144839
 20
0.5417270964783674
 42
0.9999999999999998
 10
0.6064423705144839
 20
1.226727096478367
 42
0.9999999999999998
  0
ATTDEF
  5
1BDA
330
1BD0
100
AcDbEntity
  8
title
 62
     7
100
AcDbText
 10
1.231442370514484
 20
0.7005637793954893
 30
0.0
 40
0.1
  1
N.T.S.
  7
L100
100
AcDbAttributeDefinition
  3
SCALE
  2
SCALE
 70
     0
  0
LWPOLYLINE
  5
1BDB
330
1BD0
100
AcDbEntity
  8
title
 62
     3
100
AcDbPolyline
 90
        2
 70
     0
 43
0.04
 39
0.03
 10
0.9489423705144833
 20
0.8842270964783672
 10
8.261024353775903
 20
0.8842270964783672
  0
ENDBLK
  5
1BDD
330
1BD0
100
AcDbEntity
  8
0
100
AcDbBlockEnd
  0
ENDSEC
  0
SECTION
  2
ENTITIES
  0
LINE
  5
1D4
330
17
100
AcDbEntity
  8
image
100
AcDbLine
 10
2.13026280419276
 20
1.812774702760838
 30
0.0
 11
1.790404914348329
 21
1.812774702760838
 31
0.0
  0
LINE
  5
234
330
17
100
AcDbEntity
  8
image
100
AcDbLine
 10
2.015785429112092
 20
3.749579431735453
 30
0.0
 11
3.032352234709958
 21
3.749579431735453
 31
0.0
  0
LINE
  5
235
330
17
100
AcDbEntity
  8
image
100
AcDbLine
 10
2.015785429112092
 20
3.3482862807449
 30
0.0
 11
3.032352234709958
 21
3.3482862807449
 31
0.0
  0
LINE
  5
236
330
17
100
AcDbEntity
  8
image
100
AcDbLine
 10
1.904882289428995
 20
3.3482862807449
 30
0.0
 11
0.8883154838311329
 21
3.3482862807449
 31
0.0
  0
LINE
  5
237
330
17
100
AcDbEntity
  8
image
100
AcDbLine
 10
1.904882289428995
 20
3.749579431735453
 30
0.0
 11
0.8883154838311329
 21
3.749579431735453
 31
0.0
  0
LINE
  5
238
330
17
100
AcDbEntity
  8
image
100
AcDbLine
 10
2.015785429112093
 20
4.644223164834097
 30
0.0
 11
2.015785429112092
 21
2.049172391656127
 31
0.0
  0
LINE
  5
239
330
17
100
AcDbEntity
  8
image
100
AcDbLine
 10
2.096646189228899
 20
1.812774702760838
 30
0.0
 11
2.096646189228899
 21
1.907694272246913
 31
0.0
  0
LINE
  5
23A
330
17
100
AcDbEntity
  8
image
100
AcDbLine
 10
1.824021529312188
 20
1.812774702760838
 30
0.0
 11
1.824021529312188
 21
1.907694272246913
 31
0.0
  0
LINE
  5
23C
330
17
100
AcDbEntity
  8
image
100
AcDbLine
 10
1.824021529312188
 20
1.907694272246913
 30
0.0
 11
2.096646189228899
 21
1.907694272246913
 31
0.0
  0
LINE
  5
23E
330
17
100
AcDbEntity
  8
image
100
AcDbLine
 10
1.824021529312188
 20
2.049172391656127
 30
0.0
 11
2.096646189228899
 21
2.049172391656127
 31
0.0
  0
LINE
  5
243
330
17
100
AcDbEntity
  8
image
100
AcDbLine
 10
1.904882289428995
 20
4.644223164834097
 30
0.0
 11
1.904882289428995
 21
2.049172391656127
 31
0.0
  0
LINE
  5
244
330
17
100
AcDbEntity
  8
image
100
AcDbLine
 10
1.904882289428995
 20
4.644223164834097
 30
0.0
 11
2.015785429112093
 21
4.644223164834097
 31
0.0
  0
INSERT
  5
246
330
17
100
AcDbEntity
  8
image
100
AcDbBlockReference
  2
*X0
 10
0.0
 20
-0.3065334979447738
 30
0.0
1001
ACAD
1000
HATCH
1002
{
1070
    16
1000
AR-SAND
1040
0.1
1040
0.0
1002
}
  0
TEXT
  5
2AF
330
17
100
AcDbEntity
  8
text_bubbles
100
AcDbText
 10
5.026044445808206
 20
3.168623069190149
 30
0.0
 40
0.125
  1
6
  7
ROMANS
 72
     4
 11
5.088544445808206
 21
3.231123069190149
 31
0.0
100
AcDbText
  0
CIRCLE
  5
2B0
330
17
100
AcDbEntity
  8
text_bubbles
100
AcDbCircle
 10
5.088544445808206
 20
3.231123069190149
 30
0.0
 40
0.15625
  0
CIRCLE
  5
2B5
330
17
100
AcDbEntity
  8
text_bubbles
100
AcDbCircle
 10
5.088544445808206
 20
4.124882325036731
 30
0.0
 40
0.15625
  0
TEXT
  5
2B6
330
17
100
AcDbEntity
  8
text_bubbles
100
AcDbText
 10
5.026044445808206
 20
4.056120673784688
 30
0.0
 40
0.125
  1
4
  7
ROMANS
 72
     4
 11
5.088544445808206
 21
4.118620673784688
 31
0.0
100
AcDbText
  0
CIRCLE
  5
2B7
330
17
100
AcDbEntity
  8
text_bubbles
100
AcDbCircle
 10
5.088544445808206
 20
4.541106811356087
 30
0.0
 40
0.15625
  0
TEXT
  5
2B8
330
17
100
AcDbEntity
  8
text_bubbles
100
AcDbText
 10
5.029020636284396
 20
4.465717478043882
 30
0.0
 40
0.125
  1
3
  7
ROMANS
 72
     4
 11
5.088544445808206
 21
4.528217478043882
 31
0.0
100
AcDbText
  0
CIRCLE
  5
2B9
330
17
100
AcDbEntity
  8
text_bubbles
100
AcDbCircle
 10
5.088544445808206
 20
4.946796981977502
 30
0.0
 40
0.15625
  0
TEXT
  5
2BA
330
17
100
AcDbEntity
  8
text_bubbles
100
AcDbText
 10
5.029020636284396
 20
4.884296981977502
 30
0.0
 40
0.125
  1
2
  7
ROMANS
 72
     4
 11
5.088544445808206
 21
4.946796981977502
 31
0.0
100
AcDbText
  0
CIRCLE
  5
2BB
330
17
100
AcDbEntity
  8
text_bubbles
100
AcDbCircle
 10
5.088544445808206
 20
3.669992390435742
 30
0.0
 40
0.15625
  0
TEXT
  5
2BC
330
17
100
AcDbEntity
  8
text_bubbles
100
AcDbText
 10
5.029020636284396
 20
3.607492390435742
 30
0.0
 40
0.125
  1
5
  7
ROMANS
 72
     4
 11
5.088544445808206
 21
3.669992390435742
 31
0.0
100
AcDbText
  0
LINE
  5
3D6
330
17
100
AcDbEntity
  8
image
100
AcDbLine
 10
1.997016853102846
 20
4.644541642753231
 30
0.0
 11
2.001281519308852
 21
4.649743867475311
 31
0.0
  0
LINE
  5
3D7
330
17
100
AcDbEntity
  8
image
100
AcDbLine
 10
1.928804616064062
 20
4.644541642753231
 30
0.0
 11
1.924539949858055
 21
4.649743867475311
 31
0.0
  0
LINE
  5
3D8
330
17
100
AcDbEntity
  8
image
100
AcDbLine
 10
1.962910734583453
 20
4.737792817544469
 30
0.0
 11
1.859304850757484
 21
4.737792817544469
 31
0.0
  0
LINE
  5
3D9
330
17
100
AcDbEntity
  8
image
100
AcDbLine
 10
1.962910734583453
 20
4.658795613655235
 30
0.0
 11
1.859304850757484
 21
4.658795613655235
 31
0.0
  0
LINE
  5
3DA
330
17
100
AcDbEntity
  8
image
100
AcDbLine
 10
1.962910734583453
 20
4.649743867475311
 30
0.0
 11
1.859304850757484
 21
4.649743867475311
 31
0.0
  0
LINE
  5
3DB
330
17
100
AcDbEntity
  8
image
100
AcDbLine
 10
1.859304850757483
 20
4.649743867475311
 30
0.0
 11
1.859304850757483
 21
4.737792817544469
 31
0.0
  0
LINE
  5
3E0
330
17
100
AcDbEntity
  8
image
100
AcDbLine
 10
1.962910734583454
 20
4.737792817544469
 30
0.0
 11
2.066516618409423
 21
4.737792817544469
 31
0.0
  0
LINE
  5
3E1
330
17
100
AcDbEntity
  8
image
100
AcDbLine
 10
1.962910734583454
 20
4.649743867475311
 30
0.0
 11
2.066516618409423
 21
4.649743867475311
 31
0.0
  0
LINE
  5
3E2
330
17
100
AcDbEntity
  8
image
100
AcDbLine
 10
1.962910734583454
 20
4.658795613655235
 30
0.0
 11
2.066516618409423
 21
4.658795613655235
 31
0.0
  0
LINE
  5
3E7
330
17
100
AcDbEntity
  8
image
100
AcDbLine
 10
2.066516618409424
 20
4.649743867475311
 30
0.0
 11
2.066516618409424
 21
4.737792817544469
 31
0.0
  0
LINE
  5
47B
330
17
100
AcDbEntity
  8
image
100
AcDbLine
 10
2.066516618409426
 20
4.649743867475311
 30
0.0
 11
2.066516618409426
 21
4.737792817544469
 31
0.0
  0
LINE
  5
480
330
17
100
AcDbEntity
  8
image
100
AcDbLine
 10
1.962910734583456
 20
4.658795613655235
 30
0.0
 11
2.066516618409425
 21
4.658795613655235
 31
0.0
  0
LINE
  5
481
330
17
100
AcDbEntity
  8
image
100
AcDbLine
 10
1.962910734583456
 20
4.649743867475311
 30
0.0
 11
2.066516618409425
 21
4.649743867475311
 31
0.0
  0
LINE
  5
482
330
17
100
AcDbEntity
  8
image
100
AcDbLine
 10
1.962910734583456
 20
4.737792817544469
 30
0.0
 11
2.066516618409425
 21
4.737792817544469
 31
0.0
  0
LINE
  5
487
330
17
100
AcDbEntity
  8
image
100
AcDbLine
 10
1.859304850757485
 20
4.649743867475311
 30
0.0
 11
1.859304850757485
 21
4.737792817544469
 31
0.0
  0
LINE
  5
488
330
17
100
AcDbEntity
  8
image
100
AcDbLine
 10
1.962910734583455
 20
4.649743867475311
 30
0.0
 11
1.859304850757486
 21
4.649743867475311
 31
0.0
  0
LINE
  5
489
330
17
100
AcDbEntity
  8
image
100
AcDbLine
 10
1.962910734583455
 20
4.658795613655235
 30
0.0
 11
1.859304850757486
 21
4.658795613655235
 31
0.0
  0
LINE
  5
48A
330
17
100
AcDbEntity
  8
image
100
AcDbLine
 10
1.962910734583455
 20
4.737792817544469
 30
0.0
 11
1.859304850757486
 21
4.737792817544469
 31
0.0
  0
LINE
  5
48B
330
17
100
AcDbEntity
  8
image
100
AcDbLine
 10
1.928804616064064
 20
4.644541642753231
 30
0.0
 11
1.924539949858057
 21
4.649743867475311
 31
0.0
  0
LINE
  5
48C
330
17
100
AcDbEntity
  8
image
100
AcDbLine
 10
1.997016853102847
 20
4.644541642753231
 30
0.0
 11
2.001281519308854
 21
4.649743867475311
 31
0.0
  0
TEXT
  5
517
330
17
100
AcDbEntity
  8
text_bubbles
100
AcDbText
 10
4.144473244521643
 20
3.726433347853366
 30
0.0
 40
0.125
  1
3
  7
ROMANS
 72
     4
 11
4.203997054045452
 21
3.788933347853366
 31
0.0
100
AcDbText
  0
CIRCLE
  5
518
330
17
100
AcDbEntity
  8
text_bubbles
100
AcDbCircle
 10
4.203997054045452
 20
3.788933347853366
 30
0.0
 40
0.15625
  0
TEXT
  5
519
330
17
100
AcDbEntity
  8
text_bubbles
100
AcDbText
 10
4.141848029470982
 20
2.822360279282766
 30
0.0
 40
0.125
  1
4
  7
ROMANS
 72
     4
 11
4.204348029470982
 21
2.884860279282766
 31
0.0
100
AcDbText
  0
CIRCLE
  5
51A
330
17
100
AcDbEntity
  8
text_bubbles
100
AcDbCircle
 10
4.204348029470982
 20
2.884860279282766
 30
0.0
 40
0.15625
  0
TEXT
  5
51D
330
17
100
AcDbEntity
  8
text_bubbles
100
AcDbText
 10
4.14157090581591
 20
2.045441758751227
 30
0.0
 40
0.125
  1
6
  7
ROMANS
 72
     4
 11
4.20407090581591
 21
2.107941758751227
 31
0.0
100
AcDbText
  0
CIRCLE
  5
51E
330
17
100
AcDbEntity
  8
text_bubbles
100
AcDbCircle
 10
4.20407090581591
 20
2.107941758751227
 30
0.0
 40
0.15625
  0
HATCH
  5
57C
330
17
100
AcDbEntity
  8
image
100
AcDbHatch
 10
0.0
 20
0.0
 30
0.0
210
0.0
220
0.0
230
1.0
  2
EARTH
 70
     0
 71
     0
 91
        2
 92
        7
 72
     0
 73
     1
 93
       11
 10
1.904882289428995
 20
3.3482862807449
 10
0.9790034941438818
 20
3.3482862807449
 10
0.9901604917312313
 20
3.205548276278377
 10
1.031069534166728
 20
3.090351769190172
 10
1.064540526928788
 20
3.001167392969709
 10
1.083135535728174
 20
2.945427157831925
 10
1.164953582137763
 20
2.874822838853947
 10
1.406688734991208
 20
2.815366588040308
 10
1.510820776575499
 20
2.770774399930079
 10
1.689332891818744
 20
2.78935447830934
 10
1.904882289428995
 20
2.781922446957636
 97
        0
 92
        7
 72
     0
 73
     1
 93
        7
 10
2.961231616773367
 20
3.3482862807449
 10
2.015785429112092
 20
3.3482862807449
 10
2.015785429112093
 20
2.774490415605932
 10
2.440571331929099
 20
2.785638462633488
 10
2.578174404736849
 20
2.852526744798833
 10
2.81619053275358
 20
2.882254870205652
 10
2.88685158157581
 20
3.042043565404086
 97
        0
 75
     0
 76
     1
 52
45.0
 41
0.65
 77
     0
 78
     6
 53
45.0
 43
0.0
 44
-0.3065334979447738
 45
0.0
 46
0.2298097038856279
 79
     2
 49
0.1625
 49
-0.1625
 53
45.0
 43
-0.0430893194785553
 44
-0.2634441784662185
 45
0.0
 46
0.2298097038856279
 79
     2
 49
0.1625
 49
-0.1625
 53
45.0
 43
-0.0861786389571105
 44
-0.2203548589876633
 45
0.0
 46
0.2298097038856279
 79
     2
 49
0.1625
 49
-0.1625
 53
135.0
 43
-0.0861786389571105
 44
-0.1916286460019598
 45
-0.2298097038856279
 46
0.0
 79
     2
 49
0.1625
 49
-0.1625
 53
135.0
 43
-0.0430893194785552
 44
-0.1485393265234046
 45
-0.2298097038856279
 46
0.0
 79
     2
 49
0.1625
 49
-0.1625
 53
135.0
 43
0.0
 44
-0.1054500070448494
 45
-0.2298097038856279
 46
0.0
 79
     2
 49
0.1625
 49
-0.1625
 47
0.0037160160149452
 98
        2
 10
1.618671842996512
 20
2.956575204859482
 10
2.440571331929099
 20
3.086635753514318
  0
LINE
  5
6AC
330
17
100
AcDbEntity
  8
image
100
AcDbLine
 10
1.904882289428995
 20
4.644223164834097
 30
0.0
 11
1.904882289428995
 21
2.049172391656127
 31
0.0
  0
LINE
  5
6AD
330
17
100
AcDbEntity
  8
image
100
AcDbLine
 10
2.015785429112093
 20
4.644223164834097
 30
0.0
 11
2.015785429112092
 21
2.049172391656127
 31
0.0
  0
LINE
  5
6AE
330
17
100
AcDbEntity
  8
image
100
AcDbLine
 10
1.904882289428995
 20
4.644223164834097
 30
0.0
 11
2.015785429112093
 21
4.644223164834097
 31
0.0
  0
LINE
  5
6B1
330
17
100
AcDbEntity
  8
image
100
AcDbLine
 10
1.904882289428996
 20
4.644223164834097
 30
0.0
 11
2.015785429112094
 21
4.644223164834097
 31
0.0
  0
LINE
  5
6BB
330
17
100
AcDbEntity
  8
image
100
AcDbLine
 10
1.904882289428996
 20
4.644223164834097
 30
0.0
 11
1.904882289428995
 21
2.049172391656127
 31
0.0
  0
LINE
  5
6BC
330
17
100
AcDbEntity
  8
image
100
AcDbLine
 10
2.015785429112094
 20
4.644223164834097
 30
0.0
 11
2.015785429112092
 21
2.049172391656127
 31
0.0
  0
CIRCLE
  5
123B
330
17
100
AcDbEntity
  8
text_bubbles
100
AcDbCircle
 10
5.088544445808206
 20
5.567302480910078
 30
0.0
 40
0.15625
  0
TEXT
  5
123C
330
17
100
AcDbEntity
  8
text_bubbles
100
AcDbText
 10
5.037949207712967
 20
5.504802480910078
 30
0.0
 40
0.125
  1
1
  7
ROMANS
 72
     4
 11
5.088544445808206
 21
5.567302480910078
 31
0.0
100
AcDbText
  0
CIRCLE
  5
12B8
330
17
100
AcDbEntity
  8
text_bubbles
100
AcDbCircle
 10
4.213171425485854
 20
4.219011548949823
 30
0.0
 40
0.15625
  0
TEXT
  5
12B9
330
17
100
AcDbEntity
  8
text_bubbles
100
AcDbText
 10
4.153647615962045
 20
4.156511548949823
 30
0.0
 40
0.125
  1
2
  7
ROMANS
 72
     4
 11
4.213171425485854
 21
4.219011548949823
 31
0.0
100
AcDbText
  0
CIRCLE
  5
12BD
330
17
100
AcDbEntity
  8
text_bubbles
100
AcDbCircle
 10
4.204348029470982
 20
2.47088069259302
 30
0.0
 40
0.15625
  0
TEXT
  5
12BE
330
17
100
AcDbEntity
  8
text_bubbles
100
AcDbText
 10
4.144824219947173
 20
2.395393096137824
 30
0.0
 40
0.125
  1
5
  7
ROMANS
 72
     4
 11
4.204348029470982
 21
2.457893096137824
 31
0.0
100
AcDbText
  0
LEADER
  5
1B85
330
17
100
AcDbEntity
  8
text_bubbles
100
AcDbLeader
  3
STANDARD
 76
     2
 10
2.06839464148373
 20
4.692392691371853
 30
0.0
 10
4.060670504100606
 20
5.310511381722505
 30
0.0
  0
TEXT
  5
1B8D
330
17
100
AcDbEntity
  8
text_bubbles
100
AcDbText
 10
4.162576187390616
 20
5.282033895983659
 30
0.0
 40
0.125
  1
1
  7
ROMANS
 72
     4
 11
4.213171425485854
 21
5.344533895983659
 31
0.0
100
AcDbText
  0
CIRCLE
  5
1B8E
330
17
100
AcDbEntity
  8
text_bubbles
100
AcDbCircle
 10
4.213171425485854
 20
5.344533895983659
 30
0.0
 40
0.15625
  0
INSERT
  5
1BDF
330
17
100
AcDbEntity
  8
title
100
AcDbBlockReference
 66
     1
  2
titleblock
 10
0.3016247911453088
 20
-3.564081505678487
 30
0.0
  0
ATTRIB
  5
1BE0
330
1BDF
100
AcDbEntity
  8
title
100
AcDbText
 10
0.8071803949476507
 20
-2.77985440920012
 30
0.0
 40
0.2
  1
D
  7
L200
 72
     4
 11
0.9080671616597925
 21
-2.67985440920012
 31
0.0
100
AcDbAttribute
  2
D
 70
     0
  0
ATTRIB
  5
1BE1
330
1BDF
100
AcDbEntity
  8
title
100
AcDbText
 10
1.533067161659793
 20
-2.220369202931737
 30
0.0
 40
0.2
  1
XERI-BUG 1032 THREADED EMITTER ON 
  7
L200
100
AcDbAttribute
  2
TITLE1
 70
     0
  0
ATTRIB
  5
1BE2
330
1BDF
100
AcDbEntity
  8
title
100
AcDbText
 10
1.533067161659793
 20
-2.57985440920012
 30
0.0
 40
0.2
  1
POLYFLEX RISER INTO 1/2" POLYETHYLENE
  7
L200
100
AcDbAttribute
  2
TITLE2
 70
     0
  0
ATTRIB
  5
1BE3
330
1BDF
100
AcDbEntity
  8
title
100
AcDbText
 10
3.015270542313621
 20
-2.971288739220169
 30
0.0
 40
0.2
  1
TUBING - OPTION 1B
  7
L200
100
AcDbAttribute
  2
TITLE3
 70
     0
  0
ATTRIB
  5
1BE4
330
1BDF
100
AcDbEntity
  8
title
100
AcDbText
 10
3.015270542313621
 20
-3.294825424861713
 30
0.0
 40
0.2
  1

  7
L200
100
AcDbAttribute
  2
TITLE4
 70
     0
  0
ATTRIB
  5
1BE5
330
1BDF
100
AcDbEntity
  8
title
 62
     7
100
AcDbText
 10
7.995030097302165
 20
-2.594478714133847
 30
0.0
 40
0.08
  1
1-14-10
  7
L80
 72
     2
 11
8.562649144921213
 21
-2.594478714133847
 31
0.0
100
AcDbAttribute
  2
REVISED
 70
     0
  0
ATTRIB
  5
1BE6
330
1BDF
100
AcDbEntity
  8
title
 62
     7
100
AcDbText
 10
0.5655671616597927
 20
-3.479369857657766
 30
0.0
 40
0.08
  1
Xeri-bug 1032 Option 1B.dwg
  7
L80
100
AcDbAttribute
  2
DWG-NAME
 70
     0
  0
ATTRIB
  5
1BE7
330
1BDF
100
AcDbEntity
  8
title
 62
     7
100
AcDbText
 10
1.533067161659793
 20
-2.863517726282998
 30
0.0
 40
0.1
  1
N.T.S.
  7
L100
100
AcDbAttribute
  2
SCALE
 70
     0
  0
SEQEND
  5
1BE8
330
1BDF
100
AcDbEntity
  8
title
  0
MTEXT
  5
1DBE
102
{ACAD_XDICTIONARY
360
203D
102
}
330
17
100
AcDbEntity
  8
text_bubbles
100
AcDbMText
 10
5.380252533939543
 20
5.636202254550751
 30
0.0
 40
0.125
 41
4.364970411884159
 71
     1
 72
     5
  3
\A1;\pi-0.25,l0.25;SINGLE-OUTLET 10-32 THREADED INLET X BARB OUTLET EMITTER:\P  RAIN BIRD XERI-BUG 1032 EMITTER\P\pi0,l0;{\A0;TOP OF MULCH \P\PFINISH GRADE \P\P\pi-0.25,l0.25;POLYFLEX RISER AND ADAPTER ASSEMBLY:    RAIN BIRD PFR-FRA    \P\pi0,l0;\A1;
  3
\H0.7x;\S1#2;\H1.4286x;" FEMALE PIPE THREAD ADAPTER:\P  RAIN BIRD MDCF50FPT\P\H0.7x;\S1#2;\H1.4286x;" COMPRESSION FITTING TEE:\P  RAIN BIRD MDCFTEE\P\H0.7x;\S1#2;\H1.4286x;" POLYETHYLENE TUBING:\P  RAIN BIRD XF SERIES TUBING OR\P  RAIN BIRD XT-700 XE
  1
RI-TUBE OR\P  RAIN BIRD XBS BLACK STRIPE TUBING }
  7
ROMANS
 73
     1
 44
1.0
  0
LEADER
  5
1DC8
330
17
100
AcDbEntity
  8
text_bubbles
100
AcDbLeader
  3
STANDARD
 76
     2
 10
2.950970265625873
 20
3.749579431735453
 30
0.0
 10
4.066722013564223
 20
4.164544749449499
 30
0.0
1001
ACAD
1000
DSTYLE
1002
{
1070
    44
1040
0.125
1070
   140
1040
0.125
1070
   176
1070
   256
1070
   177
1070
   256
1070
   178
1070
   256
1070
   279
1070
     2
1070
   340
1005
1F
1070
   371
1070
    -1
1070
   372
1070
    -1
1002
}
  0
LEADER
  5
1DC9
330
17
100
AcDbEntity
  8
text_bubbles
100
AcDbLeader
  3
STANDARD
 76
     2
 10
3.032352234709958
 20
3.3482862807449
 30
0.0
 10
4.057748226271284
 20
3.733930230899127
 30
0.0
1001
ACAD
1000
DSTYLE
1002
{
1070
    44
1040
0.125
1070
   140
1040
0.125
1070
   176
1070
   256
1070
   177
1070
   256
1070
   178
1070
   256
1070
   279
1070
     2
1070
   340
1005
1F
1070
   371
1070
    -1
1070
   372
1070
    -1
1002
}
  0
LEADER
  5
1DCA
330
17
100
AcDbEntity
  8
text_bubbles
100
AcDbLeader
  3
STANDARD
 76
     2
 10
2.096646189228899
 20
2.049172391656127
 30
0.0
 10
4.059098532567025
 20
2.827269948938623
 30
0.0
1001
ACAD
1000
DSTYLE
1002
{
1070
    44
1040
0.125
1070
   140
1040
0.125
1070
   176
1070
   256
1070
   177
1070
   256
1070
   178
1070
   256
1070
   279
1070
     2
1070
   340
1005
1F
1070
   371
1070
    -1
1070
   372
1070
    -1
1002
}
  0
MTEXT
  5
1DED
102
{ACAD_XDICTIONARY
360
203F
102
}
330
17
100
AcDbEntity
  8
image
100
AcDbMText
 10
0.6407394915791707
 20
-0.0303323872223749
 30
0.0
 40
0.125
 41
8.964678783163668
 71
     1
 72
     5
  1
NOTE: \P\pi-0.375,l0.375,t0.375;1. RAIN BIRD XERI-BUG 10-32 THREADED INLET X BARB OUTLET EMITTERS ARE AVAILABLE IN THE FOLLOWING MODELS:\P\pt0.375,0.5,3,3.5,6,6.5;^I^IXB-05PC-1032 0.5 GPH^I^IXB-10PC-1032 1.0 GPH^I^IXB-20PC-1032 2.0 GPH 
  7
ROMANS
 73
     1
 44
1.0
  0
LWPOLYLINE
  5
1E93
330
17
100
AcDbEntity
  8
image
100
AcDbPolyline
 90
        3
 70
     0
 43
0.0
 10
1.48429555283799
 20
0.5617369838729476
 10
2.452140132836947
 20
0.5617369838729476
 10
2.452140132836947
 20
0.5617369838729476
  0
LINE
  5
1E94
330
17
100
AcDbEntity
  8
image
100
AcDbLine
 10
1.766636293747712
 20
1.247110230880287
 30
0.0
 11
1.766636293747712
 21
1.012659273392793
 31
0.0
  0
ARC
  5
1E95
330
17
100
AcDbEntity
  8
image
100
AcDbCircle
 10
1.718714352944491
 20
1.012659273392793
 30
0.0
 40
0.0479219408032176
100
AcDbArc
 50
270.0000000000005
 51
0.0000000000005089
  0
LINE
  5
1E96
330
17
100
AcDbEntity
  8
image
100
AcDbLine
 10
1.718714352944491
 20
0.9647373325895751
 30
0.0
 11
1.484295552837992
 21
0.9647373325895751
 31
0.0
  0
LINE
  5
1E97
330
17
100
AcDbEntity
  8
image
100
AcDbLine
 10
1.08968944915577
 20
0.9647373325895751
 30
0.0
 11
1.08968944915577
 21
0.5617369838729476
 31
0.0
  0
LINE
  5
1E98
330
17
100
AcDbEntity
  8
image
100
AcDbLine
 10
1.484295552837992
 20
0.9742167488006108
 30
0.0
 11
1.48429555283799
 21
0.552257567661912
 31
0.0
  0
LINE
  5
1E99
330
17
100
AcDbEntity
  8
image
100
AcDbLine
 10
1.484295552837992
 20
0.9742167488006108
 30
0.0
 11
1.08968944915577
 21
0.9647373325895751
 31
0.0
  0
LWPOLYLINE
  5
1E9A
330
17
100
AcDbEntity
  8
image
100
AcDbPolyline
 90
        2
 70
     0
 43
0.0
 10
1.08968944915577
 20
0.5617369838729476
 10
1.48429555283799
 20
0.552257567661912
  0
LINE
  5
1E9B
330
17
100
AcDbEntity
  8
image
100
AcDbLine
 10
1.08968944915577
 20
0.7482573160554807
 30
0.0
 11
1.48429555283799
 21
0.7482573160554807
 31
0.0
  0
LINE
  5
1E9C
330
17
100
AcDbEntity
  8
image
100
AcDbLine
 10
1.08968944915577
 20
0.7782170004070429
 30
0.0
 11
1.48429555283799
 21
0.7782170004070429
 31
0.0
  0
LINE
  5
1E9D
330
17
100
AcDbEntity
  8
image
100
AcDbLine
 10
1.766636293747712
 20
1.671296583351623
 30
0.0
 11
2.16979939192723
 21
1.671296583351623
 31
0.0
  0
LINE
  5
1E9E
330
17
100
AcDbEntity
  8
image
100
AcDbLine
 10
2.169799391927228
 20
1.247110230880287
 30
0.0
 11
2.169799391927228
 21
1.012659273392793
 31
0.0
  0
ARC
  5
1E9F
330
17
100
AcDbEntity
  8
image
100
AcDbCircle
 10
2.217721332730449
 20
1.012659273392795
 30
0.0
 40
0.0479219408032184
100
AcDbArc
 50
180.0000000000004
 51
270.0000000000005
  0
LINE
  5
1EA0
330
17
100
AcDbEntity
  8
image
100
AcDbLine
 10
2.217721332730449
 20
0.9647373325895751
 30
0.0
 11
2.452140132836947
 21
0.9647373325895751
 31
0.0
  0
LINE
  5
1EA1
330
17
100
AcDbEntity
  8
image
100
AcDbLine
 10
2.891238965968726
 20
0.9647373325895751
 30
0.0
 11
2.891238965968726
 21
0.5617369838729476
 31
0.0
  0
LINE
  5
1EA2
330
17
100
AcDbEntity
  8
image
100
AcDbLine
 10
2.452140132836947
 20
0.9742167488006108
 30
0.0
 11
2.452140132836947
 21
0.552257567661912
 31
0.0
  0
LWPOLYLINE
  5
1EA3
330
17
100
AcDbEntity
  8
image
100
AcDbPolyline
 90
        2
 70
     0
 43
0.0
 10
2.891238965968726
 20
0.5617369838729476
 10
2.452140132836947
 20
0.552257567661912
  0
LINE
  5
1EA4
330
17
100
AcDbEntity
  8
image
100
AcDbLine
 10
2.891238965968726
 20
0.7782170004070429
 30
0.0
 11
2.452140132836947
 21
0.7782170004070429
 31
0.0
  0
LINE
  5
1EA5
330
17
100
AcDbEntity
  8
image
100
AcDbLine
 10
2.891238965968726
 20
0.7482573160554807
 30
0.0
 11
2.452140132836947
 21
0.7482573160554807
 31
0.0
  0
LINE
  5
1EA6
330
17
100
AcDbEntity
  8
image
100
AcDbLine
 10
2.452140132836947
 20
0.9742167488006108
 30
0.0
 11
2.891238965968726
 21
0.9647373325895751
 31
0.0
  0
LINE
  5
1EA7
330
17
100
AcDbEntity
  8
image
100
AcDbLine
 10
2.17919743340682
 20
1.247110230880287
 30
0.0
 11
1.757238252268118
 21
1.247110230880287
 31
0.0
  0
LWPOLYLINE
  5
1EA8
330
17
100
AcDbEntity
  8
image
100
AcDbPolyline
 90
        2
 70
     0
 43
0.0
 10
1.766717668479157
 20
1.671296583351623
 10
1.757238252268118
 20
1.247110230880287
  0
LINE
  5
1EA9
330
17
100
AcDbEntity
  8
image
100
AcDbLine
 10
1.983197685013251
 20
1.671296583351623
 30
0.0
 11
1.983197685013251
 21
1.247110230880287
 31
0.0
  0
LINE
  5
1EAA
330
17
100
AcDbEntity
  8
image
100
AcDbLine
 10
1.953238000661688
 20
1.671296583351623
 30
0.0
 11
1.953238000661684
 21
1.247110230880287
 31
0.0
  0
LINE
  5
1EAB
330
17
100
AcDbEntity
  8
image
100
AcDbLine
 10
2.179197433406818
 20
1.247110230880287
 30
0.0
 11
2.169718017195784
 21
1.671296583351623
 31
0.0
  0
LINE
  5
1EAC
330
17
100
AcDbEntity
  8
image
100
AcDbLine
 10
0.6255919116207214
 20
0.9222037819279144
 30
0.0
 11
1.08968944915577
 21
0.922203781927916
 31
0.0
  0
LINE
  5
1EE9
330
17
100
AcDbEntity
  8
image
100
AcDbLine
 10
0.6255919116207214
 20
0.6139820550539717
 30
0.0
 11
1.08968944915577
 21
0.6139820550539717
 31
0.0
  0
LINE
  5
1EEA
330
17
100
AcDbEntity
  8
image
100
AcDbLine
 10
2.891238965968726
 20
0.9222037819279155
 30
0.0
 11
3.432570504804721
 21
0.9222037819279144
 31
0.0
  0
LINE
  5
1EEB
330
17
100
AcDbEntity
  8
image
100
AcDbLine
 10
2.891238965968726
 20
0.6139820550539717
 30
0.0
 11
3.432570504804721
 21
0.6139820550539717
 31
0.0
  0
LINE
  5
1EEC
330
17
100
AcDbEntity
  8
image
100
AcDbLine
 10
2.067693844915072
 20
1.70848040666206
 30
0.0
 11
2.06769384491507
 21
1.671296583351623
 31
0.0
  0
LINE
  5
1EED
330
17
100
AcDbEntity
  8
image
100
AcDbLine
 10
1.852522654388166
 20
1.708480406662061
 30
0.0
 11
1.852522654388166
 21
1.671296583351623
 31
0.0
  0
LWPOLYLINE
  5
1EEE
330
17
100
AcDbEntity
  8
image
100
AcDbPolyline
 90
        4
 70
     0
 43
0.0
 10
0.6255919116207214
 20
0.9222037819279144
 42
0.6860361716026362
 10
0.6255919116207214
 20
0.768092918490944
 42
-0.6860361716026375
 10
0.6255919116207214
 20
0.6139820550539717
 42
-0.6803544335886503
 10
0.6255919116207214
 20
0.768092918490944
 42
-0.6803544335886503
  0
LWPOLYLINE
  5
1EEF
330
17
100
AcDbEntity
  8
image
100
AcDbPolyline
 90
        4
 70
     0
 43
0.0
 10
3.432570504804721
 20
0.9222037819279144
 42
-0.6860361716026362
 10
3.432570504804721
 20
0.768092918490944
 42
0.6860361716026375
 10
3.432570504804721
 20
0.6139820550539717
 42
0.6803544335886503
 10
3.432570504804721
 20
0.768092918490944
 42
0.6803544335886503
  0
LINE
  5
1EF4
330
17
100
AcDbEntity
  8
image
100
AcDbLine
 10
1.760471495925037
 20
1.708480406662061
 30
0.0
 11
1.96123087495969
 21
1.708480406662061
 31
0.0
  0
LINE
  5
1EF5
330
17
100
AcDbEntity
  8
image
100
AcDbLine
 10
1.783812519910197
 20
1.812774702760838
 30
0.0
 11
1.960333859270544
 21
1.812774702760838
 31
0.0
  0
LINE
  5
1EF6
330
17
100
AcDbEntity
  8
image
100
AcDbLine
 10
2.046583635448131
 20
1.812774702760838
 30
0.0
 11
2.046583635448131
 21
1.708480406662061
 31
0.0
  0
LINE
  5
1EF7
330
17
100
AcDbEntity
  8
image
100
AcDbLine
 10
2.161990253994341
 20
1.812774702760838
 30
0.0
 11
2.161990253994341
 21
1.70848040666206
 31
0.0
  0
LINE
  5
1EF8
330
17
100
AcDbEntity
  8
image
100
AcDbLine
 10
2.132833411625719
 20
1.812774702760838
 30
0.0
 11
1.960333859270544
 21
1.812774702760838
 31
0.0
  0
LINE
  5
1EF9
330
17
100
AcDbEntity
  8
image
100
AcDbLine
 10
2.132833411625719
 20
1.812774702760838
 30
0.0
 11
2.161990253994341
 21
1.812774702760838
 31
0.0
  0
LINE
  5
1EFA
330
17
100
AcDbEntity
  8
image
100
AcDbLine
 10
2.161990253994341
 20
1.70848040666206
 30
0.0
 11
1.96123087495969
 21
1.708480406662061
 31
0.0
  0
LINE
  5
1EFB
330
17
100
AcDbEntity
  8
image
100
AcDbLine
 10
1.760471495925037
 20
1.812774702760838
 30
0.0
 11
1.760471495925037
 21
1.708480406662061
 31
0.0
  0
LINE
  5
1EFC
330
17
100
AcDbEntity
  8
image
100
AcDbLine
 10
1.875878114471246
 20
1.812774702760838
 30
0.0
 11
1.875878114471246
 21
1.708480406662061
 31
0.0
  0
LINE
  5
1EFD
330
17
100
AcDbEntity
  8
image
100
AcDbLine
 10
1.789628338293659
 20
1.812774702760838
 30
0.0
 11
1.760471495925037
 21
1.812774702760838
 31
0.0
  0
LINE
  5
1F03
330
17
100
AcDbEntity
  8
image
100
AcDbLine
 10
2.13026280419276
 20
2.049172391656127
 30
0.0
 11
1.790404914348329
 21
2.049172391656127
 31
0.0
  0
LINE
  5
1F04
330
17
100
AcDbEntity
  8
image
100
AcDbLine
 10
1.760471495925037
 20
1.944878095557351
 30
0.0
 11
1.96123087495969
 21
1.944878095557351
 31
0.0
  0
LINE
  5
1F05
330
17
100
AcDbEntity
  8
image
100
AcDbLine
 10
1.783812519910197
 20
2.049172391656127
 30
0.0
 11
1.960333859270544
 21
2.049172391656127
 31
0.0
  0
LINE
  5
1F06
330
17
100
AcDbEntity
  8
image
100
AcDbLine
 10
2.046583635448131
 20
2.049172391656127
 30
0.0
 11
2.046583635448131
 21
1.944878095557351
 31
0.0
  0
LINE
  5
1F07
330
17
100
AcDbEntity
  8
image
100
AcDbLine
 10
2.161990253994341
 20
2.049172391656127
 30
0.0
 11
2.161990253994341
 21
1.944878095557349
 31
0.0
  0
LINE
  5
1F08
330
17
100
AcDbEntity
  8
image
100
AcDbLine
 10
2.132833411625719
 20
2.049172391656127
 30
0.0
 11
1.960333859270544
 21
2.049172391656127
 31
0.0
  0
LINE
  5
1F09
330
17
100
AcDbEntity
  8
image
100
AcDbLine
 10
2.132833411625719
 20
2.049172391656127
 30
0.0
 11
2.161990253994341
 21
2.049172391656127
 31
0.0
  0
LINE
  5
1F0A
330
17
100
AcDbEntity
  8
image
100
AcDbLine
 10
2.161990253994341
 20
1.944878095557349
 30
0.0
 11
1.96123087495969
 21
1.944878095557351
 31
0.0
  0
LINE
  5
1F0B
330
17
100
AcDbEntity
  8
image
100
AcDbLine
 10
1.760471495925037
 20
2.049172391656127
 30
0.0
 11
1.760471495925037
 21
1.944878095557351
 31
0.0
  0
LINE
  5
1F0C
330
17
100
AcDbEntity
  8
image
100
AcDbLine
 10
1.875878114471246
 20
2.049172391656127
 30
0.0
 11
1.875878114471246
 21
1.944878095557351
 31
0.0
  0
LINE
  5
1F0D
330
17
100
AcDbEntity
  8
image
100
AcDbLine
 10
1.789628338293659
 20
2.049172391656127
 30
0.0
 11
1.760471495925037
 21
2.049172391656127
 31
0.0
  0
LINE
  5
1F0E
330
17
100
AcDbEntity
  8
image
100
AcDbLine
 10
2.067693844915076
 20
1.94487809555735
 30
0.0
 11
2.06769384491507
 21
1.907694272246913
 31
0.0
  0
LINE
  5
1F0F
330
17
100
AcDbEntity
  8
image
100
AcDbLine
 10
1.852522654388166
 20
1.944878095557351
 30
0.0
 11
1.852522654388166
 21
1.907694272246913
 31
0.0
  0
LINE
  5
1F10
330
17
100
AcDbEntity
  8
0
100
AcDbLine
 10
1.877389654430719
 20
1.926932088532114
 30
0.0
 11
2.040811171973154
 21
1.926932088532114
 31
0.0
  0
LINE
  5
1F11
330
17
100
AcDbEntity
  8
0
100
AcDbLine
 10
1.871410814281362
 20
1.687979170616035
 30
0.0
 11
2.048782958838963
 21
1.687979170616035
 31
0.0
  0
TEXT
  5
1F12
330
17
100
AcDbEntity
  8
text_bubbles
100
AcDbText
 10
4.144547096292101
 20
1.665813599797231
 30
0.0
 40
0.125
  1
7
  7
ROMANS
 72
     4
 11
4.20407090581591
 21
1.728313599797231
 31
0.0
100
AcDbText
  0
CIRCLE
  5
1F13
330
17
100
AcDbEntity
  8
text_bubbles
100
AcDbCircle
 10
4.20407090581591
 20
1.728313599797231
 30
0.0
 40
0.15625
  0
LEADER
  5
1F1C
330
17
100
AcDbEntity
  8
text_bubbles
100
AcDbLeader
  3
STANDARD
 76
     2
 10
2.160979423176387
 20
1.812774702760838
 30
0.0
 10
4.055621347112954
 20
2.422980416447946
 30
0.0
1001
ACAD
1000
DSTYLE
1002
{
1070
    44
1040
0.125
1070
   140
1040
0.125
1070
   176
1070
   256
1070
   177
1070
   256
1070
   178
1070
   256
1070
   279
1070
     2
1070
   340
1005
1D1B
1070
   371
1070
    -1
1070
   372
1070
    -1
1002
}
  0
LEADER
  5
1F1D
330
17
100
AcDbEntity
  8
text_bubbles
100
AcDbLeader
  3
STANDARD
 76
     2
 10
2.178929570530749
 20
1.259096599432139
 30
0.0
 10
4.059967690501144
 20
2.047540385952705
 30
0.0
1001
ACAD
1000
DSTYLE
1002
{
1070
    44
1040
0.125
1070
   140
1040
0.125
1070
   176
1070
   256
1070
   177
1070
   256
1070
   178
1070
   256
1070
   279
1070
     2
1070
   340
1005
1D1B
1070
   371
1070
    -1
1070
   372
1070
    -1
1002
}
  0
LEADER
  5
1F1E
330
17
100
AcDbEntity
  8
text_bubbles
100
AcDbLeader
  3
STANDARD
 76
     2
 10
3.029009009854035
 20
0.9222037819279151
 30
0.0
 10
4.075225082988684
 20
1.639923462112222
 30
0.0
1001
ACAD
1000
DSTYLE
1002
{
1070
    44
1040
0.125
1070
   140
1040
0.125
1070
   176
1070
   256
1070
   177
1070
   256
1070
   178
1070
   256
1070
   279
1070
     2
1070
   340
1005
1D1B
1070
   371
1070
    -1
1070
   372
1070
    -1
1002
}
  0
TEXT
  5
1F20
330
17
100
AcDbEntity
  8
text_bubbles
100
AcDbText
 10
5.029020636284396
 20
2.730999837450844
 30
0.0
 40
0.125
  1
7
  7
ROMANS
 72
     4
 11
5.088544445808206
 21
2.793499837450844
 31
0.0
100
AcDbText
  0
CIRCLE
  5
1F21
330
17
100
AcDbEntity
  8
text_bubbles
100
AcDbCircle
 10
5.088544445808206
 20
2.793499837450844
 30
0.0
 40
0.15625
  0
LINE
  5
1FBB
330
17
100
AcDbEntity
  8
image
100
AcDbLine
 10
2.044880907861578
 20
4.766547240518036
 30
0.0
 11
2.057564053596789
 21
4.737792817544469
 31
0.0
  0
LINE
  5
1FBC
330
17
100
AcDbEntity
  8
image
100
AcDbLine
 10
1.984726017249568
 20
4.766435152983184
 30
0.0
 11
1.972219609048295
 21
4.737792817544469
 31
0.0
  0
LINE
  5
1FBD
330
17
100
AcDbEntity
  8
image
100
AcDbLine
 10
1.984726017249568
 20
4.766435152983184
 30
0.0
 11
2.044880907861578
 21
4.766547240518036
 31
0.0
  0
LINE
  5
1FBE
330
17
100
AcDbEntity
  8
image
100
AcDbLine
 10
1.984726017249568
 20
4.766435152983184
 30
0.0
 11
1.984666710997526
 21
4.808822827848127
 31
0.0
  0
LINE
  5
1FBF
330
17
100
AcDbEntity
  8
image
100
AcDbLine
 10
2.044880907861578
 20
4.766547240518036
 30
0.0
 11
2.044821665427407
 21
4.808900665748643
 31
0.0
  0
LINE
  5
1FC2
330
17
100
AcDbEntity
  8
image
100
AcDbLine
 10
1.978935304559189
 20
4.808814086547273
 30
0.0
 11
2.050553071871002
 21
4.80890940360112
 31
0.0
  0
LINE
  5
1FC3
330
17
100
AcDbEntity
  8
image
100
AcDbLine
 10
1.984617527809792
 20
4.850278335578966
 30
0.0
 11
2.044772418421802
 21
4.850390423113819
 31
0.0
  0
LINE
  5
1FC4
330
17
100
AcDbEntity
  8
image
100
AcDbLine
 10
1.978935304559189
 20
4.808814086547273
 30
0.0
 11
1.984617527809792
 21
4.850278335578966
 31
0.0
  0
LINE
  5
1FC5
330
17
100
AcDbEntity
  8
image
100
AcDbLine
 10
2.044772418421802
 20
4.850390423113819
 30
0.0
 11
2.050553071871002
 21
4.80890940360112
 31
0.0
  0
VIEWPORT
  5
18B
330
14
100
AcDbEntity
 67
     1
  8
0
100
AcDbViewport
 10
8.188392857142856
 20
4.5
 30
0.0
 40
16.37678571428571
 41
9.0
 68
     1
 69
     1
 12
8.188392857142856
 22
4.5
 13
0.0
 23
0.0
 14
0.14
 24
0.14
 15
0.14
 25
0.14
 16
0.0
 26
0.0
 36
1.0
 17
0.0
 27
0.0
 37
0.0
 42
50.0
 43
0.0
 44
0.0
 45
9.0
 50
0.0
 51
0.0
 72
   100
 90
    32800
  1

281
     0
 71
     1
 74
     0
110
0.0
120
0.0
130
0.0
111
1.0
121
0.0
131
0.0
112
0.0
122
1.0
132
0.0
 79
     0
146
0.0
170
     0
  0
ENDSEC
  0
SECTION
  2
OBJECTS
  0
DICTIONARY
  5
C
330
0
100
AcDbDictionary
281
     1
  3
ACAD_COLOR
350
1C33
  3
ACAD_GROUP
350
D
  3
ACAD_LAYOUT
350
1440
  3
ACAD_MATERIAL
350
1C09
  3
ACAD_MLEADERSTYLE
350
1C58
  3
ACAD_MLINESTYLE
350
1A
  3
ACAD_PLOTSETTINGS
350
1441
  3
ACAD_PLOTSTYLENAME
350
143E
  3
ACAD_SCALELIST
350
1C36
  3
ACAD_TABLESTYLE
350
1C34
  3
ACAD_VISUALSTYLE
350
1C22
  3
ACDB_RECOMPOSE_DATA
350
1CD6
  3
ACDBVARIABLEDICTIONARY
350
42
  3
AEC_PROPERTY_SET_DEFS
350
1D5D
  3
BNS_SELSET
350
682
1001
BBSI_PltSel
1000
1
1000

1001
BBSI_Bookmarks
1000
1
1000
1
1000
0
1000
1
1000
0
1000
0
1000
0
1000
0
1000
0
1000
0
1000
0
1001
BBSI_BookmarksEx
1000
0
1000
0
1000

1000
0
1001
BBSI_Plots
1000

1000
ANSI_A_(11.00_x_8.50_Inches)
1000
279.399993896484
1000
215.899993896484
1000
0
1000
1
1000
1
1000
9.73769676004821E-15
1000
17.9871359092673
1000
1
1000
0
1000
1
1000
1.56885758041751
1000
0
1000
1
1000
PDF BW Shaded.ctb
1000
0
1000
0
1000
1
1000
1
1000
0
1000
0
1000
0
1000
0
1000
0
1000
0
1000

1000

  0
DICTIONARY
  5
1455
330
2
100
AcDbDictionary
280
     1
281
     1
  3
ACAD_LAYERFILTERS
360
2012
  3
ACAD_LAYERSTATES
360
1456
  0
DICTIONARY
  5
1CC1
330
17
100
AcDbDictionary
280
     1
281
     1
  0
DICTIONARY
  5
1D17
330
1BD0
100
AcDbDictionary
280
     1
281
     1
  3
ACAD_SORTENTS
360
1D18
  0
DICTIONARY
  5
203D
330
1DBE
100
AcDbDictionary
280
     1
281
     1
  3
ACAD_MTEXT_2008_RT
360
203E
  0
DICTIONARY
  5
203F
330
1DED
100
AcDbDictionary
280
     1
281
     1
  3
ACAD_MTEXT_2008_RT
360
2040
  0
DICTIONARY
  5
1C33
102
{ACAD_REACTORS
330
C
102
}
330
C
100
AcDbDictionary
281
     1
  0
DICTIONARY
  5
D
102
{ACAD_REACTORS
330
C
102
}
330
C
100
AcDbDictionary
281
     1
  0
DICTIONARY
  5
1440
102
{ACAD_REACTORS
330
C
102
}
330
C
100
AcDbDictionary
281
     1
  3
Layout1
350
1443
  3
Model
350
1442
  0
DICTIONARY
  5
1C09
102
{ACAD_REACTORS
330
C
102
}
330
C
100
AcDbDictionary
281
     1
  3
ByBlock
350
1C12
  3
ByLayer
350
1C0A
  3
Global
350
1C1A
  0
DICTIONARY
  5
1C58
102
{ACAD_REACTORS
330
C
102
}
330
C
100
AcDbDictionary
281
     1
  3
Standard
350
1C59
  0
DICTIONARY
  5
1A
102
{ACAD_REACTORS
330
C
102
}
330
C
100
AcDbDictionary
281
     1
  3
STANDARD
350
1B
  0
DICTIONARY
  5
1441
102
{ACAD_REACTORS
330
C
102
}
330
C
100
AcDbDictionary
281
     1
  3
1055 24x36 BW
350
1C6C
  3
1055 24x36 BW Final
350
1C6E
  3
1055 24x36 Color
350
1C6F
  3
1055 24x36 Color Shaded
350
1C70
  3
1055 30x42 BW
350
1C71
  3
1055 30x42 BW Final
350
1C72
  3
1055 B&W Draft
350
1C73
  3
1055 B&W Final
350
1C74
  3
1055 BW Half
350
1C75
  3
1055 Color Draft
350
1C76
  3
1055 Color Final
350
1C77
  3
1055+ 24x36 BW
350
1C78
  3
1055+ 24x36 BW Final
350
1C79
  3
1055+ 24x36 Color
350
1C7A
  3
1055+ 24x36 Color Shaded
350
1C7B
  3
1055+ 30x42 BW
350
1C7C
  3
1055+ 30x42 BW Final
350
1C7D
  3
1055+ B&W Draft
350
1C7E
  3
1055+ B&W Final
350
1C7F
  3
1055+ BW Half
350
1C80
  3
1055+ Color Draft
350
1C81
  3
1055+ Color Final
350
1C82
  3
_1055 22x34 True Centered BW
350
1C83
  3
_1055 24x36 True Centered BW
350
1C84
  3
_1055 24x36 True Centered BW Final
350
1C85
  3
_1055 24x36 True Centered Color
350
1C86
  3
_1055 30x42 True Centered BW
350
1C87
  3
_1055+ 22x34 True Centered BW
350
1C88
  3
_1055+ 24x36 True Centered BW
350
1C89
  3
_1055+ 24x36 True Centered BW Final
350
1C8A
  3
_1055+ 24x36 True Centered Color
350
1C8B
  3
DWF BW 11x17 Fit
350
1C8C
  3
DWF BW 11x17 Half
350
1C8D
  3
DWF BW 22x34
350
1C8E
  3
DWF BW 24x36
350
1C8F
  3
DWF BW 30x42
350
1C90
  3
DWF BW 36x48
350
1C91
  3
Laser5 11x17 Fit
350
1C92
  3
Laser5 11x17 Full
350
1C93
  3
Laser5 11x17 Half
350
1C94
  3
Laser5 8x11 Fit
350
1C95
  3
Laser5 8x11 Half
350
1C96
  3
Laser5 8x11 Portrait Fit
350
1C97
  3
LaserJet5 11x17
350
1C98
  3
LaserJet5 8.5x11
350
1C99
  3
Oki9500 11x17 BW Fit
350
1C9A
  3
Oki9500 11x17 BW Full
350
1C9B
  3
Oki9500 11x17 BW Half
350
1C9C
  3
Oki9500 11x17 Color Fit
350
1C9D
  3
Oki9500 11x17 Color Full
350
1C9E
  3
Oki9500 11x17 Color Half
350
1C9F
  3
Oki9500 8x11 BW Fit
350
1CA0
  3
Oki9500 8x11 BW Portrait Fit
350
1CA1
  3
Oki9500 8x11 Color Fit
350
1CA2
  3
Oki9500 8x11 Color Portrait Fit
350
1CA3
  3
OKI9500 B&W 11x17
350
1CA4
  3
OKI9500 B&W 8.5x11
350
1CA5
  3
OKI9500 Color 11x17
350
1CA6
  3
OKI9500 Color 8.5x11
350
1CA7
  3
Oki9600 11x17 BW Fit
350
1CA8
  3
Oki9600 11x17 BW Full
350
1CA9
  3
Oki9600 11x17 BW Half
350
1CAA
  3
Oki9600 11x17 Color Fit
350
1CAB
  3
Oki9600 11x17 Color Full
350
1CAC
  3
Oki9600 11x17 Color Half
350
1CAD
  3
Oki9600 8x11 BW Fit
350
1CAE
  3
Oki9600 8x11 BW Portrait Fit
350
1CAF
  3
Oki9600 8x11 Color Fit
350
1CB0
  3
Oki9600 8x11 Color Portrait Fit
350
1CB1
  3
OKI9600 B&W 11x17
350
1CB2
  3
OKI9600 B&W 8.5x11
350
1CB3
  3
OKI9600 Color 11x17
350
1CB4
  3
OKI9600 Color 8.5x11
350
1CB5
  3
PHX Kyocera 11x17 Fit
350
1CB6
  3
PHX Oki9500 11x17 BW Fit
350
1CB7
  3
PHX Oki9500 11x17 BW Half
350
1CB8
  0
ACDBDICTIONARYWDFLT
  5
143E
102
{ACAD_REACTORS
330
C
102
}
330
C
100
AcDbDictionary
281
     1
  3
Normal
350
143F
100
AcDbDictionaryWithDefault
340
143F
  0
DICTIONARY
  5
1C36
102
{ACAD_REACTORS
330
C
102
}
330
C
100
AcDbDictionary
281
     1
  3
A0
350
1C37
  3
A1
350
1C38
  3
A2
350
1C39
  3
A3
350
1C3A
  3
A4
350
1C3B
  3
A5
350
1C3C
  3
A6
350
1C3D
  3
A7
350
1C3E
  3
A8
350
1C3F
  3
A9
350
1C40
  3
B0
350
1C41
  3
B1
350
1C42
  3
B2
350
1C43
  3
B3
350
1C44
  3
B4
350
1C45
  3
B5
350
1C46
  3
B6
350
1C47
  3
B7
350
1C48
  3
B8
350
1C49
  3
B9
350
1C4A
  3
C0
350
1C4B
  3
C1
350
1C4C
  3
C2
350
1C4D
  3
C3
350
1C4E
  3
C4
350
1C4F
  3
C5
350
1C50
  3
C6
350
1C51
  3
C7
350
1C52
  3
C8
350
1C53
  3
C9
350
1C54
  3
D0
350
1C55
  3
D1
350
1C56
  3
D2
350
1C57
  0
DICTIONARY
  5
1C34
102
{ACAD_REACTORS
330
C
102
}
330
C
100
AcDbDictionary
281
     1
  3
Standard
350
1C35
  0
DICTIONARY
  5
1C22
102
{ACAD_REACTORS
330
C
102
}
330
C
100
AcDbDictionary
281
     1
  3
2dWireframe
350
1C28
  3
3D Hidden
350
1C2A
  3
3dWireframe
350
1C29
  3
Basic
350
1C27
  3
Brighten
350
1C2E
  3
ColorChange
350
1C32
  3
Conceptual
350
1C2B
  3
Dim
350
1C2D
  3
Facepattern
350
1C31
  3
Flat
350
1C23
  3
FlatWithEdges
350
1C24
  3
Gouraud
350
1C25
  3
GouraudWithEdges
350
1C26
  3
Linepattern
350
1C30
  3
Realistic
350
1C2C
  3
Thicken
350
1C2F
  0
XRECORD
  5
1CD6
102
{ACAD_REACTORS
330
C
102
}
330
C
100
AcDbXrecord
280
     1
 90
        1
330
1C35
330
1DBE
330
1DED
  0
DICTIONARY
  5
42
102
{ACAD_REACTORS
330
C
102
}
330
C
100
AcDbDictionary
281
     1
  3
CANNOSCALE
350
1CDA
  3
CMLEADERSTYLE
350
1CD8
  3
CTABLESTYLE
350
1CD7
  3
DIMADEC
350
43
  3
DIMASSOC
350
1449
  3
LAYEREVAL
350
203B
  3
LAYERNOTIFY
350
1CDC
  3
LIGHTINGUNITS
350
1CDB
  3
MSLTSCALE
350
1CD9
  3
SORTENTS
350
569
  3
UPDATETHUMBNAIL
350
1E07
  0
DICTIONARY
  5
1D5D
102
{ACAD_REACTORS
330
C
102
}
330
C
100
AcDbDictionary
281
     1
  0
DICTIONARY
  5
682
102
{ACAD_REACTORS
330
C
102
}
330
0
100
AcDbDictionary
281
     1
  3
BNS_SS01
350
143A
  3
BNS_SS02
350
143B
  3
BNS_SS03
350
142C
  3
BNS_SS04
350
142D
  3
BNS_SS05
350
142E
  3
BNS_SS06
350
142F
  3
BNS_SS07
350
1430
  3
BNS_SS08
350
1431
  3
BNS_SS09
350
1432
  3
BNS_SS10
350
1433
  0
DICTIONARY
  5
2012
102
{ACAD_REACTORS
330
1455
102
}
330
1455
100
AcDbDictionary
281
     1
  3
_0100-
350
2015
  3
_0280-
350
2014
  3
_Color 253
350
2018
  3
_Color 8
350
2016
  3
_Color 84
350
2017
  3
_Contours
350
201D
  3
_Existing
350
2019
  3
_Hardscape
350
201C
  3
_NoXref
350
2013
  3
_Row
350
201A
  3
_Utility
350
201B
  0
DICTIONARY
  5
1456
102
{ACAD_REACTORS
330
1455
102
}
330
1455
100
AcDbDictionary
281
     1
  0
SORTENTSTABLE
  5
1D18
102
{ACAD_REACTORS
330
1D17
102
}
330
1D17
100
AcDbSortentsTable
330
1BD0
  0
XRECORD
  5
203E
102
{ACAD_REACTORS
330
203D
102
}
330
203D
100
AcDbXrecord
280
     1
 40
10138672.0
  1
\A1;\pxi-2,l2;SINGLE-OUTLET 10-32 THREADED INLET X BARB OUTLET EMITTER:\P  RAIN BIRD XERI-BUG 1032 EMITTER\P\pi0,l0;{\A0;TOP OF MULCH \P\PFINISH GRADE \P\P\pi-2,l2;POLYFLEX RISER AND ADAPTER ASSEMBLY:    RAIN BIRD PFR-FRA    \P\pi0,l0;\A1;\H0.7x;\S1#
  1
2;\H1.4286x;" FEMALE PIPE THREAD ADAPTER:\P  RAIN BIRD MDCF50FPT\P\H0.7x;\S1#2;\H1.4286x;" COMPRESSION FITTING TEE:\P  RAIN BIRD MDCFTEE\P\H0.7x;\S1#2;\H1.4286x;" POLYETHYLENE TUBING:\P  RAIN BIRD XF SERIES TUBING OR\P  RAIN BIRD XT-700 XERI-TUBE OR\
  1
P  RAIN BIRD XBS BLACK STRIPE TUBING }
  0
XRECORD
  5
2040
102
{ACAD_REACTORS
330
203F
102
}
330
203F
100
AcDbXrecord
280
     1
 40
1535913.0
  1
NOTE: \P\pxi-3,l3,t3;1. RAIN BIRD XERI-BUG 10-32 THREADED INLET X BARB OUTLET EMITTERS ARE AVAILABLE IN THE FOLLOWING MODELS:\P^I^IXB-05PC-1032 0.5 GPH^I^IXB-10PC-1032 1.0 GPH^I^IXB-20PC-1032 2.0 GPH 
  0
LAYOUT
  5
1443
102
{ACAD_REACTORS
330
1440
102
}
330
1440
100
AcDbPlotSettings
  1

  2
S:\AutoCAD 2002\Plotters\1055B&WDraftShaded.pc3
  4

  6

 40
0.0
 41
0.0
 42
0.0
 43
0.0
 44
0.0
 45
0.0
 46
0.0
 47
0.0
 48
0.0
 49
0.0
140
0.0
141
0.0
142
1.0
143
1.0
 70
   688
 72
     0
 73
     0
 74
     5
  7
TRexLJ5Shaded2.ctb
 75
    16
147
1.0
 76
     0
 77
     2
 78
   300
148
0.0
149
0.0
100
AcDbLayout
  1
Layout1
 70
     1
 71
     1
 10
0.0
 20
0.0
 11
12.0
 21
9.0
 12
0.0
 22
0.0
 32
0.0
 14
1.000000000000000E+20
 24
1.000000000000000E+20
 34
1.000000000000000E+20
 15
-1.000000000000000E+20
 25
-1.000000000000000E+20
 35
-1.000000000000000E+20
146
0.0
 13
0.0
 23
0.0
 33
0.0
 16
1.0
 26
0.0
 36
0.0
 17
0.0
 27
1.0
 37
0.0
 76
     0
330
14
331
18B
  0
LAYOUT
  5
1442
102
{ACAD_REACTORS
330
1440
102
}
330
1440
100
AcDbPlotSettings
  1
LaserJet5 8.5x11
  2
LaserJet5Shaded-8x11.pc3
  4
Letter
  6

 40
5.873749732971191
 41
5.873734951019287
 42
6.55108642578125
 43
5.027084350585937
 44
279.3999938964844
 45
215.8999938964844
 46
39.37176573797503
 47
-0.0000000000000054
 48
0.0
 49
0.0
140
0.0
141
0.0
142
1.0
143
1.293546671707545
 70
 11956
 72
     0
 73
     0
 74
     1
  7
laserjet5shaded.ctb
 75
     0
147
0.7730683568455638
 76
     0
 77
     2
 78
   300
148
-7.661269695090843
149
90.52767024423358
100
AcDbLayout
  1
Model
 70
     1
 71
     0
 10
0.0
 20
0.0
 11
12.0
 21
9.0
 12
0.0
 22
0.0
 32
0.0
 14
0.0
 24
0.0
 34
0.0
 15
0.0
 25
0.0
 35
0.0
146
0.0
 13
0.0
 23
0.0
 33
0.0
 16
1.0
 26
0.0
 36
0.0
 17
0.0
 27
1.0
 37
0.0
 76
     0
330
17
331
1C07
1001
ACAD_PSEXT
1000
LaserJet5Shaded-8x11.pc3
1000
HP LaserJet 5Si
1000
CAD Area
1000

1070
     0
  0
MATERIAL
  5
1C12
102
{ACAD_XDICTIONARY
360
1C13
102
}
102
{ACAD_REACTORS
330
1C09
102
}
330
1C09
100
AcDbMaterial
  1
ByBlock
 72
     0
 43
0.0208333333333333
 43
0.0
 43
0.0
 43
0.0
 43
0.0
 43
0.0208333333333333
 43
0.0
 43
0.0
 43
0.0
 43
0.0
 43
1.0
 43
0.0
 43
0.0
 43
0.0
 43
0.0
 43
1.0
 77
     0
 47
0.0208333333333333
 47
0.0
 47
0.0
 47
0.0
 47
0.0
 47
0.0208333333333333
 47
0.0
 47
0.0
 47
0.0
 47
0.0
 47
1.0
 47
0.0
 47
0.0
 47
0.0
 47
0.0
 47
1.0
171
     0
 49
0.0208333333333333
 49
0.0
 49
0.0
 49
0.0
 49
0.0
 49
0.0208333333333333
 49
0.0
 49
0.0
 49
0.0
 49
0.0
 49
1.0
 49
0.0
 49
0.0
 49
0.0
 49
0.0
 49
1.0
175
     0
142
0.0208333333333333
142
0.0
142
0.0
142
0.0
142
0.0
142
0.0208333333333333
142
0.0
142
0.0
142
0.0
142
0.0
142
1.0
142
0.0
142
0.0
142
0.0
142
0.0
142
1.0
179
     0
144
0.0208333333333333
144
0.0
144
0.0
144
0.0
144
0.0
144
0.0208333333333333
144
0.0
144
0.0
144
0.0
144
0.0
144
1.0
144
0.0
144
0.0
144
0.0
144
0.0
144
1.0
147
0.0208333333333333
147
0.0
147
0.0
147
0.0
147
0.0
147
0.0208333333333333
147
0.0
147
0.0
147
0.0
147
0.0
147
1.0
147
0.0
147
0.0
147
0.0
147
0.0
147
1.0
  0
MATERIAL
  5
1C0A
102
{ACAD_XDICTIONARY
360
1C0B
102
}
102
{ACAD_REACTORS
330
1C09
102
}
330
1C09
100
AcDbMaterial
  1
ByLayer
 72
     0
 43
0.0208333333333333
 43
0.0
 43
0.0
 43
0.0
 43
0.0
 43
0.0208333333333333
 43
0.0
 43
0.0
 43
0.0
 43
0.0
 43
1.0
 43
0.0
 43
0.0
 43
0.0
 43
0.0
 43
1.0
 77
     0
 47
0.0208333333333333
 47
0.0
 47
0.0
 47
0.0
 47
0.0
 47
0.0208333333333333
 47
0.0
 47
0.0
 47
0.0
 47
0.0
 47
1.0
 47
0.0
 47
0.0
 47
0.0
 47
0.0
 47
1.0
171
     0
 49
0.0208333333333333
 49
0.0
 49
0.0
 49
0.0
 49
0.0
 49
0.0208333333333333
 49
0.0
 49
0.0
 49
0.0
 49
0.0
 49
1.0
 49
0.0
 49
0.0
 49
0.0
 49
0.0
 49
1.0
175
     0
142
0.0208333333333333
142
0.0
142
0.0
142
0.0
142
0.0
142
0.0208333333333333
142
0.0
142
0.0
142
0.0
142
0.0
142
1.0
142
0.0
142
0.0
142
0.0
142
0.0
142
1.0
179
     0
144
0.0208333333333333
144
0.0
144
0.0
144
0.0
144
0.0
144
0.0208333333333333
144
0.0
144
0.0
144
0.0
144
0.0
144
1.0
144
0.0
144
0.0
144
0.0
144
0.0
144
1.0
147
0.0208333333333333
147
0.0
147
0.0
147
0.0
147
0.0
147
0.0208333333333333
147
0.0
147
0.0
147
0.0
147
0.0
147
1.0
147
0.0
147
0.0
147
0.0
147
0.0
147
1.0
  0
MATERIAL
  5
1C1A
102
{ACAD_XDICTIONARY
360
1C1B
102
}
102
{ACAD_REACTORS
330
1C09
102
}
330
1C09
100
AcDbMaterial
  1
Global
 72
     0
 43
0.0208333333333333
 43
0.0
 43
0.0
 43
0.0
 43
0.0
 43
0.0208333333333333
 43
0.0
 43
0.0
 43
0.0
 43
0.0
 43
1.0
 43
0.0
 43
0.0
 43
0.0
 43
0.0
 43
1.0
 77
     0
 47
0.0208333333333333
 47
0.0
 47
0.0
 47
0.0
 47
0.0
 47
0.0208333333333333
 47
0.0
 47
0.0
 47
0.0
 47
0.0
 47
1.0
 47
0.0
 47
0.0
 47
0.0
 47
0.0
 47
1.0
171
     0
 49
0.0208333333333333
 49
0.0
 49
0.0
 49
0.0
 49
0.0
 49
0.0208333333333333
 49
0.0
 49
0.0
 49
0.0
 49
0.0
 49
1.0
 49
0.0
 49
0.0
 49
0.0
 49
0.0
 49
1.0
175
     0
142
0.0208333333333333
142
0.0
142
0.0
142
0.0
142
0.0
142
0.0208333333333333
142
0.0
142
0.0
142
0.0
142
0.0
142
1.0
142
0.0
142
0.0
142
0.0
142
0.0
142
1.0
179
     0
144
0.0208333333333333
144
0.0
144
0.0
144
0.0
144
0.0
144
0.0208333333333333
144
0.0
144
0.0
144
0.0
144
0.0
144
1.0
144
0.0
144
0.0
144
0.0
144
0.0
144
1.0
147
0.0208333333333333
147
0.0
147
0.0
147
0.0
147
0.0
147
0.0208333333333333
147
0.0
147
0.0
147
0.0
147
0.0
147
1.0
147
0.0
147
0.0
147
0.0
147
0.0
147
1.0
  0
MLEADERSTYLE
  5
1C59
102
{ACAD_REACTORS
330
1C58
102
}
330
1C58
100
AcDbMLeaderStyle
170
     2
171
     1
172
     0
 90
        2
 40
0.0
 41
0.0
173
     1
 91
-1056964608
340
11
 92
       -2
290
     1
 42
0.09
291
     1
 43
0.36
  3
Standard
 44
0.18
300

342
F
174
     1
178
     6
175
     1
176
     0
 93
-1056964608
 45
0.18
292
     0
297
     0
 46
0.18
 94
-1056964608
 47
1.0
 49
1.0
140
1.0
293
     1
141
0.0
294
     1
177
     0
142
1.0
295
     0
296
     0
143
0.125
1001
ACAD_MLEADERVER
1070
     2
  0
MLINESTYLE
  5
1B
102
{ACAD_REACTORS
330
1A
102
}
330
1A
100
AcDbMlineStyle
  2
STANDARD
 70
     0
  3

 62
   256
 51
90.0
 52
90.0
 71
     2
 49
0.5
 62
   256
  6
BYLAYER
 49
-0.5
 62
   256
  6
BYLAYER
  0
PLOTSETTINGS
  5
1C6C
102
{ACAD_REACTORS
330
1441
102
}
330
1441
100
AcDbPlotSettings
  1
1055 24x36 BW
  2
1055B&WDraftShaded.pc3
  4
User257
  6

 40
14.98600006103515
 41
8.297271728515625
 42
14.9859619140625
 43
8.29736328125
 44
914.3153076171875
 45
1269.915283203125
 46
0.0
 47
0.0
 48
0.0
 49
0.0
140
0.0
141
0.0
142
1.0
143
1.0
 70
  2800
 72
     0
 73
     2
 74
     1
  7
1055B&WFullDraftShaded.ctb
 75
    16
147
1.0
 76
     0
 77
     2
 78
   300
148
-75.74468520391772
149
-27.53050504688192
1001
ACAD_PSEXT
1000
1055B&WDraftShaded.pc3
1000
HP DesignJet 1055CM by HP
1000
FRONT
1000

1070
     0
  0
PLOTSETTINGS
  5
1C6E
102
{ACAD_REACTORS
330
1441
102
}
330
1441
100
AcDbPlotSettings
  1
1055 24x36 BW Final
  2
1055B&WFinalShaded.pc3
  4
User257
  6

 40
14.98600006103515
 41
8.297271728515625
 42
14.9859619140625
 43
8.29736328125
 44
914.357666015625
 45
1269.957641601562
 46
0.0
 47
0.0
 48
0.0
 49
0.0
140
0.0
141
0.0
142
1.0
143
1.0
 70
  2800
 72
     0
 73
     2
 74
     1
  7
1055B&WFullFinalShaded.ctb
 75
    16
147
1.0
 76
     0
 77
     2
 78
   300
148
-75.74468520391772
149
-27.53050504688192
1001
ACAD_PSEXT
1000
1055B&WFinalShaded.pc3
1000
HP DesignJet 1055CM by HP
1000
FRONT
1000

1070
     0
  0
PLOTSETTINGS
  5
1C6F
102
{ACAD_REACTORS
330
1441
102
}
330
1441
100
AcDbPlotSettings
  1
1055 24x36 Color
  2
1055ColorDraftShaded.pc3
  4
User257
  6

 40
14.98600006103515
 41
8.297271728515625
 42
14.9859619140625
 43
8.29736328125
 44
914.3153076171875
 45
1269.915283203125
 46
0.0
 47
0.0
 48
0.0
 49
0.0
140
0.0
141
0.0
142
1.0
143
1.0
 70
  2800
 72
     0
 73
     2
 74
     1
  7
Color.ctb
 75
    16
147
1.0
 76
     0
 77
     2
 78
   300
148
-75.74468520391772
149
-27.53050504688192
1001
ACAD_PSEXT
1000
1055ColorDraftShaded.pc3
1000
HP DesignJet 1055CM by HP
1000
FRONT
1000

1070
     0
  0
PLOTSETTINGS
  5
1C70
102
{ACAD_REACTORS
330
1441
102
}
330
1441
100
AcDbPlotSettings
  1
1055 24x36 Color Shaded
  2
1055ColorDraftShaded.pc3
  4
User257
  6

 40
14.98600006103515
 41
8.297271728515625
 42
14.9859619140625
 43
8.29736328125
 44
914.3153076171875
 45
1269.915283203125
 46
0.0
 47
0.0
 48
0.0
 49
0.0
140
0.0
141
0.0
142
1.0
143
1.0
 70
  2800
 72
     0
 73
     2
 74
     1
  7
1055ColorFullDraftShaded.ctb
 75
    16
147
1.0
 76
     0
 77
     2
 78
   300
148
-75.74468520391772
149
-27.53050504688192
1001
ACAD_PSEXT
1000
1055ColorDraftShaded.pc3
1000
HP DesignJet 1055CM by HP
1000
FRONT
1000

1070
     0
  0
PLOTSETTINGS
  5
1C71
102
{ACAD_REACTORS
330
1441
102
}
330
1441
100
AcDbPlotSettings
  1
1055 30x42 BW
  2
1055B&WDraftShaded.pc3
  4
User257
  6

 40
14.98600006103515
 41
8.297271728515625
 42
14.9859619140625
 43
8.29736328125
 44
914.3153076171875
 45
1269.915283203125
 46
0.0
 47
0.0
 48
0.0
 49
0.0
140
0.0
141
0.0
142
1.0
143
1.0
 70
  2800
 72
     0
 73
     1
 74
     1
  7
1055B&WFullDraftShaded.ctb
 75
    16
147
1.0
 76
     0
 77
     2
 78
   300
148
-75.74468520391772
149
-27.53050504688192
1001
ACAD_PSEXT
1000
1055B&WDraftShaded.pc3
1000
HP DesignJet 1055CM by HP
1000
FRONT
1000

1070
     0
  0
PLOTSETTINGS
  5
1C72
102
{ACAD_REACTORS
330
1441
102
}
330
1441
100
AcDbPlotSettings
  1
1055 30x42 BW Final
  2
1055B&WFinalShaded.pc3
  4
User257
  6

 40
14.98600006103515
 41
8.297271728515625
 42
14.9859619140625
 43
8.29736328125
 44
914.357666015625
 45
1269.957641601562
 46
0.0
 47
0.0
 48
0.0
 49
0.0
140
0.0
141
0.0
142
1.0
143
1.0
 70
  2800
 72
     0
 73
     1
 74
     1
  7
1055B&WFullFinalShaded.ctb
 75
    16
147
1.0
 76
     0
 77
     2
 78
   300
148
-75.74468520391772
149
-27.53050504688192
1001
ACAD_PSEXT
1000
1055B&WFinalShaded.pc3
1000
HP DesignJet 1055CM by HP
1000
FRONT
1000

1070
     0
  0
PLOTSETTINGS
  5
1C73
102
{ACAD_REACTORS
330
1441
102
}
330
1441
100
AcDbPlotSettings
  1
1055 B&W Draft
  2
1055B&WDraftShaded.pc3
  4
User257
  6

 40
4.995333194732666
 41
8.297271728515625
 42
4.99530029296875
 43
8.29736328125
 44
914.3153076171875
 45
1269.915283203125
 46
0.0
 47
0.0
 48
0.0
 49
0.0
140
0.0
141
0.0
142
1.0
143
30.0
 70
 11936
 72
     0
 73
     2
 74
     1
  7
1055B&WFullDraftShaded.ctb
 75
     0
147
3.484472351238056
 76
     0
 77
     2
 78
   300
148
-119.4582094169044
149
-58.17053554795709
1001
ACAD_PSEXT
1000
1055B&WDraftShaded.pc3
1000
HP DesignJet 1055CM by HP
1000
\\aqua-srv01
1000

1070
     0
  0
PLOTSETTINGS
  5
1C74
102
{ACAD_REACTORS
330
1441
102
}
330
1441
100
AcDbPlotSettings
  1
1055 B&W Final
  2
1055B&WFinalShaded.pc3
  4
User257
  6

 40
4.995333194732666
 41
8.297271728515625
 42
4.99530029296875
 43
8.29736328125
 44
914.357666015625
 45
1269.957641601562
 46
0.0
 47
0.0
 48
0.0
 49
0.0
140
0.0
141
0.0
142
1.0
143
30.0
 70
 11936
 72
     0
 73
     2
 74
     1
  7
1055B&WFullFinalShaded.ctb
 75
     0
147
3.484472351238056
 76
     0
 77
     2
 78
   300
148
-119.4582094169044
149
-58.17053554795709
1001
ACAD_PSEXT
1000
1055B&WFinalShaded.pc3
1000
HP DesignJet 1055CM by HP
1000
\\aqua-srv01
1000

1070
     0
  0
PLOTSETTINGS
  5
1C75
102
{ACAD_REACTORS
330
1441
102
}
330
1441
100
AcDbPlotSettings
  1
1055 BW Half
  2
1055B&WDraftShaded.pc3
  4
User257
  6

 40
14.98600006103515
 41
8.297271728515625
 42
14.9859619140625
 43
8.29736328125
 44
914.3153076171875
 45
1269.915283203125
 46
0.0
 47
0.0
 48
0.0
 49
0.0
140
0.0
141
0.0
142
1.0
143
2.0
 70
  2800
 72
     0
 73
     2
 74
     1
  7
1055B&WFullDraftShaded.ctb
 75
    17
147
0.5
 76
     0
 77
     2
 78
   300
148
-75.74468520391772
149
-27.53050504688192
1001
ACAD_PSEXT
1000
1055B&WDraftShaded.pc3
1000
HP DesignJet 1055CM by HP
1000
FRONT
1000

1070
     0
  0
PLOTSETTINGS
  5
1C76
102
{ACAD_REACTORS
330
1441
102
}
330
1441
100
AcDbPlotSettings
  1
1055 Color Draft
  2
1055ColorDraftShaded.pc3
  4
User257
  6

 40
4.995333194732666
 41
8.297271728515625
 42
4.99530029296875
 43
8.29736328125
 44
914.3153076171875
 45
1269.915283203125
 46
0.0
 47
0.0
 48
0.0
 49
0.0
140
0.0
141
0.0
142
1.0
143
30.0
 70
 11936
 72
     0
 73
     2
 74
     1
  7
1055ColorFullDraftShaded.ctb
 75
     0
147
3.484472351238056
 76
     0
 77
     2
 78
   300
148
-119.4582094169044
149
-58.17053554795709
1001
ACAD_PSEXT
1000
1055ColorDraftShaded.pc3
1000
HP DesignJet 1055CM by HP
1000
\\aqua-srv01
1000

1070
     0
  0
PLOTSETTINGS
  5
1C77
102
{ACAD_REACTORS
330
1441
102
}
330
1441
100
AcDbPlotSettings
  1
1055 Color Final
  2
1055ColorFinalShaded.pc3
  4
User257
  6

 40
4.995333194732666
 41
8.297271728515625
 42
4.99530029296875
 43
8.29736328125
 44
914.357666015625
 45
1269.957641601562
 46
0.0
 47
0.0
 48
0.0
 49
0.0
140
0.0
141
0.0
142
1.0
143
30.0
 70
 11936
 72
     0
 73
     2
 74
     1
  7
1055ColorFullFinalShaded.ctb
 75
     0
147
3.484472351238056
 76
     0
 77
     2
 78
   300
148
-119.4582094169044
149
-58.17053554795709
1001
ACAD_PSEXT
1000
1055ColorFinalShaded.pc3
1000
HP DesignJet 1055CM by HP
1000
\\aqua-srv01
1000

1070
     0
  0
PLOTSETTINGS
  5
1C78
102
{ACAD_REACTORS
330
1441
102
}
330
1441
100
AcDbPlotSettings
  1
1055+ 24x36 BW
  2
1055_PLUS_B&WDraftShaded.pc3
  4
User257
  6

 40
14.98600006103515
 41
8.297271728515625
 42
14.9859619140625
 43
8.29736328125
 44
914.3153076171875
 45
1269.915283203125
 46
0.0
 47
0.0
 48
0.0
 49
0.0
140
0.0
141
0.0
142
1.0
143
1.0
 70
  2800
 72
     0
 73
     2
 74
     1
  7
1055B&WFullDraftShaded.ctb
 75
    16
147
1.0
 76
     0
 77
     2
 78
   300
148
-75.74468520391772
149
-27.53050504688192
1001
ACAD_PSEXT
1000
1055_PLUS_B&WDraftShaded.pc3
1000
HP DesignJet 1055CM by HP
1000
FRONT
1000

1070
     0
  0
PLOTSETTINGS
  5
1C79
102
{ACAD_REACTORS
330
1441
102
}
330
1441
100
AcDbPlotSettings
  1
1055+ 24x36 BW Final
  2
1055_PLUS_B&WFinalShaded.pc3
  4
User257
  6

 40
14.98600006103515
 41
8.297271728515625
 42
14.9859619140625
 43
8.29736328125
 44
914.357666015625
 45
1269.957641601562
 46
0.0
 47
0.0
 48
0.0
 49
0.0
140
0.0
141
0.0
142
1.0
143
1.0
 70
  2800
 72
     0
 73
     2
 74
     1
  7
1055B&WFullFinalShaded.ctb
 75
    16
147
1.0
 76
     0
 77
     2
 78
   300
148
-75.74468520391772
149
-27.53050504688192
1001
ACAD_PSEXT
1000
1055_PLUS_B&WFinalShaded.pc3
1000
HP DesignJet 1055CM by HP
1000
FRONT
1000

1070
     0
  0
PLOTSETTINGS
  5
1C7A
102
{ACAD_REACTORS
330
1441
102
}
330
1441
100
AcDbPlotSettings
  1
1055+ 24x36 Color
  2
1055_PLUS_ColorDraftShaded.pc3
  4
User257
  6

 40
14.98600006103515
 41
8.297271728515625
 42
14.9859619140625
 43
8.29736328125
 44
914.3153076171875
 45
1269.915283203125
 46
0.0
 47
0.0
 48
0.0
 49
0.0
140
0.0
141
0.0
142
1.0
143
1.0
 70
  2800
 72
     0
 73
     2
 74
     1
  7
Color.ctb
 75
    16
147
1.0
 76
     0
 77
     2
 78
   300
148
-75.74468520391772
149
-27.53050504688192
1001
ACAD_PSEXT
1000
1055_PLUS_ColorDraftShaded.pc3
1000
HP DesignJet 1055CM by HP
1000
FRONT
1000

1070
     0
  0
PLOTSETTINGS
  5
1C7B
102
{ACAD_REACTORS
330
1441
102
}
330
1441
100
AcDbPlotSettings
  1
1055+ 24x36 Color Shaded
  2
1055_PLUS_ColorDraftShaded.pc3
  4
User257
  6

 40
14.98600006103515
 41
8.297271728515625
 42
14.9859619140625
 43
8.29736328125
 44
914.3153076171875
 45
1269.915283203125
 46
0.0
 47
0.0
 48
0.0
 49
0.0
140
0.0
141
0.0
142
1.0
143
1.0
 70
  2800
 72
     0
 73
     2
 74
     1
  7
1055ColorFullDraftShaded.ctb
 75
    16
147
1.0
 76
     0
 77
     2
 78
   300
148
-75.74468520391772
149
-27.53050504688192
1001
ACAD_PSEXT
1000
1055_PLUS_ColorDraftShaded.pc3
1000
HP DesignJet 1055CM by HP
1000
FRONT
1000

1070
     0
  0
PLOTSETTINGS
  5
1C7C
102
{ACAD_REACTORS
330
1441
102
}
330
1441
100
AcDbPlotSettings
  1
1055+ 30x42 BW
  2
1055_PLUS_B&WDraftShaded.pc3
  4
User257
  6

 40
14.98600006103515
 41
8.297271728515625
 42
14.9859619140625
 43
8.29736328125
 44
914.3153076171875
 45
1269.915283203125
 46
0.0
 47
0.0
 48
0.0
 49
0.0
140
0.0
141
0.0
142
1.0
143
1.0
 70
  2800
 72
     0
 73
     1
 74
     1
  7
1055B&WFullDraftShaded.ctb
 75
    16
147
1.0
 76
     0
 77
     2
 78
   300
148
-75.74468520391772
149
-27.53050504688192
1001
ACAD_PSEXT
1000
1055_PLUS_B&WDraftShaded.pc3
1000
HP DesignJet 1055CM by HP
1000
FRONT
1000

1070
     0
  0
PLOTSETTINGS
  5
1C7D
102
{ACAD_REACTORS
330
1441
102
}
330
1441
100
AcDbPlotSettings
  1
1055+ 30x42 BW Final
  2
1055_PLUS_B&WFinalShaded.pc3
  4
User257
  6

 40
14.98600006103515
 41
8.297271728515625
 42
14.9859619140625
 43
8.29736328125
 44
914.357666015625
 45
1269.957641601562
 46
0.0
 47
0.0
 48
0.0
 49
0.0
140
0.0
141
0.0
142
1.0
143
1.0
 70
  2800
 72
     0
 73
     1
 74
     1
  7
1055B&WFullFinalShaded.ctb
 75
    16
147
1.0
 76
     0
 77
     2
 78
   300
148
-75.74468520391772
149
-27.53050504688192
1001
ACAD_PSEXT
1000
1055_PLUS_B&WFinalShaded.pc3
1000
HP DesignJet 1055CM by HP
1000
FRONT
1000

1070
     0
  0
PLOTSETTINGS
  5
1C7E
102
{ACAD_REACTORS
330
1441
102
}
330
1441
100
AcDbPlotSettings
  1
1055+ B&W Draft
  2
1055_PLUS_B&WDraftShaded.pc3
  4
User257
  6

 40
4.995333194732666
 41
13.2926607131958
 42
4.99530029296875
 43
13.292724609375
 44
914.3153076171875
 45
1269.915283203125
 46
0.0
 47
0.0
 48
0.0
 49
0.0
140
0.0
141
0.0
142
1.0
143
30.0
 70
 11936
 72
     0
 73
     2
 74
     1
  7
1055B&WFullDraftShaded.ctb
 75
     0
147
3.484472351238056
 76
     0
 77
     2
 78
   300
148
-119.4582094169044
149
-58.17053554795709
1001
ACAD_PSEXT
1000
1055_PLUS_B&WDraftShaded.pc3
1000
HP DesignJet 1055CM by HP
1000
\\aqua-srv01
1000

1070
     0
  0
PLOTSETTINGS
  5
1C7F
102
{ACAD_REACTORS
330
1441
102
}
330
1441
100
AcDbPlotSettings
  1
1055+ B&W Final
  2
1055_PLUS_B&WFinalShaded.pc3
  4
User257
  6

 40
4.995333194732666
 41
13.2926607131958
 42
4.99530029296875
 43
13.292724609375
 44
914.357666015625
 45
1269.957641601562
 46
0.0
 47
0.0
 48
0.0
 49
0.0
140
0.0
141
0.0
142
1.0
143
30.0
 70
 11936
 72
     0
 73
     2
 74
     1
  7
1055B&WFullFinalShaded.ctb
 75
     0
147
3.484472351238056
 76
     0
 77
     2
 78
   300
148
-119.4582094169044
149
-58.17053554795709
1001
ACAD_PSEXT
1000
1055_PLUS_B&WFinalShaded.pc3
1000
HP DesignJet 1055CM by HP
1000
\\aqua-srv01
1000

1070
     0
  0
PLOTSETTINGS
  5
1C80
102
{ACAD_REACTORS
330
1441
102
}
330
1441
100
AcDbPlotSettings
  1
1055+ BW Half
  2
1055_PLUS_B&WDraftShaded.pc3
  4
User257
  6

 40
14.98600006103515
 41
8.297271728515625
 42
14.9859619140625
 43
8.29736328125
 44
914.3153076171875
 45
1269.915283203125
 46
0.0
 47
0.0
 48
0.0
 49
0.0
140
0.0
141
0.0
142
1.0
143
2.0
 70
  2800
 72
     0
 73
     2
 74
     1
  7
1055B&WFullDraftShaded.ctb
 75
    17
147
0.5
 76
     0
 77
     2
 78
   300
148
-75.74468520391772
149
-27.53050504688192
1001
ACAD_PSEXT
1000
1055_PLUS_B&WDraftShaded.pc3
1000
HP DesignJet 1055CM by HP
1000
FRONT
1000

1070
     0
  0
PLOTSETTINGS
  5
1C81
102
{ACAD_REACTORS
330
1441
102
}
330
1441
100
AcDbPlotSettings
  1
1055+ Color Draft
  2
1055_PLUS_ColorDraftShaded.pc3
  4
User257
  6

 40
4.995333194732666
 41
8.297271728515625
 42
4.99530029296875
 43
8.29736328125
 44
914.3153076171875
 45
1269.915283203125
 46
0.0
 47
0.0
 48
0.0
 49
0.0
140
0.0
141
0.0
142
1.0
143
30.0
 70
 11936
 72
     0
 73
     2
 74
     1
  7
1055ColorFullDraftShaded.ctb
 75
     0
147
3.484472351238056
 76
     0
 77
     2
 78
   300
148
-119.4582094169044
149
-58.17053554795709
1001
ACAD_PSEXT
1000
1055_PLUS_ColorDraftShaded.pc3
1000
HP DesignJet 1055CM by HP
1000
\\aqua-srv01
1000

1070
     0
  0
PLOTSETTINGS
  5
1C82
102
{ACAD_REACTORS
330
1441
102
}
330
1441
100
AcDbPlotSettings
  1
1055+ Color Final
  2
1055_PLUS_ColorFinalShaded.pc3
  4
User257
  6

 40
4.995333194732666
 41
13.2926607131958
 42
4.99530029296875
 43
13.292724609375
 44
914.357666015625
 45
1269.957641601562
 46
0.0
 47
0.0
 48
0.0
 49
0.0
140
0.0
141
0.0
142
1.0
143
30.0
 70
 11936
 72
     0
 73
     2
 74
     1
  7
1055ColorFullFinalShaded.ctb
 75
     0
147
3.484472351238056
 76
     0
 77
     2
 78
   300
148
-119.4582094169044
149
-58.17053554795709
1001
ACAD_PSEXT
1000
1055_PLUS_ColorFinalShaded.pc3
1000
HP DesignJet 1055CM by HP
1000
\\aqua-srv01
1000

1070
     0
  0
PLOTSETTINGS
  5
1C83
102
{ACAD_REACTORS
330
1441
102
}
330
1441
100
AcDbPlotSettings
  1
_1055 22x34 True Centered BW
  2
1055B&WDraftShaded 24x36 true.pc3
  4
User1639
  6

 40
0.0
 41
0.0
 42
0.0
 43
0.0
 44
863.6000366210938
 45
558.7999877929687
 46
379.1860116761152
 47
224.9166389522296
 48
0.0
 49
0.0
140
0.0
141
0.0
142
1.0
143
1.0
 70
  2804
 72
     0
 73
     0
 74
     1
  7
1055B&WFullDraftShaded.ctb
 75
    16
147
1.0
 76
     0
 77
     2
 78
   300
148
-75.74468520391772
149
-27.53050504688192
1001
ACAD_PSEXT
1000
1055B&WDraftShaded 24x36 true.pc3
1000
HP DesignJet 1055CM by HP
1000
FRONT
1000

1070
     0
  0
PLOTSETTINGS
  5
1C84
102
{ACAD_REACTORS
330
1441
102
}
330
1441
100
AcDbPlotSettings
  1
_1055 24x36 True Centered BW
  2
1055B&WDraftShaded 24x36 true.pc3
  4
User1308
  6

 40
14.98600006103515
 41
8.297332763671875
 42
14.9859619140625
 43
8.29736328125
 44
914.3153076171875
 45
609.5153198242187
 46
389.5576661866133
 47
241.9769569453936
 48
0.0
 49
0.0
140
0.0
141
0.0
142
1.0
143
1.0
 70
  2804
 72
     0
 73
     0
 74
     1
  7
1055B&WFullDraftShaded.ctb
 75
    16
147
1.0
 76
     0
 77
     2
 78
   300
148
-75.74468520391772
149
-27.53050504688192
1001
ACAD_PSEXT
1000
1055B&WDraftShaded 24x36 true.pc3
1000
HP DesignJet 1055CM by HP
1000
FRONT
1000

1070
     0
  0
PLOTSETTINGS
  5
1C85
102
{ACAD_REACTORS
330
1441
102
}
330
1441
100
AcDbPlotSettings
  1
_1055 24x36 True Centered BW Final
  2
1055B&WFinalShaded 24x36 true.pc3
  4
User1308
  6

 40
14.98600006103515
 41
8.297332763671875
 42
14.9859619140625
 43
8.29736328125
 44
914.357666015625
 45
609.5576782226562
 46
389.578845385832
 47
241.9981361446124
 48
0.0
 49
0.0
140
0.0
141
0.0
142
1.0
143
1.0
 70
  2804
 72
     0
 73
     0
 74
     1
  7
1055B&WFullFinalShaded.ctb
 75
    16
147
1.0
 76
     0
 77
     2
 78
   300
148
-75.74468520391772
149
-27.53050504688192
1001
ACAD_PSEXT
1000
1055B&WFinalShaded 24x36 true.pc3
1000
HP DesignJet 1055CM by HP
1000
FRONT
1000

1070
     0
  0
PLOTSETTINGS
  5
1C86
102
{ACAD_REACTORS
330
1441
102
}
330
1441
100
AcDbPlotSettings
  1
_1055 24x36 True Centered Color
  2
1055ColorDraftShaded 24x36 true.pc3
  4
User1308
  6

 40
14.98600006103515
 41
8.297332763671875
 42
14.9859619140625
 43
8.29736328125
 44
914.3153076171875
 45
609.5153198242187
 46
389.5576661866133
 47
241.9769569453936
 48
0.0
 49
0.0
140
0.0
141
0.0
142
1.0
143
1.0
 70
  2804
 72
     0
 73
     0
 74
     1
  7
1055ColorFullDraftShaded.ctb
 75
    16
147
1.0
 76
     0
 77
     2
 78
   300
148
-75.74468520391772
149
-27.53050504688192
1001
ACAD_PSEXT
1000
1055ColorDraftShaded 24x36 true.pc3
1000
HP DesignJet 1055CM by HP
1000
FRONT
1000

1070
     0
  0
PLOTSETTINGS
  5
1C87
102
{ACAD_REACTORS
330
1441
102
}
330
1441
100
AcDbPlotSettings
  1
_1055 30x42 True Centered BW
  2
1055B&WDraftShaded 30x42 true.pc3
  4
User286
  6

 40
0.0
 41
0.0
 42
-0.08465576171875
 43
-0.084716796875
 44
761.9153442382812
 45
1066.71533203125
 46
326.5166450557452
 47
480.7860177796309
 48
0.0
 49
0.0
140
0.0
141
0.0
142
1.0
143
1.0
 70
  2804
 72
     0
 73
     1
 74
     1
  7
1055B&WFullDraftShaded.ctb
 75
    16
147
1.0
 76
     0
 77
     2
 78
   300
148
-75.74468520391772
149
-27.53050504688192
1001
ACAD_PSEXT
1000
1055B&WDraftShaded 30x42 true.pc3
1000
HP DesignJet 1055CM by HP
1000
FRONT
1000

1070
     0
  0
PLOTSETTINGS
  5
1C88
102
{ACAD_REACTORS
330
1441
102
}
330
1441
100
AcDbPlotSettings
  1
_1055+ 22x34 True Centered BW
  2
1055_PLUS_B&WDraftShaded 24x36 true.pc3
  4
User1639
  6

 40
0.0
 41
0.0
 42
0.0
 43
0.0
 44
863.6000366210938
 45
558.7999877929687
 46
379.1860116761152
 47
224.9166389522296
 48
0.0
 49
0.0
140
0.0
141
0.0
142
1.0
143
1.0
 70
  2804
 72
     0
 73
     0
 74
     1
  7
1055B&WFullDraftShaded.ctb
 75
    16
147
1.0
 76
     0
 77
     2
 78
   300
148
-75.74468520391772
149
-27.53050504688192
1001
ACAD_PSEXT
1000
1055_PLUS_B&WDraftShaded 24x36 true.pc3
1000
HP DesignJet 1055CM by HP
1000
FRONT
1000

1070
     0
  0
PLOTSETTINGS
  5
1C89
102
{ACAD_REACTORS
330
1441
102
}
330
1441
100
AcDbPlotSettings
  1
_1055+ 24x36 True Centered BW
  2
1055_PLUS_B&WDraftShaded 24x36 true.pc3
  4
User1308
  6

 40
14.98600006103515
 41
8.297332763671875
 42
14.9859619140625
 43
8.29736328125
 44
914.3153076171875
 45
609.5153198242187
 46
389.5576661866133
 47
241.9769569453936
 48
0.0
 49
0.0
140
0.0
141
0.0
142
1.0
143
1.0
 70
  2804
 72
     0
 73
     0
 74
     1
  7
1055B&WFullDraftShaded.ctb
 75
    16
147
1.0
 76
     0
 77
     2
 78
   300
148
-75.74468520391772
149
-27.53050504688192
1001
ACAD_PSEXT
1000
1055_PLUS_B&WDraftShaded 24x36 true.pc3
1000
HP DesignJet 1055CM by HP
1000
FRONT
1000

1070
     0
  0
PLOTSETTINGS
  5
1C8A
102
{ACAD_REACTORS
330
1441
102
}
330
1441
100
AcDbPlotSettings
  1
_1055+ 24x36 True Centered BW Final
  2
1055_PLUS_B&WFinalShaded 24x36 true.pc3
  4
User1308
  6

 40
14.98600006103515
 41
8.297332763671875
 42
14.9859619140625
 43
8.29736328125
 44
914.357666015625
 45
609.5576782226562
 46
389.578845385832
 47
241.9981361446124
 48
0.0
 49
0.0
140
0.0
141
0.0
142
1.0
143
1.0
 70
  2804
 72
     0
 73
     0
 74
     1
  7
1055B&WFullFinalShaded.ctb
 75
    16
147
1.0
 76
     0
 77
     2
 78
   300
148
-75.74468520391772
149
-27.53050504688192
1001
ACAD_PSEXT
1000
1055_PLUS_B&WFinalShaded 24x36 true.pc3
1000
HP DesignJet 1055CM by HP
1000
FRONT
1000

1070
     0
  0
PLOTSETTINGS
  5
1C8B
102
{ACAD_REACTORS
330
1441
102
}
330
1441
100
AcDbPlotSettings
  1
_1055+ 24x36 True Centered Color
  2
1055_PLUS_ColorDraftShaded 24x36 true.pc3
  4
User1308
  6

 40
14.98600006103515
 41
8.297332763671875
 42
14.9859619140625
 43
8.29736328125
 44
914.3153076171875
 45
609.5153198242187
 46
389.5576661866133
 47
241.9769569453936
 48
0.0
 49
0.0
140
0.0
141
0.0
142
1.0
143
1.0
 70
  2804
 72
     0
 73
     0
 74
     1
  7
1055ColorFullDraftShaded.ctb
 75
    16
147
1.0
 76
     0
 77
     2
 78
   300
148
-75.74468520391772
149
-27.53050504688192
1001
ACAD_PSEXT
1000
1055_PLUS_ColorDraftShaded 24x36 true.pc3
1000
HP DesignJet 1055CM by HP
1000
FRONT
1000

1070
     0
  0
PLOTSETTINGS
  5
1C8C
102
{ACAD_REACTORS
330
1441
102
}
330
1441
100
AcDbPlotSettings
  1
DWF BW 11x17 Fit
  2
DWF-BW_11x17.pc3
  4
UserDefinedImperial (17.00 x 11.00Inches)
  6

 40
0.0
 41
0.0
 42
0.0
 43
0.0
 44
431.7999877929687
 45
279.3999938964844
 46
80.99316641155249
 47
0.000000000000005
 48
0.0
 49
0.0
140
0.0
141
0.0
142
1.0
143
0.3900025492802298
 70
  2740
 72
     0
 73
     0
 74
     1
  7
1055B&WFullFinalShaded.ctb
 75
     0
147
2.564085803658341
 76
     0
 77
     2
 78
   300
148
-75.74468520391772
149
-27.53050504688192
1001
ACAD_PSEXT
1000
DWF-BW_11x17.pc3
1000
DWF eView (optimized for viewing)
1000
File
1000

1070
     0
  0
PLOTSETTINGS
  5
1C8D
102
{ACAD_REACTORS
330
1441
102
}
330
1441
100
AcDbPlotSettings
  1
DWF BW 11x17 Half
  2
DWF-BW_11x17.pc3
  4
UserDefinedImperial (17.00 x 11.00Inches)
  6

 40
0.0
 41
0.0
 42
0.0
 43
0.0
 44
431.7999877929687
 45
279.3999938964844
 46
189.5929905792686
 47
112.4583194761148
 48
0.0
 49
0.0
140
0.0
141
0.0
142
1.0
143
2.0
 70
  2740
 72
     0
 73
     0
 74
     1
  7
1055B&WFullFinalShaded.ctb
 75
    17
147
0.5
 76
     0
 77
     2
 78
   300
148
-75.74468520391772
149
-27.53050504688192
1001
ACAD_PSEXT
1000
DWF-BW_11x17.pc3
1000
DWF eView (optimized for viewing)
1000
File
1000

1070
     0
  0
PLOTSETTINGS
  5
1C8E
102
{ACAD_REACTORS
330
1441
102
}
330
1441
100
AcDbPlotSettings
  1
DWF BW 22x34
  2
DWF-BW_22x34.pc3
  4
UserDefinedImperial (34.00 x 22.00Inches)
  6

 40
0.0
 41
0.0
 42
0.0
 43
0.0
 44
863.5999755859375
 45
558.7999877929687
 46
379.1859811585372
 47
224.9166389522296
 48
0.0
 49
0.0
140
0.0
141
0.0
142
1.0
143
1.0
 70
  2740
 72
     0
 73
     0
 74
     1
  7
1055B&WFullFinalShaded.ctb
 75
    16
147
1.0
 76
     0
 77
     2
 78
   300
148
-75.74468520391772
149
-27.53050504688192
1001
ACAD_PSEXT
1000
DWF-BW_22x34.pc3
1000
DWF eView (optimized for viewing)
1000
File
1000

1070
     0
  0
PLOTSETTINGS
  5
1C8F
102
{ACAD_REACTORS
330
1441
102
}
330
1441
100
AcDbPlotSettings
  1
DWF BW 24x36
  2
DWF-BW_24x36.pc3
  4
UserDefinedImperial (36.00 x 24.00Inches)
  6

 40
0.0
 41
0.0
 42
0.0
 43
0.0
 44
914.4000244140626
 45
609.5999755859375
 46
404.5860055725996
 47
250.3166328487139
 48
0.0
 49
0.0
140
0.0
141
0.0
142
1.0
143
1.0
 70
  2740
 72
     0
 73
     0
 74
     1
  7
1055B&WFullFinalShaded.ctb
 75
    16
147
1.0
 76
     0
 77
     2
 78
   300
148
-75.74468520391772
149
-27.53050504688192
1001
ACAD_PSEXT
1000
DWF-BW_24x36.pc3
1000
DWF eView (optimized for viewing)
1000
File
1000

1070
     0
  0
PLOTSETTINGS
  5
1C90
102
{ACAD_REACTORS
330
1441
102
}
330
1441
100
AcDbPlotSettings
  1
DWF BW 30x42
  2
DWF-BW_30x42.pc3
  4
UserDefinedImperial (42.00 x 30.00Inches)
  6

 40
0.0
 41
0.0
 42
0.0
 43
0.0
 44
1066.800048828125
 45
762.0
 46
480.7860177796309
 47
326.5166450557452
 48
0.0
 49
0.0
140
0.0
141
0.0
142
1.0
143
1.0
 70
  2740
 72
     0
 73
     0
 74
     1
  7
1055B&WFullFinalShaded.ctb
 75
    16
147
1.0
 76
     0
 77
     2
 78
   300
148
-75.74468520391772
149
-27.53050504688192
1001
ACAD_PSEXT
1000
DWF-BW_30x42.pc3
1000
DWF eView (optimized for viewing)
1000
File
1000

1070
     0
  0
PLOTSETTINGS
  5
1C91
102
{ACAD_REACTORS
330
1441
102
}
330
1441
100
AcDbPlotSettings
  1
DWF BW 36x48
  2
DWF-BW_36x48.pc3
  4
UserDefinedImperial (48.00 x 36.00Inches)
  6

 40
0.0
 41
0.0
 42
0.0
 43
0.0
 44
1219.199951171875
 45
914.4000244140626
 46
556.9859689515058
 47
402.7166572627765
 48
0.0
 49
0.0
140
0.0
141
0.0
142
1.0
143
1.0
 70
  2740
 72
     0
 73
     0
 74
     1
  7
1055B&WFullFinalShaded.ctb
 75
    16
147
1.0
 76
     0
 77
     2
 78
   300
148
-75.74468520391772
149
-27.53050504688192
1001
ACAD_PSEXT
1000
DWF-BW_36x48.pc3
1000
DWF eView (optimized for viewing)
1000
File
1000

1070
     0
  0
PLOTSETTINGS
  5
1C92
102
{ACAD_REACTORS
330
1441
102
}
330
1441
100
AcDbPlotSettings
  1
Laser5 11x17 Fit
  2
LaserJet5Shaded.pc3
  4
11x17
  6

 40
5.873749732971191
 41
5.027085304260253
 42
5.873748779296875
 43
5.027069091796875
 44
431.7999877929687
 45
279.3999938964844
 46
79.97401308328474
 47
0.0
 48
0.0
 49
0.0
140
0.0
141
0.0
142
1.0
143
0.4045605831172927
 70
  2740
 72
     0
 73
     0
 74
     1
  7
LaserJet5Shaded.ctb
 75
     0
147
2.471817675104729
 76
     0
 77
     2
 78
   300
148
-75.74468520391772
149
-27.53050504688192
1001
ACAD_PSEXT
1000
LaserJet5Shaded.pc3
1000
HP LaserJet 5Si
1000
\\aqua-srv01
1000

1070
     0
  0
PLOTSETTINGS
  5
1C93
102
{ACAD_REACTORS
330
1441
102
}
330
1441
100
AcDbPlotSettings
  1
Laser5 11x17 Full
  2
LaserJet5Shaded.pc3
  4
11x17
  6

 40
5.873749732971191
 41
5.027085304260253
 42
5.873748779296875
 43
5.027069091796875
 44
431.7999877929687
 45
279.3999938964844
 46
157.4122380059187
 47
80.18956480595884
 48
0.0
 49
0.0
140
0.0
141
0.0
142
1.0
143
1.0
 70
  2724
 72
     0
 73
     0
 74
     1
  7
LaserJet5Shaded.ctb
 75
     0
147
2.433550528115671
 76
     0
 77
     2
 78
   300
148
-75.74468520391772
149
-27.53050504688192
1001
ACAD_PSEXT
1000
LaserJet5Shaded.pc3
1000
HP LaserJet 5Si
1000
\\aqua-srv01
1000

1070
     0
  0
PLOTSETTINGS
  5
1C94
102
{ACAD_REACTORS
330
1441
102
}
330
1441
100
AcDbPlotSettings
  1
Laser5 11x17 Half
  2
LaserJet5Shaded.pc3
  4
11x17
  6

 40
5.873749732971191
 41
5.027085304260253
 42
5.873748779296875
 43
5.027069091796875
 44
431.7999877929687
 45
279.3999938964844
 46
183.7192413231345
 47
107.4312422780862
 48
0.0
 49
0.0
140
0.0
141
0.0
142
1.0
143
2.0
 70
  2740
 72
     0
 73
     0
 74
     1
  7
LaserJet5Shaded.ctb
 75
    17
147
0.5
 76
     0
 77
     2
 78
   300
148
-75.74468520391772
149
-27.53050504688192
1001
ACAD_PSEXT
1000
LaserJet5Shaded.pc3
1000
HP LaserJet 5Si
1000
\\aqua-srv01
1000

1070
     0
  0
PLOTSETTINGS
  5
1C95
102
{ACAD_REACTORS
330
1441
102
}
330
1441
100
AcDbPlotSettings
  1
Laser5 8x11 Fit
  2
LaserJet5Shaded-8x11.pc3
  4
Letter
  6

 40
5.873749732971191
 41
5.027085304260253
 42
5.873748779296875
 43
5.027084350585937
 44
279.3999938964844
 45
215.8999938964844
 46
34.4346667826652
 47
0.0
 48
0.0
 49
0.0
140
0.0
141
0.0
142
1.0
143
0.5293607985003172
 70
  2740
 72
     0
 73
     0
 74
     1
  7
LaserJet5Shaded.ctb
 75
     0
147
1.889070748784206
 76
     0
 77
     2
 78
   300
148
-75.74468520391772
149
-27.53050504688192
1001
ACAD_PSEXT
1000
LaserJet5Shaded-8x11.pc3
1000
HP LaserJet 5Si
1000
\\aqua-srv01
1000

1070
     0
  0
PLOTSETTINGS
  5
1C96
102
{ACAD_REACTORS
330
1441
102
}
330
1441
100
AcDbPlotSettings
  1
Laser5 8x11 Half
  2
LaserJet5Shaded-8x11.pc3
  4
Letter
  6

 40
5.873749732971191
 41
5.027085304260253
 42
5.873748779296875
 43
5.027084350585937
 44
279.3999938964844
 45
215.8999938964844
 46
107.5192443748923
 47
75.68123464869171
 48
0.0
 49
0.0
140
0.0
141
0.0
142
1.0
143
2.0
 70
  2740
 72
     0
 73
     0
 74
     1
  7
LaserJet5Shaded.ctb
 75
    17
147
0.5
 76
     0
 77
     2
 78
   300
148
-75.74468520391772
149
-27.53050504688192
1001
ACAD_PSEXT
1000
LaserJet5Shaded-8x11.pc3
1000
HP LaserJet 5Si
1000
\\aqua-srv01
1000

1070
     0
  0
PLOTSETTINGS
  5
1C97
102
{ACAD_REACTORS
330
1441
102
}
330
1441
100
AcDbPlotSettings
  1
Laser5 8x11 Portrait Fit
  2
LaserJet5Shaded-8x11.pc3
  4
Letter
  6

 40
5.873749732971191
 41
5.027085304260253
 42
5.873748779296875
 43
5.027084350585937
 44
279.3999938964844
 45
215.8999938964844
 46
27.24653799736659
 47
0.0000000000000029
 48
0.0
 49
0.0
140
0.0
141
0.0
142
1.0
143
0.5111981924167587
 70
  2740
 72
     0
 73
     1
 74
     1
  7
LaserJet5Shaded.ctb
 75
     0
147
1.956188450652308
 76
     0
 77
     2
 78
   300
148
-75.74468520391772
149
-27.53050504688192
1001
ACAD_PSEXT
1000
LaserJet5Shaded-8x11.pc3
1000
HP LaserJet 5Si
1000
\\aqua-srv01
1000

1070
     0
  0
PLOTSETTINGS
  5
1C98
102
{ACAD_REACTORS
330
1441
102
}
330
1441
100
AcDbPlotSettings
  1
LaserJet5 11x17
  2
LaserJet5Shaded.pc3
  4
11x17
  6

 40
7.111999988555908
 41
5.079999923706054
 42
7.11199951171875
 43
5.079986572265625
 44
279.3999938964844
 45
431.7999877929687
 46
0.0
 47
74.88489939702606
 48
0.0
 49
0.0
140
0.0
141
0.0
142
1.0
143
0.3551636250563743
 70
 11956
 72
     0
 73
     1
 74
     1
  7
LaserJet5Shaded.ctb
 75
     0
147
2.815603652658045
 76
     0
 77
     2
 78
   300
148
-119.4582094169044
149
-58.17053554795709
1001
ACAD_PSEXT
1000
LaserJet5Shaded.pc3
1000
HP LaserJet 5Si
1000
\\aqua-srv01
1000

1070
     0
  0
PLOTSETTINGS
  5
1C99
102
{ACAD_REACTORS
330
1441
102
}
330
1441
100
AcDbPlotSettings
  1
LaserJet5 8.5x11
  2
LaserJet5Shaded-8x11.pc3
  4
Letter
  6

 40
5.873749732971191
 41
5.873734951019287
 42
6.55108642578125
 43
5.027084350585937
 44
279.3999938964844
 45
215.8999938964844
 46
28.40045128601757
 47
0.0000000000000046
 48
0.0
 49
0.0
140
0.0
141
0.0
142
1.0
143
0.4594207153946231
 70
 11956
 72
     0
 73
     0
 74
     1
  7
LaserJet5Shaded.ctb
 75
     0
147
2.176654135286525
 76
     0
 77
     2
 78
   300
148
-119.4582094169044
149
-58.17053554795709
1001
ACAD_PSEXT
1000
LaserJet5Shaded-8x11.pc3
1000
HP LaserJet 5Si
1000
CAD Area
1000

1070
     0
  0
PLOTSETTINGS
  5
1C9A
102
{ACAD_REACTORS
330
1441
102
}
330
1441
100
AcDbPlotSettings
  1
Oki9500 11x17 BW Fit
  2
OKI DOKI Color Laser.pc3
  4
Tabloid
  6

 40
5.027083396911621
 41
5.027085304260253
 42
5.027099609375
 43
5.027069091796875
 44
431.7999877929687
 45
279.3999938964844
 46
80.82067083627547
 47
0.0
 48
0.0
 49
0.0
140
0.0
141
0.0
142
1.0
143
0.4045605831172927
 70
  2740
 72
     0
 73
     0
 74
     1
  7
OKIB&WShaded.ctb
 75
     0
147
2.471817675104729
 76
     0
 77
     2
 78
   300
148
-75.74468520391772
149
-27.53050504688192
1001
ACAD_PSEXT
1000
OKI DOKI Color Laser.pc3
1000
OKI C9500(PCL)
1000
FRONT
1000

1070
     0
  0
PLOTSETTINGS
  5
1C9B
102
{ACAD_REACTORS
330
1441
102
}
330
1441
100
AcDbPlotSettings
  1
Oki9500 11x17 BW Full
  2
OKI DOKI Color Laser.pc3
  4
Tabloid
  6

 40
5.027083396911621
 41
5.027085304260253
 42
5.027099609375
 43
5.027069091796875
 44
431.7999877929687
 45
279.3999938964844
 46
158.2588957589094
 47
80.18956480595884
 48
0.0
 49
0.0
140
0.0
141
0.0
142
1.0
143
1.0
 70
  2724
 72
     0
 73
     0
 74
     1
  7
OKIB&WShaded.ctb
 75
     0
147
2.471817675104729
 76
     0
 77
     2
 78
   300
148
-75.74468520391772
149
-27.53050504688192
1001
ACAD_PSEXT
1000
OKI DOKI Color Laser.pc3
1000
OKI C9500(PCL)
1000
FRONT
1000

1070
     0
  0
PLOTSETTINGS
  5
1C9C
102
{ACAD_REACTORS
330
1441
102
}
330
1441
100
AcDbPlotSettings
  1
Oki9500 11x17 BW Half
  2
OKI DOKI Color Laser.pc3
  4
Tabloid
  6

 40
5.027083396911621
 41
5.027085304260253
 42
5.027099609375
 43
5.027069091796875
 44
431.7999877929687
 45
279.3999938964844
 46
184.5658990761252
 47
107.4312422780862
 48
0.0
 49
0.0
140
0.0
141
0.0
142
1.0
143
2.0
 70
  2740
 72
     0
 73
     0
 74
     1
  7
OKIB&WShaded.ctb
 75
    17
147
0.5
 76
     0
 77
     2
 78
   300
148
-75.74468520391772
149
-27.53050504688192
1001
ACAD_PSEXT
1000
OKI DOKI Color Laser.pc3
1000
OKI C9500(PCL)
1000
FRONT
1000

1070
     0
  0
PLOTSETTINGS
  5
1C9D
102
{ACAD_REACTORS
330
1441
102
}
330
1441
100
AcDbPlotSettings
  1
Oki9500 11x17 Color Fit
  2
OKI DOKI Color Laser.pc3
  4
Tabloid
  6

 40
5.027083396911621
 41
5.027085304260253
 42
5.027099609375
 43
5.027069091796875
 44
431.7999877929687
 45
279.3999938964844
 46
80.82067083627547
 47
0.0
 48
0.0
 49
0.0
140
0.0
141
0.0
142
1.0
143
0.4045605831172927
 70
  2740
 72
     0
 73
     0
 74
     1
  7
OKIColorShaded.ctb
 75
     0
147
2.471817675104729
 76
     0
 77
     2
 78
   300
148
-75.74468520391772
149
-27.53050504688192
1001
ACAD_PSEXT
1000
OKI DOKI Color Laser.pc3
1000
OKI C9500(PCL)
1000
FRONT
1000

1070
     0
  0
PLOTSETTINGS
  5
1C9E
102
{ACAD_REACTORS
330
1441
102
}
330
1441
100
AcDbPlotSettings
  1
Oki9500 11x17 Color Full
  2
OKI DOKI Color Laser.pc3
  4
Tabloid
  6

 40
5.027082920074462
 41
5.027085781097412
 42
5.027099609375
 43
5.027069091796875
 44
431.7999877929687
 45
279.3999938964844
 46
158.258895997328
 47
80.18956456754025
 48
0.0
 49
0.0
140
0.0
141
0.0
142
1.0
143
1.0
 70
  2724
 72
     0
 73
     0
 74
     1
  7
OKIColorShaded.ctb
 75
     0
147
2.471817675104729
 76
     0
 77
     2
 78
   300
148
-75.74468520391772
149
-27.53050504688192
1001
ACAD_PSEXT
1000
OKI DOKI Color Laser.pc3
1000
OKI C9600(PCL)
1000
FRONT
1000

1070
     0
  0
PLOTSETTINGS
  5
1C9F
102
{ACAD_REACTORS
330
1441
102
}
330
1441
100
AcDbPlotSettings
  1
Oki9500 11x17 Color Half
  2
OKI DOKI Color Laser.pc3
  4
Tabloid
  6

 40
5.027083396911621
 41
5.027085304260253
 42
5.027099609375
 43
5.027069091796875
 44
431.7999877929687
 45
279.3999938964844
 46
184.5658990761252
 47
107.4312422780862
 48
0.0
 49
0.0
140
0.0
141
0.0
142
1.0
143
2.0
 70
  2740
 72
     0
 73
     0
 74
     1
  7
OKIColorShaded.ctb
 75
    17
147
0.5
 76
     0
 77
     2
 78
   300
148
-75.74468520391772
149
-27.53050504688192
1001
ACAD_PSEXT
1000
OKI DOKI Color Laser.pc3
1000
OKI C9500(PCL)
1000
FRONT
1000

1070
     0
  0
PLOTSETTINGS
  5
1CA0
102
{ACAD_REACTORS
330
1441
102
}
330
1441
100
AcDbPlotSettings
  1
Oki9500 8x11 BW Fit
  2
OKI DOKI Color Laser8x11.pc3
  4
Letter
  6

 40
5.027083396911621
 41
5.027085304260253
 42
5.027099609375
 43
5.027084350585937
 44
279.3999938964844
 45
215.8999938964844
 46
35.28132453565591
 47
0.0
 48
0.0
 49
0.0
140
0.0
141
0.0
142
1.0
143
0.5293607985003172
 70
  2740
 72
     0
 73
     0
 74
     1
  7
OKIB&WShaded.ctb
 75
     0
147
1.889070748784206
 76
     0
 77
     2
 78
   300
148
-75.74468520391772
149
-27.53050504688192
1001
ACAD_PSEXT
1000
OKI DOKI Color Laser8x11.pc3
1000
OKI C9500(PCL)
1000
FRONT
1000

1070
     0
  0
PLOTSETTINGS
  5
1CA1
102
{ACAD_REACTORS
330
1441
102
}
330
1441
100
AcDbPlotSettings
  1
Oki9500 8x11 BW Portrait Fit
  2
OKI DOKI Color Laser8x11.pc3
  4
Letter
  6

 40
5.027083396911621
 41
5.027085304260253
 42
5.027099609375
 43
5.027084350585937
 44
279.3999938964844
 45
215.8999938964844
 46
28.0931957503573
 47
0.0000000000000029
 48
0.0
 49
0.0
140
0.0
141
0.0
142
1.0
143
0.5111981924167587
 70
  2740
 72
     0
 73
     1
 74
     1
  7
OKIB&WShaded.ctb
 75
     0
147
1.956188450652308
 76
     0
 77
     2
 78
   300
148
-75.74468520391772
149
-27.53050504688192
1001
ACAD_PSEXT
1000
OKI DOKI Color Laser8x11.pc3
1000
OKI C9500(PCL)
1000
FRONT
1000

1070
     0
  0
PLOTSETTINGS
  5
1CA2
102
{ACAD_REACTORS
330
1441
102
}
330
1441
100
AcDbPlotSettings
  1
Oki9500 8x11 Color Fit
  2
OKI DOKI Color Laser8x11.pc3
  4
Letter
  6

 40
5.027083396911621
 41
5.027085304260253
 42
5.027099609375
 43
5.027084350585937
 44
279.3999938964844
 45
215.8999938964844
 46
35.28132453565591
 47
0.0
 48
0.0
 49
0.0
140
0.0
141
0.0
142
1.0
143
0.5293607985003172
 70
  2740
 72
     0
 73
     0
 74
     1
  7
OKIColorShaded.ctb
 75
     0
147
1.889070748784206
 76
     0
 77
     2
 78
   300
148
-75.74468520391772
149
-27.53050504688192
1001
ACAD_PSEXT
1000
OKI DOKI Color Laser8x11.pc3
1000
OKI C9500(PCL)
1000
FRONT
1000

1070
     0
  0
PLOTSETTINGS
  5
1CA3
102
{ACAD_REACTORS
330
1441
102
}
330
1441
100
AcDbPlotSettings
  1
Oki9500 8x11 Color Portrait Fit
  2
OKI DOKI Color Laser8x11.pc3
  4
Letter
  6

 40
5.027083396911621
 41
5.027085304260253
 42
5.027099609375
 43
5.027084350585937
 44
279.3999938964844
 45
215.8999938964844
 46
28.0931957503573
 47
0.0000000000000029
 48
0.0
 49
0.0
140
0.0
141
0.0
142
1.0
143
0.5111981924167587
 70
  2740
 72
     0
 73
     1
 74
     1
  7
OKIColorShaded.ctb
 75
     0
147
1.956188450652308
 76
     0
 77
     2
 78
   300
148
-75.74468520391772
149
-27.53050504688192
1001
ACAD_PSEXT
1000
OKI DOKI Color Laser8x11.pc3
1000
OKI C9500(PCL)
1000
FRONT
1000

1070
     0
  0
PLOTSETTINGS
  5
1CA4
102
{ACAD_REACTORS
330
1441
102
}
330
1441
100
AcDbPlotSettings
  1
OKI9500 B&W 11x17
  2
OKI DOKI Color Laser.pc3
  4
11x17
  6

 40
5.873749732971191
 41
5.873734951019287
 42
5.873748779296875
 43
5.027069091796875
 44
431.7999877929687
 45
279.3999938964844
 46
72.38759962724653
 47
0.0000000000000057
 48
0.0
 49
0.0
140
0.0
141
0.0
142
1.0
143
0.3507677900220671
 70
 11956
 72
     0
 73
     0
 74
     1
  7
OKIB&WShaded.ctb
 75
     0
147
2.850888902704233
 76
     0
 77
     2
 78
   300
148
-119.4582094169044
149
-58.17053554795709
1001
ACAD_PSEXT
1000
OKI DOKI Color Laser.pc3
1000
HP LaserJet 5Si
1000
CAD Area
1000

1070
     0
  0
PLOTSETTINGS
  5
1CA5
102
{ACAD_REACTORS
330
1441
102
}
330
1441
100
AcDbPlotSettings
  1
OKI9500 B&W 8.5x11
  2
OKI DOKI Color Laser8x11.pc3
  4
Letter
  6

 40
5.873749732971191
 41
5.873734951019287
 42
6.55108642578125
 43
5.027084350585937
 44
279.3999938964844
 45
215.8999938964844
 46
28.40045128601757
 47
0.0000000000000046
 48
0.0
 49
0.0
140
0.0
141
0.0
142
1.0
143
0.4594207153946231
 70
 11956
 72
     0
 73
     0
 74
     1
  7
OKIB&WShaded.ctb
 75
     0
147
2.176654135286525
 76
     0
 77
     2
 78
   300
148
-119.4582094169044
149
-58.17053554795709
1001
ACAD_PSEXT
1000
OKI DOKI Color Laser8x11.pc3
1000
HP LaserJet 5Si
1000
CAD Area
1000

1070
     0
  0
PLOTSETTINGS
  5
1CA6
102
{ACAD_REACTORS
330
1441
102
}
330
1441
100
AcDbPlotSettings
  1
OKI9500 Color 11x17
  2
OKI DOKI Color Laser.pc3
  4
Tabloid
  6

 40
5.027083396911621
 41
5.027085304260253
 42
5.027099609375
 43
5.027069091796875
 44
431.7999877929687
 45
279.3999938964844
 46
72.80024597690952
 47
0.0
 48
0.0
 49
0.0
140
0.0
141
0.0
142
1.0
143
0.349665202263268
 70
 11956
 72
     0
 73
     0
 74
     1
  7
OKIColorShaded.ctb
 75
     0
147
2.859878516727796
 76
     0
 77
     2
 78
   300
148
-119.4582094169044
149
-58.17053554795709
1001
ACAD_PSEXT
1000
OKI DOKI Color Laser.pc3
1000
OKI C9500(PCL)
1000
FRONT
1000

1070
     0
  0
PLOTSETTINGS
  5
1CA7
102
{ACAD_REACTORS
330
1441
102
}
330
1441
100
AcDbPlotSettings
  1
OKI9500 Color 8.5x11
  2
OKI DOKI Color Laser8x11.pc3
  4
Letter
  6

 40
5.873749732971191
 41
5.873734951019287
 42
6.55108642578125
 43
5.027084350585937
 44
279.3999938964844
 45
215.8999938964844
 46
28.40045128601757
 47
0.0000000000000046
 48
0.0
 49
0.0
140
0.0
141
0.0
142
1.0
143
0.4594207153946231
 70
 11956
 72
     0
 73
     0
 74
     1
  7
OKIColorShaded.ctb
 75
     0
147
2.176654135286525
 76
     0
 77
     2
 78
   300
148
-119.4582094169044
149
-58.17053554795709
1001
ACAD_PSEXT
1000
OKI DOKI Color Laser8x11.pc3
1000
HP LaserJet 5Si
1000
CAD Area
1000

1070
     0
  0
PLOTSETTINGS
  5
1CA8
102
{ACAD_REACTORS
330
1441
102
}
330
1441
100
AcDbPlotSettings
  1
Oki9600 11x17 BW Fit
  2
9600 BW 11x17.pc3
  4
Tabloid
  6

 40
5.027082920074462
 41
5.027085781097412
 42
5.027099609375
 43
5.027069091796875
 44
431.7999877929687
 45
279.3999938964844
 46
80.82067130493244
 47
0.000000000000007
 48
0.0
 49
0.0
140
0.0
141
0.0
142
1.0
143
0.4045605838335077
 70
  2804
 72
     0
 73
     0
 74
     1
  7
OKIB&WShaded.ctb
 75
     0
147
2.47181767072874
 76
     0
 77
     2
 78
   300
148
-75.74468520391772
149
-27.53050504688192
1001
ACAD_PSEXT
1000
9600 BW 11x17.pc3
1000
OKI C9600(PCL)
1000
Expansion Area
1000

1070
     0
  0
PLOTSETTINGS
  5
1CA9
102
{ACAD_REACTORS
330
1441
102
}
330
1441
100
AcDbPlotSettings
  1
Oki9600 11x17 BW Full
  2
9600 BW 11x17.pc3
  4
Tabloid
  6

 40
5.027082920074462
 41
5.027085781097412
 42
5.027099609375
 43
5.027069091796875
 44
431.7999877929687
 45
279.3999938964844
 46
158.258895997328
 47
80.18956456754025
 48
0.0
 49
0.0
140
0.0
141
0.0
142
1.0
143
1.0
 70
  2788
 72
     0
 73
     0
 74
     1
  7
OKIB&WShaded.ctb
 75
     0
147
2.47181767072874
 76
     0
 77
     2
 78
   300
148
-75.74468520391772
149
-27.53050504688192
1001
ACAD_PSEXT
1000
9600 BW 11x17.pc3
1000
OKI C9600(PCL)
1000
Expansion Area
1000

1070
     0
  0
PLOTSETTINGS
  5
1CAA
102
{ACAD_REACTORS
330
1441
102
}
330
1441
100
AcDbPlotSettings
  1
Oki9600 11x17 BW Half
  2
9600 BW 11x17.pc3
  4
Tabloid
  6

 40
5.027082920074462
 41
5.027085781097412
 42
5.027099609375
 43
5.027069091796875
 44
431.7999877929687
 45
279.3999938964844
 46
184.5658993145439
 47
107.4312420396676
 48
0.0
 49
0.0
140
0.0
141
0.0
142
1.0
143
2.0
 70
  2788
 72
     0
 73
     0
 74
     1
  7
OKIB&WShaded.ctb
 75
     0
147
2.47181767072874
 76
     0
 77
     2
 78
   300
148
-75.74468520391772
149
-27.53050504688192
1001
ACAD_PSEXT
1000
9600 BW 11x17.pc3
1000
OKI C9600(PCL)
1000
Expansion Area
1000

1070
     0
  0
PLOTSETTINGS
  5
1CAB
102
{ACAD_REACTORS
330
1441
102
}
330
1441
100
AcDbPlotSettings
  1
Oki9600 11x17 Color Fit
  2
9600 Color 11x17.pc3
  4
Tabloid
  6

 40
5.027082920074462
 41
5.027085781097412
 42
5.027099609375
 43
5.027069091796875
 44
431.7999877929687
 45
279.3999938964844
 46
80.82067130493244
 47
0.000000000000007
 48
0.0
 49
0.0
140
0.0
141
0.0
142
1.0
143
0.4045605838335077
 70
  2804
 72
     0
 73
     0
 74
     1
  7
OKIColorShaded.ctb
 75
     0
147
2.47181767072874
 76
     0
 77
     2
 78
   300
148
-75.74468520391772
149
-27.53050504688192
1001
ACAD_PSEXT
1000
9600 Color 11x17.pc3
1000
OKI C9600(PCL)
1000
Expansion Area
1000

1070
     0
  0
PLOTSETTINGS
  5
1CAC
102
{ACAD_REACTORS
330
1441
102
}
330
1441
100
AcDbPlotSettings
  1
Oki9600 11x17 Color Full
  2
9600 Color 11x17.pc3
  4
Tabloid
  6

 40
5.027082920074462
 41
5.027085781097412
 42
5.027099609375
 43
5.027069091796875
 44
431.7999877929687
 45
279.3999938964844
 46
158.258895997328
 47
80.18956456754025
 48
0.0
 49
0.0
140
0.0
141
0.0
142
1.0
143
1.0
 70
  2788
 72
     0
 73
     0
 74
     1
  7
OKIColorShaded.ctb
 75
     0
147
2.47181767072874
 76
     0
 77
     2
 78
   300
148
-75.74468520391772
149
-27.53050504688192
1001
ACAD_PSEXT
1000
9600 Color 11x17.pc3
1000
OKI C9600(PCL)
1000
Expansion Area
1000

1070
     0
  0
PLOTSETTINGS
  5
1CAD
102
{ACAD_REACTORS
330
1441
102
}
330
1441
100
AcDbPlotSettings
  1
Oki9600 11x17 Color Half
  2
9600 Color 11x17.pc3
  4
Tabloid
  6

 40
5.027082920074462
 41
5.027085781097412
 42
5.027099609375
 43
5.027069091796875
 44
431.7999877929687
 45
279.3999938964844
 46
184.5658993145439
 47
107.4312420396676
 48
0.0
 49
0.0
140
0.0
141
0.0
142
1.0
143
2.0
 70
  2788
 72
     0
 73
     0
 74
     1
  7
OKIColorShaded.ctb
 75
     0
147
2.47181767072874
 76
     0
 77
     2
 78
   300
148
-75.74468520391772
149
-27.53050504688192
1001
ACAD_PSEXT
1000
9600 Color 11x17.pc3
1000
OKI C9600(PCL)
1000
Expansion Area
1000

1070
     0
  0
PLOTSETTINGS
  5
1CAE
102
{ACAD_REACTORS
330
1441
102
}
330
1441
100
AcDbPlotSettings
  1
Oki9600 8x11 BW Fit
  2
9600 BW 8.5x11.pc3
  4
Letter
  6

 40
5.027082920074462
 41
5.027070522308349
 42
5.027099609375
 43
5.027084350585937
 44
279.3999938964844
 45
215.8999938964844
 46
35.28131763668624
 47
0.0000000000000033
 48
0.0
 49
0.0
140
0.0
141
0.0
142
1.0
143
0.5293607604865011
 70
  2804
 72
     0
 73
     0
 74
     1
  7
OKIB&WShaded.ctb
 75
     0
147
1.889070884439876
 76
     0
 77
     2
 78
   300
148
-75.74468520391772
149
-27.53050504688192
1001
ACAD_PSEXT
1000
9600 BW 8.5x11.pc3
1000
OKI C9600(PCL)
1000
Expansion Area
1000

1070
     0
  0
PLOTSETTINGS
  5
1CAF
102
{ACAD_REACTORS
330
1441
102
}
330
1441
100
AcDbPlotSettings
  1
Oki9600 8x11 BW Portrait Fit
  2
9600 BW 8.5x11.pc3
  4
Letter
  6

 40
5.027082920074462
 41
5.027070522308349
 42
5.027099609375
 43
5.027084350585937
 44
279.3999938964844
 45
215.8999938964844
 46
28.09318833520237
 47
-0.0000000000000029
 48
0.0
 49
0.0
140
0.0
141
0.0
142
1.0
143
0.5111981557072135
 70
  2804
 72
     0
 73
     1
 74
     1
  7
OKIB&WShaded.ctb
 75
     0
147
1.956188591127753
 76
     0
 77
     2
 78
   300
148
-75.74468520391772
149
-27.53050504688192
1001
ACAD_PSEXT
1000
9600 BW 8.5x11.pc3
1000
OKI C9600(PCL)
1000
Expansion Area
1000

1070
     0
  0
PLOTSETTINGS
  5
1CB0
102
{ACAD_REACTORS
330
1441
102
}
330
1441
100
AcDbPlotSettings
  1
Oki9600 8x11 Color Fit
  2
9600 Color 8.5x11.pc3
  4
Letter
  6

 40
5.027082920074462
 41
5.027070522308349
 42
5.027099609375
 43
5.027084350585937
 44
279.3999938964844
 45
215.8999938964844
 46
35.28131763668624
 47
0.0000000000000033
 48
0.0
 49
0.0
140
0.0
141
0.0
142
1.0
143
0.5293607604865011
 70
  2804
 72
     0
 73
     0
 74
     1
  7
OKIColorShaded.ctb
 75
     0
147
1.889070884439876
 76
     0
 77
     2
 78
   300
148
-75.74468520391772
149
-27.53050504688192
1001
ACAD_PSEXT
1000
9600 Color 8.5x11.pc3
1000
OKI C9600(PCL)
1000
Expansion Area
1000

1070
     0
  0
PLOTSETTINGS
  5
1CB1
102
{ACAD_REACTORS
330
1441
102
}
330
1441
100
AcDbPlotSettings
  1
Oki9600 8x11 Color Portrait Fit
  2
9600 Color 8.5x11.pc3
  4
Letter
  6

 40
5.027082920074462
 41
5.027070522308349
 42
5.027099609375
 43
5.027084350585937
 44
279.3999938964844
 45
215.8999938964844
 46
28.09318833520237
 47
-0.0000000000000029
 48
0.0
 49
0.0
140
0.0
141
0.0
142
1.0
143
0.5111981557072135
 70
  2804
 72
     0
 73
     1
 74
     1
  7
OKIColorShaded.ctb
 75
     0
147
1.956188591127753
 76
     0
 77
     2
 78
   300
148
-75.74468520391772
149
-27.53050504688192
1001
ACAD_PSEXT
1000
9600 Color 8.5x11.pc3
1000
OKI C9600(PCL)
1000
Expansion Area
1000

1070
     0
  0
PLOTSETTINGS
  5
1CB2
102
{ACAD_REACTORS
330
1441
102
}
330
1441
100
AcDbPlotSettings
  1
OKI9600 B&W 11x17
  2
9600 BW 11x17.pc3
  4
Tabloid
  6

 40
5.027082920074462
 41
5.027085781097412
 42
5.027099609375
 43
5.027069091796875
 44
431.7999877929687
 45
279.3999938964844
 46
72.80024645976547
 47
-0.0000000000000027
 48
0.0
 49
0.0
140
0.0
141
0.0
142
1.0
143
0.3496652028822988
 70
 11956
 72
     0
 73
     0
 74
     1
  7
OKIB&WShaded.ctb
 75
     0
147
2.859878511664802
 76
     0
 77
     2
 78
   300
148
-119.4582094169044
149
-58.17053554795709
1001
ACAD_PSEXT
1000
9600 BW 11x17.pc3
1000
OKI C9600(PCL)
1000
Expansion Area
1000

1070
     0
  0
PLOTSETTINGS
  5
1CB3
102
{ACAD_REACTORS
330
1441
102
}
330
1441
100
AcDbPlotSettings
  1
OKI9600 B&W 8.5x11
  2
9600 BW 8.5x11.pc3
  4
Letter
  6

 40
5.027082920074462
 41
5.027070522308349
 42
5.027099609375
 43
5.027084350585937
 44
279.3999938964844
 45
215.8999938964844
 46
29.15175911978468
 47
0.0000000000000065
 48
0.0
 49
0.0
140
0.0
141
0.0
142
1.0
143
0.4575310722549676
 70
 11956
 72
     0
 73
     0
 74
     1
  7
OKIB&WShaded.ctb
 75
     0
147
2.185643906262899
 76
     0
 77
     2
 78
   300
148
-119.4582094169044
149
-58.17053554795709
1001
ACAD_PSEXT
1000
9600 BW 8.5x11.pc3
1000
OKI C9600(PCL)
1000
Expansion Area
1000

1070
     0
  0
PLOTSETTINGS
  5
1CB4
102
{ACAD_REACTORS
330
1441
102
}
330
1441
100
AcDbPlotSettings
  1
OKI9600 Color 11x17
  2
9600 Color 11x17.pc3
  4
Tabloid
  6

 40
5.027082920074462
 41
5.027085781097412
 42
5.027099609375
 43
5.027069091796875
 44
431.7999877929687
 45
279.3999938964844
 46
72.80024645976547
 47
-0.0000000000000027
 48
0.0
 49
0.0
140
0.0
141
0.0
142
1.0
143
0.3496652028822988
 70
 11956
 72
     0
 73
     0
 74
     1
  7
OKIColorShaded.ctb
 75
     0
147
2.859878511664802
 76
     0
 77
     2
 78
   300
148
-119.4582094169044
149
-58.17053554795709
1001
ACAD_PSEXT
1000
9600 Color 11x17.pc3
1000
OKI C9600(PCL)
1000
Expansion Area
1000

1070
     0
  0
PLOTSETTINGS
  5
1CB5
102
{ACAD_REACTORS
330
1441
102
}
330
1441
100
AcDbPlotSettings
  1
OKI9600 Color 8.5x11
  2
9600 Color 8.5x11.pc3
  4
Letter
  6

 40
5.027082920074462
 41
5.027070522308349
 42
5.027099609375
 43
5.027084350585937
 44
279.3999938964844
 45
215.8999938964844
 46
29.15175911978468
 47
0.0000000000000065
 48
0.0
 49
0.0
140
0.0
141
0.0
142
1.0
143
0.4575310722549676
 70
 11956
 72
     0
 73
     0
 74
     1
  7
OKIColorShaded.ctb
 75
     0
147
2.185643906262899
 76
     0
 77
     2
 78
   300
148
-119.4582094169044
149
-58.17053554795709
1001
ACAD_PSEXT
1000
9600 Color 8.5x11.pc3
1000
OKI C9600(PCL)
1000
Expansion Area
1000

1070
     0
  0
PLOTSETTINGS
  5
1CB6
102
{ACAD_REACTORS
330
1441
102
}
330
1441
100
AcDbPlotSettings
  1
PHX Kyocera 11x17 Fit
  2
PHX_Kyocera.pc3
  4
Tabloid
  6

 40
4.984749794006347
 41
5.069418907165527
 42
5.069427490234375
 43
4.9847412109375
 44
431.7999877929687
 45
279.3999938964844
 46
80.8206764601584
 47
-0.0000000000000226
 48
0.0
 49
0.0
140
0.0
141
0.0
142
1.0
143
0.4045605917118723
 70
  2740
 72
     0
 73
     0
 74
     1
  7
LaserJet5Shaded.ctb
 75
     0
147
2.471817622592858
 76
     0
 77
     2
 78
   300
148
-75.74468520391772
149
-27.53050504688192
1001
ACAD_PSEXT
1000
PHX_Kyocera.pc3
1000
Kyocera Mita KM-2050 KX
1000
Arizona
1000

1070
     0
  0
PLOTSETTINGS
  5
1CB7
102
{ACAD_REACTORS
330
1441
102
}
330
1441
100
AcDbPlotSettings
  1
PHX Oki9500 11x17 BW Fit
  2
PHX OKI BW.pc3
  4
Tabloid
  6

 40
5.027082920074462
 41
5.027085781097412
 42
5.027099609375
 43
5.027069091796875
 44
431.7999877929687
 45
279.3999938964844
 46
80.82067130493246
 47
0.0
 48
0.0
 49
0.0
140
0.0
141
0.0
142
1.0
143
0.4045605838335077
 70
  2740
 72
     0
 73
     0
 74
     1
  7
OKIB&WShaded.ctb
 75
     0
147
2.47181767072874
 76
     0
 77
     2
 78
   300
148
-75.74468520391772
149
-27.53050504688192
1001
ACAD_PSEXT
1000
PHX OKI BW.pc3
1000
OKI C9500(PCL)
1000
Arizona
1000

1070
     0
  0
PLOTSETTINGS
  5
1CB8
102
{ACAD_REACTORS
330
1441
102
}
330
1441
100
AcDbPlotSettings
  1
PHX Oki9500 11x17 BW Half
  2
PHX OKI BW.pc3
  4
Tabloid
  6

 40
5.027082920074462
 41
5.027085781097412
 42
5.027099609375
 43
5.027069091796875
 44
431.7999877929687
 45
279.3999938964844
 46
184.5658993145439
 47
107.4312420396676
 48
0.0
 49
0.0
140
0.0
141
0.0
142
1.0
143
2.0
 70
  2724
 72
     0
 73
     0
 74
     1
  7
OKIB&WShaded.ctb
 75
     0
147
2.47181767072874
 76
     0
 77
     2
 78
   300
148
-75.74468520391772
149
-27.53050504688192
1001
ACAD_PSEXT
1000
PHX OKI BW.pc3
1000
OKI C9500(PCL)
1000
Arizona
1000

1070
     0
  0
ACDBPLACEHOLDER
  5
143F
102
{ACAD_REACTORS
330
143E
102
}
330
143E
  0
SCALE
  5
1C37
102
{ACAD_REACTORS
330
1C36
102
}
330
1C36
100
AcDbScale
 70
     0
300
1:1
140
1.0
141
1.0
290
     1
  0
SCALE
  5
1C38
102
{ACAD_REACTORS
330
1C36
102
}
330
1C36
100
AcDbScale
 70
     0
300
1:2
140
1.0
141
2.0
290
     0
  0
SCALE
  5
1C39
102
{ACAD_REACTORS
330
1C36
102
}
330
1C36
100
AcDbScale
 70
     0
300
1:4
140
1.0
141
4.0
290
     0
  0
SCALE
  5
1C3A
102
{ACAD_REACTORS
330
1C36
102
}
330
1C36
100
AcDbScale
 70
     0
300
1:5
140
1.0
141
5.0
290
     0
  0
SCALE
  5
1C3B
102
{ACAD_REACTORS
330
1C36
102
}
330
1C36
100
AcDbScale
 70
     0
300
1:8
140
1.0
141
8.0
290
     0
  0
SCALE
  5
1C3C
102
{ACAD_REACTORS
330
1C36
102
}
330
1C36
100
AcDbScale
 70
     0
300
1:10
140
1.0
141
10.0
290
     0
  0
SCALE
  5
1C3D
102
{ACAD_REACTORS
330
1C36
102
}
330
1C36
100
AcDbScale
 70
     0
300
1:16
140
1.0
141
16.0
290
     0
  0
SCALE
  5
1C3E
102
{ACAD_REACTORS
330
1C36
102
}
330
1C36
100
AcDbScale
 70
     0
300
1:20
140
1.0
141
20.0
290
     0
  0
SCALE
  5
1C3F
102
{ACAD_REACTORS
330
1C36
102
}
330
1C36
100
AcDbScale
 70
     0
300
1:30
140
1.0
141
30.0
290
     0
  0
SCALE
  5
1C40
102
{ACAD_REACTORS
330
1C36
102
}
330
1C36
100
AcDbScale
 70
     0
300
1:40
140
1.0
141
40.0
290
     0
  0
SCALE
  5
1C41
102
{ACAD_REACTORS
330
1C36
102
}
330
1C36
100
AcDbScale
 70
     0
300
1:50
140
1.0
141
50.0
290
     0
  0
SCALE
  5
1C42
102
{ACAD_REACTORS
330
1C36
102
}
330
1C36
100
AcDbScale
 70
     0
300
1:100
140
1.0
141
100.0
290
     0
  0
SCALE
  5
1C43
102
{ACAD_REACTORS
330
1C36
102
}
330
1C36
100
AcDbScale
 70
     0
300
2:1
140
2.0
141
1.0
290
     0
  0
SCALE
  5
1C44
102
{ACAD_REACTORS
330
1C36
102
}
330
1C36
100
AcDbScale
 70
     0
300
4:1
140
4.0
141
1.0
290
     0
  0
SCALE
  5
1C45
102
{ACAD_REACTORS
330
1C36
102
}
330
1C36
100
AcDbScale
 70
     0
300
8:1
140
8.0
141
1.0
290
     0
  0
SCALE
  5
1C46
102
{ACAD_REACTORS
330
1C36
102
}
330
1C36
100
AcDbScale
 70
     0
300
10:1
140
10.0
141
1.0
290
     0
  0
SCALE
  5
1C47
102
{ACAD_REACTORS
330
1C36
102
}
330
1C36
100
AcDbScale
 70
     0
300
100:1
140
100.0
141
1.0
290
     0
  0
SCALE
  5
1C48
102
{ACAD_REACTORS
330
1C36
102
}
330
1C36
100
AcDbScale
 70
     0
300
1/128" = 1'-0"
140
0.0078125
141
12.0
290
     0
  0
SCALE
  5
1C49
102
{ACAD_REACTORS
330
1C36
102
}
330
1C36
100
AcDbScale
 70
     0
300
1/64" = 1'-0"
140
0.015625
141
12.0
290
     0
  0
SCALE
  5
1C4A
102
{ACAD_REACTORS
330
1C36
102
}
330
1C36
100
AcDbScale
 70
     0
300
1/32" = 1'-0"
140
0.03125
141
12.0
290
     0
  0
SCALE
  5
1C4B
102
{ACAD_REACTORS
330
1C36
102
}
330
1C36
100
AcDbScale
 70
     0
300
1/16" = 1'-0"
140
0.0625
141
12.0
290
     0
  0
SCALE
  5
1C4C
102
{ACAD_REACTORS
330
1C36
102
}
330
1C36
100
AcDbScale
 70
     0
300
3/32" = 1'-0"
140
0.09375
141
12.0
290
     0
  0
SCALE
  5
1C4D
102
{ACAD_REACTORS
330
1C36
102
}
330
1C36
100
AcDbScale
 70
     0
300
1/8" = 1'-0"
140
0.125
141
12.0
290
     0
  0
SCALE
  5
1C4E
102
{ACAD_REACTORS
330
1C36
102
}
330
1C36
100
AcDbScale
 70
     0
300
3/16" = 1'-0"
140
0.1875
141
12.0
290
     0
  0
SCALE
  5
1C4F
102
{ACAD_REACTORS
330
1C36
102
}
330
1C36
100
AcDbScale
 70
     0
300
1/4" = 1'-0"
140
0.25
141
12.0
290
     0
  0
SCALE
  5
1C50
102
{ACAD_REACTORS
330
1C36
102
}
330
1C36
100
AcDbScale
 70
     0
300
3/8" = 1'-0"
140
0.375
141
12.0
290
     0
  0
SCALE
  5
1C51
102
{ACAD_REACTORS
330
1C36
102
}
330
1C36
100
AcDbScale
 70
     0
300
1/2" = 1'-0"
140
0.5
141
12.0
290
     0
  0
SCALE
  5
1C52
102
{ACAD_REACTORS
330
1C36
102
}
330
1C36
100
AcDbScale
 70
     0
300
3/4" = 1'-0"
140
0.75
141
12.0
290
     0
  0
SCALE
  5
1C53
102
{ACAD_REACTORS
330
1C36
102
}
330
1C36
100
AcDbScale
 70
     0
300
1" = 1'-0"
140
1.0
141
12.0
290
     0
  0
SCALE
  5
1C54
102
{ACAD_REACTORS
330
1C36
102
}
330
1C36
100
AcDbScale
 70
     0
300
1-1/2" = 1'-0"
140
1.5
141
12.0
290
     0
  0
SCALE
  5
1C55
102
{ACAD_REACTORS
330
1C36
102
}
330
1C36
100
AcDbScale
 70
     0
300
3" = 1'-0"
140
3.0
141
12.0
290
     0
  0
SCALE
  5
1C56
102
{ACAD_REACTORS
330
1C36
102
}
330
1C36
100
AcDbScale
 70
     0
300
6" = 1'-0"
140
6.0
141
12.0
290
     0
  0
SCALE
  5
1C57
102
{ACAD_REACTORS
330
1C36
102
}
330
1C36
100
AcDbScale
 70
     0
300
1'-0" = 1'-0"
140
12.0
141
12.0
290
     0
  0
TABLESTYLE
  5
1C35
102
{ACAD_XDICTIONARY
360
1CD4
102
}
102
{ACAD_REACTORS
330
1C34
102
}
330
1C34
100
AcDbTableStyle
  3
Standard
 70
     0
 71
     0
 40
0.06
 41
0.06
280
     0
281
     0
  7
STANDARD
140
0.18
170
     2
 62
     0
 63
     7
283
     0
274
    -2
284
     1
 64
     0
275
    -2
285
     1
 65
     0
276
    -2
286
     1
 66
     0
277
    -2
287
     1
 67
     0
278
    -2
288
     1
 68
     0
279
    -2
289
     1
 69
     0
  7
STANDARD
140
0.25
170
     5
 62
     0
 63
     7
283
     0
274
    -2
284
     1
 64
     0
275
    -2
285
     1
 65
     0
276
    -2
286
     1
 66
     0
277
    -2
287
     1
 67
     0
278
    -2
288
     1
 68
     0
279
    -2
289
     1
 69
     0
  7
STANDARD
140
0.18
170
     5
 62
     0
 63
     7
283
     0
274
    -2
284
     1
 64
     0
275
    -2
285
     1
 65
     0
276
    -2
286
     1
 66
     0
277
    -2
287
     1
 67
     0
278
    -2
288
     1
 68
     0
279
    -2
289
     1
 69
     0
  0
VISUALSTYLE
  5
1C28
102
{ACAD_REACTORS
330
1C22
102
}
330
1C22
100
AcDbVisualStyle
  2
2dWireframe
 70
     4
 71
     0
 72
     2
 73
     0
 90
        0
 40
-0.6
 41
-30.0
 62
     5
 63
     7
421
 16777215
 74
     1
 91
        4
 64
     7
 65
   257
 75
     1
175
     1
 42
1.0
 92
        0
 66
   257
 43
1.0
 76
     1
 77
     6
 78
     2
 67
     7
 79
     5
170
     0
171
     0
290
     0
174
     0
 93
        1
 44
0.0
173
     0
291
     0
 45
0.0
1001
ACAD
1000
AcDbSavedByObjectVersion
1070
     0
  0
VISUALSTYLE
  5
1C2A
102
{ACAD_REACTORS
330
1C22
102
}
330
1C22
100
AcDbVisualStyle
  2
3D Hidden
 70
     6
 71
     1
 72
     2
 73
     2
 90
        0
 40
-0.6
 41
-30.0
 62
     5
 63
     7
421
 16777215
 74
     2
 91
        2
 64
     7
 65
   257
 75
     2
175
     1
 42
40.0
 92
        0
 66
   257
 43
1.0
 76
     1
 77
     6
 78
     2
 67
     7
 79
     3
170
     0
171
     0
290
     0
174
     0
 93
        1
 44
0.0
173
     0
291
     0
 45
0.0
1001
ACAD
1000
AcDbSavedByObjectVersion
1070
     0
  0
VISUALSTYLE
  5
1C29
102
{ACAD_REACTORS
330
1C22
102
}
330
1C22
100
AcDbVisualStyle
  2
3dWireframe
 70
     5
 71
     0
 72
     2
 73
     0
 90
        0
 40
-0.6
 41
-30.0
 62
     5
 63
     7
421
 16777215
 74
     1
 91
        4
 64
     7
 65
   257
 75
     1
175
     1
 42
1.0
 92
        0
 66
   257
 43
1.0
 76
     1
 77
     6
 78
     2
 67
     7
 79
     5
170
     0
171
     0
290
     0
174
     0
 93
        1
 44
0.0
173
     0
291
     0
 45
0.0
1001
ACAD
1000
AcDbSavedByObjectVersion
1070
     0
  0
VISUALSTYLE
  5
1C27
102
{ACAD_REACTORS
330
1C22
102
}
330
1C22
100
AcDbVisualStyle
  2
Basic
 70
     7
 71
     1
 72
     0
 73
     1
 90
        0
 40
-0.6
 41
-30.0
 62
     5
 63
     7
421
 16777215
 74
     0
 91
        4
 64
     7
 65
   257
 75
     1
175
     1
 42
1.0
 92
        8
 66
     7
 43
1.0
 76
     1
 77
     6
 78
     2
 67
     7
 79
     5
170
     0
171
     0
290
     0
174
     0
 93
        1
 44
0.0
173
     0
291
     1
 45
0.0
1001
ACAD
1000
AcDbSavedByObjectVersion
1070
     0
  0
VISUALSTYLE
  5
1C2E
102
{ACAD_REACTORS
330
1C22
102
}
330
1C22
100
AcDbVisualStyle
  2
Brighten
 70
    12
 71
     2
 72
     2
 73
     0
 90
        0
 40
-0.6
 41
-30.0
 62
     5
 63
     7
421
 16777215
 74
     1
 91
        4
 64
     7
 65
   257
 75
     1
175
     1
 42
1.0
 92
        8
 66
     7
 43
1.0
 76
     1
 77
     6
 78
     2
 67
     7
 79
     5
170
     0
171
     0
290
     0
174
     0
 93
        1
 44
50.0
173
     0
291
     1
 45
0.0
1001
ACAD
1000
AcDbSavedByObjectVersion
1070
     0
  0
VISUALSTYLE
  5
1C32
102
{ACAD_REACTORS
330
1C22
102
}
330
1C22
100
AcDbVisualStyle
  2
ColorChange
 70
    16
 71
     2
 72
     2
 73
     3
 90
        0
 40
-0.6
 41
-30.0
 62
     5
 63
     8
421
  8421504
 74
     1
 91
        4
 64
     7
 65
   257
 75
     1
175
     1
 42
1.0
 92
        8
 66
     8
424
  8421504
 43
1.0
 76
     1
 77
     6
 78
     2
 67
     7
 79
     5
170
     0
171
     0
290
     0
174
     0
 93
        1
 44
0.0
173
     0
291
     1
 45
0.0
1001
ACAD
1000
AcDbSavedByObjectVersion
1070
     0
  0
VISUALSTYLE
  5
1C2B
102
{ACAD_REACTORS
330
1C22
102
}
330
1C22
100
AcDbVisualStyle
  2
Conceptual
 70
     9
 71
     3
 72
     2
 73
     0
 90
        0
 40
-0.6
 41
-30.0
 62
     5
 63
     7
421
 16777215
 74
     2
 91
        2
 64
     7
 65
   257
 75
     1
175
     1
 42
40.0
 92
        8
 66
     7
 43
1.0
 76
     1
 77
     6
 78
     2
 67
     7
 79
     3
170
     0
171
     0
290
     0
174
     0
 93
        1
 44
0.0
173
     0
291
     0
 45
0.0
1001
ACAD
1000
AcDbSavedByObjectVersion
1070
     0
  0
VISUALSTYLE
  5
1C2D
102
{ACAD_REACTORS
330
1C22
102
}
330
1C22
100
AcDbVisualStyle
  2
Dim
 70
    11
 71
     2
 72
     2
 73
     0
 90
        0
 40
-0.6
 41
-30.0
 62
     5
 63
     7
421
 16777215
 74
     1
 91
        4
 64
     7
 65
   257
 75
     1
175
     1
 42
1.0
 92
        8
 66
     7
 43
1.0
 76
     1
 77
     6
 78
     2
 67
     7
 79
     5
170
     0
171
     0
290
     0
174
     0
 93
        1
 44
-50.0
173
     0
291
     1
 45
0.0
1001
ACAD
1000
AcDbSavedByObjectVersion
1070
     0
  0
VISUALSTYLE
  5
1C31
102
{ACAD_REACTORS
330
1C22
102
}
330
1C22
100
AcDbVisualStyle
  2
Facepattern
 70
    15
 71
     2
 72
     2
 73
     0
 90
        0
 40
-0.6
 41
-30.0
 62
     5
 63
     7
421
 16777215
 74
     1
 91
        4
 64
     7
 65
   257
 75
     1
175
     1
 42
1.0
 92
        8
 66
     7
 43
1.0
 76
     1
 77
     6
 78
     2
 67
     7
 79
     5
170
     0
171
     0
290
     0
174
     0
 93
        1
 44
0.0
173
     0
291
     1
 45
0.0
1001
ACAD
1000
AcDbSavedByObjectVersion
1070
     0
  0
VISUALSTYLE
  5
1C23
102
{ACAD_REACTORS
330
1C22
102
}
330
1C22
100
AcDbVisualStyle
  2
Flat
 70
     0
 71
     2
 72
     1
 73
     1
 90
        2
 40
-0.6
 41
30.0
 62
     5
 63
     7
421
 16777215
 74
     0
 91
        4
 64
     7
 65
   257
 75
     1
175
     1
 42
1.0
 92
        8
 66
     7
 43
1.0
 76
     1
 77
     6
 78
     2
 67
     7
 79
     5
170
     0
171
     0
290
     0
174
     0
 93
       13
 44
0.0
173
     0
291
     1
 45
0.0
1001
ACAD
1000
AcDbSavedByObjectVersion
1070
     0
  0
VISUALSTYLE
  5
1C24
102
{ACAD_REACTORS
330
1C22
102
}
330
1C22
100
AcDbVisualStyle
  2
FlatWithEdges
 70
     1
 71
     2
 72
     1
 73
     1
 90
        2
 40
-0.6
 41
30.0
 62
     5
 63
     7
421
 16777215
 74
     1
 91
        4
 64
     7
 65
   257
 75
     1
175
     1
 42
1.0
 92
        0
 66
   257
 43
1.0
 76
     1
 77
     6
 78
     2
 67
     7
 79
     5
170
     0
171
     0
290
     0
174
     0
 93
       13
 44
0.0
173
     0
291
     1
 45
0.0
1001
ACAD
1000
AcDbSavedByObjectVersion
1070
     0
  0
VISUALSTYLE
  5
1C25
102
{ACAD_REACTORS
330
1C22
102
}
330
1C22
100
AcDbVisualStyle
  2
Gouraud
 70
     2
 71
     2
 72
     2
 73
     1
 90
        2
 40
-0.6
 41
30.0
 62
     5
 63
     7
421
 16777215
 74
     0
 91
        4
 64
     7
 65
   257
 75
     1
175
     1
 42
1.0
 92
        0
 66
     7
 43
1.0
 76
     1
 77
     6
 78
     2
 67
     7
 79
     5
170
     0
171
     0
290
     0
174
     0
 93
       13
 44
0.0
173
     0
291
     1
 45
0.0
1001
ACAD
1000
AcDbSavedByObjectVersion
1070
     0
  0
VISUALSTYLE
  5
1C26
102
{ACAD_REACTORS
330
1C22
102
}
330
1C22
100
AcDbVisualStyle
  2
GouraudWithEdges
 70
     3
 71
     2
 72
     2
 73
     1
 90
        2
 40
-0.6
 41
30.0
 62
     5
 63
     7
421
 16777215
 74
     1
 91
        4
 64
     7
 65
   257
 75
     1
175
     1
 42
1.0
 92
        0
 66
   257
 43
1.0
 76
     1
 77
     6
 78
     2
 67
     7
 79
     5
170
     0
171
     0
290
     0
174
     0
 93
       13
 44
0.0
173
     0
291
     1
 45
0.0
1001
ACAD
1000
AcDbSavedByObjectVersion
1070
     0
  0
VISUALSTYLE
  5
1C30
102
{ACAD_REACTORS
330
1C22
102
}
330
1C22
100
AcDbVisualStyle
  2
Linepattern
 70
    14
 71
     2
 72
     2
 73
     0
 90
        0
 40
-0.6
 41
-30.0
 62
     5
 63
     7
421
 16777215
 74
     1
 91
        4
 64
     7
 65
   257
 75
     7
175
     7
 42
1.0
 92
        8
 66
     7
 43
1.0
 76
     1
 77
     6
 78
     2
 67
     7
 79
     5
170
     0
171
     0
290
     0
174
     0
 93
        1
 44
0.0
173
     0
291
     1
 45
0.0
1001
ACAD
1000
AcDbSavedByObjectVersion
1070
     0
  0
VISUALSTYLE
  5
1C2C
102
{ACAD_REACTORS
330
1C22
102
}
330
1C22
100
AcDbVisualStyle
  2
Realistic
 70
     8
 71
     2
 72
     2
 73
     0
 90
        0
 40
-0.6
 41
-30.0
 62
     5
 63
     7
421
 16777215
 74
     1
 91
        0
 64
     7
 65
   257
 75
     1
175
     1
 42
1.0
 92
        8
 66
     8
424
  7895160
 43
1.0
 76
     1
 77
     6
 78
     2
 67
     7
 79
     5
170
     0
171
     0
290
     0
174
     0
 93
       13
 44
0.0
173
     0
291
     0
 45
0.0
1001
ACAD
1000
AcDbSavedByObjectVersion
1070
     0
  0
VISUALSTYLE
  5
1C2F
102
{ACAD_REACTORS
330
1C22
102
}
330
1C22
100
AcDbVisualStyle
  2
Thicken
 70
    13
 71
     2
 72
     2
 73
     0
 90
        0
 40
-0.6
 41
-30.0
 62
     5
 63
     7
421
 16777215
 74
     1
 91
        4
 64
     7
 65
   257
 75
     1
175
     1
 42
1.0
 92
       12
 66
     7
 43
1.0
 76
     1
 77
     6
 78
     2
 67
     7
 79
     5
170
     0
171
     0
290
     0
174
     0
 93
        1
 44
0.0
173
     0
291
     1
 45
0.0
1001
ACAD
1000
AcDbSavedByObjectVersion
1070
     0
  0
DICTIONARYVAR
  5
1CDA
102
{ACAD_REACTORS
330
42
102
}
330
42
100
DictionaryVariables
280
     0
  1
1:1
  0
DICTIONARYVAR
  5
1CD8
102
{ACAD_REACTORS
330
42
102
}
330
42
100
DictionaryVariables
280
     0
  1
STANDARD
  0
DICTIONARYVAR
  5
1CD7
102
{ACAD_REACTORS
330
42
102
}
330
42
100
DictionaryVariables
280
     0
  1
STANDARD
  0
DICTIONARYVAR
  5
43
102
{ACAD_REACTORS
330
42
102
}
330
42
100
DictionaryVariables
280
     0
  1
0
  0
DICTIONARYVAR
  5
1449
102
{ACAD_REACTORS
330
42
102
}
330
42
100
DictionaryVariables
280
     0
  1
1
  0
DICTIONARYVAR
  5
203B
102
{ACAD_REACTORS
330
42
102
}
330
42
100
DictionaryVariables
280
     0
  1
0
  0
DICTIONARYVAR
  5
1CDC
102
{ACAD_REACTORS
330
42
102
}
330
42
100
DictionaryVariables
280
     0
  1
15
  0
DICTIONARYVAR
  5
1CDB
102
{ACAD_REACTORS
330
42
102
}
330
42
100
DictionaryVariables
280
     0
  1
0
  0
DICTIONARYVAR
  5
1CD9
102
{ACAD_REACTORS
330
42
102
}
330
42
100
DictionaryVariables
280
     0
  1
0
  0
DICTIONARYVAR
  5
569
102
{ACAD_REACTORS
330
42
102
}
330
42
100
DictionaryVariables
280
     0
  1
1
  0
DICTIONARYVAR
  5
1E07
102
{ACAD_REACTORS
330
42
102
}
330
42
100
DictionaryVariables
280
     0
  1
0
  0
XRECORD
  5
143A
102
{ACAD_REACTORS
330
682
102
}
330
0
100
AcDbXrecord
280
     1
330
0
330
2BA
330
2B8
330
2B6
330
0
330
0
330
0
330
123C
330
0
330
0
330
0
330
0
330
0
330
0
330
0
330
0
330
0
330
0
330
517
330
0
330
518
330
12B8
330
12B9
330
0
330
0
330
0
330
0
330
0
330
0
330
0
330
0
330
0
330
0
330
0
330
0
330
0
330
0
330
0
330
0
330
0
330
0
330
0
330
0
330
0
330
0
330
0
330
0
330
0
330
0
330
0
330
0
330
0
330
0
330
0
330
0
330
0
330
0
330
0
330
0
330
0
330
0
330
0
330
0
330
0
330
0
330
0
330
0
330
0
330
0
330
0
330
0
330
0
330
0
330
0
330
0
330
0
330
0
330
0
330
0
330
0
330
0
330
0
330
0
330
0
330
0
330
0
330
0
330
0
330
2B7
330
2B9
330
123B
330
0
330
3E7
330
0
330
0
330
3D6
330
3D7
330
0
330
0
330
0
330
0
330
0
330
0
330
0
330
0
330
0
330
0
330
0
330
0
330
3DB
330
0
330
0
330
0
330
244
330
3D8
330
3D9
330
3DA
330
0
330
0
330
0
330
6AE
330
0
330
0
330
3E0
330
3E1
330
3E2
330
0
330
0
330
0
330
0
330
0
330
0
330
0
330
237
330
234
330
0
330
0
330
0
330
0
330
2BC
330
2AF
330
0
330
0
330
0
330
0
330
0
330
0
330
0
330
0
330
0
330
519
330
0
330
51A
330
12BE
330
51D
330
51E
330
0
330
12BD
330
0
330
0
330
0
330
0
330
0
330
0
330
0
330
0
330
0
330
0
330
0
330
0
330
0
330
0
330
0
330
2B0
330
0
330
0
330
2BB
330
0
330
0
330
236
330
0
330
0
330
0
330
239
330
0
330
0
330
0
330
23A
330
0
330
0
330
0
330
0
330
1D4
330
0
330
23C
330
0
330
23E
330
0
330
0
330
0
330
0
330
0
330
0
330
0
330
0
330
0
330
0
330
0
330
0
330
235
330
0
330
0
330
57C
330
0
330
0
330
238
330
243
330
246
330
2B5
330
6AC
330
6AD
330
0
330
0
330
0
330
0
330
0
330
0
330
0
330
0
330
0
330
0
330
0
330
0
330
0
330
0
330
0
330
0
330
0
330
0
330
0
330
0
330
0
330
0
  0
XRECORD
  5
143B
102
{ACAD_REACTORS
330
682
102
}
330
0
100
AcDbXrecord
280
     1
330
0
330
2BA
330
2B8
330
2B6
330
0
330
0
330
0
330
0
330
123C
330
0
330
0
330
0
330
0
330
0
330
0
330
0
330
0
330
0
330
0
330
0
330
0
330
0
330
517
330
0
330
0
330
0
330
518
330
12B8
330
12B9
330
0
330
0
330
0
330
0
330
0
330
0
330
0
330
0
330
0
330
0
330
0
330
0
330
0
330
0
330
0
330
0
330
0
330
0
330
0
330
0
330
0
330
0
330
0
330
0
330
0
330
0
330
0
330
0
330
2B7
330
2B9
330
123B
330
0
330
3E7
330
0
330
3D6
330
3D7
330
0
330
0
330
0
330
0
330
0
330
3DB
330
0
330
244
330
3D8
330
3D9
330
3DA
330
6AE
330
0
330
3E0
330
3E1
330
3E2
330
0
330
0
330
0
330
237
330
234
330
0
330
0
330
0
330
0
330
2BC
330
2AF
330
0
330
0
330
0
330
0
330
0
330
0
330
0
330
0
330
0
330
519
330
0
330
51A
330
12BE
330
51D
330
51E
330
0
330
12BD
330
0
330
0
330
0
330
0
330
0
330
0
330
0
330
0
330
0
330
0
330
0
330
0
330
0
330
0
330
0
330
2B0
330
0
330
0
330
2BB
330
0
330
0
330
236
330
0
330
0
330
0
330
239
330
0
330
0
330
0
330
23A
330
0
330
0
330
0
330
0
330
1D4
330
0
330
23C
330
0
330
23E
330
0
330
0
330
0
330
0
330
0
330
0
330
0
330
0
330
0
330
0
330
0
330
0
330
235
330
0
330
0
330
57C
330
0
330
0
330
238
330
243
330
246
330
2B5
330
6AC
330
6AD
330
0
330
0
330
0
330
0
330
0
330
0
330
0
330
0
330
0
330
0
330
0
330
0
330
0
330
0
330
0
330
0
330
0
330
0
330
0
330
0
330
0
330
0
  0
XRECORD
  5
142C
102
{ACAD_REACTORS
330
682
102
}
330
0
100
AcDbXrecord
280
     1
330
0
330
0
  0
XRECORD
  5
142D
102
{ACAD_REACTORS
330
682
102
}
330
0
100
AcDbXrecord
280
     1
330
0
  0
XRECORD
  5
142E
102
{ACAD_REACTORS
330
682
102
}
330
0
100
AcDbXrecord
280
     1
330
0
330
0
330
0
330
0
330
0
330
0
330
0
330
0
330
0
330
0
330
0
330
0
330
0
330
0
330
0
330
0
330
0
330
0
330
0
330
0
330
0
330
0
330
0
330
0
330
0
330
0
330
0
330
0
330
0
330
0
330
0
330
0
330
0
330
0
330
0
330
0
330
0
330
0
330
0
330
0
330
0
330
0
330
0
330
0
330
0
330
0
330
0
330
0
330
0
330
0
330
0
  0
XRECORD
  5
142F
102
{ACAD_REACTORS
330
682
102
}
330
0
100
AcDbXrecord
280
     1
330
0
  0
XRECORD
  5
1430
102
{ACAD_REACTORS
330
682
102
}
330
0
100
AcDbXrecord
280
     1
330
0
  0
XRECORD
  5
1431
102
{ACAD_REACTORS
330
682
102
}
330
0
100
AcDbXrecord
280
     1
330
0
330
0
  0
XRECORD
  5
1432
102
{ACAD_REACTORS
330
682
102
}
330
0
100
AcDbXrecord
280
     1
330
0
330
0
  0
XRECORD
  5
1433
102
{ACAD_REACTORS
330
682
102
}
330
0
100
AcDbXrecord
280
     1
330
0
330
0
330
0
330
0
330
0
330
0
330
0
330
0
  0
XRECORD
  5
2015
102
{ACAD_REACTORS
330
2012
102
}
330
2012
100
AcDbXrecord
280
     1
  1
_0100-
  1
*0100-*
  1
*
  1
*
 70
     0
  1
*
  1
*
  0
XRECORD
  5
2014
102
{ACAD_REACTORS
330
2012
102
}
330
2012
100
AcDbXrecord
280
     1
  1
_0280-
  1
*0280-*
  1
*
  1
*
 70
     0
  1
*
  1
*
  0
XRECORD
  5
2018
102
{ACAD_REACTORS
330
2012
102
}
330
2012
100
AcDbXrecord
280
     1
  1
_Color 253
  1
*
  1
253
  1
*
 70
     0
  1
*
  1
*
  0
XRECORD
  5
2016
102
{ACAD_REACTORS
330
2012
102
}
330
2012
100
AcDbXrecord
280
     1
  1
_Color 8
  1
*
  1
8
  1
*
 70
     0
  1
*
  1
*
  0
XRECORD
  5
2017
102
{ACAD_REACTORS
330
2012
102
}
330
2012
100
AcDbXrecord
280
     1
  1
_Color 84
  1
*
  1
84
  1
*
 70
     0
  1
*
  1
*
  0
XRECORD
  5
201D
102
{ACAD_REACTORS
330
2012
102
}
330
2012
100
AcDbXrecord
280
     1
  1
_Contours
  1
*contour*,*cont-*,*cp cont*,*p-cont*
  1
*
  1
*
 70
     0
  1
*
  1
*
  0
XRECORD
  5
2019
102
{ACAD_REACTORS
330
2012
102
}
330
2012
100
AcDbXrecord
280
     1
  1
_Existing
  1
*exist*
  1
*
  1
*
 70
     0
  1
*
  1
*
  0
XRECORD
  5
201C
102
{ACAD_REACTORS
330
2012
102
}
330
2012
100
AcDbXrecord
280
     1
  1
_Hardscape
  1
*sidewalk*,*sw*,*curb*,*walk*,*-lip*,*tbc*
  1
*
  1
*
 70
     0
  1
*
  1
*
  0
XRECORD
  5
2013
102
{ACAD_REACTORS
330
2012
102
}
330
2012
100
AcDbXrecord
280
     1
  1
_NoXref
  1
~*|*
  1
*
  1
*
 70
     0
  1
*
  1
*
  0
XRECORD
  5
201A
102
{ACAD_REACTORS
330
2012
102
}
330
2012
100
AcDbXrecord
280
     1
  1
_Row
  1
*row*
  1
*
  1
*
 70
     0
  1
*
  1
*
  0
XRECORD
  5
201B
102
{ACAD_REACTORS
330
2012
102
}
330
2012
100
AcDbXrecord
280
     1
  1
_Utility
  1
*ut-*,*utility*,*wat*
  1
*
  1
*
 70
     0
  1
*
  1
*
  0
DICTIONARY
  5
1C13
330
1C12
100
AcDbDictionary
280
     1
281
     1
  3
ACAD_XREC_ROUNDTRIP
360
2042
  3
BUMPTILE
360
1C15
  3
DIFFUSETILE
360
1C14
  3
OPACITYTILE
360
1C18
  3
REFLECTIONTILE
360
1C17
  3
REFRACTIONTILE
360
1C19
  3
SPECULARTILE
360
1C16
  0
DICTIONARY
  5
1C0B
330
1C0A
100
AcDbDictionary
280
     1
281
     1
  3
ACAD_XREC_ROUNDTRIP
360
2041
  3
BUMPTILE
360
1C0D
  3
DIFFUSETILE
360
1C0C
  3
OPACITYTILE
360
1C10
  3
REFLECTIONTILE
360
1C0F
  3
REFRACTIONTILE
360
1C11
  3
SPECULARTILE
360
1C0E
  0
DICTIONARY
  5
1C1B
330
1C1A
100
AcDbDictionary
280
     1
281
     1
  3
ACAD_XREC_ROUNDTRIP
360
2043
  3
BUMPTILE
360
1C1D
  3
DIFFUSETILE
360
1C1C
  3
OPACITYTILE
360
1C20
  3
REFLECTIONTILE
360
1C1F
  3
REFRACTIONTILE
360
1C21
  3
SPECULARTILE
360
1C1E
  0
DICTIONARY
  5
1CD4
330
1C35
100
AcDbDictionary
280
     1
281
     1
  3
ACAD_ROUNDTRIP_2008_TABLESTYLE_CELLSTYLEMAP
360
203C
  3
ACAD_XREC_ROUNDTRIP
360
2044
  0
XRECORD
  5
2042
102
{ACAD_REACTORS
330
1C13
102
}
330
1C13
100
AcDbXrecord
280
     1
102
MATERIAL
148
0.0
149
0.0
149
0.0
 93
        0
 94
      127
282
     0
 72
     0
 77
     0
171
     0
175
     0
179
     0
273
     0
  0
XRECORD
  5
1C15
102
{ACAD_REACTORS
330
1C13
102
}
330
1C13
100
AcDbXrecord
280
     1
270
     1
271
     1
  0
XRECORD
  5
1C14
102
{ACAD_REACTORS
330
1C13
102
}
330
1C13
100
AcDbXrecord
280
     1
270
     1
271
     1
  0
XRECORD
  5
1C18
102
{ACAD_REACTORS
330
1C13
102
}
330
1C13
100
AcDbXrecord
280
     1
270
     1
271
     1
  0
XRECORD
  5
1C17
102
{ACAD_REACTORS
330
1C13
102
}
330
1C13
100
AcDbXrecord
280
     1
270
     1
271
     1
  0
XRECORD
  5
1C19
102
{ACAD_REACTORS
330
1C13
102
}
330
1C13
100
AcDbXrecord
280
     1
270
     1
271
     1
  0
XRECORD
  5
1C16
102
{ACAD_REACTORS
330
1C13
102
}
330
1C13
100
AcDbXrecord
280
     1
270
     1
271
     1
  0
XRECORD
  5
2041
102
{ACAD_REACTORS
330
1C0B
102
}
330
1C0B
100
AcDbXrecord
280
     1
102
MATERIAL
148
0.0
149
0.0
149
0.0
 93
        0
 94
      127
282
     0
 72
     0
 77
     0
171
     0
175
     0
179
     0
273
     0
  0
XRECORD
  5
1C0D
102
{ACAD_REACTORS
330
1C0B
102
}
330
1C0B
100
AcDbXrecord
280
     1
270
     1
271
     1
  0
XRECORD
  5
1C0C
102
{ACAD_REACTORS
330
1C0B
102
}
330
1C0B
100
AcDbXrecord
280
     1
270
     1
271
     1
  0
XRECORD
  5
1C10
102
{ACAD_REACTORS
330
1C0B
102
}
330
1C0B
100
AcDbXrecord
280
     1
270
     1
271
     1
  0
XRECORD
  5
1C0F
102
{ACAD_REACTORS
330
1C0B
102
}
330
1C0B
100
AcDbXrecord
280
     1
270
     1
271
     1
  0
XRECORD
  5
1C11
102
{ACAD_REACTORS
330
1C0B
102
}
330
1C0B
100
AcDbXrecord
280
     1
270
     1
271
     1
  0
XRECORD
  5
1C0E
102
{ACAD_REACTORS
330
1C0B
102
}
330
1C0B
100
AcDbXrecord
280
     1
270
     1
271
     1
  0
XRECORD
  5
2043
102
{ACAD_REACTORS
330
1C1B
102
}
330
1C1B
100
AcDbXrecord
280
     1
102
MATERIAL
148
0.0
149
0.0
149
0.0
 93
        0
 94
      127
282
     0
 72
     0
 77
     0
171
     0
175
     0
179
     0
273
     0
  0
XRECORD
  5
1C1D
102
{ACAD_REACTORS
330
1C1B
102
}
330
1C1B
100
AcDbXrecord
280
     1
270
     1
271
     1
  0
XRECORD
  5
1C1C
102
{ACAD_REACTORS
330
1C1B
102
}
330
1C1B
100
AcDbXrecord
280
     1
270
     1
271
     1
  0
XRECORD
  5
1C20
102
{ACAD_REACTORS
330
1C1B
102
}
330
1C1B
100
AcDbXrecord
280
     1
270
     1
271
     1
  0
XRECORD
  5
1C1F
102
{ACAD_REACTORS
330
1C1B
102
}
330
1C1B
100
AcDbXrecord
280
     1
270
     1
271
     1
  0
XRECORD
  5
1C21
102
{ACAD_REACTORS
330
1C1B
102
}
330
1C1B
100
AcDbXrecord
280
     1
270
     1
271
     1
  0
XRECORD
  5
1C1E
102
{ACAD_REACTORS
330
1C1B
102
}
330
1C1B
100
AcDbXrecord
280
     1
270
     1
271
     1
  0
CELLSTYLEMAP
  5
203C
102
{ACAD_REACTORS
330
1CD4
102
}
330
1CD4
100
AcDbCellStyleMap
 90
        3
300
CELLSTYLE
  1
TABLEFORMAT_BEGIN
 90
        5
170
     1
 91
        0
 92
    32768
 62
   257
 93
        1
300
CONTENTFORMAT
  1
CONTENTFORMAT_BEGIN
 90
        0
 91
        0
 92
      512
 93
        0
300

 40
0.0
140
1.0
 94
        5
 62
     0
340
F
144
0.25
309
CONTENTFORMAT_END
171
     0
 94
        0
309
TABLEFORMAT_END
  1
CELLSTYLE_BEGIN
 90
        1
 91
        1
300
_TITLE
309
CELLSTYLE_END
300
CELLSTYLE
  1
TABLEFORMAT_BEGIN
 90
        5
170
     1
 91
        0
 92
        0
 62
   257
 93
        1
300
CONTENTFORMAT
  1
CONTENTFORMAT_BEGIN
 90
        0
 91
        0
 92
      512
 93
        0
300

 40
0.0
140
1.0
 94
        5
 62
     0
340
F
144
0.18
309
CONTENTFORMAT_END
171
     0
 94
        0
309
TABLEFORMAT_END
  1
CELLSTYLE_BEGIN
 90
        2
 91
        1
300
_HEADER
309
CELLSTYLE_END
300
CELLSTYLE
  1
TABLEFORMAT_BEGIN
 90
        5
170
     1
 91
        0
 92
        0
 62
   257
 93
        1
300
CONTENTFORMAT
  1
CONTENTFORMAT_BEGIN
 90
        0
 91
        0
 92
      512
 93
        0
300

 40
0.0
140
1.0
 94
        2
 62
     0
340
F
144
0.18
309
CONTENTFORMAT_END
171
     0
 94
        0
309
TABLEFORMAT_END
  1
CELLSTYLE_BEGIN
 90
        3
 91
        2
300
_DATA
309
CELLSTYLE_END
  0
XRECORD
  5
2044
102
{ACAD_REACTORS
330
1CD4
102
}
330
1CD4
100
AcDbXrecord
280
     1
102
ACAD_ROUNDTRIP_PRE2007_TABLESTYLE
 90
      512
 91
        0
  1

 92
      512
 93
        0
  2

 94
      512
 95
        0
  3

  0
ENDSEC
  0
EOF
