  0
SECTION
  2
HEADER
  9
$ACADVER
  1
AC1018
  9
$ACADMAINTVER
 70
   104
  9
$DWGCODEPAGE
  3
ANSI_1252
  9
$LASTSAVEDBY
  1
dweyer
  9
$INSBASE
 10
0.0
 20
0.0
 30
0.0
  9
$EXTMIN
 10
-0.4984554492313005
 20
-1.274218755967127
 30
0.0
  9
$EXTMAX
 10
9.836131975556137
 20
9.165781244032872
 30
0.03
  9
$LIMMIN
 10
0.0
 20
0.0
  9
$LIMMAX
 10
12.0
 20
9.0
  9
$ORTHOMODE
 70
     1
  9
$REGENMODE
 70
     1
  9
$FILLMODE
 70
     1
  9
$QTEXTMODE
 70
     0
  9
$MIRRTEXT
 70
     0
  9
$LTSCALE
 40
1.0
  9
$ATTMODE
 70
     1
  9
$TEXTSIZE
 40
0.125
  9
$TRACEWID
 40
0.05
  9
$TEXTSTYLE
  7
ROMANS
  9
$CLAYER
  8
0
  9
$CELTYPE
  6
ByLayer
  9
$CECOLOR
 62
   256
  9
$CELTSCALE
 40
1.0
  9
$DISPSILH
 70
     0
  9
$DIMSCALE
 40
1.0
  9
$DIMASZ
 40
0.18
  9
$DIMEXO
 40
0.0625
  9
$DIMDLI
 40
0.38
  9
$DIMRND
 40
0.0
  9
$DIMDLE
 40
0.0
  9
$DIMEXE
 40
0.125
  9
$DIMTP
 40
0.0
  9
$DIMTM
 40
0.0
  9
$DIMTXT
 40
0.125
  9
$DIMCEN
 40
0.09
  9
$DIMTSZ
 40
0.0
  9
$DIMTOL
 70
     0
  9
$DIMLIM
 70
     0
  9
$DIMTIH
 70
     1
  9
$DIMTOH
 70
     1
  9
$DIMSE1
 70
     0
  9
$DIMSE2
 70
     0
  9
$DIMTAD
 70
     0
  9
$DIMZIN
 70
     0
  9
$DIMBLK
  1

  9
$DIMASO
 70
     1
  9
$DIMSHO
 70
     1
  9
$DIMPOST
  1

  9
$DIMAPOST
  1

  9
$DIMALT
 70
     0
  9
$DIMALTD
 70
     2
  9
$DIMALTF
 40
25.4
  9
$DIMLFAC
 40
1.0
  9
$DIMTOFL
 70
     0
  9
$DIMTVP
 40
0.0
  9
$DIMTIX
 70
     0
  9
$DIMSOXD
 70
     0
  9
$DIMSAH
 70
     0
  9
$DIMBLK1
  1

  9
$DIMBLK2
  1

  9
$DIMSTYLE
  2
STANDARD
  9
$DIMCLRD
 70
   256
  9
$DIMCLRE
 70
   256
  9
$DIMCLRT
 70
   256
  9
$DIMTFAC
 40
1.0
  9
$DIMGAP
 40
0.09
  9
$DIMJUST
 70
     0
  9
$DIMSD1
 70
     0
  9
$DIMSD2
 70
     0
  9
$DIMTOLJ
 70
     1
  9
$DIMTZIN
 70
     0
  9
$DIMALTZ
 70
     0
  9
$DIMALTTZ
 70
     0
  9
$DIMUPT
 70
     0
  9
$DIMDEC
 70
     4
  9
$DIMTDEC
 70
     4
  9
$DIMALTU
 70
     2
  9
$DIMALTTD
 70
     2
  9
$DIMTXSTY
  7
Arial
  9
$DIMAUNIT
 70
     0
  9
$DIMADEC
 70
     0
  9
$DIMALTRND
 40
0.0
  9
$DIMAZIN
 70
     0
  9
$DIMDSEP
 70
    46
  9
$DIMATFIT
 70
     3
  9
$DIMFRAC
 70
     0
  9
$DIMLDRBLK
  1

  9
$DIMLUNIT
 70
     2
  9
$DIMLWD
 70
    -1
  9
$DIMLWE
 70
    -1
  9
$DIMTMOVE
 70
     2
  9
$LUNITS
 70
     2
  9
$LUPREC
 70
     3
  9
$SKETCHINC
 40
0.1
  9
$FILLETRAD
 40
0.0
  9
$AUNITS
 70
     0
  9
$AUPREC
 70
     0
  9
$MENU
  1
ACAD
  9
$ELEVATION
 40
0.0
  9
$PELEVATION
 40
0.0
  9
$THICKNESS
 40
0.0
  9
$LIMCHECK
 70
     0
  9
$CHAMFERA
 40
0.0
  9
$CHAMFERB
 40
0.0
  9
$CHAMFERC
 40
0.0
  9
$CHAMFERD
 40
0.0
  9
$SKPOLY
 70
     0
  9
$TDCREATE
 40
2451605.558833901
  9
$TDUCREATE
 40
2451605.850500568
  9
$TDUPDATE
 40
2455218.416074502
  9
$TDUUPDATE
 40
2455218.707741169
  9
$TDINDWG
 40
0.2391636343
  9
$TDUSRTIMER
 40
0.2391636343
  9
$USRTIMER
 70
     1
  9
$ANGBASE
 50
0.0
  9
$ANGDIR
 70
     0
  9
$PDMODE
 70
     0
  9
$PDSIZE
 40
0.0
  9
$PLINEWID
 40
0.0
  9
$SPLFRAME
 70
     0
  9
$SPLINETYPE
 70
     6
  9
$SPLINESEGS
 70
     8
  9
$HANDSEED
  5
1DAD
  9
$SURFTAB1
 70
     6
  9
$SURFTAB2
 70
     6
  9
$SURFTYPE
 70
     6
  9
$SURFU
 70
     6
  9
$SURFV
 70
     6
  9
$UCSBASE
  2

  9
$UCSNAME
  2

  9
$UCSORG
 10
0.0
 20
0.0
 30
0.0
  9
$UCSXDIR
 10
1.0
 20
0.0
 30
0.0
  9
$UCSYDIR
 10
0.0
 20
1.0
 30
0.0
  9
$UCSORTHOREF
  2

  9
$UCSORTHOVIEW
 70
     0
  9
$UCSORGTOP
 10
0.0
 20
0.0
 30
0.0
  9
$UCSORGBOTTOM
 10
0.0
 20
0.0
 30
0.0
  9
$UCSORGLEFT
 10
0.0
 20
0.0
 30
0.0
  9
$UCSORGRIGHT
 10
0.0
 20
0.0
 30
0.0
  9
$UCSORGFRONT
 10
0.0
 20
0.0
 30
0.0
  9
$UCSORGBACK
 10
0.0
 20
0.0
 30
0.0
  9
$PUCSBASE
  2

  9
$PUCSNAME
  2

  9
$PUCSORG
 10
0.0
 20
0.0
 30
0.0
  9
$PUCSXDIR
 10
1.0
 20
0.0
 30
0.0
  9
$PUCSYDIR
 10
0.0
 20
1.0
 30
0.0
  9
$PUCSORTHOREF
  2

  9
$PUCSORTHOVIEW
 70
     0
  9
$PUCSORGTOP
 10
0.0
 20
0.0
 30
0.0
  9
$PUCSORGBOTTOM
 10
0.0
 20
0.0
 30
0.0
  9
$PUCSORGLEFT
 10
0.0
 20
0.0
 30
0.0
  9
$PUCSORGRIGHT
 10
0.0
 20
0.0
 30
0.0
  9
$PUCSORGFRONT
 10
0.0
 20
0.0
 30
0.0
  9
$PUCSORGBACK
 10
0.0
 20
0.0
 30
0.0
  9
$USERI1
 70
     0
  9
$USERI2
 70
     0
  9
$USERI3
 70
     0
  9
$USERI4
 70
     0
  9
$USERI5
 70
     0
  9
$USERR1
 40
0.0
  9
$USERR2
 40
0.0
  9
$USERR3
 40
0.0
  9
$USERR4
 40
0.0
  9
$USERR5
 40
0.0
  9
$WORLDVIEW
 70
     1
  9
$SHADEDGE
 70
     3
  9
$SHADEDIF
 70
    70
  9
$TILEMODE
 70
     1
  9
$MAXACTVP
 70
    16
  9
$PINSBASE
 10
0.0
 20
0.0
 30
0.0
  9
$PLIMCHECK
 70
     0
  9
$PEXTMIN
 10
1.000000000000000E+20
 20
1.000000000000000E+20
 30
1.000000000000000E+20
  9
$PEXTMAX
 10
-1.000000000000000E+20
 20
-1.000000000000000E+20
 30
-1.000000000000000E+20
  9
$PLIMMIN
 10
0.0
 20
0.0
  9
$PLIMMAX
 10
12.0
 20
9.0
  9
$UNITMODE
 70
     0
  9
$VISRETAIN
 70
     0
  9
$PLINEGEN
 70
     1
  9
$PSLTSCALE
 70
     1
  9
$TREEDEPTH
 70
  3020
  9
$CMLSTYLE
  2
Standard
  9
$CMLJUST
 70
     0
  9
$CMLSCALE
 40
1.0
  9
$PROXYGRAPHICS
 70
     1
  9
$MEASUREMENT
 70
     0
  9
$CELWEIGHT
370
    -1
  9
$ENDCAPS
280
     0
  9
$JOINSTYLE
280
     0
  9
$LWDISPLAY
290
     0
  9
$INSUNITS
 70
     0
  9
$HYPERLINKBASE
  1

  9
$STYLESHEET
  1
pdf bw shaded.ctb
  9
$XEDIT
290
     1
  9
$CEPSNTYPE
380
     0
  9
$PSTYLEMODE
290
     1
  9
$FINGERPRINTGUID
  2
{809E942E-D3FA-4AF4-BE5E-39ACFC237699}
  9
$VERSIONGUID
  2
{9B9BE347-5A09-4EE2-AB2C-4F1CA3CB1CB8}
  9
$EXTNAMES
290
     1
  9
$PSVPSCALE
 40
0.0
  9
$OLESTARTUP
290
     1
  9
$SORTENTS
280
    48
  9
$INDEXCTL
280
     0
  9
$HIDETEXT
280
     1
  9
$XCLIPFRAME
290
     0
  9
$HALOGAP
280
     0
  9
$OBSCOLOR
 70
   257
  9
$OBSLTYPE
280
     0
  9
$INTERSECTIONDISPLAY
280
     0
  9
$INTERSECTIONCOLOR
 70
   257
  9
$DIMASSOC
280
     1
  9
$PROJECTNAME
  1

  0
ENDSEC
  0
SECTION
  2
CLASSES
  0
CLASS
  1
ACDBDICTIONARYWDFLT
  2
AcDbDictionaryWithDefault
  3
ObjectDBX Classes
 90
        0
 91
        1
280
     0
281
     0
  0
CLASS
  1
DICTIONARYVAR
  2
AcDbDictionaryVar
  3
ObjectDBX Classes
 90
        0
 91
       11
280
     0
281
     0
  0
CLASS
  1
MATERIAL
  2
AcDbMaterial
  3
ObjectDBX Classes
 90
     1153
 91
        3
280
     0
281
     0
  0
CLASS
  1
VISUALSTYLE
  2
AcDbVisualStyle
  3
ObjectDBX Classes
 90
     4095
 91
       16
280
     0
281
     0
  0
CLASS
  1
TABLESTYLE
  2
AcDbTableStyle
  3
ObjectDBX Classes
 90
     4095
 91
        1
280
     0
281
     0
  0
CLASS
  1
SCALE
  2
AcDbScale
  3
ObjectDBX Classes
 90
     1153
 91
       33
280
     0
281
     0
  0
CLASS
  1
MLEADERSTYLE
  2
AcDbMLeaderStyle
  3
ACDB_MLEADERSTYLE_CLASS
 90
     4095
 91
        1
280
     0
281
     0
  0
CLASS
  1
EXACXREFPANELOBJECT
  2
ExAcXREFPanelObject
  3
EXAC_ESW
 90
     1025
 91
        0
280
     0
281
     0
  0
CLASS
  1
NPOCOLLECTION
  2
AcDbImpNonPersistentObjectsCollection
  3
ObjectDBX Classes
 90
     1153
 91
        0
280
     0
281
     0
  0
CLASS
  1
PLOTSETTINGS
  2
AcDbPlotSettings
  3
ObjectDBX Classes
 90
        0
 91
       76
280
     0
281
     0
  0
CLASS
  1
LAYER_INDEX
  2
AcDbLayerIndex
  3
ObjectDBX Classes
 90
        0
 91
        0
280
     0
281
     0
  0
CLASS
  1
SPATIAL_INDEX
  2
AcDbSpatialIndex
  3
ObjectDBX Classes
 90
        0
 91
        0
280
     0
281
     0
  0
CLASS
  1
IDBUFFER
  2
AcDbIdBuffer
  3
ObjectDBX Classes
 90
        0
 91
        0
280
     0
281
     0
  0
CLASS
  1
CELLSTYLEMAP
  2
AcDbCellStyleMap
  3
ObjectDBX Classes
 90
     1152
 91
        4
280
     0
281
     0
  0
CLASS
  1
AEC_REFEDIT_STATUS_TRACKER
  2
AecDbRefEditStatusTracker
  3
AecArchBase50|Product Desc: Autodesk Architectural Desktop 2007 |Company: Autodesk,Inc. |WEB Address: www.autodesk.com
 90
      129
 91
        0
280
     0
281
     0
  0
CLASS
  1
SORTENTSTABLE
  2
AcDbSortentsTable
  3
ObjectDBX Classes
 90
        0
 91
        1
280
     0
281
     0
  0
ENDSEC
  0
SECTION
  2
TABLES
  0
TABLE
  2
VPORT
  5
10AB
330
0
100
AcDbSymbolTable
 70
     1
  0
VPORT
  5
11F0
330
10AB
100
AcDbSymbolTableRecord
100
AcDbViewportTableRecord
  2
*Active
 70
     0
 10
0.0
 20
0.0
 11
1.0
 21
1.0
 12
4.668838263162419
 22
3.945781244032871
 13
0.0
 23
0.0
 14
0.14
 24
0.14
 15
0.14
 25
0.14
 16
0.0
 26
0.0
 36
1.0
 17
0.0
 27
0.0
 37
0.0
 40
10.53266272189349
 41
2.308148148148148
 42
50.0
 43
0.0
 44
0.0
 50
0.0
 51
0.0
 71
     0
 72
  4000
 73
     1
 74
     1
 75
     0
 76
     0
 77
     0
 78
     0
281
     0
 65
     1
110
0.0
120
0.0
130
0.0
111
1.0
121
0.0
131
0.0
112
0.0
122
1.0
132
0.0
 79
     0
146
0.0
  0
ENDTAB
  0
TABLE
  2
LTYPE
  5
10A8
330
0
100
AcDbSymbolTable
 70
     1
  0
LTYPE
  5
10B6
330
10A8
100
AcDbSymbolTableRecord
100
AcDbLinetypeTableRecord
  2
ByBlock
 70
     0
  3

 72
    65
 73
     0
 40
0.0
  0
LTYPE
  5
10B7
330
10A8
100
AcDbSymbolTableRecord
100
AcDbLinetypeTableRecord
  2
ByLayer
 70
     0
  3

 72
    65
 73
     0
 40
0.0
  0
LTYPE
  5
10B8
330
10A8
100
AcDbSymbolTableRecord
100
AcDbLinetypeTableRecord
  2
CONTINUOUS
 70
     0
  3
Solid line
 72
    65
 73
     0
 40
0.0
  0
ENDTAB
  0
TABLE
  2
LAYER
  5
10A5
102
{ACAD_XDICTIONARY
360
10EB
102
}
330
0
100
AcDbSymbolTable
 70
     4
  0
LAYER
  5
10B3
330
10A5
100
AcDbSymbolTableRecord
100
AcDbLayerTableRecord
  2
0
 70
     0
 62
     7
  6
CONTINUOUS
370
    -3
390
10B2
  0
LAYER
  5
10CC
330
10A5
100
AcDbSymbolTableRecord
100
AcDbLayerTableRecord
  2
text_bubbles
 70
     0
 62
     6
  6
CONTINUOUS
370
    -3
390
10B2
  0
LAYER
  5
10CD
330
10A5
100
AcDbSymbolTableRecord
100
AcDbLayerTableRecord
  2
image
 70
     0
 62
     7
  6
CONTINUOUS
370
    -3
390
10B2
  0
LAYER
  5
118F
330
10A5
100
AcDbSymbolTableRecord
100
AcDbLayerTableRecord
  2
title
 70
     0
 62
     4
  6
CONTINUOUS
370
    -3
390
10B2
  0
ENDTAB
  0
TABLE
  2
STYLE
  5
10A6
330
0
100
AcDbSymbolTable
 70
     7
  0
STYLE
  5
10B4
330
10A6
100
AcDbSymbolTableRecord
100
AcDbTextStyleTableRecord
  2
STANDARD
 70
     0
 40
0.0
 41
1.0
 50
0.0
 71
     0
 42
0.2
  3
txt
  4

  0
STYLE
  5
10C7
330
10A6
100
AcDbSymbolTableRecord
100
AcDbTextStyleTableRecord
  2
ROMANS
 70
     0
 40
0.0
 41
1.0
 50
0.0
 71
     0
 42
0.125
  3
ROMANS.SHX
  4

  0
STYLE
  5
10C8
330
10A6
100
AcDbSymbolTableRecord
100
AcDbTextStyleTableRecord
  2
SIMPLEX
 70
     0
 40
0.0
 41
1.0
 50
0.0
 71
     0
 42
0.125
  3
SIMPLEX
  4

  0
STYLE
  5
1190
330
10A6
100
AcDbSymbolTableRecord
100
AcDbTextStyleTableRecord
  2
L100
 70
     0
 40
0.1
 41
1.0
 50
0.0
 71
     0
 42
0.1
  3
romans.shx
  4

  0
STYLE
  5
1191
330
10A6
100
AcDbSymbolTableRecord
100
AcDbTextStyleTableRecord
  2
L200
 70
     0
 40
0.2
 41
1.0
 50
0.0
 71
     0
 42
0.081
  3
ARIAL.TTF
  4

1001
ACAD
1000
Arial
1071
       34
  0
STYLE
  5
1192
330
10A6
100
AcDbSymbolTableRecord
100
AcDbTextStyleTableRecord
  2
L80
 70
     0
 40
0.08
 41
1.0
 50
0.0
 71
     0
 42
0.08
  3
ROMANS
  4

  0
STYLE
  5
1345
330
10A6
100
AcDbSymbolTableRecord
100
AcDbTextStyleTableRecord
  2
Arial
 70
     0
 40
0.0
 41
1.0
 50
0.0
 71
     0
 42
0.125
  3
ARIAL.TTF
  4

1001
ACAD
1000
Arial
1071
       34
  0
ENDTAB
  0
TABLE
  2
VIEW
  5
10A9
330
0
100
AcDbSymbolTable
 70
     0
  0
ENDTAB
  0
TABLE
  2
UCS
  5
10AA
330
0
100
AcDbSymbolTable
 70
     0
  0
ENDTAB
  0
TABLE
  2
APPID
  5
10AC
330
0
100
AcDbSymbolTable
 70
    14
  0
APPID
  5
10B5
330
10AC
100
AcDbSymbolTableRecord
100
AcDbRegAppTableRecord
  2
ACAD
 70
     0
  0
APPID
  5
10CA
330
10AC
100
AcDbSymbolTableRecord
100
AcDbRegAppTableRecord
  2
ABNSLEADERTOOLS
 70
     0
  0
APPID
  5
1193
330
10AC
100
AcDbSymbolTableRecord
100
AcDbRegAppTableRecord
  2
RAK
 70
     0
  0
APPID
  5
1194
330
10AC
100
AcDbSymbolTableRecord
100
AcDbRegAppTableRecord
  2
DCO15
 70
     0
  0
APPID
  5
1243
330
10AC
100
AcDbSymbolTableRecord
100
AcDbRegAppTableRecord
  2
ACAD_MLEADERVER
 70
     0
  0
APPID
  5
1257
330
10AC
100
AcDbSymbolTableRecord
100
AcDbRegAppTableRecord
  2
ACAD_PSEXT
 70
     0
  0
APPID
  5
12D8
330
10AC
100
AcDbSymbolTableRecord
100
AcDbRegAppTableRecord
  2
ACAD_EXEMPT_FROM_CAD_STANDARDS
 70
     0
  0
APPID
  5
1346
330
10AC
100
AcDbSymbolTableRecord
100
AcDbRegAppTableRecord
  2
BBSI_PltSel
 70
     0
  0
APPID
  5
1347
330
10AC
100
AcDbSymbolTableRecord
100
AcDbRegAppTableRecord
  2
BBSI_Plots
 70
     0
  0
APPID
  5
1348
330
10AC
100
AcDbSymbolTableRecord
100
AcDbRegAppTableRecord
  2
BBSI_Bookmarks
 70
     0
  0
APPID
  5
1349
330
10AC
100
AcDbSymbolTableRecord
100
AcDbRegAppTableRecord
  2
BBSI_BookmarksEx
 70
     0
  0
APPID
  5
135A
330
10AC
100
AcDbSymbolTableRecord
100
AcDbRegAppTableRecord
  2
BBSI_StampsEx
 70
     0
  0
APPID
  5
135B
330
10AC
100
AcDbSymbolTableRecord
100
AcDbRegAppTableRecord
  2
BBSI_Attachs
 70
     0
  0
APPID
  5
135C
330
10AC
100
AcDbSymbolTableRecord
100
AcDbRegAppTableRecord
  2
BBSI_DigSigs
 70
     0
  0
ENDTAB
  0
TABLE
  2
DIMSTYLE
  5
10AD
330
0
100
AcDbSymbolTable
 70
     1
100
AcDbDimStyleTable
 71
     1
340
10CB
  0
DIMSTYLE
105
10CB
330
10AD
100
AcDbSymbolTableRecord
100
AcDbDimStyleTableRecord
  2
STANDARD
 70
     0
279
     2
340
10B4
  0
ENDTAB
  0
TABLE
  2
BLOCK_RECORD
  5
10A4
330
0
100
AcDbSymbolTable
 70
     2
  0
BLOCK_RECORD
  5
10C1
102
{ACAD_XDICTIONARY
360
12AB
102
}
330
10A4
100
AcDbSymbolTableRecord
100
AcDbBlockTableRecord
  2
*Model_Space
340
10C4
  0
BLOCK_RECORD
  5
10BD
330
10A4
100
AcDbSymbolTableRecord
100
AcDbBlockTableRecord
  2
*Paper_Space
340
10C0
  0
BLOCK_RECORD
  5
1195
102
{ACAD_XDICTIONARY
360
1316
102
}
330
10A4
100
AcDbSymbolTableRecord
100
AcDbBlockTableRecord
  2
titleblock
340
0
102
{BLKREFS
331
11A4
102
}
  0
BLOCK_RECORD
  5
153C
330
10A4
100
AcDbSymbolTableRecord
100
AcDbBlockTableRecord
  2
*U1
340
0
102
{BLKREFS
331
1941
102
}
  0
ENDTAB
  0
ENDSEC
  0
SECTION
  2
BLOCKS
  0
BLOCK
  5
10D6
330
10C1
100
AcDbEntity
  8
0
100
AcDbBlockBegin
  2
*Model_Space
 70
     0
 10
0.0
 20
0.0
 30
0.0
  3
*Model_Space
  1

  0
ENDBLK
  5
10D7
330
10C1
100
AcDbEntity
  8
0
100
AcDbBlockEnd
  0
BLOCK
  5
10D4
330
10BD
100
AcDbEntity
 67
     1
  8
0
100
AcDbBlockBegin
  2
*Paper_Space
 70
     0
 10
0.0
 20
0.0
 30
0.0
  3
*Paper_Space
  1

  0
ENDBLK
  5
10D5
330
10BD
100
AcDbEntity
 67
     1
  8
0
100
AcDbBlockEnd
  0
BLOCK
  5
11A1
330
1195
100
AcDbEntity
  8
0
100
AcDbBlockBegin
  2
titleblock
 70
     2
 10
0.0
 20
0.0
 30
0.0
  3
titleblock
  1

  0
LWPOLYLINE
  5
1196
330
1195
100
AcDbEntity
  8
0
100
AcDbPolyline
 90
        4
 70
     1
 43
0.0
 10
0.0
 20
0.0
 10
10.33458742478744
 20
0.0000000000000002
 10
10.33458742478744
 20
10.44
 10
0.0
 20
10.44
  0
ATTDEF
  5
1197
330
1195
100
AcDbEntity
  8
title
100
AcDbText
 10
0.5055556038023421
 20
0.7842270964783673
 30
0.0
 40
0.2
  1
D
  7
L200
 72
     4
 11
0.6064423705144839
 21
0.8842270964783672
 31
0.0
100
AcDbAttributeDefinition
  3
#
  2
D
 70
     0
  0
ATTDEF
  5
1198
330
1195
100
AcDbEntity
  8
title
100
AcDbText
 10
1.231442370514484
 20
1.34371230274675
 30
0.0
 40
0.2
  1

  7
L200
100
AcDbAttributeDefinition
  3
DETAIL TITLE TOP LINE
  2
TITLE1
 70
     0
  0
ATTDEF
  5
1199
330
1195
100
AcDbEntity
  8
title
100
AcDbText
 10
1.231442370514484
 20
0.9842270964783674
 30
0.0
 40
0.2
  1
TITLE
  7
L200
100
AcDbAttributeDefinition
  3
DETAIL TITLE TOP 2ND LINE
  2
TITLE2
 70
     0
  0
ATTDEF
  5
119A
330
1195
100
AcDbEntity
  8
title
100
AcDbText
 10
2.713645751168312
 20
0.5927927664583189
 30
0.0
 40
0.2
  1
TITLE2
  7
L200
100
AcDbAttributeDefinition
  3
DETAIL TITLE BOTTOM 1
  2
TITLE3
 70
     0
  0
ATTDEF
  5
119B
330
1195
100
AcDbEntity
  8
title
100
AcDbText
 10
2.713645751168312
 20
0.2692560808167741
 30
0.0
 40
0.2
  1

  7
L200
100
AcDbAttributeDefinition
  3
DETAIL TITLE BOTTOM 2
  2
TITLE4
 70
     0
  0
ATTDEF
  5
119C
330
1195
100
AcDbEntity
  8
title
 62
     7
100
AcDbText
 10
8.177214829966379
 20
0.9696027915446398
 30
0.0
 40
0.08
  1
-
  7
L80
 72
     2
 11
8.261024353775903
 21
0.9696027915446398
 31
0.0
100
AcDbAttributeDefinition
  3
REVISION DATE
  2
REVISED
 70
     0
  0
ATTDEF
  5
119D
330
1195
100
AcDbEntity
  8
title
 62
     7
100
AcDbText
 10
0.2639423705144838
 20
0.0847116480207213
 30
0.0
 40
0.08
  1
-
  7
L80
100
AcDbAttributeDefinition
  3
DWG-NAME
  2
DWG-NAME
 70
     0
  0
LWPOLYLINE
  5
119E
330
1195
100
AcDbEntity
  8
title
 62
     3
100
AcDbPolyline
 90
        2
 70
     1
 43
0.03
 10
0.6064423705144839
 20
0.5417270964783675
 42
0.9999999999999998
 10
0.6064423705144839
 20
1.226727096478367
 42
0.9999999999999998
  0
ATTDEF
  5
119F
330
1195
100
AcDbEntity
  8
title
 62
     7
100
AcDbText
 10
1.231442370514484
 20
0.7005637793954894
 30
0.0
 40
0.1
  1
N.T.S.
  7
L100
100
AcDbAttributeDefinition
  3
SCALE
  2
SCALE
 70
     0
  0
LWPOLYLINE
  5
11A0
330
1195
100
AcDbEntity
  8
title
 62
     3
100
AcDbPolyline
 90
        2
 70
     0
 43
0.04
 39
0.03
 10
0.9489423705144833
 20
0.8842270964783672
 10
8.261024353775903
 20
0.8842270964783672
  0
ENDBLK
  5
11A2
330
1195
100
AcDbEntity
  8
0
100
AcDbBlockEnd
  0
BLOCK
  5
153D
330
153C
100
AcDbEntity
  8
0
100
AcDbBlockBegin
  2
*U1
 70
     1
 10
0.0
 20
0.0
 30
0.0
  3
*U1
  1

  0
SOLID
  5
153E
330
153C
100
AcDbEntity
  8
0
  6
Continuous
100
AcDbTrace
 10
3.567182989901761
 20
5.541527675957381
 30
0.0
 11
3.575556278699087
 21
5.541181354170972
 31
0.0
 12
3.587347688324673
 22
5.54152444914982
 32
0.0
 13
3.587347688324673
 23
5.54152444914982
 33
0.0
  0
SOLID
  5
153F
330
153C
100
AcDbEntity
  8
0
  6
Continuous
100
AcDbTrace
 10
3.599099199552568
 20
5.542552573161558
 30
0.0
 11
3.567182989901761
 21
5.541527675957381
 31
0.0
 12
3.587347688324673
 22
5.54152444914982
 32
0.0
 13
3.587347688324673
 23
5.54152444914982
 33
0.0
  0
SOLID
  5
1540
330
153C
100
AcDbEntity
  8
0
  6
Continuous
100
AcDbTrace
 10
3.558866899157324
 20
5.542564275587641
 30
0.0
 11
3.567182989901761
 21
5.541527675957381
 31
0.0
 12
3.599099199552568
 22
5.542552573161558
 32
0.0
 13
3.599099199552568
 23
5.542552573161558
 33
0.0
  0
SOLID
  5
1541
330
153C
100
AcDbEntity
  8
0
  6
Continuous
100
AcDbTrace
 10
3.610771048988631
 20
5.544262247359977
 30
0.0
 11
3.558866899157324
 21
5.542564275587641
 31
0.0
 12
3.599099199552568
 22
5.542552573161558
 32
0.0
 13
3.599099199552568
 23
5.542552573161558
 33
0.0
  0
SOLID
  5
1542
330
153C
100
AcDbEntity
  8
0
  6
Continuous
100
AcDbTrace
 10
3.550664813797965
 20
5.544284072035178
 30
0.0
 11
3.558866899157324
 21
5.542564275587641
 31
0.0
 12
3.610771048988631
 22
5.544262247359977
 32
0.0
 13
3.610771048988631
 23
5.544262247359977
 33
0.0
  0
SOLID
  5
1543
330
153C
100
AcDbEntity
  8
0
  6
Continuous
100
AcDbTrace
 10
3.622323742789008
 20
5.546647686748773
 30
0.0
 11
3.550664813797965
 21
5.544284072035178
 31
0.0
 12
3.610771048988631
 22
5.544262247359977
 32
0.0
 13
3.610771048988631
 23
5.544262247359977
 33
0.0
  0
SOLID
  5
1544
330
153C
100
AcDbEntity
  8
0
  6
Continuous
100
AcDbTrace
 10
3.542632762383494
 20
5.546675317346405
 30
0.0
 11
3.550664813797965
 21
5.544284072035178
 31
0.0
 12
3.622323742789008
 22
5.546647686748773
 32
0.0
 13
3.622323742789008
 23
5.546647686748773
 33
0.0
  0
SOLID
  5
1545
330
153C
100
AcDbEntity
  8
0
  6
Continuous
100
AcDbTrace
 10
3.633718190294795
 20
5.549700819756147
 30
0.0
 11
3.542632762383494
 21
5.546675317346405
 31
0.0
 12
3.622323742789008
 22
5.546647686748773
 32
0.0
 13
3.622323742789008
 23
5.546647686748773
 33
0.0
  0
SOLID
  5
1546
330
153C
100
AcDbEntity
  8
0
  6
Continuous
100
AcDbTrace
 10
3.534825611969466
 20
5.549721676891156
 30
0.0
 11
3.542632762383494
 21
5.546675317346405
 31
0.0
 12
3.633718190294795
 22
5.549700819756147
 32
0.0
 13
3.633718190294795
 23
5.549700819756147
 33
0.0
  0
SOLID
  5
1547
330
153C
100
AcDbEntity
  8
0
  6
Continuous
100
AcDbTrace
 10
3.527296693309553
 20
5.553402340944773
 30
0.0
 11
3.534825611969466
 21
5.549721676891156
 31
0.0
 12
3.633718190294795
 22
5.549700819756147
 32
0.0
 13
3.633718190294795
 23
5.549700819756147
 33
0.0
  0
SOLID
  5
1548
330
153C
100
AcDbEntity
  8
0
  6
Continuous
100
AcDbTrace
 10
3.644915836302462
 20
5.55341131554645
 30
0.0
 11
3.527296693309553
 21
5.553402340944773
 31
0.0
 12
3.633718190294795
 22
5.549700819756147
 32
0.0
 13
3.633718190294795
 23
5.549700819756147
 33
0.0
  0
SOLID
  5
1549
330
153C
100
AcDbEntity
  8
0
  6
Continuous
100
AcDbTrace
 10
3.520097436552426
 20
5.557692166839624
 30
0.0
 11
3.527296693309553
 21
5.553402340944773
 31
0.0
 12
3.644915836302462
 22
5.55341131554645
 32
0.0
 13
3.644915836302462
 23
5.55341131554645
 33
0.0
  0
SOLID
  5
154A
330
153C
100
AcDbEntity
  8
0
  6
Continuous
100
AcDbTrace
 10
3.655878791522449
 20
5.557766618976456
 30
0.0
 11
3.520097436552426
 21
5.557692166839624
 31
0.0
 12
3.644915836302462
 22
5.55341131554645
 32
0.0
 13
3.644915836302462
 23
5.55341131554645
 33
0.0
  0
SOLID
  5
154B
330
153C
100
AcDbEntity
  8
0
  6
Continuous
100
AcDbTrace
 10
3.513277019921688
 20
5.562561850715021
 30
0.0
 11
3.520097436552426
 21
5.557692166839624
 31
0.0
 12
3.655878791522449
 22
5.557766618976456
 32
0.0
 13
3.655878791522449
 23
5.557766618976456
 33
0.0
  0
SOLID
  5
154C
330
153C
100
AcDbEntity
  8
0
  6
Continuous
100
AcDbTrace
 10
3.666569960784534
 20
5.562751993077998
 30
0.0
 11
3.513277019921688
 21
5.562561850715021
 31
0.0
 12
3.655878791522449
 22
5.557766618976456
 32
0.0
 13
3.655878791522449
 23
5.557766618976456
 33
0.0
  0
SOLID
  5
154D
330
153C
100
AcDbEntity
  8
0
  6
Continuous
100
AcDbTrace
 10
3.506882033778737
 20
5.567978127692303
 30
0.0
 11
3.513277019921688
 21
5.562561850715021
 31
0.0
 12
3.666569960784534
 22
5.562751993077998
 32
0.0
 13
3.666569960784534
 23
5.562751993077998
 33
0.0
  0
SOLID
  5
154E
330
153C
100
AcDbEntity
  8
0
  6
Continuous
100
AcDbTrace
 10
3.676953168556144
 20
5.568350568923198
 30
0.0
 11
3.506882033778737
 21
5.567978127692303
 31
0.0
 12
3.666569960784534
 22
5.562751993077998
 32
0.0
 13
3.666569960784534
 23
5.562751993077998
 33
0.0
  0
SOLID
  5
154F
330
153C
100
AcDbEntity
  8
0
  6
Continuous
100
AcDbTrace
 10
3.50095616236336
 20
5.57390399910768
 30
0.0
 11
3.506882033778737
 21
5.567978127692303
 31
0.0
 12
3.676953168556144
 22
5.568350568923198
 32
0.0
 13
3.676953168556144
 23
5.568350568923198
 33
0.0
  0
SOLID
  5
1550
330
153C
100
AcDbEntity
  8
0
  6
Continuous
100
AcDbTrace
 10
3.686993281348906
 20
5.574543402703584
 30
0.0
 11
3.50095616236336
 21
5.57390399910768
 31
0.0
 12
3.676953168556144
 22
5.568350568923198
 32
0.0
 13
3.676953168556144
 23
5.568350568923198
 33
0.0
  0
SOLID
  5
1551
330
153C
100
AcDbEntity
  8
0
  6
Continuous
100
AcDbTrace
 10
3.495539885386079
 20
5.580298985250631
 30
0.0
 11
3.50095616236336
 21
5.57390399910768
 31
0.0
 12
3.686993281348906
 22
5.574543402703584
 32
0.0
 13
3.686993281348906
 23
5.574543402703584
 33
0.0
  0
SOLID
  5
1552
330
153C
100
AcDbEntity
  8
0
  6
Continuous
100
AcDbTrace
 10
3.696656326599252
 20
5.581309539829938
 30
0.0
 11
3.495539885386079
 21
5.580298985250631
 31
0.0
 12
3.686993281348906
 22
5.574543402703584
 32
0.0
 13
3.686993281348906
 23
5.574543402703584
 33
0.0
  0
SOLID
  5
1553
330
153C
100
AcDbEntity
  8
0
  6
Continuous
100
AcDbTrace
 10
3.490670201510681
 20
5.58711940188137
 30
0.0
 11
3.495539885386079
 21
5.580298985250631
 31
0.0
 12
3.696656326599252
 22
5.581309539829938
 32
0.0
 13
3.696656326599252
 23
5.581309539829938
 33
0.0
  0
SOLID
  5
1554
330
153C
100
AcDbEntity
  8
0
  6
Continuous
100
AcDbTrace
 10
3.705909607620821
 20
5.588626085835995
 30
0.0
 11
3.490670201510681
 21
5.58711940188137
 31
0.0
 12
3.696656326599252
 22
5.581309539829938
 32
0.0
 13
3.696656326599252
 23
5.581309539829938
 33
0.0
  0
SOLID
  5
1555
330
153C
100
AcDbEntity
  8
0
  6
Continuous
100
AcDbTrace
 10
3.486380375615829
 20
5.594318658638496
 30
0.0
 11
3.490670201510681
 21
5.58711940188137
 31
0.0
 12
3.705909607620821
 22
5.588626085835995
 32
0.0
 13
3.705909607620821
 23
5.588626085835995
 33
0.0
  0
SOLID
  5
1556
330
153C
100
AcDbEntity
  8
0
  6
Continuous
100
AcDbTrace
 10
3.714721814239692
 20
5.596468283846069
 30
0.0
 11
3.486380375615829
 21
5.594318658638496
 31
0.0
 12
3.705909607620821
 22
5.588626085835995
 32
0.0
 13
3.705909607620821
 23
5.588626085835995
 33
0.0
  0
SOLID
  5
1557
330
153C
100
AcDbEntity
  8
0
  6
Continuous
100
AcDbTrace
 10
3.482699711562213
 20
5.601847577298409
 30
0.0
 11
3.486380375615829
 21
5.594318658638496
 31
0.0
 12
3.714721814239692
 22
5.596468283846069
 32
0.0
 13
3.714721814239692
 23
5.596468283846069
 33
0.0
  0
SOLID
  5
1558
330
153C
100
AcDbEntity
  8
0
  6
Continuous
100
AcDbTrace
 10
3.723063128738104
 20
5.604809598344481
 30
0.0
 11
3.482699711562213
 21
5.601847577298409
 31
0.0
 12
3.714721814239692
 22
5.596468283846069
 32
0.0
 13
3.714721814239692
 23
5.596468283846069
 33
0.0
  0
SOLID
  5
1559
330
153C
100
AcDbEntity
  8
0
  6
Continuous
100
AcDbTrace
 10
3.479653352017462
 20
5.609654727712437
 30
0.0
 11
3.482699711562213
 21
5.601847577298409
 31
0.0
 12
3.723063128738104
 22
5.604809598344481
 32
0.0
 13
3.723063128738104
 23
5.604809598344481
 33
0.0
  0
SOLID
  5
155A
330
153C
100
AcDbEntity
  8
0
  6
Continuous
100
AcDbTrace
 10
3.730905326748178
 20
5.613621804963353
 30
0.0
 11
3.479653352017462
 21
5.609654727712437
 31
0.0
 12
3.723063128738104
 22
5.604809598344481
 32
0.0
 13
3.723063128738104
 23
5.604809598344481
 33
0.0
  0
SOLID
  5
155B
330
153C
100
AcDbEntity
  8
0
  6
Continuous
100
AcDbTrace
 10
3.477262106706235
 20
5.617686779126908
 30
0.0
 11
3.479653352017462
 21
5.609654727712437
 31
0.0
 12
3.730905326748178
 22
5.613621804963353
 32
0.0
 13
3.730905326748178
 23
5.613621804963353
 33
0.0
  0
SOLID
  5
155C
330
153C
100
AcDbEntity
  8
0
  6
Continuous
100
AcDbTrace
 10
3.738221872754235
 20
5.622875085984921
 30
0.0
 11
3.477262106706235
 21
5.617686779126908
 31
0.0
 12
3.730905326748178
 22
5.613621804963353
 32
0.0
 13
3.730905326748178
 23
5.613621804963353
 33
0.0
  0
SOLID
  5
155D
330
153C
100
AcDbEntity
  8
0
  6
Continuous
100
AcDbTrace
 10
3.475542310258697
 20
5.625888864486267
 30
0.0
 11
3.477262106706235
 21
5.617686779126908
 31
0.0
 12
3.738221872754235
 22
5.622875085984921
 32
0.0
 13
3.738221872754235
 23
5.622875085984921
 33
0.0
  0
SOLID
  5
155E
330
153C
100
AcDbEntity
  8
0
  6
Continuous
100
AcDbTrace
 10
3.744988009880589
 20
5.632538131235267
 30
0.0
 11
3.475542310258697
 21
5.625888864486267
 31
0.0
 12
3.738221872754235
 22
5.622875085984921
 32
0.0
 13
3.738221872754235
 23
5.622875085984921
 33
0.0
  0
SOLID
  5
155F
330
153C
100
AcDbEntity
  8
0
  6
Continuous
100
AcDbTrace
 10
3.474505710628438
 20
5.634204955230703
 30
0.0
 11
3.475542310258697
 21
5.625888864486267
 31
0.0
 12
3.744988009880589
 22
5.632538131235267
 32
0.0
 13
3.744988009880589
 23
5.632538131235267
 33
0.0
  0
SOLID
  5
1560
330
153C
100
AcDbEntity
  8
0
  6
Continuous
100
AcDbTrace
 10
3.751180843660975
 20
5.64257824402803
 30
0.0
 11
3.474505710628438
 21
5.634204955230703
 31
0.0
 12
3.744988009880589
 22
5.632538131235267
 32
0.0
 13
3.744988009880589
 23
5.632538131235267
 33
0.0
  0
SOLID
  5
1561
330
153C
100
AcDbEntity
  8
0
  6
Continuous
100
AcDbTrace
 10
3.474159388842029
 20
5.64257824402803
 30
0.0
 11
3.474505710628438
 21
5.634204955230703
 31
0.0
 12
3.751180843660975
 22
5.64257824402803
 32
0.0
 13
3.751180843660975
 23
5.64257824402803
 33
0.0
  0
SOLID
  5
1562
330
153C
100
AcDbEntity
  8
0
  6
Continuous
100
AcDbTrace
 10
3.474505710628438
 20
5.650951532825356
 30
0.0
 11
3.474159388842029
 21
5.64257824402803
 31
0.0
 12
3.751180843660975
 22
5.64257824402803
 32
0.0
 13
3.751180843660975
 23
5.64257824402803
 33
0.0
  0
SOLID
  5
1563
330
153C
100
AcDbEntity
  8
0
  6
Continuous
100
AcDbTrace
 10
3.756779419506175
 20
5.652961451799638
 30
0.0
 11
3.474505710628438
 21
5.650951532825356
 31
0.0
 12
3.751180843660975
 22
5.64257824402803
 32
0.0
 13
3.751180843660975
 23
5.64257824402803
 33
0.0
  0
SOLID
  5
1564
330
153C
100
AcDbEntity
  8
0
  6
Continuous
100
AcDbTrace
 10
3.475542310258697
 20
5.659267623569792
 30
0.0
 11
3.474505710628438
 21
5.650951532825356
 31
0.0
 12
3.756779419506175
 22
5.652961451799638
 32
0.0
 13
3.756779419506175
 23
5.652961451799638
 33
0.0
  0
SOLID
  5
1565
330
153C
100
AcDbEntity
  8
0
  6
Continuous
100
AcDbTrace
 10
3.761764793607716
 20
5.663652621061723
 30
0.0
 11
3.475542310258697
 21
5.659267623569792
 31
0.0
 12
3.756779419506175
 22
5.652961451799638
 32
0.0
 13
3.756779419506175
 23
5.652961451799638
 33
0.0
  0
SOLID
  5
1566
330
153C
100
AcDbEntity
  8
0
  6
Continuous
100
AcDbTrace
 10
3.477262106706235
 20
5.667469708929151
 30
0.0
 11
3.475542310258697
 21
5.659267623569792
 31
0.0
 12
3.761764793607716
 22
5.663652621061723
 32
0.0
 13
3.761764793607716
 23
5.663652621061723
 33
0.0
  0
SOLID
  5
1567
330
153C
100
AcDbEntity
  8
0
  6
Continuous
100
AcDbTrace
 10
3.766120097037723
 20
5.674615576281711
 30
0.0
 11
3.477262106706235
 21
5.667469708929151
 31
0.0
 12
3.761764793607716
 22
5.663652621061723
 32
0.0
 13
3.761764793607716
 23
5.663652621061723
 33
0.0
  0
SOLID
  5
1568
330
153C
100
AcDbEntity
  8
0
  6
Continuous
100
AcDbTrace
 10
3.479653352017462
 20
5.675501760343622
 30
0.0
 11
3.477262106706235
 21
5.667469708929151
 31
0.0
 12
3.766120097037723
 22
5.674615576281711
 32
0.0
 13
3.766120097037723
 23
5.674615576281711
 33
0.0
  0
SOLID
  5
1569
330
153C
100
AcDbEntity
  8
0
  6
Continuous
100
AcDbTrace
 10
3.482699711562213
 20
5.68330891075765
 30
0.0
 11
3.479653352017462
 21
5.675501760343622
 31
0.0
 12
3.766120097037723
 22
5.674615576281711
 32
0.0
 13
3.766120097037723
 23
5.674615576281711
 33
0.0
  0
SOLID
  5
156A
330
153C
100
AcDbEntity
  8
0
  6
Continuous
100
AcDbTrace
 10
3.769830592828026
 20
5.685813222289378
 30
0.0
 11
3.482699711562213
 21
5.68330891075765
 31
0.0
 12
3.766120097037723
 22
5.674615576281711
 32
0.0
 13
3.766120097037723
 23
5.674615576281711
 33
0.0
  0
SOLID
  5
156B
330
153C
100
AcDbEntity
  8
0
  6
Continuous
100
AcDbTrace
 10
3.486380375615829
 20
5.690837829417564
 30
0.0
 11
3.482699711562213
 21
5.68330891075765
 31
0.0
 12
3.769830592828026
 22
5.685813222289378
 32
0.0
 13
3.769830592828026
 23
5.685813222289378
 33
0.0
  0
SOLID
  5
156C
330
153C
100
AcDbEntity
  8
0
  6
Continuous
100
AcDbTrace
 10
3.7728837258354
 20
5.697207669795165
 30
0.0
 11
3.486380375615829
 21
5.690837829417564
 31
0.0
 12
3.769830592828026
 22
5.685813222289378
 32
0.0
 13
3.769830592828026
 23
5.685813222289378
 33
0.0
  0
SOLID
  5
156D
330
153C
100
AcDbEntity
  8
0
  6
Continuous
100
AcDbTrace
 10
3.490670201510681
 20
5.698037086174689
 30
0.0
 11
3.486380375615829
 21
5.690837829417564
 31
0.0
 12
3.7728837258354
 22
5.697207669795165
 32
0.0
 13
3.7728837258354
 23
5.697207669795165
 33
0.0
  0
SOLID
  5
156E
330
153C
100
AcDbEntity
  8
0
  6
Continuous
100
AcDbTrace
 10
3.495539885386079
 20
5.704857502805428
 30
0.0
 11
3.490670201510681
 21
5.698037086174689
 31
0.0
 12
3.7728837258354
 22
5.697207669795165
 32
0.0
 13
3.7728837258354
 23
5.697207669795165
 33
0.0
  0
SOLID
  5
156F
330
153C
100
AcDbEntity
  8
0
  6
Continuous
100
AcDbTrace
 10
3.775269165224196
 20
5.708760363595541
 30
0.0
 11
3.495539885386079
 21
5.704857502805428
 31
0.0
 12
3.7728837258354
 22
5.697207669795165
 32
0.0
 13
3.7728837258354
 23
5.697207669795165
 33
0.0
  0
SOLID
  5
1570
330
153C
100
AcDbEntity
  8
0
  6
Continuous
100
AcDbTrace
 10
3.50095616236336
 20
5.71125248894838
 30
0.0
 11
3.495539885386079
 21
5.704857502805428
 31
0.0
 12
3.775269165224196
 22
5.708760363595541
 32
0.0
 13
3.775269165224196
 23
5.708760363595541
 33
0.0
  0
SOLID
  5
1571
330
153C
100
AcDbEntity
  8
0
  6
Continuous
100
AcDbTrace
 10
3.506882033778737
 20
5.717178360363757
 30
0.0
 11
3.50095616236336
 21
5.71125248894838
 31
0.0
 12
3.775269165224196
 22
5.708760363595541
 32
0.0
 13
3.775269165224196
 23
5.708760363595541
 33
0.0
  0
SOLID
  5
1572
330
153C
100
AcDbEntity
  8
0
  6
Continuous
100
AcDbTrace
 10
3.776978839422615
 20
5.720432213031605
 30
0.0
 11
3.506882033778737
 21
5.717178360363757
 31
0.0
 12
3.775269165224196
 22
5.708760363595541
 32
0.0
 13
3.775269165224196
 23
5.708760363595541
 33
0.0
  0
SOLID
  5
1573
330
153C
100
AcDbEntity
  8
0
  6
Continuous
100
AcDbTrace
 10
3.513277019921688
 20
5.722594637341038
 30
0.0
 11
3.506882033778737
 21
5.717178360363757
 31
0.0
 12
3.776978839422615
 22
5.720432213031605
 32
0.0
 13
3.776978839422615
 23
5.720432213031605
 33
0.0
  0
SOLID
  5
1574
330
153C
100
AcDbEntity
  8
0
  6
Continuous
100
AcDbTrace
 10
3.520097436552426
 20
5.727464321216436
 30
0.0
 11
3.513277019921688
 21
5.722594637341038
 31
0.0
 12
3.776978839422615
 22
5.720432213031605
 32
0.0
 13
3.776978839422615
 23
5.720432213031605
 33
0.0
  0
SOLID
  5
1575
330
153C
100
AcDbEntity
  8
0
  6
Continuous
100
AcDbTrace
 10
3.527296693309553
 20
5.731754147111287
 30
0.0
 11
3.520097436552426
 21
5.727464321216436
 31
0.0
 12
3.776978839422615
 22
5.720432213031605
 32
0.0
 13
3.776978839422615
 23
5.720432213031605
 33
0.0
  0
SOLID
  5
1576
330
153C
100
AcDbEntity
  8
0
  6
Continuous
100
AcDbTrace
 10
3.778006963434354
 20
5.732183724259501
 30
0.0
 11
3.527296693309553
 21
5.731754147111287
 31
0.0
 12
3.776978839422615
 22
5.720432213031605
 32
0.0
 13
3.776978839422615
 23
5.720432213031605
 33
0.0
  0
SOLID
  5
1577
330
153C
100
AcDbEntity
  8
0
  6
Continuous
100
AcDbTrace
 10
3.534825611969466
 20
5.735434811164903
 30
0.0
 11
3.527296693309553
 21
5.731754147111287
 31
0.0
 12
3.778006963434354
 22
5.732183724259501
 32
0.0
 13
3.778006963434354
 23
5.732183724259501
 33
0.0
  0
SOLID
  5
1578
330
153C
100
AcDbEntity
  8
0
  6
Continuous
100
AcDbTrace
 10
3.542632762383494
 20
5.738481170709655
 30
0.0
 11
3.534825611969466
 21
5.735434811164903
 31
0.0
 12
3.778006963434354
 22
5.732183724259501
 32
0.0
 13
3.778006963434354
 23
5.732183724259501
 33
0.0
  0
SOLID
  5
1579
330
153C
100
AcDbEntity
  8
0
  6
Continuous
100
AcDbTrace
 10
3.550664813797965
 20
5.740872416020882
 30
0.0
 11
3.542632762383494
 21
5.738481170709655
 31
0.0
 12
3.778006963434354
 22
5.732183724259501
 32
0.0
 13
3.778006963434354
 23
5.732183724259501
 33
0.0
  0
SOLID
  5
157A
330
153C
100
AcDbEntity
  8
0
  6
Continuous
100
AcDbTrace
 10
3.558866899157324
 20
5.742592212468418
 30
0.0
 11
3.550664813797965
 21
5.740872416020882
 31
0.0
 12
3.778006963434354
 22
5.732183724259501
 32
0.0
 13
3.778006963434354
 23
5.732183724259501
 33
0.0
  0
SOLID
  5
157B
330
153C
100
AcDbEntity
  8
0
  6
Continuous
100
AcDbTrace
 10
3.567182989901761
 20
5.743628812098678
 30
0.0
 11
3.558866899157324
 21
5.742592212468418
 31
0.0
 12
3.778006963434354
 22
5.732183724259501
 32
0.0
 13
3.778006963434354
 23
5.732183724259501
 33
0.0
  0
SOLID
  5
157C
330
153C
100
AcDbEntity
  8
0
  6
Continuous
100
AcDbTrace
 10
3.778350058413201
 20
5.743975133885086
 30
0.0
 11
3.567182989901761
 21
5.743628812098678
 31
0.0
 12
3.778006963434354
 22
5.732183724259501
 32
0.0
 13
3.778006963434354
 23
5.732183724259501
 33
0.0
  0
SOLID
  5
157D
330
153C
100
AcDbEntity
  8
0
  6
Continuous
100
AcDbTrace
 10
3.575556278699087
 20
5.743975133885087
 30
0.0
 11
3.567182989901761
 21
5.743628812098678
 31
0.0
 12
3.778350058413201
 22
5.743975133885086
 32
0.0
 13
3.778350058413201
 23
5.743975133885086
 33
0.0
  0
SOLID
  5
157E
330
153C
100
AcDbEntity
  8
0
  6
Continuous
100
AcDbTrace
 10
3.583929567496412
 20
5.744321455671497
 30
0.0
 11
3.575556278699087
 21
5.743975133885087
 31
0.0
 12
3.778350058413201
 22
5.743975133885086
 32
0.0
 13
3.778350058413201
 23
5.743975133885086
 33
0.0
  0
SOLID
  5
157F
330
153C
100
AcDbEntity
  8
0
  6
Continuous
100
AcDbTrace
 10
3.592245658240849
 20
5.745358055301756
 30
0.0
 11
3.583929567496412
 21
5.744321455671497
 31
0.0
 12
3.778350058413201
 22
5.743975133885086
 32
0.0
 13
3.778350058413201
 23
5.743975133885086
 33
0.0
  0
SOLID
  5
1580
330
153C
100
AcDbEntity
  8
0
  6
Continuous
100
AcDbTrace
 10
3.600447743600208
 20
5.747077851749293
 30
0.0
 11
3.592245658240849
 21
5.745358055301756
 31
0.0
 12
3.778350058413201
 22
5.743975133885086
 32
0.0
 13
3.778350058413201
 23
5.743975133885086
 33
0.0
  0
SOLID
  5
1581
330
153C
100
AcDbEntity
  8
0
  6
Continuous
100
AcDbTrace
 10
3.608479795014679
 20
5.74946909706052
 30
0.0
 11
3.600447743600208
 21
5.747077851749293
 31
0.0
 12
3.778350058413201
 22
5.743975133885086
 32
0.0
 13
3.778350058413201
 23
5.743975133885086
 33
0.0
  0
SOLID
  5
1582
330
153C
100
AcDbEntity
  8
0
  6
Continuous
100
AcDbTrace
 10
3.616286945428708
 20
5.752515456605271
 30
0.0
 11
3.608479795014679
 21
5.74946909706052
 31
0.0
 12
3.778350058413201
 22
5.743975133885086
 32
0.0
 13
3.778350058413201
 23
5.743975133885086
 33
0.0
  0
SOLID
  5
1583
330
153C
100
AcDbEntity
  8
0
  6
Continuous
100
AcDbTrace
 10
3.778006963434354
 20
5.755766543510672
 30
0.0
 11
3.616286945428708
 21
5.752515456605271
 31
0.0
 12
3.778350058413201
 22
5.743975133885086
 32
0.0
 13
3.778350058413201
 23
5.743975133885086
 33
0.0
  0
SOLID
  5
1584
330
153C
100
AcDbEntity
  8
0
  6
Continuous
100
AcDbTrace
 10
3.62381586408862
 20
5.756196120658888
 30
0.0
 11
3.616286945428708
 21
5.752515456605271
 31
0.0
 12
3.778006963434354
 22
5.755766543510672
 32
0.0
 13
3.778006963434354
 23
5.755766543510672
 33
0.0
  0
SOLID
  5
1585
330
153C
100
AcDbEntity
  8
0
  6
Continuous
100
AcDbTrace
 10
3.631015120845747
 20
5.760485946553739
 30
0.0
 11
3.62381586408862
 21
5.756196120658888
 31
0.0
 12
3.778006963434354
 22
5.755766543510672
 32
0.0
 13
3.778006963434354
 23
5.755766543510672
 33
0.0
  0
SOLID
  5
1586
330
153C
100
AcDbEntity
  8
0
  6
Continuous
100
AcDbTrace
 10
3.637835537476485
 20
5.765355630429136
 30
0.0
 11
3.631015120845747
 21
5.760485946553739
 31
0.0
 12
3.778006963434354
 22
5.755766543510672
 32
0.0
 13
3.778006963434354
 23
5.755766543510672
 33
0.0
  0
SOLID
  5
1587
330
153C
100
AcDbEntity
  8
0
  6
Continuous
100
AcDbTrace
 10
3.776978839422615
 20
5.767518054738568
 30
0.0
 11
3.637835537476485
 21
5.765355630429136
 31
0.0
 12
3.778006963434354
 22
5.755766543510672
 32
0.0
 13
3.778006963434354
 23
5.755766543510672
 33
0.0
  0
SOLID
  5
1588
330
153C
100
AcDbEntity
  8
0
  6
Continuous
100
AcDbTrace
 10
3.644230523619437
 20
5.770771907406418
 30
0.0
 11
3.637835537476485
 21
5.765355630429136
 31
0.0
 12
3.776978839422615
 22
5.767518054738568
 32
0.0
 13
3.776978839422615
 23
5.767518054738568
 33
0.0
  0
SOLID
  5
1589
330
153C
100
AcDbEntity
  8
0
  6
Continuous
100
AcDbTrace
 10
3.650156395034814
 20
5.776697778821795
 30
0.0
 11
3.644230523619437
 21
5.770771907406418
 31
0.0
 12
3.776978839422615
 22
5.767518054738568
 32
0.0
 13
3.776978839422615
 23
5.767518054738568
 33
0.0
  0
SOLID
  5
158A
330
153C
100
AcDbEntity
  8
0
  6
Continuous
100
AcDbTrace
 10
3.775269165224196
 20
5.779189904174631
 30
0.0
 11
3.650156395034814
 21
5.776697778821795
 31
0.0
 12
3.776978839422615
 22
5.767518054738568
 32
0.0
 13
3.776978839422615
 23
5.767518054738568
 33
0.0
  0
SOLID
  5
158B
330
153C
100
AcDbEntity
  8
0
  6
Continuous
100
AcDbTrace
 10
3.655572672012095
 20
5.783092764964746
 30
0.0
 11
3.650156395034814
 21
5.776697778821795
 31
0.0
 12
3.775269165224196
 22
5.779189904174631
 32
0.0
 13
3.775269165224196
 23
5.779189904174631
 33
0.0
  0
SOLID
  5
158C
330
153C
100
AcDbEntity
  8
0
  6
Continuous
100
AcDbTrace
 10
3.660442355887493
 20
5.789913181595485
 30
0.0
 11
3.655572672012095
 21
5.783092764964746
 31
0.0
 12
3.775269165224196
 22
5.779189904174631
 32
0.0
 13
3.775269165224196
 23
5.779189904174631
 33
0.0
  0
SOLID
  5
158D
330
153C
100
AcDbEntity
  8
0
  6
Continuous
100
AcDbTrace
 10
3.7728837258354
 20
5.790742597975008
 30
0.0
 11
3.660442355887493
 21
5.789913181595485
 31
0.0
 12
3.775269165224196
 22
5.779189904174631
 32
0.0
 13
3.775269165224196
 23
5.779189904174631
 33
0.0
  0
SOLID
  5
158E
330
153C
100
AcDbEntity
  8
0
  6
Continuous
100
AcDbTrace
 10
3.664732181782344
 20
5.797112438352611
 30
0.0
 11
3.660442355887493
 21
5.789913181595485
 31
0.0
 12
3.7728837258354
 22
5.790742597975008
 32
0.0
 13
3.7728837258354
 23
5.790742597975008
 33
0.0
  0
SOLID
  5
158F
330
153C
100
AcDbEntity
  8
0
  6
Continuous
100
AcDbTrace
 10
3.769830592828026
 20
5.802137045480795
 30
0.0
 11
3.664732181782344
 21
5.797112438352611
 31
0.0
 12
3.7728837258354
 22
5.790742597975008
 32
0.0
 13
3.7728837258354
 23
5.790742597975008
 33
0.0
  0
SOLID
  5
1590
330
153C
100
AcDbEntity
  8
0
  6
Continuous
100
AcDbTrace
 10
3.66841284583596
 20
5.804641357012524
 30
0.0
 11
3.664732181782344
 21
5.797112438352611
 31
0.0
 12
3.769830592828026
 22
5.802137045480795
 32
0.0
 13
3.769830592828026
 23
5.802137045480795
 33
0.0
  0
SOLID
  5
1591
330
153C
100
AcDbEntity
  8
0
  6
Continuous
100
AcDbTrace
 10
3.671459205380712
 20
5.812448507426553
 30
0.0
 11
3.66841284583596
 21
5.804641357012524
 31
0.0
 12
3.769830592828026
 22
5.802137045480795
 32
0.0
 13
3.769830592828026
 23
5.802137045480795
 33
0.0
  0
SOLID
  5
1592
330
153C
100
AcDbEntity
  8
0
  6
Continuous
100
AcDbTrace
 10
3.766120097037723
 20
5.813334691488462
 30
0.0
 11
3.671459205380712
 21
5.812448507426553
 31
0.0
 12
3.769830592828026
 22
5.802137045480795
 32
0.0
 13
3.769830592828026
 23
5.802137045480795
 33
0.0
  0
SOLID
  5
1593
330
153C
100
AcDbEntity
  8
0
  6
Continuous
100
AcDbTrace
 10
3.673850450691939
 20
5.820480558841023
 30
0.0
 11
3.671459205380712
 21
5.812448507426553
 31
0.0
 12
3.766120097037723
 22
5.813334691488462
 32
0.0
 13
3.766120097037723
 23
5.813334691488462
 33
0.0
  0
SOLID
  5
1594
330
153C
100
AcDbEntity
  8
0
  6
Continuous
100
AcDbTrace
 10
3.761764793607717
 20
5.824297646708449
 30
0.0
 11
3.673850450691939
 21
5.820480558841023
 31
0.0
 12
3.766120097037723
 22
5.813334691488462
 32
0.0
 13
3.766120097037723
 23
5.813334691488462
 33
0.0
  0
SOLID
  5
1595
330
153C
100
AcDbEntity
  8
0
  6
Continuous
100
AcDbTrace
 10
3.675570247139476
 20
5.828682644200382
 30
0.0
 11
3.673850450691939
 21
5.820480558841023
 31
0.0
 12
3.761764793607717
 22
5.824297646708449
 32
0.0
 13
3.761764793607717
 23
5.824297646708449
 33
0.0
  0
SOLID
  5
1596
330
153C
100
AcDbEntity
  8
0
  6
Continuous
100
AcDbTrace
 10
3.756779419506175
 20
5.834988815970534
 30
0.0
 11
3.675570247139476
 21
5.828682644200382
 31
0.0
 12
3.761764793607717
 22
5.824297646708449
 32
0.0
 13
3.761764793607717
 23
5.824297646708449
 33
0.0
  0
SOLID
  5
1597
330
153C
100
AcDbEntity
  8
0
  6
Continuous
100
AcDbTrace
 10
3.676606846769735
 20
5.836998734944819
 30
0.0
 11
3.675570247139476
 21
5.828682644200382
 31
0.0
 12
3.756779419506175
 22
5.834988815970534
 32
0.0
 13
3.756779419506175
 23
5.834988815970534
 33
0.0
  0
SOLID
  5
1598
330
153C
100
AcDbEntity
  8
0
  6
Continuous
100
AcDbTrace
 10
3.751180843660975
 20
5.845372023742143
 30
0.0
 11
3.676606846769735
 21
5.836998734944819
 31
0.0
 12
3.756779419506175
 22
5.834988815970534
 32
0.0
 13
3.756779419506175
 23
5.834988815970534
 33
0.0
  0
SOLID
  5
1599
330
153C
100
AcDbEntity
  8
0
  6
Continuous
100
AcDbTrace
 10
3.676953168556144
 20
5.845372023742145
 30
0.0
 11
3.676606846769735
 21
5.836998734944819
 31
0.0
 12
3.751180843660975
 22
5.845372023742143
 32
0.0
 13
3.751180843660975
 23
5.845372023742143
 33
0.0
  0
SOLID
  5
159A
330
153C
100
AcDbEntity
  8
0
  6
Continuous
100
AcDbTrace
 10
3.676606846769735
 20
5.853745312539471
 30
0.0
 11
3.676953168556144
 21
5.845372023742145
 31
0.0
 12
3.751180843660975
 22
5.845372023742143
 32
0.0
 13
3.751180843660975
 23
5.845372023742143
 33
0.0
  0
SOLID
  5
159B
330
153C
100
AcDbEntity
  8
0
  6
Continuous
100
AcDbTrace
 10
3.744988009880589
 20
5.855412136534906
 30
0.0
 11
3.676606846769735
 21
5.853745312539471
 31
0.0
 12
3.751180843660975
 22
5.845372023742143
 32
0.0
 13
3.751180843660975
 23
5.845372023742143
 33
0.0
  0
SOLID
  5
159C
330
153C
100
AcDbEntity
  8
0
  6
Continuous
100
AcDbTrace
 10
3.675570247139476
 20
5.862061403283908
 30
0.0
 11
3.676606846769735
 21
5.853745312539471
 31
0.0
 12
3.744988009880589
 22
5.855412136534906
 32
0.0
 13
3.744988009880589
 23
5.855412136534906
 33
0.0
  0
SOLID
  5
159D
330
153C
100
AcDbEntity
  8
0
  6
Continuous
100
AcDbTrace
 10
3.738221872754235
 20
5.865075181785252
 30
0.0
 11
3.675570247139476
 21
5.862061403283908
 31
0.0
 12
3.744988009880589
 22
5.855412136534906
 32
0.0
 13
3.744988009880589
 23
5.855412136534906
 33
0.0
  0
SOLID
  5
159E
330
153C
100
AcDbEntity
  8
0
  6
Continuous
100
AcDbTrace
 10
3.673850450691939
 20
5.870263488643266
 30
0.0
 11
3.675570247139476
 21
5.862061403283908
 31
0.0
 12
3.738221872754235
 22
5.865075181785252
 32
0.0
 13
3.738221872754235
 23
5.865075181785252
 33
0.0
  0
SOLID
  5
159F
330
153C
100
AcDbEntity
  8
0
  6
Continuous
100
AcDbTrace
 10
3.730905326748178
 20
5.87432846280682
 30
0.0
 11
3.673850450691939
 21
5.870263488643266
 31
0.0
 12
3.738221872754235
 22
5.865075181785252
 32
0.0
 13
3.738221872754235
 23
5.865075181785252
 33
0.0
  0
SOLID
  5
15A0
330
153C
100
AcDbEntity
  8
0
  6
Continuous
100
AcDbTrace
 10
3.671459205380712
 20
5.878295540057737
 30
0.0
 11
3.673850450691939
 21
5.870263488643266
 31
0.0
 12
3.730905326748178
 22
5.87432846280682
 32
0.0
 13
3.730905326748178
 23
5.87432846280682
 33
0.0
  0
SOLID
  5
15A1
330
153C
100
AcDbEntity
  8
0
  6
Continuous
100
AcDbTrace
 10
3.723063128738105
 20
5.883140669425691
 30
0.0
 11
3.671459205380712
 21
5.878295540057737
 31
0.0
 12
3.730905326748178
 22
5.87432846280682
 32
0.0
 13
3.730905326748178
 23
5.87432846280682
 33
0.0
  0
SOLID
  5
15A2
330
153C
100
AcDbEntity
  8
0
  6
Continuous
100
AcDbTrace
 10
3.66841284583596
 20
5.886102690471766
 30
0.0
 11
3.671459205380712
 21
5.878295540057737
 31
0.0
 12
3.723063128738105
 22
5.883140669425691
 32
0.0
 13
3.723063128738105
 23
5.883140669425691
 33
0.0
  0
SOLID
  5
15A3
330
153C
100
AcDbEntity
  8
0
  6
Continuous
100
AcDbTrace
 10
3.714721814239692
 20
5.891481983924104
 30
0.0
 11
3.66841284583596
 21
5.886102690471766
 31
0.0
 12
3.723063128738105
 22
5.883140669425691
 32
0.0
 13
3.723063128738105
 23
5.883140669425691
 33
0.0
  0
SOLID
  5
15A4
330
153C
100
AcDbEntity
  8
0
  6
Continuous
100
AcDbTrace
 10
3.664732181782344
 20
5.893631609131679
 30
0.0
 11
3.66841284583596
 21
5.886102690471766
 31
0.0
 12
3.714721814239692
 22
5.891481983924104
 32
0.0
 13
3.714721814239692
 23
5.891481983924104
 33
0.0
  0
SOLID
  5
15A5
330
153C
100
AcDbEntity
  8
0
  6
Continuous
100
AcDbTrace
 10
3.705909607620821
 20
5.899324181934177
 30
0.0
 11
3.664732181782344
 21
5.893631609131679
 31
0.0
 12
3.714721814239692
 22
5.891481983924104
 32
0.0
 13
3.714721814239692
 23
5.891481983924104
 33
0.0
  0
SOLID
  5
15A6
330
153C
100
AcDbEntity
  8
0
  6
Continuous
100
AcDbTrace
 10
3.660442355887493
 20
5.900830865888805
 30
0.0
 11
3.664732181782344
 21
5.893631609131679
 31
0.0
 12
3.705909607620821
 22
5.899324181934177
 32
0.0
 13
3.705909607620821
 23
5.899324181934177
 33
0.0
  0
SOLID
  5
15A7
330
153C
100
AcDbEntity
  8
0
  6
Continuous
100
AcDbTrace
 10
3.696656326599252
 20
5.906640727940235
 30
0.0
 11
3.660442355887493
 21
5.900830865888805
 31
0.0
 12
3.705909607620821
 22
5.899324181934177
 32
0.0
 13
3.705909607620821
 23
5.899324181934177
 33
0.0
  0
SOLID
  5
15A8
330
153C
100
AcDbEntity
  8
0
  6
Continuous
100
AcDbTrace
 10
3.655572672012095
 20
5.907651282519544
 30
0.0
 11
3.660442355887493
 21
5.900830865888805
 31
0.0
 12
3.696656326599252
 22
5.906640727940235
 32
0.0
 13
3.696656326599252
 23
5.906640727940235
 33
0.0
  0
SOLID
  5
15A9
330
153C
100
AcDbEntity
  8
0
  6
Continuous
100
AcDbTrace
 10
3.686993281348906
 20
5.913406865066589
 30
0.0
 11
3.655572672012095
 21
5.907651282519544
 31
0.0
 12
3.696656326599252
 22
5.906640727940235
 32
0.0
 13
3.696656326599252
 23
5.906640727940235
 33
0.0
  0
SOLID
  5
15AA
330
153C
100
AcDbEntity
  8
0
  6
Continuous
100
AcDbTrace
 10
3.650156395034814
 20
5.914046268662495
 30
0.0
 11
3.655572672012095
 21
5.907651282519544
 31
0.0
 12
3.686993281348906
 22
5.913406865066589
 32
0.0
 13
3.686993281348906
 23
5.913406865066589
 33
0.0
  0
SOLID
  5
15AB
330
153C
100
AcDbEntity
  8
0
  6
Continuous
100
AcDbTrace
 10
3.676953168556144
 20
5.919599698846974
 30
0.0
 11
3.650156395034814
 21
5.914046268662495
 31
0.0
 12
3.686993281348906
 22
5.913406865066589
 32
0.0
 13
3.686993281348906
 23
5.913406865066589
 33
0.0
  0
SOLID
  5
15AC
330
153C
100
AcDbEntity
  8
0
  6
Continuous
100
AcDbTrace
 10
3.644230523619437
 20
5.919972140077872
 30
0.0
 11
3.650156395034814
 21
5.914046268662495
 31
0.0
 12
3.676953168556144
 22
5.919599698846974
 32
0.0
 13
3.676953168556144
 23
5.919599698846974
 33
0.0
  0
SOLID
  5
15AD
330
153C
100
AcDbEntity
  8
0
  6
Continuous
100
AcDbTrace
 10
3.666569960784534
 20
5.925198274692174
 30
0.0
 11
3.644230523619437
 21
5.919972140077872
 31
0.0
 12
3.676953168556144
 22
5.919599698846974
 32
0.0
 13
3.676953168556144
 23
5.919599698846974
 33
0.0
  0
SOLID
  5
15AE
330
153C
100
AcDbEntity
  8
0
  6
Continuous
100
AcDbTrace
 10
3.637835537476485
 20
5.925388417055153
 30
0.0
 11
3.644230523619437
 21
5.919972140077872
 31
0.0
 12
3.666569960784534
 22
5.925198274692174
 32
0.0
 13
3.666569960784534
 23
5.925198274692174
 33
0.0
  0
SOLID
  5
15AF
330
153C
100
AcDbEntity
  8
0
  6
Continuous
100
AcDbTrace
 10
3.655878791522449
 20
5.930183648793716
 30
0.0
 11
3.637835537476485
 21
5.925388417055153
 31
0.0
 12
3.666569960784534
 22
5.925198274692174
 32
0.0
 13
3.666569960784534
 23
5.925198274692174
 33
0.0
  0
SOLID
  5
15B0
330
153C
100
AcDbEntity
  8
0
  6
Continuous
100
AcDbTrace
 10
3.631015120845747
 20
5.930258100930551
 30
0.0
 11
3.637835537476485
 21
5.925388417055153
 31
0.0
 12
3.655878791522449
 22
5.930183648793716
 32
0.0
 13
3.655878791522449
 23
5.930183648793716
 33
0.0
  0
SOLID
  5
15B1
330
153C
100
AcDbEntity
  8
0
  6
Continuous
100
AcDbTrace
 10
3.644915836302462
 20
5.934538952223722
 30
0.0
 11
3.631015120845747
 21
5.930258100930551
 31
0.0
 12
3.655878791522449
 22
5.930183648793716
 32
0.0
 13
3.655878791522449
 23
5.930183648793716
 33
0.0
  0
SOLID
  5
15B2
330
153C
100
AcDbEntity
  8
0
  6
Continuous
100
AcDbTrace
 10
3.62381586408862
 20
5.934547926825402
 30
0.0
 11
3.631015120845747
 21
5.930258100930551
 31
0.0
 12
3.644915836302462
 22
5.934538952223722
 32
0.0
 13
3.644915836302462
 23
5.934538952223722
 33
0.0
  0
SOLID
  5
15B3
330
153C
100
AcDbEntity
  8
0
  6
Continuous
100
AcDbTrace
 10
3.616286945428707
 20
5.938228590879019
 30
0.0
 11
3.62381586408862
 21
5.934547926825402
 31
0.0
 12
3.644915836302462
 22
5.934538952223722
 32
0.0
 13
3.644915836302462
 23
5.934538952223722
 33
0.0
  0
SOLID
  5
15B4
330
153C
100
AcDbEntity
  8
0
  6
Continuous
100
AcDbTrace
 10
3.633718190294795
 20
5.938249448014025
 30
0.0
 11
3.616286945428707
 21
5.938228590879019
 31
0.0
 12
3.644915836302462
 22
5.934538952223722
 32
0.0
 13
3.644915836302462
 23
5.934538952223722
 33
0.0
  0
SOLID
  5
15B5
330
153C
100
AcDbEntity
  8
0
  6
Continuous
100
AcDbTrace
 10
3.608479795014679
 20
5.94127495042377
 30
0.0
 11
3.616286945428707
 21
5.938228590879019
 31
0.0
 12
3.633718190294795
 22
5.938249448014025
 32
0.0
 13
3.633718190294795
 23
5.938249448014025
 33
0.0
  0
SOLID
  5
15B6
330
153C
100
AcDbEntity
  8
0
  6
Continuous
100
AcDbTrace
 10
3.622323742789008
 20
5.9413025810214
 30
0.0
 11
3.608479795014679
 21
5.94127495042377
 31
0.0
 12
3.633718190294795
 22
5.938249448014025
 32
0.0
 13
3.633718190294795
 23
5.938249448014025
 33
0.0
  0
SOLID
  5
15B7
330
153C
100
AcDbEntity
  8
0
  6
Continuous
100
AcDbTrace
 10
3.600447743600208
 20
5.943666195734997
 30
0.0
 11
3.608479795014679
 21
5.94127495042377
 31
0.0
 12
3.622323742789008
 22
5.9413025810214
 32
0.0
 13
3.622323742789008
 23
5.9413025810214
 33
0.0
  0
SOLID
  5
15B8
330
153C
100
AcDbEntity
  8
0
  6
Continuous
100
AcDbTrace
 10
3.610771048988631
 20
5.943688020410196
 30
0.0
 11
3.600447743600208
 21
5.943666195734997
 31
0.0
 12
3.622323742789008
 22
5.9413025810214
 32
0.0
 13
3.622323742789008
 23
5.9413025810214
 33
0.0
  0
SOLID
  5
15B9
330
153C
100
AcDbEntity
  8
0
  6
Continuous
100
AcDbTrace
 10
3.592245658240849
 20
5.945385992182534
 30
0.0
 11
3.600447743600208
 21
5.943666195734997
 31
0.0
 12
3.610771048988631
 22
5.943688020410196
 32
0.0
 13
3.610771048988631
 23
5.943688020410196
 33
0.0
  0
SOLID
  5
15BA
330
153C
100
AcDbEntity
  8
0
  6
Continuous
100
AcDbTrace
 10
3.599099199552568
 20
5.945397694608614
 30
0.0
 11
3.592245658240849
 21
5.945385992182534
 31
0.0
 12
3.610771048988631
 22
5.943688020410196
 32
0.0
 13
3.610771048988631
 23
5.943688020410196
 33
0.0
  0
SOLID
  5
15BB
330
153C
100
AcDbEntity
  8
0
  6
Continuous
100
AcDbTrace
 10
3.583929567496412
 20
5.946422591812793
 30
0.0
 11
3.592245658240849
 21
5.945385992182534
 31
0.0
 12
3.599099199552568
 22
5.945397694608614
 32
0.0
 13
3.599099199552568
 23
5.945397694608614
 33
0.0
  0
SOLID
  5
15BC
330
153C
100
AcDbEntity
  8
0
  6
Continuous
100
AcDbTrace
 10
3.587347688324673
 20
5.946425818620353
 30
0.0
 11
3.583929567496412
 21
5.946422591812793
 31
0.0
 12
3.599099199552568
 22
5.945397694608614
 32
0.0
 13
3.599099199552568
 23
5.945397694608614
 33
0.0
  0
SOLID
  5
15BD
330
153C
100
AcDbEntity
  8
0
  6
Continuous
100
AcDbTrace
 10
3.575556278699087
 20
5.946768913599203
 30
0.0
 11
3.583929567496412
 21
5.946422591812793
 31
0.0
 12
3.587347688324673
 22
5.946425818620353
 32
0.0
 13
3.587347688324673
 23
5.946425818620353
 33
0.0
  0
ENDBLK
  5
15BE
330
153C
100
AcDbEntity
  8
0
100
AcDbBlockEnd
  0
ENDSEC
  0
SECTION
  2
ENTITIES
  0
CIRCLE
  5
EA8
330
10C1
100
AcDbEntity
  8
text_bubbles
100
AcDbCircle
 10
0.239390207270354
 20
7.405907723680717
 30
0.0
 40
0.15625
  0
TEXT
  5
EAB
330
10C1
100
AcDbEntity
  8
text_bubbles
100
AcDbText
 10
4.947793607510662
 20
5.582375243653899
 30
0.0
 40
0.125
  1
3
  7
ROMANS
 72
     4
 11
5.007317417034472
 21
5.644875243653899
 31
0.0
100
AcDbText
  0
CIRCLE
  5
EAC
330
10C1
100
AcDbEntity
  8
text_bubbles
100
AcDbCircle
 10
5.007317417034472
 20
5.644875243653899
 30
0.0
 40
0.15625
  0
CIRCLE
  5
EBB
330
10C1
100
AcDbEntity
  8
text_bubbles
100
AcDbCircle
 10
0.2311814704258902
 20
5.950980551030913
 30
0.0
 40
0.15625
  0
TEXT
  5
EBC
330
10C1
100
AcDbEntity
  8
text_bubbles
100
AcDbText
 10
0.1716576609020807
 20
5.888480551030913
 30
0.0
 40
0.125
  1
3
  7
ROMANS
 72
     4
 11
0.2311814704258902
 21
5.950980551030913
 31
0.0
100
AcDbText
  0
TEXT
  5
EC2
330
10C1
100
AcDbEntity
  8
text_bubbles
100
AcDbText
 10
4.944817417034472
 20
3.851004405199849
 30
0.0
 40
0.125
  1
6
  7
ROMANS
 72
     4
 11
5.007317417034472
 21
3.913504405199849
 31
0.0
100
AcDbText
  0
CIRCLE
  5
EC3
330
10C1
100
AcDbEntity
  8
text_bubbles
100
AcDbCircle
 10
5.007317417034472
 20
3.913504405199849
 30
0.0
 40
0.15625
  0
CIRCLE
  5
ECE
330
10C1
100
AcDbEntity
  8
text_bubbles
100
AcDbCircle
 10
5.007317417034472
 20
5.204543616182217
 30
0.0
 40
0.15625
  0
CIRCLE
  5
ECF
330
10C1
100
AcDbEntity
  8
text_bubbles
100
AcDbCircle
 10
5.007317417034472
 20
4.341826789474817
 30
0.0
 40
0.15625
  0
CIRCLE
  5
ED1
330
10C1
100
AcDbEntity
  8
text_bubbles
100
AcDbCircle
 10
3.928517425934837
 20
5.743737080303025
 30
0.0
 40
0.15625
  0
TEXT
  5
ED2
330
10C1
100
AcDbEntity
  8
text_bubbles
100
AcDbText
 10
3.866017425934837
 20
5.681237080303025
 30
0.0
 40
0.125
  1
6
  7
ROMANS
 72
     4
 11
3.928517425934837
 21
5.743737080303025
 31
0.0
100
AcDbText
  0
CIRCLE
  5
ED4
330
10C1
100
AcDbEntity
  8
text_bubbles
100
AcDbCircle
 10
3.928469246388485
 20
8.02770313996206
 30
0.0
 40
0.15625
  0
TEXT
  5
ED5
330
10C1
100
AcDbEntity
  8
text_bubbles
100
AcDbText
 10
3.865969246388485
 20
7.96520313996206
 30
0.0
 40
0.125
  1
4
  7
ROMANS
 72
     4
 11
3.928469246388485
 21
8.02770313996206
 31
0.0
100
AcDbText
  0
TEXT
  5
ED6
330
10C1
100
AcDbEntity
  8
text_bubbles
100
AcDbText
 10
4.947793607510662
 20
4.279326789474817
 30
0.0
 40
0.125
  1
5
  7
ROMANS
 72
     4
 11
5.007317417034472
 21
4.341826789474817
 31
0.0
100
AcDbText
  0
TEXT
  5
ED7
330
10C1
100
AcDbEntity
  8
text_bubbles
100
AcDbText
 10
4.944817417034472
 20
5.142043616182217
 30
0.0
 40
0.125
  1
4
  7
ROMANS
 72
     4
 11
5.007317417034472
 21
5.204543616182217
 31
0.0
100
AcDbText
  0
CIRCLE
  5
EDC
330
10C1
100
AcDbEntity
  8
text_bubbles
100
AcDbCircle
 10
0.2309317540301676
 20
8.114315565028483
 30
0.0
 40
0.15625
  0
TEXT
  5
EDD
330
10C1
100
AcDbEntity
  8
text_bubbles
100
AcDbText
 10
0.1798663977465445
 20
7.343407723680717
 30
0.0
 40
0.125
  1
2
  7
ROMANS
 72
     4
 11
0.239390207270354
 21
7.405907723680717
 31
0.0
100
AcDbText
  0
TEXT
  5
EDE
330
10C1
100
AcDbEntity
  8
text_bubbles
100
AcDbText
 10
0.1803365159349295
 20
8.051815565028483
 30
0.0
 40
0.125
  1
1
  7
ROMANS
 72
     4
 11
0.2309317540301676
 21
8.114315565028483
 31
0.0
100
AcDbText
  0
CIRCLE
  5
EDF
330
10C1
100
AcDbEntity
  8
text_bubbles
100
AcDbCircle
 10
5.007317417034472
 20
6.130720812704075
 30
0.0
 40
0.15625
  0
CIRCLE
  5
EE0
330
10C1
100
AcDbEntity
  8
text_bubbles
100
AcDbCircle
 10
5.007317417034472
 20
6.480720812704074
 30
0.0
 40
0.15625
  0
TEXT
  5
EE1
330
10C1
100
AcDbEntity
  8
text_bubbles
100
AcDbText
 10
4.947793607510662
 20
6.068220812704075
 30
0.0
 40
0.125
  1
2
  7
ROMANS
 72
     4
 11
5.007317417034472
 21
6.130720812704075
 31
0.0
100
AcDbText
  0
TEXT
  5
EE2
330
10C1
100
AcDbEntity
  8
text_bubbles
100
AcDbText
 10
4.956722178939234
 20
6.418220812704074
 30
0.0
 40
0.125
  1
1
  7
ROMANS
 72
     4
 11
5.007317417034472
 21
6.480720812704074
 31
0.0
100
AcDbText
  0
LEADER
  5
1149
330
10C1
100
AcDbEntity
  8
text_bubbles
100
AcDbLeader
  3
STANDARD
 76
     2
 10
0.622248440693411
 20
7.880483221570487
 30
0.0
 10
0.3532467270836962
 20
7.512915926151341
 30
0.0
  0
LEADER
  5
114A
330
10C1
100
AcDbEntity
  8
text_bubbles
100
AcDbLeader
  3
STANDARD
 76
     2
 10
0.846635015515355
 20
8.248033881464959
 30
0.0
 10
0.3870805400444418
 20
8.139370734920236
 30
0.0
  0
LEADER
  5
114D
330
10C1
100
AcDbEntity
  8
text_bubbles
100
AcDbLeader
  3
STANDARD
 76
     2
 10
2.350890525556797
 20
6.059818871108247
 30
0.0
 10
3.772724311594312
 20
5.755677265564571
 30
0.0
  0
LEADER
  5
114E
330
10C1
100
AcDbEntity
  8
text_bubbles
100
AcDbLeader
  3
STANDARD
 76
     2
 10
1.509096356848669
 20
5.758337516865327
 30
0.0
 10
0.3860816744615513
 20
5.930486910804966
 30
0.0
  0
LEADER
  5
1150
330
10C1
100
AcDbEntity
  8
text_bubbles
100
AcDbLeader
  3
STANDARD
 76
     2
 10
3.025900927728385
 20
7.473484323020687
 30
0.0
 10
3.770810007164325
 20
7.056579180969064
 30
0.0
  0
LEADER
  5
1151
330
10C1
100
AcDbEntity
  8
text_bubbles
100
AcDbLeader
  3
STANDARD
 76
     2
 10
3.499410578353304
 20
7.678990308330439
 30
0.0
 10
3.825405590721883
 20
7.910264026457928
 30
0.0
  0
TEXT
  5
118C
330
10C1
100
AcDbEntity
  8
text_bubbles
100
AcDbText
 10
3.865296623028645
 20
6.967719147361967
 30
0.0
 40
0.125
  1
5
  7
ROMANS
 72
     4
 11
3.924820432552454
 21
7.030219147361967
 31
0.0
100
AcDbText
  0
CIRCLE
  5
118D
330
10C1
100
AcDbEntity
  8
text_bubbles
100
AcDbCircle
 10
3.924820432552454
 20
7.030219147361967
 30
0.0
 40
0.15625
  0
INSERT
  5
11A4
330
10C1
100
AcDbEntity
  8
title
100
AcDbBlockReference
 66
     1
  2
titleblock
 10
-0.4984554492313005
 20
-1.274218755967127
 30
0.0
  0
ATTRIB
  5
11A5
330
11A4
100
AcDbEntity
  8
title
100
AcDbText
 10
0.0071001545710415
 20
-0.48999165948876
 30
0.0
 40
0.2
  1
D
  7
L200
 72
     4
 11
0.1079869212831834
 21
-0.3899916594887599
 31
0.0
100
AcDbAttribute
  2
D
 70
     0
  0
ATTRIB
  5
11A6
330
11A4
100
AcDbEntity
  8
title
100
AcDbText
 10
0.7329869212831837
 20
0.0694935467796234
 30
0.0
 40
0.2
  1
XERI-POP MICRO-SPRAY 6" FROM BARBED
  7
L200
100
AcDbAttribute
  2
TITLE1
 70
     0
  0
ATTRIB
  5
11A7
330
11A4
100
AcDbEntity
  8
title
100
AcDbText
 10
0.7329869212831837
 20
-0.2899916594887597
 30
0.0
 40
0.2
  1
CONNECTOR INTO 1/2" POLYETHYLENE 
  7
L200
100
AcDbAttribute
  2
TITLE2
 70
     0
  0
ATTRIB
  5
11A8
330
11A4
100
AcDbEntity
  8
title
100
AcDbText
 10
2.215190301937012
 20
-0.6814259895088083
 30
0.0
 40
0.2
  1
TUBING - OPTION 1B
  7
L200
100
AcDbAttribute
  2
TITLE3
 70
     0
  0
ATTRIB
  5
11A9
330
11A4
100
AcDbEntity
  8
title
100
AcDbText
 10
2.215190301937012
 20
-1.004962675150353
 30
0.0
 40
0.2
  1

  7
L200
100
AcDbAttribute
  2
TITLE4
 70
     0
  0
ATTRIB
  5
11AA
330
11A4
100
AcDbEntity
  8
title
 62
     7
100
AcDbText
 10
7.194949856925554
 20
-0.3046159644224873
 30
0.0
 40
0.08
  1
1-21-10
  7
L80
 72
     2
 11
7.762568904544602
 21
-0.3046159644224873
 31
0.0
100
AcDbAttribute
  2
REVISED
 70
     0
  0
ATTRIB
  5
11AB
330
11A4
100
AcDbEntity
  8
title
 62
     7
100
AcDbText
 10
-0.2345130787168166
 20
-1.189507107946405
 30
0.0
 40
0.08
  1
Xeri-Pop 6 Option 1B.dwg
  7
L80
100
AcDbAttribute
  2
DWG-NAME
 70
     0
  0
ATTRIB
  5
11AC
330
11A4
100
AcDbEntity
  8
title
 62
     7
100
AcDbText
 10
0.7329869212831837
 20
-0.5736549765716378
 30
0.0
 40
0.1
  1
N.T.S.
  7
L100
100
AcDbAttribute
  2
SCALE
 70
     0
  0
SEQEND
  5
11AD
330
11A4
100
AcDbEntity
  8
title
  0
MTEXT
  5
12DA
102
{ACAD_XDICTIONARY
360
1DA7
102
}
330
10C1
100
AcDbEntity
  8
text_bubbles
100
AcDbMText
 10
5.296680084347973
 20
6.53936234323909
 30
0.0
 40
0.125
 41
4.202295919515166
 71
     1
 72
     5
  3
\A1;PLANT MATERIAL \P\PFINISH GRADE \P\P\pi-0.25,l0.25;MICRO-SPRAY POP-UP:\P\pt0.25;^IRAIN BIRD XERI-POP XP-600X \P\pi0,l0,tz;{\Fromans|c0;\H0.7x;\S1#2;\H1.4286x;" POLYETHYLENE TUBING:\P\pi-0.25,l0.25;  RAIN BIRD XF SERIES TUBING OR\P\pi0,l0;  RAIN BI
  3
RD XT-700 XERI-TUBE OR\P  RAIN BIRD XBS BLACK STRIPE TUBING \H0.99998x;\P\Fsimplex|c0;\H0.7x;\S1#4;}" SELF-PIERCING BARB CONNECTOR:\P\pt0.25;^IRAIN BIRD SPB-025   \P\pi-0.25,l0.25,tz;{\Fromans|c0;\H0.7x;\S1#4;\H1.4286x;" DISTRIBUTION TUBING:  \P  RAIN
  1
 BIRD XQ TUBING\P  (LENGTH AS REQUIRED)}
  7
SIMPLEX
 73
     1
 44
1.0
  0
MTEXT
  5
1352
330
10C1
100
AcDbEntity
  8
image
100
AcDbMText
 10
0.5208512900660899
 20
1.96712208636801
 30
0.0
 40
0.125
 41
6.504695409496386
 71
     1
 72
     5
  1
NOTE:\P1. RAIN BIRD XERI-POP CAN UTILIZE THE FOLLOWING NOZZLES:\P^ISQ SQUARE NOZZLE (FORMERLY XPCN)\P^I5 SERIES MPR NOZZLES (ALL CONFIGURATIONS)\P^I5 SERIES PLASTIC BUBBLERS\P^I8 SERIES MPR NOZZLES (8H, 8T AND 8Q)
  7
ROMANS
 73
     1
 44
1.0
  0
LWPOLYLINE
  5
183A
330
10C1
100
AcDbEntity
  8
image
100
AcDbPolyline
 90
        2
 70
     0
 43
0.0
 10
2.117740606349576
 20
3.293409699706775
 10
2.184212989189663
 20
3.255027345156183
  0
LWPOLYLINE
  5
1937
330
10C1
100
AcDbEntity
  8
image
100
AcDbPolyline
 90
        2
 70
     0
 43
0.0
 10
2.947803144624259
 20
7.614715014029199
 10
2.946987950754339
 20
7.691468634661978
  0
LWPOLYLINE
  5
193B
330
10C1
100
AcDbEntity
  8
image
100
AcDbPolyline
 90
        4
 70
     1
 43
0.0
 10
2.947395547689299
 20
7.823383039365795
 10
3.097962984134573
 20
7.823383039365795
 10
3.097962984134573
 20
7.48280060932538
 10
2.947395547689299
 20
7.48280060932538
  0
LWPOLYLINE
  5
193C
330
10C1
100
AcDbEntity
  8
image
100
AcDbPolyline
 90
        2
 70
     0
 43
0.0
 10
3.113318751383855
 20
7.691470799127644
 10
3.097962984134573
 20
7.691470799127644
  0
LWPOLYLINE
  5
193D
330
10C1
100
AcDbEntity
  8
image
100
AcDbPolyline
 90
        2
 70
     0
 43
0.0
 10
3.113318751383855
 20
7.614712849563533
 10
3.097962984134573
 20
7.614712849563533
  0
ARC
  5
193E
330
10C1
100
AcDbEntity
  8
image
100
AcDbCircle
 10
3.312447783384252
 20
7.653091824345588
 30
0.0
 40
0.2027937797141143
100
AcDbArc
 50
270.0
 51
90.0
  0
ARC
  5
193F
330
10C1
100
AcDbEntity
  8
image
100
AcDbCircle
 10
3.312447783384252
 20
7.653091824345588
 30
0.0
 40
0.2027937797141145
100
AcDbArc
 50
90.0
 51
270.0
  0
LWPOLYLINE
  5
1940
330
10C1
100
AcDbEntity
  8
image
100
AcDbPolyline
 90
        3
 70
     0
 43
0.0
 10
3.312447783384252
 20
7.855885604059702
 42
-1.0
 10
3.312447783384252
 20
7.653091824345588
 42
0.9999999999999998
 10
3.312447783384252
 20
7.450298044631475
 42
0.9999999999999998
  0
INSERT
  5
1941
330
10C1
100
AcDbEntity
  8
image
  6
Continuous
100
AcDbBlockReference
  2
*U1
 10
-0.2631084953148349
 20
1.9091166904605
 30
0.0
1001
ACAD
1002
{
1000
R14_HATCH_DATA
1000
9BB
1011
0.7368915046851651
1021
1.9091166904605
1031
0.0
1011
-0.2631084953148349
1021
2.9091166904605
1031
0.0
1011
-0.2631084953148349
1021
1.9091166904605
1031
1.0
1040
0.0
1010
0.0
1020
0.0
1030
1.0
1000
SOLID
1070
     1
1070
     0
1071
        1
1071
        1
1071
        3
1070
     2
1040
3.575556278699087
1040
5.743975133885086
1040
0.2027937797141143
1040
4.712388980384689
1040
7.853981633974482
1070
     1
1070
     2
1040
3.575556278699087
1040
5.845372023742145
1040
0.1013968898570573
1040
4.712388980384689
1040
7.853981633974482
1070
     0
1070
     2
1040
3.575556278699087
1040
5.64257824402803
1040
0.1013968898570573
1040
1.570796326794896
1040
4.712388980384689
1070
     1
1071
        0
1070
     0
1070
     1
1071
        1
1040
0.7257944738444284
1040
2.319832996340417
1040
0.0
1002
}
  0
LWPOLYLINE
  5
1942
330
10C1
100
AcDbEntity
  8
image
100
AcDbPolyline
 90
        2
 70
     0
 43
0.0
 10
2.131070503926853
 20
7.884339265959223
 10
3.584588903313959
 20
7.884339265959223
  0
LWPOLYLINE
  5
1943
330
10C1
100
AcDbEntity
  8
image
100
AcDbPolyline
 90
        2
 70
     0
 43
0.0
 10
1.568184220479717
 20
7.884339265959223
 10
0.607565229158499
 20
7.884339265959223
  0
ARC
  5
1944
330
10C1
100
AcDbEntity
  8
image
100
AcDbCircle
 10
1.370765124883438
 20
8.119796750811248
 30
0.0
 40
0.0852652261114122
100
AcDbArc
 50
116.0563205359582
 51
205.254994024374
  0
ARC
  5
1945
330
10C1
100
AcDbEntity
  8
image
100
AcDbCircle
 10
1.256196594585053
 20
8.160017648034999
 30
0.0
 40
0.0852652261114122
100
AcDbArc
 50
296.0563205359582
 51
25.25499402437389
  0
ARC
  5
1946
330
10C1
100
AcDbEntity
  8
image
100
AcDbCircle
 10
1.002581784754644
 20
8.087953893367631
 30
0.0
 40
0.0852652261114122
100
AcDbArc
 50
116.0563205359582
 51
205.254994024374
  0
ARC
  5
1947
330
10C1
100
AcDbEntity
  8
image
100
AcDbCircle
 10
0.888013254456259
 20
8.128174790591382
 30
0.0
 40
0.0852652261114122
100
AcDbArc
 50
296.0563205359582
 51
25.25499402437389
  0
ARC
  5
1948
330
10C1
100
AcDbEntity
  8
image
100
AcDbCircle
 10
1.052336290177454
 20
8.326775324194763
 30
0.0
 40
0.0852652261114122
100
AcDbArc
 50
116.0563205359582
 51
205.254994024374
  0
ARC
  5
1949
330
10C1
100
AcDbEntity
  8
image
100
AcDbCircle
 10
0.9377677598790693
 20
8.366996221418514
 30
0.0
 40
0.0852652261114122
100
AcDbArc
 50
296.0563205359582
 51
25.25499402437389
  0
ARC
  5
194A
330
10C1
100
AcDbEntity
  8
image
100
AcDbCircle
 10
1.060297011045104
 20
8.412353003574484
 30
0.0
 40
0.0852652261114122
100
AcDbArc
 50
116.0563205359582
 51
205.254994024374
  0
ARC
  5
194B
330
10C1
100
AcDbEntity
  8
image
100
AcDbCircle
 10
0.9457284807467182
 20
8.452573900798235
 30
0.0
 40
0.0852652261114122
100
AcDbArc
 50
296.0563205359582
 51
25.25499402437389
  0
ARC
  5
194C
330
10C1
100
AcDbEntity
  8
image
100
AcDbCircle
 10
1.149855120806162
 20
8.310853895472954
 30
0.0
 40
0.0852652261114122
100
AcDbArc
 50
116.0563205359582
 51
205.254994024374
  0
ARC
  5
194D
330
10C1
100
AcDbEntity
  8
image
100
AcDbCircle
 10
1.035286590507776
 20
8.351074792696705
 30
0.0
 40
0.0852652261114122
100
AcDbArc
 50
296.0563205359582
 51
25.25499402437389
  0
ARC
  5
194E
330
10C1
100
AcDbEntity
  8
image
100
AcDbCircle
 10
1.295138276640768
 20
8.30289318111205
 30
0.0
 40
0.0852652261114122
100
AcDbArc
 50
116.0563205359582
 51
205.254994024374
  0
ARC
  5
194F
330
10C1
100
AcDbEntity
  8
image
100
AcDbCircle
 10
1.180569746342382
 20
8.343114078335801
 30
0.0
 40
0.0852652261114122
100
AcDbArc
 50
296.0563205359582
 51
25.25499402437389
  0
ARC
  5
1950
330
10C1
100
AcDbEntity
  8
image
100
AcDbCircle
 10
1.26329539317017
 20
8.197413715830066
 30
0.0
 40
0.0852652261114122
100
AcDbArc
 50
116.0563205359582
 51
205.254994024374
  0
ARC
  5
1951
330
10C1
100
AcDbEntity
  8
image
100
AcDbCircle
 10
1.148726862871784
 20
8.237634613053819
 30
0.0
 40
0.0852652261114122
100
AcDbArc
 50
296.0563205359582
 51
25.25499402437389
  0
ARC
  5
1952
330
10C1
100
AcDbEntity
  8
image
100
AcDbCircle
 10
1.438431252258461
 20
8.081983357596953
 30
0.0
 40
0.0852652261114122
100
AcDbArc
 50
116.0563205359582
 51
205.254994024374
  0
ARC
  5
1953
330
10C1
100
AcDbEntity
  8
image
100
AcDbCircle
 10
1.323862721960075
 20
8.122204254820704
 30
0.0
 40
0.0852652261114122
100
AcDbArc
 50
296.0563205359582
 51
25.25499402437389
  0
ARC
  5
1954
330
10C1
100
AcDbEntity
  8
image
100
AcDbCircle
 10
1.030444307791417
 20
8.207364608781196
 30
0.0
 40
0.0852652261114122
100
AcDbArc
 50
116.0563205359582
 51
205.254994024374
  0
ARC
  5
1955
330
10C1
100
AcDbEntity
  8
image
100
AcDbCircle
 10
0.9158757774930318
 20
8.247585506004947
 30
0.0
 40
0.0852652261114122
100
AcDbArc
 50
296.0563205359582
 51
25.25499402437389
  0
ARC
  5
1956
330
10C1
100
AcDbEntity
  8
image
100
AcDbCircle
 10
1.211550707530446
 20
8.030238714251074
 30
0.0
 40
0.0852652261114122
100
AcDbArc
 50
116.0563205359582
 51
205.254994024374
  0
ARC
  5
1957
330
10C1
100
AcDbEntity
  8
image
100
AcDbCircle
 10
1.096982177232061
 20
8.070459611474827
 30
0.0
 40
0.0852652261114122
100
AcDbArc
 50
296.0563205359582
 51
25.25499402437389
  0
ARC
  5
1958
330
10C1
100
AcDbEntity
  8
image
100
AcDbCircle
 10
1.223491788831921
 20
7.94665121346158
 30
0.0
 40
0.0852652261114122
100
AcDbArc
 50
116.0563205359582
 51
205.254994024374
  0
ARC
  5
1959
330
10C1
100
AcDbEntity
  8
image
100
AcDbCircle
 10
1.108923258533536
 20
7.986872110685331
 30
0.0
 40
0.0852652261114122
100
AcDbArc
 50
296.0563205359582
 51
25.25499402437389
  0
ARC
  5
195A
330
10C1
100
AcDbEntity
  8
image
100
AcDbCircle
 10
1.315040078809892
 20
8.034219071431527
 30
0.0
 40
0.0852652261114122
100
AcDbArc
 50
116.0563205359582
 51
205.254994024374
  0
ARC
  5
195B
330
10C1
100
AcDbEntity
  8
image
100
AcDbCircle
 10
1.200471548511506
 20
8.074439968655278
 30
0.0
 40
0.0852652261114122
100
AcDbArc
 50
296.0563205359582
 51
25.25499402437389
  0
ARC
  5
195C
330
10C1
100
AcDbEntity
  8
image
100
AcDbCircle
 10
1.459123307487257
 20
7.960364632139858
 30
0.0
 40
0.0852652261114122
100
AcDbArc
 50
143.5307656099477
 51
232.7294390983635
  0
ARC
  5
195D
330
10C1
100
AcDbEntity
  8
image
100
AcDbCircle
 10
1.338920165539754
 20
7.943192754718786
 30
0.0
 40
0.0852652261114122
100
AcDbArc
 50
323.5307656099477
 51
52.72943909836341
  0
ARC
  5
195E
330
10C1
100
AcDbEntity
  8
image
100
AcDbCircle
 10
1.195701748940523
 20
8.420154988875976
 30
0.0
 40
0.0852652261114122
100
AcDbArc
 50
143.5307656099477
 51
232.7294390983635
  0
ARC
  5
195F
330
10C1
100
AcDbEntity
  8
image
100
AcDbCircle
 10
1.075498606993021
 20
8.402983111454904
 30
0.0
 40
0.0852652261114122
100
AcDbArc
 50
323.5307656099477
 51
52.72943909836341
  0
ARC
  5
1960
330
10C1
100
AcDbEntity
  8
image
100
AcDbCircle
 10
1.090333125521829
 20
8.247733605099931
 30
0.0
 40
0.0852652261114122
100
AcDbArc
 50
143.5307656099477
 51
232.7294390983635
  0
ARC
  5
1961
330
10C1
100
AcDbEntity
  8
image
100
AcDbCircle
 10
0.9701299835743281
 20
8.23056172767886
 30
0.0
 40
0.0852652261114122
100
AcDbArc
 50
323.5307656099477
 51
52.72943909836341
  0
ARC
  5
1962
330
10C1
100
AcDbEntity
  8
image
100
AcDbCircle
 10
1.042438296695151
 20
8.032206875379877
 30
0.0
 40
0.0852652261114122
100
AcDbArc
 50
143.5307656099477
 51
232.7294390983635
  0
ARC
  5
1963
330
10C1
100
AcDbEntity
  8
image
100
AcDbCircle
 10
0.9222351547476485
 20
8.015034997958805
 30
0.0
 40
0.0852652261114122
100
AcDbArc
 50
323.5307656099477
 51
52.72943909836341
  0
ARC
  5
1964
330
10C1
100
AcDbEntity
  8
image
100
AcDbCircle
 10
1.018490882281811
 20
7.965154115022526
 30
0.0
 40
0.0852652261114122
100
AcDbArc
 50
143.5307656099477
 51
232.7294390983635
  0
ARC
  5
1965
330
10C1
100
AcDbEntity
  8
image
100
AcDbCircle
 10
0.8982877403343096
 20
7.947982237601454
 30
0.0
 40
0.0852652261114122
100
AcDbArc
 50
323.5307656099477
 51
52.72943909836341
  0
ARC
  5
1966
330
10C1
100
AcDbEntity
  8
image
100
AcDbCircle
 10
1.099912091287166
 20
7.955575149257191
 30
0.0
 40
0.0852652261114122
100
AcDbArc
 50
143.5307656099477
 51
232.7294390983635
  0
ARC
  5
1967
330
10C1
100
AcDbEntity
  8
image
100
AcDbCircle
 10
0.9797089493396645
 20
7.93840327183612
 30
0.0
 40
0.0852652261114122
100
AcDbArc
 50
323.5307656099477
 51
52.72943909836341
  0
ARC
  5
1968
330
10C1
100
AcDbEntity
  8
image
100
AcDbCircle
 10
1.143017437231176
 20
8.147154464563906
 30
0.0
 40
0.0852652261114122
100
AcDbArc
 50
143.5307656099477
 51
232.7294390983635
  0
ARC
  5
1969
330
10C1
100
AcDbEntity
  8
image
100
AcDbCircle
 10
1.022814295283674
 20
8.129982587142833
 30
0.0
 40
0.0852652261114122
100
AcDbArc
 50
323.5307656099477
 51
52.72943909836341
  0
ARC
  5
196A
330
10C1
100
AcDbEntity
  8
image
100
AcDbCircle
 10
1.219649163353862
 20
8.214207224921256
 30
0.0
 40
0.0852652261114122
100
AcDbArc
 50
143.5307656099477
 51
232.7294390983635
  0
ARC
  5
196B
330
10C1
100
AcDbEntity
  8
image
100
AcDbCircle
 10
1.099446021406361
 20
8.197035347500186
 30
0.0
 40
0.0852652261114122
100
AcDbArc
 50
323.5307656099477
 51
52.72943909836341
  0
ARC
  5
196C
330
10C1
100
AcDbEntity
  8
image
100
AcDbCircle
 10
1.392070547129906
 20
8.286049468161275
 30
0.0
 40
0.0852652261114122
100
AcDbArc
 50
143.5307656099477
 51
232.7294390983635
  0
ARC
  5
196D
330
10C1
100
AcDbEntity
  8
image
100
AcDbCircle
 10
1.271867405182404
 20
8.268877590740203
 30
0.0
 40
0.0852652261114122
100
AcDbArc
 50
323.5307656099477
 51
52.72943909836341
  0
ARC
  5
196E
330
10C1
100
AcDbEntity
  8
image
100
AcDbCircle
 10
1.368123132716567
 20
8.238154639334595
 30
0.0
 40
0.0852652261114122
100
AcDbArc
 50
143.5307656099477
 51
232.7294390983635
  0
ARC
  5
196F
330
10C1
100
AcDbEntity
  8
image
100
AcDbCircle
 10
1.247919990769065
 20
8.220982761913525
 30
0.0
 40
0.0852652261114122
100
AcDbArc
 50
323.5307656099477
 51
52.72943909836341
  0
ARC
  5
1970
330
10C1
100
AcDbEntity
  8
image
100
AcDbCircle
 10
1.329807269655223
 20
8.151943947446573
 30
0.0
 40
0.0852652261114122
100
AcDbArc
 50
143.5307656099477
 51
232.7294390983635
  0
ARC
  5
1971
330
10C1
100
AcDbEntity
  8
image
100
AcDbCircle
 10
1.209604127707722
 20
8.134772070025503
 30
0.0
 40
0.0852652261114122
100
AcDbArc
 50
323.5307656099477
 51
52.72943909836341
  0
ARC
  5
1972
330
10C1
100
AcDbEntity
  8
image
100
AcDbCircle
 10
1.262754509297873
 20
8.032206875379877
 30
0.0
 40
0.0852652261114122
100
AcDbArc
 50
143.5307656099477
 51
232.7294390983635
  0
ARC
  5
1973
330
10C1
100
AcDbEntity
  8
image
100
AcDbCircle
 10
1.142551367350371
 20
8.015034997958805
 30
0.0
 40
0.0852652261114122
100
AcDbArc
 50
323.5307656099477
 51
52.72943909836341
  0
ARC
  5
1974
330
10C1
100
AcDbEntity
  8
image
100
AcDbCircle
 10
1.162175368761847
 20
7.955575149257191
 30
0.0
 40
0.0852652261114122
100
AcDbArc
 50
143.5307656099477
 51
232.7294390983635
  0
ARC
  5
1975
330
10C1
100
AcDbEntity
  8
image
100
AcDbCircle
 10
1.041972226814346
 20
7.93840327183612
 30
0.0
 40
0.0852652261114122
100
AcDbArc
 50
323.5307656099477
 51
52.72943909836341
  0
ARC
  5
1976
330
10C1
100
AcDbEntity
  8
image
100
AcDbCircle
 10
1.320228303889888
 20
7.945996183491855
 30
0.0
 40
0.0852652261114122
100
AcDbArc
 50
143.5307656099477
 51
232.7294390983635
  0
ARC
  5
1977
330
10C1
100
AcDbEntity
  8
image
100
AcDbCircle
 10
1.200025161942386
 20
7.928824306070783
 30
0.0
 40
0.0852652261114122
100
AcDbArc
 50
323.5307656099477
 51
52.72943909836341
  0
ARC
  5
1978
330
10C1
100
AcDbEntity
  8
image
100
AcDbCircle
 10
1.406438995777909
 20
7.974733080787862
 30
0.0
 40
0.0852652261114122
100
AcDbArc
 50
143.5307656099477
 51
232.7294390983635
  0
ARC
  5
1979
330
10C1
100
AcDbEntity
  8
image
100
AcDbCircle
 10
1.286235853830409
 20
7.95756120336679
 30
0.0
 40
0.0852652261114122
100
AcDbArc
 50
323.5307656099477
 51
52.72943909836341
  0
ARC
  5
197A
330
10C1
100
AcDbEntity
  8
image
100
AcDbCircle
 10
1.483070721900596
 20
8.147154464563906
 30
0.0
 40
0.0852652261114122
100
AcDbArc
 50
143.5307656099477
 51
232.7294390983635
  0
ARC
  5
197B
330
10C1
100
AcDbEntity
  8
image
100
AcDbCircle
 10
1.362867579953095
 20
8.129982587142833
 30
0.0
 40
0.0852652261114122
100
AcDbArc
 50
323.5307656099477
 51
52.72943909836341
  0
ARC
  5
197C
330
10C1
100
AcDbEntity
  8
image
100
AcDbCircle
 10
1.27233347506321
 20
8.410576023110641
 30
0.0
 40
0.0852652261114122
100
AcDbArc
 50
143.5307656099477
 51
232.7294390983635
  0
ARC
  5
197D
330
10C1
100
AcDbEntity
  8
image
100
AcDbCircle
 10
1.152130333115707
 20
8.393404145689569
 30
0.0
 40
0.0852652261114122
100
AcDbArc
 50
323.5307656099477
 51
52.72943909836341
  0
ARC
  5
197E
330
10C1
100
AcDbEntity
  8
image
100
AcDbCircle
 10
1.339386235420561
 20
8.300417916809278
 30
0.0
 40
0.0852652261114122
100
AcDbArc
 50
143.5307656099477
 51
232.7294390983635
  0
ARC
  5
197F
330
10C1
100
AcDbEntity
  8
image
100
AcDbCircle
 10
1.219183093473058
 20
8.283246039388208
 30
0.0
 40
0.0852652261114122
100
AcDbArc
 50
323.5307656099477
 51
52.72943909836341
  0
ARC
  5
1980
330
10C1
100
AcDbEntity
  8
image
100
AcDbCircle
 10
1.090333125521829
 20
8.348312745635958
 30
0.0
 40
0.0852652261114122
100
AcDbArc
 50
143.5307656099477
 51
232.7294390983635
  0
ARC
  5
1981
330
10C1
100
AcDbEntity
  8
image
100
AcDbCircle
 10
0.9701299835743281
 20
8.331140868214886
 30
0.0
 40
0.0852652261114122
100
AcDbArc
 50
323.5307656099477
 51
52.72943909836341
  0
ARC
  5
1982
330
10C1
100
AcDbEntity
  8
image
100
AcDbCircle
 10
1.479425749485937
 20
8.060105475960462
 30
0.0
 40
0.0852652261114122
100
AcDbArc
 50
159.7199718669748
 51
248.9186453553905
  0
ARC
  5
1983
330
10C1
100
AcDbEntity
  8
image
100
AcDbCircle
 10
1.368776810162673
 20
8.010100666843218
 30
0.0
 40
0.0852652261114122
100
AcDbArc
 50
339.7199718669747
 51
68.91864535539045
  0
ARC
  5
1984
330
10C1
100
AcDbEntity
  8
image
100
AcDbCircle
 10
1.398004540480584
 20
8.184632030909826
 30
0.0
 40
0.0852652261114122
100
AcDbArc
 50
159.7199718669748
 51
248.9186453553905
  0
ARC
  5
1985
330
10C1
100
AcDbEntity
  8
image
100
AcDbCircle
 10
1.287355601157319
 20
8.134627221792582
 30
0.0
 40
0.0852652261114122
100
AcDbArc
 50
339.7199718669747
 51
68.91864535539045
  0
ARC
  5
1986
330
10C1
100
AcDbEntity
  8
image
100
AcDbCircle
 10
1.2016357422912
 20
8.155895133613819
 30
0.0
 40
0.0852652261114122
100
AcDbArc
 50
159.7199718669748
 51
248.9186453553905
  0
ARC
  5
1987
330
10C1
100
AcDbEntity
  8
image
100
AcDbCircle
 10
1.090986802967936
 20
8.105890324496574
 30
0.0
 40
0.0852652261114122
100
AcDbArc
 50
339.7199718669747
 51
68.91864535539045
  0
ARC
  5
1988
330
10C1
100
AcDbEntity
  8
image
100
AcDbCircle
 10
1.168109362112525
 20
8.074473924608465
 30
0.0
 40
0.0852652261114122
100
AcDbArc
 50
159.7199718669748
 51
248.9186453553905
  0
ARC
  5
1989
330
10C1
100
AcDbEntity
  8
image
100
AcDbCircle
 10
1.05746042278926
 20
8.024469115491219
 30
0.0
 40
0.0852652261114122
100
AcDbArc
 50
339.7199718669747
 51
68.91864535539045
  0
ARC
  5
198A
330
10C1
100
AcDbEntity
  8
image
100
AcDbCircle
 10
1.070909672156454
 20
8.140397172549246
 30
0.0
 40
0.0852652261114122
100
AcDbArc
 50
159.7199718669748
 51
248.9186453553905
  0
ARC
  5
198B
330
10C1
100
AcDbEntity
  8
image
100
AcDbCircle
 10
0.9602607328331899
 20
8.090392363432
 30
0.0
 40
0.0852652261114122
100
AcDbArc
 50
339.7199718669747
 51
68.91864535539045
  0
ARC
  5
198C
330
10C1
100
AcDbEntity
  8
image
100
AcDbCircle
 10
1.2016357422912
 20
8.299579620093854
 30
0.0
 40
0.0852652261114122
100
AcDbArc
 50
159.7199718669748
 51
248.9186453553905
  0
ARC
  5
198D
330
10C1
100
AcDbEntity
  8
image
100
AcDbCircle
 10
1.090986802967936
 20
8.249574810976611
 30
0.0
 40
0.0852652261114122
100
AcDbArc
 50
339.7199718669747
 51
68.91864535539045
  0
ARC
  5
198E
330
10C1
100
AcDbEntity
  8
image
100
AcDbCircle
 10
1.359688677419241
 20
8.409737726395217
 30
0.0
 40
0.0852652261114122
100
AcDbArc
 50
159.7199718669748
 51
248.9186453553905
  0
ARC
  5
198F
330
10C1
100
AcDbEntity
  8
image
100
AcDbCircle
 10
1.249039738095975
 20
8.359732917277973
 30
0.0
 40
0.0852652261114122
100
AcDbArc
 50
339.7199718669747
 51
68.91864535539045
  0
ARC
  5
1990
330
10C1
100
AcDbEntity
  8
image
100
AcDbCircle
 10
1.287846434179222
 20
8.270842722797848
 30
0.0
 40
0.0852652261114122
100
AcDbArc
 50
159.7199718669748
 51
248.9186453553905
  0
ARC
  5
1991
330
10C1
100
AcDbEntity
  8
image
100
AcDbCircle
 10
1.177197494855958
 20
8.220837913680604
 30
0.0
 40
0.0852652261114122
100
AcDbArc
 50
339.7199718669747
 51
68.91864535539045
  0
ARC
  5
1992
330
10C1
100
AcDbEntity
  8
image
100
AcDbCircle
 10
1.359688677419241
 20
8.040947544429789
 30
0.0
 40
0.0852652261114122
100
AcDbArc
 50
159.7199718669748
 51
248.9186453553905
  0
ARC
  5
1993
330
10C1
100
AcDbEntity
  8
image
100
AcDbCircle
 10
1.249039738095975
 20
7.990942735312545
 30
0.0
 40
0.0852652261114122
100
AcDbArc
 50
339.7199718669747
 51
68.91864535539045
  0
ARC
  5
1994
330
10C1
100
AcDbEntity
  8
image
100
AcDbCircle
 10
1.388425574715248
 20
8.079263407491133
 30
0.0
 40
0.0852652261114122
100
AcDbArc
 50
159.7199718669748
 51
248.9186453553905
  0
ARC
  5
1995
330
10C1
100
AcDbEntity
  8
image
100
AcDbCircle
 10
1.277776635391984
 20
8.029258598373889
 30
0.0
 40
0.0852652261114122
100
AcDbArc
 50
339.7199718669747
 51
68.91864535539045
  0
ARC
  5
1996
330
10C1
100
AcDbEntity
  8
image
100
AcDbCircle
 10
1.148951430581854
 20
8.419316692160553
 30
0.0
 40
0.0852652261114122
100
AcDbArc
 50
159.7199718669748
 51
248.9186453553905
  0
ARC
  5
1997
330
10C1
100
AcDbEntity
  8
image
100
AcDbCircle
 10
1.038302491258589
 20
8.369311883043309
 30
0.0
 40
0.0852652261114122
100
AcDbArc
 50
339.7199718669747
 51
68.91864535539045
  0
ARC
  5
1998
330
10C1
100
AcDbEntity
  8
image
100
AcDbCircle
 10
1.139372464816517
 20
8.26605323991518
 30
0.0
 40
0.0852652261114122
100
AcDbArc
 50
159.7199718669748
 51
248.9186453553905
  0
ARC
  5
1999
330
10C1
100
AcDbEntity
  8
image
100
AcDbCircle
 10
1.028723525493254
 20
8.216048430797936
 30
0.0
 40
0.0852652261114122
100
AcDbArc
 50
339.7199718669747
 51
68.91864535539045
  0
ARC
  5
199A
330
10C1
100
AcDbEntity
  8
image
100
AcDbCircle
 10
1.17254006244524
 20
7.980320118486774
 30
0.0
 40
0.0852652261114122
100
AcDbArc
 50
278.5307656099479
 51
7.729439098363579
  0
ARC
  5
199B
330
10C1
100
AcDbEntity
  8
image
100
AcDbCircle
 10
1.269678870206391
 20
7.90746601266591
 30
0.0
 40
0.0852652261114122
100
AcDbArc
 50
98.53076560994793
 51
187.7294390983636
  0
ARC
  5
199C
330
10C1
100
AcDbEntity
  8
image
100
AcDbCircle
 10
0.985750230021193
 20
8.047372878844125
 30
0.0
 40
0.0852652261114122
100
AcDbArc
 50
278.5307656099479
 51
7.729439098363579
  0
ARC
  5
199D
330
10C1
100
AcDbEntity
  8
image
100
AcDbCircle
 10
1.082889037782344
 20
7.974518773023261
 30
0.0
 40
0.0852652261114122
100
AcDbArc
 50
98.53076560994793
 51
187.7294390983636
  0
ARC
  5
199E
330
10C1
100
AcDbEntity
  8
image
100
AcDbCircle
 10
0.8839192916863053
 20
8.326351385332218
 30
0.0
 40
0.0852652261114122
100
AcDbArc
 50
323.5307656099477
 51
52.72943909836341
  0
ARC
  5
199F
330
10C1
100
AcDbEntity
  8
image
100
AcDbCircle
 10
1.004122433633807
 20
8.343523262753288
 30
0.0
 40
0.0852652261114122
100
AcDbArc
 50
143.5307656099477
 51
232.7294390983635
  0
ARC
  5
19A0
330
10C1
100
AcDbEntity
  8
image
100
AcDbCircle
 10
1.162829046207953
 20
8.101100841613908
 30
0.0
 40
0.0852652261114122
100
AcDbArc
 50
339.7199718669747
 51
68.91864535539045
  0
ARC
  5
19A1
330
10C1
100
AcDbEntity
  8
image
100
AcDbCircle
 10
1.273477985531218
 20
8.151105650731151
 30
0.0
 40
0.0852652261114122
100
AcDbArc
 50
159.7199718669748
 51
248.9186453553905
  0
ARC
  5
19A2
330
10C1
100
AcDbEntity
  8
image
100
AcDbCircle
 10
1.115066267853225
 20
8.349110300452201
 30
0.0
 40
0.0852652261114122
100
AcDbArc
 50
278.5307656099479
 51
7.729439098363579
  0
ARC
  5
19A3
330
10C1
100
AcDbEntity
  8
image
100
AcDbCircle
 10
1.212205075614376
 20
8.276256194631338
 30
0.0
 40
0.0852652261114122
100
AcDbArc
 50
98.53076560994793
 51
187.7294390983636
  0
ARC
  5
19A4
330
10C1
100
AcDbEntity
  8
image
100
AcDbCircle
 10
0.9022948287713917
 20
8.103540489946759
 30
0.0
 40
0.0852652261114122
100
AcDbArc
 50
116.0563205359582
 51
205.254994024374
  0
ARC
  5
19A5
330
10C1
100
AcDbEntity
  8
image
100
AcDbCircle
 10
0.787726298473006
 20
8.14376138717051
 30
0.0
 40
0.0852652261114122
100
AcDbArc
 50
296.0563205359582
 51
25.25499402437389
  0
ARC
  5
19A6
330
10C1
100
AcDbEntity
  8
image
100
AcDbCircle
 10
1.042730481247924
 20
8.162741061143032
 30
0.0
 40
0.0852652261114122
100
AcDbArc
 50
143.5307656099477
 51
232.7294390983635
  0
ARC
  5
19A7
330
10C1
100
AcDbEntity
  8
image
100
AcDbCircle
 10
0.9225273393004224
 20
8.145569183721962
 30
0.0
 40
0.0852652261114122
100
AcDbArc
 50
323.5307656099477
 51
52.72943909836341
  0
ARC
  5
19A8
330
10C1
100
AcDbEntity
  8
image
100
AcDbCircle
 10
0.9706227161732025
 20
8.155983769128372
 30
0.0
 40
0.0852652261114122
100
AcDbArc
 50
159.7199718669748
 51
248.9186453553905
  0
ARC
  5
19A9
330
10C1
100
AcDbEntity
  8
image
100
AcDbCircle
 10
0.8599737768499377
 20
8.105978960011128
 30
0.0
 40
0.0852652261114122
100
AcDbArc
 50
339.7199718669747
 51
68.91864535539045
  0
ARC
  5
19AA
330
10C1
100
AcDbEntity
  8
image
100
AcDbCircle
 10
0.942151340711899
 20
8.047793471959003
 30
0.0
 40
0.0852652261114122
100
AcDbArc
 50
143.5307656099477
 51
232.7294390983635
  0
ARC
  5
19AB
330
10C1
100
AcDbEntity
  8
image
100
AcDbCircle
 10
0.9182039262985583
 20
7.980740711601653
 30
0.0
 40
0.0852652261114122
100
AcDbArc
 50
143.5307656099477
 51
232.7294390983635
  0
ARC
  5
19AC
330
10C1
100
AcDbEntity
  8
image
100
AcDbCircle
 10
0.7980007843510574
 20
7.963568834180582
 30
0.0
 40
0.0852652261114122
100
AcDbArc
 50
323.5307656099477
 51
52.72943909836341
  0
ARC
  5
19AD
330
10C1
100
AcDbEntity
  8
image
100
AcDbCircle
 10
0.9996251353039124
 20
7.971161745836317
 30
0.0
 40
0.0852652261114122
100
AcDbArc
 50
143.5307656099477
 51
232.7294390983635
  0
ARC
  5
19AE
330
10C1
100
AcDbEntity
  8
image
100
AcDbCircle
 10
0.8794219933564114
 20
7.953989868415247
 30
0.0
 40
0.0852652261114122
100
AcDbArc
 50
323.5307656099477
 51
52.72943909836341
  0
ARC
  5
19AF
330
10C1
100
AcDbEntity
  8
image
100
AcDbCircle
 10
0.8854632740379399
 20
8.062959475423252
 30
0.0
 40
0.0852652261114122
100
AcDbArc
 50
278.5307656099479
 51
7.729439098363579
  0
ARC
  5
19B0
330
10C1
100
AcDbEntity
  8
image
100
AcDbCircle
 10
0.8219481987643963
 20
8.030621594537933
 30
0.0
 40
0.0852652261114122
100
AcDbArc
 50
323.5307656099477
 51
52.72943909836341
  0
ARC
  5
19B1
330
10C1
100
AcDbEntity
  8
image
100
AcDbCircle
 10
0.9826020817990913
 20
7.990105369602389
 30
0.0
 40
0.0852652261114122
100
AcDbArc
 50
98.53076560994793
 51
187.7294390983636
  0
ARC
  5
19B2
330
10C1
100
AcDbEntity
  8
image
100
AcDbCircle
 10
0.9301573518081646
 20
8.222951205360324
 30
0.0
 40
0.0852652261114122
100
AcDbArc
 50
116.0563205359582
 51
205.254994024374
  0
ARC
  5
19B3
330
10C1
100
AcDbEntity
  8
image
100
AcDbCircle
 10
0.8155888215097796
 20
8.263172102584075
 30
0.0
 40
0.0852652261114122
100
AcDbArc
 50
296.0563205359582
 51
25.25499402437389
  0
ARC
  5
19B4
330
10C1
100
AcDbEntity
  8
image
100
AcDbCircle
 10
0.8623551657104714
 20
8.221275478968495
 30
0.0
 40
0.0852652261114122
100
AcDbArc
 50
323.5307656099477
 51
52.72943909836341
  0
ARC
  5
19B5
330
10C1
100
AcDbEntity
  8
image
100
AcDbCircle
 10
0.9825583076579723
 20
8.238447356389565
 30
0.0
 40
0.0852652261114122
100
AcDbArc
 50
143.5307656099477
 51
232.7294390983635
  0
ARC
  5
19B6
330
10C1
100
AcDbEntity
  8
image
100
AcDbCircle
 10
2.825157661117482
 20
8.105978960011128
 30
0.0
 40
0.0852652261114122
100
AcDbArc
 50
111.0813546446095
 51
200.2800281330253
  0
ARC
  5
19B7
330
10C1
100
AcDbEntity
  8
image
100
AcDbCircle
 10
2.714508721794218
 20
8.155983769128372
 30
0.0
 40
0.0852652261114122
100
AcDbArc
 50
291.0813546446095
 51
20.28002813302522
  0
ARC
  5
19B8
330
10C1
100
AcDbEntity
  8
image
100
AcDbCircle
 10
2.762604098666998
 20
8.145569183721962
 30
0.0
 40
0.0852652261114122
100
AcDbArc
 50
127.2705609016366
 51
216.4692343900523
  0
ARC
  5
19B9
330
10C1
100
AcDbEntity
  8
image
100
AcDbCircle
 10
2.642400956719495
 20
8.162741061143032
 30
0.0
 40
0.0852652261114122
100
AcDbArc
 50
307.2705609016365
 51
36.46923439005223
  0
ARC
  5
19BA
330
10C1
100
AcDbEntity
  8
image
100
AcDbCircle
 10
2.897405139494414
 20
8.14376138717051
 30
0.0
 40
0.0852652261114122
100
AcDbArc
 50
154.7450059756261
 51
243.9436794640418
  0
ARC
  5
19BB
330
10C1
100
AcDbEntity
  8
image
100
AcDbCircle
 10
2.782836609196028
 20
8.103540489946759
 30
0.0
 40
0.0852652261114122
100
AcDbArc
 50
334.745005975626
 51
63.94367946404176
  0
ARC
  5
19BC
330
10C1
100
AcDbEntity
  8
image
100
AcDbCircle
 10
2.314366313083981
 20
8.119796750811248
 30
0.0
 40
0.0852652261114122
100
AcDbArc
 50
334.745005975626
 51
63.94367946404176
  0
ARC
  5
19BD
330
10C1
100
AcDbEntity
  8
image
100
AcDbCircle
 10
2.428934843382366
 20
8.160017648034999
 30
0.0
 40
0.0852652261114122
100
AcDbArc
 50
154.7450059756261
 51
243.9436794640418
  0
ARC
  5
19BE
330
10C1
100
AcDbEntity
  8
image
100
AcDbCircle
 10
2.682549653212776
 20
8.087953893367631
 30
0.0
 40
0.0852652261114122
100
AcDbArc
 50
334.745005975626
 51
63.94367946404176
  0
ARC
  5
19BF
330
10C1
100
AcDbEntity
  8
image
100
AcDbCircle
 10
2.797118183511161
 20
8.128174790591382
 30
0.0
 40
0.0852652261114122
100
AcDbArc
 50
154.7450059756261
 51
243.9436794640418
  0
ARC
  5
19C0
330
10C1
100
AcDbEntity
  8
image
100
AcDbCircle
 10
2.246700185708959
 20
8.081983357596953
 30
0.0
 40
0.0852652261114122
100
AcDbArc
 50
334.745005975626
 51
63.94367946404176
  0
ARC
  5
19C1
330
10C1
100
AcDbEntity
  8
image
100
AcDbCircle
 10
2.361268716007344
 20
8.122204254820704
 30
0.0
 40
0.0852652261114122
100
AcDbArc
 50
154.7450059756261
 51
243.9436794640418
  0
ARC
  5
19C2
330
10C1
100
AcDbEntity
  8
image
100
AcDbCircle
 10
2.542114000736244
 20
8.147154464563906
 30
0.0
 40
0.0852652261114122
100
AcDbArc
 50
307.2705609016365
 51
36.46923439005223
  0
ARC
  5
19C3
330
10C1
100
AcDbEntity
  8
image
100
AcDbCircle
 10
2.662317142683745
 20
8.129982587142833
 30
0.0
 40
0.0852652261114122
100
AcDbArc
 50
127.2705609016366
 51
216.4692343900523
  0
ARC
  5
19C4
330
10C1
100
AcDbEntity
  8
image
100
AcDbCircle
 10
2.465482274613557
 20
8.214207224921256
 30
0.0
 40
0.0852652261114122
100
AcDbArc
 50
307.2705609016365
 51
36.46923439005223
  0
ARC
  5
19C5
330
10C1
100
AcDbEntity
  8
image
100
AcDbCircle
 10
2.355324168312196
 20
8.151943947446573
 30
0.0
 40
0.0852652261114122
100
AcDbArc
 50
307.2705609016365
 51
36.46923439005223
  0
ARC
  5
19C6
330
10C1
100
AcDbEntity
  8
image
100
AcDbCircle
 10
2.475527310259697
 20
8.134772070025503
 30
0.0
 40
0.0852652261114122
100
AcDbArc
 50
127.2705609016366
 51
216.4692343900523
  0
ARC
  5
19C7
330
10C1
100
AcDbEntity
  8
image
100
AcDbCircle
 10
2.202060716066823
 20
8.147154464563906
 30
0.0
 40
0.0852652261114122
100
AcDbArc
 50
307.2705609016365
 51
36.46923439005223
  0
ARC
  5
19C8
330
10C1
100
AcDbEntity
  8
image
100
AcDbCircle
 10
2.322263858014324
 20
8.129982587142833
 30
0.0
 40
0.0852652261114122
100
AcDbArc
 50
127.2705609016366
 51
216.4692343900523
  0
ARC
  5
19C9
330
10C1
100
AcDbEntity
  8
image
100
AcDbCircle
 10
2.287126897486836
 20
8.184632030909826
 30
0.0
 40
0.0852652261114122
100
AcDbArc
 50
291.0813546446095
 51
20.28002813302522
  0
ARC
  5
19CA
330
10C1
100
AcDbEntity
  8
image
100
AcDbCircle
 10
2.3977758368101
 20
8.134627221792582
 30
0.0
 40
0.0852652261114122
100
AcDbArc
 50
111.0813546446095
 51
200.2800281330253
  0
ARC
  5
19CB
330
10C1
100
AcDbEntity
  8
image
100
AcDbCircle
 10
2.483495695676218
 20
8.155895133613819
 30
0.0
 40
0.0852652261114122
100
AcDbArc
 50
291.0813546446095
 51
20.28002813302522
  0
ARC
  5
19CC
330
10C1
100
AcDbEntity
  8
image
100
AcDbCircle
 10
2.594144634999484
 20
8.105890324496574
 30
0.0
 40
0.0852652261114122
100
AcDbArc
 50
111.0813546446095
 51
200.2800281330253
  0
ARC
  5
19CD
330
10C1
100
AcDbEntity
  8
image
100
AcDbCircle
 10
2.614221765810965
 20
8.140397172549246
 30
0.0
 40
0.0852652261114122
100
AcDbArc
 50
291.0813546446095
 51
20.28002813302522
  0
ARC
  5
19CE
330
10C1
100
AcDbEntity
  8
image
100
AcDbCircle
 10
2.724870705134229
 20
8.090392363432
 30
0.0
 40
0.0852652261114122
100
AcDbArc
 50
111.0813546446095
 51
200.2800281330253
  0
ARC
  5
19CF
330
10C1
100
AcDbEntity
  8
image
100
AcDbCircle
 10
2.522302391759466
 20
8.101100841613908
 30
0.0
 40
0.0852652261114122
100
AcDbArc
 50
111.0813546446095
 51
200.2800281330253
  0
ARC
  5
19D0
330
10C1
100
AcDbEntity
  8
image
100
AcDbCircle
 10
2.411653452436202
 20
8.151105650731151
 30
0.0
 40
0.0852652261114122
100
AcDbArc
 50
291.0813546446095
 51
20.28002813302522
  0
ARC
  5
19D1
330
10C1
100
AcDbEntity
  8
image
100
AcDbCircle
 10
2.370091359157528
 20
8.034219071431527
 30
0.0
 40
0.0852652261114122
100
AcDbArc
 50
334.745005975626
 51
63.94367946404176
  0
ARC
  5
19D2
330
10C1
100
AcDbEntity
  8
image
100
AcDbCircle
 10
2.542580070617047
 20
8.015034997958805
 30
0.0
 40
0.0852652261114122
100
AcDbArc
 50
127.2705609016366
 51
216.4692343900523
  0
ARC
  5
19D3
330
10C1
100
AcDbEntity
  8
image
100
AcDbCircle
 10
2.512591375522179
 20
7.980320118486774
 30
0.0
 40
0.0852652261114122
100
AcDbArc
 50
172.2705609016364
 51
261.4692343900521
  0
ARC
  5
19D4
330
10C1
100
AcDbEntity
  8
image
100
AcDbCircle
 10
2.415452567761028
 20
7.90746601266591
 30
0.0
 40
0.0852652261114122
100
AcDbArc
 50
352.2705609016364
 51
81.4692343900521
  0
ARC
  5
19D5
330
10C1
100
AcDbEntity
  8
image
100
AcDbCircle
 10
2.702529356168329
 20
7.990105369602389
 30
0.0
 40
0.0852652261114122
100
AcDbArc
 50
352.2705609016364
 51
81.4692343900521
  0
ARC
  5
19D6
330
10C1
100
AcDbEntity
  8
image
100
AcDbCircle
 10
2.79966816392948
 20
8.062959475423252
 30
0.0
 40
0.0852652261114122
100
AcDbArc
 50
172.2705609016364
 51
261.4692343900521
  0
ARC
  5
19D7
330
10C1
100
AcDbEntity
  8
image
100
AcDbCircle
 10
2.805709444611008
 20
7.953989868415247
 30
0.0
 40
0.0852652261114122
100
AcDbArc
 50
127.2705609016366
 51
216.4692343900523
  0
ARC
  5
19D8
330
10C1
100
AcDbEntity
  8
image
100
AcDbCircle
 10
2.642693141272268
 20
8.032206875379877
 30
0.0
 40
0.0852652261114122
100
AcDbArc
 50
307.2705609016365
 51
36.46923439005223
  0
ARC
  5
19D9
330
10C1
100
AcDbEntity
  8
image
100
AcDbCircle
 10
2.666640555685609
 20
7.965154115022526
 30
0.0
 40
0.0852652261114122
100
AcDbArc
 50
307.2705609016365
 51
36.46923439005223
  0
ARC
  5
19DA
330
10C1
100
AcDbEntity
  8
image
100
AcDbCircle
 10
2.78684369763311
 20
7.947982237601454
 30
0.0
 40
0.0852652261114122
100
AcDbArc
 50
127.2705609016366
 51
216.4692343900523
  0
ARC
  5
19DB
330
10C1
100
AcDbEntity
  8
image
100
AcDbCircle
 10
2.685506302663507
 20
7.971161745836317
 30
0.0
 40
0.0852652261114122
100
AcDbArc
 50
307.2705609016365
 51
36.46923439005223
  0
ARC
  5
19DC
330
10C1
100
AcDbEntity
  8
image
100
AcDbCircle
 10
2.887130653616363
 20
7.963568834180582
 30
0.0
 40
0.0852652261114122
100
AcDbArc
 50
127.2705609016366
 51
216.4692343900523
  0
ARC
  5
19DD
330
10C1
100
AcDbEntity
  8
image
100
AcDbCircle
 10
2.766927511668861
 20
7.980740711601653
 30
0.0
 40
0.0852652261114122
100
AcDbArc
 50
307.2705609016365
 51
36.46923439005223
  0
ARC
  5
19DE
330
10C1
100
AcDbEntity
  8
image
100
AcDbCircle
 10
2.863183239203023
 20
8.030621594537933
 30
0.0
 40
0.0852652261114122
100
AcDbArc
 50
127.2705609016366
 51
216.4692343900523
  0
ARC
  5
19DF
330
10C1
100
AcDbEntity
  8
image
100
AcDbCircle
 10
2.742980097255521
 20
8.047793471959003
 30
0.0
 40
0.0852652261114122
100
AcDbArc
 50
307.2705609016365
 51
36.46923439005223
  0
ARC
  5
19E0
330
10C1
100
AcDbEntity
  8
image
100
AcDbCircle
 10
2.461639649135498
 20
7.94665121346158
 30
0.0
 40
0.0852652261114122
100
AcDbArc
 50
334.745005975626
 51
63.94367946404176
  0
ARC
  5
19E1
330
10C1
100
AcDbEntity
  8
image
100
AcDbCircle
 10
2.576208179433884
 20
7.986872110685331
 30
0.0
 40
0.0852652261114122
100
AcDbArc
 50
154.7450059756261
 51
243.9436794640418
  0
ARC
  5
19E2
330
10C1
100
AcDbEntity
  8
image
100
AcDbCircle
 10
2.585219346680255
 20
7.955575149257191
 30
0.0
 40
0.0852652261114122
100
AcDbArc
 50
307.2705609016365
 51
36.46923439005223
  0
ARC
  5
19E3
330
10C1
100
AcDbEntity
  8
image
100
AcDbCircle
 10
2.705422488627756
 20
7.93840327183612
 30
0.0
 40
0.0852652261114122
100
AcDbArc
 50
127.2705609016366
 51
216.4692343900523
  0
ARC
  5
19E4
330
10C1
100
AcDbEntity
  8
image
100
AcDbCircle
 10
2.522956069205572
 20
7.955575149257191
 30
0.0
 40
0.0852652261114122
100
AcDbArc
 50
307.2705609016365
 51
36.46923439005223
  0
ARC
  5
19E5
330
10C1
100
AcDbEntity
  8
image
100
AcDbCircle
 10
2.643159211153073
 20
7.93840327183612
 30
0.0
 40
0.0852652261114122
100
AcDbArc
 50
127.2705609016366
 51
216.4692343900523
  0
ARC
  5
19E6
330
10C1
100
AcDbEntity
  8
image
100
AcDbCircle
 10
2.699381207946227
 20
8.047372878844125
 30
0.0
 40
0.0852652261114122
100
AcDbArc
 50
172.2705609016364
 51
261.4692343900521
  0
ARC
  5
19E7
330
10C1
100
AcDbEntity
  8
image
100
AcDbCircle
 10
2.517022075854895
 20
8.074473924608465
 30
0.0
 40
0.0852652261114122
100
AcDbArc
 50
291.0813546446095
 51
20.28002813302522
  0
ARC
  5
19E8
330
10C1
100
AcDbEntity
  8
image
100
AcDbCircle
 10
2.762896283219771
 20
8.015034997958805
 30
0.0
 40
0.0852652261114122
100
AcDbArc
 50
127.2705609016366
 51
216.4692343900523
  0
ARC
  5
19E9
330
10C1
100
AcDbEntity
  8
image
100
AcDbCircle
 10
2.602242400185076
 20
7.974518773023261
 30
0.0
 40
0.0852652261114122
100
AcDbArc
 50
352.2705609016364
 51
81.4692343900521
  0
ARC
  5
19EA
330
10C1
100
AcDbEntity
  8
image
100
AcDbCircle
 10
2.473580730436974
 20
8.030238714251074
 30
0.0
 40
0.0852652261114122
100
AcDbArc
 50
334.745005975626
 51
63.94367946404176
  0
ARC
  5
19EB
330
10C1
100
AcDbEntity
  8
image
100
AcDbCircle
 10
2.588149260735358
 20
8.070459611474827
 30
0.0
 40
0.0852652261114122
100
AcDbArc
 50
154.7450059756261
 51
243.9436794640418
  0
ARC
  5
19EC
330
10C1
100
AcDbEntity
  8
image
100
AcDbCircle
 10
2.422376928669546
 20
8.032206875379877
 30
0.0
 40
0.0852652261114122
100
AcDbArc
 50
307.2705609016365
 51
36.46923439005223
  0
ARC
  5
19ED
330
10C1
100
AcDbEntity
  8
image
100
AcDbCircle
 10
2.627671015178159
 20
8.024469115491219
 30
0.0
 40
0.0852652261114122
100
AcDbArc
 50
111.0813546446095
 51
200.2800281330253
  0
ARC
  5
19EE
330
10C1
100
AcDbEntity
  8
image
100
AcDbCircle
 10
2.226008130480162
 20
7.960364632139858
 30
0.0
 40
0.0852652261114122
100
AcDbArc
 50
307.2705609016365
 51
36.46923439005223
  0
ARC
  5
19EF
330
10C1
100
AcDbEntity
  8
image
100
AcDbCircle
 10
2.346211272427665
 20
7.943192754718786
 30
0.0
 40
0.0852652261114122
100
AcDbArc
 50
127.2705609016366
 51
216.4692343900523
  0
ARC
  5
19F0
330
10C1
100
AcDbEntity
  8
image
100
AcDbCircle
 10
2.364903134077531
 20
7.945996183491855
 30
0.0
 40
0.0852652261114122
100
AcDbArc
 50
307.2705609016365
 51
36.46923439005223
  0
ARC
  5
19F1
330
10C1
100
AcDbEntity
  8
image
100
AcDbCircle
 10
2.485106276025033
 20
7.928824306070783
 30
0.0
 40
0.0852652261114122
100
AcDbArc
 50
127.2705609016366
 51
216.4692343900523
  0
ARC
  5
19F2
330
10C1
100
AcDbEntity
  8
image
100
AcDbCircle
 10
2.27869244218951
 20
7.974733080787862
 30
0.0
 40
0.0852652261114122
100
AcDbArc
 50
307.2705609016365
 51
36.46923439005223
  0
ARC
  5
19F3
330
10C1
100
AcDbEntity
  8
image
100
AcDbCircle
 10
2.39889558413701
 20
7.95756120336679
 30
0.0
 40
0.0852652261114122
100
AcDbArc
 50
127.2705609016366
 51
216.4692343900523
  0
ARC
  5
19F4
330
10C1
100
AcDbEntity
  8
image
100
AcDbCircle
 10
2.436091699871444
 20
7.990942735312545
 30
0.0
 40
0.0852652261114122
100
AcDbArc
 50
111.0813546446095
 51
200.2800281330253
  0
ARC
  5
19F5
330
10C1
100
AcDbEntity
  8
image
100
AcDbCircle
 10
2.296705863252171
 20
8.079263407491133
 30
0.0
 40
0.0852652261114122
100
AcDbArc
 50
291.0813546446095
 51
20.28002813302522
  0
ARC
  5
19F6
330
10C1
100
AcDbEntity
  8
image
100
AcDbCircle
 10
2.407354802575436
 20
8.029258598373889
 30
0.0
 40
0.0852652261114122
100
AcDbArc
 50
111.0813546446095
 51
200.2800281330253
  0
ARC
  5
19F7
330
10C1
100
AcDbEntity
  8
image
100
AcDbCircle
 10
2.484659889455913
 20
8.074439968655278
 30
0.0
 40
0.0852652261114122
100
AcDbArc
 50
154.7450059756261
 51
243.9436794640418
  0
ARC
  5
19F8
330
10C1
100
AcDbEntity
  8
image
100
AcDbCircle
 10
2.325442760548178
 20
8.040947544429789
 30
0.0
 40
0.0852652261114122
100
AcDbArc
 50
291.0813546446095
 51
20.28002813302522
  0
ARC
  5
19F9
330
10C1
100
AcDbEntity
  8
image
100
AcDbCircle
 10
2.205705688481482
 20
8.060105475960462
 30
0.0
 40
0.0852652261114122
100
AcDbArc
 50
291.0813546446095
 51
20.28002813302522
  0
ARC
  5
19FA
330
10C1
100
AcDbEntity
  8
image
100
AcDbCircle
 10
2.316354627804746
 20
8.010100666843218
 30
0.0
 40
0.0852652261114122
100
AcDbArc
 50
111.0813546446095
 51
200.2800281330253
  0
ARC
  5
19FB
330
10C1
100
AcDbEntity
  8
image
100
AcDbCircle
 10
2.389993161326652
 20
8.30289318111205
 30
0.0
 40
0.0852652261114122
100
AcDbArc
 50
334.745005975626
 51
63.94367946404176
  0
ARC
  5
19FC
330
10C1
100
AcDbEntity
  8
image
100
AcDbCircle
 10
2.42183604479725
 20
8.197413715830066
 30
0.0
 40
0.0852652261114122
100
AcDbArc
 50
334.745005975626
 51
63.94367946404176
  0
ARC
  5
19FD
330
10C1
100
AcDbEntity
  8
image
100
AcDbCircle
 10
2.536404575095636
 20
8.237634613053819
 30
0.0
 40
0.0852652261114122
100
AcDbArc
 50
154.7450059756261
 51
243.9436794640418
  0
ARC
  5
19FE
330
10C1
100
AcDbEntity
  8
image
100
AcDbCircle
 10
2.41279796290421
 20
8.410576023110641
 30
0.0
 40
0.0852652261114122
100
AcDbArc
 50
307.2705609016365
 51
36.46923439005223
  0
ARC
  5
19FF
330
10C1
100
AcDbEntity
  8
image
100
AcDbCircle
 10
2.533001104851712
 20
8.393404145689569
 30
0.0
 40
0.0852652261114122
100
AcDbArc
 50
127.2705609016366
 51
216.4692343900523
  0
ARC
  5
1A00
330
10C1
100
AcDbEntity
  8
image
100
AcDbCircle
 10
2.397285003788197
 20
8.270842722797848
 30
0.0
 40
0.0852652261114122
100
AcDbArc
 50
291.0813546446095
 51
20.28002813302522
  0
ARC
  5
1A01
330
10C1
100
AcDbEntity
  8
image
100
AcDbCircle
 10
2.507933943111462
 20
8.220837913680604
 30
0.0
 40
0.0852652261114122
100
AcDbArc
 50
111.0813546446095
 51
200.2800281330253
  0
ARC
  5
1A02
330
10C1
100
AcDbEntity
  8
image
100
AcDbCircle
 10
2.570065170114194
 20
8.349110300452201
 30
0.0
 40
0.0852652261114122
100
AcDbArc
 50
172.2705609016364
 51
261.4692343900521
  0
ARC
  5
1A03
330
10C1
100
AcDbEntity
  8
image
100
AcDbCircle
 10
2.822776272256949
 20
8.221275478968495
 30
0.0
 40
0.0852652261114122
100
AcDbArc
 50
127.2705609016366
 51
216.4692343900523
  0
ARC
  5
1A04
330
10C1
100
AcDbEntity
  8
image
100
AcDbCircle
 10
2.632795147789965
 20
8.326775324194763
 30
0.0
 40
0.0852652261114122
100
AcDbArc
 50
334.745005975626
 51
63.94367946404176
  0
ARC
  5
1A05
330
10C1
100
AcDbEntity
  8
image
100
AcDbCircle
 10
2.654687130176002
 20
8.207364608781196
 30
0.0
 40
0.0852652261114122
100
AcDbArc
 50
334.745005975626
 51
63.94367946404176
  0
ARC
  5
1A06
330
10C1
100
AcDbEntity
  8
image
100
AcDbCircle
 10
2.769255660474387
 20
8.247585506004947
 30
0.0
 40
0.0852652261114122
100
AcDbArc
 50
154.7450059756261
 51
243.9436794640418
  0
ARC
  5
1A07
330
10C1
100
AcDbEntity
  8
image
100
AcDbCircle
 10
2.801212146281115
 20
8.326351385332218
 30
0.0
 40
0.0852652261114122
100
AcDbArc
 50
127.2705609016366
 51
216.4692343900523
  0
ARC
  5
1A08
330
10C1
100
AcDbEntity
  8
image
100
AcDbCircle
 10
2.681009004333612
 20
8.343523262753288
 30
0.0
 40
0.0852652261114122
100
AcDbArc
 50
307.2705609016365
 51
36.46923439005223
  0
ARC
  5
1A09
330
10C1
100
AcDbEntity
  8
image
100
AcDbCircle
 10
2.702573130309448
 20
8.238447356389565
 30
0.0
 40
0.0852652261114122
100
AcDbArc
 50
307.2705609016365
 51
36.46923439005223
  0
ARC
  5
1A0A
330
10C1
100
AcDbEntity
  8
image
100
AcDbCircle
 10
2.86954261645764
 20
8.263172102584075
 30
0.0
 40
0.0852652261114122
100
AcDbArc
 50
154.7450059756261
 51
243.9436794640418
  0
ARC
  5
1A0B
330
10C1
100
AcDbEntity
  8
image
100
AcDbCircle
 10
2.754974086159255
 20
8.222951205360324
 30
0.0
 40
0.0852652261114122
100
AcDbArc
 50
334.745005975626
 51
63.94367946404176
  0
ARC
  5
1A0C
330
10C1
100
AcDbEntity
  8
image
100
AcDbCircle
 10
2.747363678088351
 20
8.366996221418514
 30
0.0
 40
0.0852652261114122
100
AcDbArc
 50
154.7450059756261
 51
243.9436794640418
  0
ARC
  5
1A0D
330
10C1
100
AcDbEntity
  8
image
100
AcDbCircle
 10
2.535276317161258
 20
8.310853895472954
 30
0.0
 40
0.0852652261114122
100
AcDbArc
 50
334.745005975626
 51
63.94367946404176
  0
ARC
  5
1A0E
330
10C1
100
AcDbEntity
  8
image
100
AcDbCircle
 10
2.649844847459644
 20
8.351074792696705
 30
0.0
 40
0.0852652261114122
100
AcDbArc
 50
154.7450059756261
 51
243.9436794640418
  0
ARC
  5
1A0F
330
10C1
100
AcDbEntity
  8
image
100
AcDbCircle
 10
2.59479831244559
 20
8.348312745635958
 30
0.0
 40
0.0852652261114122
100
AcDbArc
 50
307.2705609016365
 51
36.46923439005223
  0
ARC
  5
1A10
330
10C1
100
AcDbEntity
  8
image
100
AcDbCircle
 10
2.715001454393092
 20
8.331140868214886
 30
0.0
 40
0.0852652261114122
100
AcDbArc
 50
127.2705609016366
 51
216.4692343900523
  0
ARC
  5
1A11
330
10C1
100
AcDbEntity
  8
image
100
AcDbCircle
 10
2.536180007385566
 20
8.419316692160553
 30
0.0
 40
0.0852652261114122
100
AcDbArc
 50
291.0813546446095
 51
20.28002813302522
  0
ARC
  5
1A12
330
10C1
100
AcDbEntity
  8
image
100
AcDbCircle
 10
2.472926362353043
 20
8.276256194631338
 30
0.0
 40
0.0852652261114122
100
AcDbArc
 50
352.2705609016364
 51
81.4692343900521
  0
ARC
  5
1A13
330
10C1
100
AcDbEntity
  8
image
100
AcDbCircle
 10
2.545758973150901
 20
8.26605323991518
 30
0.0
 40
0.0852652261114122
100
AcDbArc
 50
291.0813546446095
 51
20.28002813302522
  0
ARC
  5
1A14
330
10C1
100
AcDbEntity
  8
image
100
AcDbCircle
 10
2.656407912474165
 20
8.216048430797936
 30
0.0
 40
0.0852652261114122
100
AcDbArc
 50
111.0813546446095
 51
200.2800281330253
  0
ARC
  5
1A15
330
10C1
100
AcDbEntity
  8
image
100
AcDbCircle
 10
2.59479831244559
 20
8.247733605099931
 30
0.0
 40
0.0852652261114122
100
AcDbArc
 50
307.2705609016365
 51
36.46923439005223
  0
ARC
  5
1A16
330
10C1
100
AcDbEntity
  8
image
100
AcDbCircle
 10
2.715001454393092
 20
8.23056172767886
 30
0.0
 40
0.0852652261114122
100
AcDbArc
 50
127.2705609016366
 51
216.4692343900523
  0
ARC
  5
1A17
330
10C1
100
AcDbEntity
  8
image
100
AcDbCircle
 10
2.585685416561058
 20
8.197035347500186
 30
0.0
 40
0.0852652261114122
100
AcDbArc
 50
127.2705609016366
 51
216.4692343900523
  0
ARC
  5
1A18
330
10C1
100
AcDbEntity
  8
image
100
AcDbCircle
 10
2.483495695676218
 20
8.299579620093854
 30
0.0
 40
0.0852652261114122
100
AcDbArc
 50
291.0813546446095
 51
20.28002813302522
  0
ARC
  5
1A19
330
10C1
100
AcDbEntity
  8
image
100
AcDbCircle
 10
2.594144634999484
 20
8.249574810976611
 30
0.0
 40
0.0852652261114122
100
AcDbArc
 50
111.0813546446095
 51
200.2800281330253
  0
ARC
  5
1A1A
330
10C1
100
AcDbEntity
  8
image
100
AcDbCircle
 10
2.646828946708831
 20
8.369311883043309
 30
0.0
 40
0.0852652261114122
100
AcDbArc
 50
111.0813546446095
 51
200.2800281330253
  0
ARC
  5
1A1B
330
10C1
100
AcDbEntity
  8
image
100
AcDbCircle
 10
2.624834426922316
 20
8.412353003574484
 30
0.0
 40
0.0852652261114122
100
AcDbArc
 50
334.745005975626
 51
63.94367946404176
  0
ARC
  5
1A1C
330
10C1
100
AcDbEntity
  8
image
100
AcDbCircle
 10
2.739402957220701
 20
8.452573900798235
 30
0.0
 40
0.0852652261114122
100
AcDbArc
 50
154.7450059756261
 51
243.9436794640418
  0
ARC
  5
1A1D
330
10C1
100
AcDbEntity
  8
image
100
AcDbCircle
 10
2.489429689026896
 20
8.420154988875976
 30
0.0
 40
0.0852652261114122
100
AcDbArc
 50
307.2705609016365
 51
36.46923439005223
  0
ARC
  5
1A1E
330
10C1
100
AcDbEntity
  8
image
100
AcDbCircle
 10
2.609632830974398
 20
8.402983111454904
 30
0.0
 40
0.0852652261114122
100
AcDbArc
 50
127.2705609016366
 51
216.4692343900523
  0
ARC
  5
1A1F
330
10C1
100
AcDbEntity
  8
image
100
AcDbCircle
 10
2.504561691625037
 20
8.343114078335801
 30
0.0
 40
0.0852652261114122
100
AcDbArc
 50
154.7450059756261
 51
243.9436794640418
  0
ARC
  5
1A20
330
10C1
100
AcDbEntity
  8
image
100
AcDbCircle
 10
2.413264032785015
 20
8.268877590740203
 30
0.0
 40
0.0852652261114122
100
AcDbArc
 50
127.2705609016366
 51
216.4692343900523
  0
ARC
  5
1A21
330
10C1
100
AcDbEntity
  8
image
100
AcDbCircle
 10
2.345745202546859
 20
8.300417916809278
 30
0.0
 40
0.0852652261114122
100
AcDbArc
 50
307.2705609016365
 51
36.46923439005223
  0
ARC
  5
1A22
330
10C1
100
AcDbEntity
  8
image
100
AcDbCircle
 10
2.465948344494361
 20
8.283246039388208
 30
0.0
 40
0.0852652261114122
100
AcDbArc
 50
127.2705609016366
 51
216.4692343900523
  0
ARC
  5
1A23
330
10C1
100
AcDbEntity
  8
image
100
AcDbCircle
 10
2.325442760548178
 20
8.409737726395217
 30
0.0
 40
0.0852652261114122
100
AcDbArc
 50
291.0813546446095
 51
20.28002813302522
  0
ARC
  5
1A24
330
10C1
100
AcDbEntity
  8
image
100
AcDbCircle
 10
2.436091699871444
 20
8.359732917277973
 30
0.0
 40
0.0852652261114122
100
AcDbArc
 50
111.0813546446095
 51
200.2800281330253
  0
ARC
  5
1A25
330
10C1
100
AcDbEntity
  8
image
100
AcDbCircle
 10
2.293060890837513
 20
8.286049468161275
 30
0.0
 40
0.0852652261114122
100
AcDbArc
 50
307.2705609016365
 51
36.46923439005223
  0
ARC
  5
1A26
330
10C1
100
AcDbEntity
  8
image
100
AcDbCircle
 10
2.317008305250852
 20
8.238154639334595
 30
0.0
 40
0.0852652261114122
100
AcDbArc
 50
307.2705609016365
 51
36.46923439005223
  0
ARC
  5
1A27
330
10C1
100
AcDbEntity
  8
image
100
AcDbCircle
 10
2.437211447198355
 20
8.220982761913525
 30
0.0
 40
0.0852652261114122
100
AcDbArc
 50
127.2705609016366
 51
216.4692343900523
  0
ARC
  5
1A28
330
10C1
100
AcDbEntity
  8
image
100
AcDbCircle
 10
0.7664855085933255
 20
7.928824306070783
 30
0.0
 40
0.0852652261114122
100
AcDbArc
 50
323.5307656099477
 51
52.72943909836341
  0
ARC
  5
1A29
330
10C1
100
AcDbEntity
  8
image
100
AcDbCircle
 10
0.8866886505408272
 20
7.945996183491855
 30
0.0
 40
0.0852652261114122
100
AcDbArc
 50
143.5307656099477
 51
232.7294390983635
  0
ARC
  5
1A2A
330
10C1
100
AcDbEntity
  8
image
100
AcDbCircle
 10
0.8554465713172238
 20
7.961279501898754
 30
0.0
 40
0.0852652261114122
100
AcDbArc
 50
278.5307656099479
 51
7.729439098363579
  0
ARC
  5
1A2B
330
10C1
100
AcDbEntity
  8
image
100
AcDbCircle
 10
0.9525853790783752
 20
7.88842539607789
 30
0.0
 40
0.0852652261114122
100
AcDbArc
 50
98.53076560994793
 51
187.7294390983636
  0
ARC
  5
1A2C
330
10C1
100
AcDbEntity
  8
image
100
AcDbCircle
 10
2.752710664049391
 20
7.880870252664182
 30
0.0
 40
0.0852652261114122
100
AcDbArc
 50
352.2705609016364
 51
81.4692343900521
  0
ARC
  5
1A2D
330
10C1
100
AcDbEntity
  8
image
100
AcDbCircle
 10
2.849849471810542
 20
7.953724358485045
 30
0.0
 40
0.0852652261114122
100
AcDbArc
 50
172.2705609016364
 51
261.4692343900521
  0
LINE
  5
1A2E
330
10C1
100
AcDbEntity
  8
image
100
AcDbLine
 10
2.18343201866612
 20
3.844648403824668
 30
0.0
 11
2.194232210287666
 21
7.296214828895884
 31
0.0
  0
LINE
  5
1A2F
330
10C1
100
AcDbEntity
  8
image
100
AcDbLine
 10
1.515822705740449
 20
3.844648403824668
 30
0.0
 11
1.504041364924114
 21
7.405231406094914
 31
0.0
  0
LINE
  5
1A30
330
10C1
100
AcDbEntity
  8
image
100
AcDbLine
 10
1.52498597081982
 20
3.823703797928961
 30
0.0
 11
1.613812206970687
 21
3.823703797928961
 31
0.0
  0
LINE
  5
1A31
330
10C1
100
AcDbEntity
  8
image
100
AcDbLine
 10
1.515822705740449
 20
3.844648403824668
 30
0.0
 11
2.18343201866612
 21
3.844648403824668
 31
0.0
  0
ARC
  5
1A32
330
10C1
100
AcDbEntity
  8
image
100
AcDbCircle
 10
1.530731630498233
 20
3.838694291222231
 30
0.0
 40
0.0160538934316793
100
AcDbArc
 50
158.2299291778305
 51
249.0288262834868
  0
LINE
  5
1A33
330
10C1
100
AcDbEntity
  8
image
100
AcDbLine
 10
1.584154482475194
 20
3.555612842463907
 30
0.0
 11
2.115100241931378
 21
3.555612842463906
 31
0.0
  0
LINE
  5
1A34
330
10C1
100
AcDbEntity
  8
image
100
AcDbLine
 10
1.584154482475194
 20
3.555612842463907
 30
0.0
 11
1.584154482475194
 21
3.823703797928961
 31
0.0
  0
LINE
  5
1A35
330
10C1
100
AcDbEntity
  8
image
100
AcDbLine
 10
2.115100241931376
 20
3.555612842463907
 30
0.0
 11
2.115100241931376
 21
3.823703797928961
 31
0.0
  0
ARC
  5
1A36
330
10C1
100
AcDbEntity
  8
image
100
AcDbCircle
 10
2.168523093908337
 20
3.838694291222231
 30
0.0
 40
0.0160538934316793
100
AcDbArc
 50
290.9711737165133
 51
21.77007082216946
  0
LINE
  5
1A37
330
10C1
100
AcDbEntity
  8
image
100
AcDbLine
 10
1.849627362203287
 20
7.884339265959219
 30
0.0
 11
1.568184220479715
 21
7.884339265959223
 31
0.0
  0
LINE
  5
1A38
330
10C1
100
AcDbEntity
  8
image
100
AcDbLine
 10
1.596274534279853
 20
7.642731632685505
 30
0.0
 11
1.559319063014032
 21
7.642731632685501
 31
0.0
  0
LINE
  5
1A39
330
10C1
100
AcDbEntity
  8
image
100
AcDbLine
 10
1.849627362203285
 20
7.682747434213036
 30
0.0
 11
1.4621521531327
 21
7.682747434213041
 31
0.0
  0
LINE
  5
1A3A
330
10C1
100
AcDbEntity
  8
image
100
AcDbLine
 10
1.417644865604322
 20
7.444502542149365
 30
0.0
 11
2.281609858802248
 21
7.444502542149365
 31
0.0
  0
LINE
  5
1A3B
330
10C1
100
AcDbEntity
  8
image
100
AcDbLine
 10
1.417644865604322
 20
7.405231406094914
 30
0.0
 11
2.281609858802248
 21
7.405231406094914
 31
0.0
  0
LINE
  5
1A3C
330
10C1
100
AcDbEntity
  8
image
100
AcDbLine
 10
1.435880659245956
 20
7.642731632685499
 30
0.0
 11
1.435880659245958
 21
7.444502542149365
 31
0.0
  0
LINE
  5
1A3D
330
10C1
100
AcDbEntity
  8
image
100
AcDbLine
 10
1.455949694391345
 20
7.642731632685499
 30
0.0
 11
1.455949694391345
 21
7.444502542149365
 31
0.0
  0
LINE
  5
1A3E
330
10C1
100
AcDbEntity
  8
image
100
AcDbLine
 10
1.559319063014028
 20
7.44450254214937
 30
0.0
 11
1.559319063014032
 21
7.642731632685507
 31
0.0
  0
LINE
  5
1A3F
330
10C1
100
AcDbEntity
  8
image
100
AcDbLine
 10
1.511755929295876
 20
7.44450254214937
 30
0.0
 11
1.51175592929588
 21
7.642731632685507
 31
0.0
  0
LINE
  5
1A40
330
10C1
100
AcDbEntity
  8
image
100
AcDbLine
 10
1.484739914706951
 20
7.44450254214937
 30
0.0
 11
1.484739914706955
 21
7.642731632685507
 31
0.0
  0
LINE
  5
1A41
330
10C1
100
AcDbEntity
  8
image
100
AcDbLine
 10
1.417644865604322
 20
7.405231406094914
 30
0.0
 11
1.417644865604322
 21
7.630385919473768
 31
0.0
  0
LINE
  5
1A42
330
10C1
100
AcDbEntity
  8
image
100
AcDbLine
 10
1.4621521531327
 20
7.682747434213041
 30
0.0
 11
1.568184220479717
 21
7.884339265959223
 31
0.0
  0
LINE
  5
1A43
330
10C1
100
AcDbEntity
  8
image
100
AcDbLine
 10
1.568184220479717
 20
7.682747434213039
 30
0.0
 11
1.568184220479717
 21
7.884339265959223
 31
0.0
  0
LINE
  5
1A44
330
10C1
100
AcDbEntity
  8
image
100
AcDbLine
 10
1.4621521531327
 20
7.682747434213041
 30
0.0
 11
1.41764486560432
 21
7.630385919473766
 31
0.0
  0
LINE
  5
1A45
330
10C1
100
AcDbEntity
  8
image
100
AcDbLine
 10
1.455949694391345
 20
7.642731632685499
 30
0.0
 11
1.435880659245956
 21
7.642731632685499
 31
0.0
  0
LINE
  5
1A46
330
10C1
100
AcDbEntity
  8
image
100
AcDbLine
 10
1.435880659245955
 20
7.630385919473772
 30
0.0
 11
1.417644865604322
 21
7.63038591947377
 31
0.0
  0
LINE
  5
1A47
330
10C1
100
AcDbEntity
  8
image
100
AcDbLine
 10
1.511755929295877
 20
7.642731632685505
 30
0.0
 11
1.484739914706953
 21
7.642731632685503
 31
0.0
  0
LINE
  5
1A48
330
10C1
100
AcDbEntity
  8
image
100
AcDbLine
 10
1.484739914706953
 20
7.630385919473772
 30
0.0
 11
1.455949694391345
 21
7.630385919473772
 31
0.0
  0
LINE
  5
1A49
330
10C1
100
AcDbEntity
  8
image
100
AcDbLine
 10
1.55931906301403
 20
7.630385919473766
 30
0.0
 11
1.511755929295877
 21
7.630385919473768
 31
0.0
  0
LINE
  5
1A4A
330
10C1
100
AcDbEntity
  8
image
100
AcDbLine
 10
2.085254178529992
 20
7.905283871854928
 30
0.0
 11
2.085254178529992
 21
7.884339265959221
 31
0.0
  0
LINE
  5
1A4B
330
10C1
100
AcDbEntity
  8
image
100
AcDbLine
 10
1.614000545876578
 20
7.884339265959223
 30
0.0
 11
1.614000545876578
 21
7.90528387185493
 31
0.0
  0
LINE
  5
1A4C
330
10C1
100
AcDbEntity
  8
image
100
AcDbLine
 10
2.021841174318528
 20
7.884339265959221
 30
0.0
 11
2.078552262828983
 21
7.682747434213037
 31
0.0
  0
LINE
  5
1A4D
330
10C1
100
AcDbEntity
  8
image
100
AcDbLine
 10
2.035071303453423
 20
7.884339265959223
 30
0.0
 11
2.091782391963877
 21
7.682747434213039
 31
0.0
  0
LINE
  5
1A4E
330
10C1
100
AcDbEntity
  8
image
100
AcDbLine
 10
1.849627362203283
 20
7.884339265959219
 30
0.0
 11
2.131070503926852
 21
7.884339265959221
 31
0.0
  0
LINE
  5
1A4F
330
10C1
100
AcDbEntity
  8
image
100
AcDbLine
 10
1.849627362203285
 20
7.682747434213036
 30
0.0
 11
2.237102571273869
 21
7.682747434213041
 31
0.0
  0
LINE
  5
1A50
330
10C1
100
AcDbEntity
  8
image
100
AcDbLine
 10
2.045716626801242
 20
7.63038591947377
 30
0.0
 11
2.102980190126717
 21
7.630385919473768
 31
0.0
  0
LINE
  5
1A51
330
10C1
100
AcDbEntity
  8
image
100
AcDbLine
 10
1.59627453427985
 20
7.444502542149368
 30
0.0
 11
1.596274534279853
 21
7.642731632685505
 31
0.0
  0
LINE
  5
1A52
330
10C1
100
AcDbEntity
  8
image
100
AcDbLine
 10
1.761921825015007
 20
7.444502542149367
 30
0.0
 11
1.76192182501501
 21
7.642731632685503
 31
0.0
  0
LINE
  5
1A53
330
10C1
100
AcDbEntity
  8
image
100
AcDbLine
 10
1.698180759560532
 20
7.444502542149367
 30
0.0
 11
1.698180759560535
 21
7.642731632685503
 31
0.0
  0
LINE
  5
1A54
330
10C1
100
AcDbEntity
  8
image
100
AcDbLine
 10
1.653538097605327
 20
7.444502542149368
 30
0.0
 11
1.65353809760533
 21
7.642731632685505
 31
0.0
  0
LINE
  5
1A55
330
10C1
100
AcDbEntity
  8
image
100
AcDbLine
 10
2.045716626801243
 20
7.444502542149368
 30
0.0
 11
2.04571662680124
 21
7.642731632685505
 31
0.0
  0
LINE
  5
1A56
330
10C1
100
AcDbEntity
  8
image
100
AcDbLine
 10
2.001073964846038
 20
7.444502542149367
 30
0.0
 11
2.001073964846034
 21
7.642731632685503
 31
0.0
  0
LINE
  5
1A57
330
10C1
100
AcDbEntity
  8
image
100
AcDbLine
 10
1.937332899391563
 20
7.444502542149367
 30
0.0
 11
1.93733289939156
 21
7.642731632685503
 31
0.0
  0
LINE
  5
1A58
330
10C1
100
AcDbEntity
  8
image
100
AcDbLine
 10
1.814283339754281
 20
7.444502542149365
 30
0.0
 11
1.814283339754281
 21
7.642731632685501
 31
0.0
  0
LINE
  5
1A59
330
10C1
100
AcDbEntity
  8
image
100
AcDbLine
 10
1.884971384652294
 20
7.444502542149365
 30
0.0
 11
1.884971384652291
 21
7.642731632685501
 31
0.0
  0
LINE
  5
1A5A
330
10C1
100
AcDbEntity
  8
image
100
AcDbLine
 10
1.814283339754279
 20
7.630385919473768
 30
0.0
 11
1.884971384652292
 21
7.630385919473768
 31
0.0
  0
LINE
  5
1A5B
330
10C1
100
AcDbEntity
  8
image
100
AcDbLine
 10
1.664183420953151
 20
7.884339265959223
 30
0.0
 11
1.607472332442696
 21
7.682747434213039
 31
0.0
  0
LINE
  5
1A5C
330
10C1
100
AcDbEntity
  8
image
100
AcDbLine
 10
1.677413550088046
 20
7.884339265959221
 30
0.0
 11
1.62070246157759
 21
7.682747434213037
 31
0.0
  0
LINE
  5
1A5D
330
10C1
100
AcDbEntity
  8
image
100
AcDbLine
 10
1.677413550088046
 20
7.884339265959221
 30
0.0
 11
1.677413550088044
 21
7.682747434213039
 31
0.0
  0
LINE
  5
1A5E
330
10C1
100
AcDbEntity
  8
image
100
AcDbLine
 10
1.761921825015007
 20
7.630385919473768
 30
0.0
 11
1.698180759560537
 21
7.630385919473772
 31
0.0
  0
LINE
  5
1A5F
330
10C1
100
AcDbEntity
  8
image
100
AcDbLine
 10
1.653538097605328
 20
7.63038591947377
 30
0.0
 11
1.596274534279852
 21
7.630385919473768
 31
0.0
  0
LINE
  5
1A60
330
10C1
100
AcDbEntity
  8
image
100
AcDbLine
 10
1.698180759560535
 20
7.642731632685503
 30
0.0
 11
1.65353809760533
 21
7.642731632685499
 31
0.0
  0
LINE
  5
1A61
330
10C1
100
AcDbEntity
  8
image
100
AcDbLine
 10
1.814283339754279
 20
7.642731632685501
 30
0.0
 11
1.761921825015012
 21
7.642731632685501
 31
0.0
  0
LINE
  5
1A62
330
10C1
100
AcDbEntity
  8
image
100
AcDbLine
 10
2.021841174318528
 20
7.884339265959221
 30
0.0
 11
2.02184117431853
 21
7.682747434213039
 31
0.0
  0
LINE
  5
1A63
330
10C1
100
AcDbEntity
  8
image
100
AcDbLine
 10
1.865335816625066
 20
7.682747434213036
 30
0.0
 11
1.865335816625066
 21
7.884339265959219
 31
0.0
  0
LINE
  5
1A64
330
10C1
100
AcDbEntity
  8
image
100
AcDbLine
 10
1.833918907781504
 20
7.682747434213036
 30
0.0
 11
1.833918907781504
 21
7.884339265959219
 31
0.0
  0
LINE
  5
1A65
330
10C1
100
AcDbEntity
  8
image
100
AcDbLine
 10
1.937332899391563
 20
7.630385919473768
 30
0.0
 11
2.001073964846032
 21
7.630385919473772
 31
0.0
  0
LINE
  5
1A66
330
10C1
100
AcDbEntity
  8
image
100
AcDbLine
 10
1.884971384652291
 20
7.642731632685501
 30
0.0
 11
1.937332899391558
 21
7.642731632685501
 31
0.0
  0
LINE
  5
1A67
330
10C1
100
AcDbEntity
  8
image
100
AcDbLine
 10
2.001073964846034
 20
7.642731632685503
 30
0.0
 11
2.04571662680124
 21
7.642731632685499
 31
0.0
  0
LINE
  5
1A68
330
10C1
100
AcDbEntity
  8
image
100
AcDbLine
 10
2.214514809699619
 20
7.44450254214937
 30
0.0
 11
2.214514809699614
 21
7.642731632685507
 31
0.0
  0
LINE
  5
1A69
330
10C1
100
AcDbEntity
  8
image
100
AcDbLine
 10
2.187498795110693
 20
7.44450254214937
 30
0.0
 11
2.18749879511069
 21
7.642731632685507
 31
0.0
  0
LINE
  5
1A6A
330
10C1
100
AcDbEntity
  8
image
100
AcDbLine
 10
2.139935661392541
 20
7.44450254214937
 30
0.0
 11
2.139935661392537
 21
7.642731632685507
 31
0.0
  0
LINE
  5
1A6B
330
10C1
100
AcDbEntity
  8
image
100
AcDbLine
 10
2.10298019012672
 20
7.444502542149368
 30
0.0
 11
2.102980190126716
 21
7.642731632685505
 31
0.0
  0
LINE
  5
1A6C
330
10C1
100
AcDbEntity
  8
image
100
AcDbLine
 10
2.243305030015224
 20
7.642731632685499
 30
0.0
 11
2.243305030015224
 21
7.444502542149365
 31
0.0
  0
LINE
  5
1A6D
330
10C1
100
AcDbEntity
  8
image
100
AcDbLine
 10
2.263374065160613
 20
7.642731632685499
 30
0.0
 11
2.263374065160611
 21
7.444502542149365
 31
0.0
  0
LINE
  5
1A6E
330
10C1
100
AcDbEntity
  8
image
100
AcDbLine
 10
2.281609858802248
 20
7.405231406094914
 30
0.0
 11
2.281609858802248
 21
7.630385919473766
 31
0.0
  0
LINE
  5
1A6F
330
10C1
100
AcDbEntity
  8
image
100
AcDbLine
 10
2.131070503926853
 20
7.884339265959223
 30
0.0
 11
2.237102571273869
 21
7.682747434213041
 31
0.0
  0
LINE
  5
1A70
330
10C1
100
AcDbEntity
  8
image
100
AcDbLine
 10
2.131070503926853
 20
7.682747434213039
 30
0.0
 11
2.131070503926853
 21
7.884339265959223
 31
0.0
  0
LINE
  5
1A71
330
10C1
100
AcDbEntity
  8
image
100
AcDbLine
 10
2.187498795110692
 20
7.642731632685505
 30
0.0
 11
2.214514809699617
 21
7.642731632685503
 31
0.0
  0
LINE
  5
1A72
330
10C1
100
AcDbEntity
  8
image
100
AcDbLine
 10
2.102980190126716
 20
7.642731632685505
 30
0.0
 11
2.139935661392537
 21
7.642731632685501
 31
0.0
  0
LINE
  5
1A73
330
10C1
100
AcDbEntity
  8
image
100
AcDbLine
 10
2.139935661392539
 20
7.630385919473766
 30
0.0
 11
2.187498795110692
 21
7.630385919473768
 31
0.0
  0
LINE
  5
1A74
330
10C1
100
AcDbEntity
  8
image
100
AcDbLine
 10
2.243305030015224
 20
7.642731632685499
 30
0.0
 11
2.263374065160613
 21
7.642731632685499
 31
0.0
  0
LINE
  5
1A75
330
10C1
100
AcDbEntity
  8
image
100
AcDbLine
 10
2.237102571273869
 20
7.682747434213041
 30
0.0
 11
2.28160985880225
 21
7.630385919473766
 31
0.0
  0
LINE
  5
1A76
330
10C1
100
AcDbEntity
  8
image
100
AcDbLine
 10
2.214514809699617
 20
7.630385919473772
 30
0.0
 11
2.243305030015224
 21
7.630385919473772
 31
0.0
  0
LINE
  5
1A77
330
10C1
100
AcDbEntity
  8
image
100
AcDbLine
 10
2.263374065160614
 20
7.630385919473772
 30
0.0
 11
2.281609858802248
 21
7.63038591947377
 31
0.0
  0
LINE
  5
1A78
330
10C1
100
AcDbEntity
  8
image
100
AcDbLine
 10
1.849627362203283
 20
7.905283871854926
 30
0.0
 11
2.085254178529992
 21
7.905283871854928
 31
0.0
  0
LINE
  5
1A79
330
10C1
100
AcDbEntity
  8
image
100
AcDbLine
 10
1.849627362203287
 20
7.905283871854926
 30
0.0
 11
1.614000545876578
 21
7.90528387185493
 31
0.0
  0
LWPOLYLINE
  5
1A7A
330
10C1
100
AcDbEntity
  8
image
100
AcDbPolyline
 90
        4
 70
     1
 43
0.0
 10
1.523777335303608
 20
7.296214828895884
 10
1.523777335303608
 20
7.398319782637457
 10
2.170965657480965
 20
7.398319782637457
 10
2.170965657480965
 20
7.296214828895884
  0
LWPOLYLINE
  5
1A7B
330
10C1
100
AcDbEntity
  8
image
100
AcDbPolyline
 90
        3
 70
     0
 43
0.0
 10
2.170965657480965
 20
7.398319782637457
 10
2.354230959068405
 20
7.398319782637457
 10
2.354230959068405
 20
7.360357684451487
  0
LWPOLYLINE
  5
1A7C
330
10C1
100
AcDbEntity
  8
image
100
AcDbPolyline
 90
        4
 70
     1
 43
0.0
 10
2.262598308274685
 20
7.360357684451487
 10
2.262598308274685
 20
7.334176927081854
 10
2.616038532764747
 20
7.334176927081854
 10
2.616038532764747
 20
7.360357684451487
  0
LWPOLYLINE
  5
1A7D
330
10C1
100
AcDbEntity
  8
image
100
AcDbPolyline
 90
        3
 70
     0
 43
0.0
 10
2.354230959068405
 20
7.334176927081854
 10
2.354230959068405
 20
7.296214828895884
 10
2.170965657480965
 20
7.296214828895884
  0
LINE
  5
1A7E
330
10C1
100
AcDbEntity
  8
image
100
AcDbLine
 10
2.195151154871339
 20
7.398319782637457
 30
0.0
 11
2.195213359482456
 21
7.405231406094914
 31
0.0
  0
LINE
  5
1A7F
330
10C1
100
AcDbEntity
  8
image
100
AcDbLine
 10
2.085295892265664
 20
3.605047664940741
 30
0.0
 11
2.085295892265666
 21
3.844648403824668
 31
0.0
  0
LINE
  5
1A80
330
10C1
100
AcDbEntity
  8
image
100
AcDbLine
 10
2.024965123994724
 20
3.557922301675399
 30
0.0
 11
2.024965123994724
 21
3.823703797928961
 31
0.0
  0
LINE
  5
1A81
330
10C1
100
AcDbEntity
  8
image
100
AcDbLine
 10
2.085295892265664
 20
3.605047664940741
 30
0.0
 11
2.069472411523103
 21
3.605047664940741
 31
0.0
  0
LWPOLYLINE
  5
1A82
330
10C1
100
AcDbEntity
  8
image
100
AcDbPolyline
 90
        2
 70
     0
 43
0.0
 10
1.569493258348201
 20
3.503251327724639
 10
2.129761466058373
 20
3.503251327724639
  0
LWPOLYLINE
  5
1A83
330
10C1
100
AcDbEntity
  8
image
100
AcDbPolyline
 90
        2
 70
     0
 43
0.0
 10
1.569493258348201
 20
3.503251327724639
 10
1.584154482475193
 20
3.555612842463907
  0
LWPOLYLINE
  5
1A84
330
10C1
100
AcDbEntity
  8
image
100
AcDbPolyline
 90
        2
 70
     0
 43
0.0
 10
2.129761466058373
 20
3.503251327724639
 10
2.115100241931378
 20
3.555612842463906
  0
LWPOLYLINE
  5
1A85
330
10C1
100
AcDbEntity
  8
image
100
AcDbPolyline
 90
        2
 70
     0
 43
0.0
 10
1.871095583246387
 20
3.503251327724639
 10
1.871095583246387
 20
2.839307320830716
  0
LWPOLYLINE
  5
1A86
330
10C1
100
AcDbEntity
  8
image
100
AcDbPolyline
 90
        2
 70
     0
 43
0.0
 10
1.828159141160186
 20
3.503251327724639
 10
1.828159141160186
 20
2.839307320830716
  0
LWPOLYLINE
  5
1A87
330
10C1
100
AcDbEntity
  8
image
100
AcDbPolyline
 90
        2
 70
     0
 43
0.0
 10
1.658507833404956
 20
3.503251327724639
 10
2.040746891001615
 20
3.503251327724639
  0
LWPOLYLINE
  5
1A88
330
10C1
100
AcDbEntity
  8
image
100
AcDbPolyline
 90
        2
 70
     0
 43
0.0
 10
2.040746891001615
 20
3.503251327724639
 10
2.021629189950963
 20
3.130309097998051
  0
LWPOLYLINE
  5
1A89
330
10C1
100
AcDbEntity
  8
image
100
AcDbPolyline
 90
        2
 70
     0
 43
0.0
 10
1.658507833404956
 20
3.503251327724639
 10
1.67762553445561
 20
3.130309097998051
  0
LWPOLYLINE
  5
1A8A
330
10C1
100
AcDbEntity
  8
image
100
AcDbPolyline
 90
        2
 70
     0
 43
0.0
 10
1.642013956262088
 20
2.796370878744515
 10
2.057240768144485
 20
2.796370878744515
  0
LWPOLYLINE
  5
1A8B
330
10C1
100
AcDbEntity
  8
image
100
AcDbPolyline
 90
        2
 70
     0
 43
0.0
 10
1.630331453232709
 20
2.839307320830716
 10
2.083182837732669
 20
2.839307320830716
  0
LWPOLYLINE
  5
1A8C
330
10C1
100
AcDbEntity
  8
image
100
AcDbPolyline
 90
        3
 70
     0
 43
0.0
 10
2.031858878497796
 20
3.329866714573192
 10
2.031858878497796
 20
3.329866714573192
 10
2.129761466058373
 20
3.503251327724639
  0
ARC
  5
1A93
330
10C1
100
AcDbEntity
  8
image
100
AcDbCircle
 10
2.146471706241348
 20
3.287955504666522
 30
0.0
 40
0.6158379825566595
100
AcDbArc
 50
159.5372614874052
 51
194.8320667203905
  0
ARC
  5
1A9D
330
10C1
100
AcDbEntity
  8
image
100
AcDbCircle
 10
2.344638482074201
 20
3.024800172292974
 30
0.0
 40
0.3311752559996663
100
AcDbArc
 50
169.1090290672645
 51
185.0219351923089
  0
LINE
  5
1A9F
330
10C1
100
AcDbEntity
  8
image
100
AcDbLine
 10
2.119782186213152
 20
3.823703797928961
 30
0.0
 11
2.174268753586749
 21
3.823703797928961
 31
0.0
  0
LINE
  5
1AA0
330
10C1
100
AcDbEntity
  8
image
100
AcDbLine
 10
1.674142975241625
 20
3.557922301675399
 30
0.0
 11
1.674142975241625
 21
3.823703797928962
 31
0.0
  0
LINE
  5
1AA1
330
10C1
100
AcDbEntity
  8
image
100
AcDbLine
 10
1.613812206970687
 20
3.605047664940741
 30
0.0
 11
1.613812206970687
 21
3.844648403824668
 31
0.0
  0
LINE
  5
1AA3
330
10C1
100
AcDbEntity
  8
image
100
AcDbLine
 10
1.613812206970687
 20
3.605047664940741
 30
0.0
 11
1.629635687713247
 21
3.605047664940741
 31
0.0
  0
LINE
  5
1AA4
330
10C1
100
AcDbEntity
  8
image
100
AcDbLine
 10
2.085295892265664
 20
3.823703797928961
 30
0.0
 11
2.119782186213152
 21
3.823703797928961
 31
0.0
  0
LINE
  5
1AA5
330
10C1
100
AcDbEntity
  8
image
100
AcDbLine
 10
2.069472411523103
 20
3.605047664940741
 30
0.0
 11
2.069472411523103
 21
3.835051831330963
 31
0.0
  0
LINE
  5
1AA6
330
10C1
100
AcDbEntity
  8
image
100
AcDbLine
 10
1.629635687713248
 20
3.605047664940741
 30
0.0
 11
1.629635687713248
 21
3.835051831330964
 31
0.0
  0
LINE
  5
1AA9
330
10C1
100
AcDbEntity
  8
image
100
AcDbLine
 10
2.040788604737285
 20
3.5579223016754
 30
0.0
 11
2.024965123994724
 21
3.557922301675399
 31
0.0
  0
LINE
  5
1AAA
330
10C1
100
AcDbEntity
  8
image
100
AcDbLine
 10
1.658319494499065
 20
3.5579223016754
 30
0.0
 11
1.674142975241625
 21
3.557922301675399
 31
0.0
  0
LINE
  5
1AAB
330
10C1
100
AcDbEntity
  8
image
100
AcDbLine
 10
1.674142975241627
 20
3.823703797928962
 30
0.0
 11
2.024965123994725
 21
3.823703797928961
 31
0.0
  0
ARC
  5
1AAC
330
10C1
100
AcDbEntity
  8
image
100
AcDbCircle
 10
1.678377161850065
 20
3.933263786818711
 30
0.0
 40
0.1096417780855325
100
AcDbArc
 50
233.9230091132946
 51
267.7867801058023
  0
ARC
  5
1AAD
330
10C1
100
AcDbEntity
  8
image
100
AcDbCircle
 10
2.020730937386288
 20
3.933263786818711
 30
0.0
 40
0.1096417780855325
100
AcDbArc
 50
272.2132198941957
 51
306.0769908867054
  0
POLYLINE
  5
1AF7
330
10C1
100
AcDbEntity
  8
image
100
AcDb2dPolyline
 66
     1
 10
0.0
 20
0.0
 30
0.0
 70
     4
 75
     6
  0
VERTEX
  5
1CAA
330
1AF7
100
AcDbEntity
  8
image
100
AcDbVertex
100
AcDb2dVertex
 10
2.946987950754339
 20
7.69146863466198
 30
0.0
 70
    16
  0
VERTEX
  5
1CB4
330
1AF7
100
AcDbEntity
  8
image
100
AcDbVertex
100
AcDb2dVertex
 10
2.946987950754339
 20
7.69146863466198
 30
0.0
 70
     8
  0
VERTEX
  5
1CB5
330
1AF7
100
AcDbEntity
  8
image
100
AcDbVertex
100
AcDb2dVertex
 10
2.941622137920802
 20
7.692308277889452
 30
0.0
 70
     8
  0
VERTEX
  5
1CB6
330
1AF7
100
AcDbEntity
  8
image
100
AcDbVertex
100
AcDb2dVertex
 10
2.937026972284033
 20
7.693486869396011
 30
0.0
 70
     8
  0
VERTEX
  5
1CB7
330
1AF7
100
AcDbEntity
  8
image
100
AcDbVertex
100
AcDb2dVertex
 10
2.933127377322308
 20
7.694916131904111
 30
0.0
 70
     8
  0
VERTEX
  5
1CB8
330
1AF7
100
AcDbEntity
  8
image
100
AcDbVertex
100
AcDb2dVertex
 10
2.929848276513907
 20
7.69650778813621
 30
0.0
 70
     8
  0
VERTEX
  5
1CB9
330
1AF7
100
AcDbEntity
  8
image
100
AcDbVertex
100
AcDb2dVertex
 10
2.927114593337109
 20
7.698173560814762
 30
0.0
 70
     8
  0
VERTEX
  5
1CBA
330
1AF7
100
AcDbEntity
  8
image
100
AcDbVertex
100
AcDb2dVertex
 10
2.924851251270192
 20
7.699825172662221
 30
0.0
 70
     8
  0
VERTEX
  5
1CBB
330
1AF7
100
AcDbEntity
  8
image
100
AcDbVertex
100
AcDb2dVertex
 10
2.922983173791435
 20
7.701374346401044
 30
0.0
 70
     8
  0
VERTEX
  5
1CBC
330
1AF7
100
AcDbEntity
  8
image
100
AcDbVertex
100
AcDb2dVertex
 10
2.921435284379116
 20
7.702732804753684
 30
0.0
 70
     8
  0
VERTEX
  5
1CBD
330
1AF7
100
AcDbEntity
  8
image
100
AcDbVertex
100
AcDb2dVertex
 10
2.920117415059972
 20
7.703825531645933
 30
0.0
 70
     8
  0
VERTEX
  5
1CBE
330
1AF7
100
AcDbEntity
  8
image
100
AcDbVertex
100
AcDb2dVertex
 10
2.918879032054575
 20
7.704630555816919
 30
0.0
 70
     8
  0
VERTEX
  5
1CBF
330
1AF7
100
AcDbEntity
  8
image
100
AcDbVertex
100
AcDb2dVertex
 10
2.917554510131954
 20
7.705139167209102
 30
0.0
 70
     8
  0
VERTEX
  5
1CC0
330
1AF7
100
AcDbEntity
  8
image
100
AcDbVertex
100
AcDb2dVertex
 10
2.915978224061141
 20
7.705342655764946
 30
0.0
 70
     8
  0
VERTEX
  5
1CC1
330
1AF7
100
AcDbEntity
  8
image
100
AcDbVertex
100
AcDb2dVertex
 10
2.913984548611163
 20
7.705232311426912
 30
0.0
 70
     8
  0
VERTEX
  5
1CC2
330
1AF7
100
AcDbEntity
  8
image
100
AcDbVertex
100
AcDb2dVertex
 10
2.911407858551052
 20
7.704799424137463
 30
0.0
 70
     8
  0
VERTEX
  5
1CC3
330
1AF7
100
AcDbEntity
  8
image
100
AcDbVertex
100
AcDb2dVertex
 10
2.908082528649836
 20
7.704035283839061
 30
0.0
 70
     8
  0
VERTEX
  5
1CC4
330
1AF7
100
AcDbEntity
  8
image
100
AcDbVertex
100
AcDb2dVertex
 10
2.903842933676547
 20
7.702931180474169
 30
0.0
 70
     8
  0
VERTEX
  5
1CC5
330
1AF7
100
AcDbEntity
  8
image
100
AcDbVertex
100
AcDb2dVertex
 10
2.898528591892024
 20
7.701486235296642
 30
0.0
 70
     8
  0
VERTEX
  5
1CC6
330
1AF7
100
AcDbEntity
  8
image
100
AcDbVertex
100
AcDb2dVertex
 10
2.891999595524349
 20
7.699730894805924
 30
0.0
 70
     8
  0
VERTEX
  5
1CC7
330
1AF7
100
AcDbEntity
  8
image
100
AcDbVertex
100
AcDb2dVertex
 10
2.884121180293416
 20
7.697703436812846
 30
0.0
 70
     8
  0
VERTEX
  5
1CC8
330
1AF7
100
AcDbEntity
  8
image
100
AcDbVertex
100
AcDb2dVertex
 10
2.874758581919117
 20
7.695442139128246
 30
0.0
 70
     8
  0
VERTEX
  5
1CC9
330
1AF7
100
AcDbEntity
  8
image
100
AcDbVertex
100
AcDb2dVertex
 10
2.863777036121344
 20
7.69298527956296
 30
0.0
 70
     8
  0
VERTEX
  5
1CCA
330
1AF7
100
AcDbEntity
  8
image
100
AcDbVertex
100
AcDb2dVertex
 10
2.851041778619992
 20
7.690371135927821
 30
0.0
 70
     8
  0
VERTEX
  5
1CCB
330
1AF7
100
AcDbEntity
  8
image
100
AcDbVertex
100
AcDb2dVertex
 10
2.836418045134952
 20
7.687637986033666
 30
0.0
 70
     8
  0
VERTEX
  5
1CCC
330
1AF7
100
AcDbEntity
  8
image
100
AcDbVertex
100
AcDb2dVertex
 10
2.819771071386117
 20
7.684824107691331
 30
0.0
 70
     8
  0
VERTEX
  5
1CCD
330
1AF7
100
AcDbEntity
  8
image
100
AcDbVertex
100
AcDb2dVertex
 10
2.801031542826338
 20
7.681946984430626
 30
0.0
 70
     8
  0
VERTEX
  5
1CCE
330
1AF7
100
AcDbEntity
  8
image
100
AcDbVertex
100
AcDb2dVertex
 10
2.780391943840297
 20
7.678940922657271
 30
0.0
 70
     8
  0
VERTEX
  5
1CCF
330
1AF7
100
AcDbEntity
  8
image
100
AcDbVertex
100
AcDb2dVertex
 10
2.758110208545635
 20
7.675719434495961
 30
0.0
 70
     8
  0
VERTEX
  5
1CD0
330
1AF7
100
AcDbEntity
  8
image
100
AcDbVertex
100
AcDb2dVertex
 10
2.734444271059992
 20
7.672196032071392
 30
0.0
 70
     8
  0
VERTEX
  5
1CD1
330
1AF7
100
AcDbEntity
  8
image
100
AcDbVertex
100
AcDb2dVertex
 10
2.70965206550101
 20
7.668284227508258
 30
0.0
 70
     8
  0
VERTEX
  5
1CD2
330
1AF7
100
AcDbEntity
  8
image
100
AcDbVertex
100
AcDb2dVertex
 10
2.683991525986327
 20
7.663897532931255
 30
0.0
 70
     8
  0
VERTEX
  5
1CD3
330
1AF7
100
AcDbEntity
  8
image
100
AcDbVertex
100
AcDb2dVertex
 10
2.657720586633586
 20
7.658949460465079
 30
0.0
 70
     8
  0
VERTEX
  5
1CD4
330
1AF7
100
AcDbEntity
  8
image
100
AcDbVertex
100
AcDb2dVertex
 10
2.631097181560425
 20
7.653353522234424
 30
0.0
 70
     8
  0
VERTEX
  5
1CD5
330
1AF7
100
AcDbEntity
  8
image
100
AcDbVertex
100
AcDb2dVertex
 10
2.604361594825808
 20
7.647030726076223
 30
0.0
 70
     8
  0
VERTEX
  5
1CD6
330
1AF7
100
AcDbEntity
  8
image
100
AcDbVertex
100
AcDb2dVertex
 10
2.577683510253987
 20
7.639932062676354
 30
0.0
 70
     8
  0
VERTEX
  5
1CD7
330
1AF7
100
AcDbEntity
  8
image
100
AcDbVertex
100
AcDb2dVertex
 10
2.551214961610535
 20
7.632016018432934
 30
0.0
 70
     8
  0
VERTEX
  5
1CD8
330
1AF7
100
AcDbEntity
  8
image
100
AcDbVertex
100
AcDb2dVertex
 10
2.525107982661028
 20
7.623241079744076
 30
0.0
 70
     8
  0
VERTEX
  5
1CD9
330
1AF7
100
AcDbEntity
  8
image
100
AcDbVertex
100
AcDb2dVertex
 10
2.499514607171037
 20
7.613565733007897
 30
0.0
 70
     8
  0
VERTEX
  5
1CDA
330
1AF7
100
AcDbEntity
  8
image
100
AcDbVertex
100
AcDb2dVertex
 10
2.474586868906139
 20
7.602948464622512
 30
0.0
 70
     8
  0
VERTEX
  5
1CDB
330
1AF7
100
AcDbEntity
  8
image
100
AcDbVertex
100
AcDb2dVertex
 10
2.450476801631906
 20
7.591347760986035
 30
0.0
 70
     8
  0
VERTEX
  5
1CDC
330
1AF7
100
AcDbEntity
  8
image
100
AcDbVertex
100
AcDb2dVertex
 10
2.427336439113913
 20
7.578722108496585
 30
0.0
 70
     8
  0
VERTEX
  5
1CDD
330
1AF7
100
AcDbEntity
  8
image
100
AcDbVertex
100
AcDb2dVertex
 10
2.405304022009505
 20
7.564956717546394
 30
0.0
 70
     8
  0
VERTEX
  5
1CDE
330
1AF7
100
AcDbEntity
  8
image
100
AcDbVertex
100
AcDb2dVertex
 10
2.384462618543114
 20
7.549643694504181
 30
0.0
 70
     8
  0
VERTEX
  5
1CDF
330
1AF7
100
AcDbEntity
  8
image
100
AcDbVertex
100
AcDb2dVertex
 10
2.364881503830944
 20
7.532301869732788
 30
0.0
 70
     8
  0
VERTEX
  5
1CE0
330
1AF7
100
AcDbEntity
  8
image
100
AcDbVertex
100
AcDb2dVertex
 10
2.346629952989199
 20
7.512450073595051
 30
0.0
 70
     8
  0
VERTEX
  5
1CE1
330
1AF7
100
AcDbEntity
  8
image
100
AcDbVertex
100
AcDb2dVertex
 10
2.329777241134082
 20
7.489607136453811
 30
0.0
 70
     8
  0
VERTEX
  5
1CE2
330
1AF7
100
AcDbEntity
  8
image
100
AcDbVertex
100
AcDb2dVertex
 10
2.314392643381797
 20
7.463291888671905
 30
0.0
 70
     8
  0
VERTEX
  5
1CE3
330
1AF7
100
AcDbEntity
  8
image
100
AcDbVertex
100
AcDb2dVertex
 10
2.300545434848548
 20
7.433023160612175
 30
0.0
 70
     8
  0
VERTEX
  5
1CE4
330
1AF7
100
AcDbEntity
  8
image
100
AcDbVertex
100
AcDb2dVertex
 10
2.288304890650538
 20
7.398319782637458
 30
0.0
 70
     8
  0
VERTEX
  5
1CAB
330
1AF7
100
AcDbEntity
  8
image
100
AcDbVertex
100
AcDb2dVertex
 10
2.931584852249911
 20
7.693177283538638
 30
0.0
 70
    16
  0
VERTEX
  5
1CAC
330
1AF7
100
AcDbEntity
  8
image
100
AcDbVertex
100
AcDb2dVertex
 10
2.918820761235469
 20
7.705708726500098
 30
0.0
 70
    16
  0
VERTEX
  5
1CAD
330
1AF7
100
AcDbEntity
  8
image
100
AcDbVertex
100
AcDb2dVertex
 10
2.915361763575685
 20
7.706650360463807
 30
0.0
 70
    16
  0
VERTEX
  5
1CAE
330
1AF7
100
AcDbEntity
  8
image
100
AcDbVertex
100
AcDb2dVertex
 10
2.842789786521072
 20
7.685276914489683
 30
0.0
 70
    16
  0
VERTEX
  5
1CAF
330
1AF7
100
AcDbEntity
  8
image
100
AcDbVertex
100
AcDb2dVertex
 10
2.632105518656727
 20
7.661186627725442
 30
0.0
 70
    16
  0
VERTEX
  5
1CB0
330
1AF7
100
AcDbEntity
  8
image
100
AcDbVertex
100
AcDb2dVertex
 10
2.415371228214568
 20
7.590097708015091
 30
0.0
 70
    16
  0
VERTEX
  5
1CB1
330
1AF7
100
AcDbEntity
  8
image
100
AcDbVertex
100
AcDb2dVertex
 10
2.318742544850509
 20
7.497202696800828
 30
0.0
 70
    16
  0
VERTEX
  5
1CB2
330
1AF7
100
AcDbEntity
  8
image
100
AcDbVertex
100
AcDb2dVertex
 10
2.288304890650538
 20
7.398319782637457
 30
0.0
 70
    16
  0
SEQEND
  5
1CB3
330
1AF7
100
AcDbEntity
  8
image
  0
LWPOLYLINE
  5
1AF8
330
10C1
100
AcDbEntity
  8
image
100
AcDbPolyline
 90
        2
 70
     0
 43
0.0
 10
1.629635687713247
 20
3.605047664940741
 10
1.674142975241625
 20
3.557922301675399
  0
LWPOLYLINE
  5
1AF9
330
10C1
100
AcDbEntity
  8
image
100
AcDbPolyline
 90
        2
 70
     0
 43
0.0
 10
2.069472411523102
 20
3.605047664940741
 10
2.024965123994724
 20
3.557922301675399
  0
LWPOLYLINE
  5
1AFA
330
10C1
100
AcDbEntity
  8
image
100
AcDbPolyline
 90
        2
 70
     0
 43
0.0
 10
1.613812206970687
 20
3.605047664940741
 10
1.658319494499065
 20
3.5579223016754
  0
LWPOLYLINE
  5
1AFB
330
10C1
100
AcDbEntity
  8
image
100
AcDbPolyline
 90
        2
 70
     0
 43
0.0
 10
2.085295892265664
 20
3.605047664940741
 10
2.040788604737286
 20
3.5579223016754
  0
LWPOLYLINE
  5
1AFC
330
10C1
100
AcDbEntity
  8
image
100
AcDbPolyline
 90
        2
 70
     0
 43
0.0
 10
2.070056378039031
 20
3.08737265591185
 10
2.014734522350544
 20
2.995810043885255
  0
LWPOLYLINE
  5
1AFD
330
10C1
100
AcDbEntity
  8
image
100
AcDbPolyline
 90
        2
 70
     0
 43
0.0
 10
2.140135629189371
 20
3.130309097998051
 10
2.157640598658388
 20
3.232332363290047
  0
LWPOLYLINE
  5
1AFE
330
10C1
100
AcDbEntity
  8
image
100
AcDbPolyline
 90
        2
 70
     0
 43
0.0
 10
2.024678743054741
 20
3.189798841622514
 10
2.106574516302528
 20
3.263186337157097
  0
LWPOLYLINE
  5
1AFF
330
10C1
100
AcDbEntity
  8
image
100
AcDbPolyline
 90
        2
 70
     0
 43
0.0
 10
2.174679001566471
 20
3.26053244182339
 10
2.157640598658388
 20
3.232332363290047
  0
LWPOLYLINE
  5
1B00
330
10C1
100
AcDbEntity
  8
image
100
AcDbPolyline
 90
        2
 70
     0
 43
0.0
 10
2.123000381255464
 20
3.290372610668162
 10
2.106574516302528
 20
3.263186337157097
  0
LWPOLYLINE
  5
1B01
330
10C1
100
AcDbEntity
  8
image
100
AcDbPolyline
 90
        2
 70
     0
 43
0.0
 10
2.331167417075954
 20
3.34289684783948
 10
2.387450120226975
 20
3.34289684783948
  0
LWPOLYLINE
  5
1B02
330
10C1
100
AcDbEntity
  8
image
100
AcDbPolyline
 90
        2
 70
     0
 43
0.0
 10
2.331167417075954
 20
3.34289684783948
 10
2.202722535944212
 20
3.130309097998051
  0
LWPOLYLINE
  5
1B03
330
10C1
100
AcDbEntity
  8
image
100
AcDbPolyline
 90
        2
 70
     0
 43
0.0
 10
2.014734522350544
 20
2.99581004388526
 10
2.006711906421092
 20
2.839307320830716
  0
LWPOLYLINE
  5
1B04
330
10C1
100
AcDbEntity
  8
image
100
AcDbPolyline
 90
        2
 70
     0
 43
0.0
 10
1.679826535035738
 20
3.087372655911851
 10
1.692542817985481
 20
2.839307320830716
  0
LWPOLYLINE
  5
1B05
330
10C1
100
AcDbEntity
  8
image
100
AcDbPolyline
 90
        2
 70
     0
 43
0.0
 10
1.828159141160186
 20
3.087372655911851
 10
1.562835780844414
 20
3.087372655911851
  0
LWPOLYLINE
  5
1B06
330
10C1
100
AcDbEntity
  8
image
100
AcDbPolyline
 90
        2
 70
     0
 43
0.0
 10
1.828159141160186
 20
3.130309097998051
 10
1.551153277815034
 20
3.130309097998051
  0
LWPOLYLINE
  5
1B07
330
10C1
100
AcDbEntity
  8
image
100
AcDbPolyline
 90
        2
 70
     0
 43
0.0
 10
2.202722535944212
 20
3.130309097998051
 10
1.871095583246387
 20
3.130309097998051
  0
LWPOLYLINE
  5
1B08
330
10C1
100
AcDbEntity
  8
image
100
AcDbPolyline
 90
        2
 70
     0
 43
0.0
 10
1.642013956262088
 20
2.796370878744515
 10
1.551153277815034
 20
3.130309097998051
  0
LWPOLYLINE
  5
1B09
330
10C1
100
AcDbEntity
  8
image
100
AcDbPolyline
 90
        2
 70
     0
 43
0.0
 10
2.233063169507049
 20
3.087372655911851
 10
1.871095583246387
 20
3.087372655911851
  0
LWPOLYLINE
  5
1B0A
330
10C1
100
AcDbEntity
  8
image
100
AcDbPolyline
 90
        2
 70
     0
 43
0.0
 10
2.387450120226975
 20
3.34289684783948
 10
2.057240768144485
 20
2.796370878744515
  0
POLYLINE
  5
1B58
330
10C1
100
AcDbEntity
  8
image
100
AcDb2dPolyline
 66
     1
 10
0.0
 20
0.0
 30
0.0
 70
     4
 75
     6
  0
VERTEX
  5
1B5A
330
1B58
100
AcDbEntity
  8
image
100
AcDbVertex
100
AcDb2dVertex
 10
2.117740606349576
 20
3.293409699706775
 30
0.0
 70
    16
  0
VERTEX
  5
1B6E
330
1B58
100
AcDbEntity
  8
image
100
AcDbVertex
100
AcDb2dVertex
 10
2.117740606349576
 20
3.293409699706775
 30
0.0
 70
     8
  0
VERTEX
  5
1B6F
330
1B58
100
AcDbEntity
  8
image
100
AcDbVertex
100
AcDb2dVertex
 10
2.119812477540346
 20
3.297973245389467
 30
0.0
 70
     8
  0
VERTEX
  5
1B70
330
1B58
100
AcDbEntity
  8
image
100
AcDbVertex
100
AcDb2dVertex
 10
2.121344916692926
 20
3.301722295351024
 30
0.0
 70
     8
  0
VERTEX
  5
1B71
330
1B58
100
AcDbEntity
  8
image
100
AcDbVertex
100
AcDb2dVertex
 10
2.122406660855553
 20
3.304772990486561
 30
0.0
 70
     8
  0
VERTEX
  5
1B72
330
1B58
100
AcDbEntity
  8
image
100
AcDbVertex
100
AcDb2dVertex
 10
2.123066447076463
 20
3.307241471691193
 30
0.0
 70
     8
  0
VERTEX
  5
1B73
330
1B58
100
AcDbEntity
  8
image
100
AcDbVertex
100
AcDb2dVertex
 10
2.123393012403893
 20
3.309243879860033
 30
0.0
 70
     8
  0
VERTEX
  5
1B74
330
1B58
100
AcDbEntity
  8
image
100
AcDbVertex
100
AcDb2dVertex
 10
2.123455093886079
 20
3.310896355888198
 30
0.0
 70
     8
  0
VERTEX
  5
1B75
330
1B58
100
AcDbEntity
  8
image
100
AcDbVertex
100
AcDb2dVertex
 10
2.123321428571258
 20
3.312315040670799
 30
0.0
 70
     8
  0
VERTEX
  5
1B76
330
1B58
100
AcDbEntity
  8
image
100
AcDbVertex
100
AcDb2dVertex
 10
2.123060753507665
 20
3.313616075102954
 30
0.0
 70
     8
  0
VERTEX
  5
1B77
330
1B58
100
AcDbEntity
  8
image
100
AcDbVertex
100
AcDb2dVertex
 10
2.122732958073858
 20
3.314894107104176
 30
0.0
 70
     8
  0
VERTEX
  5
1B78
330
1B58
100
AcDbEntity
  8
image
100
AcDbVertex
100
AcDb2dVertex
 10
2.122362540969674
 20
3.316157812691585
 30
0.0
 70
     8
  0
VERTEX
  5
1B79
330
1B58
100
AcDbEntity
  8
image
100
AcDbVertex
100
AcDb2dVertex
 10
2.121965153225271
 20
3.317394374906702
 30
0.0
 70
     8
  0
VERTEX
  5
1B7A
330
1B58
100
AcDbEntity
  8
image
100
AcDbVertex
100
AcDb2dVertex
 10
2.121556445870804
 20
3.318590976791047
 30
0.0
 70
     8
  0
VERTEX
  5
1B7B
330
1B58
100
AcDbEntity
  8
image
100
AcDbVertex
100
AcDb2dVertex
 10
2.121152069936432
 20
3.31973480138614
 30
0.0
 70
     8
  0
VERTEX
  5
1B7C
330
1B58
100
AcDbEntity
  8
image
100
AcDbVertex
100
AcDb2dVertex
 10
2.120767676452312
 20
3.320813031733502
 30
0.0
 70
     8
  0
VERTEX
  5
1B7D
330
1B58
100
AcDbEntity
  8
image
100
AcDbVertex
100
AcDb2dVertex
 10
2.120418916448602
 20
3.321812850874653
 30
0.0
 70
     8
  0
VERTEX
  5
1B7E
330
1B58
100
AcDbEntity
  8
image
100
AcDbVertex
100
AcDb2dVertex
 10
2.120121440955459
 20
3.322721441851113
 30
0.0
 70
     8
  0
VERTEX
  5
1B7F
330
1B58
100
AcDbEntity
  8
image
100
AcDbVertex
100
AcDb2dVertex
 10
2.119887713968394
 20
3.323530590182901
 30
0.0
 70
     8
  0
VERTEX
  5
1B80
330
1B58
100
AcDbEntity
  8
image
100
AcDbVertex
100
AcDb2dVertex
 10
2.119717451344337
 20
3.324250491304029
 30
0.0
 70
     8
  0
VERTEX
  5
1B81
330
1B58
100
AcDbEntity
  8
image
100
AcDbVertex
100
AcDb2dVertex
 10
2.119607181905573
 20
3.324895943127005
 30
0.0
 70
     8
  0
VERTEX
  5
1B82
330
1B58
100
AcDbEntity
  8
image
100
AcDbVertex
100
AcDb2dVertex
 10
2.119553434474384
 20
3.325481743564338
 30
0.0
 70
     8
  0
VERTEX
  5
1B83
330
1B58
100
AcDbEntity
  8
image
100
AcDbVertex
100
AcDb2dVertex
 10
2.119552737873056
 20
3.326022690528539
 30
0.0
 70
     8
  0
VERTEX
  5
1B84
330
1B58
100
AcDbEntity
  8
image
100
AcDbVertex
100
AcDb2dVertex
 10
2.119601620923872
 20
3.326533581932117
 30
0.0
 70
     8
  0
VERTEX
  5
1B85
330
1B58
100
AcDbEntity
  8
image
100
AcDbVertex
100
AcDb2dVertex
 10
2.119696612449115
 20
3.32702921568758
 30
0.0
 70
     8
  0
VERTEX
  5
1B86
330
1B58
100
AcDbEntity
  8
image
100
AcDbVertex
100
AcDb2dVertex
 10
2.119834241271071
 20
3.32752438970744
 30
0.0
 70
     8
  0
VERTEX
  5
1B87
330
1B58
100
AcDbEntity
  8
image
100
AcDbVertex
100
AcDb2dVertex
 10
2.120027413884641
 20
3.328045849116637
 30
0.0
 70
     8
  0
VERTEX
  5
1B88
330
1B58
100
AcDbEntity
  8
image
100
AcDbVertex
100
AcDb2dVertex
 10
2.120354547475209
 20
3.328668127889846
 30
0.0
 70
     8
  0
VERTEX
  5
1B89
330
1B58
100
AcDbEntity
  8
image
100
AcDbVertex
100
AcDb2dVertex
 10
2.120910436900773
 20
3.329477707214172
 30
0.0
 70
     8
  0
VERTEX
  5
1B8A
330
1B58
100
AcDbEntity
  8
image
100
AcDbVertex
100
AcDb2dVertex
 10
2.121789877019335
 20
3.330561068276721
 30
0.0
 70
     8
  0
VERTEX
  5
1B8B
330
1B58
100
AcDbEntity
  8
image
100
AcDbVertex
100
AcDb2dVertex
 10
2.123087662688894
 20
3.332004692264601
 30
0.0
 70
     8
  0
VERTEX
  5
1B8C
330
1B58
100
AcDbEntity
  8
image
100
AcDbVertex
100
AcDb2dVertex
 10
2.124898588767452
 20
3.333895060364917
 30
0.0
 70
     8
  0
VERTEX
  5
1B8D
330
1B58
100
AcDbEntity
  8
image
100
AcDbVertex
100
AcDb2dVertex
 10
2.12731745011301
 20
3.336318653764775
 30
0.0
 70
     8
  0
VERTEX
  5
1B8E
330
1B58
100
AcDbEntity
  8
image
100
AcDbVertex
100
AcDb2dVertex
 10
2.130439041583567
 20
3.339361953651282
 30
0.0
 70
     8
  0
VERTEX
  5
1B8F
330
1B58
100
AcDbEntity
  8
image
100
AcDbVertex
100
AcDb2dVertex
 10
2.134345149217441
 20
3.343138482044341
 30
0.0
 70
     8
  0
VERTEX
  5
1B90
330
1B58
100
AcDbEntity
  8
image
100
AcDbVertex
100
AcDb2dVertex
 10
2.139065523774224
 20
3.347869924295047
 30
0.0
 70
     8
  0
VERTEX
  5
1B91
330
1B58
100
AcDbEntity
  8
image
100
AcDbVertex
100
AcDb2dVertex
 10
2.144616907193825
 20
3.353805006587292
 30
0.0
 70
     8
  0
VERTEX
  5
1B92
330
1B58
100
AcDbEntity
  8
image
100
AcDbVertex
100
AcDb2dVertex
 10
2.151016041416151
 20
3.361192455104969
 30
0.0
 70
     8
  0
VERTEX
  5
1B93
330
1B58
100
AcDbEntity
  8
image
100
AcDbVertex
100
AcDb2dVertex
 10
2.158279668381112
 20
3.370280996031969
 30
0.0
 70
     8
  0
VERTEX
  5
1B94
330
1B58
100
AcDbEntity
  8
image
100
AcDbVertex
100
AcDb2dVertex
 10
2.166424530028616
 20
3.381319355552184
 30
0.0
 70
     8
  0
VERTEX
  5
1B95
330
1B58
100
AcDbEntity
  8
image
100
AcDbVertex
100
AcDb2dVertex
 10
2.175467368298572
 20
3.394556259849507
 30
0.0
 70
     8
  0
VERTEX
  5
1B96
330
1B58
100
AcDbEntity
  8
image
100
AcDbVertex
100
AcDb2dVertex
 10
2.185424925130888
 20
3.41024043510783
 30
0.0
 70
     8
  0
VERTEX
  5
1B97
330
1B58
100
AcDbEntity
  8
image
100
AcDbVertex
100
AcDb2dVertex
 10
2.196261884237002
 20
3.428528442033855
 30
0.0
 70
     8
  0
VERTEX
  5
1B98
330
1B58
100
AcDbEntity
  8
image
100
AcDbVertex
100
AcDb2dVertex
 10
2.207734696414468
 20
3.449208179425534
 30
0.0
 70
     8
  0
VERTEX
  5
1B99
330
1B58
100
AcDbEntity
  8
image
100
AcDbVertex
100
AcDb2dVertex
 10
2.219547754232365
 20
3.471975380603628
 30
0.0
 70
     8
  0
VERTEX
  5
1B9A
330
1B58
100
AcDbEntity
  8
image
100
AcDbVertex
100
AcDb2dVertex
 10
2.231405450259775
 20
3.496525778888898
 30
0.0
 70
     8
  0
VERTEX
  5
1B9B
330
1B58
100
AcDbEntity
  8
image
100
AcDbVertex
100
AcDb2dVertex
 10
2.243012177065781
 20
3.522555107602106
 30
0.0
 70
     8
  0
VERTEX
  5
1B9C
330
1B58
100
AcDbEntity
  8
image
100
AcDbVertex
100
AcDb2dVertex
 10
2.254072327219463
 20
3.549759100064013
 30
0.0
 70
     8
  0
VERTEX
  5
1B9D
330
1B58
100
AcDbEntity
  8
image
100
AcDbVertex
100
AcDb2dVertex
 10
2.264290293289904
 20
3.577833489595382
 30
0.0
 70
     8
  0
VERTEX
  5
1B9E
330
1B58
100
AcDbEntity
  8
image
100
AcDbVertex
100
AcDb2dVertex
 10
2.273370467846184
 20
3.606474009516972
 30
0.0
 70
     8
  0
VERTEX
  5
1B9F
330
1B58
100
AcDbEntity
  8
image
100
AcDbVertex
100
AcDb2dVertex
 10
2.281080373916596
 20
3.635422052008167
 30
0.0
 70
     8
  0
VERTEX
  5
1BA0
330
1B58
100
AcDbEntity
  8
image
100
AcDbVertex
100
AcDb2dVertex
 10
2.287440056366278
 20
3.664601644682834
 30
0.0
 70
     8
  0
VERTEX
  5
1BA1
330
1B58
100
AcDbEntity
  8
image
100
AcDbVertex
100
AcDb2dVertex
 10
2.292532690519581
 20
3.693982474013458
 30
0.0
 70
     8
  0
VERTEX
  5
1BA2
330
1B58
100
AcDbEntity
  8
image
100
AcDbVertex
100
AcDb2dVertex
 10
2.296441451700853
 20
3.723534226472527
 30
0.0
 70
     8
  0
VERTEX
  5
1BA3
330
1B58
100
AcDbEntity
  8
image
100
AcDbVertex
100
AcDb2dVertex
 10
2.299249515234444
 20
3.753226588532528
 30
0.0
 70
     8
  0
VERTEX
  5
1BA4
330
1B58
100
AcDbEntity
  8
image
100
AcDbVertex
100
AcDb2dVertex
 10
2.301040056444704
 20
3.783029246665948
 30
0.0
 70
     8
  0
VERTEX
  5
1BA5
330
1B58
100
AcDbEntity
  8
image
100
AcDbVertex
100
AcDb2dVertex
 10
2.301896250655982
 20
3.812911887345274
 30
0.0
 70
     8
  0
VERTEX
  5
1BA6
330
1B58
100
AcDbEntity
  8
image
100
AcDbVertex
100
AcDb2dVertex
 10
2.301901273192627
 20
3.842844197042993
 30
0.0
 70
     8
  0
VERTEX
  5
1BA7
330
1B58
100
AcDbEntity
  8
image
100
AcDbVertex
100
AcDb2dVertex
 10
2.301141152224682
 20
3.872798823666078
 30
0.0
 70
     8
  0
VERTEX
  5
1BA8
330
1B58
100
AcDbEntity
  8
image
100
AcDbVertex
100
AcDb2dVertex
 10
2.299713327304964
 20
3.902760260859448
 30
0.0
 70
     8
  0
VERTEX
  5
1BA9
330
1B58
100
AcDbEntity
  8
image
100
AcDbVertex
100
AcDb2dVertex
 10
2.297718090831978
 20
3.932715963702506
 30
0.0
 70
     8
  0
VERTEX
  5
1BAA
330
1B58
100
AcDbEntity
  8
image
100
AcDbVertex
100
AcDb2dVertex
 10
2.295255735204235
 20
3.962653387274657
 30
0.0
 70
     8
  0
VERTEX
  5
1BAB
330
1B58
100
AcDbEntity
  8
image
100
AcDbVertex
100
AcDb2dVertex
 10
2.292426552820243
 20
3.992559986655304
 30
0.0
 70
     8
  0
VERTEX
  5
1BAC
330
1B58
100
AcDbEntity
  8
image
100
AcDbVertex
100
AcDb2dVertex
 10
2.289330836078509
 20
4.022423216923853
 30
0.0
 70
     8
  0
VERTEX
  5
1BAD
330
1B58
100
AcDbEntity
  8
image
100
AcDbVertex
100
AcDb2dVertex
 10
2.286068877377541
 20
4.052230533159708
 30
0.0
 70
     8
  0
VERTEX
  5
1BAE
330
1B58
100
AcDbEntity
  8
image
100
AcDbVertex
100
AcDb2dVertex
 10
2.28274096911585
 20
4.081969390442272
 30
0.0
 70
     8
  0
VERTEX
  5
1BAF
330
1B58
100
AcDbEntity
  8
image
100
AcDbVertex
100
AcDb2dVertex
 10
2.279435949677155
 20
4.111633844670603
 30
0.0
 70
     8
  0
VERTEX
  5
1BB0
330
1B58
100
AcDbEntity
  8
image
100
AcDbVertex
100
AcDb2dVertex
 10
2.276196841386033
 20
4.141244355022369
 30
0.0
 70
     8
  0
VERTEX
  5
1BB1
330
1B58
100
AcDbEntity
  8
image
100
AcDbVertex
100
AcDb2dVertex
 10
2.273055212552273
 20
4.170827981494892
 30
0.0
 70
     8
  0
VERTEX
  5
1BB2
330
1B58
100
AcDbEntity
  8
image
100
AcDbVertex
100
AcDb2dVertex
 10
2.270042631485662
 20
4.200411784085494
 30
0.0
 70
     8
  0
VERTEX
  5
1BB3
330
1B58
100
AcDbEntity
  8
image
100
AcDbVertex
100
AcDb2dVertex
 10
2.267190666495991
 20
4.230022822791496
 30
0.0
 70
     8
  0
VERTEX
  5
1BB4
330
1B58
100
AcDbEntity
  8
image
100
AcDbVertex
100
AcDb2dVertex
 10
2.264530885893048
 20
4.25968815761022
 30
0.0
 70
     8
  0
VERTEX
  5
1BB5
330
1B58
100
AcDbEntity
  8
image
100
AcDbVertex
100
AcDb2dVertex
 10
2.262094857986622
 20
4.289434848538986
 30
0.0
 70
     8
  0
VERTEX
  5
1BB6
330
1B58
100
AcDbEntity
  8
image
100
AcDbVertex
100
AcDb2dVertex
 10
2.259914151086501
 20
4.319289955575118
 30
0.0
 70
     8
  0
VERTEX
  5
1BB7
330
1B58
100
AcDbEntity
  8
image
100
AcDbVertex
100
AcDb2dVertex
 10
2.258017448195584
 20
4.349266709805708
 30
0.0
 70
     8
  0
VERTEX
  5
1BB8
330
1B58
100
AcDbEntity
  8
image
100
AcDbVertex
100
AcDb2dVertex
 10
2.256421891089203
 20
4.37932302667694
 30
0.0
 70
     8
  0
VERTEX
  5
1BB9
330
1B58
100
AcDbEntity
  8
image
100
AcDbVertex
100
AcDb2dVertex
 10
2.255141736235799
 20
4.409402992724773
 30
0.0
 70
     8
  0
VERTEX
  5
1BBA
330
1B58
100
AcDbEntity
  8
image
100
AcDbVertex
100
AcDb2dVertex
 10
2.254191240103815
 20
4.439450694485162
 30
0.0
 70
     8
  0
VERTEX
  5
1BBB
330
1B58
100
AcDbEntity
  8
image
100
AcDbVertex
100
AcDb2dVertex
 10
2.253584659161691
 20
4.469410218494063
 30
0.0
 70
     8
  0
VERTEX
  5
1BBC
330
1B58
100
AcDbEntity
  8
image
100
AcDbVertex
100
AcDb2dVertex
 10
2.25333624987787
 20
4.499225651287434
 30
0.0
 70
     8
  0
VERTEX
  5
1BBD
330
1B58
100
AcDbEntity
  8
image
100
AcDbVertex
100
AcDb2dVertex
 10
2.253460268720793
 20
4.528841079401231
 30
0.0
 70
     8
  0
VERTEX
  5
1BBE
330
1B58
100
AcDbEntity
  8
image
100
AcDbVertex
100
AcDb2dVertex
 10
2.253970972158902
 20
4.55820058937141
 30
0.0
 70
     8
  0
VERTEX
  5
1BBF
330
1B58
100
AcDbEntity
  8
image
100
AcDbVertex
100
AcDb2dVertex
 10
2.254868830284437
 20
4.587248775261682
 30
0.0
 70
     8
  0
VERTEX
  5
1BC0
330
1B58
100
AcDbEntity
  8
image
100
AcDbVertex
100
AcDb2dVertex
 10
2.256099167684844
 20
4.615932261246766
 30
0.0
 70
     8
  0
VERTEX
  5
1BC1
330
1B58
100
AcDbEntity
  8
image
100
AcDbVertex
100
AcDb2dVertex
 10
2.257593522571367
 20
4.644198179029134
 30
0.0
 70
     8
  0
VERTEX
  5
1BC2
330
1B58
100
AcDbEntity
  8
image
100
AcDbVertex
100
AcDb2dVertex
 10
2.259283433155251
 20
4.671993660311257
 30
0.0
 70
     8
  0
VERTEX
  5
1BC3
330
1B58
100
AcDbEntity
  8
image
100
AcDbVertex
100
AcDb2dVertex
 10
2.261100437647741
 20
4.699265836795611
 30
0.0
 70
     8
  0
VERTEX
  5
1BC4
330
1B58
100
AcDbEntity
  8
image
100
AcDbVertex
100
AcDb2dVertex
 10
2.262976074260079
 20
4.725961840184666
 30
0.0
 70
     8
  0
VERTEX
  5
1BC5
330
1B58
100
AcDbEntity
  8
image
100
AcDbVertex
100
AcDb2dVertex
 10
2.264841881203513
 20
4.752028802180895
 30
0.0
 70
     8
  0
VERTEX
  5
1BC6
330
1B58
100
AcDbEntity
  8
image
100
AcDbVertex
100
AcDb2dVertex
 10
2.266629396689285
 20
4.777413854486771
 30
0.0
 70
     8
  0
VERTEX
  5
1BC7
330
1B58
100
AcDbEntity
  8
image
100
AcDbVertex
100
AcDb2dVertex
 10
2.26828269625573
 20
4.802074503874541
 30
0.0
 70
     8
  0
VERTEX
  5
1BC8
330
1B58
100
AcDbEntity
  8
image
100
AcDbVertex
100
AcDb2dVertex
 10
2.269796004749537
 20
4.826009757395558
 30
0.0
 70
     8
  0
VERTEX
  5
1BC9
330
1B58
100
AcDbEntity
  8
image
100
AcDbVertex
100
AcDb2dVertex
 10
2.271176084344486
 20
4.849228997170954
 30
0.0
 70
     8
  0
VERTEX
  5
1BCA
330
1B58
100
AcDbEntity
  8
image
100
AcDbVertex
100
AcDb2dVertex
 10
2.272429697214355
 20
4.871741605321855
 30
0.0
 70
     8
  0
VERTEX
  5
1BCB
330
1B58
100
AcDbEntity
  8
image
100
AcDbVertex
100
AcDb2dVertex
 10
2.273563605532924
 20
4.893556963969393
 30
0.0
 70
     8
  0
VERTEX
  5
1BCC
330
1B58
100
AcDbEntity
  8
image
100
AcDbVertex
100
AcDb2dVertex
 10
2.274584571473972
 20
4.914684455234694
 30
0.0
 70
     8
  0
VERTEX
  5
1BCD
330
1B58
100
AcDbEntity
  8
image
100
AcDbVertex
100
AcDb2dVertex
 10
2.275499357211278
 20
4.935133461238891
 30
0.0
 70
     8
  0
VERTEX
  5
1BCE
330
1B58
100
AcDbEntity
  8
image
100
AcDbVertex
100
AcDb2dVertex
 10
2.27631472491862
 20
4.954913364103109
 30
0.0
 70
     8
  0
VERTEX
  5
1BCF
330
1B58
100
AcDbEntity
  8
image
100
AcDbVertex
100
AcDb2dVertex
 10
2.277038182409306
 20
4.974065660610196
 30
0.0
 70
     8
  0
VERTEX
  5
1BD0
330
1B58
100
AcDbEntity
  8
image
100
AcDbVertex
100
AcDb2dVertex
 10
2.277680220054755
 20
4.992760306189856
 30
0.0
 70
     8
  0
VERTEX
  5
1BD1
330
1B58
100
AcDbEntity
  8
image
100
AcDbVertex
100
AcDb2dVertex
 10
2.278252073865911
 20
5.011199370933508
 30
0.0
 70
     8
  0
VERTEX
  5
1BD2
330
1B58
100
AcDbEntity
  8
image
100
AcDbVertex
100
AcDb2dVertex
 10
2.278764979853723
 20
5.029584924932573
 30
0.0
 70
     8
  0
VERTEX
  5
1BD3
330
1B58
100
AcDbEntity
  8
image
100
AcDbVertex
100
AcDb2dVertex
 10
2.279230174029135
 20
5.048119038278473
 30
0.0
 70
     8
  0
VERTEX
  5
1BD4
330
1B58
100
AcDbEntity
  8
image
100
AcDbVertex
100
AcDb2dVertex
 10
2.279658892403095
 20
5.067003781062627
 30
0.0
 70
     8
  0
VERTEX
  5
1BD5
330
1B58
100
AcDbEntity
  8
image
100
AcDbVertex
100
AcDb2dVertex
 10
2.280062370986549
 20
5.086441223376455
 30
0.0
 70
     8
  0
VERTEX
  5
1BD6
330
1B58
100
AcDbEntity
  8
image
100
AcDbVertex
100
AcDb2dVertex
 10
2.280451845790444
 20
5.106633435311379
 30
0.0
 70
     8
  0
VERTEX
  5
1BD7
330
1B58
100
AcDbEntity
  8
image
100
AcDbVertex
100
AcDb2dVertex
 10
2.280836631671636
 20
5.127753388528259
 30
0.0
 70
     8
  0
VERTEX
  5
1BD8
330
1B58
100
AcDbEntity
  8
image
100
AcDbVertex
100
AcDb2dVertex
 10
2.281218358870628
 20
5.149857660965727
 30
0.0
 70
     8
  0
VERTEX
  5
1BD9
330
1B58
100
AcDbEntity
  8
image
100
AcDbVertex
100
AcDb2dVertex
 10
2.281596736473836
 20
5.172973732131855
 30
0.0
 70
     8
  0
VERTEX
  5
1BDA
330
1B58
100
AcDbEntity
  8
image
100
AcDbVertex
100
AcDb2dVertex
 10
2.281971473567671
 20
5.197129081534716
 30
0.0
 70
     8
  0
VERTEX
  5
1BDB
330
1B58
100
AcDbEntity
  8
image
100
AcDbVertex
100
AcDb2dVertex
 10
2.282342279238549
 20
5.222351188682382
 30
0.0
 70
     8
  0
VERTEX
  5
1BDC
330
1B58
100
AcDbEntity
  8
image
100
AcDbVertex
100
AcDb2dVertex
 10
2.282708862572883
 20
5.248667533082926
 30
0.0
 70
     8
  0
VERTEX
  5
1BDD
330
1B58
100
AcDbEntity
  8
image
100
AcDbVertex
100
AcDb2dVertex
 10
2.283070932657087
 20
5.27610559424442
 30
0.0
 70
     8
  0
VERTEX
  5
1BDE
330
1B58
100
AcDbEntity
  8
image
100
AcDbVertex
100
AcDb2dVertex
 10
2.283428198577576
 20
5.304692851674936
 30
0.0
 70
     8
  0
VERTEX
  5
1BDF
330
1B58
100
AcDbEntity
  8
image
100
AcDbVertex
100
AcDb2dVertex
 10
2.283780727503406
 20
5.334515443493542
 30
0.0
 70
     8
  0
VERTEX
  5
1BE0
330
1B58
100
AcDbEntity
  8
image
100
AcDbVertex
100
AcDb2dVertex
 10
2.284130018934211
 20
5.365894142263274
 30
0.0
 70
     8
  0
VERTEX
  5
1BE1
330
1B58
100
AcDbEntity
  8
image
100
AcDbVertex
100
AcDb2dVertex
 10
2.284477930452265
 20
5.399208379158166
 30
0.0
 70
     8
  0
VERTEX
  5
1BE2
330
1B58
100
AcDbEntity
  8
image
100
AcDbVertex
100
AcDb2dVertex
 10
2.284826319639845
 20
5.434837585352251
 30
0.0
 70
     8
  0
VERTEX
  5
1BE3
330
1B58
100
AcDbEntity
  8
image
100
AcDbVertex
100
AcDb2dVertex
 10
2.285177044079225
 20
5.473161192019558
 30
0.0
 70
     8
  0
VERTEX
  5
1BE4
330
1B58
100
AcDbEntity
  8
image
100
AcDbVertex
100
AcDb2dVertex
 10
2.285531961352682
 20
5.514558630334121
 30
0.0
 70
     8
  0
VERTEX
  5
1BE5
330
1B58
100
AcDbEntity
  8
image
100
AcDbVertex
100
AcDb2dVertex
 10
2.285892929042492
 20
5.559409331469973
 30
0.0
 70
     8
  0
VERTEX
  5
1BE6
330
1B58
100
AcDbEntity
  8
image
100
AcDbVertex
100
AcDb2dVertex
 10
2.286261804730929
 20
5.608092726601146
 30
0.0
 70
     8
  0
VERTEX
  5
1BE7
330
1B58
100
AcDbEntity
  8
image
100
AcDbVertex
100
AcDb2dVertex
 10
2.286637688458727
 20
5.663166266855831
 30
0.0
 70
     8
  0
VERTEX
  5
1BE8
330
1B58
100
AcDbEntity
  8
image
100
AcDbVertex
100
AcDb2dVertex
 10
2.287008650100435
 20
5.735899483178862
 30
0.0
 70
     8
  0
VERTEX
  5
1BE9
330
1B58
100
AcDbEntity
  8
image
100
AcDbVertex
100
AcDb2dVertex
 10
2.287360001989062
 20
5.83973992646923
 30
0.0
 70
     8
  0
VERTEX
  5
1BEA
330
1B58
100
AcDbEntity
  8
image
100
AcDbVertex
100
AcDb2dVertex
 10
2.287677056457614
 20
5.988135147625929
 30
0.0
 70
     8
  0
VERTEX
  5
1BEB
330
1B58
100
AcDbEntity
  8
image
100
AcDbVertex
100
AcDb2dVertex
 10
2.287945125839099
 20
6.194532697547951
 30
0.0
 70
     8
  0
VERTEX
  5
1BEC
330
1B58
100
AcDbEntity
  8
image
100
AcDbVertex
100
AcDb2dVertex
 10
2.288149522466525
 20
6.472380127134289
 30
0.0
 70
     8
  0
VERTEX
  5
1BED
330
1B58
100
AcDbEntity
  8
image
100
AcDbVertex
100
AcDb2dVertex
 10
2.288275558672897
 20
6.835124987283935
 30
0.0
 70
     8
  0
VERTEX
  5
1BEE
330
1B58
100
AcDbEntity
  8
image
100
AcDbVertex
100
AcDb2dVertex
 10
2.288308546791224
 20
7.296214828895884
 30
0.0
 70
     8
  0
VERTEX
  5
1B5B
330
1B58
100
AcDbEntity
  8
image
100
AcDbVertex
100
AcDb2dVertex
 10
2.124045938507646
 20
3.306768385506678
 30
0.0
 70
    16
  0
VERTEX
  5
1B5C
330
1B58
100
AcDbEntity
  8
image
100
AcDbVertex
100
AcDb2dVertex
 10
2.123682328980035
 20
3.313632175959841
 30
0.0
 70
    16
  0
VERTEX
  5
1B5D
330
1B58
100
AcDbEntity
  8
image
100
AcDbVertex
100
AcDb2dVertex
 10
2.119407461854401
 20
3.323831256498264
 30
0.0
 70
    16
  0
VERTEX
  5
1B5E
330
1B58
100
AcDbEntity
  8
image
100
AcDbVertex
100
AcDb2dVertex
 10
2.119416469335114
 20
3.327371449153786
 30
0.0
 70
    16
  0
VERTEX
  5
1B5F
330
1B58
100
AcDbEntity
  8
image
100
AcDbVertex
100
AcDb2dVertex
 10
2.121932108431567
 20
3.33182928513123
 30
0.0
 70
    16
  0
VERTEX
  5
1B60
330
1B58
100
AcDbEntity
  8
image
100
AcDbVertex
100
AcDb2dVertex
 10
2.175489346440017
 20
3.381483132228984
 30
0.0
 70
    16
  0
VERTEX
  5
1B61
330
1B58
100
AcDbEntity
  8
image
100
AcDbVertex
100
AcDb2dVertex
 10
2.288660056593693
 20
3.603680796599811
 30
0.0
 70
    16
  0
VERTEX
  5
1B62
330
1B58
100
AcDbEntity
  8
image
100
AcDbVertex
100
AcDb2dVertex
 10
2.310093234262311
 20
3.842637738473606
 30
0.0
 70
    16
  0
VERTEX
  5
1B63
330
1B58
100
AcDbEntity
  8
image
100
AcDbVertex
100
AcDb2dVertex
 10
2.282374645512824
 20
4.082833431763723
 30
0.0
 70
    16
  0
VERTEX
  5
1B64
330
1B58
100
AcDbEntity
  8
image
100
AcDbVertex
100
AcDb2dVertex
 10
2.256853998381493
 20
4.317844877125132
 30
0.0
 70
    16
  0
VERTEX
  5
1B65
330
1B58
100
AcDbEntity
  8
image
100
AcDbVertex
100
AcDb2dVertex
 10
2.249694267480214
 20
4.561526793186457
 30
0.0
 70
    16
  0
VERTEX
  5
1B66
330
1B58
100
AcDbEntity
  8
image
100
AcDbVertex
100
AcDb2dVertex
 10
2.268194764651061
 20
4.785251486357504
 30
0.0
 70
    16
  0
VERTEX
  5
1B67
330
1B58
100
AcDbEntity
  8
image
100
AcDbVertex
100
AcDb2dVertex
 10
2.277303054051252
 20
4.961950388304151
 30
0.0
 70
    16
  0
VERTEX
  5
1B68
330
1B58
100
AcDbEntity
  8
image
100
AcDbVertex
100
AcDb2dVertex
 10
2.280481368655653
 20
5.09642714504455
 30
0.0
 70
    16
  0
VERTEX
  5
1B69
330
1B58
100
AcDbEntity
  8
image
100
AcDbVertex
100
AcDb2dVertex
 10
2.283482546068796
 20
5.292141643385921
 30
0.0
 70
    16
  0
VERTEX
  5
1B6A
330
1B58
100
AcDbEntity
  8
image
100
AcDbVertex
100
AcDb2dVertex
 10
2.286157638534621
 20
5.563163391461385
 30
0.0
 70
    16
  0
VERTEX
  5
1B6B
330
1B58
100
AcDbEntity
  8
image
100
AcDbVertex
100
AcDb2dVertex
 10
2.288357698297073
 20
5.923561897404071
 30
0.0
 70
    16
  0
VERTEX
  5
1B6C
330
1B58
100
AcDbEntity
  8
image
100
AcDbVertex
100
AcDb2dVertex
 10
2.288308546791224
 20
7.296214828895884
 30
0.0
 70
    16
  0
SEQEND
  5
1B6D
330
1B58
100
AcDbEntity
  8
image
  0
POLYLINE
  5
1B59
330
10C1
100
AcDbEntity
  8
image
100
AcDb2dPolyline
 66
     1
 10
0.0
 20
0.0
 30
0.0
 70
     4
 75
     6
  0
VERTEX
  5
1BEF
330
1B59
100
AcDbEntity
  8
image
100
AcDbVertex
100
AcDb2dVertex
 10
2.184212989189662
 20
3.255027345156183
 30
0.0
 70
    16
  0
VERTEX
  5
1C00
330
1B59
100
AcDbEntity
  8
image
100
AcDbVertex
100
AcDb2dVertex
 10
2.184212989189662
 20
3.255027345156183
 30
0.0
 70
     8
  0
VERTEX
  5
1C01
330
1B59
100
AcDbEntity
  8
image
100
AcDbVertex
100
AcDb2dVertex
 10
2.187106130292349
 20
3.259006083488388
 30
0.0
 70
     8
  0
VERTEX
  5
1C02
330
1B59
100
AcDbEntity
  8
image
100
AcDbVertex
100
AcDb2dVertex
 10
2.189570360708404
 20
3.262132464689493
 30
0.0
 70
     8
  0
VERTEX
  5
1C03
330
1B59
100
AcDbEntity
  8
image
100
AcDbVertex
100
AcDb2dVertex
 10
2.191670874919724
 20
3.264520907753072
 30
0.0
 70
     8
  0
VERTEX
  5
1C04
330
1B59
100
AcDbEntity
  8
image
100
AcDbVertex
100
AcDb2dVertex
 10
2.193472867408206
 20
3.266285831672697
 30
0.0
 70
     8
  0
VERTEX
  5
1C05
330
1B59
100
AcDbEntity
  8
image
100
AcDbVertex
100
AcDb2dVertex
 10
2.195041532655746
 20
3.267541655441945
 30
0.0
 70
     8
  0
VERTEX
  5
1C06
330
1B59
100
AcDbEntity
  8
image
100
AcDbVertex
100
AcDb2dVertex
 10
2.19644206514424
 20
3.268402798054387
 30
0.0
 70
     8
  0
VERTEX
  5
1C07
330
1B59
100
AcDbEntity
  8
image
100
AcDbVertex
100
AcDb2dVertex
 10
2.197739659355586
 20
3.268983678503599
 30
0.0
 70
     8
  0
VERTEX
  5
1C08
330
1B59
100
AcDbEntity
  8
image
100
AcDbVertex
100
AcDb2dVertex
 10
2.198999509771679
 20
3.269398715783154
 30
0.0
 70
     8
  0
VERTEX
  5
1C09
330
1B59
100
AcDbEntity
  8
image
100
AcDbVertex
100
AcDb2dVertex
 10
2.200272799773708
 20
3.269744473231815
 30
0.0
 70
     8
  0
VERTEX
  5
1C0A
330
1B59
100
AcDbEntity
  8
image
100
AcDbVertex
100
AcDb2dVertex
 10
2.201554668340034
 20
3.2700460915691
 30
0.0
 70
     8
  0
VERTEX
  5
1C0B
330
1B59
100
AcDbEntity
  8
image
100
AcDbVertex
100
AcDb2dVertex
 10
2.202826243348311
 20
3.270310855859715
 30
0.0
 70
     8
  0
VERTEX
  5
1C0C
330
1B59
100
AcDbEntity
  8
image
100
AcDbVertex
100
AcDb2dVertex
 10
2.20406865267619
 20
3.270546051168367
 30
0.0
 70
     8
  0
VERTEX
  5
1C0D
330
1B59
100
AcDbEntity
  8
image
100
AcDbVertex
100
AcDb2dVertex
 10
2.205263024201325
 20
3.270758962559761
 30
0.0
 70
     8
  0
VERTEX
  5
1C0E
330
1B59
100
AcDbEntity
  8
image
100
AcDbVertex
100
AcDb2dVertex
 10
2.206390485801369
 20
3.270956875098605
 30
0.0
 70
     8
  0
VERTEX
  5
1C0F
330
1B59
100
AcDbEntity
  8
image
100
AcDbVertex
100
AcDb2dVertex
 10
2.207432165353975
 20
3.271147073849604
 30
0.0
 70
     8
  0
VERTEX
  5
1C10
330
1B59
100
AcDbEntity
  8
image
100
AcDbVertex
100
AcDb2dVertex
 10
2.208369190736796
 20
3.271336843877465
 30
0.0
 70
     8
  0
VERTEX
  5
1C11
330
1B59
100
AcDbEntity
  8
image
100
AcDbVertex
100
AcDb2dVertex
 10
2.209188265673303
 20
3.271532970305321
 30
0.0
 70
     8
  0
VERTEX
  5
1C12
330
1B59
100
AcDbEntity
  8
image
100
AcDbVertex
100
AcDb2dVertex
 10
2.209898397270237
 20
3.271740238490016
 30
0.0
 70
     8
  0
VERTEX
  5
1C13
330
1B59
100
AcDbEntity
  8
image
100
AcDbVertex
100
AcDb2dVertex
 10
2.210514168480157
 20
3.271962933846821
 30
0.0
 70
     8
  0
VERTEX
  5
1C14
330
1B59
100
AcDbEntity
  8
image
100
AcDbVertex
100
AcDb2dVertex
 10
2.211050162255622
 20
3.272205341791003
 30
0.0
 70
     8
  0
VERTEX
  5
1C15
330
1B59
100
AcDbEntity
  8
image
100
AcDbVertex
100
AcDb2dVertex
 10
2.211520961549189
 20
3.272471747737836
 30
0.0
 70
     8
  0
VERTEX
  5
1C16
330
1B59
100
AcDbEntity
  8
image
100
AcDbVertex
100
AcDb2dVertex
 10
2.21194114931342
 20
3.272766437102587
 30
0.0
 70
     8
  0
VERTEX
  5
1C17
330
1B59
100
AcDbEntity
  8
image
100
AcDbVertex
100
AcDb2dVertex
 10
2.212325308500871
 20
3.273093695300528
 30
0.0
 70
     8
  0
VERTEX
  5
1C18
330
1B59
100
AcDbEntity
  8
image
100
AcDbVertex
100
AcDb2dVertex
 10
2.212688022064103
 20
3.273457807746929
 30
0.0
 70
     8
  0
VERTEX
  5
1C19
330
1B59
100
AcDbEntity
  8
image
100
AcDbVertex
100
AcDb2dVertex
 10
2.213045106017806
 20
3.273883834640459
 30
0.0
 70
     8
  0
VERTEX
  5
1C1A
330
1B59
100
AcDbEntity
  8
image
100
AcDbVertex
100
AcDb2dVertex
 10
2.213417308625203
 20
3.274479935313379
 30
0.0
 70
     8
  0
VERTEX
  5
1C1B
330
1B59
100
AcDbEntity
  8
image
100
AcDbVertex
100
AcDb2dVertex
 10
2.213826611211649
 20
3.27537504388135
 30
0.0
 70
     8
  0
VERTEX
  5
1C1C
330
1B59
100
AcDbEntity
  8
image
100
AcDbVertex
100
AcDb2dVertex
 10
2.214294995102497
 20
3.276698094460029
 30
0.0
 70
     8
  0
VERTEX
  5
1C1D
330
1B59
100
AcDbEntity
  8
image
100
AcDbVertex
100
AcDb2dVertex
 10
2.214844441623103
 20
3.278578021165079
 30
0.0
 70
     8
  0
VERTEX
  5
1C1E
330
1B59
100
AcDbEntity
  8
image
100
AcDbVertex
100
AcDb2dVertex
 10
2.215496932098822
 20
3.281143758112158
 30
0.0
 70
     8
  0
VERTEX
  5
1C1F
330
1B59
100
AcDbEntity
  8
image
100
AcDbVertex
100
AcDb2dVertex
 10
2.216274447855007
 20
3.284524239416927
 30
0.0
 70
     8
  0
VERTEX
  5
1C20
330
1B59
100
AcDbEntity
  8
image
100
AcDbVertex
100
AcDb2dVertex
 10
2.217198970217014
 20
3.288848399195045
 30
0.0
 70
     8
  0
VERTEX
  5
1C21
330
1B59
100
AcDbEntity
  8
image
100
AcDbVertex
100
AcDb2dVertex
 10
2.21831804090429
 20
3.294248161722938
 30
0.0
 70
     8
  0
VERTEX
  5
1C22
330
1B59
100
AcDbEntity
  8
image
100
AcDbVertex
100
AcDb2dVertex
 10
2.219781443212647
 20
3.300867411920097
 30
0.0
 70
     8
  0
VERTEX
  5
1C23
330
1B59
100
AcDbEntity
  8
image
100
AcDbVertex
100
AcDb2dVertex
 10
2.221764520831992
 20
3.308853024866777
 30
0.0
 70
     8
  0
VERTEX
  5
1C24
330
1B59
100
AcDbEntity
  8
image
100
AcDbVertex
100
AcDb2dVertex
 10
2.224442617452229
 20
3.318351875643235
 30
0.0
 70
     8
  0
VERTEX
  5
1C25
330
1B59
100
AcDbEntity
  8
image
100
AcDbVertex
100
AcDb2dVertex
 10
2.227991076763264
 20
3.329510839329727
 30
0.0
 70
     8
  0
VERTEX
  5
1C26
330
1B59
100
AcDbEntity
  8
image
100
AcDbVertex
100
AcDb2dVertex
 10
2.232585242455003
 20
3.342476791006508
 30
0.0
 70
     8
  0
VERTEX
  5
1C27
330
1B59
100
AcDbEntity
  8
image
100
AcDbVertex
100
AcDb2dVertex
 10
2.23840045821735
 20
3.357396605753836
 30
0.0
 70
     8
  0
VERTEX
  5
1C28
330
1B59
100
AcDbEntity
  8
image
100
AcDbVertex
100
AcDb2dVertex
 10
2.245612067740212
 20
3.374417158651965
 30
0.0
 70
     8
  0
VERTEX
  5
1C29
330
1B59
100
AcDbEntity
  8
image
100
AcDbVertex
100
AcDb2dVertex
 10
2.254306768804887
 20
3.393621532681605
 30
0.0
 70
     8
  0
VERTEX
  5
1C2A
330
1B59
100
AcDbEntity
  8
image
100
AcDbVertex
100
AcDb2dVertex
 10
2.264216675558254
 20
3.414837642425274
 30
0.0
 70
     8
  0
VERTEX
  5
1C2B
330
1B59
100
AcDbEntity
  8
image
100
AcDbVertex
100
AcDb2dVertex
 10
2.274985256238584
 20
3.43782961036594
 30
0.0
 70
     8
  0
VERTEX
  5
1C2C
330
1B59
100
AcDbEntity
  8
image
100
AcDbVertex
100
AcDb2dVertex
 10
2.286255979084147
 20
3.462361558986575
 30
0.0
 70
     8
  0
VERTEX
  5
1C2D
330
1B59
100
AcDbEntity
  8
image
100
AcDbVertex
100
AcDb2dVertex
 10
2.297672312333216
 20
3.488197610770147
 30
0.0
 70
     8
  0
VERTEX
  5
1C2E
330
1B59
100
AcDbEntity
  8
image
100
AcDbVertex
100
AcDb2dVertex
 10
2.308877724224061
 20
3.515101888199628
 30
0.0
 70
     8
  0
VERTEX
  5
1C2F
330
1B59
100
AcDbEntity
  8
image
100
AcDbVertex
100
AcDb2dVertex
 10
2.319515682994954
 20
3.542838513757986
 30
0.0
 70
     8
  0
VERTEX
  5
1C30
330
1B59
100
AcDbEntity
  8
image
100
AcDbVertex
100
AcDb2dVertex
 10
2.329229656884168
 20
3.571171609928192
 30
0.0
 70
     8
  0
VERTEX
  5
1C31
330
1B59
100
AcDbEntity
  8
image
100
AcDbVertex
100
AcDb2dVertex
 10
2.337731230929669
 20
3.599890897192485
 30
0.0
 70
     8
  0
VERTEX
  5
1C32
330
1B59
100
AcDbEntity
  8
image
100
AcDbVertex
100
AcDb2dVertex
 10
2.345004457368214
 20
3.628888488030177
 30
0.0
 70
     8
  0
VERTEX
  5
1C33
330
1B59
100
AcDbEntity
  8
image
100
AcDbVertex
100
AcDb2dVertex
 10
2.351101505236256
 20
3.658082092919852
 30
0.0
 70
     8
  0
VERTEX
  5
1C34
330
1B59
100
AcDbEntity
  8
image
100
AcDbVertex
100
AcDb2dVertex
 10
2.356074543570247
 20
3.687389422340092
 30
0.0
 70
     8
  0
VERTEX
  5
1C35
330
1B59
100
AcDbEntity
  8
image
100
AcDbVertex
100
AcDb2dVertex
 10
2.359975741406641
 20
3.716728186769478
 30
0.0
 70
     8
  0
VERTEX
  5
1C36
330
1B59
100
AcDbEntity
  8
image
100
AcDbVertex
100
AcDb2dVertex
 10
2.362857267781891
 20
3.746016096686593
 30
0.0
 70
     8
  0
VERTEX
  5
1C37
330
1B59
100
AcDbEntity
  8
image
100
AcDbVertex
100
AcDb2dVertex
 10
2.364771291732449
 20
3.77517086257002
 30
0.0
 70
     8
  0
VERTEX
  5
1C38
330
1B59
100
AcDbEntity
  8
image
100
AcDbVertex
100
AcDb2dVertex
 10
2.365769982294768
 20
3.804110194898341
 30
0.0
 70
     8
  0
VERTEX
  5
1C39
330
1B59
100
AcDbEntity
  8
image
100
AcDbVertex
100
AcDb2dVertex
 10
2.365913984556283
 20
3.832772386304776
 30
0.0
 70
     8
  0
VERTEX
  5
1C3A
330
1B59
100
AcDbEntity
  8
image
100
AcDbVertex
100
AcDb2dVertex
 10
2.365297847808352
 20
3.861178058041105
 30
0.0
 70
     8
  0
VERTEX
  5
1C3B
330
1B59
100
AcDbEntity
  8
image
100
AcDbVertex
100
AcDb2dVertex
 10
2.364024597393314
 20
3.889368413513742
 30
0.0
 70
     8
  0
VERTEX
  5
1C3C
330
1B59
100
AcDbEntity
  8
image
100
AcDbVertex
100
AcDb2dVertex
 10
2.362197258653511
 20
3.917384656129106
 30
0.0
 70
     8
  0
VERTEX
  5
1C3D
330
1B59
100
AcDbEntity
  8
image
100
AcDbVertex
100
AcDb2dVertex
 10
2.35991885693128
 20
3.945267989293613
 30
0.0
 70
     8
  0
VERTEX
  5
1C3E
330
1B59
100
AcDbEntity
  8
image
100
AcDbVertex
100
AcDb2dVertex
 10
2.357292417568963
 20
3.973059616413681
 30
0.0
 70
     8
  0
VERTEX
  5
1C3F
330
1B59
100
AcDbEntity
  8
image
100
AcDbVertex
100
AcDb2dVertex
 10
2.3544209659089
 20
4.000800740895725
 30
0.0
 70
     8
  0
VERTEX
  5
1C40
330
1B59
100
AcDbEntity
  8
image
100
AcDbVertex
100
AcDb2dVertex
 10
2.351407527293428
 20
4.028532566146162
 30
0.0
 70
     8
  0
VERTEX
  5
1C41
330
1B59
100
AcDbEntity
  8
image
100
AcDbVertex
100
AcDb2dVertex
 10
2.348342072203336
 20
4.056295371770046
 30
0.0
 70
     8
  0
VERTEX
  5
1C42
330
1B59
100
AcDbEntity
  8
image
100
AcDbVertex
100
AcDb2dVertex
 10
2.345262351673186
 20
4.084125742166979
 30
0.0
 70
     8
  0
VERTEX
  5
1C43
330
1B59
100
AcDbEntity
  8
image
100
AcDbVertex
100
AcDb2dVertex
 10
2.342193061875992
 20
4.1120593379352
 30
0.0
 70
     8
  0
VERTEX
  5
1C44
330
1B59
100
AcDbEntity
  8
image
100
AcDbVertex
100
AcDb2dVertex
 10
2.339158898984762
 20
4.140131819672946
 30
0.0
 70
     8
  0
VERTEX
  5
1C45
330
1B59
100
AcDbEntity
  8
image
100
AcDbVertex
100
AcDb2dVertex
 10
2.336184559172507
 20
4.168378847978456
 30
0.0
 70
     8
  0
VERTEX
  5
1C46
330
1B59
100
AcDbEntity
  8
image
100
AcDbVertex
100
AcDb2dVertex
 10
2.333294738612239
 20
4.196836083449968
 30
0.0
 70
     8
  0
VERTEX
  5
1C47
330
1B59
100
AcDbEntity
  8
image
100
AcDbVertex
100
AcDb2dVertex
 10
2.330514133476968
 20
4.225539186685721
 30
0.0
 70
     8
  0
VERTEX
  5
1C48
330
1B59
100
AcDbEntity
  8
image
100
AcDbVertex
100
AcDb2dVertex
 10
2.327867439939704
 20
4.254523818283954
 30
0.0
 70
     8
  0
VERTEX
  5
1C49
330
1B59
100
AcDbEntity
  8
image
100
AcDbVertex
100
AcDb2dVertex
 10
2.32538186474393
 20
4.28381054012084
 30
0.0
 70
     8
  0
VERTEX
  5
1C4A
330
1B59
100
AcDbEntity
  8
image
100
AcDbVertex
100
AcDb2dVertex
 10
2.323094656915017
 20
4.313359519184305
 30
0.0
 70
     8
  0
VERTEX
  5
1C4B
330
1B59
100
AcDbEntity
  8
image
100
AcDbVertex
100
AcDb2dVertex
 10
2.321045576048804
 20
4.343115823740211
 30
0.0
 70
     8
  0
VERTEX
  5
1C4C
330
1B59
100
AcDbEntity
  8
image
100
AcDbVertex
100
AcDb2dVertex
 10
2.319274381741136
 20
4.373024522054418
 30
0.0
 70
     8
  0
VERTEX
  5
1C4D
330
1B59
100
AcDbEntity
  8
image
100
AcDbVertex
100
AcDb2dVertex
 10
2.317820833587851
 20
4.403030682392787
 30
0.0
 70
     8
  0
VERTEX
  5
1C4E
330
1B59
100
AcDbEntity
  8
image
100
AcDbVertex
100
AcDb2dVertex
 10
2.316724691184794
 20
4.433079373021181
 30
0.0
 70
     8
  0
VERTEX
  5
1C4F
330
1B59
100
AcDbEntity
  8
image
100
AcDbVertex
100
AcDb2dVertex
 10
2.316025714127804
 20
4.46311566220546
 30
0.0
 70
     8
  0
VERTEX
  5
1C50
330
1B59
100
AcDbEntity
  8
image
100
AcDbVertex
100
AcDb2dVertex
 10
2.315763662012724
 20
4.493084618211486
 30
0.0
 70
     8
  0
VERTEX
  5
1C51
330
1B59
100
AcDbEntity
  8
image
100
AcDbVertex
100
AcDb2dVertex
 10
2.315962224759382
 20
4.522934551038814
 30
0.0
 70
     8
  0
VERTEX
  5
1C52
330
1B59
100
AcDbEntity
  8
image
100
AcDbVertex
100
AcDb2dVertex
 10
2.316580813583552
 20
4.552626737621788
 30
0.0
 70
     8
  0
VERTEX
  5
1C53
330
1B59
100
AcDbEntity
  8
image
100
AcDbVertex
100
AcDb2dVertex
 10
2.317562770024997
 20
4.582125696628444
 30
0.0
 70
     8
  0
VERTEX
  5
1C54
330
1B59
100
AcDbEntity
  8
image
100
AcDbVertex
100
AcDb2dVertex
 10
2.318851435623477
 20
4.611395946726815
 30
0.0
 70
     8
  0
VERTEX
  5
1C55
330
1B59
100
AcDbEntity
  8
image
100
AcDbVertex
100
AcDb2dVertex
 10
2.320390151918754
 20
4.640402006584943
 30
0.0
 70
     8
  0
VERTEX
  5
1C56
330
1B59
100
AcDbEntity
  8
image
100
AcDbVertex
100
AcDb2dVertex
 10
2.32212226045059
 20
4.66910839487086
 30
0.0
 70
     8
  0
VERTEX
  5
1C57
330
1B59
100
AcDbEntity
  8
image
100
AcDbVertex
100
AcDb2dVertex
 10
2.323991102758745
 20
4.697479630252606
 30
0.0
 70
     8
  0
VERTEX
  5
1C58
330
1B59
100
AcDbEntity
  8
image
100
AcDbVertex
100
AcDb2dVertex
 10
2.325940020382983
 20
4.725480231398214
 30
0.0
 70
     8
  0
VERTEX
  5
1C59
330
1B59
100
AcDbEntity
  8
image
100
AcDbVertex
100
AcDb2dVertex
 10
2.32791897328664
 20
4.753095900932427
 30
0.0
 70
     8
  0
VERTEX
  5
1C5A
330
1B59
100
AcDbEntity
  8
image
100
AcDbVertex
100
AcDb2dVertex
 10
2.329904395127358
 20
4.780397077306797
 30
0.0
 70
     8
  0
VERTEX
  5
1C5B
330
1B59
100
AcDbEntity
  8
image
100
AcDbVertex
100
AcDb2dVertex
 10
2.33187933798636
 20
4.807475382929581
 30
0.0
 70
     8
  0
VERTEX
  5
1C5C
330
1B59
100
AcDbEntity
  8
image
100
AcDbVertex
100
AcDb2dVertex
 10
2.333826853944863
 20
4.834422440209036
 30
0.0
 70
     8
  0
VERTEX
  5
1C5D
330
1B59
100
AcDbEntity
  8
image
100
AcDbVertex
100
AcDb2dVertex
 10
2.335729995084088
 20
4.861329871553418
 30
0.0
 70
     8
  0
VERTEX
  5
1C5E
330
1B59
100
AcDbEntity
  8
image
100
AcDbVertex
100
AcDb2dVertex
 10
2.337571813485253
 20
4.888289299370985
 30
0.0
 70
     8
  0
VERTEX
  5
1C5F
330
1B59
100
AcDbEntity
  8
image
100
AcDbVertex
100
AcDb2dVertex
 10
2.33933536122958
 20
4.915392346069992
 30
0.0
 70
     8
  0
VERTEX
  5
1C60
330
1B59
100
AcDbEntity
  8
image
100
AcDbVertex
100
AcDb2dVertex
 10
2.341003690398287
 20
4.942730634058698
 30
0.0
 70
     8
  0
VERTEX
  5
1C61
330
1B59
100
AcDbEntity
  8
image
100
AcDbVertex
100
AcDb2dVertex
 10
2.342569784604743
 20
4.974527259408458
 30
0.0
 70
     8
  0
VERTEX
  5
1C62
330
1B59
100
AcDbEntity
  8
image
100
AcDbVertex
100
AcDb2dVertex
 10
2.344066353590909
 20
5.031531212843034
 30
0.0
 70
     8
  0
VERTEX
  5
1C63
330
1B59
100
AcDbEntity
  8
image
100
AcDbVertex
100
AcDb2dVertex
 10
2.345536038630898
 20
5.138622958749289
 30
0.0
 70
     8
  0
VERTEX
  5
1C64
330
1B59
100
AcDbEntity
  8
image
100
AcDbVertex
100
AcDb2dVertex
 10
2.347021480998819
 20
5.320682961514083
 30
0.0
 70
     8
  0
VERTEX
  5
1C65
330
1B59
100
AcDbEntity
  8
image
100
AcDbVertex
100
AcDb2dVertex
 10
2.348565321968785
 20
5.602591685524277
 30
0.0
 70
     8
  0
VERTEX
  5
1C66
330
1B59
100
AcDbEntity
  8
image
100
AcDbVertex
100
AcDb2dVertex
 10
2.350210202814905
 20
6.009229595166734
 30
0.0
 70
     8
  0
VERTEX
  5
1C67
330
1B59
100
AcDbEntity
  8
image
100
AcDbVertex
100
AcDb2dVertex
 10
2.351998764811291
 20
6.565477154828316
 30
0.0
 70
     8
  0
VERTEX
  5
1C68
330
1B59
100
AcDbEntity
  8
image
100
AcDbVertex
100
AcDb2dVertex
 10
2.353973649232054
 20
7.296214828895884
 30
0.0
 70
     8
  0
VERTEX
  5
1BF0
330
1B59
100
AcDbEntity
  8
image
100
AcDbVertex
100
AcDb2dVertex
 10
2.192557863696242
 20
3.266875495988931
 30
0.0
 70
    16
  0
VERTEX
  5
1BF1
330
1B59
100
AcDbEntity
  8
image
100
AcDbVertex
100
AcDb2dVertex
 10
2.198706702447478
 20
3.269947240328036
 30
0.0
 70
    16
  0
VERTEX
  5
1BF2
330
1B59
100
AcDbEntity
  8
image
100
AcDbVertex
100
AcDb2dVertex
 10
2.209686804519537
 20
3.271263709567403
 30
0.0
 70
    16
  0
VERTEX
  5
1BF3
330
1B59
100
AcDbEntity
  8
image
100
AcDbVertex
100
AcDb2dVertex
 10
2.212761223895153
 20
3.27301898466714
 30
0.0
 70
    16
  0
VERTEX
  5
1BF4
330
1B59
100
AcDbEntity
  8
image
100
AcDbVertex
100
AcDb2dVertex
 10
2.215396432284466
 20
3.277407198245613
 30
0.0
 70
    16
  0
VERTEX
  5
1BF5
330
1B59
100
AcDbEntity
  8
image
100
AcDbVertex
100
AcDb2dVertex
 10
2.228846868269069
 20
3.350442617520677
 30
0.0
 70
    16
  0
VERTEX
  5
1BF6
330
1B59
100
AcDbEntity
  8
image
100
AcDbVertex
100
AcDb2dVertex
 10
2.34288850108053
 20
3.56732528358347
 30
0.0
 70
    16
  0
VERTEX
  5
1BF7
330
1B59
100
AcDbEntity
  8
image
100
AcDbVertex
100
AcDb2dVertex
 10
2.374977068713817
 20
3.807285907714597
 30
0.0
 70
    16
  0
VERTEX
  5
1BF8
330
1B59
100
AcDbEntity
  8
image
100
AcDbVertex
100
AcDb2dVertex
 10
2.351823117832811
 20
4.028192254948185
 30
0.0
 70
    16
  0
VERTEX
  5
1BF9
330
1B59
100
AcDbEntity
  8
image
100
AcDbVertex
100
AcDb2dVertex
 10
2.326175623715509
 20
4.251140469369634
 30
0.0
 70
    16
  0
VERTEX
  5
1BFA
330
1B59
100
AcDbEntity
  8
image
100
AcDbVertex
100
AcDb2dVertex
 10
2.310679026943378
 20
4.494388777277
 30
0.0
 70
    16
  0
VERTEX
  5
1BFB
330
1B59
100
AcDbEntity
  8
image
100
AcDbVertex
100
AcDb2dVertex
 10
2.325690240587325
 20
4.729812130791275
 30
0.0
 70
    16
  0
VERTEX
  5
1BFC
330
1B59
100
AcDbEntity
  8
image
100
AcDbVertex
100
AcDb2dVertex
 10
2.342200133005219
 20
4.939244087947184
 30
0.0
 70
    16
  0
VERTEX
  5
1BFD
330
1B59
100
AcDbEntity
  8
image
100
AcDbVertex
100
AcDb2dVertex
 10
2.348420957522752
 20
5.092811577163844
 30
0.0
 70
    16
  0
VERTEX
  5
1BFE
330
1B59
100
AcDbEntity
  8
image
100
AcDbVertex
100
AcDb2dVertex
 10
2.353973649232054
 20
7.296214828895884
 30
0.0
 70
    16
  0
SEQEND
  5
1BFF
330
1B59
100
AcDbEntity
  8
image
  0
POLYLINE
  5
1C97
330
10C1
100
AcDbEntity
  8
image
100
AcDb2dPolyline
 66
     1
 10
0.0
 20
0.0
 30
0.0
 70
     4
 75
     6
  0
VERTEX
  5
1CE5
330
1C97
100
AcDbEntity
  8
image
100
AcDbVertex
100
AcDb2dVertex
 10
2.947803144624259
 20
7.614715014029199
 30
0.0
 70
    16
  0
VERTEX
  5
1CF6
330
1C97
100
AcDbEntity
  8
image
100
AcDbVertex
100
AcDb2dVertex
 10
2.947803144624259
 20
7.614715014029198
 30
0.0
 70
     8
  0
VERTEX
  5
1CF7
330
1C97
100
AcDbEntity
  8
image
100
AcDbVertex
100
AcDb2dVertex
 10
2.94747536645151
 20
7.614685146173451
 30
0.0
 70
     8
  0
VERTEX
  5
1CF8
330
1C97
100
AcDbEntity
  8
image
100
AcDbVertex
100
AcDb2dVertex
 10
2.946756682401451
 20
7.614619601612274
 30
0.0
 70
     8
  0
VERTEX
  5
1CF9
330
1C97
100
AcDbEntity
  8
image
100
AcDbVertex
100
AcDb2dVertex
 10
2.945730281748756
 20
7.614525887211435
 30
0.0
 70
     8
  0
VERTEX
  5
1CFA
330
1C97
100
AcDbEntity
  8
image
100
AcDbVertex
100
AcDb2dVertex
 10
2.9444793537681
 20
7.614411509836704
 30
0.0
 70
     8
  0
VERTEX
  5
1CFB
330
1C97
100
AcDbEntity
  8
image
100
AcDbVertex
100
AcDb2dVertex
 10
2.94308708773416
 20
7.614283976353851
 30
0.0
 70
     8
  0
VERTEX
  5
1CFC
330
1C97
100
AcDbEntity
  8
image
100
AcDbVertex
100
AcDb2dVertex
 10
2.941636672921609
 20
7.614150793628643
 30
0.0
 70
     8
  0
VERTEX
  5
1CFD
330
1C97
100
AcDbEntity
  8
image
100
AcDbVertex
100
AcDb2dVertex
 10
2.940211298605125
 20
7.61401946852685
 30
0.0
 70
     8
  0
VERTEX
  5
1CFE
330
1C97
100
AcDbEntity
  8
image
100
AcDbVertex
100
AcDb2dVertex
 10
2.938894154059382
 20
7.613897507914241
 30
0.0
 70
     8
  0
VERTEX
  5
1CFF
330
1C97
100
AcDbEntity
  8
image
100
AcDbVertex
100
AcDb2dVertex
 10
2.937750876535385
 20
7.613790478936008
 30
0.0
 70
     8
  0
VERTEX
  5
1D00
330
1C97
100
AcDbEntity
  8
image
100
AcDbVertex
100
AcDb2dVertex
 10
2.936776895189458
 20
7.613696189855055
 30
0.0
 70
     8
  0
VERTEX
  5
1D01
330
1C97
100
AcDbEntity
  8
image
100
AcDbVertex
100
AcDb2dVertex
 10
2.935950087154252
 20
7.613610509213702
 30
0.0
 70
     8
  0
VERTEX
  5
1D02
330
1C97
100
AcDbEntity
  8
image
100
AcDbVertex
100
AcDb2dVertex
 10
2.935248329562421
 20
7.613529305554277
 30
0.0
 70
     8
  0
VERTEX
  5
1D03
330
1C97
100
AcDbEntity
  8
image
100
AcDbVertex
100
AcDb2dVertex
 10
2.934649499546618
 20
7.613448447419105
 30
0.0
 70
     8
  0
VERTEX
  5
1D04
330
1C97
100
AcDbEntity
  8
image
100
AcDbVertex
100
AcDb2dVertex
 10
2.934131474239495
 20
7.613363803350508
 30
0.0
 70
     8
  0
VERTEX
  5
1D05
330
1C97
100
AcDbEntity
  8
image
100
AcDbVertex
100
AcDb2dVertex
 10
2.933672130773704
 20
7.613271241890814
 30
0.0
 70
     8
  0
VERTEX
  5
1D06
330
1C97
100
AcDbEntity
  8
image
100
AcDbVertex
100
AcDb2dVertex
 10
2.9332493462819
 20
7.613166631582345
 30
0.0
 70
     8
  0
VERTEX
  5
1D07
330
1C97
100
AcDbEntity
  8
image
100
AcDbVertex
100
AcDb2dVertex
 10
2.932844366078277
 20
7.613046547512716
 30
0.0
 70
     8
  0
VERTEX
  5
1D08
330
1C97
100
AcDbEntity
  8
image
100
AcDbVertex
100
AcDb2dVertex
 10
2.932451908203203
 20
7.61291039095069
 30
0.0
 70
     8
  0
VERTEX
  5
1D09
330
1C97
100
AcDbEntity
  8
image
100
AcDbVertex
100
AcDb2dVertex
 10
2.932070058878589
 20
7.61275826971032
 30
0.0
 70
     8
  0
VERTEX
  5
1D0A
330
1C97
100
AcDbEntity
  8
image
100
AcDbVertex
100
AcDb2dVertex
 10
2.931696904326346
 20
7.612590291605657
 30
0.0
 70
     8
  0
VERTEX
  5
1D0B
330
1C97
100
AcDbEntity
  8
image
100
AcDbVertex
100
AcDb2dVertex
 10
2.931330530768383
 20
7.612406564450753
 30
0.0
 70
     8
  0
VERTEX
  5
1D0C
330
1C97
100
AcDbEntity
  8
image
100
AcDbVertex
100
AcDb2dVertex
 10
2.930969024426613
 20
7.612207196059661
 30
0.0
 70
     8
  0
VERTEX
  5
1D0D
330
1C97
100
AcDbEntity
  8
image
100
AcDbVertex
100
AcDb2dVertex
 10
2.930610471522945
 20
7.611992294246432
 30
0.0
 70
     8
  0
VERTEX
  5
1D0E
330
1C97
100
AcDbEntity
  8
image
100
AcDbVertex
100
AcDb2dVertex
 10
2.930252958279289
 20
7.611761966825118
 30
0.0
 70
     8
  0
VERTEX
  5
1D0F
330
1C97
100
AcDbEntity
  8
image
100
AcDbVertex
100
AcDb2dVertex
 10
2.929895084896344
 20
7.611516356681587
 30
0.0
 70
     8
  0
VERTEX
  5
1D10
330
1C97
100
AcDbEntity
  8
image
100
AcDbVertex
100
AcDb2dVertex
 10
2.929537507489949
 20
7.61125574698897
 30
0.0
 70
     8
  0
VERTEX
  5
1D11
330
1C97
100
AcDbEntity
  8
image
100
AcDbVertex
100
AcDb2dVertex
 10
2.929181396154731
 20
7.610980455992212
 30
0.0
 70
     8
  0
VERTEX
  5
1D12
330
1C97
100
AcDbEntity
  8
image
100
AcDbVertex
100
AcDb2dVertex
 10
2.928827920985317
 20
7.610690801936263
 30
0.0
 70
     8
  0
VERTEX
  5
1D13
330
1C97
100
AcDbEntity
  8
image
100
AcDbVertex
100
AcDb2dVertex
 10
2.928478252076335
 20
7.610387103066067
 30
0.0
 70
     8
  0
VERTEX
  5
1D14
330
1C97
100
AcDbEntity
  8
image
100
AcDbVertex
100
AcDb2dVertex
 10
2.928133559522409
 20
7.610069677626573
 30
0.0
 70
     8
  0
VERTEX
  5
1D15
330
1C97
100
AcDbEntity
  8
image
100
AcDbVertex
100
AcDb2dVertex
 10
2.927795013418168
 20
7.609738843862727
 30
0.0
 70
     8
  0
VERTEX
  5
1D16
330
1C97
100
AcDbEntity
  8
image
100
AcDbVertex
100
AcDb2dVertex
 10
2.927463783858237
 20
7.609394920019475
 30
0.0
 70
     8
  0
VERTEX
  5
1D17
330
1C97
100
AcDbEntity
  8
image
100
AcDbVertex
100
AcDb2dVertex
 10
2.927140811274347
 20
7.609038685484613
 30
0.0
 70
     8
  0
VERTEX
  5
1D18
330
1C97
100
AcDbEntity
  8
image
100
AcDbVertex
100
AcDb2dVertex
 10
2.926826117446639
 20
7.608672764217324
 30
0.0
 70
     8
  0
VERTEX
  5
1D19
330
1C97
100
AcDbEntity
  8
image
100
AcDbVertex
100
AcDb2dVertex
 10
2.926519494492357
 20
7.608300241319644
 30
0.0
 70
     8
  0
VERTEX
  5
1D1A
330
1C97
100
AcDbEntity
  8
image
100
AcDbVertex
100
AcDb2dVertex
 10
2.926220734528744
 20
7.607924201893608
 30
0.0
 70
     8
  0
VERTEX
  5
1D1B
330
1C97
100
AcDbEntity
  8
image
100
AcDbVertex
100
AcDb2dVertex
 10
2.925929629673045
 20
7.607547731041246
 30
0.0
 70
     8
  0
VERTEX
  5
1D1C
330
1C97
100
AcDbEntity
  8
image
100
AcDbVertex
100
AcDb2dVertex
 10
2.925645972042503
 20
7.607173913864595
 30
0.0
 70
     8
  0
VERTEX
  5
1D1D
330
1C97
100
AcDbEntity
  8
image
100
AcDbVertex
100
AcDb2dVertex
 10
2.925369553754363
 20
7.606805835465687
 30
0.0
 70
     8
  0
VERTEX
  5
1D1E
330
1C97
100
AcDbEntity
  8
image
100
AcDbVertex
100
AcDb2dVertex
 10
2.925100166925868
 20
7.606446580946555
 30
0.0
 70
     8
  0
VERTEX
  5
1D1F
330
1C97
100
AcDbEntity
  8
image
100
AcDbVertex
100
AcDb2dVertex
 10
2.924837354005685
 20
7.606098225017987
 30
0.0
 70
     8
  0
VERTEX
  5
1D20
330
1C97
100
AcDbEntity
  8
image
100
AcDbVertex
100
AcDb2dVertex
 10
2.924579658768169
 20
7.605758800825777
 30
0.0
 70
     8
  0
VERTEX
  5
1D21
330
1C97
100
AcDbEntity
  8
image
100
AcDbVertex
100
AcDb2dVertex
 10
2.924325375319097
 20
7.605425331124472
 30
0.0
 70
     8
  0
VERTEX
  5
1D22
330
1C97
100
AcDbEntity
  8
image
100
AcDbVertex
100
AcDb2dVertex
 10
2.924072797764248
 20
7.60509483866862
 30
0.0
 70
     8
  0
VERTEX
  5
1D23
330
1C97
100
AcDbEntity
  8
image
100
AcDbVertex
100
AcDb2dVertex
 10
2.923820220209399
 20
7.604764346212768
 30
0.0
 70
     8
  0
VERTEX
  5
1D24
330
1C97
100
AcDbEntity
  8
image
100
AcDbVertex
100
AcDb2dVertex
 10
2.923565936760327
 20
7.604430876511463
 30
0.0
 70
     8
  0
VERTEX
  5
1D25
330
1C97
100
AcDbEntity
  8
image
100
AcDbVertex
100
AcDb2dVertex
 10
2.923308241522811
 20
7.604091452319253
 30
0.0
 70
     8
  0
VERTEX
  5
1D26
330
1C97
100
AcDbEntity
  8
image
100
AcDbVertex
100
AcDb2dVertex
 10
2.923045428602628
 20
7.603743096390684
 30
0.0
 70
     8
  0
VERTEX
  5
1D27
330
1C97
100
AcDbEntity
  8
image
100
AcDbVertex
100
AcDb2dVertex
 10
2.922775988910378
 20
7.60338403693786
 30
0.0
 70
     8
  0
VERTEX
  5
1D28
330
1C97
100
AcDbEntity
  8
image
100
AcDbVertex
100
AcDb2dVertex
 10
2.922499200575949
 20
7.603017324003102
 30
0.0
 70
     8
  0
VERTEX
  5
1D29
330
1C97
100
AcDbEntity
  8
image
100
AcDbVertex
100
AcDb2dVertex
 10
2.922214538534053
 20
7.602647213086288
 30
0.0
 70
     8
  0
VERTEX
  5
1D2A
330
1C97
100
AcDbEntity
  8
image
100
AcDbVertex
100
AcDb2dVertex
 10
2.9219214777194
 20
7.602277959687294
 30
0.0
 70
     8
  0
VERTEX
  5
1D2B
330
1C97
100
AcDbEntity
  8
image
100
AcDbVertex
100
AcDb2dVertex
 10
2.921619493066702
 20
7.601913819305996
 30
0.0
 70
     8
  0
VERTEX
  5
1D2C
330
1C97
100
AcDbEntity
  8
image
100
AcDbVertex
100
AcDb2dVertex
 10
2.921308059510669
 20
7.601559047442271
 30
0.0
 70
     8
  0
VERTEX
  5
1D2D
330
1C97
100
AcDbEntity
  8
image
100
AcDbVertex
100
AcDb2dVertex
 10
2.920986651986013
 20
7.601217899595997
 30
0.0
 70
     8
  0
VERTEX
  5
1D2E
330
1C97
100
AcDbEntity
  8
image
100
AcDbVertex
100
AcDb2dVertex
 10
2.920654745427444
 20
7.600894631267053
 30
0.0
 70
     8
  0
VERTEX
  5
1D2F
330
1C97
100
AcDbEntity
  8
image
100
AcDbVertex
100
AcDb2dVertex
 10
2.920311459367749
 20
7.600592877700022
 30
0.0
 70
     8
  0
VERTEX
  5
1D30
330
1C97
100
AcDbEntity
  8
image
100
AcDbVertex
100
AcDb2dVertex
 10
2.919954491732013
 20
7.600313793118336
 30
0.0
 70
     8
  0
VERTEX
  5
1D31
330
1C97
100
AcDbEntity
  8
image
100
AcDbVertex
100
AcDb2dVertex
 10
2.919581185043398
 20
7.600057911490136
 30
0.0
 70
     8
  0
VERTEX
  5
1D32
330
1C97
100
AcDbEntity
  8
image
100
AcDbVertex
100
AcDb2dVertex
 10
2.919188881825065
 20
7.599825766783562
 30
0.0
 70
     8
  0
VERTEX
  5
1D33
330
1C97
100
AcDbEntity
  8
image
100
AcDbVertex
100
AcDb2dVertex
 10
2.918774924600175
 20
7.599617892966755
 30
0.0
 70
     8
  0
VERTEX
  5
1D34
330
1C97
100
AcDbEntity
  8
image
100
AcDbVertex
100
AcDb2dVertex
 10
2.918336655891891
 20
7.599434824007856
 30
0.0
 70
     8
  0
VERTEX
  5
1D35
330
1C97
100
AcDbEntity
  8
image
100
AcDbVertex
100
AcDb2dVertex
 10
2.917871418223372
 20
7.599277093875004
 30
0.0
 70
     8
  0
VERTEX
  5
1D36
330
1C97
100
AcDbEntity
  8
image
100
AcDbVertex
100
AcDb2dVertex
 10
2.91737655411778
 20
7.599145236536341
 30
0.0
 70
     8
  0
VERTEX
  5
1D37
330
1C97
100
AcDbEntity
  8
image
100
AcDbVertex
100
AcDb2dVertex
 10
2.916829399012782
 20
7.599045954790038
 30
0.0
 70
     8
  0
VERTEX
  5
1D38
330
1C97
100
AcDbEntity
  8
image
100
AcDbVertex
100
AcDb2dVertex
 10
2.916127260004066
 20
7.599010626754385
 30
0.0
 70
     8
  0
VERTEX
  5
1D39
330
1C97
100
AcDbEntity
  8
image
100
AcDbVertex
100
AcDb2dVertex
 10
2.915147437101826
 20
7.5990767993777
 30
0.0
 70
     8
  0
VERTEX
  5
1D3A
330
1C97
100
AcDbEntity
  8
image
100
AcDbVertex
100
AcDb2dVertex
 10
2.913767230316255
 20
7.599282019608305
 30
0.0
 70
     8
  0
VERTEX
  5
1D3B
330
1C97
100
AcDbEntity
  8
image
100
AcDbVertex
100
AcDb2dVertex
 10
2.911863939657548
 20
7.599663834394521
 30
0.0
 70
     8
  0
VERTEX
  5
1D3C
330
1C97
100
AcDbEntity
  8
image
100
AcDbVertex
100
AcDb2dVertex
 10
2.909314865135897
 20
7.600259790684667
 30
0.0
 70
     8
  0
VERTEX
  5
1D3D
330
1C97
100
AcDbEntity
  8
image
100
AcDbVertex
100
AcDb2dVertex
 10
2.905997306761496
 20
7.601107435427063
 30
0.0
 70
     8
  0
VERTEX
  5
1D3E
330
1C97
100
AcDbEntity
  8
image
100
AcDbVertex
100
AcDb2dVertex
 10
2.90178856454454
 20
7.602244315570028
 30
0.0
 70
     8
  0
VERTEX
  5
1D3F
330
1C97
100
AcDbEntity
  8
image
100
AcDbVertex
100
AcDb2dVertex
 10
2.896573026176004
 20
7.603682005461294
 30
0.0
 70
     8
  0
VERTEX
  5
1D40
330
1C97
100
AcDbEntity
  8
image
100
AcDbVertex
100
AcDb2dVertex
 10
2.890263430070003
 20
7.605328189046226
 30
0.0
 70
     8
  0
VERTEX
  5
1D41
330
1C97
100
AcDbEntity
  8
image
100
AcDbVertex
100
AcDb2dVertex
 10
2.882779602321432
 20
7.607064577669602
 30
0.0
 70
     8
  0
VERTEX
  5
1D42
330
1C97
100
AcDbEntity
  8
image
100
AcDbVertex
100
AcDb2dVertex
 10
2.874041369025186
 20
7.608772882676196
 30
0.0
 70
     8
  0
VERTEX
  5
1D43
330
1C97
100
AcDbEntity
  8
image
100
AcDbVertex
100
AcDb2dVertex
 10
2.863968556276164
 20
7.610334815410784
 30
0.0
 70
     8
  0
VERTEX
  5
1D44
330
1C97
100
AcDbEntity
  8
image
100
AcDbVertex
100
AcDb2dVertex
 10
2.85248099016926
 20
7.611632087218143
 30
0.0
 70
     8
  0
VERTEX
  5
1D45
330
1C97
100
AcDbEntity
  8
image
100
AcDbVertex
100
AcDb2dVertex
 10
2.839498496799372
 20
7.612546409443048
 30
0.0
 70
     8
  0
VERTEX
  5
1D46
330
1C97
100
AcDbEntity
  8
image
100
AcDbVertex
100
AcDb2dVertex
 10
2.824940902261395
 20
7.612959493430277
 30
0.0
 70
     8
  0
VERTEX
  5
1D47
330
1C97
100
AcDbEntity
  8
image
100
AcDbVertex
100
AcDb2dVertex
 10
2.808761744141666
 20
7.612769720786775
 30
0.0
 70
     8
  0
VERTEX
  5
1D48
330
1C97
100
AcDbEntity
  8
image
100
AcDbVertex
100
AcDb2dVertex
 10
2.791049405992284
 20
7.611942154168182
 30
0.0
 70
     8
  0
VERTEX
  5
1D49
330
1C97
100
AcDbEntity
  8
image
100
AcDbVertex
100
AcDb2dVertex
 10
2.771925982856789
 20
7.610458526492307
 30
0.0
 70
     8
  0
VERTEX
  5
1D4A
330
1C97
100
AcDbEntity
  8
image
100
AcDbVertex
100
AcDb2dVertex
 10
2.751513569778721
 20
7.608300570676958
 30
0.0
 70
     8
  0
VERTEX
  5
1D4B
330
1C97
100
AcDbEntity
  8
image
100
AcDbVertex
100
AcDb2dVertex
 10
2.72993426180162
 20
7.605450019639947
 30
0.0
 70
     8
  0
VERTEX
  5
1D4C
330
1C97
100
AcDbEntity
  8
image
100
AcDbVertex
100
AcDb2dVertex
 10
2.707310153969024
 20
7.601888606299084
 30
0.0
 70
     8
  0
VERTEX
  5
1D4D
330
1C97
100
AcDbEntity
  8
image
100
AcDbVertex
100
AcDb2dVertex
 10
2.683763341324475
 20
7.597598063572176
 30
0.0
 70
     8
  0
VERTEX
  5
1D4E
330
1C97
100
AcDbEntity
  8
image
100
AcDbVertex
100
AcDb2dVertex
 10
2.65941591891151
 20
7.592560124377034
 30
0.0
 70
     8
  0
VERTEX
  5
1D4F
330
1C97
100
AcDbEntity
  8
image
100
AcDbVertex
100
AcDb2dVertex
 10
2.634419571568356
 20
7.586763279309033
 30
0.0
 70
     8
  0
VERTEX
  5
1D50
330
1C97
100
AcDbEntity
  8
image
100
AcDbVertex
100
AcDb2dVertex
 10
2.609044343311969
 20
7.580223049673795
 30
0.0
 70
     8
  0
VERTEX
  5
1D51
330
1C97
100
AcDbEntity
  8
image
100
AcDbVertex
100
AcDb2dVertex
 10
2.583589867953993
 20
7.572961714454514
 30
0.0
 70
     8
  0
VERTEX
  5
1D52
330
1C97
100
AcDbEntity
  8
image
100
AcDbVertex
100
AcDb2dVertex
 10
2.55835577930607
 20
7.565001552634377
 30
0.0
 70
     8
  0
VERTEX
  5
1D53
330
1C97
100
AcDbEntity
  8
image
100
AcDbVertex
100
AcDb2dVertex
 10
2.533641711179843
 20
7.556364843196573
 30
0.0
 70
     8
  0
VERTEX
  5
1D54
330
1C97
100
AcDbEntity
  8
image
100
AcDbVertex
100
AcDb2dVertex
 10
2.509747297386954
 20
7.547073865124293
 30
0.0
 70
     8
  0
VERTEX
  5
1D55
330
1C97
100
AcDbEntity
  8
image
100
AcDbVertex
100
AcDb2dVertex
 10
2.486972171739046
 20
7.537150897400725
 30
0.0
 70
     8
  0
VERTEX
  5
1D56
330
1C97
100
AcDbEntity
  8
image
100
AcDbVertex
100
AcDb2dVertex
 10
2.465615968047762
 20
7.526618219009061
 30
0.0
 70
     8
  0
VERTEX
  5
1D57
330
1C97
100
AcDbEntity
  8
image
100
AcDbVertex
100
AcDb2dVertex
 10
2.445924467337079
 20
7.515449747793485
 30
0.0
 70
     8
  0
VERTEX
  5
1D58
330
1C97
100
AcDbEntity
  8
image
100
AcDbVertex
100
AcDb2dVertex
 10
2.427928039480313
 20
7.503425957042171
 30
0.0
 70
     8
  0
VERTEX
  5
1D59
330
1C97
100
AcDbEntity
  8
image
100
AcDbVertex
100
AcDb2dVertex
 10
2.411603201563114
 20
7.490278958904294
 30
0.0
 70
     8
  0
VERTEX
  5
1D5A
330
1C97
100
AcDbEntity
  8
image
100
AcDbVertex
100
AcDb2dVertex
 10
2.396926470671133
 20
7.475740865529025
 30
0.0
 70
     8
  0
VERTEX
  5
1D5B
330
1C97
100
AcDbEntity
  8
image
100
AcDbVertex
100
AcDb2dVertex
 10
2.383874363890021
 20
7.459543789065534
 30
0.0
 70
     8
  0
VERTEX
  5
1D5C
330
1C97
100
AcDbEntity
  8
image
100
AcDbVertex
100
AcDb2dVertex
 10
2.372423398305429
 20
7.441419841662995
 30
0.0
 70
     8
  0
VERTEX
  5
1D5D
330
1C97
100
AcDbEntity
  8
image
100
AcDbVertex
100
AcDb2dVertex
 10
2.362550091003007
 20
7.421101135470578
 30
0.0
 70
     8
  0
VERTEX
  5
1D5E
330
1C97
100
AcDbEntity
  8
image
100
AcDbVertex
100
AcDb2dVertex
 10
2.354230959068405
 20
7.398319782637457
 30
0.0
 70
     8
  0
VERTEX
  5
1CE6
330
1C97
100
AcDbEntity
  8
image
100
AcDbVertex
100
AcDb2dVertex
 10
2.947524223355279
 20
7.614689608124018
 30
0.0
 70
    16
  0
VERTEX
  5
1CE7
330
1C97
100
AcDbEntity
  8
image
100
AcDbVertex
100
AcDb2dVertex
 10
2.936852350908272
 20
7.613717546794747
 30
0.0
 70
    16
  0
VERTEX
  5
1CE8
330
1C97
100
AcDbEntity
  8
image
100
AcDbVertex
100
AcDb2dVertex
 10
2.933095361144423
 20
7.613339221517797
 30
0.0
 70
    16
  0
VERTEX
  5
1CE9
330
1C97
100
AcDbEntity
  8
image
100
AcDbVertex
100
AcDb2dVertex
 10
2.930262282205437
 20
7.611925356628136
 30
0.0
 70
    16
  0
VERTEX
  5
1CEA
330
1C97
100
AcDbEntity
  8
image
100
AcDbVertex
100
AcDb2dVertex
 10
2.927373259709568
 20
7.609531152920368
 30
0.0
 70
    16
  0
VERTEX
  5
1CEB
330
1C97
100
AcDbEntity
  8
image
100
AcDbVertex
100
AcDb2dVertex
 10
2.925027382105715
 20
7.60631955180724
 30
0.0
 70
    16
  0
VERTEX
  5
1CEC
330
1C97
100
AcDbEntity
  8
image
100
AcDbVertex
100
AcDb2dVertex
 10
2.923118213422781
 20
7.603870125529999
 30
0.0
 70
    16
  0
VERTEX
  5
1CED
330
1C97
100
AcDbEntity
  8
image
100
AcDbVertex
100
AcDb2dVertex
 10
2.920772335818929
 20
7.600658524416871
 30
0.0
 70
    16
  0
VERTEX
  5
1CEE
330
1C97
100
AcDbEntity
  8
image
100
AcDbVertex
100
AcDb2dVertex
 10
2.91772091586617
 20
7.598863564404828
 30
0.0
 70
    16
  0
VERTEX
  5
1CEF
330
1C97
100
AcDbEntity
  8
image
100
AcDbVertex
100
AcDb2dVertex
 10
2.912603325423072
 20
7.598758637181862
 30
0.0
 70
    16
  0
VERTEX
  5
1CF0
330
1C97
100
AcDbEntity
  8
image
100
AcDbVertex
100
AcDb2dVertex
 10
2.842597169708781
 20
7.619567780287892
 30
0.0
 70
    16
  0
VERTEX
  5
1CF1
330
1C97
100
AcDbEntity
  8
image
100
AcDbVertex
100
AcDb2dVertex
 10
2.666653409310173
 20
7.600727202248226
 30
0.0
 70
    16
  0
VERTEX
  5
1CF2
330
1C97
100
AcDbEntity
  8
image
100
AcDbVertex
100
AcDb2dVertex
 10
2.447284706519589
 20
7.532884156981415
 30
0.0
 70
    16
  0
VERTEX
  5
1CF3
330
1C97
100
AcDbEntity
  8
image
100
AcDbVertex
100
AcDb2dVertex
 10
2.374363950771892
 20
7.462591708247456
 30
0.0
 70
    16
  0
VERTEX
  5
1CF4
330
1C97
100
AcDbEntity
  8
image
100
AcDbVertex
100
AcDb2dVertex
 10
2.354230959068405
 20
7.398319782637457
 30
0.0
 70
    16
  0
SEQEND
  5
1CF5
330
1C97
100
AcDbEntity
  8
image
  0
ENDSEC
  0
SECTION
  2
OBJECTS
  0
DICTIONARY
  5
10AF
330
0
100
AcDbDictionary
281
     1
  3
ACAD_COLOR
350
121C
  3
ACAD_GROUP
350
10B0
  3
ACAD_LAYOUT
350
10BC
  3
ACAD_MATERIAL
350
11F2
  3
ACAD_MLEADERSTYLE
350
1241
  3
ACAD_MLINESTYLE
350
10B9
  3
ACAD_PLOTSETTINGS
350
10BB
  3
ACAD_PLOTSTYLENAME
350
10B1
  3
ACAD_SCALELIST
350
121F
  3
ACAD_TABLESTYLE
350
121D
  3
ACAD_VISUALSTYLE
350
120B
  3
ACDB_RECOMPOSE_DATA
350
12BC
  3
AcDbVariableDictionary
350
10DD
  3
AEC_PROPERTY_SET_DEFS
350
1350
1001
BBSI_PltSel
1000
1
1000

1001
BBSI_Bookmarks
1000
1
1000
1
1000
0
1000
1
1000
0
1000
0
1000
0
1000
0
1000
0
1000
0
1000
0
1001
BBSI_BookmarksEx
1000
0
1000
0
1000

1000
0
1001
BBSI_Plots
1000

1000
ANSI_A_(11.00_x_8.50_Inches)
1000
279.399993896484
1000
215.899993896484
1000
0
1000
1
1000
1
1000
1.513528885555E-14
1000
17.9871359092673
1000
1
1000
0
1000
1
1000
1.56885758041751
1000
0
1000
1
1000
PDF BW Shaded.ctb
1000
0
1000
0
1000
1
1000
1
1000
0
1000
0
1000
0
1000
0
1000
0
1000
0
1000

1000

  0
DICTIONARY
  5
10EB
330
10A5
100
AcDbDictionary
280
     1
281
     1
  3
ACAD_LAYERFILTERS
360
1D8C
  3
ACAD_LAYERSTATES
360
10EC
  0
DICTIONARY
  5
12AB
330
10C1
100
AcDbDictionary
280
     1
281
     1
  0
DICTIONARY
  5
1316
330
1195
100
AcDbDictionary
280
     1
281
     1
  3
ACAD_SORTENTS
360
1344
  0
DICTIONARY
  5
1DA7
330
12DA
100
AcDbDictionary
280
     1
281
     1
  3
ACAD_MTEXT_2008_RT
360
1DA8
  0
DICTIONARY
  5
121C
102
{ACAD_REACTORS
330
10AF
102
}
330
10AF
100
AcDbDictionary
281
     1
  0
DICTIONARY
  5
10B0
102
{ACAD_REACTORS
330
10AF
102
}
330
10AF
100
AcDbDictionary
281
     1
  0
DICTIONARY
  5
10BC
102
{ACAD_REACTORS
330
10AF
102
}
330
10AF
100
AcDbDictionary
281
     1
  3
Layout1
350
10C0
  3
Model
350
10C4
  0
DICTIONARY
  5
11F2
102
{ACAD_REACTORS
330
10AF
102
}
330
10AF
100
AcDbDictionary
281
     1
  3
ByBlock
350
11FB
  3
ByLayer
350
11F3
  3
Global
350
1203
  0
DICTIONARY
  5
1241
102
{ACAD_REACTORS
330
10AF
102
}
330
10AF
100
AcDbDictionary
281
     1
  3
Standard
350
1242
  0
DICTIONARY
  5
10B9
102
{ACAD_REACTORS
330
10AF
102
}
330
10AF
100
AcDbDictionary
281
     1
  3
Standard
350
10BA
  0
DICTIONARY
  5
10BB
102
{ACAD_REACTORS
330
10AF
102
}
330
10AF
100
AcDbDictionary
281
     1
  3
1055 24x36 BW
350
1256
  3
1055 24x36 BW Final
350
1258
  3
1055 24x36 Color
350
1259
  3
1055 24x36 Color Shaded
350
125A
  3
1055 30x42 BW
350
125B
  3
1055 30x42 BW Final
350
125C
  3
1055 B&W Draft
350
125D
  3
1055 B&W Final
350
125E
  3
1055 BW Half
350
125F
  3
1055 Color Draft
350
1260
  3
1055 Color Final
350
1261
  3
1055+ 24x36 BW
350
1262
  3
1055+ 24x36 BW Final
350
1263
  3
1055+ 24x36 Color
350
1264
  3
1055+ 24x36 Color Shaded
350
1265
  3
1055+ 30x42 BW
350
1266
  3
1055+ 30x42 BW Final
350
1267
  3
1055+ B&W Draft
350
1268
  3
1055+ B&W Final
350
1269
  3
1055+ BW Half
350
126A
  3
1055+ Color Draft
350
126B
  3
1055+ Color Final
350
126C
  3
_1055 22x34 True Centered BW
350
126D
  3
_1055 24x36 True Centered BW
350
126E
  3
_1055 24x36 True Centered BW Final
350
126F
  3
_1055 24x36 True Centered Color
350
1270
  3
_1055 30x42 True Centered BW
350
1271
  3
_1055+ 22x34 True Centered BW
350
1272
  3
_1055+ 24x36 True Centered BW
350
1273
  3
_1055+ 24x36 True Centered BW Final
350
1274
  3
_1055+ 24x36 True Centered Color
350
1275
  3
DWF BW 11x17 Fit
350
1276
  3
DWF BW 11x17 Half
350
1277
  3
DWF BW 22x34
350
1278
  3
DWF BW 24x36
350
1279
  3
DWF BW 30x42
350
127A
  3
DWF BW 36x48
350
127B
  3
Laser5 11x17 Fit
350
127C
  3
Laser5 11x17 Full
350
127D
  3
Laser5 11x17 Half
350
127E
  3
Laser5 8x11 Fit
350
127F
  3
Laser5 8x11 Half
350
1280
  3
Laser5 8x11 Portrait Fit
350
1281
  3
LaserJet5 11x17
350
1282
  3
LaserJet5 8.5x11
350
1283
  3
Oki9500 11x17 BW Fit
350
1284
  3
Oki9500 11x17 BW Full
350
1285
  3
Oki9500 11x17 BW Half
350
1286
  3
Oki9500 11x17 Color Fit
350
1287
  3
Oki9500 11x17 Color Full
350
1288
  3
Oki9500 11x17 Color Half
350
1289
  3
Oki9500 8x11 BW Fit
350
128A
  3
Oki9500 8x11 BW Portrait Fit
350
128B
  3
Oki9500 8x11 Color Fit
350
128C
  3
Oki9500 8x11 Color Portrait Fit
350
128D
  3
OKI9500 B&W 11x17
350
128E
  3
OKI9500 B&W 8.5x11
350
128F
  3
OKI9500 Color 11x17
350
1290
  3
OKI9500 Color 8.5x11
350
1291
  3
Oki9600 11x17 BW Fit
350
1292
  3
Oki9600 11x17 BW Full
350
1293
  3
Oki9600 11x17 BW Half
350
1294
  3
Oki9600 11x17 Color Fit
350
1295
  3
Oki9600 11x17 Color Full
350
1296
  3
Oki9600 11x17 Color Half
350
1297
  3
Oki9600 8x11 BW Fit
350
1298
  3
Oki9600 8x11 BW Portrait Fit
350
1299
  3
Oki9600 8x11 Color Fit
350
129A
  3
Oki9600 8x11 Color Portrait Fit
350
129B
  3
OKI9600 B&W 11x17
350
129C
  3
OKI9600 B&W 8.5x11
350
129D
  3
OKI9600 Color 11x17
350
129E
  3
OKI9600 Color 8.5x11
350
129F
  3
PHX Kyocera 11x17 Fit
350
12A0
  3
PHX Oki9500 11x17 BW Fit
350
12A1
  3
PHX Oki9500 11x17 BW Half
350
12A2
  0
ACDBDICTIONARYWDFLT
  5
10B1
102
{ACAD_REACTORS
330
10AF
102
}
330
10AF
100
AcDbDictionary
281
     1
  3
Normal
350
10B2
100
AcDbDictionaryWithDefault
340
10B2
  0
DICTIONARY
  5
121F
102
{ACAD_REACTORS
330
10AF
102
}
330
10AF
100
AcDbDictionary
281
     1
  3
A0
350
1220
  3
A1
350
1221
  3
A2
350
1222
  3
A3
350
1223
  3
A4
350
1224
  3
A5
350
1225
  3
A6
350
1226
  3
A7
350
1227
  3
A8
350
1228
  3
A9
350
1229
  3
B0
350
122A
  3
B1
350
122B
  3
B2
350
122C
  3
B3
350
122D
  3
B4
350
122E
  3
B5
350
122F
  3
B6
350
1230
  3
B7
350
1231
  3
B8
350
1232
  3
B9
350
1233
  3
C0
350
1234
  3
C1
350
1235
  3
C2
350
1236
  3
C3
350
1237
  3
C4
350
1238
  3
C5
350
1239
  3
C6
350
123A
  3
C7
350
123B
  3
C8
350
123C
  3
C9
350
123D
  3
D0
350
123E
  3
D1
350
123F
  3
D2
350
1240
  0
DICTIONARY
  5
121D
102
{ACAD_REACTORS
330
10AF
102
}
330
10AF
100
AcDbDictionary
281
     1
  3
Standard
350
121E
  0
DICTIONARY
  5
120B
102
{ACAD_REACTORS
330
10AF
102
}
330
10AF
100
AcDbDictionary
281
     1
  3
2dWireframe
350
1211
  3
3D Hidden
350
1213
  3
3dWireframe
350
1212
  3
Basic
350
1210
  3
Brighten
350
1217
  3
ColorChange
350
121B
  3
Conceptual
350
1214
  3
Dim
350
1216
  3
Facepattern
350
121A
  3
Flat
350
120C
  3
FlatWithEdges
350
120D
  3
Gouraud
350
120E
  3
GouraudWithEdges
350
120F
  3
Linepattern
350
1219
  3
Realistic
350
1215
  3
Thicken
350
1218
  0
XRECORD
  5
12BC
102
{ACAD_REACTORS
330
10AF
102
}
330
10AF
100
AcDbXrecord
280
     1
 90
        1
330
121E
330
12DA
  0
DICTIONARY
  5
10DD
102
{ACAD_REACTORS
330
10AF
102
}
330
10AF
100
AcDbDictionary
281
     1
  3
CANNOSCALE
350
12C0
  3
CMLEADERSTYLE
350
12BE
  3
CTABLESTYLE
350
12BD
  3
DIMASSOC
350
10E0
  3
HIDETEXT
350
10DF
  3
LAYEREVAL
350
1DA5
  3
LAYERNOTIFY
350
12C2
  3
LIGHTINGUNITS
350
12C1
  3
MSLTSCALE
350
12BF
  3
SORTENTS
350
10DE
  0
DICTIONARY
  5
1350
102
{ACAD_REACTORS
330
10AF
102
}
330
10AF
100
AcDbDictionary
281
     1
  0
DICTIONARY
  5
1D8C
102
{ACAD_REACTORS
330
10EB
102
}
330
10EB
100
AcDbDictionary
281
     1
  3
_0100-
350
1D8F
  3
_0280-
350
1D8E
  3
_Color 253
350
1D92
  3
_Color 8
350
1D90
  3
_Color 84
350
1D91
  3
_Contours
350
1D97
  3
_Existing
350
1D93
  3
_Hardscape
350
1D96
  3
_NoXref
350
1D8D
  3
_Row
350
1D94
  3
_Utility
350
1D95
  0
DICTIONARY
  5
10EC
102
{ACAD_REACTORS
330
10EB
102
}
330
10EB
100
AcDbDictionary
281
     1
  0
SORTENTSTABLE
  5
1344
102
{ACAD_REACTORS
330
1316
102
}
330
1316
100
AcDbSortentsTable
330
1195
  0
XRECORD
  5
1DA8
102
{ACAD_REACTORS
330
1DA7
102
}
330
1DA7
100
AcDbXrecord
280
     1
 40
10169343.0
  1
\A1;PLANT MATERIAL \P\PFINISH GRADE \P\P\pxi-2,l2;MICRO-SPRAY POP-UP:\P\pt2;^IRAIN BIRD XERI-POP XP-600X \P\pi0,l0,tz;{\Fromans|c0;\H0.7x;\S1#2;\H1.4286x;" POLYETHYLENE TUBING:\P\pi-2,l2;  RAIN BIRD XF SERIES TUBING OR\P\pi0,l0;  RAIN BIRD XT-700 XERI
  1
-TUBE OR\P  RAIN BIRD XBS BLACK STRIPE TUBING \H0.99998x;\P\Fsimplex|c0;\H0.7x;\S1#4;}" SELF-PIERCING BARB CONNECTOR:\P\pt2;^IRAIN BIRD SPB-025   \P\pi-2,l2,tz;{\Fromans|c0;\H0.7x;\S1#4;\H1.4286x;" DISTRIBUTION TUBING:  \P  RAIN BIRD XQ TUBING\P  (LEN
  1
GTH AS REQUIRED)}
  0
LAYOUT
  5
10C0
102
{ACAD_REACTORS
330
10BC
102
}
330
10BC
100
AcDbPlotSettings
  1

  2
S:\AutoCAD 2002\Plotters\1055B&WDraftShaded.pc3
  4

  6

 40
0.0
 41
0.0
 42
0.0
 43
0.0
 44
0.0
 45
0.0
 46
0.0
 47
0.0
 48
0.0
 49
0.0
140
0.0
141
0.0
142
1.0
143
1.0
 70
   688
 72
     0
 73
     0
 74
     5
  7
TRexLJ5Shaded2.ctb
 75
    16
147
1.0
 76
     0
 77
     2
 78
   300
148
0.0
149
0.0
100
AcDbLayout
  1
Layout1
 70
     1
 71
     1
 10
0.0
 20
0.0
 11
12.0
 21
9.0
 12
0.0
 22
0.0
 32
0.0
 14
1.000000000000000E+20
 24
1.000000000000000E+20
 34
1.000000000000000E+20
 15
-1.000000000000000E+20
 25
-1.000000000000000E+20
 35
-1.000000000000000E+20
146
0.0
 13
0.0
 23
0.0
 33
0.0
 16
1.0
 26
0.0
 36
0.0
 17
0.0
 27
1.0
 37
0.0
 76
     0
330
10BD
  0
LAYOUT
  5
10C4
102
{ACAD_REACTORS
330
10BC
102
}
330
10BC
100
AcDbPlotSettings
  1
LaserJet5 8.5x11
  2
LaserJet5Shaded-8x11.pc3
  4
Letter
  6

 40
5.873749732971191
 41
5.873734951019287
 42
6.55108642578125
 43
5.027084350585937
 44
279.3999938964844
 45
215.8999938964844
 46
32.0229288755689
 47
-0.0000000000000076
 48
0.0
 49
0.0
140
0.0
141
0.0
142
1.0
143
1.293546671707545
 70
 11956
 72
     0
 73
     0
 74
     1
  7
laserjet5shaded.ctb
 75
     0
147
0.7730683568455638
 76
     0
 77
     2
 78
   300
148
12.66076841047503
149
32.36515640156503
100
AcDbLayout
  1
Model
 70
     1
 71
     0
 10
0.0
 20
0.0
 11
12.0
 21
9.0
 12
0.0
 22
0.0
 32
0.0
 14
0.0
 24
0.0
 34
0.0
 15
0.0
 25
0.0
 35
0.0
146
0.0
 13
0.0
 23
0.0
 33
0.0
 16
1.0
 26
0.0
 36
0.0
 17
0.0
 27
1.0
 37
0.0
 76
     0
330
10C1
331
11F0
1001
ACAD_PSEXT
1000
LaserJet5Shaded-8x11.pc3
1000
HP LaserJet 5Si
1000
CAD Area
1000

1070
     0
  0
MATERIAL
  5
11FB
102
{ACAD_XDICTIONARY
360
11FC
102
}
102
{ACAD_REACTORS
330
11F2
102
}
330
11F2
100
AcDbMaterial
  1
ByBlock
 72
     0
 43
0.0208333333333333
 43
0.0
 43
0.0
 43
0.0
 43
0.0
 43
0.0208333333333333
 43
0.0
 43
0.0
 43
0.0
 43
0.0
 43
1.0
 43
0.0
 43
0.0
 43
0.0
 43
0.0
 43
1.0
 77
     0
 47
0.0208333333333333
 47
0.0
 47
0.0
 47
0.0
 47
0.0
 47
0.0208333333333333
 47
0.0
 47
0.0
 47
0.0
 47
0.0
 47
1.0
 47
0.0
 47
0.0
 47
0.0
 47
0.0
 47
1.0
171
     0
 49
0.0208333333333333
 49
0.0
 49
0.0
 49
0.0
 49
0.0
 49
0.0208333333333333
 49
0.0
 49
0.0
 49
0.0
 49
0.0
 49
1.0
 49
0.0
 49
0.0
 49
0.0
 49
0.0
 49
1.0
175
     0
142
0.0208333333333333
142
0.0
142
0.0
142
0.0
142
0.0
142
0.0208333333333333
142
0.0
142
0.0
142
0.0
142
0.0
142
1.0
142
0.0
142
0.0
142
0.0
142
0.0
142
1.0
179
     0
144
0.0208333333333333
144
0.0
144
0.0
144
0.0
144
0.0
144
0.0208333333333333
144
0.0
144
0.0
144
0.0
144
0.0
144
1.0
144
0.0
144
0.0
144
0.0
144
0.0
144
1.0
147
0.0208333333333333
147
0.0
147
0.0
147
0.0
147
0.0
147
0.0208333333333333
147
0.0
147
0.0
147
0.0
147
0.0
147
1.0
147
0.0
147
0.0
147
0.0
147
0.0
147
1.0
  0
MATERIAL
  5
11F3
102
{ACAD_XDICTIONARY
360
11F4
102
}
102
{ACAD_REACTORS
330
11F2
102
}
330
11F2
100
AcDbMaterial
  1
ByLayer
 72
     0
 43
0.0208333333333333
 43
0.0
 43
0.0
 43
0.0
 43
0.0
 43
0.0208333333333333
 43
0.0
 43
0.0
 43
0.0
 43
0.0
 43
1.0
 43
0.0
 43
0.0
 43
0.0
 43
0.0
 43
1.0
 77
     0
 47
0.0208333333333333
 47
0.0
 47
0.0
 47
0.0
 47
0.0
 47
0.0208333333333333
 47
0.0
 47
0.0
 47
0.0
 47
0.0
 47
1.0
 47
0.0
 47
0.0
 47
0.0
 47
0.0
 47
1.0
171
     0
 49
0.0208333333333333
 49
0.0
 49
0.0
 49
0.0
 49
0.0
 49
0.0208333333333333
 49
0.0
 49
0.0
 49
0.0
 49
0.0
 49
1.0
 49
0.0
 49
0.0
 49
0.0
 49
0.0
 49
1.0
175
     0
142
0.0208333333333333
142
0.0
142
0.0
142
0.0
142
0.0
142
0.0208333333333333
142
0.0
142
0.0
142
0.0
142
0.0
142
1.0
142
0.0
142
0.0
142
0.0
142
0.0
142
1.0
179
     0
144
0.0208333333333333
144
0.0
144
0.0
144
0.0
144
0.0
144
0.0208333333333333
144
0.0
144
0.0
144
0.0
144
0.0
144
1.0
144
0.0
144
0.0
144
0.0
144
0.0
144
1.0
147
0.0208333333333333
147
0.0
147
0.0
147
0.0
147
0.0
147
0.0208333333333333
147
0.0
147
0.0
147
0.0
147
0.0
147
1.0
147
0.0
147
0.0
147
0.0
147
0.0
147
1.0
  0
MATERIAL
  5
1203
102
{ACAD_XDICTIONARY
360
1204
102
}
102
{ACAD_REACTORS
330
11F2
102
}
330
11F2
100
AcDbMaterial
  1
Global
 72
     0
 43
0.0208333333333333
 43
0.0
 43
0.0
 43
0.0
 43
0.0
 43
0.0208333333333333
 43
0.0
 43
0.0
 43
0.0
 43
0.0
 43
1.0
 43
0.0
 43
0.0
 43
0.0
 43
0.0
 43
1.0
 77
     0
 47
0.0208333333333333
 47
0.0
 47
0.0
 47
0.0
 47
0.0
 47
0.0208333333333333
 47
0.0
 47
0.0
 47
0.0
 47
0.0
 47
1.0
 47
0.0
 47
0.0
 47
0.0
 47
0.0
 47
1.0
171
     0
 49
0.0208333333333333
 49
0.0
 49
0.0
 49
0.0
 49
0.0
 49
0.0208333333333333
 49
0.0
 49
0.0
 49
0.0
 49
0.0
 49
1.0
 49
0.0
 49
0.0
 49
0.0
 49
0.0
 49
1.0
175
     0
142
0.0208333333333333
142
0.0
142
0.0
142
0.0
142
0.0
142
0.0208333333333333
142
0.0
142
0.0
142
0.0
142
0.0
142
1.0
142
0.0
142
0.0
142
0.0
142
0.0
142
1.0
179
     0
144
0.0208333333333333
144
0.0
144
0.0
144
0.0
144
0.0
144
0.0208333333333333
144
0.0
144
0.0
144
0.0
144
0.0
144
1.0
144
0.0
144
0.0
144
0.0
144
0.0
144
1.0
147
0.0208333333333333
147
0.0
147
0.0
147
0.0
147
0.0
147
0.0208333333333333
147
0.0
147
0.0
147
0.0
147
0.0
147
1.0
147
0.0
147
0.0
147
0.0
147
0.0
147
1.0
  0
MLEADERSTYLE
  5
1242
102
{ACAD_REACTORS
330
1241
102
}
330
1241
100
AcDbMLeaderStyle
170
     2
171
     1
172
     0
 90
        2
 40
0.0
 41
0.0
173
     1
 91
-1056964608
340
10B6
 92
       -2
290
     1
 42
0.09
291
     1
 43
0.36
  3
Standard
 44
0.18
300

342
10B4
174
     1
178
     6
175
     1
176
     0
 93
-1056964608
 45
0.18
292
     0
297
     0
 46
0.18
 94
-1056964608
 47
1.0
 49
1.0
140
1.0
293
     1
141
0.0
294
     1
177
     0
142
1.0
295
     0
296
     0
143
0.125
1001
ACAD_MLEADERVER
1070
     2
  0
MLINESTYLE
  5
10BA
102
{ACAD_REACTORS
330
10B9
102
}
330
10B9
100
AcDbMlineStyle
  2
STANDARD
 70
     0
  3

 62
   256
 51
90.0
 52
90.0
 71
     2
 49
0.5
 62
   256
  6
BYLAYER
 49
-0.5
 62
   256
  6
BYLAYER
  0
PLOTSETTINGS
  5
1256
102
{ACAD_REACTORS
330
10BB
102
}
330
10BB
100
AcDbPlotSettings
  1
1055 24x36 BW
  2
1055B&WDraftShaded.pc3
  4
User257
  6

 40
14.98600006103515
 41
8.297271728515625
 42
14.9859619140625
 43
8.29736328125
 44
914.3153076171875
 45
1269.915283203125
 46
0.0
 47
0.0
 48
0.0
 49
0.0
140
0.0
141
0.0
142
1.0
143
1.0
 70
  2800
 72
     0
 73
     2
 74
     1
  7
1055B&WFullDraftShaded.ctb
 75
    16
147
1.0
 76
     0
 77
     2
 78
   300
148
-75.74468520391772
149
-27.53050504688192
1001
ACAD_PSEXT
1000
1055B&WDraftShaded.pc3
1000
HP DesignJet 1055CM by HP
1000
FRONT
1000

1070
     0
  0
PLOTSETTINGS
  5
1258
102
{ACAD_REACTORS
330
10BB
102
}
330
10BB
100
AcDbPlotSettings
  1
1055 24x36 BW Final
  2
1055B&WFinalShaded.pc3
  4
User257
  6

 40
14.98600006103515
 41
8.297271728515625
 42
14.9859619140625
 43
8.29736328125
 44
914.357666015625
 45
1269.957641601562
 46
0.0
 47
0.0
 48
0.0
 49
0.0
140
0.0
141
0.0
142
1.0
143
1.0
 70
  2800
 72
     0
 73
     2
 74
     1
  7
1055B&WFullFinalShaded.ctb
 75
    16
147
1.0
 76
     0
 77
     2
 78
   300
148
-75.74468520391772
149
-27.53050504688192
1001
ACAD_PSEXT
1000
1055B&WFinalShaded.pc3
1000
HP DesignJet 1055CM by HP
1000
FRONT
1000

1070
     0
  0
PLOTSETTINGS
  5
1259
102
{ACAD_REACTORS
330
10BB
102
}
330
10BB
100
AcDbPlotSettings
  1
1055 24x36 Color
  2
1055ColorDraftShaded.pc3
  4
User257
  6

 40
14.98600006103515
 41
8.297271728515625
 42
14.9859619140625
 43
8.29736328125
 44
914.3153076171875
 45
1269.915283203125
 46
0.0
 47
0.0
 48
0.0
 49
0.0
140
0.0
141
0.0
142
1.0
143
1.0
 70
  2800
 72
     0
 73
     2
 74
     1
  7
Color.ctb
 75
    16
147
1.0
 76
     0
 77
     2
 78
   300
148
-75.74468520391772
149
-27.53050504688192
1001
ACAD_PSEXT
1000
1055ColorDraftShaded.pc3
1000
HP DesignJet 1055CM by HP
1000
FRONT
1000

1070
     0
  0
PLOTSETTINGS
  5
125A
102
{ACAD_REACTORS
330
10BB
102
}
330
10BB
100
AcDbPlotSettings
  1
1055 24x36 Color Shaded
  2
1055ColorDraftShaded.pc3
  4
User257
  6

 40
14.98600006103515
 41
8.297271728515625
 42
14.9859619140625
 43
8.29736328125
 44
914.3153076171875
 45
1269.915283203125
 46
0.0
 47
0.0
 48
0.0
 49
0.0
140
0.0
141
0.0
142
1.0
143
1.0
 70
  2800
 72
     0
 73
     2
 74
     1
  7
1055ColorFullDraftShaded.ctb
 75
    16
147
1.0
 76
     0
 77
     2
 78
   300
148
-75.74468520391772
149
-27.53050504688192
1001
ACAD_PSEXT
1000
1055ColorDraftShaded.pc3
1000
HP DesignJet 1055CM by HP
1000
FRONT
1000

1070
     0
  0
PLOTSETTINGS
  5
125B
102
{ACAD_REACTORS
330
10BB
102
}
330
10BB
100
AcDbPlotSettings
  1
1055 30x42 BW
  2
1055B&WDraftShaded.pc3
  4
User257
  6

 40
14.98600006103515
 41
8.297271728515625
 42
14.9859619140625
 43
8.29736328125
 44
914.3153076171875
 45
1269.915283203125
 46
0.0
 47
0.0
 48
0.0
 49
0.0
140
0.0
141
0.0
142
1.0
143
1.0
 70
  2800
 72
     0
 73
     1
 74
     1
  7
1055B&WFullDraftShaded.ctb
 75
    16
147
1.0
 76
     0
 77
     2
 78
   300
148
-75.74468520391772
149
-27.53050504688192
1001
ACAD_PSEXT
1000
1055B&WDraftShaded.pc3
1000
HP DesignJet 1055CM by HP
1000
FRONT
1000

1070
     0
  0
PLOTSETTINGS
  5
125C
102
{ACAD_REACTORS
330
10BB
102
}
330
10BB
100
AcDbPlotSettings
  1
1055 30x42 BW Final
  2
1055B&WFinalShaded.pc3
  4
User257
  6

 40
14.98600006103515
 41
8.297271728515625
 42
14.9859619140625
 43
8.29736328125
 44
914.357666015625
 45
1269.957641601562
 46
0.0
 47
0.0
 48
0.0
 49
0.0
140
0.0
141
0.0
142
1.0
143
1.0
 70
  2800
 72
     0
 73
     1
 74
     1
  7
1055B&WFullFinalShaded.ctb
 75
    16
147
1.0
 76
     0
 77
     2
 78
   300
148
-75.74468520391772
149
-27.53050504688192
1001
ACAD_PSEXT
1000
1055B&WFinalShaded.pc3
1000
HP DesignJet 1055CM by HP
1000
FRONT
1000

1070
     0
  0
PLOTSETTINGS
  5
125D
102
{ACAD_REACTORS
330
10BB
102
}
330
10BB
100
AcDbPlotSettings
  1
1055 B&W Draft
  2
1055B&WDraftShaded.pc3
  4
User257
  6

 40
4.995333194732666
 41
8.297271728515625
 42
4.99530029296875
 43
8.29736328125
 44
914.3153076171875
 45
1269.915283203125
 46
0.0
 47
0.0
 48
0.0
 49
0.0
140
0.0
141
0.0
142
1.0
143
30.0
 70
 11936
 72
     0
 73
     2
 74
     1
  7
1055B&WFullDraftShaded.ctb
 75
     0
147
3.484472351238056
 76
     0
 77
     2
 78
   300
148
-119.4582094169044
149
-58.17053554795709
1001
ACAD_PSEXT
1000
1055B&WDraftShaded.pc3
1000
HP DesignJet 1055CM by HP
1000
\\aqua-srv01
1000

1070
     0
  0
PLOTSETTINGS
  5
125E
102
{ACAD_REACTORS
330
10BB
102
}
330
10BB
100
AcDbPlotSettings
  1
1055 B&W Final
  2
1055B&WFinalShaded.pc3
  4
User257
  6

 40
4.995333194732666
 41
8.297271728515625
 42
4.99530029296875
 43
8.29736328125
 44
914.357666015625
 45
1269.957641601562
 46
0.0
 47
0.0
 48
0.0
 49
0.0
140
0.0
141
0.0
142
1.0
143
30.0
 70
 11936
 72
     0
 73
     2
 74
     1
  7
1055B&WFullFinalShaded.ctb
 75
     0
147
3.484472351238056
 76
     0
 77
     2
 78
   300
148
-119.4582094169044
149
-58.17053554795709
1001
ACAD_PSEXT
1000
1055B&WFinalShaded.pc3
1000
HP DesignJet 1055CM by HP
1000
\\aqua-srv01
1000

1070
     0
  0
PLOTSETTINGS
  5
125F
102
{ACAD_REACTORS
330
10BB
102
}
330
10BB
100
AcDbPlotSettings
  1
1055 BW Half
  2
1055B&WDraftShaded.pc3
  4
User257
  6

 40
14.98600006103515
 41
8.297271728515625
 42
14.9859619140625
 43
8.29736328125
 44
914.3153076171875
 45
1269.915283203125
 46
0.0
 47
0.0
 48
0.0
 49
0.0
140
0.0
141
0.0
142
1.0
143
2.0
 70
  2800
 72
     0
 73
     2
 74
     1
  7
1055B&WFullDraftShaded.ctb
 75
    17
147
0.5
 76
     0
 77
     2
 78
   300
148
-75.74468520391772
149
-27.53050504688192
1001
ACAD_PSEXT
1000
1055B&WDraftShaded.pc3
1000
HP DesignJet 1055CM by HP
1000
FRONT
1000

1070
     0
  0
PLOTSETTINGS
  5
1260
102
{ACAD_REACTORS
330
10BB
102
}
330
10BB
100
AcDbPlotSettings
  1
1055 Color Draft
  2
1055ColorDraftShaded.pc3
  4
User257
  6

 40
4.995333194732666
 41
8.297271728515625
 42
4.99530029296875
 43
8.29736328125
 44
914.3153076171875
 45
1269.915283203125
 46
0.0
 47
0.0
 48
0.0
 49
0.0
140
0.0
141
0.0
142
1.0
143
30.0
 70
 11936
 72
     0
 73
     2
 74
     1
  7
1055ColorFullDraftShaded.ctb
 75
     0
147
3.484472351238056
 76
     0
 77
     2
 78
   300
148
-119.4582094169044
149
-58.17053554795709
1001
ACAD_PSEXT
1000
1055ColorDraftShaded.pc3
1000
HP DesignJet 1055CM by HP
1000
\\aqua-srv01
1000

1070
     0
  0
PLOTSETTINGS
  5
1261
102
{ACAD_REACTORS
330
10BB
102
}
330
10BB
100
AcDbPlotSettings
  1
1055 Color Final
  2
1055ColorFinalShaded.pc3
  4
User257
  6

 40
4.995333194732666
 41
8.297271728515625
 42
4.99530029296875
 43
8.29736328125
 44
914.357666015625
 45
1269.957641601562
 46
0.0
 47
0.0
 48
0.0
 49
0.0
140
0.0
141
0.0
142
1.0
143
30.0
 70
 11936
 72
     0
 73
     2
 74
     1
  7
1055ColorFullFinalShaded.ctb
 75
     0
147
3.484472351238056
 76
     0
 77
     2
 78
   300
148
-119.4582094169044
149
-58.17053554795709
1001
ACAD_PSEXT
1000
1055ColorFinalShaded.pc3
1000
HP DesignJet 1055CM by HP
1000
\\aqua-srv01
1000

1070
     0
  0
PLOTSETTINGS
  5
1262
102
{ACAD_REACTORS
330
10BB
102
}
330
10BB
100
AcDbPlotSettings
  1
1055+ 24x36 BW
  2
1055_PLUS_B&WDraftShaded.pc3
  4
User257
  6

 40
14.98600006103515
 41
8.297271728515625
 42
14.9859619140625
 43
8.29736328125
 44
914.3153076171875
 45
1269.915283203125
 46
0.0
 47
0.0
 48
0.0
 49
0.0
140
0.0
141
0.0
142
1.0
143
1.0
 70
  2800
 72
     0
 73
     2
 74
     1
  7
1055B&WFullDraftShaded.ctb
 75
    16
147
1.0
 76
     0
 77
     2
 78
   300
148
-75.74468520391772
149
-27.53050504688192
1001
ACAD_PSEXT
1000
1055_PLUS_B&WDraftShaded.pc3
1000
HP DesignJet 1055CM by HP
1000
FRONT
1000

1070
     0
  0
PLOTSETTINGS
  5
1263
102
{ACAD_REACTORS
330
10BB
102
}
330
10BB
100
AcDbPlotSettings
  1
1055+ 24x36 BW Final
  2
1055_PLUS_B&WFinalShaded.pc3
  4
User257
  6

 40
14.98600006103515
 41
8.297271728515625
 42
14.9859619140625
 43
8.29736328125
 44
914.357666015625
 45
1269.957641601562
 46
0.0
 47
0.0
 48
0.0
 49
0.0
140
0.0
141
0.0
142
1.0
143
1.0
 70
  2800
 72
     0
 73
     2
 74
     1
  7
1055B&WFullFinalShaded.ctb
 75
    16
147
1.0
 76
     0
 77
     2
 78
   300
148
-75.74468520391772
149
-27.53050504688192
1001
ACAD_PSEXT
1000
1055_PLUS_B&WFinalShaded.pc3
1000
HP DesignJet 1055CM by HP
1000
FRONT
1000

1070
     0
  0
PLOTSETTINGS
  5
1264
102
{ACAD_REACTORS
330
10BB
102
}
330
10BB
100
AcDbPlotSettings
  1
1055+ 24x36 Color
  2
1055_PLUS_ColorDraftShaded.pc3
  4
User257
  6

 40
14.98600006103515
 41
8.297271728515625
 42
14.9859619140625
 43
8.29736328125
 44
914.3153076171875
 45
1269.915283203125
 46
0.0
 47
0.0
 48
0.0
 49
0.0
140
0.0
141
0.0
142
1.0
143
1.0
 70
  2800
 72
     0
 73
     2
 74
     1
  7
Color.ctb
 75
    16
147
1.0
 76
     0
 77
     2
 78
   300
148
-75.74468520391772
149
-27.53050504688192
1001
ACAD_PSEXT
1000
1055_PLUS_ColorDraftShaded.pc3
1000
HP DesignJet 1055CM by HP
1000
FRONT
1000

1070
     0
  0
PLOTSETTINGS
  5
1265
102
{ACAD_REACTORS
330
10BB
102
}
330
10BB
100
AcDbPlotSettings
  1
1055+ 24x36 Color Shaded
  2
1055_PLUS_ColorDraftShaded.pc3
  4
User257
  6

 40
14.98600006103515
 41
8.297271728515625
 42
14.9859619140625
 43
8.29736328125
 44
914.3153076171875
 45
1269.915283203125
 46
0.0
 47
0.0
 48
0.0
 49
0.0
140
0.0
141
0.0
142
1.0
143
1.0
 70
  2800
 72
     0
 73
     2
 74
     1
  7
1055ColorFullDraftShaded.ctb
 75
    16
147
1.0
 76
     0
 77
     2
 78
   300
148
-75.74468520391772
149
-27.53050504688192
1001
ACAD_PSEXT
1000
1055_PLUS_ColorDraftShaded.pc3
1000
HP DesignJet 1055CM by HP
1000
FRONT
1000

1070
     0
  0
PLOTSETTINGS
  5
1266
102
{ACAD_REACTORS
330
10BB
102
}
330
10BB
100
AcDbPlotSettings
  1
1055+ 30x42 BW
  2
1055_PLUS_B&WDraftShaded.pc3
  4
User257
  6

 40
14.98600006103515
 41
8.297271728515625
 42
14.9859619140625
 43
8.29736328125
 44
914.3153076171875
 45
1269.915283203125
 46
0.0
 47
0.0
 48
0.0
 49
0.0
140
0.0
141
0.0
142
1.0
143
1.0
 70
  2800
 72
     0
 73
     1
 74
     1
  7
1055B&WFullDraftShaded.ctb
 75
    16
147
1.0
 76
     0
 77
     2
 78
   300
148
-75.74468520391772
149
-27.53050504688192
1001
ACAD_PSEXT
1000
1055_PLUS_B&WDraftShaded.pc3
1000
HP DesignJet 1055CM by HP
1000
FRONT
1000

1070
     0
  0
PLOTSETTINGS
  5
1267
102
{ACAD_REACTORS
330
10BB
102
}
330
10BB
100
AcDbPlotSettings
  1
1055+ 30x42 BW Final
  2
1055_PLUS_B&WFinalShaded.pc3
  4
User257
  6

 40
14.98600006103515
 41
8.297271728515625
 42
14.9859619140625
 43
8.29736328125
 44
914.357666015625
 45
1269.957641601562
 46
0.0
 47
0.0
 48
0.0
 49
0.0
140
0.0
141
0.0
142
1.0
143
1.0
 70
  2800
 72
     0
 73
     1
 74
     1
  7
1055B&WFullFinalShaded.ctb
 75
    16
147
1.0
 76
     0
 77
     2
 78
   300
148
-75.74468520391772
149
-27.53050504688192
1001
ACAD_PSEXT
1000
1055_PLUS_B&WFinalShaded.pc3
1000
HP DesignJet 1055CM by HP
1000
FRONT
1000

1070
     0
  0
PLOTSETTINGS
  5
1268
102
{ACAD_REACTORS
330
10BB
102
}
330
10BB
100
AcDbPlotSettings
  1
1055+ B&W Draft
  2
1055_PLUS_B&WDraftShaded.pc3
  4
User257
  6

 40
4.995333194732666
 41
13.2926607131958
 42
4.99530029296875
 43
13.292724609375
 44
914.3153076171875
 45
1269.915283203125
 46
0.0
 47
0.0
 48
0.0
 49
0.0
140
0.0
141
0.0
142
1.0
143
30.0
 70
 11936
 72
     0
 73
     2
 74
     1
  7
1055B&WFullDraftShaded.ctb
 75
     0
147
3.484472351238056
 76
     0
 77
     2
 78
   300
148
-119.4582094169044
149
-58.17053554795709
1001
ACAD_PSEXT
1000
1055_PLUS_B&WDraftShaded.pc3
1000
HP DesignJet 1055CM by HP
1000
\\aqua-srv01
1000

1070
     0
  0
PLOTSETTINGS
  5
1269
102
{ACAD_REACTORS
330
10BB
102
}
330
10BB
100
AcDbPlotSettings
  1
1055+ B&W Final
  2
1055_PLUS_B&WFinalShaded.pc3
  4
User257
  6

 40
4.995333194732666
 41
13.2926607131958
 42
4.99530029296875
 43
13.292724609375
 44
914.357666015625
 45
1269.957641601562
 46
0.0
 47
0.0
 48
0.0
 49
0.0
140
0.0
141
0.0
142
1.0
143
30.0
 70
 11936
 72
     0
 73
     2
 74
     1
  7
1055B&WFullFinalShaded.ctb
 75
     0
147
3.484472351238056
 76
     0
 77
     2
 78
   300
148
-119.4582094169044
149
-58.17053554795709
1001
ACAD_PSEXT
1000
1055_PLUS_B&WFinalShaded.pc3
1000
HP DesignJet 1055CM by HP
1000
\\aqua-srv01
1000

1070
     0
  0
PLOTSETTINGS
  5
126A
102
{ACAD_REACTORS
330
10BB
102
}
330
10BB
100
AcDbPlotSettings
  1
1055+ BW Half
  2
1055_PLUS_B&WDraftShaded.pc3
  4
User257
  6

 40
14.98600006103515
 41
8.297271728515625
 42
14.9859619140625
 43
8.29736328125
 44
914.3153076171875
 45
1269.915283203125
 46
0.0
 47
0.0
 48
0.0
 49
0.0
140
0.0
141
0.0
142
1.0
143
2.0
 70
  2800
 72
     0
 73
     2
 74
     1
  7
1055B&WFullDraftShaded.ctb
 75
    17
147
0.5
 76
     0
 77
     2
 78
   300
148
-75.74468520391772
149
-27.53050504688192
1001
ACAD_PSEXT
1000
1055_PLUS_B&WDraftShaded.pc3
1000
HP DesignJet 1055CM by HP
1000
FRONT
1000

1070
     0
  0
PLOTSETTINGS
  5
126B
102
{ACAD_REACTORS
330
10BB
102
}
330
10BB
100
AcDbPlotSettings
  1
1055+ Color Draft
  2
1055_PLUS_ColorDraftShaded.pc3
  4
User257
  6

 40
4.995333194732666
 41
8.297271728515625
 42
4.99530029296875
 43
8.29736328125
 44
914.3153076171875
 45
1269.915283203125
 46
0.0
 47
0.0
 48
0.0
 49
0.0
140
0.0
141
0.0
142
1.0
143
30.0
 70
 11936
 72
     0
 73
     2
 74
     1
  7
1055ColorFullDraftShaded.ctb
 75
     0
147
3.484472351238056
 76
     0
 77
     2
 78
   300
148
-119.4582094169044
149
-58.17053554795709
1001
ACAD_PSEXT
1000
1055_PLUS_ColorDraftShaded.pc3
1000
HP DesignJet 1055CM by HP
1000
\\aqua-srv01
1000

1070
     0
  0
PLOTSETTINGS
  5
126C
102
{ACAD_REACTORS
330
10BB
102
}
330
10BB
100
AcDbPlotSettings
  1
1055+ Color Final
  2
1055_PLUS_ColorFinalShaded.pc3
  4
User257
  6

 40
4.995333194732666
 41
13.2926607131958
 42
4.99530029296875
 43
13.292724609375
 44
914.357666015625
 45
1269.957641601562
 46
0.0
 47
0.0
 48
0.0
 49
0.0
140
0.0
141
0.0
142
1.0
143
30.0
 70
 11936
 72
     0
 73
     2
 74
     1
  7
1055ColorFullFinalShaded.ctb
 75
     0
147
3.484472351238056
 76
     0
 77
     2
 78
   300
148
-119.4582094169044
149
-58.17053554795709
1001
ACAD_PSEXT
1000
1055_PLUS_ColorFinalShaded.pc3
1000
HP DesignJet 1055CM by HP
1000
\\aqua-srv01
1000

1070
     0
  0
PLOTSETTINGS
  5
126D
102
{ACAD_REACTORS
330
10BB
102
}
330
10BB
100
AcDbPlotSettings
  1
_1055 22x34 True Centered BW
  2
1055B&WDraftShaded 24x36 true.pc3
  4
User1639
  6

 40
0.0
 41
0.0
 42
0.0
 43
0.0
 44
863.6000366210938
 45
558.7999877929687
 46
379.1860116761152
 47
224.9166389522296
 48
0.0
 49
0.0
140
0.0
141
0.0
142
1.0
143
1.0
 70
  2804
 72
     0
 73
     0
 74
     1
  7
1055B&WFullDraftShaded.ctb
 75
    16
147
1.0
 76
     0
 77
     2
 78
   300
148
-75.74468520391772
149
-27.53050504688192
1001
ACAD_PSEXT
1000
1055B&WDraftShaded 24x36 true.pc3
1000
HP DesignJet 1055CM by HP
1000
FRONT
1000

1070
     0
  0
PLOTSETTINGS
  5
126E
102
{ACAD_REACTORS
330
10BB
102
}
330
10BB
100
AcDbPlotSettings
  1
_1055 24x36 True Centered BW
  2
1055B&WDraftShaded 24x36 true.pc3
  4
User1308
  6

 40
14.98600006103515
 41
8.297332763671875
 42
14.9859619140625
 43
8.29736328125
 44
914.3153076171875
 45
609.5153198242187
 46
389.5576661866133
 47
241.9769569453936
 48
0.0
 49
0.0
140
0.0
141
0.0
142
1.0
143
1.0
 70
  2804
 72
     0
 73
     0
 74
     1
  7
1055B&WFullDraftShaded.ctb
 75
    16
147
1.0
 76
     0
 77
     2
 78
   300
148
-75.74468520391772
149
-27.53050504688192
1001
ACAD_PSEXT
1000
1055B&WDraftShaded 24x36 true.pc3
1000
HP DesignJet 1055CM by HP
1000
FRONT
1000

1070
     0
  0
PLOTSETTINGS
  5
126F
102
{ACAD_REACTORS
330
10BB
102
}
330
10BB
100
AcDbPlotSettings
  1
_1055 24x36 True Centered BW Final
  2
1055B&WFinalShaded 24x36 true.pc3
  4
User1308
  6

 40
14.98600006103515
 41
8.297332763671875
 42
14.9859619140625
 43
8.29736328125
 44
914.357666015625
 45
609.5576782226562
 46
389.578845385832
 47
241.9981361446124
 48
0.0
 49
0.0
140
0.0
141
0.0
142
1.0
143
1.0
 70
  2804
 72
     0
 73
     0
 74
     1
  7
1055B&WFullFinalShaded.ctb
 75
    16
147
1.0
 76
     0
 77
     2
 78
   300
148
-75.74468520391772
149
-27.53050504688192
1001
ACAD_PSEXT
1000
1055B&WFinalShaded 24x36 true.pc3
1000
HP DesignJet 1055CM by HP
1000
FRONT
1000

1070
     0
  0
PLOTSETTINGS
  5
1270
102
{ACAD_REACTORS
330
10BB
102
}
330
10BB
100
AcDbPlotSettings
  1
_1055 24x36 True Centered Color
  2
1055ColorDraftShaded 24x36 true.pc3
  4
User1308
  6

 40
14.98600006103515
 41
8.297332763671875
 42
14.9859619140625
 43
8.29736328125
 44
914.3153076171875
 45
609.5153198242187
 46
389.5576661866133
 47
241.9769569453936
 48
0.0
 49
0.0
140
0.0
141
0.0
142
1.0
143
1.0
 70
  2804
 72
     0
 73
     0
 74
     1
  7
1055ColorFullDraftShaded.ctb
 75
    16
147
1.0
 76
     0
 77
     2
 78
   300
148
-75.74468520391772
149
-27.53050504688192
1001
ACAD_PSEXT
1000
1055ColorDraftShaded 24x36 true.pc3
1000
HP DesignJet 1055CM by HP
1000
FRONT
1000

1070
     0
  0
PLOTSETTINGS
  5
1271
102
{ACAD_REACTORS
330
10BB
102
}
330
10BB
100
AcDbPlotSettings
  1
_1055 30x42 True Centered BW
  2
1055B&WDraftShaded 30x42 true.pc3
  4
User286
  6

 40
0.0
 41
0.0
 42
-0.08465576171875
 43
-0.084716796875
 44
761.9153442382812
 45
1066.71533203125
 46
326.5166450557452
 47
480.7860177796309
 48
0.0
 49
0.0
140
0.0
141
0.0
142
1.0
143
1.0
 70
  2804
 72
     0
 73
     1
 74
     1
  7
1055B&WFullDraftShaded.ctb
 75
    16
147
1.0
 76
     0
 77
     2
 78
   300
148
-75.74468520391772
149
-27.53050504688192
1001
ACAD_PSEXT
1000
1055B&WDraftShaded 30x42 true.pc3
1000
HP DesignJet 1055CM by HP
1000
FRONT
1000

1070
     0
  0
PLOTSETTINGS
  5
1272
102
{ACAD_REACTORS
330
10BB
102
}
330
10BB
100
AcDbPlotSettings
  1
_1055+ 22x34 True Centered BW
  2
1055_PLUS_B&WDraftShaded 24x36 true.pc3
  4
User1639
  6

 40
0.0
 41
0.0
 42
0.0
 43
0.0
 44
863.6000366210938
 45
558.7999877929687
 46
379.1860116761152
 47
224.9166389522296
 48
0.0
 49
0.0
140
0.0
141
0.0
142
1.0
143
1.0
 70
  2804
 72
     0
 73
     0
 74
     1
  7
1055B&WFullDraftShaded.ctb
 75
    16
147
1.0
 76
     0
 77
     2
 78
   300
148
-75.74468520391772
149
-27.53050504688192
1001
ACAD_PSEXT
1000
1055_PLUS_B&WDraftShaded 24x36 true.pc3
1000
HP DesignJet 1055CM by HP
1000
FRONT
1000

1070
     0
  0
PLOTSETTINGS
  5
1273
102
{ACAD_REACTORS
330
10BB
102
}
330
10BB
100
AcDbPlotSettings
  1
_1055+ 24x36 True Centered BW
  2
1055_PLUS_B&WDraftShaded 24x36 true.pc3
  4
User1308
  6

 40
14.98600006103515
 41
8.297332763671875
 42
14.9859619140625
 43
8.29736328125
 44
914.3153076171875
 45
609.5153198242187
 46
389.5576661866133
 47
241.9769569453936
 48
0.0
 49
0.0
140
0.0
141
0.0
142
1.0
143
1.0
 70
  2804
 72
     0
 73
     0
 74
     1
  7
1055B&WFullDraftShaded.ctb
 75
    16
147
1.0
 76
     0
 77
     2
 78
   300
148
-75.74468520391772
149
-27.53050504688192
1001
ACAD_PSEXT
1000
1055_PLUS_B&WDraftShaded 24x36 true.pc3
1000
HP DesignJet 1055CM by HP
1000
FRONT
1000

1070
     0
  0
PLOTSETTINGS
  5
1274
102
{ACAD_REACTORS
330
10BB
102
}
330
10BB
100
AcDbPlotSettings
  1
_1055+ 24x36 True Centered BW Final
  2
1055_PLUS_B&WFinalShaded 24x36 true.pc3
  4
User1308
  6

 40
14.98600006103515
 41
8.297332763671875
 42
14.9859619140625
 43
8.29736328125
 44
914.357666015625
 45
609.5576782226562
 46
389.578845385832
 47
241.9981361446124
 48
0.0
 49
0.0
140
0.0
141
0.0
142
1.0
143
1.0
 70
  2804
 72
     0
 73
     0
 74
     1
  7
1055B&WFullFinalShaded.ctb
 75
    16
147
1.0
 76
     0
 77
     2
 78
   300
148
-75.74468520391772
149
-27.53050504688192
1001
ACAD_PSEXT
1000
1055_PLUS_B&WFinalShaded 24x36 true.pc3
1000
HP DesignJet 1055CM by HP
1000
FRONT
1000

1070
     0
  0
PLOTSETTINGS
  5
1275
102
{ACAD_REACTORS
330
10BB
102
}
330
10BB
100
AcDbPlotSettings
  1
_1055+ 24x36 True Centered Color
  2
1055_PLUS_ColorDraftShaded 24x36 true.pc3
  4
User1308
  6

 40
14.98600006103515
 41
8.297332763671875
 42
14.9859619140625
 43
8.29736328125
 44
914.3153076171875
 45
609.5153198242187
 46
389.5576661866133
 47
241.9769569453936
 48
0.0
 49
0.0
140
0.0
141
0.0
142
1.0
143
1.0
 70
  2804
 72
     0
 73
     0
 74
     1
  7
1055ColorFullDraftShaded.ctb
 75
    16
147
1.0
 76
     0
 77
     2
 78
   300
148
-75.74468520391772
149
-27.53050504688192
1001
ACAD_PSEXT
1000
1055_PLUS_ColorDraftShaded 24x36 true.pc3
1000
HP DesignJet 1055CM by HP
1000
FRONT
1000

1070
     0
  0
PLOTSETTINGS
  5
1276
102
{ACAD_REACTORS
330
10BB
102
}
330
10BB
100
AcDbPlotSettings
  1
DWF BW 11x17 Fit
  2
DWF-BW_11x17.pc3
  4
UserDefinedImperial (17.00 x 11.00Inches)
  6

 40
0.0
 41
0.0
 42
0.0
 43
0.0
 44
431.7999877929687
 45
279.3999938964844
 46
80.99316641155249
 47
0.000000000000005
 48
0.0
 49
0.0
140
0.0
141
0.0
142
1.0
143
0.3900025492802298
 70
  2740
 72
     0
 73
     0
 74
     1
  7
1055B&WFullFinalShaded.ctb
 75
     0
147
2.564085803658341
 76
     0
 77
     2
 78
   300
148
-75.74468520391772
149
-27.53050504688192
1001
ACAD_PSEXT
1000
DWF-BW_11x17.pc3
1000
DWF eView (optimized for viewing)
1000
File
1000

1070
     0
  0
PLOTSETTINGS
  5
1277
102
{ACAD_REACTORS
330
10BB
102
}
330
10BB
100
AcDbPlotSettings
  1
DWF BW 11x17 Half
  2
DWF-BW_11x17.pc3
  4
UserDefinedImperial (17.00 x 11.00Inches)
  6

 40
0.0
 41
0.0
 42
0.0
 43
0.0
 44
431.7999877929687
 45
279.3999938964844
 46
189.5929905792686
 47
112.4583194761148
 48
0.0
 49
0.0
140
0.0
141
0.0
142
1.0
143
2.0
 70
  2740
 72
     0
 73
     0
 74
     1
  7
1055B&WFullFinalShaded.ctb
 75
    17
147
0.5
 76
     0
 77
     2
 78
   300
148
-75.74468520391772
149
-27.53050504688192
1001
ACAD_PSEXT
1000
DWF-BW_11x17.pc3
1000
DWF eView (optimized for viewing)
1000
File
1000

1070
     0
  0
PLOTSETTINGS
  5
1278
102
{ACAD_REACTORS
330
10BB
102
}
330
10BB
100
AcDbPlotSettings
  1
DWF BW 22x34
  2
DWF-BW_22x34.pc3
  4
UserDefinedImperial (34.00 x 22.00Inches)
  6

 40
0.0
 41
0.0
 42
0.0
 43
0.0
 44
863.5999755859375
 45
558.7999877929687
 46
379.1859811585372
 47
224.9166389522296
 48
0.0
 49
0.0
140
0.0
141
0.0
142
1.0
143
1.0
 70
  2740
 72
     0
 73
     0
 74
     1
  7
1055B&WFullFinalShaded.ctb
 75
    16
147
1.0
 76
     0
 77
     2
 78
   300
148
-75.74468520391772
149
-27.53050504688192
1001
ACAD_PSEXT
1000
DWF-BW_22x34.pc3
1000
DWF eView (optimized for viewing)
1000
File
1000

1070
     0
  0
PLOTSETTINGS
  5
1279
102
{ACAD_REACTORS
330
10BB
102
}
330
10BB
100
AcDbPlotSettings
  1
DWF BW 24x36
  2
DWF-BW_24x36.pc3
  4
UserDefinedImperial (36.00 x 24.00Inches)
  6

 40
0.0
 41
0.0
 42
0.0
 43
0.0
 44
914.4000244140626
 45
609.5999755859375
 46
404.5860055725996
 47
250.3166328487139
 48
0.0
 49
0.0
140
0.0
141
0.0
142
1.0
143
1.0
 70
  2740
 72
     0
 73
     0
 74
     1
  7
1055B&WFullFinalShaded.ctb
 75
    16
147
1.0
 76
     0
 77
     2
 78
   300
148
-75.74468520391772
149
-27.53050504688192
1001
ACAD_PSEXT
1000
DWF-BW_24x36.pc3
1000
DWF eView (optimized for viewing)
1000
File
1000

1070
     0
  0
PLOTSETTINGS
  5
127A
102
{ACAD_REACTORS
330
10BB
102
}
330
10BB
100
AcDbPlotSettings
  1
DWF BW 30x42
  2
DWF-BW_30x42.pc3
  4
UserDefinedImperial (42.00 x 30.00Inches)
  6

 40
0.0
 41
0.0
 42
0.0
 43
0.0
 44
1066.800048828125
 45
762.0
 46
480.7860177796309
 47
326.5166450557452
 48
0.0
 49
0.0
140
0.0
141
0.0
142
1.0
143
1.0
 70
  2740
 72
     0
 73
     0
 74
     1
  7
1055B&WFullFinalShaded.ctb
 75
    16
147
1.0
 76
     0
 77
     2
 78
   300
148
-75.74468520391772
149
-27.53050504688192
1001
ACAD_PSEXT
1000
DWF-BW_30x42.pc3
1000
DWF eView (optimized for viewing)
1000
File
1000

1070
     0
  0
PLOTSETTINGS
  5
127B
102
{ACAD_REACTORS
330
10BB
102
}
330
10BB
100
AcDbPlotSettings
  1
DWF BW 36x48
  2
DWF-BW_36x48.pc3
  4
UserDefinedImperial (48.00 x 36.00Inches)
  6

 40
0.0
 41
0.0
 42
0.0
 43
0.0
 44
1219.199951171875
 45
914.4000244140626
 46
556.9859689515058
 47
402.7166572627765
 48
0.0
 49
0.0
140
0.0
141
0.0
142
1.0
143
1.0
 70
  2740
 72
     0
 73
     0
 74
     1
  7
1055B&WFullFinalShaded.ctb
 75
    16
147
1.0
 76
     0
 77
     2
 78
   300
148
-75.74468520391772
149
-27.53050504688192
1001
ACAD_PSEXT
1000
DWF-BW_36x48.pc3
1000
DWF eView (optimized for viewing)
1000
File
1000

1070
     0
  0
PLOTSETTINGS
  5
127C
102
{ACAD_REACTORS
330
10BB
102
}
330
10BB
100
AcDbPlotSettings
  1
Laser5 11x17 Fit
  2
LaserJet5Shaded.pc3
  4
11x17
  6

 40
5.873749732971191
 41
5.027085304260253
 42
5.873748779296875
 43
5.027069091796875
 44
431.7999877929687
 45
279.3999938964844
 46
79.97401308328474
 47
0.0
 48
0.0
 49
0.0
140
0.0
141
0.0
142
1.0
143
0.4045605831172927
 70
  2740
 72
     0
 73
     0
 74
     1
  7
LaserJet5Shaded.ctb
 75
     0
147
2.471817675104729
 76
     0
 77
     2
 78
   300
148
-75.74468520391772
149
-27.53050504688192
1001
ACAD_PSEXT
1000
LaserJet5Shaded.pc3
1000
HP LaserJet 5Si
1000
\\aqua-srv01
1000

1070
     0
  0
PLOTSETTINGS
  5
127D
102
{ACAD_REACTORS
330
10BB
102
}
330
10BB
100
AcDbPlotSettings
  1
Laser5 11x17 Full
  2
LaserJet5Shaded.pc3
  4
11x17
  6

 40
5.873749732971191
 41
5.027085304260253
 42
5.873748779296875
 43
5.027069091796875
 44
431.7999877929687
 45
279.3999938964844
 46
157.4122380059187
 47
80.18956480595884
 48
0.0
 49
0.0
140
0.0
141
0.0
142
1.0
143
1.0
 70
  2724
 72
     0
 73
     0
 74
     1
  7
LaserJet5Shaded.ctb
 75
     0
147
2.433550528115671
 76
     0
 77
     2
 78
   300
148
-75.74468520391772
149
-27.53050504688192
1001
ACAD_PSEXT
1000
LaserJet5Shaded.pc3
1000
HP LaserJet 5Si
1000
\\aqua-srv01
1000

1070
     0
  0
PLOTSETTINGS
  5
127E
102
{ACAD_REACTORS
330
10BB
102
}
330
10BB
100
AcDbPlotSettings
  1
Laser5 11x17 Half
  2
LaserJet5Shaded.pc3
  4
11x17
  6

 40
5.873749732971191
 41
5.027085304260253
 42
5.873748779296875
 43
5.027069091796875
 44
431.7999877929687
 45
279.3999938964844
 46
183.7192413231345
 47
107.4312422780862
 48
0.0
 49
0.0
140
0.0
141
0.0
142
1.0
143
2.0
 70
  2740
 72
     0
 73
     0
 74
     1
  7
LaserJet5Shaded.ctb
 75
    17
147
0.5
 76
     0
 77
     2
 78
   300
148
-75.74468520391772
149
-27.53050504688192
1001
ACAD_PSEXT
1000
LaserJet5Shaded.pc3
1000
HP LaserJet 5Si
1000
\\aqua-srv01
1000

1070
     0
  0
PLOTSETTINGS
  5
127F
102
{ACAD_REACTORS
330
10BB
102
}
330
10BB
100
AcDbPlotSettings
  1
Laser5 8x11 Fit
  2
LaserJet5Shaded-8x11.pc3
  4
Letter
  6

 40
5.873749732971191
 41
5.027085304260253
 42
5.873748779296875
 43
5.027084350585937
 44
279.3999938964844
 45
215.8999938964844
 46
34.4346667826652
 47
0.0
 48
0.0
 49
0.0
140
0.0
141
0.0
142
1.0
143
0.5293607985003172
 70
  2740
 72
     0
 73
     0
 74
     1
  7
LaserJet5Shaded.ctb
 75
     0
147
1.889070748784206
 76
     0
 77
     2
 78
   300
148
-75.74468520391772
149
-27.53050504688192
1001
ACAD_PSEXT
1000
LaserJet5Shaded-8x11.pc3
1000
HP LaserJet 5Si
1000
\\aqua-srv01
1000

1070
     0
  0
PLOTSETTINGS
  5
1280
102
{ACAD_REACTORS
330
10BB
102
}
330
10BB
100
AcDbPlotSettings
  1
Laser5 8x11 Half
  2
LaserJet5Shaded-8x11.pc3
  4
Letter
  6

 40
5.873749732971191
 41
5.027085304260253
 42
5.873748779296875
 43
5.027084350585937
 44
279.3999938964844
 45
215.8999938964844
 46
107.5192443748923
 47
75.68123464869171
 48
0.0
 49
0.0
140
0.0
141
0.0
142
1.0
143
2.0
 70
  2740
 72
     0
 73
     0
 74
     1
  7
LaserJet5Shaded.ctb
 75
    17
147
0.5
 76
     0
 77
     2
 78
   300
148
-75.74468520391772
149
-27.53050504688192
1001
ACAD_PSEXT
1000
LaserJet5Shaded-8x11.pc3
1000
HP LaserJet 5Si
1000
\\aqua-srv01
1000

1070
     0
  0
PLOTSETTINGS
  5
1281
102
{ACAD_REACTORS
330
10BB
102
}
330
10BB
100
AcDbPlotSettings
  1
Laser5 8x11 Portrait Fit
  2
LaserJet5Shaded-8x11.pc3
  4
Letter
  6

 40
5.873749732971191
 41
5.027085304260253
 42
5.873748779296875
 43
5.027084350585937
 44
279.3999938964844
 45
215.8999938964844
 46
27.24653799736659
 47
0.0000000000000029
 48
0.0
 49
0.0
140
0.0
141
0.0
142
1.0
143
0.5111981924167587
 70
  2740
 72
     0
 73
     1
 74
     1
  7
LaserJet5Shaded.ctb
 75
     0
147
1.956188450652308
 76
     0
 77
     2
 78
   300
148
-75.74468520391772
149
-27.53050504688192
1001
ACAD_PSEXT
1000
LaserJet5Shaded-8x11.pc3
1000
HP LaserJet 5Si
1000
\\aqua-srv01
1000

1070
     0
  0
PLOTSETTINGS
  5
1282
102
{ACAD_REACTORS
330
10BB
102
}
330
10BB
100
AcDbPlotSettings
  1
LaserJet5 11x17
  2
LaserJet5Shaded.pc3
  4
11x17
  6

 40
7.111999988555908
 41
5.079999923706054
 42
7.11199951171875
 43
5.079986572265625
 44
279.3999938964844
 45
431.7999877929687
 46
0.0
 47
74.88489939702606
 48
0.0
 49
0.0
140
0.0
141
0.0
142
1.0
143
0.3551636250563743
 70
 11956
 72
     0
 73
     1
 74
     1
  7
LaserJet5Shaded.ctb
 75
     0
147
2.815603652658045
 76
     0
 77
     2
 78
   300
148
-119.4582094169044
149
-58.17053554795709
1001
ACAD_PSEXT
1000
LaserJet5Shaded.pc3
1000
HP LaserJet 5Si
1000
\\aqua-srv01
1000

1070
     0
  0
PLOTSETTINGS
  5
1283
102
{ACAD_REACTORS
330
10BB
102
}
330
10BB
100
AcDbPlotSettings
  1
LaserJet5 8.5x11
  2
LaserJet5Shaded-8x11.pc3
  4
Letter
  6

 40
5.873749732971191
 41
5.873734951019287
 42
6.55108642578125
 43
5.027084350585937
 44
279.3999938964844
 45
215.8999938964844
 46
28.40045128601757
 47
0.0000000000000046
 48
0.0
 49
0.0
140
0.0
141
0.0
142
1.0
143
0.4594207153946231
 70
 11956
 72
     0
 73
     0
 74
     1
  7
LaserJet5Shaded.ctb
 75
     0
147
2.176654135286525
 76
     0
 77
     2
 78
   300
148
-119.4582094169044
149
-58.17053554795709
1001
ACAD_PSEXT
1000
LaserJet5Shaded-8x11.pc3
1000
HP LaserJet 5Si
1000
CAD Area
1000

1070
     0
  0
PLOTSETTINGS
  5
1284
102
{ACAD_REACTORS
330
10BB
102
}
330
10BB
100
AcDbPlotSettings
  1
Oki9500 11x17 BW Fit
  2
OKI DOKI Color Laser.pc3
  4
Tabloid
  6

 40
5.027083396911621
 41
5.027085304260253
 42
5.027099609375
 43
5.027069091796875
 44
431.7999877929687
 45
279.3999938964844
 46
80.82067083627547
 47
0.0
 48
0.0
 49
0.0
140
0.0
141
0.0
142
1.0
143
0.4045605831172927
 70
  2740
 72
     0
 73
     0
 74
     1
  7
OKIB&WShaded.ctb
 75
     0
147
2.471817675104729
 76
     0
 77
     2
 78
   300
148
-75.74468520391772
149
-27.53050504688192
1001
ACAD_PSEXT
1000
OKI DOKI Color Laser.pc3
1000
OKI C9500(PCL)
1000
FRONT
1000

1070
     0
  0
PLOTSETTINGS
  5
1285
102
{ACAD_REACTORS
330
10BB
102
}
330
10BB
100
AcDbPlotSettings
  1
Oki9500 11x17 BW Full
  2
OKI DOKI Color Laser.pc3
  4
Tabloid
  6

 40
5.027083396911621
 41
5.027085304260253
 42
5.027099609375
 43
5.027069091796875
 44
431.7999877929687
 45
279.3999938964844
 46
158.2588957589094
 47
80.18956480595884
 48
0.0
 49
0.0
140
0.0
141
0.0
142
1.0
143
1.0
 70
  2724
 72
     0
 73
     0
 74
     1
  7
OKIB&WShaded.ctb
 75
     0
147
2.471817675104729
 76
     0
 77
     2
 78
   300
148
-75.74468520391772
149
-27.53050504688192
1001
ACAD_PSEXT
1000
OKI DOKI Color Laser.pc3
1000
OKI C9500(PCL)
1000
FRONT
1000

1070
     0
  0
PLOTSETTINGS
  5
1286
102
{ACAD_REACTORS
330
10BB
102
}
330
10BB
100
AcDbPlotSettings
  1
Oki9500 11x17 BW Half
  2
OKI DOKI Color Laser.pc3
  4
Tabloid
  6

 40
5.027083396911621
 41
5.027085304260253
 42
5.027099609375
 43
5.027069091796875
 44
431.7999877929687
 45
279.3999938964844
 46
184.5658990761252
 47
107.4312422780862
 48
0.0
 49
0.0
140
0.0
141
0.0
142
1.0
143
2.0
 70
  2740
 72
     0
 73
     0
 74
     1
  7
OKIB&WShaded.ctb
 75
    17
147
0.5
 76
     0
 77
     2
 78
   300
148
-75.74468520391772
149
-27.53050504688192
1001
ACAD_PSEXT
1000
OKI DOKI Color Laser.pc3
1000
OKI C9500(PCL)
1000
FRONT
1000

1070
     0
  0
PLOTSETTINGS
  5
1287
102
{ACAD_REACTORS
330
10BB
102
}
330
10BB
100
AcDbPlotSettings
  1
Oki9500 11x17 Color Fit
  2
OKI DOKI Color Laser.pc3
  4
Tabloid
  6

 40
5.027083396911621
 41
5.027085304260253
 42
5.027099609375
 43
5.027069091796875
 44
431.7999877929687
 45
279.3999938964844
 46
80.82067083627547
 47
0.0
 48
0.0
 49
0.0
140
0.0
141
0.0
142
1.0
143
0.4045605831172927
 70
  2740
 72
     0
 73
     0
 74
     1
  7
OKIColorShaded.ctb
 75
     0
147
2.471817675104729
 76
     0
 77
     2
 78
   300
148
-75.74468520391772
149
-27.53050504688192
1001
ACAD_PSEXT
1000
OKI DOKI Color Laser.pc3
1000
OKI C9500(PCL)
1000
FRONT
1000

1070
     0
  0
PLOTSETTINGS
  5
1288
102
{ACAD_REACTORS
330
10BB
102
}
330
10BB
100
AcDbPlotSettings
  1
Oki9500 11x17 Color Full
  2
OKI DOKI Color Laser.pc3
  4
Tabloid
  6

 40
5.027082920074462
 41
5.027085781097412
 42
5.027099609375
 43
5.027069091796875
 44
431.7999877929687
 45
279.3999938964844
 46
158.258895997328
 47
80.18956456754025
 48
0.0
 49
0.0
140
0.0
141
0.0
142
1.0
143
1.0
 70
  2724
 72
     0
 73
     0
 74
     1
  7
OKIColorShaded.ctb
 75
     0
147
2.471817675104729
 76
     0
 77
     2
 78
   300
148
-75.74468520391772
149
-27.53050504688192
1001
ACAD_PSEXT
1000
OKI DOKI Color Laser.pc3
1000
OKI C9600(PCL)
1000
FRONT
1000

1070
     0
  0
PLOTSETTINGS
  5
1289
102
{ACAD_REACTORS
330
10BB
102
}
330
10BB
100
AcDbPlotSettings
  1
Oki9500 11x17 Color Half
  2
OKI DOKI Color Laser.pc3
  4
Tabloid
  6

 40
5.027083396911621
 41
5.027085304260253
 42
5.027099609375
 43
5.027069091796875
 44
431.7999877929687
 45
279.3999938964844
 46
184.5658990761252
 47
107.4312422780862
 48
0.0
 49
0.0
140
0.0
141
0.0
142
1.0
143
2.0
 70
  2740
 72
     0
 73
     0
 74
     1
  7
OKIColorShaded.ctb
 75
    17
147
0.5
 76
     0
 77
     2
 78
   300
148
-75.74468520391772
149
-27.53050504688192
1001
ACAD_PSEXT
1000
OKI DOKI Color Laser.pc3
1000
OKI C9500(PCL)
1000
FRONT
1000

1070
     0
  0
PLOTSETTINGS
  5
128A
102
{ACAD_REACTORS
330
10BB
102
}
330
10BB
100
AcDbPlotSettings
  1
Oki9500 8x11 BW Fit
  2
OKI DOKI Color Laser8x11.pc3
  4
Letter
  6

 40
5.027083396911621
 41
5.027085304260253
 42
5.027099609375
 43
5.027084350585937
 44
279.3999938964844
 45
215.8999938964844
 46
35.28132453565591
 47
0.0
 48
0.0
 49
0.0
140
0.0
141
0.0
142
1.0
143
0.5293607985003172
 70
  2740
 72
     0
 73
     0
 74
     1
  7
OKIB&WShaded.ctb
 75
     0
147
1.889070748784206
 76
     0
 77
     2
 78
   300
148
-75.74468520391772
149
-27.53050504688192
1001
ACAD_PSEXT
1000
OKI DOKI Color Laser8x11.pc3
1000
OKI C9500(PCL)
1000
FRONT
1000

1070
     0
  0
PLOTSETTINGS
  5
128B
102
{ACAD_REACTORS
330
10BB
102
}
330
10BB
100
AcDbPlotSettings
  1
Oki9500 8x11 BW Portrait Fit
  2
OKI DOKI Color Laser8x11.pc3
  4
Letter
  6

 40
5.027083396911621
 41
5.027085304260253
 42
5.027099609375
 43
5.027084350585937
 44
279.3999938964844
 45
215.8999938964844
 46
28.0931957503573
 47
0.0000000000000029
 48
0.0
 49
0.0
140
0.0
141
0.0
142
1.0
143
0.5111981924167587
 70
  2740
 72
     0
 73
     1
 74
     1
  7
OKIB&WShaded.ctb
 75
     0
147
1.956188450652308
 76
     0
 77
     2
 78
   300
148
-75.74468520391772
149
-27.53050504688192
1001
ACAD_PSEXT
1000
OKI DOKI Color Laser8x11.pc3
1000
OKI C9500(PCL)
1000
FRONT
1000

1070
     0
  0
PLOTSETTINGS
  5
128C
102
{ACAD_REACTORS
330
10BB
102
}
330
10BB
100
AcDbPlotSettings
  1
Oki9500 8x11 Color Fit
  2
OKI DOKI Color Laser8x11.pc3
  4
Letter
  6

 40
5.027083396911621
 41
5.027085304260253
 42
5.027099609375
 43
5.027084350585937
 44
279.3999938964844
 45
215.8999938964844
 46
35.28132453565591
 47
0.0
 48
0.0
 49
0.0
140
0.0
141
0.0
142
1.0
143
0.5293607985003172
 70
  2740
 72
     0
 73
     0
 74
     1
  7
OKIColorShaded.ctb
 75
     0
147
1.889070748784206
 76
     0
 77
     2
 78
   300
148
-75.74468520391772
149
-27.53050504688192
1001
ACAD_PSEXT
1000
OKI DOKI Color Laser8x11.pc3
1000
OKI C9500(PCL)
1000
FRONT
1000

1070
     0
  0
PLOTSETTINGS
  5
128D
102
{ACAD_REACTORS
330
10BB
102
}
330
10BB
100
AcDbPlotSettings
  1
Oki9500 8x11 Color Portrait Fit
  2
OKI DOKI Color Laser8x11.pc3
  4
Letter
  6

 40
5.027083396911621
 41
5.027085304260253
 42
5.027099609375
 43
5.027084350585937
 44
279.3999938964844
 45
215.8999938964844
 46
28.0931957503573
 47
0.0000000000000029
 48
0.0
 49
0.0
140
0.0
141
0.0
142
1.0
143
0.5111981924167587
 70
  2740
 72
     0
 73
     1
 74
     1
  7
OKIColorShaded.ctb
 75
     0
147
1.956188450652308
 76
     0
 77
     2
 78
   300
148
-75.74468520391772
149
-27.53050504688192
1001
ACAD_PSEXT
1000
OKI DOKI Color Laser8x11.pc3
1000
OKI C9500(PCL)
1000
FRONT
1000

1070
     0
  0
PLOTSETTINGS
  5
128E
102
{ACAD_REACTORS
330
10BB
102
}
330
10BB
100
AcDbPlotSettings
  1
OKI9500 B&W 11x17
  2
OKI DOKI Color Laser.pc3
  4
11x17
  6

 40
5.873749732971191
 41
5.873734951019287
 42
5.873748779296875
 43
5.027069091796875
 44
431.7999877929687
 45
279.3999938964844
 46
72.38759962724653
 47
0.0000000000000057
 48
0.0
 49
0.0
140
0.0
141
0.0
142
1.0
143
0.3507677900220671
 70
 11956
 72
     0
 73
     0
 74
     1
  7
OKIB&WShaded.ctb
 75
     0
147
2.850888902704233
 76
     0
 77
     2
 78
   300
148
-119.4582094169044
149
-58.17053554795709
1001
ACAD_PSEXT
1000
OKI DOKI Color Laser.pc3
1000
HP LaserJet 5Si
1000
CAD Area
1000

1070
     0
  0
PLOTSETTINGS
  5
128F
102
{ACAD_REACTORS
330
10BB
102
}
330
10BB
100
AcDbPlotSettings
  1
OKI9500 B&W 8.5x11
  2
OKI DOKI Color Laser8x11.pc3
  4
Letter
  6

 40
5.873749732971191
 41
5.873734951019287
 42
6.55108642578125
 43
5.027084350585937
 44
279.3999938964844
 45
215.8999938964844
 46
28.40045128601757
 47
0.0000000000000046
 48
0.0
 49
0.0
140
0.0
141
0.0
142
1.0
143
0.4594207153946231
 70
 11956
 72
     0
 73
     0
 74
     1
  7
OKIB&WShaded.ctb
 75
     0
147
2.176654135286525
 76
     0
 77
     2
 78
   300
148
-119.4582094169044
149
-58.17053554795709
1001
ACAD_PSEXT
1000
OKI DOKI Color Laser8x11.pc3
1000
HP LaserJet 5Si
1000
CAD Area
1000

1070
     0
  0
PLOTSETTINGS
  5
1290
102
{ACAD_REACTORS
330
10BB
102
}
330
10BB
100
AcDbPlotSettings
  1
OKI9500 Color 11x17
  2
OKI DOKI Color Laser.pc3
  4
Tabloid
  6

 40
5.027083396911621
 41
5.027085304260253
 42
5.027099609375
 43
5.027069091796875
 44
431.7999877929687
 45
279.3999938964844
 46
72.80024597690952
 47
0.0
 48
0.0
 49
0.0
140
0.0
141
0.0
142
1.0
143
0.349665202263268
 70
 11956
 72
     0
 73
     0
 74
     1
  7
OKIColorShaded.ctb
 75
     0
147
2.859878516727796
 76
     0
 77
     2
 78
   300
148
-119.4582094169044
149
-58.17053554795709
1001
ACAD_PSEXT
1000
OKI DOKI Color Laser.pc3
1000
OKI C9500(PCL)
1000
FRONT
1000

1070
     0
  0
PLOTSETTINGS
  5
1291
102
{ACAD_REACTORS
330
10BB
102
}
330
10BB
100
AcDbPlotSettings
  1
OKI9500 Color 8.5x11
  2
OKI DOKI Color Laser8x11.pc3
  4
Letter
  6

 40
5.873749732971191
 41
5.873734951019287
 42
6.55108642578125
 43
5.027084350585937
 44
279.3999938964844
 45
215.8999938964844
 46
28.40045128601757
 47
0.0000000000000046
 48
0.0
 49
0.0
140
0.0
141
0.0
142
1.0
143
0.4594207153946231
 70
 11956
 72
     0
 73
     0
 74
     1
  7
OKIColorShaded.ctb
 75
     0
147
2.176654135286525
 76
     0
 77
     2
 78
   300
148
-119.4582094169044
149
-58.17053554795709
1001
ACAD_PSEXT
1000
OKI DOKI Color Laser8x11.pc3
1000
HP LaserJet 5Si
1000
CAD Area
1000

1070
     0
  0
PLOTSETTINGS
  5
1292
102
{ACAD_REACTORS
330
10BB
102
}
330
10BB
100
AcDbPlotSettings
  1
Oki9600 11x17 BW Fit
  2
9600 BW 11x17.pc3
  4
Tabloid
  6

 40
5.027082920074462
 41
5.027085781097412
 42
5.027099609375
 43
5.027069091796875
 44
431.7999877929687
 45
279.3999938964844
 46
80.82067130493244
 47
0.000000000000007
 48
0.0
 49
0.0
140
0.0
141
0.0
142
1.0
143
0.4045605838335077
 70
  2804
 72
     0
 73
     0
 74
     1
  7
OKIB&WShaded.ctb
 75
     0
147
2.47181767072874
 76
     0
 77
     2
 78
   300
148
-75.74468520391772
149
-27.53050504688192
1001
ACAD_PSEXT
1000
9600 BW 11x17.pc3
1000
OKI C9600(PCL)
1000
Expansion Area
1000

1070
     0
  0
PLOTSETTINGS
  5
1293
102
{ACAD_REACTORS
330
10BB
102
}
330
10BB
100
AcDbPlotSettings
  1
Oki9600 11x17 BW Full
  2
9600 BW 11x17.pc3
  4
Tabloid
  6

 40
5.027082920074462
 41
5.027085781097412
 42
5.027099609375
 43
5.027069091796875
 44
431.7999877929687
 45
279.3999938964844
 46
158.258895997328
 47
80.18956456754025
 48
0.0
 49
0.0
140
0.0
141
0.0
142
1.0
143
1.0
 70
  2788
 72
     0
 73
     0
 74
     1
  7
OKIB&WShaded.ctb
 75
     0
147
2.47181767072874
 76
     0
 77
     2
 78
   300
148
-75.74468520391772
149
-27.53050504688192
1001
ACAD_PSEXT
1000
9600 BW 11x17.pc3
1000
OKI C9600(PCL)
1000
Expansion Area
1000

1070
     0
  0
PLOTSETTINGS
  5
1294
102
{ACAD_REACTORS
330
10BB
102
}
330
10BB
100
AcDbPlotSettings
  1
Oki9600 11x17 BW Half
  2
9600 BW 11x17.pc3
  4
Tabloid
  6

 40
5.027082920074462
 41
5.027085781097412
 42
5.027099609375
 43
5.027069091796875
 44
431.7999877929687
 45
279.3999938964844
 46
184.5658993145439
 47
107.4312420396676
 48
0.0
 49
0.0
140
0.0
141
0.0
142
1.0
143
2.0
 70
  2788
 72
     0
 73
     0
 74
     1
  7
OKIB&WShaded.ctb
 75
     0
147
2.47181767072874
 76
     0
 77
     2
 78
   300
148
-75.74468520391772
149
-27.53050504688192
1001
ACAD_PSEXT
1000
9600 BW 11x17.pc3
1000
OKI C9600(PCL)
1000
Expansion Area
1000

1070
     0
  0
PLOTSETTINGS
  5
1295
102
{ACAD_REACTORS
330
10BB
102
}
330
10BB
100
AcDbPlotSettings
  1
Oki9600 11x17 Color Fit
  2
9600 Color 11x17.pc3
  4
Tabloid
  6

 40
5.027082920074462
 41
5.027085781097412
 42
5.027099609375
 43
5.027069091796875
 44
431.7999877929687
 45
279.3999938964844
 46
80.82067130493244
 47
0.000000000000007
 48
0.0
 49
0.0
140
0.0
141
0.0
142
1.0
143
0.4045605838335077
 70
  2804
 72
     0
 73
     0
 74
     1
  7
OKIColorShaded.ctb
 75
     0
147
2.47181767072874
 76
     0
 77
     2
 78
   300
148
-75.74468520391772
149
-27.53050504688192
1001
ACAD_PSEXT
1000
9600 Color 11x17.pc3
1000
OKI C9600(PCL)
1000
Expansion Area
1000

1070
     0
  0
PLOTSETTINGS
  5
1296
102
{ACAD_REACTORS
330
10BB
102
}
330
10BB
100
AcDbPlotSettings
  1
Oki9600 11x17 Color Full
  2
9600 Color 11x17.pc3
  4
Tabloid
  6

 40
5.027082920074462
 41
5.027085781097412
 42
5.027099609375
 43
5.027069091796875
 44
431.7999877929687
 45
279.3999938964844
 46
158.258895997328
 47
80.18956456754025
 48
0.0
 49
0.0
140
0.0
141
0.0
142
1.0
143
1.0
 70
  2788
 72
     0
 73
     0
 74
     1
  7
OKIColorShaded.ctb
 75
     0
147
2.47181767072874
 76
     0
 77
     2
 78
   300
148
-75.74468520391772
149
-27.53050504688192
1001
ACAD_PSEXT
1000
9600 Color 11x17.pc3
1000
OKI C9600(PCL)
1000
Expansion Area
1000

1070
     0
  0
PLOTSETTINGS
  5
1297
102
{ACAD_REACTORS
330
10BB
102
}
330
10BB
100
AcDbPlotSettings
  1
Oki9600 11x17 Color Half
  2
9600 Color 11x17.pc3
  4
Tabloid
  6

 40
5.027082920074462
 41
5.027085781097412
 42
5.027099609375
 43
5.027069091796875
 44
431.7999877929687
 45
279.3999938964844
 46
184.5658993145439
 47
107.4312420396676
 48
0.0
 49
0.0
140
0.0
141
0.0
142
1.0
143
2.0
 70
  2788
 72
     0
 73
     0
 74
     1
  7
OKIColorShaded.ctb
 75
     0
147
2.47181767072874
 76
     0
 77
     2
 78
   300
148
-75.74468520391772
149
-27.53050504688192
1001
ACAD_PSEXT
1000
9600 Color 11x17.pc3
1000
OKI C9600(PCL)
1000
Expansion Area
1000

1070
     0
  0
PLOTSETTINGS
  5
1298
102
{ACAD_REACTORS
330
10BB
102
}
330
10BB
100
AcDbPlotSettings
  1
Oki9600 8x11 BW Fit
  2
9600 BW 8.5x11.pc3
  4
Letter
  6

 40
5.027082920074462
 41
5.027070522308349
 42
5.027099609375
 43
5.027084350585937
 44
279.3999938964844
 45
215.8999938964844
 46
35.28131763668624
 47
0.0000000000000033
 48
0.0
 49
0.0
140
0.0
141
0.0
142
1.0
143
0.5293607604865011
 70
  2804
 72
     0
 73
     0
 74
     1
  7
OKIB&WShaded.ctb
 75
     0
147
1.889070884439876
 76
     0
 77
     2
 78
   300
148
-75.74468520391772
149
-27.53050504688192
1001
ACAD_PSEXT
1000
9600 BW 8.5x11.pc3
1000
OKI C9600(PCL)
1000
Expansion Area
1000

1070
     0
  0
PLOTSETTINGS
  5
1299
102
{ACAD_REACTORS
330
10BB
102
}
330
10BB
100
AcDbPlotSettings
  1
Oki9600 8x11 BW Portrait Fit
  2
9600 BW 8.5x11.pc3
  4
Letter
  6

 40
5.027082920074462
 41
5.027070522308349
 42
5.027099609375
 43
5.027084350585937
 44
279.3999938964844
 45
215.8999938964844
 46
28.09318833520237
 47
-0.0000000000000029
 48
0.0
 49
0.0
140
0.0
141
0.0
142
1.0
143
0.5111981557072135
 70
  2804
 72
     0
 73
     1
 74
     1
  7
OKIB&WShaded.ctb
 75
     0
147
1.956188591127753
 76
     0
 77
     2
 78
   300
148
-75.74468520391772
149
-27.53050504688192
1001
ACAD_PSEXT
1000
9600 BW 8.5x11.pc3
1000
OKI C9600(PCL)
1000
Expansion Area
1000

1070
     0
  0
PLOTSETTINGS
  5
129A
102
{ACAD_REACTORS
330
10BB
102
}
330
10BB
100
AcDbPlotSettings
  1
Oki9600 8x11 Color Fit
  2
9600 Color 8.5x11.pc3
  4
Letter
  6

 40
5.027082920074462
 41
5.027070522308349
 42
5.027099609375
 43
5.027084350585937
 44
279.3999938964844
 45
215.8999938964844
 46
35.28131763668624
 47
0.0000000000000033
 48
0.0
 49
0.0
140
0.0
141
0.0
142
1.0
143
0.5293607604865011
 70
  2804
 72
     0
 73
     0
 74
     1
  7
OKIColorShaded.ctb
 75
     0
147
1.889070884439876
 76
     0
 77
     2
 78
   300
148
-75.74468520391772
149
-27.53050504688192
1001
ACAD_PSEXT
1000
9600 Color 8.5x11.pc3
1000
OKI C9600(PCL)
1000
Expansion Area
1000

1070
     0
  0
PLOTSETTINGS
  5
129B
102
{ACAD_REACTORS
330
10BB
102
}
330
10BB
100
AcDbPlotSettings
  1
Oki9600 8x11 Color Portrait Fit
  2
9600 Color 8.5x11.pc3
  4
Letter
  6

 40
5.027082920074462
 41
5.027070522308349
 42
5.027099609375
 43
5.027084350585937
 44
279.3999938964844
 45
215.8999938964844
 46
28.09318833520237
 47
-0.0000000000000029
 48
0.0
 49
0.0
140
0.0
141
0.0
142
1.0
143
0.5111981557072135
 70
  2804
 72
     0
 73
     1
 74
     1
  7
OKIColorShaded.ctb
 75
     0
147
1.956188591127753
 76
     0
 77
     2
 78
   300
148
-75.74468520391772
149
-27.53050504688192
1001
ACAD_PSEXT
1000
9600 Color 8.5x11.pc3
1000
OKI C9600(PCL)
1000
Expansion Area
1000

1070
     0
  0
PLOTSETTINGS
  5
129C
102
{ACAD_REACTORS
330
10BB
102
}
330
10BB
100
AcDbPlotSettings
  1
OKI9600 B&W 11x17
  2
9600 BW 11x17.pc3
  4
Tabloid
  6

 40
5.027082920074462
 41
5.027085781097412
 42
5.027099609375
 43
5.027069091796875
 44
431.7999877929687
 45
279.3999938964844
 46
72.80024645976547
 47
-0.0000000000000027
 48
0.0
 49
0.0
140
0.0
141
0.0
142
1.0
143
0.3496652028822988
 70
 11956
 72
     0
 73
     0
 74
     1
  7
OKIB&WShaded.ctb
 75
     0
147
2.859878511664802
 76
     0
 77
     2
 78
   300
148
-119.4582094169044
149
-58.17053554795709
1001
ACAD_PSEXT
1000
9600 BW 11x17.pc3
1000
OKI C9600(PCL)
1000
Expansion Area
1000

1070
     0
  0
PLOTSETTINGS
  5
129D
102
{ACAD_REACTORS
330
10BB
102
}
330
10BB
100
AcDbPlotSettings
  1
OKI9600 B&W 8.5x11
  2
9600 BW 8.5x11.pc3
  4
Letter
  6

 40
5.027082920074462
 41
5.027070522308349
 42
5.027099609375
 43
5.027084350585937
 44
279.3999938964844
 45
215.8999938964844
 46
29.15175911978468
 47
0.0000000000000065
 48
0.0
 49
0.0
140
0.0
141
0.0
142
1.0
143
0.4575310722549676
 70
 11956
 72
     0
 73
     0
 74
     1
  7
OKIB&WShaded.ctb
 75
     0
147
2.185643906262899
 76
     0
 77
     2
 78
   300
148
-119.4582094169044
149
-58.17053554795709
1001
ACAD_PSEXT
1000
9600 BW 8.5x11.pc3
1000
OKI C9600(PCL)
1000
Expansion Area
1000

1070
     0
  0
PLOTSETTINGS
  5
129E
102
{ACAD_REACTORS
330
10BB
102
}
330
10BB
100
AcDbPlotSettings
  1
OKI9600 Color 11x17
  2
9600 Color 11x17.pc3
  4
Tabloid
  6

 40
5.027082920074462
 41
5.027085781097412
 42
5.027099609375
 43
5.027069091796875
 44
431.7999877929687
 45
279.3999938964844
 46
72.80024645976547
 47
-0.0000000000000027
 48
0.0
 49
0.0
140
0.0
141
0.0
142
1.0
143
0.3496652028822988
 70
 11956
 72
     0
 73
     0
 74
     1
  7
OKIColorShaded.ctb
 75
     0
147
2.859878511664802
 76
     0
 77
     2
 78
   300
148
-119.4582094169044
149
-58.17053554795709
1001
ACAD_PSEXT
1000
9600 Color 11x17.pc3
1000
OKI C9600(PCL)
1000
Expansion Area
1000

1070
     0
  0
PLOTSETTINGS
  5
129F
102
{ACAD_REACTORS
330
10BB
102
}
330
10BB
100
AcDbPlotSettings
  1
OKI9600 Color 8.5x11
  2
9600 Color 8.5x11.pc3
  4
Letter
  6

 40
5.027082920074462
 41
5.027070522308349
 42
5.027099609375
 43
5.027084350585937
 44
279.3999938964844
 45
215.8999938964844
 46
29.15175911978468
 47
0.0000000000000065
 48
0.0
 49
0.0
140
0.0
141
0.0
142
1.0
143
0.4575310722549676
 70
 11956
 72
     0
 73
     0
 74
     1
  7
OKIColorShaded.ctb
 75
     0
147
2.185643906262899
 76
     0
 77
     2
 78
   300
148
-119.4582094169044
149
-58.17053554795709
1001
ACAD_PSEXT
1000
9600 Color 8.5x11.pc3
1000
OKI C9600(PCL)
1000
Expansion Area
1000

1070
     0
  0
PLOTSETTINGS
  5
12A0
102
{ACAD_REACTORS
330
10BB
102
}
330
10BB
100
AcDbPlotSettings
  1
PHX Kyocera 11x17 Fit
  2
PHX_Kyocera.pc3
  4
Tabloid
  6

 40
4.984749794006347
 41
5.069418907165527
 42
5.069427490234375
 43
4.9847412109375
 44
431.7999877929687
 45
279.3999938964844
 46
80.8206764601584
 47
-0.0000000000000226
 48
0.0
 49
0.0
140
0.0
141
0.0
142
1.0
143
0.4045605917118723
 70
  2740
 72
     0
 73
     0
 74
     1
  7
LaserJet5Shaded.ctb
 75
     0
147
2.471817622592858
 76
     0
 77
     2
 78
   300
148
-75.74468520391772
149
-27.53050504688192
1001
ACAD_PSEXT
1000
PHX_Kyocera.pc3
1000
Kyocera Mita KM-2050 KX
1000
Arizona
1000

1070
     0
  0
PLOTSETTINGS
  5
12A1
102
{ACAD_REACTORS
330
10BB
102
}
330
10BB
100
AcDbPlotSettings
  1
PHX Oki9500 11x17 BW Fit
  2
PHX OKI BW.pc3
  4
Tabloid
  6

 40
5.027082920074462
 41
5.027085781097412
 42
5.027099609375
 43
5.027069091796875
 44
431.7999877929687
 45
279.3999938964844
 46
80.82067130493246
 47
0.0
 48
0.0
 49
0.0
140
0.0
141
0.0
142
1.0
143
0.4045605838335077
 70
  2740
 72
     0
 73
     0
 74
     1
  7
OKIB&WShaded.ctb
 75
     0
147
2.47181767072874
 76
     0
 77
     2
 78
   300
148
-75.74468520391772
149
-27.53050504688192
1001
ACAD_PSEXT
1000
PHX OKI BW.pc3
1000
OKI C9500(PCL)
1000
Arizona
1000

1070
     0
  0
PLOTSETTINGS
  5
12A2
102
{ACAD_REACTORS
330
10BB
102
}
330
10BB
100
AcDbPlotSettings
  1
PHX Oki9500 11x17 BW Half
  2
PHX OKI BW.pc3
  4
Tabloid
  6

 40
5.027082920074462
 41
5.027085781097412
 42
5.027099609375
 43
5.027069091796875
 44
431.7999877929687
 45
279.3999938964844
 46
184.5658993145439
 47
107.4312420396676
 48
0.0
 49
0.0
140
0.0
141
0.0
142
1.0
143
2.0
 70
  2724
 72
     0
 73
     0
 74
     1
  7
OKIB&WShaded.ctb
 75
     0
147
2.47181767072874
 76
     0
 77
     2
 78
   300
148
-75.74468520391772
149
-27.53050504688192
1001
ACAD_PSEXT
1000
PHX OKI BW.pc3
1000
OKI C9500(PCL)
1000
Arizona
1000

1070
     0
  0
ACDBPLACEHOLDER
  5
10B2
102
{ACAD_REACTORS
330
10B1
102
}
330
10B1
  0
SCALE
  5
1220
102
{ACAD_REACTORS
330
121F
102
}
330
121F
100
AcDbScale
 70
     0
300
1:1
140
1.0
141
1.0
290
     1
  0
SCALE
  5
1221
102
{ACAD_REACTORS
330
121F
102
}
330
121F
100
AcDbScale
 70
     0
300
1:2
140
1.0
141
2.0
290
     0
  0
SCALE
  5
1222
102
{ACAD_REACTORS
330
121F
102
}
330
121F
100
AcDbScale
 70
     0
300
1:4
140
1.0
141
4.0
290
     0
  0
SCALE
  5
1223
102
{ACAD_REACTORS
330
121F
102
}
330
121F
100
AcDbScale
 70
     0
300
1:5
140
1.0
141
5.0
290
     0
  0
SCALE
  5
1224
102
{ACAD_REACTORS
330
121F
102
}
330
121F
100
AcDbScale
 70
     0
300
1:8
140
1.0
141
8.0
290
     0
  0
SCALE
  5
1225
102
{ACAD_REACTORS
330
121F
102
}
330
121F
100
AcDbScale
 70
     0
300
1:10
140
1.0
141
10.0
290
     0
  0
SCALE
  5
1226
102
{ACAD_REACTORS
330
121F
102
}
330
121F
100
AcDbScale
 70
     0
300
1:16
140
1.0
141
16.0
290
     0
  0
SCALE
  5
1227
102
{ACAD_REACTORS
330
121F
102
}
330
121F
100
AcDbScale
 70
     0
300
1:20
140
1.0
141
20.0
290
     0
  0
SCALE
  5
1228
102
{ACAD_REACTORS
330
121F
102
}
330
121F
100
AcDbScale
 70
     0
300
1:30
140
1.0
141
30.0
290
     0
  0
SCALE
  5
1229
102
{ACAD_REACTORS
330
121F
102
}
330
121F
100
AcDbScale
 70
     0
300
1:40
140
1.0
141
40.0
290
     0
  0
SCALE
  5
122A
102
{ACAD_REACTORS
330
121F
102
}
330
121F
100
AcDbScale
 70
     0
300
1:50
140
1.0
141
50.0
290
     0
  0
SCALE
  5
122B
102
{ACAD_REACTORS
330
121F
102
}
330
121F
100
AcDbScale
 70
     0
300
1:100
140
1.0
141
100.0
290
     0
  0
SCALE
  5
122C
102
{ACAD_REACTORS
330
121F
102
}
330
121F
100
AcDbScale
 70
     0
300
2:1
140
2.0
141
1.0
290
     0
  0
SCALE
  5
122D
102
{ACAD_REACTORS
330
121F
102
}
330
121F
100
AcDbScale
 70
     0
300
4:1
140
4.0
141
1.0
290
     0
  0
SCALE
  5
122E
102
{ACAD_REACTORS
330
121F
102
}
330
121F
100
AcDbScale
 70
     0
300
8:1
140
8.0
141
1.0
290
     0
  0
SCALE
  5
122F
102
{ACAD_REACTORS
330
121F
102
}
330
121F
100
AcDbScale
 70
     0
300
10:1
140
10.0
141
1.0
290
     0
  0
SCALE
  5
1230
102
{ACAD_REACTORS
330
121F
102
}
330
121F
100
AcDbScale
 70
     0
300
100:1
140
100.0
141
1.0
290
     0
  0
SCALE
  5
1231
102
{ACAD_REACTORS
330
121F
102
}
330
121F
100
AcDbScale
 70
     0
300
1/128" = 1'-0"
140
0.0078125
141
12.0
290
     0
  0
SCALE
  5
1232
102
{ACAD_REACTORS
330
121F
102
}
330
121F
100
AcDbScale
 70
     0
300
1/64" = 1'-0"
140
0.015625
141
12.0
290
     0
  0
SCALE
  5
1233
102
{ACAD_REACTORS
330
121F
102
}
330
121F
100
AcDbScale
 70
     0
300
1/32" = 1'-0"
140
0.03125
141
12.0
290
     0
  0
SCALE
  5
1234
102
{ACAD_REACTORS
330
121F
102
}
330
121F
100
AcDbScale
 70
     0
300
1/16" = 1'-0"
140
0.0625
141
12.0
290
     0
  0
SCALE
  5
1235
102
{ACAD_REACTORS
330
121F
102
}
330
121F
100
AcDbScale
 70
     0
300
3/32" = 1'-0"
140
0.09375
141
12.0
290
     0
  0
SCALE
  5
1236
102
{ACAD_REACTORS
330
121F
102
}
330
121F
100
AcDbScale
 70
     0
300
1/8" = 1'-0"
140
0.125
141
12.0
290
     0
  0
SCALE
  5
1237
102
{ACAD_REACTORS
330
121F
102
}
330
121F
100
AcDbScale
 70
     0
300
3/16" = 1'-0"
140
0.1875
141
12.0
290
     0
  0
SCALE
  5
1238
102
{ACAD_REACTORS
330
121F
102
}
330
121F
100
AcDbScale
 70
     0
300
1/4" = 1'-0"
140
0.25
141
12.0
290
     0
  0
SCALE
  5
1239
102
{ACAD_REACTORS
330
121F
102
}
330
121F
100
AcDbScale
 70
     0
300
3/8" = 1'-0"
140
0.375
141
12.0
290
     0
  0
SCALE
  5
123A
102
{ACAD_REACTORS
330
121F
102
}
330
121F
100
AcDbScale
 70
     0
300
1/2" = 1'-0"
140
0.5
141
12.0
290
     0
  0
SCALE
  5
123B
102
{ACAD_REACTORS
330
121F
102
}
330
121F
100
AcDbScale
 70
     0
300
3/4" = 1'-0"
140
0.75
141
12.0
290
     0
  0
SCALE
  5
123C
102
{ACAD_REACTORS
330
121F
102
}
330
121F
100
AcDbScale
 70
     0
300
1" = 1'-0"
140
1.0
141
12.0
290
     0
  0
SCALE
  5
123D
102
{ACAD_REACTORS
330
121F
102
}
330
121F
100
AcDbScale
 70
     0
300
1-1/2" = 1'-0"
140
1.5
141
12.0
290
     0
  0
SCALE
  5
123E
102
{ACAD_REACTORS
330
121F
102
}
330
121F
100
AcDbScale
 70
     0
300
3" = 1'-0"
140
3.0
141
12.0
290
     0
  0
SCALE
  5
123F
102
{ACAD_REACTORS
330
121F
102
}
330
121F
100
AcDbScale
 70
     0
300
6" = 1'-0"
140
6.0
141
12.0
290
     0
  0
SCALE
  5
1240
102
{ACAD_REACTORS
330
121F
102
}
330
121F
100
AcDbScale
 70
     0
300
1'-0" = 1'-0"
140
12.0
141
12.0
290
     0
  0
TABLESTYLE
  5
121E
102
{ACAD_XDICTIONARY
360
12BA
102
}
102
{ACAD_REACTORS
330
121D
102
}
330
121D
100
AcDbTableStyle
  3
Standard
 70
     0
 71
     0
 40
0.06
 41
0.06
280
     0
281
     0
  7
STANDARD
140
0.18
170
     2
 62
     0
 63
     7
283
     0
274
    -2
284
     1
 64
     0
275
    -2
285
     1
 65
     0
276
    -2
286
     1
 66
     0
277
    -2
287
     1
 67
     0
278
    -2
288
     1
 68
     0
279
    -2
289
     1
 69
     0
  7
STANDARD
140
0.25
170
     5
 62
     0
 63
     7
283
     0
274
    -2
284
     1
 64
     0
275
    -2
285
     1
 65
     0
276
    -2
286
     1
 66
     0
277
    -2
287
     1
 67
     0
278
    -2
288
     1
 68
     0
279
    -2
289
     1
 69
     0
  7
STANDARD
140
0.18
170
     5
 62
     0
 63
     7
283
     0
274
    -2
284
     1
 64
     0
275
    -2
285
     1
 65
     0
276
    -2
286
     1
 66
     0
277
    -2
287
     1
 67
     0
278
    -2
288
     1
 68
     0
279
    -2
289
     1
 69
     0
  0
VISUALSTYLE
  5
1211
102
{ACAD_REACTORS
330
120B
102
}
330
120B
100
AcDbVisualStyle
  2
2dWireframe
 70
     4
 71
     0
 72
     2
 73
     0
 90
        0
 40
-0.6
 41
-30.0
 62
     5
 63
     7
421
 16777215
 74
     1
 91
        4
 64
     7
 65
   257
 75
     1
175
     1
 42
1.0
 92
        0
 66
   257
 43
1.0
 76
     1
 77
     6
 78
     2
 67
     7
 79
     5
170
     0
171
     0
290
     0
174
     0
 93
        1
 44
0.0
173
     0
291
     0
 45
0.0
1001
ACAD
1000
AcDbSavedByObjectVersion
1070
     0
  0
VISUALSTYLE
  5
1213
102
{ACAD_REACTORS
330
120B
102
}
330
120B
100
AcDbVisualStyle
  2
3D Hidden
 70
     6
 71
     1
 72
     2
 73
     2
 90
        0
 40
-0.6
 41
-30.0
 62
     5
 63
     7
421
 16777215
 74
     2
 91
        2
 64
     7
 65
   257
 75
     2
175
     1
 42
40.0
 92
        0
 66
   257
 43
1.0
 76
     1
 77
     6
 78
     2
 67
     7
 79
     3
170
     0
171
     0
290
     0
174
     0
 93
        1
 44
0.0
173
     0
291
     0
 45
0.0
1001
ACAD
1000
AcDbSavedByObjectVersion
1070
     0
  0
VISUALSTYLE
  5
1212
102
{ACAD_REACTORS
330
120B
102
}
330
120B
100
AcDbVisualStyle
  2
3dWireframe
 70
     5
 71
     0
 72
     2
 73
     0
 90
        0
 40
-0.6
 41
-30.0
 62
     5
 63
     7
421
 16777215
 74
     1
 91
        4
 64
     7
 65
   257
 75
     1
175
     1
 42
1.0
 92
        0
 66
   257
 43
1.0
 76
     1
 77
     6
 78
     2
 67
     7
 79
     5
170
     0
171
     0
290
     0
174
     0
 93
        1
 44
0.0
173
     0
291
     0
 45
0.0
1001
ACAD
1000
AcDbSavedByObjectVersion
1070
     0
  0
VISUALSTYLE
  5
1210
102
{ACAD_REACTORS
330
120B
102
}
330
120B
100
AcDbVisualStyle
  2
Basic
 70
     7
 71
     1
 72
     0
 73
     1
 90
        0
 40
-0.6
 41
-30.0
 62
     5
 63
     7
421
 16777215
 74
     0
 91
        4
 64
     7
 65
   257
 75
     1
175
     1
 42
1.0
 92
        8
 66
     7
 43
1.0
 76
     1
 77
     6
 78
     2
 67
     7
 79
     5
170
     0
171
     0
290
     0
174
     0
 93
        1
 44
0.0
173
     0
291
     1
 45
0.0
1001
ACAD
1000
AcDbSavedByObjectVersion
1070
     0
  0
VISUALSTYLE
  5
1217
102
{ACAD_REACTORS
330
120B
102
}
330
120B
100
AcDbVisualStyle
  2
Brighten
 70
    12
 71
     2
 72
     2
 73
     0
 90
        0
 40
-0.6
 41
-30.0
 62
     5
 63
     7
421
 16777215
 74
     1
 91
        4
 64
     7
 65
   257
 75
     1
175
     1
 42
1.0
 92
        8
 66
     7
 43
1.0
 76
     1
 77
     6
 78
     2
 67
     7
 79
     5
170
     0
171
     0
290
     0
174
     0
 93
        1
 44
50.0
173
     0
291
     1
 45
0.0
1001
ACAD
1000
AcDbSavedByObjectVersion
1070
     0
  0
VISUALSTYLE
  5
121B
102
{ACAD_REACTORS
330
120B
102
}
330
120B
100
AcDbVisualStyle
  2
ColorChange
 70
    16
 71
     2
 72
     2
 73
     3
 90
        0
 40
-0.6
 41
-30.0
 62
     5
 63
     8
421
  8421504
 74
     1
 91
        4
 64
     7
 65
   257
 75
     1
175
     1
 42
1.0
 92
        8
 66
     8
424
  8421504
 43
1.0
 76
     1
 77
     6
 78
     2
 67
     7
 79
     5
170
     0
171
     0
290
     0
174
     0
 93
        1
 44
0.0
173
     0
291
     1
 45
0.0
1001
ACAD
1000
AcDbSavedByObjectVersion
1070
     0
  0
VISUALSTYLE
  5
1214
102
{ACAD_REACTORS
330
120B
102
}
330
120B
100
AcDbVisualStyle
  2
Conceptual
 70
     9
 71
     3
 72
     2
 73
     0
 90
        0
 40
-0.6
 41
-30.0
 62
     5
 63
     7
421
 16777215
 74
     2
 91
        2
 64
     7
 65
   257
 75
     1
175
     1
 42
40.0
 92
        8
 66
     7
 43
1.0
 76
     1
 77
     6
 78
     2
 67
     7
 79
     3
170
     0
171
     0
290
     0
174
     0
 93
        1
 44
0.0
173
     0
291
     0
 45
0.0
1001
ACAD
1000
AcDbSavedByObjectVersion
1070
     0
  0
VISUALSTYLE
  5
1216
102
{ACAD_REACTORS
330
120B
102
}
330
120B
100
AcDbVisualStyle
  2
Dim
 70
    11
 71
     2
 72
     2
 73
     0
 90
        0
 40
-0.6
 41
-30.0
 62
     5
 63
     7
421
 16777215
 74
     1
 91
        4
 64
     7
 65
   257
 75
     1
175
     1
 42
1.0
 92
        8
 66
     7
 43
1.0
 76
     1
 77
     6
 78
     2
 67
     7
 79
     5
170
     0
171
     0
290
     0
174
     0
 93
        1
 44
-50.0
173
     0
291
     1
 45
0.0
1001
ACAD
1000
AcDbSavedByObjectVersion
1070
     0
  0
VISUALSTYLE
  5
121A
102
{ACAD_REACTORS
330
120B
102
}
330
120B
100
AcDbVisualStyle
  2
Facepattern
 70
    15
 71
     2
 72
     2
 73
     0
 90
        0
 40
-0.6
 41
-30.0
 62
     5
 63
     7
421
 16777215
 74
     1
 91
        4
 64
     7
 65
   257
 75
     1
175
     1
 42
1.0
 92
        8
 66
     7
 43
1.0
 76
     1
 77
     6
 78
     2
 67
     7
 79
     5
170
     0
171
     0
290
     0
174
     0
 93
        1
 44
0.0
173
     0
291
     1
 45
0.0
1001
ACAD
1000
AcDbSavedByObjectVersion
1070
     0
  0
VISUALSTYLE
  5
120C
102
{ACAD_REACTORS
330
120B
102
}
330
120B
100
AcDbVisualStyle
  2
Flat
 70
     0
 71
     2
 72
     1
 73
     1
 90
        2
 40
-0.6
 41
30.0
 62
     5
 63
     7
421
 16777215
 74
     0
 91
        4
 64
     7
 65
   257
 75
     1
175
     1
 42
1.0
 92
        8
 66
     7
 43
1.0
 76
     1
 77
     6
 78
     2
 67
     7
 79
     5
170
     0
171
     0
290
     0
174
     0
 93
       13
 44
0.0
173
     0
291
     1
 45
0.0
1001
ACAD
1000
AcDbSavedByObjectVersion
1070
     0
  0
VISUALSTYLE
  5
120D
102
{ACAD_REACTORS
330
120B
102
}
330
120B
100
AcDbVisualStyle
  2
FlatWithEdges
 70
     1
 71
     2
 72
     1
 73
     1
 90
        2
 40
-0.6
 41
30.0
 62
     5
 63
     7
421
 16777215
 74
     1
 91
        4
 64
     7
 65
   257
 75
     1
175
     1
 42
1.0
 92
        0
 66
   257
 43
1.0
 76
     1
 77
     6
 78
     2
 67
     7
 79
     5
170
     0
171
     0
290
     0
174
     0
 93
       13
 44
0.0
173
     0
291
     1
 45
0.0
1001
ACAD
1000
AcDbSavedByObjectVersion
1070
     0
  0
VISUALSTYLE
  5
120E
102
{ACAD_REACTORS
330
120B
102
}
330
120B
100
AcDbVisualStyle
  2
Gouraud
 70
     2
 71
     2
 72
     2
 73
     1
 90
        2
 40
-0.6
 41
30.0
 62
     5
 63
     7
421
 16777215
 74
     0
 91
        4
 64
     7
 65
   257
 75
     1
175
     1
 42
1.0
 92
        0
 66
     7
 43
1.0
 76
     1
 77
     6
 78
     2
 67
     7
 79
     5
170
     0
171
     0
290
     0
174
     0
 93
       13
 44
0.0
173
     0
291
     1
 45
0.0
1001
ACAD
1000
AcDbSavedByObjectVersion
1070
     0
  0
VISUALSTYLE
  5
120F
102
{ACAD_REACTORS
330
120B
102
}
330
120B
100
AcDbVisualStyle
  2
GouraudWithEdges
 70
     3
 71
     2
 72
     2
 73
     1
 90
        2
 40
-0.6
 41
30.0
 62
     5
 63
     7
421
 16777215
 74
     1
 91
        4
 64
     7
 65
   257
 75
     1
175
     1
 42
1.0
 92
        0
 66
   257
 43
1.0
 76
     1
 77
     6
 78
     2
 67
     7
 79
     5
170
     0
171
     0
290
     0
174
     0
 93
       13
 44
0.0
173
     0
291
     1
 45
0.0
1001
ACAD
1000
AcDbSavedByObjectVersion
1070
     0
  0
VISUALSTYLE
  5
1219
102
{ACAD_REACTORS
330
120B
102
}
330
120B
100
AcDbVisualStyle
  2
Linepattern
 70
    14
 71
     2
 72
     2
 73
     0
 90
        0
 40
-0.6
 41
-30.0
 62
     5
 63
     7
421
 16777215
 74
     1
 91
        4
 64
     7
 65
   257
 75
     7
175
     7
 42
1.0
 92
        8
 66
     7
 43
1.0
 76
     1
 77
     6
 78
     2
 67
     7
 79
     5
170
     0
171
     0
290
     0
174
     0
 93
        1
 44
0.0
173
     0
291
     1
 45
0.0
1001
ACAD
1000
AcDbSavedByObjectVersion
1070
     0
  0
VISUALSTYLE
  5
1215
102
{ACAD_REACTORS
330
120B
102
}
330
120B
100
AcDbVisualStyle
  2
Realistic
 70
     8
 71
     2
 72
     2
 73
     0
 90
        0
 40
-0.6
 41
-30.0
 62
     5
 63
     7
421
 16777215
 74
     1
 91
        0
 64
     7
 65
   257
 75
     1
175
     1
 42
1.0
 92
        8
 66
     8
424
  7895160
 43
1.0
 76
     1
 77
     6
 78
     2
 67
     7
 79
     5
170
     0
171
     0
290
     0
174
     0
 93
       13
 44
0.0
173
     0
291
     0
 45
0.0
1001
ACAD
1000
AcDbSavedByObjectVersion
1070
     0
  0
VISUALSTYLE
  5
1218
102
{ACAD_REACTORS
330
120B
102
}
330
120B
100
AcDbVisualStyle
  2
Thicken
 70
    13
 71
     2
 72
     2
 73
     0
 90
        0
 40
-0.6
 41
-30.0
 62
     5
 63
     7
421
 16777215
 74
     1
 91
        4
 64
     7
 65
   257
 75
     1
175
     1
 42
1.0
 92
       12
 66
     7
 43
1.0
 76
     1
 77
     6
 78
     2
 67
     7
 79
     5
170
     0
171
     0
290
     0
174
     0
 93
        1
 44
0.0
173
     0
291
     1
 45
0.0
1001
ACAD
1000
AcDbSavedByObjectVersion
1070
     0
  0
DICTIONARYVAR
  5
12C0
102
{ACAD_REACTORS
330
10DD
102
}
330
10DD
100
DictionaryVariables
280
     0
  1
1:1
  0
DICTIONARYVAR
  5
12BE
102
{ACAD_REACTORS
330
10DD
102
}
330
10DD
100
DictionaryVariables
280
     0
  1
STANDARD
  0
DICTIONARYVAR
  5
12BD
102
{ACAD_REACTORS
330
10DD
102
}
330
10DD
100
DictionaryVariables
280
     0
  1
STANDARD
  0
DICTIONARYVAR
  5
10E0
102
{ACAD_REACTORS
330
10DD
102
}
330
10DD
100
DictionaryVariables
280
     0
  1
1
  0
DICTIONARYVAR
  5
10DF
102
{ACAD_REACTORS
330
10DD
102
}
330
10DD
100
DictionaryVariables
280
     0
  1
1
  0
DICTIONARYVAR
  5
1DA5
102
{ACAD_REACTORS
330
10DD
102
}
330
10DD
100
DictionaryVariables
280
     0
  1
0
  0
DICTIONARYVAR
  5
12C2
102
{ACAD_REACTORS
330
10DD
102
}
330
10DD
100
DictionaryVariables
280
     0
  1
15
  0
DICTIONARYVAR
  5
12C1
102
{ACAD_REACTORS
330
10DD
102
}
330
10DD
100
DictionaryVariables
280
     0
  1
0
  0
DICTIONARYVAR
  5
12BF
102
{ACAD_REACTORS
330
10DD
102
}
330
10DD
100
DictionaryVariables
280
     0
  1
0
  0
DICTIONARYVAR
  5
10DE
102
{ACAD_REACTORS
330
10DD
102
}
330
10DD
100
DictionaryVariables
280
     0
  1
1
  0
XRECORD
  5
1D8F
102
{ACAD_REACTORS
330
1D8C
102
}
330
1D8C
100
AcDbXrecord
280
     1
  1
_0100-
  1
*0100-*
  1
*
  1
*
 70
     0
  1
*
  1
*
  0
XRECORD
  5
1D8E
102
{ACAD_REACTORS
330
1D8C
102
}
330
1D8C
100
AcDbXrecord
280
     1
  1
_0280-
  1
*0280-*
  1
*
  1
*
 70
     0
  1
*
  1
*
  0
XRECORD
  5
1D92
102
{ACAD_REACTORS
330
1D8C
102
}
330
1D8C
100
AcDbXrecord
280
     1
  1
_Color 253
  1
*
  1
253
  1
*
 70
     0
  1
*
  1
*
  0
XRECORD
  5
1D90
102
{ACAD_REACTORS
330
1D8C
102
}
330
1D8C
100
AcDbXrecord
280
     1
  1
_Color 8
  1
*
  1
8
  1
*
 70
     0
  1
*
  1
*
  0
XRECORD
  5
1D91
102
{ACAD_REACTORS
330
1D8C
102
}
330
1D8C
100
AcDbXrecord
280
     1
  1
_Color 84
  1
*
  1
84
  1
*
 70
     0
  1
*
  1
*
  0
XRECORD
  5
1D97
102
{ACAD_REACTORS
330
1D8C
102
}
330
1D8C
100
AcDbXrecord
280
     1
  1
_Contours
  1
*contour*,*cont-*,*cp cont*,*p-cont*
  1
*
  1
*
 70
     0
  1
*
  1
*
  0
XRECORD
  5
1D93
102
{ACAD_REACTORS
330
1D8C
102
}
330
1D8C
100
AcDbXrecord
280
     1
  1
_Existing
  1
*exist*
  1
*
  1
*
 70
     0
  1
*
  1
*
  0
XRECORD
  5
1D96
102
{ACAD_REACTORS
330
1D8C
102
}
330
1D8C
100
AcDbXrecord
280
     1
  1
_Hardscape
  1
*sidewalk*,*sw*,*curb*,*walk*,*-lip*,*tbc*
  1
*
  1
*
 70
     0
  1
*
  1
*
  0
XRECORD
  5
1D8D
102
{ACAD_REACTORS
330
1D8C
102
}
330
1D8C
100
AcDbXrecord
280
     1
  1
_NoXref
  1
~*|*
  1
*
  1
*
 70
     0
  1
*
  1
*
  0
XRECORD
  5
1D94
102
{ACAD_REACTORS
330
1D8C
102
}
330
1D8C
100
AcDbXrecord
280
     1
  1
_Row
  1
*row*
  1
*
  1
*
 70
     0
  1
*
  1
*
  0
XRECORD
  5
1D95
102
{ACAD_REACTORS
330
1D8C
102
}
330
1D8C
100
AcDbXrecord
280
     1
  1
_Utility
  1
*ut-*,*utility*,*wat*
  1
*
  1
*
 70
     0
  1
*
  1
*
  0
DICTIONARY
  5
11FC
330
11FB
100
AcDbDictionary
280
     1
281
     1
  3
ACAD_XREC_ROUNDTRIP
360
1DAA
  3
BUMPTILE
360
11FE
  3
DIFFUSETILE
360
11FD
  3
OPACITYTILE
360
1201
  3
REFLECTIONTILE
360
1200
  3
REFRACTIONTILE
360
1202
  3
SPECULARTILE
360
11FF
  0
DICTIONARY
  5
11F4
330
11F3
100
AcDbDictionary
280
     1
281
     1
  3
ACAD_XREC_ROUNDTRIP
360
1DA9
  3
BUMPTILE
360
11F6
  3
DIFFUSETILE
360
11F5
  3
OPACITYTILE
360
11F9
  3
REFLECTIONTILE
360
11F8
  3
REFRACTIONTILE
360
11FA
  3
SPECULARTILE
360
11F7
  0
DICTIONARY
  5
1204
330
1203
100
AcDbDictionary
280
     1
281
     1
  3
ACAD_XREC_ROUNDTRIP
360
1DAB
  3
BUMPTILE
360
1206
  3
DIFFUSETILE
360
1205
  3
OPACITYTILE
360
1209
  3
REFLECTIONTILE
360
1208
  3
REFRACTIONTILE
360
120A
  3
SPECULARTILE
360
1207
  0
DICTIONARY
  5
12BA
330
121E
100
AcDbDictionary
280
     1
281
     1
  3
ACAD_ROUNDTRIP_2008_TABLESTYLE_CELLSTYLEMAP
360
1DA6
  3
ACAD_XREC_ROUNDTRIP
360
1DAC
  0
XRECORD
  5
1DAA
102
{ACAD_REACTORS
330
11FC
102
}
330
11FC
100
AcDbXrecord
280
     1
102
MATERIAL
148
0.0
149
0.0
149
0.0
 93
        0
 94
      127
282
     0
 72
     0
 77
     0
171
     0
175
     0
179
     0
273
     0
  0
XRECORD
  5
11FE
102
{ACAD_REACTORS
330
11FC
102
}
330
11FC
100
AcDbXrecord
280
     1
270
     1
271
     1
  0
XRECORD
  5
11FD
102
{ACAD_REACTORS
330
11FC
102
}
330
11FC
100
AcDbXrecord
280
     1
270
     1
271
     1
  0
XRECORD
  5
1201
102
{ACAD_REACTORS
330
11FC
102
}
330
11FC
100
AcDbXrecord
280
     1
270
     1
271
     1
  0
XRECORD
  5
1200
102
{ACAD_REACTORS
330
11FC
102
}
330
11FC
100
AcDbXrecord
280
     1
270
     1
271
     1
  0
XRECORD
  5
1202
102
{ACAD_REACTORS
330
11FC
102
}
330
11FC
100
AcDbXrecord
280
     1
270
     1
271
     1
  0
XRECORD
  5
11FF
102
{ACAD_REACTORS
330
11FC
102
}
330
11FC
100
AcDbXrecord
280
     1
270
     1
271
     1
  0
XRECORD
  5
1DA9
102
{ACAD_REACTORS
330
11F4
102
}
330
11F4
100
AcDbXrecord
280
     1
102
MATERIAL
148
0.0
149
0.0
149
0.0
 93
        0
 94
      127
282
     0
 72
     0
 77
     0
171
     0
175
     0
179
     0
273
     0
  0
XRECORD
  5
11F6
102
{ACAD_REACTORS
330
11F4
102
}
330
11F4
100
AcDbXrecord
280
     1
270
     1
271
     1
  0
XRECORD
  5
11F5
102
{ACAD_REACTORS
330
11F4
102
}
330
11F4
100
AcDbXrecord
280
     1
270
     1
271
     1
  0
XRECORD
  5
11F9
102
{ACAD_REACTORS
330
11F4
102
}
330
11F4
100
AcDbXrecord
280
     1
270
     1
271
     1
  0
XRECORD
  5
11F8
102
{ACAD_REACTORS
330
11F4
102
}
330
11F4
100
AcDbXrecord
280
     1
270
     1
271
     1
  0
XRECORD
  5
11FA
102
{ACAD_REACTORS
330
11F4
102
}
330
11F4
100
AcDbXrecord
280
     1
270
     1
271
     1
  0
XRECORD
  5
11F7
102
{ACAD_REACTORS
330
11F4
102
}
330
11F4
100
AcDbXrecord
280
     1
270
     1
271
     1
  0
XRECORD
  5
1DAB
102
{ACAD_REACTORS
330
1204
102
}
330
1204
100
AcDbXrecord
280
     1
102
MATERIAL
148
0.0
149
0.0
149
0.0
 93
        0
 94
      127
282
     0
 72
     0
 77
     0
171
     0
175
     0
179
     0
273
     0
  0
XRECORD
  5
1206
102
{ACAD_REACTORS
330
1204
102
}
330
1204
100
AcDbXrecord
280
     1
270
     1
271
     1
  0
XRECORD
  5
1205
102
{ACAD_REACTORS
330
1204
102
}
330
1204
100
AcDbXrecord
280
     1
270
     1
271
     1
  0
XRECORD
  5
1209
102
{ACAD_REACTORS
330
1204
102
}
330
1204
100
AcDbXrecord
280
     1
270
     1
271
     1
  0
XRECORD
  5
1208
102
{ACAD_REACTORS
330
1204
102
}
330
1204
100
AcDbXrecord
280
     1
270
     1
271
     1
  0
XRECORD
  5
120A
102
{ACAD_REACTORS
330
1204
102
}
330
1204
100
AcDbXrecord
280
     1
270
     1
271
     1
  0
XRECORD
  5
1207
102
{ACAD_REACTORS
330
1204
102
}
330
1204
100
AcDbXrecord
280
     1
270
     1
271
     1
  0
CELLSTYLEMAP
  5
1DA6
102
{ACAD_REACTORS
330
12BA
102
}
330
12BA
100
AcDbCellStyleMap
 90
        3
300
CELLSTYLE
  1
TABLEFORMAT_BEGIN
 90
        5
170
     1
 91
        0
 92
    32768
 62
   257
 93
        1
300
CONTENTFORMAT
  1
CONTENTFORMAT_BEGIN
 90
        0
 91
        0
 92
      512
 93
        0
300

 40
0.0
140
1.0
 94
        5
 62
     0
340
10B4
144
0.25
309
CONTENTFORMAT_END
171
     0
 94
        0
309
TABLEFORMAT_END
  1
CELLSTYLE_BEGIN
 90
        1
 91
        1
300
_TITLE
309
CELLSTYLE_END
300
CELLSTYLE
  1
TABLEFORMAT_BEGIN
 90
        5
170
     1
 91
        0
 92
        0
 62
   257
 93
        1
300
CONTENTFORMAT
  1
CONTENTFORMAT_BEGIN
 90
        0
 91
        0
 92
      512
 93
        0
300

 40
0.0
140
1.0
 94
        5
 62
     0
340
10B4
144
0.18
309
CONTENTFORMAT_END
171
     0
 94
        0
309
TABLEFORMAT_END
  1
CELLSTYLE_BEGIN
 90
        2
 91
        1
300
_HEADER
309
CELLSTYLE_END
300
CELLSTYLE
  1
TABLEFORMAT_BEGIN
 90
        5
170
     1
 91
        0
 92
        0
 62
   257
 93
        1
300
CONTENTFORMAT
  1
CONTENTFORMAT_BEGIN
 90
        0
 91
        0
 92
      512
 93
        0
300

 40
0.0
140
1.0
 94
        2
 62
     0
340
10B4
144
0.18
309
CONTENTFORMAT_END
171
     0
 94
        0
309
TABLEFORMAT_END
  1
CELLSTYLE_BEGIN
 90
        3
 91
        2
300
_DATA
309
CELLSTYLE_END
  0
XRECORD
  5
1DAC
102
{ACAD_REACTORS
330
12BA
102
}
330
12BA
100
AcDbXrecord
280
     1
102
ACAD_ROUNDTRIP_PRE2007_TABLESTYLE
 90
      512
 91
        0
  1

 92
      512
 93
        0
  2

 94
      512
 95
        0
  3

  0
ENDSEC
  0
EOF
