  0
SECTION
  2
HEADER
  9
$ACADVER
  1
AC1018
  9
$ACADMAINTVER
 70
   104
  9
$DWGCODEPAGE
  3
ANSI_1252
  9
$LASTSAVEDBY
  1
dweyer
  9
$INSBASE
 10
0.0
 20
0.0
 30
0.0
  9
$EXTMIN
 10
-0.4984554492313005
 20
-1.274218755967127
 30
0.0
  9
$EXTMAX
 10
9.836131975556137
 20
9.165781244032872
 30
0.03
  9
$LIMMIN
 10
0.0
 20
0.0
  9
$LIMMAX
 10
12.0
 20
9.0
  9
$ORTHOMODE
 70
     0
  9
$REGENMODE
 70
     1
  9
$FILLMODE
 70
     1
  9
$QTEXTMODE
 70
     0
  9
$MIRRTEXT
 70
     0
  9
$LTSCALE
 40
1.0
  9
$ATTMODE
 70
     1
  9
$TEXTSIZE
 40
0.125
  9
$TRACEWID
 40
0.05
  9
$TEXTSTYLE
  7
ROMANS
  9
$CLAYER
  8
0
  9
$CELTYPE
  6
ByLayer
  9
$CECOLOR
 62
   256
  9
$CELTSCALE
 40
1.0
  9
$DISPSILH
 70
     0
  9
$DIMSCALE
 40
1.0
  9
$DIMASZ
 40
0.18
  9
$DIMEXO
 40
0.0625
  9
$DIMDLI
 40
0.38
  9
$DIMRND
 40
0.0
  9
$DIMDLE
 40
0.0
  9
$DIMEXE
 40
0.125
  9
$DIMTP
 40
0.0
  9
$DIMTM
 40
0.0
  9
$DIMTXT
 40
0.125
  9
$DIMCEN
 40
0.09
  9
$DIMTSZ
 40
0.0
  9
$DIMTOL
 70
     0
  9
$DIMLIM
 70
     0
  9
$DIMTIH
 70
     1
  9
$DIMTOH
 70
     1
  9
$DIMSE1
 70
     0
  9
$DIMSE2
 70
     0
  9
$DIMTAD
 70
     0
  9
$DIMZIN
 70
     0
  9
$DIMBLK
  1

  9
$DIMASO
 70
     1
  9
$DIMSHO
 70
     1
  9
$DIMPOST
  1

  9
$DIMAPOST
  1

  9
$DIMALT
 70
     0
  9
$DIMALTD
 70
     2
  9
$DIMALTF
 40
25.4
  9
$DIMLFAC
 40
1.0
  9
$DIMTOFL
 70
     0
  9
$DIMTVP
 40
0.0
  9
$DIMTIX
 70
     0
  9
$DIMSOXD
 70
     0
  9
$DIMSAH
 70
     0
  9
$DIMBLK1
  1

  9
$DIMBLK2
  1

  9
$DIMSTYLE
  2
STANDARD
  9
$DIMCLRD
 70
   256
  9
$DIMCLRE
 70
   256
  9
$DIMCLRT
 70
   256
  9
$DIMTFAC
 40
1.0
  9
$DIMGAP
 40
0.09
  9
$DIMJUST
 70
     0
  9
$DIMSD1
 70
     0
  9
$DIMSD2
 70
     0
  9
$DIMTOLJ
 70
     1
  9
$DIMTZIN
 70
     0
  9
$DIMALTZ
 70
     0
  9
$DIMALTTZ
 70
     0
  9
$DIMUPT
 70
     0
  9
$DIMDEC
 70
     4
  9
$DIMTDEC
 70
     4
  9
$DIMALTU
 70
     2
  9
$DIMALTTD
 70
     2
  9
$DIMTXSTY
  7
Arial
  9
$DIMAUNIT
 70
     0
  9
$DIMADEC
 70
     0
  9
$DIMALTRND
 40
0.0
  9
$DIMAZIN
 70
     0
  9
$DIMDSEP
 70
    46
  9
$DIMATFIT
 70
     3
  9
$DIMFRAC
 70
     0
  9
$DIMLDRBLK
  1

  9
$DIMLUNIT
 70
     2
  9
$DIMLWD
 70
    -1
  9
$DIMLWE
 70
    -1
  9
$DIMTMOVE
 70
     2
  9
$LUNITS
 70
     2
  9
$LUPREC
 70
     3
  9
$SKETCHINC
 40
0.1
  9
$FILLETRAD
 40
0.0
  9
$AUNITS
 70
     0
  9
$AUPREC
 70
     0
  9
$MENU
  1
ACAD
  9
$ELEVATION
 40
0.0
  9
$PELEVATION
 40
0.0
  9
$THICKNESS
 40
0.0
  9
$LIMCHECK
 70
     0
  9
$CHAMFERA
 40
0.0
  9
$CHAMFERB
 40
0.0
  9
$CHAMFERC
 40
0.0
  9
$CHAMFERD
 40
0.0
  9
$SKPOLY
 70
     0
  9
$TDCREATE
 40
2451605.558833901
  9
$TDUCREATE
 40
2451605.850500568
  9
$TDUPDATE
 40
2455215.554569364
  9
$TDUUPDATE
 40
2455215.846236030
  9
$TDINDWG
 40
0.2418775579
  9
$TDUSRTIMER
 40
0.2418775579
  9
$USRTIMER
 70
     1
  9
$ANGBASE
 50
0.0
  9
$ANGDIR
 70
     0
  9
$PDMODE
 70
     0
  9
$PDSIZE
 40
0.0
  9
$PLINEWID
 40
0.0
  9
$SPLFRAME
 70
     0
  9
$SPLINETYPE
 70
     6
  9
$SPLINESEGS
 70
     8
  9
$HANDSEED
  5
18D4
  9
$SURFTAB1
 70
     6
  9
$SURFTAB2
 70
     6
  9
$SURFTYPE
 70
     6
  9
$SURFU
 70
     6
  9
$SURFV
 70
     6
  9
$UCSBASE
  2

  9
$UCSNAME
  2

  9
$UCSORG
 10
0.0
 20
0.0
 30
0.0
  9
$UCSXDIR
 10
1.0
 20
0.0
 30
0.0
  9
$UCSYDIR
 10
0.0
 20
1.0
 30
0.0
  9
$UCSORTHOREF
  2

  9
$UCSORTHOVIEW
 70
     0
  9
$UCSORGTOP
 10
0.0
 20
0.0
 30
0.0
  9
$UCSORGBOTTOM
 10
0.0
 20
0.0
 30
0.0
  9
$UCSORGLEFT
 10
0.0
 20
0.0
 30
0.0
  9
$UCSORGRIGHT
 10
0.0
 20
0.0
 30
0.0
  9
$UCSORGFRONT
 10
0.0
 20
0.0
 30
0.0
  9
$UCSORGBACK
 10
0.0
 20
0.0
 30
0.0
  9
$PUCSBASE
  2

  9
$PUCSNAME
  2

  9
$PUCSORG
 10
0.0
 20
0.0
 30
0.0
  9
$PUCSXDIR
 10
1.0
 20
0.0
 30
0.0
  9
$PUCSYDIR
 10
0.0
 20
1.0
 30
0.0
  9
$PUCSORTHOREF
  2

  9
$PUCSORTHOVIEW
 70
     0
  9
$PUCSORGTOP
 10
0.0
 20
0.0
 30
0.0
  9
$PUCSORGBOTTOM
 10
0.0
 20
0.0
 30
0.0
  9
$PUCSORGLEFT
 10
0.0
 20
0.0
 30
0.0
  9
$PUCSORGRIGHT
 10
0.0
 20
0.0
 30
0.0
  9
$PUCSORGFRONT
 10
0.0
 20
0.0
 30
0.0
  9
$PUCSORGBACK
 10
0.0
 20
0.0
 30
0.0
  9
$USERI1
 70
     0
  9
$USERI2
 70
     0
  9
$USERI3
 70
     0
  9
$USERI4
 70
     0
  9
$USERI5
 70
     0
  9
$USERR1
 40
0.0
  9
$USERR2
 40
0.0
  9
$USERR3
 40
0.0
  9
$USERR4
 40
0.0
  9
$USERR5
 40
0.0
  9
$WORLDVIEW
 70
     1
  9
$SHADEDGE
 70
     3
  9
$SHADEDIF
 70
    70
  9
$TILEMODE
 70
     1
  9
$MAXACTVP
 70
    16
  9
$PINSBASE
 10
0.0
 20
0.0
 30
0.0
  9
$PLIMCHECK
 70
     0
  9
$PEXTMIN
 10
1.000000000000000E+20
 20
1.000000000000000E+20
 30
1.000000000000000E+20
  9
$PEXTMAX
 10
-1.000000000000000E+20
 20
-1.000000000000000E+20
 30
-1.000000000000000E+20
  9
$PLIMMIN
 10
0.0
 20
0.0
  9
$PLIMMAX
 10
12.0
 20
9.0
  9
$UNITMODE
 70
     0
  9
$VISRETAIN
 70
     0
  9
$PLINEGEN
 70
     1
  9
$PSLTSCALE
 70
     1
  9
$TREEDEPTH
 70
  3020
  9
$CMLSTYLE
  2
Standard
  9
$CMLJUST
 70
     0
  9
$CMLSCALE
 40
1.0
  9
$PROXYGRAPHICS
 70
     1
  9
$MEASUREMENT
 70
     0
  9
$CELWEIGHT
370
    -1
  9
$ENDCAPS
280
     0
  9
$JOINSTYLE
280
     0
  9
$LWDISPLAY
290
     0
  9
$INSUNITS
 70
     0
  9
$HYPERLINKBASE
  1

  9
$STYLESHEET
  1
pdf bw shaded.ctb
  9
$XEDIT
290
     1
  9
$CEPSNTYPE
380
     0
  9
$PSTYLEMODE
290
     1
  9
$FINGERPRINTGUID
  2
{809E942E-D3FA-4AF4-BE5E-39ACFC237699}
  9
$VERSIONGUID
  2
{3EAB8D75-7EF5-4DC8-93E0-F10811A6D6C6}
  9
$EXTNAMES
290
     1
  9
$PSVPSCALE
 40
0.0
  9
$OLESTARTUP
290
     1
  9
$SORTENTS
280
    48
  9
$INDEXCTL
280
     0
  9
$HIDETEXT
280
     1
  9
$XCLIPFRAME
290
     0
  9
$HALOGAP
280
     0
  9
$OBSCOLOR
 70
   257
  9
$OBSLTYPE
280
     0
  9
$INTERSECTIONDISPLAY
280
     0
  9
$INTERSECTIONCOLOR
 70
   257
  9
$DIMASSOC
280
     1
  9
$PROJECTNAME
  1

  0
ENDSEC
  0
SECTION
  2
CLASSES
  0
CLASS
  1
ACDBDICTIONARYWDFLT
  2
AcDbDictionaryWithDefault
  3
ObjectDBX Classes
 90
        0
 91
        1
280
     0
281
     0
  0
CLASS
  1
DICTIONARYVAR
  2
AcDbDictionaryVar
  3
ObjectDBX Classes
 90
        0
 91
       12
280
     0
281
     0
  0
CLASS
  1
MATERIAL
  2
AcDbMaterial
  3
ObjectDBX Classes
 90
     1153
 91
        3
280
     0
281
     0
  0
CLASS
  1
VISUALSTYLE
  2
AcDbVisualStyle
  3
ObjectDBX Classes
 90
     4095
 91
       16
280
     0
281
     0
  0
CLASS
  1
TABLESTYLE
  2
AcDbTableStyle
  3
ObjectDBX Classes
 90
     4095
 91
        1
280
     0
281
     0
  0
CLASS
  1
SCALE
  2
AcDbScale
  3
ObjectDBX Classes
 90
     1153
 91
       33
280
     0
281
     0
  0
CLASS
  1
MLEADERSTYLE
  2
AcDbMLeaderStyle
  3
ACDB_MLEADERSTYLE_CLASS
 90
     4095
 91
        1
280
     0
281
     0
  0
CLASS
  1
EXACXREFPANELOBJECT
  2
ExAcXREFPanelObject
  3
EXAC_ESW
 90
     1025
 91
        0
280
     0
281
     0
  0
CLASS
  1
NPOCOLLECTION
  2
AcDbImpNonPersistentObjectsCollection
  3
ObjectDBX Classes
 90
     1153
 91
        0
280
     0
281
     0
  0
CLASS
  1
PLOTSETTINGS
  2
AcDbPlotSettings
  3
ObjectDBX Classes
 90
        0
 91
       76
280
     0
281
     0
  0
CLASS
  1
LAYER_INDEX
  2
AcDbLayerIndex
  3
ObjectDBX Classes
 90
        0
 91
        0
280
     0
281
     0
  0
CLASS
  1
SPATIAL_INDEX
  2
AcDbSpatialIndex
  3
ObjectDBX Classes
 90
        0
 91
        0
280
     0
281
     0
  0
CLASS
  1
IDBUFFER
  2
AcDbIdBuffer
  3
ObjectDBX Classes
 90
        0
 91
        0
280
     0
281
     0
  0
CLASS
  1
CELLSTYLEMAP
  2
AcDbCellStyleMap
  3
ObjectDBX Classes
 90
     1152
 91
        9
280
     0
281
     0
  0
CLASS
  1
AEC_REFEDIT_STATUS_TRACKER
  2
AecDbRefEditStatusTracker
  3
AecArchBase50|Product Desc: Autodesk Architectural Desktop 2007 |Company: Autodesk,Inc. |WEB Address: www.autodesk.com
 90
      129
 91
        0
280
     0
281
     0
  0
CLASS
  1
SORTENTSTABLE
  2
AcDbSortentsTable
  3
ObjectDBX Classes
 90
        0
 91
        1
280
     0
281
     0
  0
ENDSEC
  0
SECTION
  2
TABLES
  0
TABLE
  2
VPORT
  5
10AB
330
0
100
AcDbSymbolTable
 70
     1
  0
VPORT
  5
11F0
330
10AB
100
AcDbSymbolTableRecord
100
AcDbViewportTableRecord
  2
*Active
 70
     0
 10
0.0
 20
0.0
 11
1.0
 21
1.0
 12
4.668838263162419
 22
3.945781244032871
 13
0.0
 23
0.0
 14
0.14
 24
0.14
 15
0.14
 25
0.14
 16
0.0
 26
0.0
 36
1.0
 17
0.0
 27
0.0
 37
0.0
 40
10.53266272189349
 41
2.308148148148148
 42
50.0
 43
0.0
 44
0.0
 50
0.0
 51
0.0
 71
     0
 72
  4000
 73
     1
 74
     1
 75
     0
 76
     0
 77
     0
 78
     0
281
     0
 65
     1
110
0.0
120
0.0
130
0.0
111
1.0
121
0.0
131
0.0
112
0.0
122
1.0
132
0.0
 79
     0
146
0.0
  0
ENDTAB
  0
TABLE
  2
LTYPE
  5
10A8
330
0
100
AcDbSymbolTable
 70
     1
  0
LTYPE
  5
10B6
330
10A8
100
AcDbSymbolTableRecord
100
AcDbLinetypeTableRecord
  2
ByBlock
 70
     0
  3

 72
    65
 73
     0
 40
0.0
  0
LTYPE
  5
10B7
330
10A8
100
AcDbSymbolTableRecord
100
AcDbLinetypeTableRecord
  2
ByLayer
 70
     0
  3

 72
    65
 73
     0
 40
0.0
  0
LTYPE
  5
10B8
330
10A8
100
AcDbSymbolTableRecord
100
AcDbLinetypeTableRecord
  2
CONTINUOUS
 70
     0
  3
Solid line
 72
    65
 73
     0
 40
0.0
  0
ENDTAB
  0
TABLE
  2
LAYER
  5
10A5
102
{ACAD_XDICTIONARY
360
10EB
102
}
330
0
100
AcDbSymbolTable
 70
     5
  0
LAYER
  5
10B3
330
10A5
100
AcDbSymbolTableRecord
100
AcDbLayerTableRecord
  2
0
 70
     0
 62
     7
  6
CONTINUOUS
370
    -3
390
10B2
  0
LAYER
  5
10CC
330
10A5
100
AcDbSymbolTableRecord
100
AcDbLayerTableRecord
  2
text_bubbles
 70
     0
 62
     6
  6
CONTINUOUS
370
    -3
390
10B2
  0
LAYER
  5
10CD
330
10A5
100
AcDbSymbolTableRecord
100
AcDbLayerTableRecord
  2
image
 70
     0
 62
     7
  6
CONTINUOUS
370
    -3
390
10B2
  0
LAYER
  5
118F
330
10A5
100
AcDbSymbolTableRecord
100
AcDbLayerTableRecord
  2
title
 70
     0
 62
     4
  6
CONTINUOUS
370
    -3
390
10B2
  0
LAYER
  5
137A
330
10A5
100
AcDbSymbolTableRecord
100
AcDbLayerTableRecord
  2
leader
 70
     0
 62
     6
  6
CONTINUOUS
370
    -3
390
10B2
  0
ENDTAB
  0
TABLE
  2
STYLE
  5
10A6
330
0
100
AcDbSymbolTable
 70
     7
  0
STYLE
  5
10B4
330
10A6
100
AcDbSymbolTableRecord
100
AcDbTextStyleTableRecord
  2
STANDARD
 70
     0
 40
0.0
 41
1.0
 50
0.0
 71
     0
 42
0.2
  3
txt
  4

  0
STYLE
  5
10C7
330
10A6
100
AcDbSymbolTableRecord
100
AcDbTextStyleTableRecord
  2
ROMANS
 70
     0
 40
0.0
 41
1.0
 50
0.0
 71
     0
 42
0.125
  3
ROMANS.SHX
  4

  0
STYLE
  5
10C8
330
10A6
100
AcDbSymbolTableRecord
100
AcDbTextStyleTableRecord
  2
SIMPLEX
 70
     0
 40
0.0
 41
1.0
 50
0.0
 71
     0
 42
0.125
  3
SIMPLEX
  4

  0
STYLE
  5
1190
330
10A6
100
AcDbSymbolTableRecord
100
AcDbTextStyleTableRecord
  2
L100
 70
     0
 40
0.1
 41
1.0
 50
0.0
 71
     0
 42
0.1
  3
romans.shx
  4

  0
STYLE
  5
1191
330
10A6
100
AcDbSymbolTableRecord
100
AcDbTextStyleTableRecord
  2
L200
 70
     0
 40
0.2
 41
1.0
 50
0.0
 71
     0
 42
0.081
  3
ARIAL.TTF
  4

1001
ACAD
1000
Arial
1071
       34
  0
STYLE
  5
1192
330
10A6
100
AcDbSymbolTableRecord
100
AcDbTextStyleTableRecord
  2
L80
 70
     0
 40
0.08
 41
1.0
 50
0.0
 71
     0
 42
0.08
  3
ROMANS
  4

  0
STYLE
  5
1345
330
10A6
100
AcDbSymbolTableRecord
100
AcDbTextStyleTableRecord
  2
Arial
 70
     0
 40
0.0
 41
1.0
 50
0.0
 71
     0
 42
0.125
  3
ARIAL.TTF
  4

1001
ACAD
1000
Arial
1071
       34
  0
ENDTAB
  0
TABLE
  2
VIEW
  5
10A9
330
0
100
AcDbSymbolTable
 70
     0
  0
ENDTAB
  0
TABLE
  2
UCS
  5
10AA
330
0
100
AcDbSymbolTable
 70
     0
  0
ENDTAB
  0
TABLE
  2
APPID
  5
10AC
330
0
100
AcDbSymbolTable
 70
    14
  0
APPID
  5
10B5
330
10AC
100
AcDbSymbolTableRecord
100
AcDbRegAppTableRecord
  2
ACAD
 70
     0
  0
APPID
  5
10CA
330
10AC
100
AcDbSymbolTableRecord
100
AcDbRegAppTableRecord
  2
ABNSLEADERTOOLS
 70
     0
  0
APPID
  5
1193
330
10AC
100
AcDbSymbolTableRecord
100
AcDbRegAppTableRecord
  2
RAK
 70
     0
  0
APPID
  5
1194
330
10AC
100
AcDbSymbolTableRecord
100
AcDbRegAppTableRecord
  2
DCO15
 70
     0
  0
APPID
  5
1243
330
10AC
100
AcDbSymbolTableRecord
100
AcDbRegAppTableRecord
  2
ACAD_MLEADERVER
 70
     0
  0
APPID
  5
1257
330
10AC
100
AcDbSymbolTableRecord
100
AcDbRegAppTableRecord
  2
ACAD_PSEXT
 70
     0
  0
APPID
  5
12D8
330
10AC
100
AcDbSymbolTableRecord
100
AcDbRegAppTableRecord
  2
ACAD_EXEMPT_FROM_CAD_STANDARDS
 70
     0
  0
APPID
  5
1346
330
10AC
100
AcDbSymbolTableRecord
100
AcDbRegAppTableRecord
  2
BBSI_PltSel
 70
     0
  0
APPID
  5
1347
330
10AC
100
AcDbSymbolTableRecord
100
AcDbRegAppTableRecord
  2
BBSI_Plots
 70
     0
  0
APPID
  5
1348
330
10AC
100
AcDbSymbolTableRecord
100
AcDbRegAppTableRecord
  2
BBSI_Bookmarks
 70
     0
  0
APPID
  5
1349
330
10AC
100
AcDbSymbolTableRecord
100
AcDbRegAppTableRecord
  2
BBSI_BookmarksEx
 70
     0
  0
APPID
  5
135A
330
10AC
100
AcDbSymbolTableRecord
100
AcDbRegAppTableRecord
  2
BBSI_StampsEx
 70
     0
  0
APPID
  5
135B
330
10AC
100
AcDbSymbolTableRecord
100
AcDbRegAppTableRecord
  2
BBSI_Attachs
 70
     0
  0
APPID
  5
135C
330
10AC
100
AcDbSymbolTableRecord
100
AcDbRegAppTableRecord
  2
BBSI_DigSigs
 70
     0
  0
ENDTAB
  0
TABLE
  2
DIMSTYLE
  5
10AD
330
0
100
AcDbSymbolTable
 70
     1
100
AcDbDimStyleTable
 71
     1
340
10CB
  0
DIMSTYLE
105
10CB
330
10AD
100
AcDbSymbolTableRecord
100
AcDbDimStyleTableRecord
  2
STANDARD
 70
     0
279
     2
340
10B4
  0
ENDTAB
  0
TABLE
  2
BLOCK_RECORD
  5
10A4
330
0
100
AcDbSymbolTable
 70
     2
  0
BLOCK_RECORD
  5
10C1
102
{ACAD_XDICTIONARY
360
12AB
102
}
330
10A4
100
AcDbSymbolTableRecord
100
AcDbBlockTableRecord
  2
*Model_Space
340
10C4
  0
BLOCK_RECORD
  5
10BD
330
10A4
100
AcDbSymbolTableRecord
100
AcDbBlockTableRecord
  2
*Paper_Space
340
10C0
  0
BLOCK_RECORD
  5
10C5
330
10A4
100
AcDbSymbolTableRecord
100
AcDbBlockTableRecord
  2
*U0
340
0
102
{BLKREFS
331
9BB
102
}
  0
BLOCK_RECORD
  5
1195
102
{ACAD_XDICTIONARY
360
1316
102
}
330
10A4
100
AcDbSymbolTableRecord
100
AcDbBlockTableRecord
  2
titleblock
340
0
102
{BLKREFS
331
11A4
102
}
  0
ENDTAB
  0
ENDSEC
  0
SECTION
  2
BLOCKS
  0
BLOCK
  5
10D6
330
10C1
100
AcDbEntity
  8
0
100
AcDbBlockBegin
  2
*Model_Space
 70
     0
 10
0.0
 20
0.0
 30
0.0
  3
*Model_Space
  1

  0
ENDBLK
  5
10D7
330
10C1
100
AcDbEntity
  8
0
100
AcDbBlockEnd
  0
BLOCK
  5
10D4
330
10BD
100
AcDbEntity
 67
     1
  8
0
100
AcDbBlockBegin
  2
*Paper_Space
 70
     0
 10
0.0
 20
0.0
 30
0.0
  3
*Paper_Space
  1

  0
ENDBLK
  5
10D5
330
10BD
100
AcDbEntity
 67
     1
  8
0
100
AcDbBlockEnd
  0
BLOCK
  5
1009
330
10C5
100
AcDbEntity
  8
0
100
AcDbBlockBegin
  2
*U0
 70
     1
 10
0.0
 20
0.0
 30
0.0
  3
*U0
  1

  0
SOLID
  5
F89
330
10C5
100
AcDbEntity
  8
0
  6
Continuous
100
AcDbTrace
 10
3.52560214138319
 20
4.743065616962137
 30
0.0
 11
3.533975430180516
 21
4.742719295175727
 31
0.0
 12
3.545766839806102
 22
4.743062390154575
 32
0.0
 13
3.545766839806102
 23
4.743062390154575
 33
0.0
  0
SOLID
  5
F8A
330
10C5
100
AcDbEntity
  8
0
  6
Continuous
100
AcDbTrace
 10
3.557518351033997
 20
4.744090514166313
 30
0.0
 11
3.52560214138319
 21
4.743065616962137
 31
0.0
 12
3.545766839806102
 22
4.743062390154575
 32
0.0
 13
3.545766839806102
 23
4.743062390154575
 33
0.0
  0
SOLID
  5
F8B
330
10C5
100
AcDbEntity
  8
0
  6
Continuous
100
AcDbTrace
 10
3.517286050638753
 20
4.744102216592396
 30
0.0
 11
3.52560214138319
 21
4.743065616962137
 31
0.0
 12
3.557518351033997
 22
4.744090514166313
 32
0.0
 13
3.557518351033997
 23
4.744090514166313
 33
0.0
  0
SOLID
  5
F8C
330
10C5
100
AcDbEntity
  8
0
  6
Continuous
100
AcDbTrace
 10
3.569190200470061
 20
4.745800188364732
 30
0.0
 11
3.517286050638753
 21
4.744102216592396
 31
0.0
 12
3.557518351033997
 22
4.744090514166313
 32
0.0
 13
3.557518351033997
 23
4.744090514166313
 33
0.0
  0
SOLID
  5
F8D
330
10C5
100
AcDbEntity
  8
0
  6
Continuous
100
AcDbTrace
 10
3.509083965279394
 20
4.745822013039933
 30
0.0
 11
3.517286050638753
 21
4.744102216592396
 31
0.0
 12
3.569190200470061
 22
4.745800188364732
 32
0.0
 13
3.569190200470061
 23
4.745800188364732
 33
0.0
  0
SOLID
  5
F8E
330
10C5
100
AcDbEntity
  8
0
  6
Continuous
100
AcDbTrace
 10
3.580742894270437
 20
4.748185627753528
 30
0.0
 11
3.509083965279394
 21
4.745822013039933
 31
0.0
 12
3.569190200470061
 22
4.745800188364732
 32
0.0
 13
3.569190200470061
 23
4.745800188364732
 33
0.0
  0
SOLID
  5
F8F
330
10C5
100
AcDbEntity
  8
0
  6
Continuous
100
AcDbTrace
 10
3.501051913864924
 20
4.74821325835116
 30
0.0
 11
3.509083965279394
 21
4.745822013039933
 31
0.0
 12
3.580742894270437
 22
4.748185627753528
 32
0.0
 13
3.580742894270437
 23
4.748185627753528
 33
0.0
  0
SOLID
  5
F90
330
10C5
100
AcDbEntity
  8
0
  6
Continuous
100
AcDbTrace
 10
3.592137341776225
 20
4.751238760760903
 30
0.0
 11
3.501051913864924
 21
4.74821325835116
 31
0.0
 12
3.580742894270437
 22
4.748185627753528
 32
0.0
 13
3.580742894270437
 23
4.748185627753528
 33
0.0
  0
SOLID
  5
F91
330
10C5
100
AcDbEntity
  8
0
  6
Continuous
100
AcDbTrace
 10
3.493244763450895
 20
4.751259617895911
 30
0.0
 11
3.501051913864924
 21
4.74821325835116
 31
0.0
 12
3.592137341776225
 22
4.751238760760903
 32
0.0
 13
3.592137341776225
 23
4.751238760760903
 33
0.0
  0
SOLID
  5
F92
330
10C5
100
AcDbEntity
  8
0
  6
Continuous
100
AcDbTrace
 10
3.485715844790982
 20
4.754940281949528
 30
0.0
 11
3.493244763450895
 21
4.751259617895911
 31
0.0
 12
3.592137341776225
 22
4.751238760760903
 32
0.0
 13
3.592137341776225
 23
4.751238760760903
 33
0.0
  0
SOLID
  5
F93
330
10C5
100
AcDbEntity
  8
0
  6
Continuous
100
AcDbTrace
 10
3.603334987783891
 20
4.754949256551205
 30
0.0
 11
3.485715844790982
 21
4.754940281949528
 31
0.0
 12
3.592137341776225
 22
4.751238760760903
 32
0.0
 13
3.592137341776225
 23
4.751238760760903
 33
0.0
  0
SOLID
  5
F94
330
10C5
100
AcDbEntity
  8
0
  6
Continuous
100
AcDbTrace
 10
3.478516588033856
 20
4.759230107844379
 30
0.0
 11
3.485715844790982
 21
4.754940281949528
 31
0.0
 12
3.603334987783891
 22
4.754949256551205
 32
0.0
 13
3.603334987783891
 23
4.754949256551205
 33
0.0
  0
SOLID
  5
F95
330
10C5
100
AcDbEntity
  8
0
  6
Continuous
100
AcDbTrace
 10
3.614297943003879
 20
4.759304559981211
 30
0.0
 11
3.478516588033856
 21
4.759230107844379
 31
0.0
 12
3.603334987783891
 22
4.754949256551205
 32
0.0
 13
3.603334987783891
 23
4.754949256551205
 33
0.0
  0
SOLID
  5
F96
330
10C5
100
AcDbEntity
  8
0
  6
Continuous
100
AcDbTrace
 10
3.471696171403118
 20
4.764099791719776
 30
0.0
 11
3.478516588033856
 21
4.759230107844379
 31
0.0
 12
3.614297943003879
 22
4.759304559981211
 32
0.0
 13
3.614297943003879
 23
4.759304559981211
 33
0.0
  0
SOLID
  5
F97
330
10C5
100
AcDbEntity
  8
0
  6
Continuous
100
AcDbTrace
 10
3.624989112265963
 20
4.764289934082753
 30
0.0
 11
3.471696171403118
 21
4.764099791719776
 31
0.0
 12
3.614297943003879
 22
4.759304559981211
 32
0.0
 13
3.614297943003879
 23
4.759304559981211
 33
0.0
  0
SOLID
  5
F98
330
10C5
100
AcDbEntity
  8
0
  6
Continuous
100
AcDbTrace
 10
3.465301185260166
 20
4.769516068697058
 30
0.0
 11
3.471696171403118
 21
4.764099791719776
 31
0.0
 12
3.624989112265963
 22
4.764289934082753
 32
0.0
 13
3.624989112265963
 23
4.764289934082753
 33
0.0
  0
SOLID
  5
F99
330
10C5
100
AcDbEntity
  8
0
  6
Continuous
100
AcDbTrace
 10
3.635372320037573
 20
4.769888509927953
 30
0.0
 11
3.465301185260166
 21
4.769516068697058
 31
0.0
 12
3.624989112265963
 22
4.764289934082753
 32
0.0
 13
3.624989112265963
 23
4.764289934082753
 33
0.0
  0
SOLID
  5
F9A
330
10C5
100
AcDbEntity
  8
0
  6
Continuous
100
AcDbTrace
 10
3.459375313844789
 20
4.775441940112435
 30
0.0
 11
3.465301185260166
 21
4.769516068697058
 31
0.0
 12
3.635372320037573
 22
4.769888509927953
 32
0.0
 13
3.635372320037573
 23
4.769888509927953
 33
0.0
  0
SOLID
  5
F9B
330
10C5
100
AcDbEntity
  8
0
  6
Continuous
100
AcDbTrace
 10
3.645412432830335
 20
4.776081343708339
 30
0.0
 11
3.459375313844789
 21
4.775441940112435
 31
0.0
 12
3.635372320037573
 22
4.769888509927953
 32
0.0
 13
3.635372320037573
 23
4.769888509927953
 33
0.0
  0
SOLID
  5
F9C
330
10C5
100
AcDbEntity
  8
0
  6
Continuous
100
AcDbTrace
 10
3.453959036867508
 20
4.781836926255386
 30
0.0
 11
3.459375313844789
 21
4.775441940112435
 31
0.0
 12
3.645412432830335
 22
4.776081343708339
 32
0.0
 13
3.645412432830335
 23
4.776081343708339
 33
0.0
  0
SOLID
  5
F9D
330
10C5
100
AcDbEntity
  8
0
  6
Continuous
100
AcDbTrace
 10
3.655075478080681
 20
4.782847480834693
 30
0.0
 11
3.453959036867508
 21
4.781836926255386
 31
0.0
 12
3.645412432830335
 22
4.776081343708339
 32
0.0
 13
3.645412432830335
 23
4.776081343708339
 33
0.0
  0
SOLID
  5
F9E
330
10C5
100
AcDbEntity
  8
0
  6
Continuous
100
AcDbTrace
 10
3.44908935299211
 20
4.788657342886125
 30
0.0
 11
3.453959036867508
 21
4.781836926255386
 31
0.0
 12
3.655075478080681
 22
4.782847480834693
 32
0.0
 13
3.655075478080681
 23
4.782847480834693
 33
0.0
  0
SOLID
  5
F9F
330
10C5
100
AcDbEntity
  8
0
  6
Continuous
100
AcDbTrace
 10
3.66432875910225
 20
4.79016402684075
 30
0.0
 11
3.44908935299211
 21
4.788657342886125
 31
0.0
 12
3.655075478080681
 22
4.782847480834693
 32
0.0
 13
3.655075478080681
 23
4.782847480834693
 33
0.0
  0
SOLID
  5
FA0
330
10C5
100
AcDbEntity
  8
0
  6
Continuous
100
AcDbTrace
 10
3.444799527097258
 20
4.795856599643251
 30
0.0
 11
3.44908935299211
 21
4.788657342886125
 31
0.0
 12
3.66432875910225
 22
4.79016402684075
 32
0.0
 13
3.66432875910225
 23
4.79016402684075
 33
0.0
  0
SOLID
  5
FA1
330
10C5
100
AcDbEntity
  8
0
  6
Continuous
100
AcDbTrace
 10
3.673140965721121
 20
4.798006224850824
 30
0.0
 11
3.444799527097258
 21
4.795856599643251
 31
0.0
 12
3.66432875910225
 22
4.79016402684075
 32
0.0
 13
3.66432875910225
 23
4.79016402684075
 33
0.0
  0
SOLID
  5
FA2
330
10C5
100
AcDbEntity
  8
0
  6
Continuous
100
AcDbTrace
 10
3.441118863043642
 20
4.803385518303164
 30
0.0
 11
3.444799527097258
 21
4.795856599643251
 31
0.0
 12
3.673140965721121
 22
4.798006224850824
 32
0.0
 13
3.673140965721121
 23
4.798006224850824
 33
0.0
  0
SOLID
  5
FA3
330
10C5
100
AcDbEntity
  8
0
  6
Continuous
100
AcDbTrace
 10
3.681482280219534
 20
4.806347539349236
 30
0.0
 11
3.441118863043642
 21
4.803385518303164
 31
0.0
 12
3.673140965721121
 22
4.798006224850824
 32
0.0
 13
3.673140965721121
 23
4.798006224850824
 33
0.0
  0
SOLID
  5
FA4
330
10C5
100
AcDbEntity
  8
0
  6
Continuous
100
AcDbTrace
 10
3.438072503498891
 20
4.811192668717192
 30
0.0
 11
3.441118863043642
 21
4.803385518303164
 31
0.0
 12
3.681482280219534
 22
4.806347539349236
 32
0.0
 13
3.681482280219534
 23
4.806347539349236
 33
0.0
  0
SOLID
  5
FA5
330
10C5
100
AcDbEntity
  8
0
  6
Continuous
100
AcDbTrace
 10
3.689324478229607
 20
4.815159745968108
 30
0.0
 11
3.438072503498891
 21
4.811192668717192
 31
0.0
 12
3.681482280219534
 22
4.806347539349236
 32
0.0
 13
3.681482280219534
 23
4.806347539349236
 33
0.0
  0
SOLID
  5
FA6
330
10C5
100
AcDbEntity
  8
0
  6
Continuous
100
AcDbTrace
 10
3.435681258187664
 20
4.819224720131663
 30
0.0
 11
3.438072503498891
 21
4.811192668717192
 31
0.0
 12
3.689324478229607
 22
4.815159745968108
 32
0.0
 13
3.689324478229607
 23
4.815159745968108
 33
0.0
  0
SOLID
  5
FA7
330
10C5
100
AcDbEntity
  8
0
  6
Continuous
100
AcDbTrace
 10
3.696641024235664
 20
4.824413026989676
 30
0.0
 11
3.435681258187664
 21
4.819224720131663
 31
0.0
 12
3.689324478229607
 22
4.815159745968108
 32
0.0
 13
3.689324478229607
 23
4.815159745968108
 33
0.0
  0
SOLID
  5
FA8
330
10C5
100
AcDbEntity
  8
0
  6
Continuous
100
AcDbTrace
 10
3.433961461740127
 20
4.827426805491022
 30
0.0
 11
3.435681258187664
 21
4.819224720131663
 31
0.0
 12
3.696641024235664
 22
4.824413026989676
 32
0.0
 13
3.696641024235664
 23
4.824413026989676
 33
0.0
  0
SOLID
  5
FA9
330
10C5
100
AcDbEntity
  8
0
  6
Continuous
100
AcDbTrace
 10
3.703407161362018
 20
4.834076072240022
 30
0.0
 11
3.433961461740127
 21
4.827426805491022
 31
0.0
 12
3.696641024235664
 22
4.824413026989676
 32
0.0
 13
3.696641024235664
 23
4.824413026989676
 33
0.0
  0
SOLID
  5
FAA
330
10C5
100
AcDbEntity
  8
0
  6
Continuous
100
AcDbTrace
 10
3.432924862109867
 20
4.835742896235458
 30
0.0
 11
3.433961461740127
 21
4.827426805491022
 31
0.0
 12
3.703407161362018
 22
4.834076072240022
 32
0.0
 13
3.703407161362018
 23
4.834076072240022
 33
0.0
  0
SOLID
  5
FAB
330
10C5
100
AcDbEntity
  8
0
  6
Continuous
100
AcDbTrace
 10
3.709599995142404
 20
4.844116185032785
 30
0.0
 11
3.432924862109867
 21
4.835742896235458
 31
0.0
 12
3.703407161362018
 22
4.834076072240022
 32
0.0
 13
3.703407161362018
 23
4.834076072240022
 33
0.0
  0
SOLID
  5
FAC
330
10C5
100
AcDbEntity
  8
0
  6
Continuous
100
AcDbTrace
 10
3.432578540323459
 20
4.844116185032785
 30
0.0
 11
3.432924862109867
 21
4.835742896235458
 31
0.0
 12
3.709599995142404
 22
4.844116185032785
 32
0.0
 13
3.709599995142404
 23
4.844116185032785
 33
0.0
  0
SOLID
  5
FAD
330
10C5
100
AcDbEntity
  8
0
  6
Continuous
100
AcDbTrace
 10
3.432924862109867
 20
4.852489473830111
 30
0.0
 11
3.432578540323459
 21
4.844116185032785
 31
0.0
 12
3.709599995142404
 22
4.844116185032785
 32
0.0
 13
3.709599995142404
 23
4.844116185032785
 33
0.0
  0
SOLID
  5
FAE
330
10C5
100
AcDbEntity
  8
0
  6
Continuous
100
AcDbTrace
 10
3.715198570987604
 20
4.854499392804394
 30
0.0
 11
3.432924862109867
 21
4.852489473830111
 31
0.0
 12
3.709599995142404
 22
4.844116185032785
 32
0.0
 13
3.709599995142404
 23
4.844116185032785
 33
0.0
  0
SOLID
  5
FAF
330
10C5
100
AcDbEntity
  8
0
  6
Continuous
100
AcDbTrace
 10
3.433961461740127
 20
4.860805564574548
 30
0.0
 11
3.432924862109867
 21
4.852489473830111
 31
0.0
 12
3.715198570987604
 22
4.854499392804394
 32
0.0
 13
3.715198570987604
 23
4.854499392804394
 33
0.0
  0
SOLID
  5
FB0
330
10C5
100
AcDbEntity
  8
0
  6
Continuous
100
AcDbTrace
 10
3.720183945089146
 20
4.865190562066478
 30
0.0
 11
3.433961461740127
 21
4.860805564574548
 31
0.0
 12
3.715198570987604
 22
4.854499392804394
 32
0.0
 13
3.715198570987604
 23
4.854499392804394
 33
0.0
  0
SOLID
  5
FB1
330
10C5
100
AcDbEntity
  8
0
  6
Continuous
100
AcDbTrace
 10
3.435681258187664
 20
4.869007649933906
 30
0.0
 11
3.433961461740127
 21
4.860805564574548
 31
0.0
 12
3.720183945089146
 22
4.865190562066478
 32
0.0
 13
3.720183945089146
 23
4.865190562066478
 33
0.0
  0
SOLID
  5
FB2
330
10C5
100
AcDbEntity
  8
0
  6
Continuous
100
AcDbTrace
 10
3.724539248519152
 20
4.876153517286466
 30
0.0
 11
3.435681258187664
 21
4.869007649933906
 31
0.0
 12
3.720183945089146
 22
4.865190562066478
 32
0.0
 13
3.720183945089146
 23
4.865190562066478
 33
0.0
  0
SOLID
  5
FB3
330
10C5
100
AcDbEntity
  8
0
  6
Continuous
100
AcDbTrace
 10
3.438072503498891
 20
4.877039701348377
 30
0.0
 11
3.435681258187664
 21
4.869007649933906
 31
0.0
 12
3.724539248519152
 22
4.876153517286466
 32
0.0
 13
3.724539248519152
 23
4.876153517286466
 33
0.0
  0
SOLID
  5
FB4
330
10C5
100
AcDbEntity
  8
0
  6
Continuous
100
AcDbTrace
 10
3.441118863043642
 20
4.884846851762405
 30
0.0
 11
3.438072503498891
 21
4.877039701348377
 31
0.0
 12
3.724539248519152
 22
4.876153517286466
 32
0.0
 13
3.724539248519152
 23
4.876153517286466
 33
0.0
  0
SOLID
  5
FB5
330
10C5
100
AcDbEntity
  8
0
  6
Continuous
100
AcDbTrace
 10
3.728249744309455
 20
4.887351163294133
 30
0.0
 11
3.441118863043642
 21
4.884846851762405
 31
0.0
 12
3.724539248519152
 22
4.876153517286466
 32
0.0
 13
3.724539248519152
 23
4.876153517286466
 33
0.0
  0
SOLID
  5
FB6
330
10C5
100
AcDbEntity
  8
0
  6
Continuous
100
AcDbTrace
 10
3.444799527097258
 20
4.892375770422319
 30
0.0
 11
3.441118863043642
 21
4.884846851762405
 31
0.0
 12
3.728249744309455
 22
4.887351163294133
 32
0.0
 13
3.728249744309455
 23
4.887351163294133
 33
0.0
  0
SOLID
  5
FB7
330
10C5
100
AcDbEntity
  8
0
  6
Continuous
100
AcDbTrace
 10
3.73130287731683
 20
4.89874561079992
 30
0.0
 11
3.444799527097258
 21
4.892375770422319
 31
0.0
 12
3.728249744309455
 22
4.887351163294133
 32
0.0
 13
3.728249744309455
 23
4.887351163294133
 33
0.0
  0
SOLID
  5
FB8
330
10C5
100
AcDbEntity
  8
0
  6
Continuous
100
AcDbTrace
 10
3.44908935299211
 20
4.899575027179444
 30
0.0
 11
3.444799527097258
 21
4.892375770422319
 31
0.0
 12
3.73130287731683
 22
4.89874561079992
 32
0.0
 13
3.73130287731683
 23
4.89874561079992
 33
0.0
  0
SOLID
  5
FB9
330
10C5
100
AcDbEntity
  8
0
  6
Continuous
100
AcDbTrace
 10
3.453959036867508
 20
4.906395443810183
 30
0.0
 11
3.44908935299211
 21
4.899575027179444
 31
0.0
 12
3.73130287731683
 22
4.89874561079992
 32
0.0
 13
3.73130287731683
 23
4.89874561079992
 33
0.0
  0
SOLID
  5
FBA
330
10C5
100
AcDbEntity
  8
0
  6
Continuous
100
AcDbTrace
 10
3.733688316705626
 20
4.910298304600297
 30
0.0
 11
3.453959036867508
 21
4.906395443810183
 31
0.0
 12
3.73130287731683
 22
4.89874561079992
 32
0.0
 13
3.73130287731683
 23
4.89874561079992
 33
0.0
  0
SOLID
  5
FBB
330
10C5
100
AcDbEntity
  8
0
  6
Continuous
100
AcDbTrace
 10
3.459375313844789
 20
4.912790429953135
 30
0.0
 11
3.453959036867508
 21
4.906395443810183
 31
0.0
 12
3.733688316705626
 22
4.910298304600297
 32
0.0
 13
3.733688316705626
 23
4.910298304600297
 33
0.0
  0
SOLID
  5
FBC
330
10C5
100
AcDbEntity
  8
0
  6
Continuous
100
AcDbTrace
 10
3.465301185260166
 20
4.918716301368512
 30
0.0
 11
3.459375313844789
 21
4.912790429953135
 31
0.0
 12
3.733688316705626
 22
4.910298304600297
 32
0.0
 13
3.733688316705626
 23
4.910298304600297
 33
0.0
  0
SOLID
  5
FBD
330
10C5
100
AcDbEntity
  8
0
  6
Continuous
100
AcDbTrace
 10
3.735397990904044
 20
4.92197015403636
 30
0.0
 11
3.465301185260166
 21
4.918716301368512
 31
0.0
 12
3.733688316705626
 22
4.910298304600297
 32
0.0
 13
3.733688316705626
 23
4.910298304600297
 33
0.0
  0
SOLID
  5
FBE
330
10C5
100
AcDbEntity
  8
0
  6
Continuous
100
AcDbTrace
 10
3.471696171403118
 20
4.924132578345793
 30
0.0
 11
3.465301185260166
 21
4.918716301368512
 31
0.0
 12
3.735397990904044
 22
4.92197015403636
 32
0.0
 13
3.735397990904044
 23
4.92197015403636
 33
0.0
  0
SOLID
  5
FBF
330
10C5
100
AcDbEntity
  8
0
  6
Continuous
100
AcDbTrace
 10
3.478516588033856
 20
4.929002262221191
 30
0.0
 11
3.471696171403118
 21
4.924132578345793
 31
0.0
 12
3.735397990904044
 22
4.92197015403636
 32
0.0
 13
3.735397990904044
 23
4.92197015403636
 33
0.0
  0
SOLID
  5
FC0
330
10C5
100
AcDbEntity
  8
0
  6
Continuous
100
AcDbTrace
 10
3.485715844790982
 20
4.933292088116042
 30
0.0
 11
3.478516588033856
 21
4.929002262221191
 31
0.0
 12
3.735397990904044
 22
4.92197015403636
 32
0.0
 13
3.735397990904044
 23
4.92197015403636
 33
0.0
  0
SOLID
  5
FC1
330
10C5
100
AcDbEntity
  8
0
  6
Continuous
100
AcDbTrace
 10
3.736426114915783
 20
4.933721665264256
 30
0.0
 11
3.485715844790982
 21
4.933292088116042
 31
0.0
 12
3.735397990904044
 22
4.92197015403636
 32
0.0
 13
3.735397990904044
 23
4.92197015403636
 33
0.0
  0
SOLID
  5
FC2
330
10C5
100
AcDbEntity
  8
0
  6
Continuous
100
AcDbTrace
 10
3.493244763450895
 20
4.936972752169658
 30
0.0
 11
3.485715844790982
 21
4.933292088116042
 31
0.0
 12
3.736426114915783
 22
4.933721665264256
 32
0.0
 13
3.736426114915783
 23
4.933721665264256
 33
0.0
  0
SOLID
  5
FC3
330
10C5
100
AcDbEntity
  8
0
  6
Continuous
100
AcDbTrace
 10
3.501051913864924
 20
4.94001911171441
 30
0.0
 11
3.493244763450895
 21
4.936972752169658
 31
0.0
 12
3.736426114915783
 22
4.933721665264256
 32
0.0
 13
3.736426114915783
 23
4.933721665264256
 33
0.0
  0
SOLID
  5
FC4
330
10C5
100
AcDbEntity
  8
0
  6
Continuous
100
AcDbTrace
 10
3.509083965279394
 20
4.942410357025637
 30
0.0
 11
3.501051913864924
 21
4.94001911171441
 31
0.0
 12
3.736426114915783
 22
4.933721665264256
 32
0.0
 13
3.736426114915783
 23
4.933721665264256
 33
0.0
  0
SOLID
  5
FC5
330
10C5
100
AcDbEntity
  8
0
  6
Continuous
100
AcDbTrace
 10
3.517286050638753
 20
4.944130153473174
 30
0.0
 11
3.509083965279394
 21
4.942410357025637
 31
0.0
 12
3.736426114915783
 22
4.933721665264256
 32
0.0
 13
3.736426114915783
 23
4.933721665264256
 33
0.0
  0
SOLID
  5
FC6
330
10C5
100
AcDbEntity
  8
0
  6
Continuous
100
AcDbTrace
 10
3.52560214138319
 20
4.945166753103433
 30
0.0
 11
3.517286050638753
 21
4.944130153473174
 31
0.0
 12
3.736426114915783
 22
4.933721665264256
 32
0.0
 13
3.736426114915783
 23
4.933721665264256
 33
0.0
  0
SOLID
  5
FC7
330
10C5
100
AcDbEntity
  8
0
  6
Continuous
100
AcDbTrace
 10
3.73676920989463
 20
4.945513074889841
 30
0.0
 11
3.52560214138319
 21
4.945166753103433
 31
0.0
 12
3.736426114915783
 22
4.933721665264256
 32
0.0
 13
3.736426114915783
 23
4.933721665264256
 33
0.0
  0
SOLID
  5
FC8
330
10C5
100
AcDbEntity
  8
0
  6
Continuous
100
AcDbTrace
 10
3.533975430180516
 20
4.945513074889842
 30
0.0
 11
3.52560214138319
 21
4.945166753103433
 31
0.0
 12
3.73676920989463
 22
4.945513074889841
 32
0.0
 13
3.73676920989463
 23
4.945513074889841
 33
0.0
  0
SOLID
  5
FC9
330
10C5
100
AcDbEntity
  8
0
  6
Continuous
100
AcDbTrace
 10
3.542348718977842
 20
4.945859396676252
 30
0.0
 11
3.533975430180516
 21
4.945513074889842
 31
0.0
 12
3.73676920989463
 22
4.945513074889841
 32
0.0
 13
3.73676920989463
 23
4.945513074889841
 33
0.0
  0
SOLID
  5
FCA
330
10C5
100
AcDbEntity
  8
0
  6
Continuous
100
AcDbTrace
 10
3.550664809722279
 20
4.946895996306511
 30
0.0
 11
3.542348718977842
 21
4.945859396676252
 31
0.0
 12
3.73676920989463
 22
4.945513074889841
 32
0.0
 13
3.73676920989463
 23
4.945513074889841
 33
0.0
  0
SOLID
  5
FCB
330
10C5
100
AcDbEntity
  8
0
  6
Continuous
100
AcDbTrace
 10
3.558866895081638
 20
4.948615792754048
 30
0.0
 11
3.550664809722279
 21
4.946895996306511
 31
0.0
 12
3.73676920989463
 22
4.945513074889841
 32
0.0
 13
3.73676920989463
 23
4.945513074889841
 33
0.0
  0
SOLID
  5
FCC
330
10C5
100
AcDbEntity
  8
0
  6
Continuous
100
AcDbTrace
 10
3.566898946496108
 20
4.951007038065275
 30
0.0
 11
3.558866895081638
 21
4.948615792754048
 31
0.0
 12
3.73676920989463
 22
4.945513074889841
 32
0.0
 13
3.73676920989463
 23
4.945513074889841
 33
0.0
  0
SOLID
  5
FCD
330
10C5
100
AcDbEntity
  8
0
  6
Continuous
100
AcDbTrace
 10
3.574706096910137
 20
4.954053397610026
 30
0.0
 11
3.566898946496108
 21
4.951007038065275
 31
0.0
 12
3.73676920989463
 22
4.945513074889841
 32
0.0
 13
3.73676920989463
 23
4.945513074889841
 33
0.0
  0
SOLID
  5
FCE
330
10C5
100
AcDbEntity
  8
0
  6
Continuous
100
AcDbTrace
 10
3.736426114915783
 20
4.957304484515427
 30
0.0
 11
3.574706096910137
 21
4.954053397610026
 31
0.0
 12
3.73676920989463
 22
4.945513074889841
 32
0.0
 13
3.73676920989463
 23
4.945513074889841
 33
0.0
  0
SOLID
  5
FCF
330
10C5
100
AcDbEntity
  8
0
  6
Continuous
100
AcDbTrace
 10
3.582235015570049
 20
4.957734061663643
 30
0.0
 11
3.574706096910137
 21
4.954053397610026
 31
0.0
 12
3.736426114915783
 22
4.957304484515427
 32
0.0
 13
3.736426114915783
 23
4.957304484515427
 33
0.0
  0
SOLID
  5
FD0
330
10C5
100
AcDbEntity
  8
0
  6
Continuous
100
AcDbTrace
 10
3.589434272327176
 20
4.962023887558494
 30
0.0
 11
3.582235015570049
 21
4.957734061663643
 31
0.0
 12
3.736426114915783
 22
4.957304484515427
 32
0.0
 13
3.736426114915783
 23
4.957304484515427
 33
0.0
  0
SOLID
  5
FD1
330
10C5
100
AcDbEntity
  8
0
  6
Continuous
100
AcDbTrace
 10
3.596254688957915
 20
4.966893571433891
 30
0.0
 11
3.589434272327176
 21
4.962023887558494
 31
0.0
 12
3.736426114915783
 22
4.957304484515427
 32
0.0
 13
3.736426114915783
 23
4.957304484515427
 33
0.0
  0
SOLID
  5
FD2
330
10C5
100
AcDbEntity
  8
0
  6
Continuous
100
AcDbTrace
 10
3.735397990904044
 20
4.969055995743323
 30
0.0
 11
3.596254688957915
 21
4.966893571433891
 31
0.0
 12
3.736426114915783
 22
4.957304484515427
 32
0.0
 13
3.736426114915783
 23
4.957304484515427
 33
0.0
  0
SOLID
  5
FD3
330
10C5
100
AcDbEntity
  8
0
  6
Continuous
100
AcDbTrace
 10
3.602649675100866
 20
4.972309848411173
 30
0.0
 11
3.596254688957915
 21
4.966893571433891
 31
0.0
 12
3.735397990904044
 22
4.969055995743323
 32
0.0
 13
3.735397990904044
 23
4.969055995743323
 33
0.0
  0
SOLID
  5
FD4
330
10C5
100
AcDbEntity
  8
0
  6
Continuous
100
AcDbTrace
 10
3.608575546516243
 20
4.97823571982655
 30
0.0
 11
3.602649675100866
 21
4.972309848411173
 31
0.0
 12
3.735397990904044
 22
4.969055995743323
 32
0.0
 13
3.735397990904044
 23
4.969055995743323
 33
0.0
  0
SOLID
  5
FD5
330
10C5
100
AcDbEntity
  8
0
  6
Continuous
100
AcDbTrace
 10
3.733688316705626
 20
4.980727845179386
 30
0.0
 11
3.608575546516243
 21
4.97823571982655
 31
0.0
 12
3.735397990904044
 22
4.969055995743323
 32
0.0
 13
3.735397990904044
 23
4.969055995743323
 33
0.0
  0
SOLID
  5
FD6
330
10C5
100
AcDbEntity
  8
0
  6
Continuous
100
AcDbTrace
 10
3.613991823493524
 20
4.984630705969501
 30
0.0
 11
3.608575546516243
 21
4.97823571982655
 31
0.0
 12
3.733688316705626
 22
4.980727845179386
 32
0.0
 13
3.733688316705626
 23
4.980727845179386
 33
0.0
  0
SOLID
  5
FD7
330
10C5
100
AcDbEntity
  8
0
  6
Continuous
100
AcDbTrace
 10
3.618861507368922
 20
4.99145112260024
 30
0.0
 11
3.613991823493524
 21
4.984630705969501
 31
0.0
 12
3.733688316705626
 22
4.980727845179386
 32
0.0
 13
3.733688316705626
 23
4.980727845179386
 33
0.0
  0
SOLID
  5
FD8
330
10C5
100
AcDbEntity
  8
0
  6
Continuous
100
AcDbTrace
 10
3.73130287731683
 20
4.992280538979763
 30
0.0
 11
3.618861507368922
 21
4.99145112260024
 31
0.0
 12
3.733688316705626
 22
4.980727845179386
 32
0.0
 13
3.733688316705626
 23
4.980727845179386
 33
0.0
  0
SOLID
  5
FD9
330
10C5
100
AcDbEntity
  8
0
  6
Continuous
100
AcDbTrace
 10
3.623151333263773
 20
4.998650379357366
 30
0.0
 11
3.618861507368922
 21
4.99145112260024
 31
0.0
 12
3.73130287731683
 22
4.992280538979763
 32
0.0
 13
3.73130287731683
 23
4.992280538979763
 33
0.0
  0
SOLID
  5
FDA
330
10C5
100
AcDbEntity
  8
0
  6
Continuous
100
AcDbTrace
 10
3.728249744309455
 20
5.00367498648555
 30
0.0
 11
3.623151333263773
 21
4.998650379357366
 31
0.0
 12
3.73130287731683
 22
4.992280538979763
 32
0.0
 13
3.73130287731683
 23
4.992280538979763
 33
0.0
  0
SOLID
  5
FDB
330
10C5
100
AcDbEntity
  8
0
  6
Continuous
100
AcDbTrace
 10
3.62683199731739
 20
5.006179298017279
 30
0.0
 11
3.623151333263773
 21
4.998650379357366
 31
0.0
 12
3.728249744309455
 22
5.00367498648555
 32
0.0
 13
3.728249744309455
 23
5.00367498648555
 33
0.0
  0
SOLID
  5
FDC
330
10C5
100
AcDbEntity
  8
0
  6
Continuous
100
AcDbTrace
 10
3.629878356862141
 20
5.013986448431308
 30
0.0
 11
3.62683199731739
 21
5.006179298017279
 31
0.0
 12
3.728249744309455
 22
5.00367498648555
 32
0.0
 13
3.728249744309455
 23
5.00367498648555
 33
0.0
  0
SOLID
  5
FDD
330
10C5
100
AcDbEntity
  8
0
  6
Continuous
100
AcDbTrace
 10
3.724539248519152
 20
5.014872632493217
 30
0.0
 11
3.629878356862141
 21
5.013986448431308
 31
0.0
 12
3.728249744309455
 22
5.00367498648555
 32
0.0
 13
3.728249744309455
 23
5.00367498648555
 33
0.0
  0
SOLID
  5
FDE
330
10C5
100
AcDbEntity
  8
0
  6
Continuous
100
AcDbTrace
 10
3.632269602173368
 20
5.022018499845779
 30
0.0
 11
3.629878356862141
 21
5.013986448431308
 31
0.0
 12
3.724539248519152
 22
5.014872632493217
 32
0.0
 13
3.724539248519152
 23
5.014872632493217
 33
0.0
  0
SOLID
  5
FDF
330
10C5
100
AcDbEntity
  8
0
  6
Continuous
100
AcDbTrace
 10
3.720183945089146
 20
5.025835587713204
 30
0.0
 11
3.632269602173368
 21
5.022018499845779
 31
0.0
 12
3.724539248519152
 22
5.014872632493217
 32
0.0
 13
3.724539248519152
 23
5.014872632493217
 33
0.0
  0
SOLID
  5
FE0
330
10C5
100
AcDbEntity
  8
0
  6
Continuous
100
AcDbTrace
 10
3.633989398620905
 20
5.030220585205137
 30
0.0
 11
3.632269602173368
 21
5.022018499845779
 31
0.0
 12
3.720183945089146
 22
5.025835587713204
 32
0.0
 13
3.720183945089146
 23
5.025835587713204
 33
0.0
  0
SOLID
  5
FE1
330
10C5
100
AcDbEntity
  8
0
  6
Continuous
100
AcDbTrace
 10
3.715198570987604
 20
5.036526756975289
 30
0.0
 11
3.633989398620905
 21
5.030220585205137
 31
0.0
 12
3.720183945089146
 22
5.025835587713204
 32
0.0
 13
3.720183945089146
 23
5.025835587713204
 33
0.0
  0
SOLID
  5
FE2
330
10C5
100
AcDbEntity
  8
0
  6
Continuous
100
AcDbTrace
 10
3.635025998251165
 20
5.038536675949574
 30
0.0
 11
3.633989398620905
 21
5.030220585205137
 31
0.0
 12
3.715198570987604
 22
5.036526756975289
 32
0.0
 13
3.715198570987604
 23
5.036526756975289
 33
0.0
  0
SOLID
  5
FE3
330
10C5
100
AcDbEntity
  8
0
  6
Continuous
100
AcDbTrace
 10
3.709599995142404
 20
5.046909964746898
 30
0.0
 11
3.635025998251165
 21
5.038536675949574
 31
0.0
 12
3.715198570987604
 22
5.036526756975289
 32
0.0
 13
3.715198570987604
 23
5.036526756975289
 33
0.0
  0
SOLID
  5
FE4
330
10C5
100
AcDbEntity
  8
0
  6
Continuous
100
AcDbTrace
 10
3.635372320037573
 20
5.0469099647469
 30
0.0
 11
3.635025998251165
 21
5.038536675949574
 31
0.0
 12
3.709599995142404
 22
5.046909964746898
 32
0.0
 13
3.709599995142404
 23
5.046909964746898
 33
0.0
  0
SOLID
  5
FE5
330
10C5
100
AcDbEntity
  8
0
  6
Continuous
100
AcDbTrace
 10
3.635025998251165
 20
5.055283253544226
 30
0.0
 11
3.635372320037573
 21
5.0469099647469
 31
0.0
 12
3.709599995142404
 22
5.046909964746898
 32
0.0
 13
3.709599995142404
 23
5.046909964746898
 33
0.0
  0
SOLID
  5
FE6
330
10C5
100
AcDbEntity
  8
0
  6
Continuous
100
AcDbTrace
 10
3.703407161362018
 20
5.056950077539661
 30
0.0
 11
3.635025998251165
 21
5.055283253544226
 31
0.0
 12
3.709599995142404
 22
5.046909964746898
 32
0.0
 13
3.709599995142404
 23
5.046909964746898
 33
0.0
  0
SOLID
  5
FE7
330
10C5
100
AcDbEntity
  8
0
  6
Continuous
100
AcDbTrace
 10
3.633989398620905
 20
5.063599344288663
 30
0.0
 11
3.635025998251165
 21
5.055283253544226
 31
0.0
 12
3.703407161362018
 22
5.056950077539661
 32
0.0
 13
3.703407161362018
 23
5.056950077539661
 33
0.0
  0
SOLID
  5
FE8
330
10C5
100
AcDbEntity
  8
0
  6
Continuous
100
AcDbTrace
 10
3.696641024235664
 20
5.066613122790007
 30
0.0
 11
3.633989398620905
 21
5.063599344288663
 31
0.0
 12
3.703407161362018
 22
5.056950077539661
 32
0.0
 13
3.703407161362018
 23
5.056950077539661
 33
0.0
  0
SOLID
  5
FE9
330
10C5
100
AcDbEntity
  8
0
  6
Continuous
100
AcDbTrace
 10
3.632269602173368
 20
5.071801429648021
 30
0.0
 11
3.633989398620905
 21
5.063599344288663
 31
0.0
 12
3.696641024235664
 22
5.066613122790007
 32
0.0
 13
3.696641024235664
 23
5.066613122790007
 33
0.0
  0
SOLID
  5
FEA
330
10C5
100
AcDbEntity
  8
0
  6
Continuous
100
AcDbTrace
 10
3.689324478229607
 20
5.075866403811575
 30
0.0
 11
3.632269602173368
 21
5.071801429648021
 31
0.0
 12
3.696641024235664
 22
5.066613122790007
 32
0.0
 13
3.696641024235664
 23
5.066613122790007
 33
0.0
  0
SOLID
  5
FEB
330
10C5
100
AcDbEntity
  8
0
  6
Continuous
100
AcDbTrace
 10
3.629878356862141
 20
5.079833481062492
 30
0.0
 11
3.632269602173368
 21
5.071801429648021
 31
0.0
 12
3.689324478229607
 22
5.075866403811575
 32
0.0
 13
3.689324478229607
 23
5.075866403811575
 33
0.0
  0
SOLID
  5
FEC
330
10C5
100
AcDbEntity
  8
0
  6
Continuous
100
AcDbTrace
 10
3.681482280219534
 20
5.084678610430446
 30
0.0
 11
3.629878356862141
 21
5.079833481062492
 31
0.0
 12
3.689324478229607
 22
5.075866403811575
 32
0.0
 13
3.689324478229607
 23
5.075866403811575
 33
0.0
  0
SOLID
  5
FED
330
10C5
100
AcDbEntity
  8
0
  6
Continuous
100
AcDbTrace
 10
3.62683199731739
 20
5.087640631476521
 30
0.0
 11
3.629878356862141
 21
5.079833481062492
 31
0.0
 12
3.681482280219534
 22
5.084678610430446
 32
0.0
 13
3.681482280219534
 23
5.084678610430446
 33
0.0
  0
SOLID
  5
FEE
330
10C5
100
AcDbEntity
  8
0
  6
Continuous
100
AcDbTrace
 10
3.673140965721121
 20
5.093019924928859
 30
0.0
 11
3.62683199731739
 21
5.087640631476521
 31
0.0
 12
3.681482280219534
 22
5.084678610430446
 32
0.0
 13
3.681482280219534
 23
5.084678610430446
 33
0.0
  0
SOLID
  5
FEF
330
10C5
100
AcDbEntity
  8
0
  6
Continuous
100
AcDbTrace
 10
3.623151333263773
 20
5.095169550136434
 30
0.0
 11
3.62683199731739
 21
5.087640631476521
 31
0.0
 12
3.673140965721121
 22
5.093019924928859
 32
0.0
 13
3.673140965721121
 23
5.093019924928859
 33
0.0
  0
SOLID
  5
FF0
330
10C5
100
AcDbEntity
  8
0
  6
Continuous
100
AcDbTrace
 10
3.66432875910225
 20
5.100862122938933
 30
0.0
 11
3.623151333263773
 21
5.095169550136434
 31
0.0
 12
3.673140965721121
 22
5.093019924928859
 32
0.0
 13
3.673140965721121
 23
5.093019924928859
 33
0.0
  0
SOLID
  5
FF1
330
10C5
100
AcDbEntity
  8
0
  6
Continuous
100
AcDbTrace
 10
3.618861507368922
 20
5.10236880689356
 30
0.0
 11
3.623151333263773
 21
5.095169550136434
 31
0.0
 12
3.66432875910225
 22
5.100862122938933
 32
0.0
 13
3.66432875910225
 23
5.100862122938933
 33
0.0
  0
SOLID
  5
FF2
330
10C5
100
AcDbEntity
  8
0
  6
Continuous
100
AcDbTrace
 10
3.655075478080681
 20
5.10817866894499
 30
0.0
 11
3.618861507368922
 21
5.10236880689356
 31
0.0
 12
3.66432875910225
 22
5.100862122938933
 32
0.0
 13
3.66432875910225
 23
5.100862122938933
 33
0.0
  0
SOLID
  5
FF3
330
10C5
100
AcDbEntity
  8
0
  6
Continuous
100
AcDbTrace
 10
3.613991823493524
 20
5.109189223524299
 30
0.0
 11
3.618861507368922
 21
5.10236880689356
 31
0.0
 12
3.655075478080681
 22
5.10817866894499
 32
0.0
 13
3.655075478080681
 23
5.10817866894499
 33
0.0
  0
SOLID
  5
FF4
330
10C5
100
AcDbEntity
  8
0
  6
Continuous
100
AcDbTrace
 10
3.645412432830335
 20
5.114944806071344
 30
0.0
 11
3.613991823493524
 21
5.109189223524299
 31
0.0
 12
3.655075478080681
 22
5.10817866894499
 32
0.0
 13
3.655075478080681
 23
5.10817866894499
 33
0.0
  0
SOLID
  5
FF5
330
10C5
100
AcDbEntity
  8
0
  6
Continuous
100
AcDbTrace
 10
3.608575546516243
 20
5.11558420966725
 30
0.0
 11
3.613991823493524
 21
5.109189223524299
 31
0.0
 12
3.645412432830335
 22
5.114944806071344
 32
0.0
 13
3.645412432830335
 23
5.114944806071344
 33
0.0
  0
SOLID
  5
FF6
330
10C5
100
AcDbEntity
  8
0
  6
Continuous
100
AcDbTrace
 10
3.635372320037573
 20
5.121137639851729
 30
0.0
 11
3.608575546516243
 21
5.11558420966725
 31
0.0
 12
3.645412432830335
 22
5.114944806071344
 32
0.0
 13
3.645412432830335
 23
5.114944806071344
 33
0.0
  0
SOLID
  5
FF7
330
10C5
100
AcDbEntity
  8
0
  6
Continuous
100
AcDbTrace
 10
3.602649675100866
 20
5.121510081082627
 30
0.0
 11
3.608575546516243
 21
5.11558420966725
 31
0.0
 12
3.635372320037573
 22
5.121137639851729
 32
0.0
 13
3.635372320037573
 23
5.121137639851729
 33
0.0
  0
SOLID
  5
FF8
330
10C5
100
AcDbEntity
  8
0
  6
Continuous
100
AcDbTrace
 10
3.624989112265963
 20
5.126736215696929
 30
0.0
 11
3.602649675100866
 21
5.121510081082627
 31
0.0
 12
3.635372320037573
 22
5.121137639851729
 32
0.0
 13
3.635372320037573
 23
5.121137639851729
 33
0.0
  0
SOLID
  5
FF9
330
10C5
100
AcDbEntity
  8
0
  6
Continuous
100
AcDbTrace
 10
3.596254688957914
 20
5.126926358059908
 30
0.0
 11
3.602649675100866
 21
5.121510081082627
 31
0.0
 12
3.624989112265963
 22
5.126736215696929
 32
0.0
 13
3.624989112265963
 23
5.126736215696929
 33
0.0
  0
SOLID
  5
FFA
330
10C5
100
AcDbEntity
  8
0
  6
Continuous
100
AcDbTrace
 10
3.614297943003879
 20
5.131721589798472
 30
0.0
 11
3.596254688957914
 21
5.126926358059908
 31
0.0
 12
3.624989112265963
 22
5.126736215696929
 32
0.0
 13
3.624989112265963
 23
5.126736215696929
 33
0.0
  0
SOLID
  5
FFB
330
10C5
100
AcDbEntity
  8
0
  6
Continuous
100
AcDbTrace
 10
3.589434272327176
 20
5.131796041935306
 30
0.0
 11
3.596254688957914
 21
5.126926358059908
 31
0.0
 12
3.614297943003879
 22
5.131721589798472
 32
0.0
 13
3.614297943003879
 23
5.131721589798472
 33
0.0
  0
SOLID
  5
FFC
330
10C5
100
AcDbEntity
  8
0
  6
Continuous
100
AcDbTrace
 10
3.603334987783891
 20
5.136076893228477
 30
0.0
 11
3.589434272327176
 21
5.131796041935306
 31
0.0
 12
3.614297943003879
 22
5.131721589798472
 32
0.0
 13
3.614297943003879
 23
5.131721589798472
 33
0.0
  0
SOLID
  5
FFD
330
10C5
100
AcDbEntity
  8
0
  6
Continuous
100
AcDbTrace
 10
3.582235015570049
 20
5.136085867830157
 30
0.0
 11
3.589434272327176
 21
5.131796041935306
 31
0.0
 12
3.603334987783891
 22
5.136076893228477
 32
0.0
 13
3.603334987783891
 23
5.136076893228477
 33
0.0
  0
SOLID
  5
FFE
330
10C5
100
AcDbEntity
  8
0
  6
Continuous
100
AcDbTrace
 10
3.574706096910137
 20
5.139766531883774
 30
0.0
 11
3.582235015570049
 21
5.136085867830157
 31
0.0
 12
3.603334987783891
 22
5.136076893228477
 32
0.0
 13
3.603334987783891
 23
5.136076893228477
 33
0.0
  0
SOLID
  5
FFF
330
10C5
100
AcDbEntity
  8
0
  6
Continuous
100
AcDbTrace
 10
3.592137341776225
 20
5.13978738901878
 30
0.0
 11
3.574706096910137
 21
5.139766531883774
 31
0.0
 12
3.603334987783891
 22
5.136076893228477
 32
0.0
 13
3.603334987783891
 23
5.136076893228477
 33
0.0
  0
SOLID
  5
1000
330
10C5
100
AcDbEntity
  8
0
  6
Continuous
100
AcDbTrace
 10
3.566898946496108
 20
5.142812891428525
 30
0.0
 11
3.574706096910137
 21
5.139766531883774
 31
0.0
 12
3.592137341776225
 22
5.13978738901878
 32
0.0
 13
3.592137341776225
 23
5.13978738901878
 33
0.0
  0
SOLID
  5
1001
330
10C5
100
AcDbEntity
  8
0
  6
Continuous
100
AcDbTrace
 10
3.580742894270437
 20
5.142840522026155
 30
0.0
 11
3.566898946496108
 21
5.142812891428525
 31
0.0
 12
3.592137341776225
 22
5.13978738901878
 32
0.0
 13
3.592137341776225
 23
5.13978738901878
 33
0.0
  0
SOLID
  5
1002
330
10C5
100
AcDbEntity
  8
0
  6
Continuous
100
AcDbTrace
 10
3.558866895081638
 20
5.145204136739752
 30
0.0
 11
3.566898946496108
 21
5.142812891428525
 31
0.0
 12
3.580742894270437
 22
5.142840522026155
 32
0.0
 13
3.580742894270437
 23
5.142840522026155
 33
0.0
  0
SOLID
  5
1003
330
10C5
100
AcDbEntity
  8
0
  6
Continuous
100
AcDbTrace
 10
3.569190200470061
 20
5.145225961414951
 30
0.0
 11
3.558866895081638
 21
5.145204136739752
 31
0.0
 12
3.580742894270437
 22
5.142840522026155
 32
0.0
 13
3.580742894270437
 23
5.142840522026155
 33
0.0
  0
SOLID
  5
1004
330
10C5
100
AcDbEntity
  8
0
  6
Continuous
100
AcDbTrace
 10
3.550664809722279
 20
5.146923933187289
 30
0.0
 11
3.558866895081638
 21
5.145204136739752
 31
0.0
 12
3.569190200470061
 22
5.145225961414951
 32
0.0
 13
3.569190200470061
 23
5.145225961414951
 33
0.0
  0
SOLID
  5
1005
330
10C5
100
AcDbEntity
  8
0
  6
Continuous
100
AcDbTrace
 10
3.557518351033997
 20
5.146935635613369
 30
0.0
 11
3.550664809722279
 21
5.146923933187289
 31
0.0
 12
3.569190200470061
 22
5.145225961414951
 32
0.0
 13
3.569190200470061
 23
5.145225961414951
 33
0.0
  0
SOLID
  5
1006
330
10C5
100
AcDbEntity
  8
0
  6
Continuous
100
AcDbTrace
 10
3.542348718977842
 20
5.147960532817548
 30
0.0
 11
3.550664809722279
 21
5.146923933187289
 31
0.0
 12
3.557518351033997
 22
5.146935635613369
 32
0.0
 13
3.557518351033997
 23
5.146935635613369
 33
0.0
  0
SOLID
  5
1007
330
10C5
100
AcDbEntity
  8
0
  6
Continuous
100
AcDbTrace
 10
3.545766839806102
 20
5.147963759625108
 30
0.0
 11
3.542348718977842
 21
5.147960532817548
 31
0.0
 12
3.557518351033997
 22
5.146935635613369
 32
0.0
 13
3.557518351033997
 23
5.146935635613369
 33
0.0
  0
SOLID
  5
1008
330
10C5
100
AcDbEntity
  8
0
  6
Continuous
100
AcDbTrace
 10
3.533975430180516
 20
5.148306854603958
 30
0.0
 11
3.542348718977842
 21
5.147960532817548
 31
0.0
 12
3.545766839806102
 22
5.147963759625108
 32
0.0
 13
3.545766839806102
 23
5.147963759625108
 33
0.0
  0
ENDBLK
  5
100A
330
10C5
100
AcDbEntity
  8
0
100
AcDbBlockEnd
  0
BLOCK
  5
11A1
330
1195
100
AcDbEntity
  8
0
100
AcDbBlockBegin
  2
titleblock
 70
     2
 10
0.0
 20
0.0
 30
0.0
  3
titleblock
  1

  0
LWPOLYLINE
  5
1196
330
1195
100
AcDbEntity
  8
0
100
AcDbPolyline
 90
        4
 70
     1
 43
0.0
 10
0.0
 20
0.0
 10
10.33458742478744
 20
0.0000000000000002
 10
10.33458742478744
 20
10.44
 10
0.0
 20
10.44
  0
ATTDEF
  5
1197
330
1195
100
AcDbEntity
  8
title
100
AcDbText
 10
0.5055556038023421
 20
0.7842270964783673
 30
0.0
 40
0.2
  1
D
  7
L200
 72
     4
 11
0.6064423705144839
 21
0.8842270964783672
 31
0.0
100
AcDbAttributeDefinition
  3
#
  2
D
 70
     0
  0
ATTDEF
  5
1198
330
1195
100
AcDbEntity
  8
title
100
AcDbText
 10
1.231442370514484
 20
1.34371230274675
 30
0.0
 40
0.2
  1

  7
L200
100
AcDbAttributeDefinition
  3
DETAIL TITLE TOP LINE
  2
TITLE1
 70
     0
  0
ATTDEF
  5
1199
330
1195
100
AcDbEntity
  8
title
100
AcDbText
 10
1.231442370514484
 20
0.9842270964783674
 30
0.0
 40
0.2
  1
TITLE
  7
L200
100
AcDbAttributeDefinition
  3
DETAIL TITLE TOP 2ND LINE
  2
TITLE2
 70
     0
  0
ATTDEF
  5
119A
330
1195
100
AcDbEntity
  8
title
100
AcDbText
 10
2.713645751168312
 20
0.5927927664583189
 30
0.0
 40
0.2
  1
TITLE2
  7
L200
100
AcDbAttributeDefinition
  3
DETAIL TITLE BOTTOM 1
  2
TITLE3
 70
     0
  0
ATTDEF
  5
119B
330
1195
100
AcDbEntity
  8
title
100
AcDbText
 10
2.713645751168312
 20
0.2692560808167741
 30
0.0
 40
0.2
  1

  7
L200
100
AcDbAttributeDefinition
  3
DETAIL TITLE BOTTOM 2
  2
TITLE4
 70
     0
  0
ATTDEF
  5
119C
330
1195
100
AcDbEntity
  8
title
 62
     7
100
AcDbText
 10
8.177214829966379
 20
0.9696027915446398
 30
0.0
 40
0.08
  1
-
  7
L80
 72
     2
 11
8.261024353775903
 21
0.9696027915446398
 31
0.0
100
AcDbAttributeDefinition
  3
REVISION DATE
  2
REVISED
 70
     0
  0
ATTDEF
  5
119D
330
1195
100
AcDbEntity
  8
title
 62
     7
100
AcDbText
 10
0.2639423705144838
 20
0.0847116480207213
 30
0.0
 40
0.08
  1
-
  7
L80
100
AcDbAttributeDefinition
  3
DWG-NAME
  2
DWG-NAME
 70
     0
  0
LWPOLYLINE
  5
119E
330
1195
100
AcDbEntity
  8
title
 62
     3
100
AcDbPolyline
 90
        2
 70
     1
 43
0.03
 10
0.6064423705144839
 20
0.5417270964783675
 42
0.9999999999999998
 10
0.6064423705144839
 20
1.226727096478367
 42
0.9999999999999998
  0
ATTDEF
  5
119F
330
1195
100
AcDbEntity
  8
title
 62
     7
100
AcDbText
 10
1.231442370514484
 20
0.7005637793954894
 30
0.0
 40
0.1
  1
N.T.S.
  7
L100
100
AcDbAttributeDefinition
  3
SCALE
  2
SCALE
 70
     0
  0
LWPOLYLINE
  5
11A0
330
1195
100
AcDbEntity
  8
title
 62
     3
100
AcDbPolyline
 90
        2
 70
     0
 43
0.04
 39
0.03
 10
0.9489423705144833
 20
0.8842270964783672
 10
8.261024353775903
 20
0.8842270964783672
  0
ENDBLK
  5
11A2
330
1195
100
AcDbEntity
  8
0
100
AcDbBlockEnd
  0
ENDSEC
  0
SECTION
  2
ENTITIES
  0
LWPOLYLINE
  5
433
330
10C1
100
AcDbEntity
  8
image
100
AcDbPolyline
 90
        2
 70
     0
 43
0.0
 10
2.337668676074201
 20
2.877843623877035
 10
2.404141058914288
 20
2.839461269326443
  0
LWPOLYLINE
  5
887
330
10C1
100
AcDbEntity
  8
image
100
AcDbPolyline
 90
        2
 70
     0
 43
0.0
 10
3.318318232889163
 20
6.184766957812544
 10
3.317503039019243
 20
6.261520578445324
  0
ARC
  5
9B8
330
10C1
100
AcDbEntity
  8
image
100
AcDbCircle
 10
3.533975430180516
 20
6.223143768128934
 30
0.0
 40
0.2027937797141143
100
AcDbArc
 50
270.0
 51
90.0
  0
ARC
  5
9B9
330
10C1
100
AcDbEntity
  8
image
100
AcDbCircle
 10
3.533975430180516
 20
6.223143768128934
 30
0.0
 40
0.2027937797141145
100
AcDbArc
 50
90.0
 51
270.0
  0
LWPOLYLINE
  5
9BA
330
10C1
100
AcDbEntity
  8
image
100
AcDbPolyline
 90
        3
 70
     0
 43
0.0
 10
3.533975430180516
 20
6.425937547843048
 42
-1.0
 10
3.533975430180516
 20
6.223143768128934
 42
0.9999999999999998
 10
3.533975430180516
 20
6.02034998841482
 42
0.9999999999999998
  0
INSERT
  5
9BB
330
10C1
100
AcDbEntity
  8
image
  6
Continuous
100
AcDbBlockReference
  2
*U0
 10
0.0
 20
1.27763069323909
 30
0.0
1001
ACAD
1002
{
1000
R14_HATCH_DATA
1000
9BB
1011
1.0
1021
1.27763069323909
1031
0.0
1011
0.0
1021
2.27763069323909
1031
0.0
1011
0.0
1021
1.27763069323909
1031
1.0
1040
0.0
1010
0.0
1020
0.0
1030
1.0
1000
SOLID
1070
     1
1070
     0
1071
        1
1071
        1
1071
        3
1070
     2
1040
3.533975430180516
1040
4.945513074889841
1040
0.2027937797141143
1040
4.712388980384689
1040
7.853981633974482
1070
     1
1070
     2
1040
3.533975430180516
1040
5.0469099647469
1040
0.1013968898570573
1040
4.712388980384689
1040
7.853981633974482
1070
     0
1070
     2
1040
3.533975430180516
1040
4.844116185032785
1040
0.1013968898570573
1040
1.570796326794896
1040
4.712388980384689
1070
     1
1071
        0
1070
     0
1070
     1
1071
        1
1040
0.6842136253258577
1040
1.521370937345172
1040
0.0
1002
}
  0
LWPOLYLINE
  5
9BC
330
10C1
100
AcDbEntity
  8
image
100
AcDbPolyline
 90
        2
 70
     0
 43
0.0
 10
2.347998917719658
 20
6.487212668917092
 10
3.814352274246394
 20
6.487347712471948
  0
LWPOLYLINE
  5
9BD
330
10C1
100
AcDbEntity
  8
image
100
AcDbPolyline
 90
        2
 70
     0
 43
0.0
 10
1.747100270970146
 20
6.487212668917092
 10
0.7751655625014121
 20
6.487347712471947
  0
ARC
  5
A34
330
10C1
100
AcDbEntity
  8
image
100
AcDbCircle
 10
1.558780132813374
 20
6.781319265209493
 30
0.0
 40
0.1065815326392652
100
AcDbArc
 50
116.0563205359582
 51
205.254994024374
  0
ARC
  5
A35
330
10C1
100
AcDbEntity
  8
image
100
AcDbCircle
 10
1.415569469940392
 20
6.831595386739182
 30
0.0
 40
0.1065815326392652
100
AcDbArc
 50
296.0563205359582
 51
25.2549940243739
  0
ARC
  5
A36
330
10C1
100
AcDbEntity
  8
image
100
AcDbCircle
 10
1.09855095765238
 20
6.741515693404971
 30
0.0
 40
0.1065815326392652
100
AcDbArc
 50
116.0563205359582
 51
205.254994024374
  0
ARC
  5
A37
330
10C1
100
AcDbEntity
  8
image
100
AcDbCircle
 10
0.9553402947793996
 20
6.79179181493466
 30
0.0
 40
0.1065815326392652
100
AcDbArc
 50
296.0563205359582
 51
25.2549940243739
  0
ARC
  5
A38
330
10C1
100
AcDbEntity
  8
image
100
AcDbCircle
 10
1.160744089430893
 20
7.040042481938884
 30
0.0
 40
0.1065815326392652
100
AcDbArc
 50
116.0563205359582
 51
205.254994024374
  0
ARC
  5
A39
330
10C1
100
AcDbEntity
  8
image
100
AcDbCircle
 10
1.017533426557912
 20
7.090318603468574
 30
0.0
 40
0.1065815326392652
100
AcDbArc
 50
296.0563205359582
 51
25.2549940243739
  0
ARC
  5
A3A
330
10C1
100
AcDbEntity
  8
image
100
AcDbCircle
 10
1.170694990515456
 20
7.147014581163537
 30
0.0
 40
0.1065815326392652
100
AcDbArc
 50
116.0563205359582
 51
205.254994024374
  0
ARC
  5
A3B
330
10C1
100
AcDbEntity
  8
image
100
AcDbCircle
 10
1.027484327642473
 20
7.197290702693225
 30
0.0
 40
0.1065815326392652
100
AcDbArc
 50
296.0563205359582
 51
25.2549940243739
  0
ARC
  5
A3C
330
10C1
100
AcDbEntity
  8
image
100
AcDbCircle
 10
1.282642627716778
 20
7.020140696036624
 30
0.0
 40
0.1065815326392652
100
AcDbArc
 50
116.0563205359582
 51
205.254994024374
  0
ARC
  5
A3D
330
10C1
100
AcDbEntity
  8
image
100
AcDbCircle
 10
1.139431964843796
 20
7.070416817566312
 30
0.0
 40
0.1065815326392652
100
AcDbArc
 50
296.0563205359582
 51
25.2549940243739
  0
ARC
  5
A3E
330
10C1
100
AcDbEntity
  8
image
100
AcDbCircle
 10
1.464246572510035
 20
7.010189803085494
 30
0.0
 40
0.1065815326392652
100
AcDbArc
 50
116.0563205359582
 51
205.254994024374
  0
ARC
  5
A3F
330
10C1
100
AcDbEntity
  8
image
100
AcDbCircle
 10
1.321035909637053
 20
7.060465924615183
 30
0.0
 40
0.1065815326392652
100
AcDbArc
 50
296.0563205359582
 51
25.2549940243739
  0
ARC
  5
A40
330
10C1
100
AcDbEntity
  8
image
100
AcDbCircle
 10
1.424442968171788
 20
6.878340471483014
 30
0.0
 40
0.1065815326392652
100
AcDbArc
 50
116.0563205359582
 51
205.254994024374
  0
ARC
  5
A41
330
10C1
100
AcDbEntity
  8
image
100
AcDbCircle
 10
1.281232305298805
 20
6.928616593012704
 30
0.0
 40
0.1065815326392652
100
AcDbArc
 50
296.0563205359582
 51
25.2549940243739
  0
ARC
  5
A42
330
10C1
100
AcDbEntity
  8
image
100
AcDbCircle
 10
1.643362792032152
 20
6.734052523691623
 30
0.0
 40
0.1065815326392652
100
AcDbArc
 50
116.0563205359582
 51
205.254994024374
  0
ARC
  5
A43
330
10C1
100
AcDbEntity
  8
image
100
AcDbCircle
 10
1.500152129159169
 20
6.784328645221312
 30
0.0
 40
0.1065815326392652
100
AcDbArc
 50
296.0563205359582
 51
25.2549940243739
  0
ARC
  5
A44
330
10C1
100
AcDbEntity
  8
image
100
AcDbCircle
 10
1.133379111448348
 20
6.890779087671927
 30
0.0
 40
0.1065815326392652
100
AcDbArc
 50
116.0563205359582
 51
205.254994024374
  0
ARC
  5
A45
330
10C1
100
AcDbEntity
  8
image
100
AcDbCircle
 10
0.9901684485753657
 20
6.941055209201616
 30
0.0
 40
0.1065815326392652
100
AcDbArc
 50
296.0563205359582
 51
25.2549940243739
  0
ARC
  5
A46
330
10C1
100
AcDbEntity
  8
image
100
AcDbCircle
 10
1.359762111122133
 20
6.669371719509274
 30
0.0
 40
0.1065815326392652
100
AcDbArc
 50
116.0563205359582
 51
205.254994024374
  0
ARC
  5
A47
330
10C1
100
AcDbEntity
  8
image
100
AcDbCircle
 10
1.216551448249152
 20
6.719647841038965
 30
0.0
 40
0.1065815326392652
100
AcDbArc
 50
296.0563205359582
 51
25.2549940243739
  0
ARC
  5
A48
330
10C1
100
AcDbEntity
  8
image
100
AcDbCircle
 10
1.374688462748977
 20
6.564887343522406
 30
0.0
 40
0.1065815326392652
100
AcDbArc
 50
116.0563205359582
 51
205.254994024374
  0
ARC
  5
A49
330
10C1
100
AcDbEntity
  8
image
100
AcDbCircle
 10
1.231477799875996
 20
6.615163465052094
 30
0.0
 40
0.1065815326392652
100
AcDbArc
 50
296.0563205359582
 51
25.2549940243739
  0
ARC
  5
A4A
330
10C1
100
AcDbEntity
  8
image
100
AcDbCircle
 10
1.48912382522144
 20
6.67434716598484
 30
0.0
 40
0.1065815326392652
100
AcDbArc
 50
116.0563205359582
 51
205.254994024374
  0
ARC
  5
A4B
330
10C1
100
AcDbEntity
  8
image
100
AcDbCircle
 10
1.345913162348458
 20
6.724623287514529
 30
0.0
 40
0.1065815326392652
100
AcDbArc
 50
296.0563205359582
 51
25.2549940243739
  0
ARC
  5
A4C
330
10C1
100
AcDbEntity
  8
image
100
AcDbCircle
 10
1.669227861068147
 20
6.582029116870255
 30
0.0
 40
0.1065815326392652
100
AcDbArc
 50
143.5307656099477
 51
232.7294390983635
  0
ARC
  5
A4D
330
10C1
100
AcDbEntity
  8
image
100
AcDbCircle
 10
1.518973933633769
 20
6.560564270093915
 30
0.0
 40
0.1065815326392652
100
AcDbArc
 50
323.5307656099477
 51
52.72943909836342
  0
ARC
  5
A4E
330
10C1
100
AcDbEntity
  8
image
100
AcDbCircle
 10
1.33995091288473
 20
7.156767062790401
 30
0.0
 40
0.1065815326392652
100
AcDbArc
 50
143.5307656099477
 51
232.7294390983635
  0
ARC
  5
A4F
330
10C1
100
AcDbEntity
  8
image
100
AcDbCircle
 10
1.189696985450352
 20
7.135302216014062
 30
0.0
 40
0.1065815326392652
100
AcDbArc
 50
323.5307656099477
 51
52.72943909836342
  0
ARC
  5
A52
330
10C1
100
AcDbEntity
  8
image
100
AcDbCircle
 10
1.208240133611362
 20
6.941240333070346
 30
0.0
 40
0.1065815326392652
100
AcDbArc
 50
143.5307656099477
 51
232.7294390983635
  0
ARC
  5
A53
330
10C1
100
AcDbEntity
  8
image
100
AcDbCircle
 10
1.057986206176986
 20
6.919775486294007
 30
0.0
 40
0.1065815326392652
100
AcDbArc
 50
323.5307656099477
 51
52.72943909836342
  0
ARC
  5
A54
330
10C1
100
AcDbEntity
  8
image
100
AcDbCircle
 10
1.148371597578014
 20
6.671831920920277
 30
0.0
 40
0.1065815326392652
100
AcDbArc
 50
143.5307656099477
 51
232.7294390983635
  0
ARC
  5
A55
330
10C1
100
AcDbEntity
  8
image
100
AcDbCircle
 10
0.9981176701436364
 20
6.650367074143939
 30
0.0
 40
0.1065815326392652
100
AcDbArc
 50
323.5307656099477
 51
52.72943909836342
  0
ARC
  5
A56
330
10C1
100
AcDbEntity
  8
image
100
AcDbCircle
 10
1.11843732956134
 20
6.588015970473589
 30
0.0
 40
0.1065815326392652
100
AcDbArc
 50
143.5307656099477
 51
232.7294390983635
  0
ARC
  5
A57
330
10C1
100
AcDbEntity
  8
image
100
AcDbCircle
 10
0.9681834021269628
 20
6.566551123697249
 30
0.0
 40
0.1065815326392652
100
AcDbArc
 50
323.5307656099477
 51
52.72943909836342
  0
ARC
  5
A58
330
10C1
100
AcDbEntity
  8
image
100
AcDbCircle
 10
1.220213840818033
 20
6.576042263266919
 30
0.0
 40
0.1065815326392652
100
AcDbArc
 50
143.5307656099477
 51
232.7294390983635
  0
ARC
  5
A59
330
10C1
100
AcDbEntity
  8
image
100
AcDbCircle
 10
1.069959913383656
 20
6.554577416490581
 30
0.0
 40
0.1065815326392652
100
AcDbArc
 50
323.5307656099477
 51
52.72943909836342
  0
ARC
  5
A5A
330
10C1
100
AcDbEntity
  8
image
100
AcDbCircle
 10
1.274095523248046
 20
6.815516407400314
 30
0.0
 40
0.1065815326392652
100
AcDbArc
 50
143.5307656099477
 51
232.7294390983635
  0
ARC
  5
A5B
330
10C1
100
AcDbEntity
  8
image
100
AcDbCircle
 10
1.123841595813669
 20
6.794051560623974
 30
0.0
 40
0.1065815326392652
100
AcDbArc
 50
323.5307656099477
 51
52.72943909836342
  0
ARC
  5
A5C
330
10C1
100
AcDbEntity
  8
image
100
AcDbCircle
 10
1.369885180901404
 20
6.899332357847002
 30
0.0
 40
0.1065815326392652
100
AcDbArc
 50
143.5307656099477
 51
232.7294390983635
  0
ARC
  5
A5D
330
10C1
100
AcDbEntity
  8
image
100
AcDbCircle
 10
1.219631253467027
 20
6.877867511070664
 30
0.0
 40
0.1065815326392652
100
AcDbArc
 50
323.5307656099477
 51
52.72943909836342
  0
ARC
  5
A5E
330
10C1
100
AcDbEntity
  8
image
100
AcDbCircle
 10
1.585411910621459
 20
6.989135161897025
 30
0.0
 40
0.1065815326392652
100
AcDbArc
 50
143.5307656099477
 51
232.7294390983635
  0
ARC
  5
A5F
330
10C1
100
AcDbEntity
  8
image
100
AcDbCircle
 10
1.435157983187081
 20
6.967670315120685
 30
0.0
 40
0.1065815326392652
100
AcDbArc
 50
323.5307656099477
 51
52.72943909836342
  0
ARC
  5
A60
330
10C1
100
AcDbEntity
  8
image
100
AcDbCircle
 10
1.555477642604785
 20
6.929266625863676
 30
0.0
 40
0.1065815326392652
100
AcDbArc
 50
143.5307656099477
 51
232.7294390983635
  0
ARC
  5
A61
330
10C1
100
AcDbEntity
  8
image
100
AcDbCircle
 10
1.405223715170407
 20
6.907801779087337
 30
0.0
 40
0.1065815326392652
100
AcDbArc
 50
323.5307656099477
 51
52.72943909836342
  0
ARC
  5
A62
330
10C1
100
AcDbEntity
  8
image
100
AcDbCircle
 10
1.507582813778105
 20
6.821503261003649
 30
0.0
 40
0.1065815326392652
100
AcDbArc
 50
143.5307656099477
 51
232.7294390983635
  0
ARC
  5
A63
330
10C1
100
AcDbEntity
  8
image
100
AcDbCircle
 10
1.357328886343729
 20
6.80003841422731
 30
0.0
 40
0.1065815326392652
100
AcDbArc
 50
323.5307656099477
 51
52.72943909836342
  0
ARC
  5
A64
330
10C1
100
AcDbEntity
  8
image
100
AcDbCircle
 10
1.423766863331417
 20
6.671831920920277
 30
0.0
 40
0.1065815326392652
100
AcDbArc
 50
143.5307656099477
 51
232.7294390983635
  0
ARC
  5
A65
330
10C1
100
AcDbEntity
  8
image
100
AcDbCircle
 10
1.27351293589704
 20
6.650367074143939
 30
0.0
 40
0.1065815326392652
100
AcDbArc
 50
323.5307656099477
 51
52.72943909836342
  0
ARC
  5
A66
330
10C1
100
AcDbEntity
  8
image
100
AcDbCircle
 10
1.298042937661385
 20
6.576042263266919
 30
0.0
 40
0.1065815326392652
100
AcDbArc
 50
143.5307656099477
 51
232.7294390983635
  0
ARC
  5
A67
330
10C1
100
AcDbEntity
  8
image
100
AcDbCircle
 10
1.147789010227009
 20
6.554577416490581
 30
0.0
 40
0.1065815326392652
100
AcDbArc
 50
323.5307656099477
 51
52.72943909836342
  0
ARC
  5
A68
330
10C1
100
AcDbEntity
  8
image
100
AcDbCircle
 10
1.495609106571435
 20
6.56406855606025
 30
0.0
 40
0.1065815326392652
100
AcDbArc
 50
143.5307656099477
 51
232.7294390983635
  0
ARC
  5
A69
330
10C1
100
AcDbEntity
  8
image
100
AcDbCircle
 10
1.345355179137058
 20
6.542603709283911
 30
0.0
 40
0.1065815326392652
100
AcDbArc
 50
323.5307656099477
 51
52.72943909836342
  0
ARC
  5
A6A
330
10C1
100
AcDbEntity
  8
image
100
AcDbCircle
 10
1.603372471431463
 20
6.59998967768026
 30
0.0
 40
0.1065815326392652
100
AcDbArc
 50
143.5307656099477
 51
232.7294390983635
  0
ARC
  5
A6B
330
10C1
100
AcDbEntity
  8
image
100
AcDbCircle
 10
1.453118543997087
 20
6.578524830903919
 30
0.0
 40
0.1065815326392652
100
AcDbArc
 50
323.5307656099477
 51
52.72943909836342
  0
ARC
  5
A6C
330
10C1
100
AcDbEntity
  8
image
100
AcDbCircle
 10
1.699162129084821
 20
6.815516407400314
 30
0.0
 40
0.1065815326392652
100
AcDbArc
 50
143.5307656099477
 51
232.7294390983635
  0
ARC
  5
A6D
330
10C1
100
AcDbEntity
  8
image
100
AcDbCircle
 10
1.548908201650444
 20
6.794051560623974
 30
0.0
 40
0.1065815326392652
100
AcDbArc
 50
323.5307656099477
 51
52.72943909836342
  0
ARC
  5
A70
330
10C1
100
AcDbEntity
  8
image
100
AcDbCircle
 10
1.435740570538088
 20
7.144793355583732
 30
0.0
 40
0.1065815326392652
100
AcDbArc
 50
143.5307656099477
 51
232.7294390983635
  0
ARC
  5
A71
330
10C1
100
AcDbEntity
  8
image
100
AcDbCircle
 10
1.28548664310371
 20
7.123328508807392
 30
0.0
 40
0.1065815326392652
100
AcDbArc
 50
323.5307656099477
 51
52.72943909836342
  0
ARC
  5
A72
330
10C1
100
AcDbEntity
  8
image
100
AcDbCircle
 10
1.519556520984777
 20
7.007095722707028
 30
0.0
 40
0.1065815326392652
100
AcDbArc
 50
143.5307656099477
 51
232.7294390983635
  0
ARC
  5
A73
330
10C1
100
AcDbEntity
  8
image
100
AcDbCircle
 10
1.369302593550398
 20
6.985630875930691
 30
0.0
 40
0.1065815326392652
100
AcDbArc
 50
323.5307656099477
 51
52.72943909836342
  0
ARC
  5
A74
330
10C1
100
AcDbEntity
  8
image
100
AcDbCircle
 10
1.208240133611362
 20
7.066964258740378
 30
0.0
 40
0.1065815326392652
100
AcDbArc
 50
143.5307656099477
 51
232.7294390983635
  0
ARC
  5
A75
330
10C1
100
AcDbEntity
  8
image
100
AcDbCircle
 10
1.057986206176986
 20
7.045499411964038
 30
0.0
 40
0.1065815326392652
100
AcDbArc
 50
323.5307656099477
 51
52.72943909836342
  0
ARC
  5
A76
330
10C1
100
AcDbEntity
  8
image
100
AcDbCircle
 10
1.694605913566497
 20
6.706705171646008
 30
0.0
 40
0.1065815326392652
100
AcDbArc
 50
159.7199718669748
 51
248.9186453553905
  0
ARC
  5
A77
330
10C1
100
AcDbEntity
  8
image
100
AcDbCircle
 10
1.556294739412418
 20
6.644199160249454
 30
0.0
 40
0.1065815326392652
100
AcDbArc
 50
339.7199718669747
 51
68.91864535539045
  0
ARC
  5
A78
330
10C1
100
AcDbEntity
  8
image
100
AcDbCircle
 10
1.592829402309806
 20
6.862363365332715
 30
0.0
 40
0.1065815326392652
100
AcDbArc
 50
159.7199718669748
 51
248.9186453553905
  0
ARC
  5
A79
330
10C1
100
AcDbEntity
  8
image
100
AcDbCircle
 10
1.454518228155725
 20
6.799857353936158
 30
0.0
 40
0.1065815326392652
100
AcDbArc
 50
339.7199718669747
 51
68.91864535539045
  0
ARC
  5
A7A
330
10C1
100
AcDbEntity
  8
image
100
AcDbCircle
 10
1.347368404573076
 20
6.826442243712706
 30
0.0
 40
0.1065815326392652
100
AcDbArc
 50
159.7199718669748
 51
248.9186453553905
  0
ARC
  5
A7B
330
10C1
100
AcDbEntity
  8
image
100
AcDbCircle
 10
1.209057230418995
 20
6.763936232316149
 30
0.0
 40
0.1065815326392652
100
AcDbArc
 50
339.7199718669747
 51
68.91864535539045
  0
ARC
  5
A7C
330
10C1
100
AcDbEntity
  8
image
100
AcDbCircle
 10
1.305460429349732
 20
6.724665732456013
 30
0.0
 40
0.1065815326392652
100
AcDbArc
 50
159.7199718669748
 51
248.9186453553905
  0
ARC
  5
A7D
330
10C1
100
AcDbEntity
  8
image
100
AcDbCircle
 10
1.167149255195651
 20
6.662159721059457
 30
0.0
 40
0.1065815326392652
100
AcDbArc
 50
339.7199718669747
 51
68.91864535539045
  0
ARC
  5
A7E
330
10C1
100
AcDbEntity
  8
image
100
AcDbCircle
 10
1.183960816904644
 20
6.807069792381988
 30
0.0
 40
0.1065815326392652
100
AcDbArc
 50
159.7199718669748
 51
248.9186453553905
  0
ARC
  5
A7F
330
10C1
100
AcDbEntity
  8
image
100
AcDbCircle
 10
1.045649642750563
 20
6.744563780985433
 30
0.0
 40
0.1065815326392652
100
AcDbArc
 50
339.7199718669747
 51
68.91864535539045
  0
ARC
  5
A80
330
10C1
100
AcDbEntity
  8
image
100
AcDbCircle
 10
1.347368404573076
 20
7.00604785181275
 30
0.0
 40
0.1065815326392652
100
AcDbArc
 50
159.7199718669748
 51
248.9186453553905
  0
ARC
  5
A81
330
10C1
100
AcDbEntity
  8
image
100
AcDbCircle
 10
1.209057230418995
 20
6.943541840416195
 30
0.0
 40
0.1065815326392652
100
AcDbArc
 50
339.7199718669747
 51
68.91864535539045
  0
ARC
  5
A82
330
10C1
100
AcDbEntity
  8
image
100
AcDbCircle
 10
1.544934573483127
 20
7.143745484689453
 30
0.0
 40
0.1065815326392652
100
AcDbArc
 50
159.7199718669748
 51
248.9186453553905
  0
ARC
  5
A83
330
10C1
100
AcDbEntity
  8
image
100
AcDbCircle
 10
1.406623399329045
 20
7.081239473292898
 30
0.0
 40
0.1065815326392652
100
AcDbArc
 50
339.7199718669747
 51
68.91864535539045
  0
ARC
  5
A84
330
10C1
100
AcDbEntity
  8
image
100
AcDbCircle
 10
1.455131769433104
 20
6.970126730192742
 30
0.0
 40
0.1065815326392652
100
AcDbArc
 50
159.7199718669748
 51
248.9186453553905
  0
ARC
  5
A85
330
10C1
100
AcDbEntity
  8
image
100
AcDbCircle
 10
1.316820595279024
 20
6.907620718796186
 30
0.0
 40
0.1065815326392652
100
AcDbArc
 50
339.7199718669747
 51
68.91864535539045
  0
ARC
  5
A88
330
10C1
100
AcDbEntity
  8
image
100
AcDbCircle
 10
1.544934573483127
 20
6.682757757232667
 30
0.0
 40
0.1065815326392652
100
AcDbArc
 50
159.7199718669748
 51
248.9186453553905
  0
ARC
  5
A89
330
10C1
100
AcDbEntity
  8
image
100
AcDbCircle
 10
1.406623399329045
 20
6.620251745836114
 30
0.0
 40
0.1065815326392652
100
AcDbArc
 50
339.7199718669747
 51
68.91864535539045
  0
ARC
  5
A8A
330
10C1
100
AcDbEntity
  8
image
100
AcDbCircle
 10
1.580855695103136
 20
6.730652586059347
 30
0.0
 40
0.1065815326392652
100
AcDbArc
 50
159.7199718669748
 51
248.9186453553905
  0
ARC
  5
A8B
330
10C1
100
AcDbEntity
  8
image
100
AcDbCircle
 10
1.442544520949055
 20
6.668146574662793
 30
0.0
 40
0.1065815326392652
100
AcDbArc
 50
339.7199718669747
 51
68.91864535539045
  0
ARC
  5
A8C
330
10C1
100
AcDbEntity
  8
image
100
AcDbCircle
 10
1.281513014936393
 20
7.155719191896122
 30
0.0
 40
0.1065815326392652
100
AcDbArc
 50
159.7199718669748
 51
248.9186453553905
  0
ARC
  5
A8D
330
10C1
100
AcDbEntity
  8
image
100
AcDbCircle
 10
1.143201840782312
 20
7.093213180499567
 30
0.0
 40
0.1065815326392652
100
AcDbArc
 50
339.7199718669747
 51
68.91864535539045
  0
ARC
  5
A8E
330
10C1
100
AcDbEntity
  8
image
100
AcDbCircle
 10
1.269539307729723
 20
6.964139876589407
 30
0.0
 40
0.1065815326392652
100
AcDbArc
 50
159.7199718669748
 51
248.9186453553905
  0
ARC
  5
A8F
330
10C1
100
AcDbEntity
  8
image
100
AcDbCircle
 10
1.131228133575643
 20
6.901633865192851
 30
0.0
 40
0.1065815326392652
100
AcDbArc
 50
339.7199718669747
 51
68.91864535539045
  0
ARC
  5
A90
330
10C1
100
AcDbEntity
  8
image
100
AcDbCircle
 10
1.310998804765626
 20
6.6069734748039
 30
0.0
 40
0.1065815326392652
100
AcDbArc
 50
278.5307656099479
 51
7.729439098363567
  0
ARC
  5
A91
330
10C1
100
AcDbEntity
  8
image
100
AcDbCircle
 10
1.432422314467065
 20
6.51590584252782
 30
0.0
 40
0.1065815326392652
100
AcDbArc
 50
98.53076560994791
 51
187.7294390983636
  0
ARC
  5
A92
330
10C1
100
AcDbEntity
  8
image
100
AcDbCircle
 10
1.077511514235567
 20
6.690789425250588
 30
0.0
 40
0.1065815326392652
100
AcDbArc
 50
278.5307656099479
 51
7.729439098363567
  0
ARC
  5
A93
330
10C1
100
AcDbEntity
  8
image
100
AcDbCircle
 10
1.198935023937006
 20
6.599721792974507
 30
0.0
 40
0.1065815326392652
100
AcDbArc
 50
98.53076560994791
 51
187.7294390983636
  0
ARC
  5
A94
330
10C1
100
AcDbEntity
  8
image
100
AcDbCircle
 10
0.9502228413169575
 20
7.039512558360705
 30
0.0
 40
0.1065815326392652
100
AcDbArc
 50
323.5307656099477
 51
52.72943909836342
  0
ARC
  5
A95
330
10C1
100
AcDbEntity
  8
image
100
AcDbCircle
 10
1.100476768751334
 20
7.060977405137043
 30
0.0
 40
0.1065815326392652
100
AcDbArc
 50
143.5307656099477
 51
232.7294390983635
  0
ARC
  5
A98
330
10C1
100
AcDbEntity
  8
image
100
AcDbCircle
 10
1.298860034469017
 20
6.757949378712816
 30
0.0
 40
0.1065815326392652
100
AcDbArc
 50
339.7199718669747
 51
68.91864535539045
  0
ARC
  5
A99
330
10C1
100
AcDbEntity
  8
image
100
AcDbCircle
 10
1.437171208623098
 20
6.82045539010937
 30
0.0
 40
0.1065815326392652
100
AcDbArc
 50
159.7199718669748
 51
248.9186453553905
  0
ARC
  5
A9A
330
10C1
100
AcDbEntity
  8
image
100
AcDbCircle
 10
1.239156561525608
 20
7.067961202260684
 30
0.0
 40
0.1065815326392652
100
AcDbArc
 50
278.5307656099479
 51
7.729439098363567
  0
ARC
  5
A9B
330
10C1
100
AcDbEntity
  8
image
100
AcDbCircle
 10
1.360580071227046
 20
6.976893569984604
 30
0.0
 40
0.1065815326392652
100
AcDbArc
 50
98.53076560994791
 51
187.7294390983636
  0
ARC
  5
B08
330
10C1
100
AcDbEntity
  8
image
100
AcDbCircle
 10
0.9731922626733155
 20
6.76099893912888
 30
0.0
 40
0.1065815326392652
100
AcDbArc
 50
116.0563205359582
 51
205.254994024374
  0
ARC
  5
B09
330
10C1
100
AcDbEntity
  8
image
100
AcDbCircle
 10
0.8299815998003332
 20
6.811275060658569
 30
0.0
 40
0.1065815326392652
100
AcDbArc
 50
296.0563205359582
 51
25.2549940243739
  0
ARC
  5
B0A
330
10C1
100
AcDbEntity
  8
image
100
AcDbCircle
 10
1.148736828268981
 20
6.834999653124222
 30
0.0
 40
0.1065815326392652
100
AcDbArc
 50
143.5307656099477
 51
232.7294390983635
  0
ARC
  5
B0B
330
10C1
100
AcDbEntity
  8
image
100
AcDbCircle
 10
0.9984829008346039
 20
6.813534806347884
 30
0.0
 40
0.1065815326392652
100
AcDbArc
 50
323.5307656099477
 51
52.72943909836342
  0
ARC
  5
B0C
330
10C1
100
AcDbEntity
  8
image
100
AcDbCircle
 10
1.058602121925579
 20
6.826553038105896
 30
0.0
 40
0.1065815326392652
100
AcDbArc
 50
159.7199718669748
 51
248.9186453553905
  0
ARC
  5
B0D
330
10C1
100
AcDbEntity
  8
image
100
AcDbCircle
 10
0.920290947771498
 20
6.764047026709341
 30
0.0
 40
0.1065815326392652
100
AcDbArc
 50
339.7199718669747
 51
68.91864535539045
  0
ARC
  5
B0E
330
10C1
100
AcDbEntity
  8
image
100
AcDbCircle
 10
1.023012902598949
 20
6.691315166644186
 30
0.0
 40
0.1065815326392652
100
AcDbArc
 50
143.5307656099477
 51
232.7294390983635
  0
ARC
  5
B0F
330
10C1
100
AcDbEntity
  8
image
100
AcDbCircle
 10
0.9930786345822737
 20
6.607499216197497
 30
0.0
 40
0.1065815326392652
100
AcDbArc
 50
143.5307656099477
 51
232.7294390983635
  0
ARC
  5
B10
330
10C1
100
AcDbEntity
  8
image
100
AcDbCircle
 10
0.8428247071478976
 20
6.586034369421159
 30
0.0
 40
0.1065815326392652
100
AcDbArc
 50
323.5307656099477
 51
52.72943909836342
  0
ARC
  5
B11
330
10C1
100
AcDbEntity
  8
image
100
AcDbCircle
 10
1.094855145838966
 20
6.595525508990827
 30
0.0
 40
0.1065815326392652
100
AcDbArc
 50
143.5307656099477
 51
232.7294390983635
  0
ARC
  5
B12
330
10C1
100
AcDbEntity
  8
image
100
AcDbCircle
 10
0.9446012184045901
 20
6.574060662214489
 30
0.0
 40
0.1065815326392652
100
AcDbArc
 50
323.5307656099477
 51
52.72943909836342
  0
ARC
  5
B14
330
10C1
100
AcDbEntity
  8
image
100
AcDbCircle
 10
0.9521528192565007
 20
6.710272670974496
 30
0.0
 40
0.1065815326392652
100
AcDbArc
 50
278.5307656099479
 51
7.729439098363567
  0
ARC
  5
B15
330
10C1
100
AcDbEntity
  8
image
100
AcDbCircle
 10
0.8727589751645712
 20
6.669850319867848
 30
0.0
 40
0.1065815326392652
100
AcDbArc
 50
323.5307656099477
 51
52.72943909836342
  0
ARC
  5
B16
330
10C1
100
AcDbEntity
  8
image
100
AcDbCircle
 10
1.07357632895794
 20
6.619205038698417
 30
0.0
 40
0.1065815326392652
100
AcDbArc
 50
98.53076560994791
 51
187.7294390983636
  0
ARC
  5
B17
330
10C1
100
AcDbEntity
  8
image
100
AcDbCircle
 10
1.008020416469281
 20
6.910262333395836
 30
0.0
 40
0.1065815326392652
100
AcDbArc
 50
116.0563205359582
 51
205.254994024374
  0
ARC
  5
B18
330
10C1
100
AcDbEntity
  8
image
100
AcDbCircle
 10
0.8648097535963003
 20
6.960538454925525
 30
0.0
 40
0.1065815326392652
100
AcDbArc
 50
296.0563205359582
 51
25.2549940243739
  0
ARC
  5
B19
330
10C1
100
AcDbEntity
  8
image
100
AcDbCircle
 10
0.923267683847165
 20
6.90816767540605
 30
0.0
 40
0.1065815326392652
100
AcDbArc
 50
323.5307656099477
 51
52.72943909836342
  0
ARC
  5
B1A
330
10C1
100
AcDbEntity
  8
image
100
AcDbCircle
 10
1.073521611281541
 20
6.929632522182388
 30
0.0
 40
0.1065815326392652
100
AcDbArc
 50
143.5307656099477
 51
232.7294390983635
  0
ARC
  5
B1B
330
10C1
100
AcDbEntity
  8
image
100
AcDbCircle
 10
3.181124972990892
 20
6.769970718896872
 30
0.0
 40
0.1065815326392652
100
AcDbArc
 50
111.0813546446095
 51
200.2800281330253
  0
ARC
  5
B1C
330
10C1
100
AcDbEntity
  8
image
100
AcDbCircle
 10
3.042813798836812
 20
6.832476730293427
 30
0.0
 40
0.1065815326392652
100
AcDbArc
 50
291.0813546446095
 51
20.28002813302522
  0
ARC
  5
B1D
330
10C1
100
AcDbEntity
  8
image
100
AcDbCircle
 10
3.102933019927787
 20
6.819458498535413
 30
0.0
 40
0.1065815326392652
100
AcDbArc
 50
127.2705609016365
 51
216.4692343900523
  0
ARC
  5
B1E
330
10C1
100
AcDbEntity
  8
image
100
AcDbCircle
 10
2.952679092493409
 20
6.840923345311753
 30
0.0
 40
0.1065815326392652
100
AcDbArc
 50
307.2705609016365
 51
36.46923439005223
  0
ARC
  5
B1F
330
10C1
100
AcDbEntity
  8
image
100
AcDbCircle
 10
3.271434320962058
 20
6.8171987528461
 30
0.0
 40
0.1065815326392652
100
AcDbArc
 50
154.7450059756261
 51
243.9436794640418
  0
ARC
  5
B20
330
10C1
100
AcDbEntity
  8
image
100
AcDbCircle
 10
3.128223658089075
 20
6.76692263131641
 30
0.0
 40
0.1065815326392652
100
AcDbArc
 50
334.745005975626
 51
63.94367946404176
  0
ARC
  5
B21
330
10C1
100
AcDbEntity
  8
image
100
AcDbCircle
 10
2.542635787949017
 20
6.787242957397023
 30
0.0
 40
0.1065815326392652
100
AcDbArc
 50
334.745005975626
 51
63.94367946404176
  0
ARC
  5
B22
330
10C1
100
AcDbEntity
  8
image
100
AcDbCircle
 10
2.685846450821999
 20
6.837519078926711
 30
0.0
 40
0.1065815326392652
100
AcDbArc
 50
154.7450059756261
 51
243.9436794640418
  0
ARC
  5
B23
330
10C1
100
AcDbEntity
  8
image
100
AcDbCircle
 10
3.002864963110011
 20
6.747439385592501
 30
0.0
 40
0.1065815326392652
100
AcDbArc
 50
334.745005975626
 51
63.94367946404176
  0
ARC
  5
B24
330
10C1
100
AcDbEntity
  8
image
100
AcDbCircle
 10
3.146075625982992
 20
6.79771550712219
 30
0.0
 40
0.1065815326392652
100
AcDbArc
 50
154.7450059756261
 51
243.9436794640418
  0
ARC
  5
B25
330
10C1
100
AcDbEntity
  8
image
100
AcDbCircle
 10
2.458053128730239
 20
6.739976215879154
 30
0.0
 40
0.1065815326392652
100
AcDbArc
 50
334.745005975626
 51
63.94367946404176
  0
ARC
  5
B26
330
10C1
100
AcDbEntity
  8
image
100
AcDbCircle
 10
2.60126379160322
 20
6.790252337408842
 30
0.0
 40
0.1065815326392652
100
AcDbArc
 50
154.7450059756261
 51
243.9436794640418
  0
ARC
  5
B27
330
10C1
100
AcDbEntity
  8
image
100
AcDbCircle
 10
2.827320397514345
 20
6.821440099587843
 30
0.0
 40
0.1065815326392652
100
AcDbArc
 50
307.2705609016365
 51
36.46923439005223
  0
ARC
  5
B28
330
10C1
100
AcDbEntity
  8
image
100
AcDbCircle
 10
2.977574324948721
 20
6.799975252811504
 30
0.0
 40
0.1065815326392652
100
AcDbArc
 50
127.2705609016365
 51
216.4692343900523
  0
ARC
  5
B29
330
10C1
100
AcDbEntity
  8
image
100
AcDbCircle
 10
2.731530739860987
 20
6.905256050034532
 30
0.0
 40
0.1065815326392652
100
AcDbArc
 50
307.2705609016365
 51
36.46923439005223
  0
ARC
  5
B2A
330
10C1
100
AcDbEntity
  8
image
100
AcDbCircle
 10
2.593833106984285
 20
6.827426953191179
 30
0.0
 40
0.1065815326392652
100
AcDbArc
 50
307.2705609016365
 51
36.46923439005223
  0
ARC
  5
B2B
330
10C1
100
AcDbEntity
  8
image
100
AcDbCircle
 10
2.744087034418662
 20
6.80596210641484
 30
0.0
 40
0.1065815326392652
100
AcDbArc
 50
127.2705609016365
 51
216.4692343900523
  0
ARC
  5
B2C
330
10C1
100
AcDbEntity
  8
image
100
AcDbCircle
 10
2.402253791677569
 20
6.821440099587843
 30
0.0
 40
0.1065815326392652
100
AcDbArc
 50
307.2705609016365
 51
36.46923439005223
  0
ARC
  5
B2D
330
10C1
100
AcDbEntity
  8
image
100
AcDbCircle
 10
2.552507719111945
 20
6.799975252811504
 30
0.0
 40
0.1065815326392652
100
AcDbArc
 50
127.2705609016365
 51
216.4692343900523
  0
ARC
  5
B2E
330
10C1
100
AcDbEntity
  8
image
100
AcDbCircle
 10
2.508586518452585
 20
6.868287057520245
 30
0.0
 40
0.1065815326392652
100
AcDbArc
 50
291.0813546446095
 51
20.28002813302522
  0
ARC
  5
B2F
330
10C1
100
AcDbEntity
  8
image
100
AcDbCircle
 10
2.646897692606666
 20
6.805781046123689
 30
0.0
 40
0.1065815326392652
100
AcDbArc
 50
111.0813546446095
 51
200.2800281330253
  0
ARC
  5
B30
330
10C1
100
AcDbEntity
  8
image
100
AcDbCircle
 10
2.754047516189313
 20
6.832365935900235
 30
0.0
 40
0.1065815326392652
100
AcDbArc
 50
291.0813546446095
 51
20.28002813302522
  0
ARC
  5
B31
330
10C1
100
AcDbEntity
  8
image
100
AcDbCircle
 10
2.892358690343395
 20
6.76985992450368
 30
0.0
 40
0.1065815326392652
100
AcDbArc
 50
111.0813546446095
 51
200.2800281330253
  0
ARC
  5
B32
330
10C1
100
AcDbEntity
  8
image
100
AcDbCircle
 10
2.917455103857747
 20
6.812993484569519
 30
0.0
 40
0.1065815326392652
100
AcDbArc
 50
291.0813546446095
 51
20.28002813302522
  0
ARC
  5
B33
330
10C1
100
AcDbEntity
  8
image
100
AcDbCircle
 10
3.055766278011827
 20
6.750487473172962
 30
0.0
 40
0.1065815326392652
100
AcDbArc
 50
111.0813546446095
 51
200.2800281330253
  0
ARC
  5
B34
330
10C1
100
AcDbEntity
  8
image
100
AcDbCircle
 10
2.802555886293372
 20
6.763873070900346
 30
0.0
 40
0.1065815326392652
100
AcDbArc
 50
111.0813546446095
 51
200.2800281330253
  0
ARC
  5
B35
330
10C1
100
AcDbEntity
  8
image
100
AcDbCircle
 10
2.664244712139292
 20
6.826379082296901
 30
0.0
 40
0.1065815326392652
100
AcDbArc
 50
291.0813546446095
 51
20.28002813302522
  0
ARC
  5
B36
330
10C1
100
AcDbEntity
  8
image
100
AcDbCircle
 10
2.61229209554095
 20
6.68027085817237
 30
0.0
 40
0.1065815326392652
100
AcDbArc
 50
334.745005975626
 51
63.94367946404176
  0
ARC
  5
B37
330
10C1
100
AcDbEntity
  8
image
100
AcDbCircle
 10
2.82790298486535
 20
6.656290766331468
 30
0.0
 40
0.1065815326392652
100
AcDbArc
 50
127.2705609016365
 51
216.4692343900523
  0
ARC
  5
B38
330
10C1
100
AcDbEntity
  8
image
100
AcDbCircle
 10
2.790417115996764
 20
6.612897166991429
 30
0.0
 40
0.1065815326392652
100
AcDbArc
 50
172.2705609016364
 51
261.4692343900521
  0
ARC
  5
B39
330
10C1
100
AcDbEntity
  8
image
100
AcDbCircle
 10
2.668993606295325
 20
6.52182953471535
 30
0.0
 40
0.1065815326392652
100
AcDbArc
 50
352.2705609016364
 51
81.4692343900521
  0
ARC
  5
B3A
330
10C1
100
AcDbEntity
  8
image
100
AcDbCircle
 10
3.027839591804451
 20
6.625128730885948
 30
0.0
 40
0.1065815326392652
100
AcDbArc
 50
352.2705609016364
 51
81.4692343900521
  0
ARC
  5
B3B
330
10C1
100
AcDbEntity
  8
image
100
AcDbCircle
 10
3.149263101505891
 20
6.716196363162026
 30
0.0
 40
0.1065815326392652
100
AcDbArc
 50
172.2705609016364
 51
261.4692343900521
  0
ARC
  5
B3C
330
10C1
100
AcDbEntity
  8
image
100
AcDbCircle
 10
3.1568147023578
 20
6.57998435440202
 30
0.0
 40
0.1065815326392652
100
AcDbArc
 50
127.2705609016365
 51
216.4692343900523
  0
ARC
  5
B3D
330
10C1
100
AcDbEntity
  8
image
100
AcDbCircle
 10
2.953044323184375
 20
6.677755613107808
 30
0.0
 40
0.1065815326392652
100
AcDbArc
 50
307.2705609016365
 51
36.46923439005223
  0
ARC
  5
B3E
330
10C1
100
AcDbEntity
  8
image
100
AcDbCircle
 10
2.982978591201051
 20
6.593939662661119
 30
0.0
 40
0.1065815326392652
100
AcDbArc
 50
307.2705609016365
 51
36.46923439005223
  0
ARC
  5
B3F
330
10C1
100
AcDbEntity
  8
image
100
AcDbCircle
 10
3.133232518635427
 20
6.572474815884779
 30
0.0
 40
0.1065815326392652
100
AcDbArc
 50
127.2705609016365
 51
216.4692343900523
  0
ARC
  5
B40
330
10C1
100
AcDbEntity
  8
image
100
AcDbCircle
 10
3.006560774923424
 20
6.601449201178358
 30
0.0
 40
0.1065815326392652
100
AcDbArc
 50
307.2705609016365
 51
36.46923439005223
  0
ARC
  5
B41
330
10C1
100
AcDbEntity
  8
image
100
AcDbCircle
 10
3.258591213614494
 20
6.591958061608689
 30
0.0
 40
0.1065815326392652
100
AcDbArc
 50
127.2705609016365
 51
216.4692343900523
  0
ARC
  5
B42
330
10C1
100
AcDbEntity
  8
image
100
AcDbCircle
 10
3.108337286180116
 20
6.613422908385027
 30
0.0
 40
0.1065815326392652
100
AcDbArc
 50
307.2705609016365
 51
36.46923439005223
  0
ARC
  5
B43
330
10C1
100
AcDbEntity
  8
image
100
AcDbCircle
 10
3.228656945597819
 20
6.675774012055378
 30
0.0
 40
0.1065815326392652
100
AcDbArc
 50
127.2705609016365
 51
216.4692343900523
  0
ARC
  5
B44
330
10C1
100
AcDbEntity
  8
image
100
AcDbCircle
 10
3.078403018163442
 20
6.697238858831717
 30
0.0
 40
0.1065815326392652
100
AcDbArc
 50
307.2705609016365
 51
36.46923439005223
  0
ARC
  5
B45
330
10C1
100
AcDbEntity
  8
image
100
AcDbCircle
 10
2.726727458013413
 20
6.570811035709936
 30
0.0
 40
0.1065815326392652
100
AcDbArc
 50
334.745005975626
 51
63.94367946404176
  0
ARC
  5
B46
330
10C1
100
AcDbEntity
  8
image
100
AcDbCircle
 10
2.869938120886395
 20
6.621087157239625
 30
0.0
 40
0.1065815326392652
100
AcDbArc
 50
154.7450059756261
 51
243.9436794640418
  0
ARC
  5
B47
330
10C1
100
AcDbEntity
  8
image
100
AcDbCircle
 10
2.881202079944358
 20
6.58196595545445
 30
0.0
 40
0.1065815326392652
100
AcDbArc
 50
307.2705609016365
 51
36.46923439005223
  0
ARC
  5
B48
330
10C1
100
AcDbEntity
  8
image
100
AcDbCircle
 10
3.031456007378735
 20
6.560501108678112
 30
0.0
 40
0.1065815326392652
100
AcDbArc
 50
127.2705609016365
 51
216.4692343900523
  0
ARC
  5
B49
330
10C1
100
AcDbEntity
  8
image
100
AcDbCircle
 10
2.803372983101005
 20
6.58196595545445
 30
0.0
 40
0.1065815326392652
100
AcDbArc
 50
307.2705609016365
 51
36.46923439005223
  0
ARC
  5
B4A
330
10C1
100
AcDbEntity
  8
image
100
AcDbCircle
 10
2.953626910535382
 20
6.560501108678112
 30
0.0
 40
0.1065815326392652
100
AcDbArc
 50
127.2705609016365
 51
216.4692343900523
  0
ARC
  5
B4B
330
10C1
100
AcDbEntity
  8
image
100
AcDbCircle
 10
3.023904406526824
 20
6.696713117438118
 30
0.0
 40
0.1065815326392652
100
AcDbArc
 50
172.2705609016364
 51
261.4692343900521
  0
ARC
  5
B4C
330
10C1
100
AcDbEntity
  8
image
100
AcDbCircle
 10
2.795955491412659
 20
6.730589424643543
 30
0.0
 40
0.1065815326392652
100
AcDbArc
 50
291.0813546446095
 51
20.28002813302522
  0
ARC
  5
B4D
330
10C1
100
AcDbEntity
  8
image
100
AcDbCircle
 10
3.103298250618753
 20
6.656290766331468
 30
0.0
 40
0.1065815326392652
100
AcDbArc
 50
127.2705609016365
 51
216.4692343900523
  0
ARC
  5
B4E
330
10C1
100
AcDbEntity
  8
image
100
AcDbCircle
 10
2.902480896825385
 20
6.605645485162037
 30
0.0
 40
0.1065815326392652
100
AcDbArc
 50
352.2705609016364
 51
81.4692343900521
  0
ARC
  5
B4F
330
10C1
100
AcDbEntity
  8
image
100
AcDbCircle
 10
2.741653809640258
 20
6.675295411696804
 30
0.0
 40
0.1065815326392652
100
AcDbArc
 50
334.745005975626
 51
63.94367946404176
  0
ARC
  5
B50
330
10C1
100
AcDbEntity
  8
image
100
AcDbCircle
 10
2.884864472513238
 20
6.725571533226496
 30
0.0
 40
0.1065815326392652
100
AcDbArc
 50
154.7450059756261
 51
243.9436794640418
  0
ARC
  5
B51
330
10C1
100
AcDbEntity
  8
image
100
AcDbCircle
 10
2.677649057430973
 20
6.677755613107808
 30
0.0
 40
0.1065815326392652
100
AcDbArc
 50
307.2705609016365
 51
36.46923439005223
  0
ARC
  5
B52
330
10C1
100
AcDbEntity
  8
image
100
AcDbCircle
 10
2.934266665566738
 20
6.668083413246987
 30
0.0
 40
0.1065815326392652
100
AcDbArc
 50
111.0813546446095
 51
200.2800281330253
  0
ARC
  5
B53
330
10C1
100
AcDbEntity
  8
image
100
AcDbCircle
 10
2.432188059694243
 20
6.587952809057784
 30
0.0
 40
0.1065815326392652
100
AcDbArc
 50
307.2705609016365
 51
36.46923439005223
  0
ARC
  5
B54
330
10C1
100
AcDbEntity
  8
image
100
AcDbCircle
 10
2.582441987128621
 20
6.566487962281446
 30
0.0
 40
0.1065815326392652
100
AcDbArc
 50
127.2705609016365
 51
216.4692343900523
  0
ARC
  5
B55
330
10C1
100
AcDbEntity
  8
image
100
AcDbCircle
 10
2.570646629434781
 20
6.552845764944694
 30
0.0
 40
0.0852652261114122
100
AcDbArc
 50
307.2705609016365
 51
36.46923439005223
  0
ARC
  5
B56
330
10C1
100
AcDbEntity
  8
image
100
AcDbCircle
 10
2.690849771382283
 20
6.535673887523623
 30
0.0
 40
0.0852652261114122
100
AcDbArc
 50
127.2705609016365
 51
216.4692343900523
  0
ARC
  5
B57
330
10C1
100
AcDbEntity
  8
image
100
AcDbCircle
 10
2.498043449330928
 20
6.605913369867789
 30
0.0
 40
0.1065815326392652
100
AcDbArc
 50
307.2705609016365
 51
36.46923439005223
  0
ARC
  5
B58
330
10C1
100
AcDbEntity
  8
image
100
AcDbCircle
 10
2.648297376765303
 20
6.58444852309145
 30
0.0
 40
0.1065815326392652
100
AcDbArc
 50
127.2705609016365
 51
216.4692343900523
  0
ARC
  5
B59
330
10C1
100
AcDbEntity
  8
image
100
AcDbCircle
 10
2.694792521433345
 20
6.626175438023644
 30
0.0
 40
0.1065815326392652
100
AcDbArc
 50
111.0813546446095
 51
200.2800281330253
  0
ARC
  5
B5A
330
10C1
100
AcDbEntity
  8
image
100
AcDbCircle
 10
2.520560225659254
 20
6.736576278246878
 30
0.0
 40
0.1065815326392652
100
AcDbArc
 50
291.0813546446095
 51
20.28002813302522
  0
ARC
  5
B5B
330
10C1
100
AcDbEntity
  8
image
100
AcDbCircle
 10
2.658871399813335
 20
6.674070266850323
 30
0.0
 40
0.1065815326392652
100
AcDbArc
 50
111.0813546446095
 51
200.2800281330253
  0
ARC
  5
B5C
330
10C1
100
AcDbEntity
  8
image
100
AcDbCircle
 10
2.755502758413931
 20
6.730546979702059
 30
0.0
 40
0.1065815326392652
100
AcDbArc
 50
154.7450059756261
 51
243.9436794640418
  0
ARC
  5
B5D
330
10C1
100
AcDbEntity
  8
image
100
AcDbCircle
 10
2.556481347279262
 20
6.688681449420197
 30
0.0
 40
0.1065815326392652
100
AcDbArc
 50
291.0813546446095
 51
20.28002813302522
  0
ARC
  5
B5E
330
10C1
100
AcDbEntity
  8
image
100
AcDbCircle
 10
2.406810007195892
 20
6.712628863833539
 30
0.0
 40
0.1065815326392652
100
AcDbArc
 50
291.0813546446095
 51
20.28002813302522
  0
ARC
  5
B5F
330
10C1
100
AcDbEntity
  8
image
100
AcDbCircle
 10
2.545121181349973
 20
6.650122852436984
 30
0.0
 40
0.1065815326392652
100
AcDbArc
 50
111.0813546446095
 51
200.2800281330253
  0
ARC
  5
B60
330
10C1
100
AcDbEntity
  8
image
100
AcDbCircle
 10
2.637169348252355
 20
7.016113495273025
 30
0.0
 40
0.1065815326392652
100
AcDbArc
 50
334.745005975626
 51
63.94367946404176
  0
ARC
  5
B61
330
10C1
100
AcDbEntity
  8
image
100
AcDbCircle
 10
2.676972952590603
 20
6.884264163670545
 30
0.0
 40
0.1065815326392652
100
AcDbArc
 50
334.745005975626
 51
63.94367946404176
  0
ARC
  5
B62
330
10C1
100
AcDbEntity
  8
image
100
AcDbCircle
 10
2.820183615463585
 20
6.934540285200235
 30
0.0
 40
0.1065815326392652
100
AcDbArc
 50
154.7450059756261
 51
243.9436794640418
  0
ARC
  5
B63
330
10C1
100
AcDbEntity
  8
image
100
AcDbCircle
 10
2.665675350224303
 20
7.150717047771262
 30
0.0
 40
0.1065815326392652
100
AcDbArc
 50
307.2705609016365
 51
36.46923439005223
  0
ARC
  5
B64
330
10C1
100
AcDbEntity
  8
image
100
AcDbCircle
 10
2.81592927765868
 20
7.129252200994923
 30
0.0
 40
0.1065815326392652
100
AcDbArc
 50
127.2705609016365
 51
216.4692343900523
  0
ARC
  5
B65
330
10C1
100
AcDbEntity
  8
image
100
AcDbCircle
 10
2.646284151329287
 20
6.976050422380272
 30
0.0
 40
0.1065815326392652
100
AcDbArc
 50
291.0813546446095
 51
20.28002813302522
  0
ARC
  5
B66
330
10C1
100
AcDbEntity
  8
image
100
AcDbCircle
 10
2.784595325483368
 20
6.913544410983717
 30
0.0
 40
0.1065815326392652
100
AcDbArc
 50
111.0813546446095
 51
200.2800281330253
  0
ARC
  5
B67
330
10C1
100
AcDbEntity
  8
image
100
AcDbCircle
 10
2.862259359236783
 20
7.073884894448213
 30
0.0
 40
0.1065815326392652
100
AcDbArc
 50
172.2705609016364
 51
261.4692343900521
  0
ARC
  5
B68
330
10C1
100
AcDbEntity
  8
image
100
AcDbCircle
 10
3.178148236915226
 20
6.91409136759358
 30
0.0
 40
0.1065815326392652
100
AcDbArc
 50
127.2705609016365
 51
216.4692343900523
  0
ARC
  5
B69
330
10C1
100
AcDbEntity
  8
image
100
AcDbCircle
 10
2.940671831331497
 20
7.045966174126415
 30
0.0
 40
0.1065815326392652
100
AcDbArc
 50
334.745005975626
 51
63.94367946404176
  0
ARC
  5
B6A
330
10C1
100
AcDbEntity
  8
image
100
AcDbCircle
 10
2.968036809314043
 20
6.896702779859457
 30
0.0
 40
0.1065815326392652
100
AcDbArc
 50
334.745005975626
 51
63.94367946404176
  0
ARC
  5
B6B
330
10C1
100
AcDbEntity
  8
image
100
AcDbCircle
 10
3.111247472187025
 20
6.946978901389146
 30
0.0
 40
0.1065815326392652
100
AcDbArc
 50
154.7450059756261
 51
243.9436794640418
  0
ARC
  5
B6C
330
10C1
100
AcDbEntity
  8
image
100
AcDbCircle
 10
3.151193079445434
 20
7.045436250548235
 30
0.0
 40
0.1065815326392652
100
AcDbArc
 50
127.2705609016365
 51
216.4692343900523
  0
ARC
  5
B6D
330
10C1
100
AcDbEntity
  8
image
100
AcDbCircle
 10
3.000939152011055
 20
7.066901097324573
 30
0.0
 40
0.1065815326392652
100
AcDbArc
 50
307.2705609016365
 51
36.46923439005223
  0
ARC
  5
B6E
330
10C1
100
AcDbEntity
  8
image
100
AcDbCircle
 10
3.02789430948085
 20
6.935556214369918
 30
0.0
 40
0.1065815326392652
100
AcDbArc
 50
307.2705609016365
 51
36.46923439005223
  0
ARC
  5
B6F
330
10C1
100
AcDbEntity
  8
image
100
AcDbCircle
 10
3.236606167166091
 20
6.966462147113055
 30
0.0
 40
0.1065815326392652
100
AcDbArc
 50
154.7450059756261
 51
243.9436794640418
  0
ARC
  5
B70
330
10C1
100
AcDbEntity
  8
image
100
AcDbCircle
 10
3.093395504293108
 20
6.916186025583367
 30
0.0
 40
0.1065815326392652
100
AcDbArc
 50
334.745005975626
 51
63.94367946404176
  0
ARC
  5
B71
330
10C1
100
AcDbEntity
  8
image
100
AcDbCircle
 10
3.083882494204479
 20
7.096242295656105
 30
0.0
 40
0.1065815326392652
100
AcDbArc
 50
154.7450059756261
 51
243.9436794640418
  0
ARC
  5
B72
330
10C1
100
AcDbEntity
  8
image
100
AcDbCircle
 10
2.818773293045612
 20
7.026064388224154
 30
0.0
 40
0.1065815326392652
100
AcDbArc
 50
334.745005975626
 51
63.94367946404176
  0
ARC
  5
B73
330
10C1
100
AcDbEntity
  8
image
100
AcDbCircle
 10
2.961983955918594
 20
7.076340509753842
 30
0.0
 40
0.1065815326392652
100
AcDbArc
 50
154.7450059756261
 51
243.9436794640418
  0
ARC
  5
B74
330
10C1
100
AcDbEntity
  8
image
100
AcDbCircle
 10
2.893175787151028
 20
7.072887950927909
 30
0.0
 40
0.1065815326392652
100
AcDbArc
 50
307.2705609016365
 51
36.46923439005223
  0
ARC
  5
B75
330
10C1
100
AcDbEntity
  8
image
100
AcDbCircle
 10
3.043429714585405
 20
7.051423104151568
 30
0.0
 40
0.1065815326392652
100
AcDbArc
 50
127.2705609016365
 51
216.4692343900523
  0
ARC
  5
B76
330
10C1
100
AcDbEntity
  8
image
100
AcDbCircle
 10
2.819902905825998
 20
7.161642884083653
 30
0.0
 40
0.1065815326392652
100
AcDbArc
 50
291.0813546446095
 51
20.28002813302522
  0
ARC
  5
B77
330
10C1
100
AcDbEntity
  8
image
100
AcDbCircle
 10
2.740835849535343
 20
6.982817262172134
 30
0.0
 40
0.1065815326392652
100
AcDbArc
 50
352.2705609016364
 51
81.4692343900521
  0
ARC
  5
B78
330
10C1
100
AcDbEntity
  8
image
100
AcDbCircle
 10
2.831876613032667
 20
6.970063568776938
 30
0.0
 40
0.1065815326392652
100
AcDbArc
 50
291.0813546446095
 51
20.28002813302522
  0
ARC
  5
B79
330
10C1
100
AcDbEntity
  8
image
100
AcDbCircle
 10
2.970187787186747
 20
6.907557557380382
 30
0.0
 40
0.1065815326392652
100
AcDbArc
 50
111.0813546446095
 51
200.2800281330253
  0
ARC
  5
B7A
330
10C1
100
AcDbEntity
  8
image
100
AcDbCircle
 10
2.893175787151028
 20
6.947164025257876
 30
0.0
 40
0.1065815326392652
100
AcDbArc
 50
307.2705609016365
 51
36.46923439005223
  0
ARC
  5
B7B
330
10C1
100
AcDbEntity
  8
image
100
AcDbCircle
 10
3.043429714585405
 20
6.925699178481537
 30
0.0
 40
0.1065815326392652
100
AcDbArc
 50
127.2705609016365
 51
216.4692343900523
  0
ARC
  5
B7C
330
10C1
100
AcDbEntity
  8
image
100
AcDbCircle
 10
2.881784667295363
 20
6.883791203258194
 30
0.0
 40
0.1065815326392652
100
AcDbArc
 50
127.2705609016365
 51
216.4692343900523
  0
ARC
  5
B7D
330
10C1
100
AcDbEntity
  8
image
100
AcDbCircle
 10
2.754047516189313
 20
7.011971544000281
 30
0.0
 40
0.1065815326392652
100
AcDbArc
 50
291.0813546446095
 51
20.28002813302522
  0
ARC
  5
B7E
330
10C1
100
AcDbEntity
  8
image
100
AcDbCircle
 10
2.892358690343395
 20
6.949465532603725
 30
0.0
 40
0.1065815326392652
100
AcDbArc
 50
111.0813546446095
 51
200.2800281330253
  0
ARC
  5
B7F
330
10C1
100
AcDbEntity
  8
image
100
AcDbCircle
 10
2.958214079980078
 20
7.099136872687098
 30
0.0
 40
0.1065815326392652
100
AcDbArc
 50
111.0813546446095
 51
200.2800281330253
  0
ARC
  5
B80
330
10C1
100
AcDbEntity
  8
image
100
AcDbCircle
 10
2.930720930246935
 20
7.152938273351067
 30
0.0
 40
0.1065815326392652
100
AcDbArc
 50
334.745005975626
 51
63.94367946404176
  0
ARC
  5
B81
330
10C1
100
AcDbEntity
  8
image
100
AcDbCircle
 10
3.073931593119916
 20
7.203214394880755
 30
0.0
 40
0.1065815326392652
100
AcDbArc
 50
154.7450059756261
 51
243.9436794640418
  0
ARC
  5
B82
330
10C1
100
AcDbEntity
  8
image
100
AcDbCircle
 10
2.761465007877661
 20
7.162690754977932
 30
0.0
 40
0.1065815326392652
100
AcDbArc
 50
307.2705609016365
 51
36.46923439005223
  0
ARC
  5
B83
330
10C1
100
AcDbEntity
  8
image
100
AcDbCircle
 10
2.911718935312038
 20
7.141225908201593
 30
0.0
 40
0.1065815326392652
100
AcDbArc
 50
127.2705609016365
 51
216.4692343900523
  0
ARC
  5
B84
330
10C1
100
AcDbEntity
  8
image
100
AcDbCircle
 10
2.780380011125337
 20
7.066389616802713
 30
0.0
 40
0.1065815326392652
100
AcDbArc
 50
154.7450059756261
 51
243.9436794640418
  0
ARC
  5
B85
330
10C1
100
AcDbEntity
  8
image
100
AcDbCircle
 10
2.666257937575309
 20
6.973594007308215
 30
0.0
 40
0.1065815326392652
100
AcDbArc
 50
127.2705609016365
 51
216.4692343900523
  0
ARC
  5
B86
330
10C1
100
AcDbEntity
  8
image
100
AcDbCircle
 10
2.581859399777614
 20
7.013019414894559
 30
0.0
 40
0.1065815326392652
100
AcDbArc
 50
307.2705609016365
 51
36.46923439005223
  0
ARC
  5
B87
330
10C1
100
AcDbEntity
  8
image
100
AcDbCircle
 10
2.732113327211991
 20
6.991554568118221
 30
0.0
 40
0.1065815326392652
100
AcDbArc
 50
127.2705609016365
 51
216.4692343900523
  0
ARC
  5
B88
330
10C1
100
AcDbEntity
  8
image
100
AcDbCircle
 10
2.556481347279262
 20
7.149669176876983
 30
0.0
 40
0.1065815326392652
100
AcDbArc
 50
291.0813546446095
 51
20.28002813302522
  0
ARC
  5
B89
330
10C1
100
AcDbEntity
  8
image
100
AcDbCircle
 10
2.694792521433345
 20
7.087163165480428
 30
0.0
 40
0.1065815326392652
100
AcDbArc
 50
111.0813546446095
 51
200.2800281330253
  0
ARC
  5
B8A
330
10C1
100
AcDbEntity
  8
image
100
AcDbCircle
 10
2.516004010140931
 20
6.995058854084555
 30
0.0
 40
0.1065815326392652
100
AcDbArc
 50
307.2705609016365
 51
36.46923439005223
  0
ARC
  5
B8B
330
10C1
100
AcDbEntity
  8
image
100
AcDbCircle
 10
2.545938278157606
 20
6.935190318051207
 30
0.0
 40
0.1065815326392652
100
AcDbArc
 50
307.2705609016365
 51
36.46923439005223
  0
ARC
  5
B8C
330
10C1
100
AcDbEntity
  8
image
100
AcDbCircle
 10
2.696192205591984
 20
6.913725471274868
 30
0.0
 40
0.1065815326392652
100
AcDbArc
 50
127.2705609016365
 51
216.4692343900523
  0
ARC
  5
B8D
330
10C1
100
AcDbEntity
  8
image
100
AcDbCircle
 10
0.8034306124507326
 20
6.542603709283911
 30
0.0
 40
0.1065815326392652
100
AcDbArc
 50
323.5307656099477
 51
52.72943909836342
  0
ARC
  5
B8E
330
10C1
100
AcDbEntity
  8
image
100
AcDbCircle
 10
1.092432145898077
 20
6.552845764944694
 30
0.0
 40
0.0852652261114122
100
AcDbArc
 50
143.5307656099477
 51
232.7294390983635
  0
ARC
  5
B8F
330
10C1
100
AcDbEntity
  8
image
100
AcDbCircle
 10
0.9146319408556056
 20
6.583172704068874
 30
0.0
 40
0.1065815326392652
100
AcDbArc
 50
278.5307656099479
 51
7.729439098363567
  0
ARC
  5
B90
330
10C1
100
AcDbEntity
  8
image
100
AcDbCircle
 10
1.036055450557044
 20
6.492105071792793
 30
0.0
 40
0.1065815326392652
100
AcDbArc
 50
98.53076560994791
 51
187.7294390983636
  0
ARC
  5
B91
330
10C1
100
AcDbEntity
  8
image
100
AcDbCircle
 10
3.090566226655779
 20
6.488584834713189
 30
0.0
 40
0.1065815326392652
100
AcDbArc
 50
352.2705609016364
 51
81.4692343900521
  0
ARC
  5
B92
330
10C1
100
AcDbEntity
  8
image
100
AcDbCircle
 10
3.211989736357217
 20
6.579652466989267
 30
0.0
 40
0.1065815326392652
100
AcDbArc
 50
172.2705609016364
 51
261.4692343900521
  0
LINE
  5
CA9
330
10C1
100
AcDbEntity
  8
image
100
AcDbLine
 10
2.403896466254497
 20
3.460360415755602
 30
0.0
 11
2.415426007337428
 21
5.859371506777868
 31
0.0
  0
LINE
  5
CAA
330
10C1
100
AcDbEntity
  8
image
100
AcDbLine
 10
1.691202722435311
 20
3.460360415755602
 30
0.0
 11
1.678625774014972
 21
5.975750099823321
 31
0.0
  0
LINE
  5
CAB
330
10C1
100
AcDbEntity
  8
image
100
AcDbLine
 10
1.700984793428906
 20
3.438001396341667
 30
0.0
 11
1.795809568287577
 21
3.438001396341667
 31
0.0
  0
LINE
  5
CAC
330
10C1
100
AcDbEntity
  8
image
100
AcDbLine
 10
1.691202722435311
 20
3.460360415755602
 30
0.0
 11
2.403896466254497
 21
3.460360415755602
 31
0.0
  0
ARC
  5
CAD
330
10C1
100
AcDbEntity
  8
image
100
AcDbCircle
 10
1.707118464166621
 20
3.454004215026234
 30
0.0
 40
0.0171380314671728
100
AcDbArc
 50
158.2299291778305
 51
249.0288262834868
  0
LINE
  5
CAE
330
10C1
100
AcDbEntity
  8
image
100
AcDbLine
 10
1.764149023273273
 20
3.151805947843295
 30
0.0
 11
2.330950165416536
 21
3.151805947843294
 31
0.0
  0
LINE
  5
CAF
330
10C1
100
AcDbEntity
  8
image
100
AcDbLine
 10
1.764149023273273
 20
3.151805947843295
 30
0.0
 11
1.764149023273273
 21
3.438001396341667
 31
0.0
  0
LINE
  5
CB0
330
10C1
100
AcDbEntity
  8
image
100
AcDbLine
 10
2.330950165416535
 20
3.151805947843295
 30
0.0
 11
2.330950165416535
 21
3.438001396341667
 31
0.0
  0
ARC
  5
CB1
330
10C1
100
AcDbEntity
  8
image
100
AcDbCircle
 10
2.387980724523186
 20
3.454004215026234
 30
0.0
 40
0.0171380314671728
100
AcDbArc
 50
290.9711737165133
 51
21.77007082216947
  0
LINE
  5
CB2
330
10C1
100
AcDbEntity
  8
image
100
AcDbLine
 10
2.047549594344906
 20
6.48721266891709
 30
0.0
 11
1.747100270970146
 21
6.487212668917092
 31
0.0
  0
LINE
  5
CB3
330
10C1
100
AcDbEntity
  8
image
100
AcDbLine
 10
1.777087556227662
 20
6.229288992061031
 30
0.0
 11
1.737636439143001
 21
6.229288992061026
 31
0.0
  0
LINE
  5
CB4
330
10C1
100
AcDbEntity
  8
image
100
AcDbLine
 10
2.047549594344904
 20
6.272007107057963
 30
0.0
 11
1.633907735187102
 21
6.272007107057968
 31
0.0
  0
LINE
  5
CB5
330
10C1
100
AcDbEntity
  8
image
100
AcDbLine
 10
1.58639481893249
 20
6.017673261224449
 30
0.0
 11
2.508704369757319
 21
6.017673261224449
 31
0.0
  0
LINE
  5
CB6
330
10C1
100
AcDbEntity
  8
image
100
AcDbLine
 10
1.58639481893249
 20
5.975750099823321
 30
0.0
 11
2.508704369757319
 21
5.975750099823321
 31
0.0
  0
LINE
  5
CB7
330
10C1
100
AcDbEntity
  8
image
100
AcDbLine
 10
1.605862096860379
 20
6.229288992061024
 30
0.0
 11
1.605862096860381
 21
6.017673261224449
 31
0.0
  0
LINE
  5
CB8
330
10C1
100
AcDbEntity
  8
image
100
AcDbLine
 10
1.627286417216135
 20
6.229288992061024
 30
0.0
 11
1.627286417216135
 21
6.017673261224449
 31
0.0
  0
LINE
  5
CB9
330
10C1
100
AcDbEntity
  8
image
100
AcDbLine
 10
1.737636439142997
 20
6.017673261224454
 30
0.0
 11
1.737636439143001
 21
6.229288992061031
 31
0.0
  0
LINE
  5
CBA
330
10C1
100
AcDbEntity
  8
image
100
AcDbLine
 10
1.686861311862625
 20
6.017673261224455
 30
0.0
 11
1.68686131186263
 21
6.229288992061032
 31
0.0
  0
LINE
  5
CBB
330
10C1
100
AcDbEntity
  8
image
100
AcDbLine
 10
1.658020874487544
 20
6.017673261224455
 30
0.0
 11
1.658020874487547
 21
6.229288992061032
 31
0.0
  0
LINE
  5
CBC
330
10C1
100
AcDbEntity
  8
image
100
AcDbLine
 10
1.58639481893249
 20
5.975750099823321
 30
0.0
 11
1.58639481893249
 21
6.216109558523124
 31
0.0
  0
LINE
  5
CBD
330
10C1
100
AcDbEntity
  8
image
100
AcDbLine
 10
1.633907735187102
 20
6.272007107057968
 30
0.0
 11
1.747100270970148
 21
6.487212668917094
 31
0.0
  0
LINE
  5
CBE
330
10C1
100
AcDbEntity
  8
image
100
AcDbLine
 10
1.747100270970148
 20
6.272007107057967
 30
0.0
 11
1.747100270970148
 21
6.487212668917094
 31
0.0
  0
LINE
  5
CBF
330
10C1
100
AcDbEntity
  8
image
100
AcDbLine
 10
1.633907735187102
 20
6.272007107057968
 30
0.0
 11
1.586394818932487
 21
6.216109558523124
 31
0.0
  0
LINE
  5
CC0
330
10C1
100
AcDbEntity
  8
image
100
AcDbLine
 10
1.627286417216135
 20
6.229288992061024
 30
0.0
 11
1.605862096860379
 21
6.229288992061024
 31
0.0
  0
LINE
  5
CC1
330
10C1
100
AcDbEntity
  8
image
100
AcDbLine
 10
1.605862096860377
 20
6.216109558523128
 30
0.0
 11
1.58639481893249
 21
6.216109558523127
 31
0.0
  0
LINE
  5
CC2
330
10C1
100
AcDbEntity
  8
image
100
AcDbLine
 10
1.686861311862627
 20
6.22928899206103
 30
0.0
 11
1.658020874487545
 21
6.229288992061028
 31
0.0
  0
LINE
  5
CC3
330
10C1
100
AcDbEntity
  8
image
100
AcDbLine
 10
1.658020874487545
 20
6.216109558523128
 30
0.0
 11
1.627286417216135
 21
6.216109558523128
 31
0.0
  0
LINE
  5
CC4
330
10C1
100
AcDbEntity
  8
image
100
AcDbLine
 10
1.737636439142999
 20
6.216109558523124
 30
0.0
 11
1.686861311862627
 21
6.216109558523126
 31
0.0
  0
LINE
  5
CC5
330
10C1
100
AcDbEntity
  8
image
100
AcDbLine
 10
2.299088562751675
 20
6.509571688331027
 30
0.0
 11
2.299088562751675
 21
6.487212668917092
 31
0.0
  0
LINE
  5
CC6
330
10C1
100
AcDbEntity
  8
image
100
AcDbLine
 10
1.796010625938133
 20
6.487212668917092
 30
0.0
 11
1.796010625938133
 21
6.509571688331027
 31
0.0
  0
LINE
  5
CC7
330
10C1
100
AcDbEntity
  8
image
100
AcDbLine
 10
2.23139320484806
 20
6.487212668917092
 30
0.0
 11
2.291934058913524
 21
6.272007107057965
 31
0.0
  0
LINE
  5
CC8
330
10C1
100
AcDbEntity
  8
image
100
AcDbLine
 10
2.24551677994176
 20
6.487212668917092
 30
0.0
 11
2.306057634007223
 21
6.272007107057967
 31
0.0
  0
LINE
  5
CC9
330
10C1
100
AcDbEntity
  8
image
100
AcDbLine
 10
2.047549594344902
 20
6.48721266891709
 30
0.0
 11
2.347998917719658
 21
6.487212668917092
 31
0.0
  0
LINE
  5
CCA
330
10C1
100
AcDbEntity
  8
image
100
AcDbLine
 10
2.047549594344904
 20
6.272007107057963
 30
0.0
 11
2.461191453502706
 21
6.272007107057968
 31
0.0
  0
LINE
  5
CCB
330
10C1
100
AcDbEntity
  8
image
100
AcDbLine
 10
2.256880994316894
 20
6.216109558523127
 30
0.0
 11
2.318011632462147
 21
6.216109558523126
 31
0.0
  0
LINE
  5
CCC
330
10C1
100
AcDbEntity
  8
image
100
AcDbLine
 10
1.777087556227659
 20
6.017673261224453
 30
0.0
 11
1.777087556227662
 21
6.229288992061031
 31
0.0
  0
LINE
  5
CCD
330
10C1
100
AcDbEntity
  8
image
100
AcDbLine
 10
1.953921200549046
 20
6.01767326122445
 30
0.0
 11
1.95392120054905
 21
6.229288992061028
 31
0.0
  0
LINE
  5
CCE
330
10C1
100
AcDbEntity
  8
image
100
AcDbLine
 10
1.885875627046342
 20
6.017673261224451
 30
0.0
 11
1.885875627046345
 21
6.229288992061029
 31
0.0
  0
LINE
  5
CCF
330
10C1
100
AcDbEntity
  8
image
100
AcDbLine
 10
1.838218194372912
 20
6.017673261224453
 30
0.0
 11
1.838218194372917
 21
6.22928899206103
 31
0.0
  0
LINE
  5
CD0
330
10C1
100
AcDbEntity
  8
image
100
AcDbLine
 10
2.256880994316896
 20
6.017673261224453
 30
0.0
 11
2.256880994316892
 21
6.22928899206103
 31
0.0
  0
LINE
  5
CD1
330
10C1
100
AcDbEntity
  8
image
100
AcDbLine
 10
2.209223561643467
 20
6.017673261224451
 30
0.0
 11
2.209223561643463
 21
6.229288992061029
 31
0.0
  0
LINE
  5
CD2
330
10C1
100
AcDbEntity
  8
image
100
AcDbLine
 10
2.141177988140762
 20
6.01767326122445
 30
0.0
 11
2.141177988140759
 21
6.229288992061028
 31
0.0
  0
LINE
  5
CD3
330
10C1
100
AcDbEntity
  8
image
100
AcDbLine
 10
2.009818749083891
 20
6.017673261224449
 30
0.0
 11
2.009818749083891
 21
6.229288992061026
 31
0.0
  0
LINE
  5
CD4
330
10C1
100
AcDbEntity
  8
image
100
AcDbLine
 10
2.085280439605924
 20
6.017673261224449
 30
0.0
 11
2.085280439605919
 21
6.229288992061026
 31
0.0
  0
LINE
  5
CD5
330
10C1
100
AcDbEntity
  8
image
100
AcDbLine
 10
2.009818749083889
 20
6.216109558523124
 30
0.0
 11
2.085280439605921
 21
6.216109558523126
 31
0.0
  0
LINE
  5
CD6
330
10C1
100
AcDbEntity
  8
image
100
AcDbLine
 10
1.849582408748052
 20
6.487212668917092
 30
0.0
 11
1.789041554682588
 21
6.272007107057967
 31
0.0
  0
LINE
  5
CD7
330
10C1
100
AcDbEntity
  8
image
100
AcDbLine
 10
1.863705983841752
 20
6.487212668917092
 30
0.0
 11
1.803165129776289
 21
6.272007107057965
 31
0.0
  0
LINE
  5
CD8
330
10C1
100
AcDbEntity
  8
image
100
AcDbLine
 10
1.863705983841752
 20
6.487212668917092
 30
0.0
 11
1.86370598384175
 21
6.272007107057966
 31
0.0
  0
LINE
  5
CD9
330
10C1
100
AcDbEntity
  8
image
100
AcDbLine
 10
1.953921200549046
 20
6.216109558523126
 30
0.0
 11
1.885875627046347
 21
6.216109558523128
 31
0.0
  0
LINE
  5
CDA
330
10C1
100
AcDbEntity
  8
image
100
AcDbLine
 10
1.838218194372915
 20
6.216109558523127
 30
0.0
 11
1.777087556227661
 21
6.216109558523126
 31
0.0
  0
LINE
  5
CDB
330
10C1
100
AcDbEntity
  8
image
100
AcDbLine
 10
1.885875627046345
 20
6.229288992061029
 30
0.0
 11
1.838218194372917
 21
6.229288992061024
 31
0.0
  0
LINE
  5
CDC
330
10C1
100
AcDbEntity
  8
image
100
AcDbLine
 10
2.009818749083889
 20
6.229288992061026
 30
0.0
 11
1.953921200549052
 21
6.229288992061026
 31
0.0
  0
LINE
  5
CDD
330
10C1
100
AcDbEntity
  8
image
100
AcDbLine
 10
2.23139320484806
 20
6.487212668917092
 30
0.0
 11
2.231393204848062
 21
6.272007107057966
 31
0.0
  0
LINE
  5
CDE
330
10C1
100
AcDbEntity
  8
image
100
AcDbLine
 10
2.064318858905356
 20
6.272007107057963
 30
0.0
 11
2.064318858905356
 21
6.48721266891709
 31
0.0
  0
LINE
  5
CDF
330
10C1
100
AcDbEntity
  8
image
100
AcDbLine
 10
2.030780329784452
 20
6.272007107057963
 30
0.0
 11
2.030780329784452
 21
6.48721266891709
 31
0.0
  0
LINE
  5
CE0
330
10C1
100
AcDbEntity
  8
image
100
AcDbLine
 10
2.141177988140762
 20
6.216109558523126
 30
0.0
 11
2.209223561643461
 21
6.216109558523128
 31
0.0
  0
LINE
  5
CE1
330
10C1
100
AcDbEntity
  8
image
100
AcDbLine
 10
2.085280439605919
 20
6.229288992061026
 30
0.0
 11
2.141177988140756
 21
6.229288992061026
 31
0.0
  0
LINE
  5
CE2
330
10C1
100
AcDbEntity
  8
image
100
AcDbLine
 10
2.209223561643463
 20
6.229288992061029
 30
0.0
 11
2.256880994316892
 21
6.229288992061024
 31
0.0
  0
LINE
  5
CE3
330
10C1
100
AcDbEntity
  8
image
100
AcDbLine
 10
2.437078314202265
 20
6.017673261224455
 30
0.0
 11
2.437078314202261
 21
6.229288992061032
 31
0.0
  0
LINE
  5
CE4
330
10C1
100
AcDbEntity
  8
image
100
AcDbLine
 10
2.408237876827183
 20
6.017673261224455
 30
0.0
 11
2.408237876827179
 21
6.229288992061032
 31
0.0
  0
LINE
  5
CE5
330
10C1
100
AcDbEntity
  8
image
100
AcDbLine
 10
2.357462749546811
 20
6.017673261224454
 30
0.0
 11
2.357462749546806
 21
6.229288992061031
 31
0.0
  0
LINE
  5
CE6
330
10C1
100
AcDbEntity
  8
image
100
AcDbLine
 10
2.31801163246215
 20
6.017673261224453
 30
0.0
 11
2.318011632462146
 21
6.229288992061031
 31
0.0
  0
LINE
  5
CE7
330
10C1
100
AcDbEntity
  8
image
100
AcDbLine
 10
2.467812771473674
 20
6.229288992061024
 30
0.0
 11
2.467812771473674
 21
6.017673261224449
 31
0.0
  0
LINE
  5
CE8
330
10C1
100
AcDbEntity
  8
image
100
AcDbLine
 10
2.48923709182943
 20
6.229288992061024
 30
0.0
 11
2.489237091829427
 21
6.017673261224449
 31
0.0
  0
LINE
  5
CE9
330
10C1
100
AcDbEntity
  8
image
100
AcDbLine
 10
2.508704369757319
 20
5.975750099823321
 30
0.0
 11
2.508704369757319
 21
6.216109558523123
 31
0.0
  0
LINE
  5
CEA
330
10C1
100
AcDbEntity
  8
image
100
AcDbLine
 10
2.34799891771966
 20
6.487212668917094
 30
0.0
 11
2.461191453502706
 21
6.272007107057968
 31
0.0
  0
LINE
  5
CEB
330
10C1
100
AcDbEntity
  8
image
100
AcDbLine
 10
2.34799891771966
 20
6.272007107057967
 30
0.0
 11
2.34799891771966
 21
6.487212668917094
 31
0.0
  0
LINE
  5
CEC
330
10C1
100
AcDbEntity
  8
image
100
AcDbLine
 10
2.408237876827181
 20
6.22928899206103
 30
0.0
 11
2.437078314202263
 21
6.229288992061028
 31
0.0
  0
LINE
  5
CED
330
10C1
100
AcDbEntity
  8
image
100
AcDbLine
 10
2.318011632462146
 20
6.229288992061031
 30
0.0
 11
2.357462749546806
 21
6.229288992061026
 31
0.0
  0
LINE
  5
CEE
330
10C1
100
AcDbEntity
  8
image
100
AcDbLine
 10
2.357462749546809
 20
6.216109558523124
 30
0.0
 11
2.408237876827181
 21
6.216109558523126
 31
0.0
  0
LINE
  5
CEF
330
10C1
100
AcDbEntity
  8
image
100
AcDbLine
 10
2.467812771473674
 20
6.229288992061024
 30
0.0
 11
2.48923709182943
 21
6.229288992061024
 31
0.0
  0
LINE
  5
CF0
330
10C1
100
AcDbEntity
  8
image
100
AcDbLine
 10
2.461191453502706
 20
6.272007107057968
 30
0.0
 11
2.508704369757321
 21
6.216109558523124
 31
0.0
  0
LINE
  5
CF1
330
10C1
100
AcDbEntity
  8
image
100
AcDbLine
 10
2.437078314202263
 20
6.216109558523128
 30
0.0
 11
2.467812771473674
 21
6.216109558523128
 31
0.0
  0
LINE
  5
CF2
330
10C1
100
AcDbEntity
  8
image
100
AcDbLine
 10
2.489237091829432
 20
6.216109558523128
 30
0.0
 11
2.508704369757319
 21
6.216109558523127
 31
0.0
  0
LINE
  5
CF3
330
10C1
100
AcDbEntity
  8
image
100
AcDbLine
 10
2.047549594344902
 20
6.509571688331025
 30
0.0
 11
2.299088562751675
 21
6.509571688331027
 31
0.0
  0
LINE
  5
CF4
330
10C1
100
AcDbEntity
  8
image
100
AcDbLine
 10
2.047549594344906
 20
6.509571688331025
 30
0.0
 11
1.796010625938133
 21
6.509571688331027
 31
0.0
  0
LWPOLYLINE
  5
CF5
330
10C1
100
AcDbEntity
  8
image
100
AcDbPolyline
 90
        4
 70
     1
 43
0.0
 10
1.699694537355055
 20
5.859371506777869
 10
1.699694537355055
 20
5.968371726420803
 10
2.390588237245655
 20
5.968371726420803
 10
2.390588237245655
 20
5.859371506777869
  0
LWPOLYLINE
  5
CF6
330
10C1
100
AcDbEntity
  8
image
100
AcDbPolyline
 90
        3
 70
     0
 43
0.0
 10
2.390588237245655
 20
5.968371726420803
 10
2.58622965711759
 20
5.968371726420803
 10
2.58622965711759
 20
5.927846003733046
  0
LWPOLYLINE
  5
CF7
330
10C1
100
AcDbEntity
  8
image
100
AcDbPolyline
 90
        4
 70
     1
 43
0.0
 10
2.488408947181623
 20
5.927846003733046
 10
2.488408947181623
 20
5.899897229465627
 10
2.865717399791781
 20
5.899897229465627
 10
2.865717399791781
 20
5.927846003733046
  0
LWPOLYLINE
  5
CF8
330
10C1
100
AcDbEntity
  8
image
100
AcDbPolyline
 90
        3
 70
     0
 43
0.0
 10
2.58622965711759
 20
5.899897229465627
 10
2.58622965711759
 20
5.859371506777869
 10
2.390588237245655
 20
5.859371506777869
  0
LINE
  5
CF9
330
10C1
100
AcDbEntity
  8
image
100
AcDbLine
 10
2.416407009314214
 20
5.968371726420803
 30
0.0
 11
2.416473414674836
 21
5.975750099823321
 31
0.0
  0
LINE
  5
CFA
330
10C1
100
AcDbEntity
  8
image
100
AcDbLine
 10
2.299133093464279
 20
3.204579161194162
 30
0.0
 11
2.299133093464281
 21
3.460360415755602
 31
0.0
  0
LINE
  5
CFB
330
10C1
100
AcDbEntity
  8
image
100
AcDbLine
 10
2.234728118467635
 20
3.154271367512807
 30
0.0
 11
2.234728118467635
 21
3.438001396341667
 31
0.0
  0
LINE
  5
CFC
330
10C1
100
AcDbEntity
  8
image
100
AcDbLine
 10
2.299133093464279
 20
3.204579161194162
 30
0.0
 11
2.282241034722248
 21
3.204579161194161
 31
0.0
  0
LWPOLYLINE
  5
CFD
330
10C1
100
AcDbEntity
  8
image
100
AcDbPolyline
 90
        2
 70
     0
 43
0.0
 10
1.748497709683521
 20
3.095908399308457
 10
2.34660147900629
 20
3.095908399308457
  0
LWPOLYLINE
  5
CFE
330
10C1
100
AcDbEntity
  8
image
100
AcDbPolyline
 90
        2
 70
     0
 43
0.0
 10
1.748497709683521
 20
3.095908399308457
 10
1.764149023273273
 20
3.151805947843295
  0
LWPOLYLINE
  5
CFF
330
10C1
100
AcDbEntity
  8
image
100
AcDbPolyline
 90
        2
 70
     0
 43
0.0
 10
2.34660147900629
 20
3.095908399308457
 10
2.330950165416536
 20
3.151805947843294
  0
LWPOLYLINE
  5
D00
330
10C1
100
AcDbEntity
  8
image
100
AcDbPolyline
 90
        2
 70
     0
 43
0.0
 10
2.07046758924419
 20
3.095908399308457
 10
2.07046758924419
 20
2.387127483886708
  0
LWPOLYLINE
  5
D01
330
10C1
100
AcDbEntity
  8
image
100
AcDbPolyline
 90
        2
 70
     0
 43
0.0
 10
2.024631599445622
 20
3.095908399308457
 10
2.024631599445622
 20
2.387127483886708
  0
LWPOLYLINE
  5
D02
330
10C1
100
AcDbEntity
  8
image
100
AcDbPolyline
 90
        2
 70
     0
 43
0.0
 10
1.843523542192745
 20
3.095908399308457
 10
2.251575646497065
 20
3.095908399308457
  0
LWPOLYLINE
  5
D03
330
10C1
100
AcDbEntity
  8
image
100
AcDbPolyline
 90
        2
 70
     0
 43
0.0
 10
2.251575646497065
 20
3.095908399308457
 10
2.23116690493039
 20
2.697780948438536
  0
LWPOLYLINE
  5
D04
330
10C1
100
AcDbEntity
  8
image
100
AcDbPolyline
 90
        2
 70
     0
 43
0.0
 10
1.843523542192745
 20
3.095908399308457
 10
1.863932283759422
 20
2.697780948438536
  0
LWPOLYLINE
  5
D05
330
10C1
100
AcDbEntity
  8
image
100
AcDbPolyline
 90
        2
 70
     0
 43
0.0
 10
1.825915814404273
 20
2.341291494088141
 10
2.269183374285539
 20
2.341291494088141
  0
LWPOLYLINE
  5
D06
330
10C1
100
AcDbEntity
  8
image
100
AcDbPolyline
 90
        2
 70
     0
 43
0.0
 10
1.813444378401231
 20
2.387127483886708
 10
2.296877341908904
 20
2.387127483886708
  0
LWPOLYLINE
  5
D07
330
10C1
100
AcDbEntity
  8
image
100
AcDbPolyline
 90
        3
 70
     0
 43
0.0
 10
2.242087416204562
 20
2.910814922217757
 10
2.242087416204562
 20
2.910814922217757
 10
2.34660147900629
 20
3.095908399308457
  0
ARC
  5
D0E
330
10C1
100
AcDbEntity
  8
image
100
AcDbCircle
 10
2.364440181081809
 20
2.866073399716404
 30
0.0
 40
0.657426235489358
100
AcDbArc
 50
159.5372614874052
 51
194.8320667203905
  0
ARC
  5
D1C
330
10C1
100
AcDbEntity
  8
image
100
AcDbCircle
 10
2.575989389030946
 20
2.585146882659014
 30
0.0
 40
0.3535399049847557
100
AcDbArc
 50
169.1090290672645
 51
185.0219351923089
  0
LINE
  5
D1E
330
10C1
100
AcDbEntity
  8
image
100
AcDbLine
 10
2.335948286823663
 20
3.438001396341667
 30
0.0
 11
2.394114395260901
 21
3.438001396341667
 31
0.0
  0
LINE
  5
D1F
330
10C1
100
AcDbEntity
  8
image
100
AcDbLine
 10
1.860214543284218
 20
3.154271367512807
 30
0.0
 11
1.860214543284218
 21
3.438001396341668
 31
0.0
  0
LINE
  5
D20
330
10C1
100
AcDbEntity
  8
image
100
AcDbLine
 10
1.795809568287577
 20
3.204579161194162
 30
0.0
 11
1.795809568287577
 21
3.460360415755602
 31
0.0
  0
LINE
  5
D22
330
10C1
100
AcDbEntity
  8
image
100
AcDbLine
 10
1.795809568287577
 20
3.204579161194162
 30
0.0
 11
1.812701627029605
 21
3.204579161194161
 31
0.0
  0
LINE
  5
D23
330
10C1
100
AcDbEntity
  8
image
100
AcDbLine
 10
2.299133093464279
 20
3.438001396341667
 30
0.0
 11
2.335948286823663
 21
3.438001396341667
 31
0.0
  0
LINE
  5
D24
330
10C1
100
AcDbEntity
  8
image
100
AcDbLine
 10
2.282241034722248
 20
3.204579161194162
 30
0.0
 11
2.282241034722248
 21
3.450115775595628
 31
0.0
  0
LINE
  5
D25
330
10C1
100
AcDbEntity
  8
image
100
AcDbLine
 10
1.812701627029607
 20
3.204579161194162
 30
0.0
 11
1.812701627029607
 21
3.45011577559563
 31
0.0
  0
LINE
  5
D28
330
10C1
100
AcDbEntity
  8
image
100
AcDbLine
 10
2.251620177209665
 20
3.154271367512808
 30
0.0
 11
2.234728118467635
 21
3.154271367512807
 31
0.0
  0
LINE
  5
D29
330
10C1
100
AcDbEntity
  8
image
100
AcDbLine
 10
1.84332248454219
 20
3.154271367512808
 30
0.0
 11
1.860214543284218
 21
3.154271367512807
 31
0.0
  0
LINE
  5
D2A
330
10C1
100
AcDbEntity
  8
image
100
AcDbLine
 10
1.86021454328422
 20
3.438001396341668
 30
0.0
 11
2.234728118467637
 21
3.438001396341667
 31
0.0
  0
ARC
  5
D2B
330
10C1
100
AcDbEntity
  8
image
100
AcDbCircle
 10
1.864734669423222
 20
3.554960098299317
 30
0.0
 40
0.1170460144726449
100
AcDbArc
 50
233.9230091132946
 51
267.7867801058023
  0
ARC
  5
D2C
330
10C1
100
AcDbEntity
  8
image
100
AcDbCircle
 10
2.230207992328635
 20
3.554960098299317
 30
0.0
 40
0.1170460144726449
100
AcDbArc
 50
272.2132198941957
 51
306.0769908867054
  0
CIRCLE
  5
EA8
330
10C1
100
AcDbEntity
  8
text_bubbles
100
AcDbCircle
 10
0.5382963848290605
 20
5.999159874629095
 30
0.0
 40
0.15625
  0
TEXT
  5
EAB
330
10C1
100
AcDbEntity
  8
text_bubbles
100
AcDbText
 10
4.947793607510662
 20
5.582375243653899
 30
0.0
 40
0.125
  1
3
  7
ROMANS
 72
     4
 11
5.007317417034472
 21
5.644875243653899
 31
0.0
100
AcDbText
  0
CIRCLE
  5
EAC
330
10C1
100
AcDbEntity
  8
text_bubbles
100
AcDbCircle
 10
5.007317417034472
 20
5.644875243653899
 30
0.0
 40
0.15625
  0
CIRCLE
  5
EBB
330
10C1
100
AcDbEntity
  8
text_bubbles
100
AcDbCircle
 10
0.5300876479845967
 20
4.910698291955048
 30
0.0
 40
0.15625
  0
TEXT
  5
EBC
330
10C1
100
AcDbEntity
  8
text_bubbles
100
AcDbText
 10
0.4705638384607873
 20
4.848198291955048
 30
0.0
 40
0.125
  1
3
  7
ROMANS
 72
     4
 11
0.5300876479845967
 21
4.910698291955048
 31
0.0
100
AcDbText
  0
TEXT
  5
EC2
330
10C1
100
AcDbEntity
  8
text_bubbles
100
AcDbText
 10
4.944817417034472
 20
3.851004405199849
 30
0.0
 40
0.125
  1
6
  7
ROMANS
 72
     4
 11
5.007317417034472
 21
3.913504405199849
 31
0.0
100
AcDbText
  0
CIRCLE
  5
EC3
330
10C1
100
AcDbEntity
  8
text_bubbles
100
AcDbCircle
 10
5.007317417034472
 20
3.913504405199849
 30
0.0
 40
0.15625
  0
CIRCLE
  5
ECE
330
10C1
100
AcDbEntity
  8
text_bubbles
100
AcDbCircle
 10
5.007317417034472
 20
5.204543616182217
 30
0.0
 40
0.15625
  0
CIRCLE
  5
ECF
330
10C1
100
AcDbEntity
  8
text_bubbles
100
AcDbCircle
 10
5.007317417034472
 20
4.762402914952702
 30
0.0
 40
0.15625
  0
CIRCLE
  5
ED1
330
10C1
100
AcDbEntity
  8
text_bubbles
100
AcDbCircle
 10
4.162795164287159
 20
4.323105310391063
 30
0.0
 40
0.15625
  0
TEXT
  5
ED2
330
10C1
100
AcDbEntity
  8
text_bubbles
100
AcDbText
 10
4.100295164287159
 20
4.260605310391063
 30
0.0
 40
0.125
  1
6
  7
ROMANS
 72
     4
 11
4.162795164287159
 21
4.323105310391063
 31
0.0
100
AcDbText
  0
CIRCLE
  5
ED4
330
10C1
100
AcDbEntity
  8
text_bubbles
100
AcDbCircle
 10
4.162746984740806
 20
6.607071370050098
 30
0.0
 40
0.15625
  0
TEXT
  5
ED5
330
10C1
100
AcDbEntity
  8
text_bubbles
100
AcDbText
 10
4.103223175216997
 20
6.544571370050098
 30
0.0
 40
0.125
  1
5
  7
ROMANS
 72
     4
 11
4.162746984740806
 21
6.607071370050098
 31
0.0
100
AcDbText
  0
TEXT
  5
ED6
330
10C1
100
AcDbEntity
  8
text_bubbles
100
AcDbText
 10
4.947793607510662
 20
4.699902914952702
 30
0.0
 40
0.125
  1
5
  7
ROMANS
 72
     4
 11
5.007317417034472
 21
4.762402914952702
 31
0.0
100
AcDbText
  0
TEXT
  5
ED7
330
10C1
100
AcDbEntity
  8
text_bubbles
100
AcDbText
 10
4.944817417034472
 20
5.142043616182217
 30
0.0
 40
0.125
  1
4
  7
ROMANS
 72
     4
 11
5.007317417034472
 21
5.204543616182217
 31
0.0
100
AcDbText
  0
CIRCLE
  5
EDC
330
10C1
100
AcDbEntity
  8
text_bubbles
100
AcDbCircle
 10
0.5298379315888742
 20
6.592434217149252
 30
0.0
 40
0.15625
  0
TEXT
  5
EDD
330
10C1
100
AcDbEntity
  8
text_bubbles
100
AcDbText
 10
0.478772575305251
 20
5.936659874629095
 30
0.0
 40
0.125
  1
2
  7
ROMANS
 72
     4
 11
0.5382963848290605
 21
5.999159874629095
 31
0.0
100
AcDbText
  0
TEXT
  5
EDE
330
10C1
100
AcDbEntity
  8
text_bubbles
100
AcDbText
 10
0.4792426934936361
 20
6.529934217149252
 30
0.0
 40
0.125
  1
1
  7
ROMANS
 72
     4
 11
0.5298379315888742
 21
6.592434217149252
 31
0.0
100
AcDbText
  0
CIRCLE
  5
EDF
330
10C1
100
AcDbEntity
  8
text_bubbles
100
AcDbCircle
 10
5.007317417034472
 20
6.059982298087117
 30
0.0
 40
0.15625
  0
CIRCLE
  5
EE0
330
10C1
100
AcDbEntity
  8
text_bubbles
100
AcDbCircle
 10
5.007317417034472
 20
6.480720812704074
 30
0.0
 40
0.15625
  0
TEXT
  5
EE1
330
10C1
100
AcDbEntity
  8
text_bubbles
100
AcDbText
 10
4.947793607510662
 20
5.997482298087117
 30
0.0
 40
0.125
  1
2
  7
ROMANS
 72
     4
 11
5.007317417034472
 21
6.059982298087117
 31
0.0
100
AcDbText
  0
TEXT
  5
EE2
330
10C1
100
AcDbEntity
  8
text_bubbles
100
AcDbText
 10
4.956722178939234
 20
6.418220812704074
 30
0.0
 40
0.125
  1
1
  7
ROMANS
 72
     4
 11
5.007317417034472
 21
6.480720812704074
 31
0.0
100
AcDbText
  0
LEADER
  5
1149
330
10C1
100
AcDbEntity
  8
text_bubbles
100
AcDbLeader
  3
STANDARD
 76
     2
 10
0.9211546182521173
 20
6.487347712471947
 30
0.0
 10
0.6521529046424028
 20
6.10616807709972
 30
0.0
  0
LEADER
  5
114A
330
10C1
100
AcDbEntity
  8
text_bubbles
100
AcDbLeader
  3
STANDARD
 76
     2
 10
1.024242718219613
 20
6.726152533585726
 30
0.0
 10
0.6859867176031483
 20
6.586811128472342
 30
0.0
  0
LEADER
  5
114D
330
10C1
100
AcDbEntity
  8
text_bubbles
100
AcDbLeader
  3
STANDARD
 76
     2
 10
2.570996219207269
 20
4.639187101196285
 30
0.0
 10
4.007002049946633
 20
4.335045495652609
 30
0.0
  0
LEADER
  5
114E
330
10C1
100
AcDbEntity
  8
text_bubbles
100
AcDbLeader
  3
STANDARD
 76
     2
 10
1.684914248225141
 20
4.718055257789462
 30
0.0
 10
0.6849878520202579
 20
4.890204651729101
 30
0.0
  0
LEADER
  5
1151
330
10C1
100
AcDbEntity
  8
text_bubbles
100
AcDbLeader
  3
STANDARD
 76
     2
 10
3.733688316705626
 20
6.258358538418477
 30
0.0
 10
4.059683329074204
 20
6.489632256545966
 30
0.0
  0
TEXT
  5
118C
330
10C1
100
AcDbEntity
  8
text_bubbles
100
AcDbText
 10
3.570765386324157
 20
7.092116663764309
 30
0.0
 40
0.125
  1
4
  7
ROMANS
 72
     4
 11
3.633265386324157
 21
7.154616663764309
 31
0.0
100
AcDbText
  0
CIRCLE
  5
118D
330
10C1
100
AcDbEntity
  8
text_bubbles
100
AcDbCircle
 10
3.633265386324157
 20
7.154616663764309
 30
0.0
 40
0.15625
  0
INSERT
  5
11A4
330
10C1
100
AcDbEntity
  8
title
100
AcDbBlockReference
 66
     1
  2
titleblock
 10
-0.4984554492313005
 20
-1.274218755967127
 30
0.0
  0
ATTRIB
  5
11A5
330
11A4
100
AcDbEntity
  8
title
100
AcDbText
 10
0.0071001545710415
 20
-0.48999165948876
 30
0.0
 40
0.2
  1
D
  7
L200
 72
     4
 11
0.1079869212831834
 21
-0.3899916594887599
 31
0.0
100
AcDbAttribute
  2
D
 70
     0
  0
ATTRIB
  5
11A6
330
11A4
100
AcDbEntity
  8
title
100
AcDbText
 10
0.7329869212831837
 20
0.0694935467796234
 30
0.0
 40
0.2
  1
XERI-POP MICRO-SPRAY 4" FROM BARBED
  7
L200
100
AcDbAttribute
  2
TITLE1
 70
     0
  0
ATTRIB
  5
11A7
330
11A4
100
AcDbEntity
  8
title
100
AcDbText
 10
0.7329869212831837
 20
-0.2899916594887597
 30
0.0
 40
0.2
  1
TRANSFER FITTING INTO 1/2" POLYTEHYLENE
  7
L200
100
AcDbAttribute
  2
TITLE2
 70
     0
  0
ATTRIB
  5
11A8
330
11A4
100
AcDbEntity
  8
title
100
AcDbText
 10
2.215190301937012
 20
-0.6814259895088083
 30
0.0
 40
0.2
  1
TUBING - OPTION 3A
  7
L200
100
AcDbAttribute
  2
TITLE3
 70
     0
  0
ATTRIB
  5
11A9
330
11A4
100
AcDbEntity
  8
title
100
AcDbText
 10
2.215190301937012
 20
-1.004962675150353
 30
0.0
 40
0.2
  1

  7
L200
100
AcDbAttribute
  2
TITLE4
 70
     0
  0
ATTRIB
  5
11AA
330
11A4
100
AcDbEntity
  8
title
 62
     7
100
AcDbText
 10
7.194949856925554
 20
-0.3046159644224873
 30
0.0
 40
0.08
  1
1-18-10
  7
L80
 72
     2
 11
7.762568904544602
 21
-0.3046159644224873
 31
0.0
100
AcDbAttribute
  2
REVISED
 70
     0
  0
ATTRIB
  5
11AB
330
11A4
100
AcDbEntity
  8
title
 62
     7
100
AcDbText
 10
-0.2345130787168166
 20
-1.189507107946405
 30
0.0
 40
0.08
  1
Xeri-Pop 4 Option 3A.dwg
  7
L80
100
AcDbAttribute
  2
DWG-NAME
 70
     0
  0
ATTRIB
  5
11AC
330
11A4
100
AcDbEntity
  8
title
 62
     7
100
AcDbText
 10
0.7329869212831837
 20
-0.5736549765716378
 30
0.0
 40
0.1
  1
N.T.S.
  7
L100
100
AcDbAttribute
  2
SCALE
 70
     0
  0
SEQEND
  5
11AD
330
11A4
100
AcDbEntity
  8
title
  0
MTEXT
  5
12DA
102
{ACAD_XDICTIONARY
360
18CE
102
}
330
10C1
100
AcDbEntity
  8
text_bubbles
100
AcDbMText
 10
5.296680084347973
 20
6.53936234323909
 30
0.0
 40
0.125
 41
4.202295919515166
 71
     1
 72
     5
  3
\A1;PLANT MATERIAL \P\PFINISH GRADE \P\P\pi-0.25,l0.25;MICRO-SPRAY POP-UP:\P\pt0.25;^IRAIN BIRD XERI-POP XP-400X\P\pi0,l0,tz;{\H0.7x;\S1#4;\H1.4286x;" BARB TRANSFER CONNECTION:\P\pi-0.25,l0.25,t0.25;^IRAIN BIRD XBF1CONN} \P\pi0,l0,tz;{\Fromans|c0;\H0.7
  3
x;\S1#2;\H1.4286x;" POLYETHYLENE TUBING:\P\pi-0.25,l0.25;  RAIN BIRD XF SERIES TUBING OR\P\pi0,l0;  RAIN BIRD XT-700 XERI-TUBE OR\P  RAIN BIRD XBS BLACK STRIPE TUBING}   \P\pi-0.25,l0.25;{\Fromans|c0;\H0.7x;\S1#4;\H1.4286x;" DISTRIBUTION TUBING:  \P 
  1
 RAIN BIRD XQ TUBING}
  7
SIMPLEX
 73
     1
 44
1.0
  0
MTEXT
  5
1352
330
10C1
100
AcDbEntity
  8
image
100
AcDbMText
 10
0.5208512900660899
 20
1.96712208636801
 30
0.0
 40
0.125
 41
6.504695409496386
 71
     1
 72
     5
  1
NOTE:\P1. RAIN BIRD XERI-POP CAN UTILIZE THE FOLLOWING NOZZLES:\P^ISQ SQUARE SERIES NOZZLES (FORMERLY XPCN)\P^I5 SERIES MPR NOZZLES (ALL CONFIGURATIONS)\P^I5 SERIES PLASTIC BUBBLERS\P^I8 SERIES MPR NOZZLES (8H, 8T AND 8Q)
  7
ROMANS
 73
     1
 44
1.0
  0
LINE
  5
1375
330
10C1
100
AcDbEntity
  8
0
100
AcDbLine
 10
3.317530617119238
 20
6.258923994855968
 30
0.0
 11
3.334363074685926
 21
6.258923994855968
 31
0.0
  0
LINE
  5
1378
330
10C1
100
AcDbEntity
  8
0
100
AcDbLine
 10
3.318278939373242
 20
6.188466592617935
 30
0.0
 11
3.334168496894115
 21
6.188466592617935
 31
0.0
  0
LEADER
  5
137D
330
10C1
100
AcDbEntity
  8
leader
100
AcDbLeader
  3
STANDARD
 76
     2
 10
3.295511269436093
 20
6.268135971541641
 30
0.0
 10
3.575898045535774
 20
7.009278951139989
 30
0.0
1001
ACAD
1000
DSTYLE
1002
{
1070
    44
1040
0.125
1070
   140
1040
0.125
1070
   176
1070
   256
1070
   177
1070
   256
1070
   178
1070
   256
1070
   340
1005
1345
1070
   371
1070
    -1
1070
   372
1070
    -1
1002
}
  0
POLYLINE
  5
1529
330
10C1
100
AcDbEntity
  8
image
100
AcDb2dPolyline
 66
     1
 10
0.0
 20
0.0
 30
0.0
 70
     4
 75
     6
  0
VERTEX
  5
153F
330
1529
100
AcDbEntity
  8
image
100
AcDbVertex
100
AcDb2dVertex
 10
2.575758605864669
 20
5.968371726420803
 30
0.0
 70
    16
  0
VERTEX
  5
1553
330
1529
100
AcDbEntity
  8
image
100
AcDbVertex
100
AcDb2dVertex
 10
2.575758605864669
 20
5.968371726420802
 30
0.0
 70
     8
  0
VERTEX
  5
1554
330
1529
100
AcDbEntity
  8
image
100
AcDbVertex
100
AcDb2dVertex
 10
2.584050255367575
 20
5.991147233307151
 30
0.0
 70
     8
  0
VERTEX
  5
1555
330
1529
100
AcDbEntity
  8
image
100
AcDbVertex
100
AcDb2dVertex
 10
2.593731185648128
 20
6.011425017872155
 30
0.0
 70
     8
  0
VERTEX
  5
1556
330
1529
100
AcDbEntity
  8
image
100
AcDbVertex
100
AcDb2dVertex
 10
2.604659985030502
 20
6.029437892286005
 30
0.0
 70
     8
  0
VERTEX
  5
1557
330
1529
100
AcDbEntity
  8
image
100
AcDbVertex
100
AcDb2dVertex
 10
2.616695241838874
 20
6.045418668718892
 30
0.0
 70
     8
  0
VERTEX
  5
1558
330
1529
100
AcDbEntity
  8
image
100
AcDbVertex
100
AcDb2dVertex
 10
2.629695544397418
 20
6.059600159341004
 30
0.0
 70
     8
  0
VERTEX
  5
1559
330
1529
100
AcDbEntity
  8
image
100
AcDbVertex
100
AcDb2dVertex
 10
2.643519481030311
 20
6.072215176322529
 30
0.0
 70
     8
  0
VERTEX
  5
155A
330
1529
100
AcDbEntity
  8
image
100
AcDbVertex
100
AcDb2dVertex
 10
2.658025640061726
 20
6.08349653183366
 30
0.0
 70
     8
  0
VERTEX
  5
155B
330
1529
100
AcDbEntity
  8
image
100
AcDbVertex
100
AcDb2dVertex
 10
2.673072609815839
 20
6.093677038044586
 30
0.0
 70
     8
  0
VERTEX
  5
155C
330
1529
100
AcDbEntity
  8
image
100
AcDbVertex
100
AcDb2dVertex
 10
2.688533708349004
 20
6.102960627587151
 30
0.0
 70
     8
  0
VERTEX
  5
155D
330
1529
100
AcDbEntity
  8
image
100
AcDbVertex
100
AcDb2dVertex
 10
2.704341172646279
 20
6.111435714939829
 30
0.0
 70
     8
  0
VERTEX
  5
155E
330
1529
100
AcDbEntity
  8
image
100
AcDbVertex
100
AcDb2dVertex
 10
2.720441969424903
 20
6.119161835042747
 30
0.0
 70
     8
  0
VERTEX
  5
155F
330
1529
100
AcDbEntity
  8
image
100
AcDbVertex
100
AcDb2dVertex
 10
2.736783065402112
 20
6.126198522836034
 30
0.0
 70
     8
  0
VERTEX
  5
1560
330
1529
100
AcDbEntity
  8
image
100
AcDbVertex
100
AcDb2dVertex
 10
2.753311427295143
 20
6.13260531325982
 30
0.0
 70
     8
  0
VERTEX
  5
1561
330
1529
100
AcDbEntity
  8
image
100
AcDbVertex
100
AcDb2dVertex
 10
2.769974021821235
 20
6.138441741254232
 30
0.0
 70
     8
  0
VERTEX
  5
1562
330
1529
100
AcDbEntity
  8
image
100
AcDbVertex
100
AcDb2dVertex
 10
2.786717815697624
 20
6.1437673417594
 30
0.0
 70
     8
  0
VERTEX
  5
1563
330
1529
100
AcDbEntity
  8
image
100
AcDbVertex
100
AcDb2dVertex
 10
2.803489775641547
 20
6.148641649715451
 30
0.0
 70
     8
  0
VERTEX
  5
1564
330
1529
100
AcDbEntity
  8
image
100
AcDbVertex
100
AcDb2dVertex
 10
2.820221016360055
 20
6.153116298626104
 30
0.0
 70
     8
  0
VERTEX
  5
1565
330
1529
100
AcDbEntity
  8
image
100
AcDbVertex
100
AcDb2dVertex
 10
2.83677924451945
 20
6.157211316249428
 30
0.0
 70
     8
  0
VERTEX
  5
1566
330
1529
100
AcDbEntity
  8
image
100
AcDbVertex
100
AcDb2dVertex
 10
2.853016314775845
 20
6.160938828907081
 30
0.0
 70
     8
  0
VERTEX
  5
1567
330
1529
100
AcDbEntity
  8
image
100
AcDbVertex
100
AcDb2dVertex
 10
2.868784081785356
 20
6.164310962920722
 30
0.0
 70
     8
  0
VERTEX
  5
1568
330
1529
100
AcDbEntity
  8
image
100
AcDbVertex
100
AcDb2dVertex
 10
2.883934400204098
 20
6.167339844612007
 30
0.0
 70
     8
  0
VERTEX
  5
1569
330
1529
100
AcDbEntity
  8
image
100
AcDbVertex
100
AcDb2dVertex
 10
2.898319124688184
 20
6.170037600302595
 30
0.0
 70
     8
  0
VERTEX
  5
156A
330
1529
100
AcDbEntity
  8
image
100
AcDbVertex
100
AcDb2dVertex
 10
2.91179010989373
 20
6.172416356314145
 30
0.0
 70
     8
  0
VERTEX
  5
156B
330
1529
100
AcDbEntity
  8
image
100
AcDbVertex
100
AcDb2dVertex
 10
2.924199210476851
 20
6.174488238968315
 30
0.0
 70
     8
  0
VERTEX
  5
156C
330
1529
100
AcDbEntity
  8
image
100
AcDbVertex
100
AcDb2dVertex
 10
2.935487546197784
 20
6.176268465708717
 30
0.0
 70
     8
  0
VERTEX
  5
156D
330
1529
100
AcDbEntity
  8
image
100
AcDbVertex
100
AcDb2dVertex
 10
2.945953297233267
 20
6.177784618466785
 30
0.0
 70
     8
  0
VERTEX
  5
156E
330
1529
100
AcDbEntity
  8
image
100
AcDbVertex
100
AcDb2dVertex
 10
2.95598390886416
 20
6.179067370295906
 30
0.0
 70
     8
  0
VERTEX
  5
156F
330
1529
100
AcDbEntity
  8
image
100
AcDbVertex
100
AcDb2dVertex
 10
2.965966826371324
 20
6.180147394249469
 30
0.0
 70
     8
  0
VERTEX
  5
1570
330
1529
100
AcDbEntity
  8
image
100
AcDbVertex
100
AcDb2dVertex
 10
2.97628949503562
 20
6.181055363380862
 30
0.0
 70
     8
  0
VERTEX
  5
1571
330
1529
100
AcDbEntity
  8
image
100
AcDbVertex
100
AcDb2dVertex
 10
2.987339360137908
 20
6.181821950743472
 30
0.0
 70
     8
  0
VERTEX
  5
1572
330
1529
100
AcDbEntity
  8
image
100
AcDbVertex
100
AcDb2dVertex
 10
2.999503866959049
 20
6.182477829390688
 30
0.0
 70
     8
  0
VERTEX
  5
1573
330
1529
100
AcDbEntity
  8
image
100
AcDbVertex
100
AcDb2dVertex
 10
3.013170460779905
 20
6.183053672375898
 30
0.0
 70
     8
  0
VERTEX
  5
1574
330
1529
100
AcDbEntity
  8
image
100
AcDbVertex
100
AcDb2dVertex
 10
3.028579163743479
 20
6.183576219333116
 30
0.0
 70
     8
  0
VERTEX
  5
1575
330
1529
100
AcDbEntity
  8
image
100
AcDbVertex
100
AcDb2dVertex
 10
3.04538030544136
 20
6.184056476218867
 30
0.0
 70
     8
  0
VERTEX
  5
1576
330
1529
100
AcDbEntity
  8
image
100
AcDbVertex
100
AcDb2dVertex
 10
3.063076792327278
 20
6.184501515570302
 30
0.0
 70
     8
  0
VERTEX
  5
1577
330
1529
100
AcDbEntity
  8
image
100
AcDbVertex
100
AcDb2dVertex
 10
3.081171530854963
 20
6.18491840992457
 30
0.0
 70
     8
  0
VERTEX
  5
1578
330
1529
100
AcDbEntity
  8
image
100
AcDbVertex
100
AcDb2dVertex
 10
3.099167427478148
 20
6.185314231818822
 30
0.0
 70
     8
  0
VERTEX
  5
1579
330
1529
100
AcDbEntity
  8
image
100
AcDbVertex
100
AcDb2dVertex
 10
3.116567388650564
 20
6.185696053790211
 30
0.0
 70
     8
  0
VERTEX
  5
157A
330
1529
100
AcDbEntity
  8
image
100
AcDbVertex
100
AcDb2dVertex
 10
3.132874320825942
 20
6.186070948375885
 30
0.0
 70
     8
  0
VERTEX
  5
157B
330
1529
100
AcDbEntity
  8
image
100
AcDbVertex
100
AcDb2dVertex
 10
3.147591130458013
 20
6.186445988112996
 30
0.0
 70
     8
  0
VERTEX
  5
157C
330
1529
100
AcDbEntity
  8
image
100
AcDbVertex
100
AcDb2dVertex
 10
3.160355763841624
 20
6.186819084425794
 30
0.0
 70
     8
  0
VERTEX
  5
157D
330
1529
100
AcDbEntity
  8
image
100
AcDbVertex
100
AcDb2dVertex
 10
3.17134632663609
 20
6.18715150428692
 30
0.0
 70
     8
  0
VERTEX
  5
157E
330
1529
100
AcDbEntity
  8
image
100
AcDbVertex
100
AcDb2dVertex
 10
3.18087596434184
 20
6.187395353556119
 30
0.0
 70
     8
  0
VERTEX
  5
157F
330
1529
100
AcDbEntity
  8
image
100
AcDbVertex
100
AcDb2dVertex
 10
3.189257822459306
 20
6.18750273809313
 30
0.0
 70
     8
  0
VERTEX
  5
1580
330
1529
100
AcDbEntity
  8
image
100
AcDbVertex
100
AcDb2dVertex
 10
3.196805046488917
 20
6.187425763757698
 30
0.0
 70
     8
  0
VERTEX
  5
1581
330
1529
100
AcDbEntity
  8
image
100
AcDbVertex
100
AcDb2dVertex
 10
3.203830781931103
 20
6.187116536409561
 30
0.0
 70
     8
  0
VERTEX
  5
1582
330
1529
100
AcDbEntity
  8
image
100
AcDbVertex
100
AcDb2dVertex
 10
3.210648174286295
 20
6.186527161908465
 30
0.0
 70
     8
  0
VERTEX
  5
1583
330
1529
100
AcDbEntity
  8
image
100
AcDbVertex
100
AcDb2dVertex
 10
3.217570369054922
 20
6.185609746114148
 30
0.0
 70
     8
  0
VERTEX
  5
1584
330
1529
100
AcDbEntity
  8
image
100
AcDbVertex
100
AcDb2dVertex
 10
3.224828490992631
 20
6.184339017196863
 30
0.0
 70
     8
  0
VERTEX
  5
1585
330
1529
100
AcDbEntity
  8
image
100
AcDbVertex
100
AcDb2dVertex
 10
3.232325581875927
 20
6.182780192568898
 30
0.0
 70
     8
  0
VERTEX
  5
1586
330
1529
100
AcDbEntity
  8
image
100
AcDbVertex
100
AcDb2dVertex
 10
3.239882662736532
 20
6.181021111953048
 30
0.0
 70
     8
  0
VERTEX
  5
1587
330
1529
100
AcDbEntity
  8
image
100
AcDbVertex
100
AcDb2dVertex
 10
3.247320754606168
 20
6.179149615072107
 30
0.0
 70
     8
  0
VERTEX
  5
1588
330
1529
100
AcDbEntity
  8
image
100
AcDbVertex
100
AcDb2dVertex
 10
3.254460878516556
 20
6.177253541648874
 30
0.0
 70
     8
  0
VERTEX
  5
1589
330
1529
100
AcDbEntity
  8
image
100
AcDbVertex
100
AcDb2dVertex
 10
3.261124055499417
 20
6.175420731406143
 30
0.0
 70
     8
  0
VERTEX
  5
158A
330
1529
100
AcDbEntity
  8
image
100
AcDbVertex
100
AcDb2dVertex
 10
3.267131306586472
 20
6.173739024066711
 30
0.0
 70
     8
  0
VERTEX
  5
158B
330
1529
100
AcDbEntity
  8
image
100
AcDbVertex
100
AcDb2dVertex
 10
3.272303652809444
 20
6.172296259353374
 30
0.0
 70
     8
  0
VERTEX
  5
158C
330
1529
100
AcDbEntity
  8
image
100
AcDbVertex
100
AcDb2dVertex
 10
3.2765123950264
 20
6.171159379210408
 30
0.0
 70
     8
  0
VERTEX
  5
158D
330
1529
100
AcDbEntity
  8
image
100
AcDbVertex
100
AcDb2dVertex
 10
3.279829953400801
 20
6.170311734468012
 30
0.0
 70
     8
  0
VERTEX
  5
158E
330
1529
100
AcDbEntity
  8
image
100
AcDbVertex
100
AcDb2dVertex
 10
3.282379027922452
 20
6.169715778177867
 30
0.0
 70
     8
  0
VERTEX
  5
158F
330
1529
100
AcDbEntity
  8
image
100
AcDbVertex
100
AcDb2dVertex
 10
3.284282318581159
 20
6.169333963391651
 30
0.0
 70
     8
  0
VERTEX
  5
1590
330
1529
100
AcDbEntity
  8
image
100
AcDbVertex
100
AcDb2dVertex
 10
3.28566252536673
 20
6.169128743161046
 30
0.0
 70
     8
  0
VERTEX
  5
1591
330
1529
100
AcDbEntity
  8
image
100
AcDbVertex
100
AcDb2dVertex
 10
3.28664234826897
 20
6.16906257053773
 30
0.0
 70
     8
  0
VERTEX
  5
1592
330
1529
100
AcDbEntity
  8
image
100
AcDbVertex
100
AcDb2dVertex
 10
3.287344487277686
 20
6.169097898573384
 30
0.0
 70
     8
  0
VERTEX
  5
1593
330
1529
100
AcDbEntity
  8
image
100
AcDbVertex
100
AcDb2dVertex
 10
3.287891642382684
 20
6.169197180319687
 30
0.0
 70
     8
  0
VERTEX
  5
1594
330
1529
100
AcDbEntity
  8
image
100
AcDbVertex
100
AcDb2dVertex
 10
3.288386506488276
 20
6.169329037658349
 30
0.0
 70
     8
  0
VERTEX
  5
1595
330
1529
100
AcDbEntity
  8
image
100
AcDbVertex
100
AcDb2dVertex
 10
3.288851744156795
 20
6.169486767791201
 30
0.0
 70
     8
  0
VERTEX
  5
1596
330
1529
100
AcDbEntity
  8
image
100
AcDbVertex
100
AcDb2dVertex
 10
3.289290012865079
 20
6.169669836750101
 30
0.0
 70
     8
  0
VERTEX
  5
1597
330
1529
100
AcDbEntity
  8
image
100
AcDbVertex
100
AcDb2dVertex
 10
3.289703970089969
 20
6.169877710566908
 30
0.0
 70
     8
  0
VERTEX
  5
1598
330
1529
100
AcDbEntity
  8
image
100
AcDbVertex
100
AcDb2dVertex
 10
3.290096273308302
 20
6.170109855273481
 30
0.0
 70
     8
  0
VERTEX
  5
1599
330
1529
100
AcDbEntity
  8
image
100
AcDbVertex
100
AcDb2dVertex
 10
3.290469579996917
 20
6.170365736901682
 30
0.0
 70
     8
  0
VERTEX
  5
159A
330
1529
100
AcDbEntity
  8
image
100
AcDbVertex
100
AcDb2dVertex
 10
3.290826547632653
 20
6.170644821483367
 30
0.0
 70
     8
  0
VERTEX
  5
159B
330
1529
100
AcDbEntity
  8
image
100
AcDbVertex
100
AcDb2dVertex
 10
3.291169833692348
 20
6.170946575050398
 30
0.0
 70
     8
  0
VERTEX
  5
159C
330
1529
100
AcDbEntity
  8
image
100
AcDbVertex
100
AcDb2dVertex
 10
3.291501740250917
 20
6.171269843379344
 30
0.0
 70
     8
  0
VERTEX
  5
159D
330
1529
100
AcDbEntity
  8
image
100
AcDbVertex
100
AcDb2dVertex
 10
3.291823147775573
 20
6.171610991225617
 30
0.0
 70
     8
  0
VERTEX
  5
159E
330
1529
100
AcDbEntity
  8
image
100
AcDbVertex
100
AcDb2dVertex
 10
3.292134581331606
 20
6.171965763089342
 30
0.0
 70
     8
  0
VERTEX
  5
159F
330
1529
100
AcDbEntity
  8
image
100
AcDbVertex
100
AcDb2dVertex
 10
3.292436565984304
 20
6.17232990347064
 30
0.0
 70
     8
  0
VERTEX
  5
15A0
330
1529
100
AcDbEntity
  8
image
100
AcDbVertex
100
AcDb2dVertex
 10
3.292729626798957
 20
6.172699156869634
 30
0.0
 70
     8
  0
VERTEX
  5
15A1
330
1529
100
AcDbEntity
  8
image
100
AcDbVertex
100
AcDb2dVertex
 10
3.293014288840853
 20
6.173069267786448
 30
0.0
 70
     8
  0
VERTEX
  5
15A2
330
1529
100
AcDbEntity
  8
image
100
AcDbVertex
100
AcDb2dVertex
 10
3.293291077175282
 20
6.173435980721206
 30
0.0
 70
     8
  0
VERTEX
  5
15A3
330
1529
100
AcDbEntity
  8
image
100
AcDbVertex
100
AcDb2dVertex
 10
3.293560516867532
 20
6.17379504017403
 30
0.0
 70
     8
  0
VERTEX
  5
15A4
330
1529
100
AcDbEntity
  8
image
100
AcDbVertex
100
AcDb2dVertex
 10
3.293823329787715
 20
6.174143396102598
 30
0.0
 70
     8
  0
VERTEX
  5
15A5
330
1529
100
AcDbEntity
  8
image
100
AcDbVertex
100
AcDb2dVertex
 10
3.294081025025231
 20
6.174482820294808
 30
0.0
 70
     8
  0
VERTEX
  5
15A6
330
1529
100
AcDbEntity
  8
image
100
AcDbVertex
100
AcDb2dVertex
 10
3.294335308474303
 20
6.174816289996113
 30
0.0
 70
     8
  0
VERTEX
  5
15A7
330
1529
100
AcDbEntity
  8
image
100
AcDbVertex
100
AcDb2dVertex
 10
3.294587886029152
 20
6.175146782451965
 30
0.0
 70
     8
  0
VERTEX
  5
15A8
330
1529
100
AcDbEntity
  8
image
100
AcDbVertex
100
AcDb2dVertex
 10
3.294840463584001
 20
6.175477274907817
 30
0.0
 70
     8
  0
VERTEX
  5
15A9
330
1529
100
AcDbEntity
  8
image
100
AcDbVertex
100
AcDb2dVertex
 10
3.295094747033073
 20
6.175810744609122
 30
0.0
 70
     8
  0
VERTEX
  5
15AA
330
1529
100
AcDbEntity
  8
image
100
AcDbVertex
100
AcDb2dVertex
 10
3.295352442270589
 20
6.176150168801331
 30
0.0
 70
     8
  0
VERTEX
  5
15AB
330
1529
100
AcDbEntity
  8
image
100
AcDbVertex
100
AcDb2dVertex
 10
3.295615255190772
 20
6.1764985247299
 30
0.0
 70
     8
  0
VERTEX
  5
15AC
330
1529
100
AcDbEntity
  8
image
100
AcDbVertex
100
AcDb2dVertex
 10
3.295884642019267
 20
6.176857779249032
 30
0.0
 70
     8
  0
VERTEX
  5
15AD
330
1529
100
AcDbEntity
  8
image
100
AcDbVertex
100
AcDb2dVertex
 10
3.296161060307407
 20
6.17722585764794
 30
0.0
 70
     8
  0
VERTEX
  5
15AE
330
1529
100
AcDbEntity
  8
image
100
AcDbVertex
100
AcDb2dVertex
 10
3.296444717937949
 20
6.177599674824591
 30
0.0
 70
     8
  0
VERTEX
  5
15AF
330
1529
100
AcDbEntity
  8
image
100
AcDbVertex
100
AcDb2dVertex
 10
3.296735822793648
 20
6.177976145676953
 30
0.0
 70
     8
  0
VERTEX
  5
15B0
330
1529
100
AcDbEntity
  8
image
100
AcDbVertex
100
AcDb2dVertex
 10
3.297034582757261
 20
6.17835218510299
 30
0.0
 70
     8
  0
VERTEX
  5
15B1
330
1529
100
AcDbEntity
  8
image
100
AcDbVertex
100
AcDb2dVertex
 10
3.297341205711543
 20
6.178724708000669
 30
0.0
 70
     8
  0
VERTEX
  5
15B2
330
1529
100
AcDbEntity
  8
image
100
AcDbVertex
100
AcDb2dVertex
 10
3.297655899539251
 20
6.179090629267958
 30
0.0
 70
     8
  0
VERTEX
  5
15B3
330
1529
100
AcDbEntity
  8
image
100
AcDbVertex
100
AcDb2dVertex
 10
3.297978872123141
 20
6.179446863802819
 30
0.0
 70
     8
  0
VERTEX
  5
15B4
330
1529
100
AcDbEntity
  8
image
100
AcDbVertex
100
AcDb2dVertex
 10
3.298310101683072
 20
6.179790787646072
 30
0.0
 70
     8
  0
VERTEX
  5
15B5
330
1529
100
AcDbEntity
  8
image
100
AcDbVertex
100
AcDb2dVertex
 10
3.298648647787313
 20
6.180121621409918
 30
0.0
 70
     8
  0
VERTEX
  5
15B6
330
1529
100
AcDbEntity
  8
image
100
AcDbVertex
100
AcDb2dVertex
 10
3.298993340341239
 20
6.180439046849413
 30
0.0
 70
     8
  0
VERTEX
  5
15B7
330
1529
100
AcDbEntity
  8
image
100
AcDbVertex
100
AcDb2dVertex
 10
3.299343009250221
 20
6.180742745719608
 30
0.0
 70
     8
  0
VERTEX
  5
15B8
330
1529
100
AcDbEntity
  8
image
100
AcDbVertex
100
AcDb2dVertex
 10
3.299696484419635
 20
6.181032399775557
 30
0.0
 70
     8
  0
VERTEX
  5
15B9
330
1529
100
AcDbEntity
  8
image
100
AcDbVertex
100
AcDb2dVertex
 10
3.300052595754853
 20
6.181307690772315
 30
0.0
 70
     8
  0
VERTEX
  5
15BA
330
1529
100
AcDbEntity
  8
image
100
AcDbVertex
100
AcDb2dVertex
 10
3.300410173161248
 20
6.181568300464932
 30
0.0
 70
     8
  0
VERTEX
  5
15BB
330
1529
100
AcDbEntity
  8
image
100
AcDbVertex
100
AcDb2dVertex
 10
3.300768046544193
 20
6.181813910608464
 30
0.0
 70
     8
  0
VERTEX
  5
15BC
330
1529
100
AcDbEntity
  8
image
100
AcDbVertex
100
AcDb2dVertex
 10
3.301125559787849
 20
6.182044238029778
 30
0.0
 70
     8
  0
VERTEX
  5
15BD
330
1529
100
AcDbEntity
  8
image
100
AcDbVertex
100
AcDb2dVertex
 10
3.301484112691517
 20
6.182259139843007
 30
0.0
 70
     8
  0
VERTEX
  5
15BE
330
1529
100
AcDbEntity
  8
image
100
AcDbVertex
100
AcDb2dVertex
 10
3.301845619033287
 20
6.182458508234099
 30
0.0
 70
     8
  0
VERTEX
  5
15BF
330
1529
100
AcDbEntity
  8
image
100
AcDbVertex
100
AcDb2dVertex
 10
3.30221199259125
 20
6.182642235389003
 30
0.0
 70
     8
  0
VERTEX
  5
15C0
330
1529
100
AcDbEntity
  8
image
100
AcDbVertex
100
AcDb2dVertex
 10
3.302585147143493
 20
6.182810213493667
 30
0.0
 70
     8
  0
VERTEX
  5
15C1
330
1529
100
AcDbEntity
  8
image
100
AcDbVertex
100
AcDb2dVertex
 10
3.302966996468107
 20
6.182962334734036
 30
0.0
 70
     8
  0
VERTEX
  5
15C2
330
1529
100
AcDbEntity
  8
image
100
AcDbVertex
100
AcDb2dVertex
 10
3.303359454343181
 20
6.183098491296062
 30
0.0
 70
     8
  0
VERTEX
  5
15C3
330
1529
100
AcDbEntity
  8
image
100
AcDbVertex
100
AcDb2dVertex
 10
3.303764434546804
 20
6.183218575365692
 30
0.0
 70
     8
  0
VERTEX
  5
15C4
330
1529
100
AcDbEntity
  8
image
100
AcDbVertex
100
AcDb2dVertex
 10
3.304187219038608
 20
6.18332318567416
 30
0.0
 70
     8
  0
VERTEX
  5
15C5
330
1529
100
AcDbEntity
  8
image
100
AcDbVertex
100
AcDb2dVertex
 10
3.304646562504398
 20
6.183415747133854
 30
0.0
 70
     8
  0
VERTEX
  5
15C6
330
1529
100
AcDbEntity
  8
image
100
AcDbVertex
100
AcDb2dVertex
 10
3.305164587811521
 20
6.18350039120245
 30
0.0
 70
     8
  0
VERTEX
  5
15C7
330
1529
100
AcDbEntity
  8
image
100
AcDbVertex
100
AcDb2dVertex
 10
3.305763417827325
 20
6.183581249337623
 30
0.0
 70
     8
  0
VERTEX
  5
15C8
330
1529
100
AcDbEntity
  8
image
100
AcDbVertex
100
AcDb2dVertex
 10
3.306465175419156
 20
6.183662452997048
 30
0.0
 70
     8
  0
VERTEX
  5
15C9
330
1529
100
AcDbEntity
  8
image
100
AcDbVertex
100
AcDb2dVertex
 10
3.307291983454361
 20
6.1837481336384
 30
0.0
 70
     8
  0
VERTEX
  5
15CA
330
1529
100
AcDbEntity
  8
image
100
AcDbVertex
100
AcDb2dVertex
 10
3.308265964800289
 20
6.183842422719354
 30
0.0
 70
     8
  0
VERTEX
  5
15CB
330
1529
100
AcDbEntity
  8
image
100
AcDbVertex
100
AcDb2dVertex
 10
3.309409242324286
 20
6.183949451697586
 30
0.0
 70
     8
  0
VERTEX
  5
15CC
330
1529
100
AcDbEntity
  8
image
100
AcDbVertex
100
AcDb2dVertex
 10
3.31072638687003
 20
6.184071412310196
 30
0.0
 70
     8
  0
VERTEX
  5
15CD
330
1529
100
AcDbEntity
  8
image
100
AcDbVertex
100
AcDb2dVertex
 10
3.312151761186514
 20
6.184202737411989
 30
0.0
 70
     8
  0
VERTEX
  5
15CE
330
1529
100
AcDbEntity
  8
image
100
AcDbVertex
100
AcDb2dVertex
 10
3.313602175999064
 20
6.184335920137197
 30
0.0
 70
     8
  0
VERTEX
  5
15CF
330
1529
100
AcDbEntity
  8
image
100
AcDbVertex
100
AcDb2dVertex
 10
3.314994442033004
 20
6.18446345362005
 30
0.0
 70
     8
  0
VERTEX
  5
15D0
330
1529
100
AcDbEntity
  8
image
100
AcDbVertex
100
AcDb2dVertex
 10
3.31624537001366
 20
6.184577830994781
 30
0.0
 70
     8
  0
VERTEX
  5
15D1
330
1529
100
AcDbEntity
  8
image
100
AcDbVertex
100
AcDb2dVertex
 10
3.317271770666355
 20
6.18467154539562
 30
0.0
 70
     8
  0
VERTEX
  5
15D2
330
1529
100
AcDbEntity
  8
image
100
AcDbVertex
100
AcDb2dVertex
 10
3.317990454716415
 20
6.184737089956796
 30
0.0
 70
     8
  0
VERTEX
  5
15D3
330
1529
100
AcDbEntity
  8
image
100
AcDbVertex
100
AcDb2dVertex
 10
3.318318232889163
 20
6.184766957812544
 30
0.0
 70
     8
  0
VERTEX
  5
1540
330
1529
100
AcDbEntity
  8
image
100
AcDbVertex
100
AcDb2dVertex
 10
2.595891597568156
 20
6.032643652030801
 30
0.0
 70
    16
  0
VERTEX
  5
1541
330
1529
100
AcDbEntity
  8
image
100
AcDbVertex
100
AcDb2dVertex
 10
2.668812353315853
 20
6.102936100764761
 30
0.0
 70
    16
  0
VERTEX
  5
1542
330
1529
100
AcDbEntity
  8
image
100
AcDbVertex
100
AcDb2dVertex
 10
2.803755025937315
 20
6.152820397544649
 30
0.0
 70
    16
  0
VERTEX
  5
1543
330
1529
100
AcDbEntity
  8
image
100
AcDbVertex
100
AcDb2dVertex
 10
2.93710619678417
 20
6.177632207349353
 30
0.0
 70
    16
  0
VERTEX
  5
1544
330
1529
100
AcDbEntity
  8
image
100
AcDbVertex
100
AcDb2dVertex
 10
2.993015449787109
 20
6.183580206867826
 30
0.0
 70
    16
  0
VERTEX
  5
1545
330
1529
100
AcDbEntity
  8
image
100
AcDbVertex
100
AcDb2dVertex
 10
3.169854768746821
 20
6.186368999434728
 30
0.0
 70
    16
  0
VERTEX
  5
1546
330
1529
100
AcDbEntity
  8
image
100
AcDbVertex
100
AcDb2dVertex
 10
3.213112257973684
 20
6.189619724071238
 30
0.0
 70
    16
  0
VERTEX
  5
1547
330
1529
100
AcDbEntity
  8
image
100
AcDbVertex
100
AcDb2dVertex
 10
3.283118413687976
 20
6.168810580965208
 30
0.0
 70
    16
  0
VERTEX
  5
1548
330
1529
100
AcDbEntity
  8
image
100
AcDbVertex
100
AcDb2dVertex
 10
3.288236004131074
 20
6.168915508188174
 30
0.0
 70
    16
  0
VERTEX
  5
1549
330
1529
100
AcDbEntity
  8
image
100
AcDbVertex
100
AcDb2dVertex
 10
3.291287424083833
 20
6.170710468200217
 30
0.0
 70
    16
  0
VERTEX
  5
154A
330
1529
100
AcDbEntity
  8
image
100
AcDbVertex
100
AcDb2dVertex
 10
3.293633301687685
 20
6.173922069313344
 30
0.0
 70
    16
  0
VERTEX
  5
154B
330
1529
100
AcDbEntity
  8
image
100
AcDbVertex
100
AcDb2dVertex
 10
3.295542470370619
 20
6.176371495590585
 30
0.0
 70
    16
  0
VERTEX
  5
154C
330
1529
100
AcDbEntity
  8
image
100
AcDbVertex
100
AcDb2dVertex
 10
3.297888347974472
 20
6.179583096703713
 30
0.0
 70
    16
  0
VERTEX
  5
154D
330
1529
100
AcDbEntity
  8
image
100
AcDbVertex
100
AcDb2dVertex
 10
3.300777370470341
 20
6.181977300411482
 30
0.0
 70
    16
  0
VERTEX
  5
154E
330
1529
100
AcDbEntity
  8
image
100
AcDbVertex
100
AcDb2dVertex
 10
3.303610449409327
 20
6.183391165301143
 30
0.0
 70
    16
  0
VERTEX
  5
154F
330
1529
100
AcDbEntity
  8
image
100
AcDbVertex
100
AcDb2dVertex
 10
3.307367439173176
 20
6.183769490578093
 30
0.0
 70
    16
  0
VERTEX
  5
1550
330
1529
100
AcDbEntity
  8
image
100
AcDbVertex
100
AcDb2dVertex
 10
3.318039311620183
 20
6.184741551907364
 30
0.0
 70
    16
  0
VERTEX
  5
1551
330
1529
100
AcDbEntity
  8
image
100
AcDbVertex
100
AcDb2dVertex
 10
3.318318232889163
 20
6.184766957812544
 30
0.0
 70
    16
  0
SEQEND
  5
1552
330
1529
100
AcDbEntity
  8
image
  0
POLYLINE
  5
1662
330
10C1
100
AcDbEntity
  8
image
100
AcDb2dPolyline
 66
     1
 10
0.0
 20
0.0
 30
0.0
 70
     4
 75
     6
  0
VERTEX
  5
1677
330
1662
100
AcDbEntity
  8
image
100
AcDbVertex
100
AcDb2dVertex
 10
2.509832537446802
 20
5.968371726420803
 30
0.0
 70
    16
  0
VERTEX
  5
1684
330
1662
100
AcDbEntity
  8
image
100
AcDbVertex
100
AcDb2dVertex
 10
2.509832537446802
 20
5.968371726420802
 30
0.0
 70
     8
  0
VERTEX
  5
1685
330
1662
100
AcDbEntity
  8
image
100
AcDbVertex
100
AcDb2dVertex
 10
2.522044786136296
 20
6.003068358600356
 30
0.0
 70
     8
  0
VERTEX
  5
1686
330
1662
100
AcDbEntity
  8
image
100
AcDbVertex
100
AcDb2dVertex
 10
2.535693926109928
 20
6.033289866093938
 30
0.0
 70
     8
  0
VERTEX
  5
1687
330
1662
100
AcDbEntity
  8
image
100
AcDbVertex
100
AcDb2dVertex
 10
2.550540909200396
 20
6.059476943767728
 30
0.0
 70
     8
  0
VERTEX
  5
1688
330
1662
100
AcDbEntity
  8
image
100
AcDbVertex
100
AcDb2dVertex
 10
2.566346687240395
 20
6.0820702864879
 30
0.0
 70
     8
  0
VERTEX
  5
1689
330
1662
100
AcDbEntity
  8
image
100
AcDbVertex
100
AcDb2dVertex
 10
2.582872212062623
 20
6.101510589120633
 30
0.0
 70
     8
  0
VERTEX
  5
168A
330
1662
100
AcDbEntity
  8
image
100
AcDbVertex
100
AcDb2dVertex
 10
2.599878435499774
 20
6.118238546532103
 30
0.0
 70
     8
  0
VERTEX
  5
168B
330
1662
100
AcDbEntity
  8
image
100
AcDbVertex
100
AcDb2dVertex
 10
2.617126309384546
 20
6.132694853588488
 30
0.0
 70
     8
  0
VERTEX
  5
168C
330
1662
100
AcDbEntity
  8
image
100
AcDbVertex
100
AcDb2dVertex
 10
2.634376785549634
 20
6.145320205155964
 30
0.0
 70
     8
  0
VERTEX
  5
168D
330
1662
100
AcDbEntity
  8
image
100
AcDbVertex
100
AcDb2dVertex
 10
2.651437620609752
 20
6.156503758324237
 30
0.0
 70
     8
  0
VERTEX
  5
168E
330
1662
100
AcDbEntity
  8
image
100
AcDbVertex
100
AcDb2dVertex
 10
2.668303790307687
 20
6.166428519077132
 30
0.0
 70
     8
  0
VERTEX
  5
168F
330
1662
100
AcDbEntity
  8
image
100
AcDbVertex
100
AcDb2dVertex
 10
2.685017075168238
 20
6.175225955621997
 30
0.0
 70
     8
  0
VERTEX
  5
1690
330
1662
100
AcDbEntity
  8
image
100
AcDbVertex
100
AcDb2dVertex
 10
2.701619255716212
 20
6.183027536166188
 30
0.0
 70
     8
  0
VERTEX
  5
1691
330
1662
100
AcDbEntity
  8
image
100
AcDbVertex
100
AcDb2dVertex
 10
2.718152112476408
 20
6.189964728917055
 30
0.0
 70
     8
  0
VERTEX
  5
1692
330
1662
100
AcDbEntity
  8
image
100
AcDbVertex
100
AcDb2dVertex
 10
2.734657425973631
 20
6.196169002081951
 30
0.0
 70
     8
  0
VERTEX
  5
1693
330
1662
100
AcDbEntity
  8
image
100
AcDbVertex
100
AcDb2dVertex
 10
2.751176976732682
 20
6.201771823868228
 30
0.0
 70
     8
  0
VERTEX
  5
1694
330
1662
100
AcDbEntity
  8
image
100
AcDbVertex
100
AcDb2dVertex
 10
2.767752545278366
 20
6.206904662483238
 30
0.0
 70
     8
  0
VERTEX
  5
1695
330
1662
100
AcDbEntity
  8
image
100
AcDbVertex
100
AcDb2dVertex
 10
2.784399980200147
 20
6.211677900573953
 30
0.0
 70
     8
  0
VERTEX
  5
1696
330
1662
100
AcDbEntity
  8
image
100
AcDbVertex
100
AcDb2dVertex
 10
2.801031402346145
 20
6.216117578545832
 30
0.0
 70
     8
  0
VERTEX
  5
1697
330
1662
100
AcDbEntity
  8
image
100
AcDbVertex
100
AcDb2dVertex
 10
2.817533000629143
 20
6.220228651243949
 30
0.0
 70
     8
  0
VERTEX
  5
1698
330
1662
100
AcDbEntity
  8
image
100
AcDbVertex
100
AcDb2dVertex
 10
2.833790963961924
 20
6.224016073513384
 30
0.0
 70
     8
  0
VERTEX
  5
1699
330
1662
100
AcDbEntity
  8
image
100
AcDbVertex
100
AcDb2dVertex
 10
2.849691481257271
 20
6.227484800199213
 30
0.0
 70
     8
  0
VERTEX
  5
169A
330
1662
100
AcDbEntity
  8
image
100
AcDbVertex
100
AcDb2dVertex
 10
2.865120741427967
 20
6.230639786146512
 30
0.0
 70
     8
  0
VERTEX
  5
169B
330
1662
100
AcDbEntity
  8
image
100
AcDbVertex
100
AcDb2dVertex
 10
2.879964933386794
 20
6.23348598620036
 30
0.0
 70
     8
  0
VERTEX
  5
169C
330
1662
100
AcDbEntity
  8
image
100
AcDbVertex
100
AcDb2dVertex
 10
2.894110246046535
 20
6.236028355205834
 30
0.0
 70
     8
  0
VERTEX
  5
169D
330
1662
100
AcDbEntity
  8
image
100
AcDbVertex
100
AcDb2dVertex
 10
2.907509157735284
 20
6.238275057245427
 30
0.0
 70
     8
  0
VERTEX
  5
169E
330
1662
100
AcDbEntity
  8
image
100
AcDbVertex
100
AcDb2dVertex
 10
2.920379304442375
 20
6.240247093351303
 30
0.0
 70
     8
  0
VERTEX
  5
169F
330
1662
100
AcDbEntity
  8
image
100
AcDbVertex
100
AcDb2dVertex
 10
2.933004611572453
 20
6.24196867379304
 30
0.0
 70
     8
  0
VERTEX
  5
16A0
330
1662
100
AcDbEntity
  8
image
100
AcDbVertex
100
AcDb2dVertex
 10
2.945669004530163
 20
6.243464008840217
 30
0.0
 70
     8
  0
VERTEX
  5
16A1
330
1662
100
AcDbEntity
  8
image
100
AcDbVertex
100
AcDb2dVertex
 10
2.958656408720151
 20
6.244757308762414
 30
0.0
 70
     8
  0
VERTEX
  5
16A2
330
1662
100
AcDbEntity
  8
image
100
AcDbVertex
100
AcDb2dVertex
 10
2.97225074954706
 20
6.245872783829209
 30
0.0
 70
     8
  0
VERTEX
  5
16A3
330
1662
100
AcDbEntity
  8
image
100
AcDbVertex
100
AcDb2dVertex
 10
2.986735952415536
 20
6.246834644310182
 30
0.0
 70
     8
  0
VERTEX
  5
16A4
330
1662
100
AcDbEntity
  8
image
100
AcDbVertex
100
AcDb2dVertex
 10
3.002395942730224
 20
6.247667100474912
 30
0.0
 70
     8
  0
VERTEX
  5
16A5
330
1662
100
AcDbEntity
  8
image
100
AcDbVertex
100
AcDb2dVertex
 10
3.0194081934166
 20
6.248396838590371
 30
0.0
 70
     8
  0
VERTEX
  5
16A6
330
1662
100
AcDbEntity
  8
image
100
AcDbVertex
100
AcDb2dVertex
 10
3.037524367483467
 20
6.249060448913107
 30
0.0
 70
     8
  0
VERTEX
  5
16A7
330
1662
100
AcDbEntity
  8
image
100
AcDbVertex
100
AcDb2dVertex
 10
3.056389675460461
 20
6.249696997697063
 30
0.0
 70
     8
  0
VERTEX
  5
16A8
330
1662
100
AcDbEntity
  8
image
100
AcDbVertex
100
AcDb2dVertex
 10
3.075649327877216
 20
6.25034555119618
 30
0.0
 70
     8
  0
VERTEX
  5
16A9
330
1662
100
AcDbEntity
  8
image
100
AcDbVertex
100
AcDb2dVertex
 10
3.094948535263366
 20
6.251045175664398
 30
0.0
 70
     8
  0
VERTEX
  5
16AA
330
1662
100
AcDbEntity
  8
image
100
AcDbVertex
100
AcDb2dVertex
 10
3.113932508148548
 20
6.251834937355662
 30
0.0
 70
     8
  0
VERTEX
  5
16AB
330
1662
100
AcDbEntity
  8
image
100
AcDbVertex
100
AcDb2dVertex
 10
3.132246457062395
 20
6.25275390252391
 30
0.0
 70
     8
  0
VERTEX
  5
16AC
330
1662
100
AcDbEntity
  8
image
100
AcDbVertex
100
AcDb2dVertex
 10
3.149535592534542
 20
6.253841137423086
 30
0.0
 70
     8
  0
VERTEX
  5
16AD
330
1662
100
AcDbEntity
  8
image
100
AcDbVertex
100
AcDb2dVertex
 10
3.165514568918508
 20
6.255122551260579
 30
0.0
 70
     8
  0
VERTEX
  5
16AE
330
1662
100
AcDbEntity
  8
image
100
AcDbVertex
100
AcDb2dVertex
 10
3.180175815863344
 20
6.256571425057571
 30
0.0
 70
     8
  0
VERTEX
  5
16AF
330
1662
100
AcDbEntity
  8
image
100
AcDbVertex
100
AcDb2dVertex
 10
3.193581206841987
 20
6.258147882788694
 30
0.0
 70
     8
  0
VERTEX
  5
16B0
330
1662
100
AcDbEntity
  8
image
100
AcDbVertex
100
AcDb2dVertex
 10
3.205792615327369
 20
6.259812048428577
 30
0.0
 70
     8
  0
VERTEX
  5
16B1
330
1662
100
AcDbEntity
  8
image
100
AcDbVertex
100
AcDb2dVertex
 10
3.216871914792428
 20
6.261524045951852
 30
0.0
 70
     8
  0
VERTEX
  5
16B2
330
1662
100
AcDbEntity
  8
image
100
AcDbVertex
100
AcDb2dVertex
 10
3.226880978710099
 20
6.263243999333148
 30
0.0
 70
     8
  0
VERTEX
  5
16B3
330
1662
100
AcDbEntity
  8
image
100
AcDbVertex
100
AcDb2dVertex
 10
3.235881680553316
 20
6.264932032547097
 30
0.0
 70
     8
  0
VERTEX
  5
16B4
330
1662
100
AcDbEntity
  8
image
100
AcDbVertex
100
AcDb2dVertex
 10
3.243935893795015
 20
6.266548269568328
 30
0.0
 70
     8
  0
VERTEX
  5
16B5
330
1662
100
AcDbEntity
  8
image
100
AcDbVertex
100
AcDb2dVertex
 10
3.251104154044981
 20
6.268058582759699
 30
0.0
 70
     8
  0
VERTEX
  5
16B6
330
1662
100
AcDbEntity
  8
image
100
AcDbVertex
100
AcDb2dVertex
 10
3.257441645460405
 20
6.269451838036972
 30
0.0
 70
     8
  0
VERTEX
  5
16B7
330
1662
100
AcDbEntity
  8
image
100
AcDbVertex
100
AcDb2dVertex
 10
3.263002214335325
 20
6.27072264970413
 30
0.0
 70
     8
  0
VERTEX
  5
16B8
330
1662
100
AcDbEntity
  8
image
100
AcDbVertex
100
AcDb2dVertex
 10
3.267839706963782
 20
6.271865632065163
 30
0.0
 70
     8
  0
VERTEX
  5
16B9
330
1662
100
AcDbEntity
  8
image
100
AcDbVertex
100
AcDb2dVertex
 10
3.272007969639815
 20
6.272875399424058
 30
0.0
 70
     8
  0
VERTEX
  5
16BA
330
1662
100
AcDbEntity
  8
image
100
AcDbVertex
100
AcDb2dVertex
 10
3.275560848657465
 20
6.273746566084799
 30
0.0
 70
     8
  0
VERTEX
  5
16BB
330
1662
100
AcDbEntity
  8
image
100
AcDbVertex
100
AcDb2dVertex
 10
3.27855219031077
 20
6.274473746351375
 30
0.0
 70
     8
  0
VERTEX
  5
16BC
330
1662
100
AcDbEntity
  8
image
100
AcDbVertex
100
AcDb2dVertex
 10
3.281035840893772
 20
6.275051554527773
 30
0.0
 70
     8
  0
VERTEX
  5
16BD
330
1662
100
AcDbEntity
  8
image
100
AcDbVertex
100
AcDb2dVertex
 10
3.283070478991954
 20
6.275473281537811
 30
0.0
 70
     8
  0
VERTEX
  5
16BE
330
1662
100
AcDbEntity
  8
image
100
AcDbVertex
100
AcDb2dVertex
 10
3.284734112356578
 20
6.275726924784644
 30
0.0
 70
     8
  0
VERTEX
  5
16BF
330
1662
100
AcDbEntity
  8
image
100
AcDbVertex
100
AcDb2dVertex
 10
3.286109581030352
 20
6.275799158291254
 30
0.0
 70
     8
  0
VERTEX
  5
16C0
330
1662
100
AcDbEntity
  8
image
100
AcDbVertex
100
AcDb2dVertex
 10
3.287279725055981
 20
6.275676656080628
 30
0.0
 70
     8
  0
VERTEX
  5
16C1
330
1662
100
AcDbEntity
  8
image
100
AcDbVertex
100
AcDb2dVertex
 10
3.288327384476173
 20
6.275346092175752
 30
0.0
 70
     8
  0
VERTEX
  5
16C2
330
1662
100
AcDbEntity
  8
image
100
AcDbVertex
100
AcDb2dVertex
 10
3.289335399333634
 20
6.274794140599609
 30
0.0
 70
     8
  0
VERTEX
  5
16C3
330
1662
100
AcDbEntity
  8
image
100
AcDbVertex
100
AcDb2dVertex
 10
3.290386609671072
 20
6.274007475375186
 30
0.0
 70
     8
  0
VERTEX
  5
16C4
330
1662
100
AcDbEntity
  8
image
100
AcDbVertex
100
AcDb2dVertex
 10
3.291563855531191
 20
6.272972770525467
 30
0.0
 70
     8
  0
VERTEX
  5
16C5
330
1662
100
AcDbEntity
  8
image
100
AcDbVertex
100
AcDb2dVertex
 10
3.292953967450187
 20
6.271691063336075
 30
0.0
 70
     8
  0
VERTEX
  5
16C6
330
1662
100
AcDbEntity
  8
image
100
AcDbVertex
100
AcDb2dVertex
 10
3.294659737938206
 20
6.270220844143179
 30
0.0
 70
     8
  0
VERTEX
  5
16C7
330
1662
100
AcDbEntity
  8
image
100
AcDbVertex
100
AcDb2dVertex
 10
3.29678794999888
 20
6.268634966545583
 30
0.0
 70
     8
  0
VERTEX
  5
16C8
330
1662
100
AcDbEntity
  8
image
100
AcDbVertex
100
AcDb2dVertex
 10
3.299445386635842
 20
6.267006284142095
 30
0.0
 70
     8
  0
VERTEX
  5
16C9
330
1662
100
AcDbEntity
  8
image
100
AcDbVertex
100
AcDb2dVertex
 10
3.302738830852727
 20
6.265407650531519
 30
0.0
 70
     8
  0
VERTEX
  5
16CA
330
1662
100
AcDbEntity
  8
image
100
AcDbVertex
100
AcDb2dVertex
 10
3.306775065653166
 20
6.263911919312662
 30
0.0
 70
     8
  0
VERTEX
  5
16CB
330
1662
100
AcDbEntity
  8
image
100
AcDbVertex
100
AcDb2dVertex
 10
3.311660874040794
 20
6.262591944084328
 30
0.0
 70
     8
  0
VERTEX
  5
16CC
330
1662
100
AcDbEntity
  8
image
100
AcDbVertex
100
AcDb2dVertex
 10
3.317503039019244
 20
6.261520578445325
 30
0.0
 70
     8
  0
VERTEX
  5
1678
330
1662
100
AcDbEntity
  8
image
100
AcDbVertex
100
AcDb2dVertex
 10
2.540270191646773
 20
6.067254640584174
 30
0.0
 70
    16
  0
VERTEX
  5
1679
330
1662
100
AcDbEntity
  8
image
100
AcDbVertex
100
AcDb2dVertex
 10
2.636898875010832
 20
6.160149651798437
 30
0.0
 70
    16
  0
VERTEX
  5
167A
330
1662
100
AcDbEntity
  8
image
100
AcDbVertex
100
AcDb2dVertex
 10
2.766709363289733
 20
6.210515488764997
 30
0.0
 70
    16
  0
VERTEX
  5
167B
330
1662
100
AcDbEntity
  8
image
100
AcDbVertex
100
AcDb2dVertex
 10
2.902778943500431
 20
6.239216368041003
 30
0.0
 70
    16
  0
VERTEX
  5
167C
330
1662
100
AcDbEntity
  8
image
100
AcDbVertex
100
AcDb2dVertex
 10
2.986836338987753
 20
6.248789170305996
 30
0.0
 70
    16
  0
VERTEX
  5
167D
330
1662
100
AcDbEntity
  8
image
100
AcDbVertex
100
AcDb2dVertex
 10
3.1642513569299
 20
6.251629553584484
 30
0.0
 70
    16
  0
VERTEX
  5
167E
330
1662
100
AcDbEntity
  8
image
100
AcDbVertex
100
AcDb2dVertex
 10
3.2533717884999
 20
6.267739439894584
 30
0.0
 70
    16
  0
VERTEX
  5
167F
330
1662
100
AcDbEntity
  8
image
100
AcDbVertex
100
AcDb2dVertex
 10
3.285876851840589
 20
6.276702304247153
 30
0.0
 70
    16
  0
VERTEX
  5
1680
330
1662
100
AcDbEntity
  8
image
100
AcDbVertex
100
AcDb2dVertex
 10
3.289335849500373
 20
6.275760670283443
 30
0.0
 70
    16
  0
VERTEX
  5
1681
330
1662
100
AcDbEntity
  8
image
100
AcDbVertex
100
AcDb2dVertex
 10
3.300553872063499
 20
6.263981315275734
 30
0.0
 70
    16
  0
VERTEX
  5
1682
330
1662
100
AcDbEntity
  8
image
100
AcDbVertex
100
AcDb2dVertex
 10
3.317503039019243
 20
6.261520578445325
 30
0.0
 70
    16
  0
SEQEND
  5
1683
330
1662
100
AcDbEntity
  8
image
  0
LWPOLYLINE
  5
16CD
330
10C1
100
AcDbEntity
  8
image
100
AcDbPolyline
 90
        2
 70
     0
 43
0.0
 10
2.621692146741772
 20
2.924724995489979
 10
2.269183374285539
 20
2.341291494088141
  0
LWPOLYLINE
  5
16CE
330
10C1
100
AcDbEntity
  8
image
100
AcDbPolyline
 90
        2
 70
     0
 43
0.0
 10
2.456879266251498
 20
2.651944958639969
 10
2.07046758924419
 20
2.651944958639969
  0
LWPOLYLINE
  5
16CF
330
10C1
100
AcDbEntity
  8
image
100
AcDbPolyline
 90
        2
 70
     0
 43
0.0
 10
1.825915814404273
 20
2.341291494088141
 10
1.728919209002527
 20
2.697780948438536
  0
LWPOLYLINE
  5
16D0
330
10C1
100
AcDbEntity
  8
image
100
AcDbPolyline
 90
        2
 70
     0
 43
0.0
 10
2.424489694528805
 20
2.697780948438536
 10
2.07046758924419
 20
2.697780948438536
  0
LWPOLYLINE
  5
16D1
330
10C1
100
AcDbEntity
  8
image
100
AcDbPolyline
 90
        2
 70
     0
 43
0.0
 10
2.024631599445622
 20
2.697780948438536
 10
1.728919209002527
 20
2.697780948438536
  0
LWPOLYLINE
  5
16D2
330
10C1
100
AcDbEntity
  8
image
100
AcDbPolyline
 90
        2
 70
     0
 43
0.0
 10
2.024631599445622
 20
2.651944958639969
 10
1.741390645005569
 20
2.651944958639969
  0
LWPOLYLINE
  5
16D3
330
10C1
100
AcDbEntity
  8
image
100
AcDbPolyline
 90
        2
 70
     0
 43
0.0
 10
1.866281920460452
 20
2.651944958639969
 10
1.879856948740391
 20
2.387127483886708
  0
LWPOLYLINE
  5
16D4
330
10C1
100
AcDbEntity
  8
image
100
AcDbPolyline
 90
        2
 70
     0
 43
0.0
 10
2.223806632433594
 20
2.554199017270274
 10
2.215242239949421
 20
2.387127483886708
  0
LWPOLYLINE
  5
16D5
330
10C1
100
AcDbEntity
  8
image
100
AcDbPolyline
 90
        2
 70
     0
 43
0.0
 10
2.561608607395713
 20
2.924724995489979
 10
2.424489694528805
 20
2.697780948438536
  0
LWPOLYLINE
  5
16D6
330
10C1
100
AcDbEntity
  8
image
100
AcDbPolyline
 90
        2
 70
     0
 43
0.0
 10
2.561608607395713
 20
2.924724995489979
 10
2.621692146741772
 20
2.924724995489979
  0
LWPOLYLINE
  5
16D7
330
10C1
100
AcDbEntity
  8
image
100
AcDbPolyline
 90
        2
 70
     0
 43
0.0
 10
2.343056603865473
 20
2.874732537047561
 10
2.321848687651686
 20
2.839631541608979
  0
LWPOLYLINE
  5
16D8
330
10C1
100
AcDbEntity
  8
image
100
AcDbPolyline
 90
        2
 70
     0
 43
0.0
 10
2.398225141319597
 20
2.842877227005557
 10
2.376363321752407
 20
2.806693963116189
  0
LWPOLYLINE
  5
16D9
330
10C1
100
AcDbEntity
  8
image
100
AcDbPolyline
 90
        2
 70
     0
 43
0.0
 10
2.234422397890759
 20
2.761288103419285
 10
2.321848687651686
 20
2.839631541608978
  0
LWPOLYLINE
  5
16DA
330
10C1
100
AcDbEntity
  8
image
100
AcDbPolyline
 90
        2
 70
     0
 43
0.0
 10
2.357676221400792
 20
2.697780948438536
 10
2.376363321752407
 20
2.806693963116189
  0
LWPOLYLINE
  5
16DB
330
10C1
100
AcDbEntity
  8
image
100
AcDbPolyline
 90
        2
 70
     0
 43
0.0
 10
2.282864437174017
 20
2.651944958639968
 10
2.223806632433594
 20
2.554199017270268
  0
LWPOLYLINE
  5
16DC
330
10C1
100
AcDbEntity
  8
image
100
AcDbPolyline
 90
        2
 70
     0
 43
0.0
 10
2.299133093464278
 20
3.204579161194162
 10
2.251620177209665
 20
3.154271367512808
  0
LWPOLYLINE
  5
16DD
330
10C1
100
AcDbEntity
  8
image
100
AcDbPolyline
 90
        2
 70
     0
 43
0.0
 10
1.795809568287576
 20
3.204579161194162
 10
1.84332248454219
 20
3.154271367512808
  0
LWPOLYLINE
  5
16DE
330
10C1
100
AcDbEntity
  8
image
100
AcDbPolyline
 90
        2
 70
     0
 43
0.0
 10
2.282241034722248
 20
3.204579161194161
 10
2.234728118467635
 20
3.154271367512807
  0
LWPOLYLINE
  5
16DF
330
10C1
100
AcDbEntity
  8
image
100
AcDbPolyline
 90
        2
 70
     0
 43
0.0
 10
1.812701627029605
 20
3.204579161194161
 10
1.860214543284218
 20
3.154271367512807
  0
POLYLINE
  5
16E0
330
10C1
100
AcDbEntity
  8
image
100
AcDb2dPolyline
 66
     1
 10
0.0
 20
0.0
 30
0.0
 70
     4
 75
     6
  0
VERTEX
  5
1700
330
16E0
100
AcDbEntity
  8
image
100
AcDbVertex
100
AcDb2dVertex
 10
2.404141058914288
 20
2.839461269326443
 30
0.0
 70
    16
  0
VERTEX
  5
1715
330
16E0
100
AcDbEntity
  8
image
100
AcDbVertex
100
AcDb2dVertex
 10
2.404141058914288
 20
2.839461269326443
 30
0.0
 70
     8
  0
VERTEX
  5
1716
330
16E0
100
AcDbEntity
  8
image
100
AcDbVertex
100
AcDb2dVertex
 10
2.407034200016974
 20
2.843440007658649
 30
0.0
 70
     8
  0
VERTEX
  5
1717
330
16E0
100
AcDbEntity
  8
image
100
AcDbVertex
100
AcDb2dVertex
 10
2.40949843043303
 20
2.846566388859754
 30
0.0
 70
     8
  0
VERTEX
  5
1718
330
16E0
100
AcDbEntity
  8
image
100
AcDbVertex
100
AcDb2dVertex
 10
2.41159894464435
 20
2.848954831923332
 30
0.0
 70
     8
  0
VERTEX
  5
1719
330
16E0
100
AcDbEntity
  8
image
100
AcDbVertex
100
AcDb2dVertex
 10
2.413400937132831
 20
2.850719755842958
 30
0.0
 70
     8
  0
VERTEX
  5
171A
330
16E0
100
AcDbEntity
  8
image
100
AcDbVertex
100
AcDb2dVertex
 10
2.414969602380371
 20
2.851975579612205
 30
0.0
 70
     8
  0
VERTEX
  5
171B
330
16E0
100
AcDbEntity
  8
image
100
AcDbVertex
100
AcDb2dVertex
 10
2.416370134868866
 20
2.852836722224648
 30
0.0
 70
     8
  0
VERTEX
  5
171C
330
16E0
100
AcDbEntity
  8
image
100
AcDbVertex
100
AcDb2dVertex
 10
2.417667729080211
 20
2.85341760267386
 30
0.0
 70
     8
  0
VERTEX
  5
171D
330
16E0
100
AcDbEntity
  8
image
100
AcDbVertex
100
AcDb2dVertex
 10
2.418927579496304
 20
2.853832639953415
 30
0.0
 70
     8
  0
VERTEX
  5
171E
330
16E0
100
AcDbEntity
  8
image
100
AcDbVertex
100
AcDb2dVertex
 10
2.420200869498334
 20
2.854178397402076
 30
0.0
 70
     8
  0
VERTEX
  5
171F
330
16E0
100
AcDbEntity
  8
image
100
AcDbVertex
100
AcDb2dVertex
 10
2.42148273806466
 20
2.854480015739361
 30
0.0
 70
     8
  0
VERTEX
  5
1720
330
16E0
100
AcDbEntity
  8
image
100
AcDbVertex
100
AcDb2dVertex
 10
2.422754313072936
 20
2.854744780029976
 30
0.0
 70
     8
  0
VERTEX
  5
1721
330
16E0
100
AcDbEntity
  8
image
100
AcDbVertex
100
AcDb2dVertex
 10
2.423996722400815
 20
2.854979975338628
 30
0.0
 70
     8
  0
VERTEX
  5
1722
330
16E0
100
AcDbEntity
  8
image
100
AcDbVertex
100
AcDb2dVertex
 10
2.42519109392595
 20
2.855192886730022
 30
0.0
 70
     8
  0
VERTEX
  5
1723
330
16E0
100
AcDbEntity
  8
image
100
AcDbVertex
100
AcDb2dVertex
 10
2.426318555525995
 20
2.855390799268866
 30
0.0
 70
     8
  0
VERTEX
  5
1724
330
16E0
100
AcDbEntity
  8
image
100
AcDbVertex
100
AcDb2dVertex
 10
2.427360235078601
 20
2.855580998019865
 30
0.0
 70
     8
  0
VERTEX
  5
1725
330
16E0
100
AcDbEntity
  8
image
100
AcDbVertex
100
AcDb2dVertex
 10
2.428297260461422
 20
2.855770768047726
 30
0.0
 70
     8
  0
VERTEX
  5
1726
330
16E0
100
AcDbEntity
  8
image
100
AcDbVertex
100
AcDb2dVertex
 10
2.429116335397929
 20
2.855966894475582
 30
0.0
 70
     8
  0
VERTEX
  5
1727
330
16E0
100
AcDbEntity
  8
image
100
AcDbVertex
100
AcDb2dVertex
 10
2.429826466994863
 20
2.856174162660277
 30
0.0
 70
     8
  0
VERTEX
  5
1728
330
16E0
100
AcDbEntity
  8
image
100
AcDbVertex
100
AcDb2dVertex
 10
2.430442238204783
 20
2.856396858017081
 30
0.0
 70
     8
  0
VERTEX
  5
1729
330
16E0
100
AcDbEntity
  8
image
100
AcDbVertex
100
AcDb2dVertex
 10
2.430978231980247
 20
2.856639265961264
 30
0.0
 70
     8
  0
VERTEX
  5
172A
330
16E0
100
AcDbEntity
  8
image
100
AcDbVertex
100
AcDb2dVertex
 10
2.431449031273815
 20
2.856905671908096
 30
0.0
 70
     8
  0
VERTEX
  5
172B
330
16E0
100
AcDbEntity
  8
image
100
AcDbVertex
100
AcDb2dVertex
 10
2.431869219038045
 20
2.857200361272847
 30
0.0
 70
     8
  0
VERTEX
  5
172C
330
16E0
100
AcDbEntity
  8
image
100
AcDbVertex
100
AcDb2dVertex
 10
2.432253378225497
 20
2.857527619470789
 30
0.0
 70
     8
  0
VERTEX
  5
172D
330
16E0
100
AcDbEntity
  8
image
100
AcDbVertex
100
AcDb2dVertex
 10
2.432616091788728
 20
2.85789173191719
 30
0.0
 70
     8
  0
VERTEX
  5
172E
330
16E0
100
AcDbEntity
  8
image
100
AcDbVertex
100
AcDb2dVertex
 10
2.432974348690124
 20
2.858317076453316
 30
0.0
 70
     8
  0
VERTEX
  5
172F
330
16E0
100
AcDbEntity
  8
image
100
AcDbVertex
100
AcDb2dVertex
 10
2.433354761931363
 20
2.858908400624408
 30
0.0
 70
     8
  0
VERTEX
  5
1730
330
16E0
100
AcDbEntity
  8
image
100
AcDbVertex
100
AcDb2dVertex
 10
2.433786350523951
 20
2.859790544401702
 30
0.0
 70
     8
  0
VERTEX
  5
1731
330
16E0
100
AcDbEntity
  8
image
100
AcDbVertex
100
AcDb2dVertex
 10
2.434298133479395
 20
2.861088347756435
 30
0.0
 70
     8
  0
VERTEX
  5
1732
330
16E0
100
AcDbEntity
  8
image
100
AcDbVertex
100
AcDb2dVertex
 10
2.434919129809197
 20
2.862926650659842
 30
0.0
 70
     8
  0
VERTEX
  5
1733
330
16E0
100
AcDbEntity
  8
image
100
AcDbVertex
100
AcDb2dVertex
 10
2.435678358524865
 20
2.865430293083159
 30
0.0
 70
     8
  0
VERTEX
  5
1734
330
16E0
100
AcDbEntity
  8
image
100
AcDbVertex
100
AcDb2dVertex
 10
2.436604838637904
 20
2.868724114997623
 30
0.0
 70
     8
  0
VERTEX
  5
1735
330
16E0
100
AcDbEntity
  8
image
100
AcDbVertex
100
AcDb2dVertex
 10
2.437727589159817
 20
2.872932956374469
 30
0.0
 70
     8
  0
VERTEX
  5
1736
330
16E0
100
AcDbEntity
  8
image
100
AcDbVertex
100
AcDb2dVertex
 10
2.439085701318928
 20
2.878155998882139
 30
0.0
 70
     8
  0
VERTEX
  5
1737
330
16E0
100
AcDbEntity
  8
image
100
AcDbVertex
100
AcDb2dVertex
 10
2.44075855521083
 20
2.884389790977894
 30
0.0
 70
     8
  0
VERTEX
  5
1738
330
16E0
100
AcDbEntity
  8
image
100
AcDbVertex
100
AcDb2dVertex
 10
2.442835603147934
 20
2.891605222816202
 30
0.0
 70
     8
  0
VERTEX
  5
1739
330
16E0
100
AcDbEntity
  8
image
100
AcDbVertex
100
AcDb2dVertex
 10
2.44540629744265
 20
2.89977318455153
 30
0.0
 70
     8
  0
VERTEX
  5
173A
330
16E0
100
AcDbEntity
  8
image
100
AcDbVertex
100
AcDb2dVertex
 10
2.448560090407387
 20
2.908864566338345
 30
0.0
 70
     8
  0
VERTEX
  5
173B
330
16E0
100
AcDbEntity
  8
image
100
AcDbVertex
100
AcDb2dVertex
 10
2.452386434354557
 20
2.918850258331114
 30
0.0
 70
     8
  0
VERTEX
  5
173C
330
16E0
100
AcDbEntity
  8
image
100
AcDbVertex
100
AcDb2dVertex
 10
2.456974781596571
 20
2.929701150684305
 30
0.0
 70
     8
  0
VERTEX
  5
173D
330
16E0
100
AcDbEntity
  8
image
100
AcDbVertex
100
AcDb2dVertex
 10
2.462414584445837
 20
2.941388133552384
 30
0.0
 70
     8
  0
VERTEX
  5
173E
330
16E0
100
AcDbEntity
  8
image
100
AcDbVertex
100
AcDb2dVertex
 10
2.468751339222114
 20
2.95387518866756
 30
0.0
 70
     8
  0
VERTEX
  5
173F
330
16E0
100
AcDbEntity
  8
image
100
AcDbVertex
100
AcDb2dVertex
 10
2.475854718274542
 20
2.967098664073004
 30
0.0
 70
     8
  0
VERTEX
  5
1740
330
16E0
100
AcDbEntity
  8
image
100
AcDbVertex
100
AcDb2dVertex
 10
2.483550437959608
 20
2.980987999389627
 30
0.0
 70
     8
  0
VERTEX
  5
1741
330
16E0
100
AcDbEntity
  8
image
100
AcDbVertex
100
AcDb2dVertex
 10
2.4916642146338
 20
2.995472634238342
 30
0.0
 70
     8
  0
VERTEX
  5
1742
330
16E0
100
AcDbEntity
  8
image
100
AcDbVertex
100
AcDb2dVertex
 10
2.500021764653606
 20
3.010482008240059
 30
0.0
 70
     8
  0
VERTEX
  5
1743
330
16E0
100
AcDbEntity
  8
image
100
AcDbVertex
100
AcDb2dVertex
 10
2.508448804375511
 20
3.025945561015691
 30
0.0
 70
     8
  0
VERTEX
  5
1744
330
16E0
100
AcDbEntity
  8
image
100
AcDbVertex
100
AcDb2dVertex
 10
2.516771050156005
 20
3.041792732186149
 30
0.0
 70
     8
  0
VERTEX
  5
1745
330
16E0
100
AcDbEntity
  8
image
100
AcDbVertex
100
AcDb2dVertex
 10
2.524814218351575
 20
3.057952961372347
 30
0.0
 70
     8
  0
VERTEX
  5
1746
330
16E0
100
AcDbEntity
  8
image
100
AcDbVertex
100
AcDb2dVertex
 10
2.532433694125058
 20
3.074364214995366
 30
0.0
 70
     8
  0
VERTEX
  5
1747
330
16E0
100
AcDbEntity
  8
image
100
AcDbVertex
100
AcDb2dVertex
 10
2.539603537864697
 20
3.090998566676982
 30
0.0
 70
     8
  0
VERTEX
  5
1748
330
16E0
100
AcDbEntity
  8
image
100
AcDbVertex
100
AcDb2dVertex
 10
2.546327478765085
 20
3.10783661683914
 30
0.0
 70
     8
  0
VERTEX
  5
1749
330
16E0
100
AcDbEntity
  8
image
100
AcDbVertex
100
AcDb2dVertex
 10
2.552609246020816
 20
3.124858965903789
 30
0.0
 70
     8
  0
VERTEX
  5
174A
330
16E0
100
AcDbEntity
  8
image
100
AcDbVertex
100
AcDb2dVertex
 10
2.558452568826484
 20
3.142046214292872
 30
0.0
 70
     8
  0
VERTEX
  5
174B
330
16E0
100
AcDbEntity
  8
image
100
AcDbVertex
100
AcDb2dVertex
 10
2.563861176376681
 20
3.159378962428338
 30
0.0
 70
     8
  0
VERTEX
  5
174C
330
16E0
100
AcDbEntity
  8
image
100
AcDbVertex
100
AcDb2dVertex
 10
2.568838797866002
 20
3.176837810732132
 30
0.0
 70
     8
  0
VERTEX
  5
174D
330
16E0
100
AcDbEntity
  8
image
100
AcDbVertex
100
AcDb2dVertex
 10
2.573389162489038
 20
3.194403359626201
 30
0.0
 70
     8
  0
VERTEX
  5
174E
330
16E0
100
AcDbEntity
  8
image
100
AcDbVertex
100
AcDb2dVertex
 10
2.577514869772079
 20
3.212055100283979
 30
0.0
 70
     8
  0
VERTEX
  5
174F
330
16E0
100
AcDbEntity
  8
image
100
AcDbVertex
100
AcDb2dVertex
 10
2.581214000568189
 20
3.229768086884849
 30
0.0
 70
     8
  0
VERTEX
  5
1750
330
16E0
100
AcDbEntity
  8
image
100
AcDbVertex
100
AcDb2dVertex
 10
2.584483506062128
 20
3.247516264359685
 30
0.0
 70
     8
  0
VERTEX
  5
1751
330
16E0
100
AcDbEntity
  8
image
100
AcDbVertex
100
AcDb2dVertex
 10
2.587320337438656
 20
3.265273577639357
 30
0.0
 70
     8
  0
VERTEX
  5
1752
330
16E0
100
AcDbEntity
  8
image
100
AcDbVertex
100
AcDb2dVertex
 10
2.58972144588253
 20
3.283013971654737
 30
0.0
 70
     8
  0
VERTEX
  5
1753
330
16E0
100
AcDbEntity
  8
image
100
AcDbVertex
100
AcDb2dVertex
 10
2.591683782578512
 20
3.300711391336697
 30
0.0
 70
     8
  0
VERTEX
  5
1754
330
16E0
100
AcDbEntity
  8
image
100
AcDbVertex
100
AcDb2dVertex
 10
2.593204298711361
 20
3.318339781616109
 30
0.0
 70
     8
  0
VERTEX
  5
1755
330
16E0
100
AcDbEntity
  8
image
100
AcDbVertex
100
AcDb2dVertex
 10
2.594279945465836
 20
3.335873087423844
 30
0.0
 70
     8
  0
VERTEX
  5
1756
330
16E0
100
AcDbEntity
  8
image
100
AcDbVertex
100
AcDb2dVertex
 10
2.594914690997016
 20
3.353292603148613
 30
0.0
 70
     8
  0
VERTEX
  5
1757
330
16E0
100
AcDbEntity
  8
image
100
AcDbVertex
100
AcDb2dVertex
 10
2.595140571341265
 20
3.370609021010487
 30
0.0
 70
     8
  0
VERTEX
  5
1758
330
16E0
100
AcDbEntity
  8
image
100
AcDbVertex
100
AcDb2dVertex
 10
2.594996639505264
 20
3.387840382687371
 30
0.0
 70
     8
  0
VERTEX
  5
1759
330
16E0
100
AcDbEntity
  8
image
100
AcDbVertex
100
AcDb2dVertex
 10
2.594521948495696
 20
3.405004729857175
 30
0.0
 70
     8
  0
VERTEX
  5
175A
330
16E0
100
AcDbEntity
  8
image
100
AcDbVertex
100
AcDb2dVertex
 10
2.593755551319243
 20
3.422120104197808
 30
0.0
 70
     8
  0
VERTEX
  5
175B
330
16E0
100
AcDbEntity
  8
image
100
AcDbVertex
100
AcDb2dVertex
 10
2.592736500982589
 20
3.439204547387177
 30
0.0
 70
     8
  0
VERTEX
  5
175C
330
16E0
100
AcDbEntity
  8
image
100
AcDbVertex
100
AcDb2dVertex
 10
2.591503850492415
 20
3.456276101103191
 30
0.0
 70
     8
  0
VERTEX
  5
175D
330
16E0
100
AcDbEntity
  8
image
100
AcDbVertex
100
AcDb2dVertex
 10
2.590096652855404
 20
3.473352807023758
 30
0.0
 70
     8
  0
VERTEX
  5
175E
330
16E0
100
AcDbEntity
  8
image
100
AcDbVertex
100
AcDb2dVertex
 10
2.588550521720926
 20
3.490447021401952
 30
0.0
 70
     8
  0
VERTEX
  5
175F
330
16E0
100
AcDbEntity
  8
image
100
AcDbVertex
100
AcDb2dVertex
 10
2.586887313309094
 20
3.507548358791517
 30
0.0
 70
     8
  0
VERTEX
  5
1760
330
16E0
100
AcDbEntity
  8
image
100
AcDbVertex
100
AcDb2dVertex
 10
2.58512544448271
 20
3.524640748321361
 30
0.0
 70
     8
  0
VERTEX
  5
1761
330
16E0
100
AcDbEntity
  8
image
100
AcDbVertex
100
AcDb2dVertex
 10
2.583283332104576
 20
3.541708119120393
 30
0.0
 70
     8
  0
VERTEX
  5
1762
330
16E0
100
AcDbEntity
  8
image
100
AcDbVertex
100
AcDb2dVertex
 10
2.581379393037491
 20
3.558734400317522
 30
0.0
 70
     8
  0
VERTEX
  5
1763
330
16E0
100
AcDbEntity
  8
image
100
AcDbVertex
100
AcDb2dVertex
 10
2.579432044144258
 20
3.575703521041658
 30
0.0
 70
     8
  0
VERTEX
  5
1764
330
16E0
100
AcDbEntity
  8
image
100
AcDbVertex
100
AcDb2dVertex
 10
2.577459702287677
 20
3.592599410421708
 30
0.0
 70
     8
  0
VERTEX
  5
1765
330
16E0
100
AcDbEntity
  8
image
100
AcDbVertex
100
AcDb2dVertex
 10
2.57548078433055
 20
3.609405997586584
 30
0.0
 70
     8
  0
VERTEX
  5
1766
330
16E0
100
AcDbEntity
  8
image
100
AcDbVertex
100
AcDb2dVertex
 10
2.573510390965671
 20
3.62611642082251
 30
0.0
 70
     8
  0
VERTEX
  5
1767
330
16E0
100
AcDbEntity
  8
image
100
AcDbVertex
100
AcDb2dVertex
 10
2.571550358205808
 20
3.642760655044988
 30
0.0
 70
     8
  0
VERTEX
  5
1768
330
16E0
100
AcDbEntity
  8
image
100
AcDbVertex
100
AcDb2dVertex
 10
2.569599205893724
 20
3.659377884326836
 30
0.0
 70
     8
  0
VERTEX
  5
1769
330
16E0
100
AcDbEntity
  8
image
100
AcDbVertex
100
AcDb2dVertex
 10
2.56765545387218
 20
3.676007292740872
 30
0.0
 70
     8
  0
VERTEX
  5
176A
330
16E0
100
AcDbEntity
  8
image
100
AcDbVertex
100
AcDb2dVertex
 10
2.565717621983937
 20
3.692688064359915
 30
0.0
 70
     8
  0
VERTEX
  5
176B
330
16E0
100
AcDbEntity
  8
image
100
AcDbVertex
100
AcDb2dVertex
 10
2.563784230071759
 20
3.709459383256783
 30
0.0
 70
     8
  0
VERTEX
  5
176C
330
16E0
100
AcDbEntity
  8
image
100
AcDbVertex
100
AcDb2dVertex
 10
2.561853797978406
 20
3.726360433504294
 30
0.0
 70
     8
  0
VERTEX
  5
176D
330
16E0
100
AcDbEntity
  8
image
100
AcDbVertex
100
AcDb2dVertex
 10
2.55992484554664
 20
3.743430399175267
 30
0.0
 70
     8
  0
VERTEX
  5
176E
330
16E0
100
AcDbEntity
  8
image
100
AcDbVertex
100
AcDb2dVertex
 10
2.557997849148053
 20
3.760698053747052
 30
0.0
 70
     8
  0
VERTEX
  5
176F
330
16E0
100
AcDbEntity
  8
image
100
AcDbVertex
100
AcDb2dVertex
 10
2.556081111269559
 20
3.778150528315132
 30
0.0
 70
     8
  0
VERTEX
  5
1770
330
16E0
100
AcDbEntity
  8
image
100
AcDbVertex
100
AcDb2dVertex
 10
2.5541848909269
 20
3.795764543379521
 30
0.0
 70
     8
  0
VERTEX
  5
1771
330
16E0
100
AcDbEntity
  8
image
100
AcDbVertex
100
AcDb2dVertex
 10
2.552319447135822
 20
3.813516819440234
 30
0.0
 70
     8
  0
VERTEX
  5
1772
330
16E0
100
AcDbEntity
  8
image
100
AcDbVertex
100
AcDb2dVertex
 10
2.550495038912066
 20
3.831384076997285
 30
0.0
 70
     8
  0
VERTEX
  5
1773
330
16E0
100
AcDbEntity
  8
image
100
AcDbVertex
100
AcDb2dVertex
 10
2.548721925271377
 20
3.849343036550689
 30
0.0
 70
     8
  0
VERTEX
  5
1774
330
16E0
100
AcDbEntity
  8
image
100
AcDbVertex
100
AcDb2dVertex
 10
2.547010365229497
 20
3.867370418600461
 30
0.0
 70
     8
  0
VERTEX
  5
1775
330
16E0
100
AcDbEntity
  8
image
100
AcDbVertex
100
AcDb2dVertex
 10
2.545370617802172
 20
3.885442943646614
 30
0.0
 70
     8
  0
VERTEX
  5
1776
330
16E0
100
AcDbEntity
  8
image
100
AcDbVertex
100
AcDb2dVertex
 10
2.543813777025537
 20
3.903540309918996
 30
0.0
 70
     8
  0
VERTEX
  5
1777
330
16E0
100
AcDbEntity
  8
image
100
AcDbVertex
100
AcDb2dVertex
 10
2.542354277017306
 20
3.921654126566773
 30
0.0
 70
     8
  0
VERTEX
  5
1778
330
16E0
100
AcDbEntity
  8
image
100
AcDbVertex
100
AcDb2dVertex
 10
2.541007386915586
 20
3.939778980468947
 30
0.0
 70
     8
  0
VERTEX
  5
1779
330
16E0
100
AcDbEntity
  8
image
100
AcDbVertex
100
AcDb2dVertex
 10
2.539788375858484
 20
3.957909458504516
 30
0.0
 70
     8
  0
VERTEX
  5
177A
330
16E0
100
AcDbEntity
  8
image
100
AcDbVertex
100
AcDb2dVertex
 10
2.538712512984106
 20
3.976040147552481
 30
0.0
 70
     8
  0
VERTEX
  5
177B
330
16E0
100
AcDbEntity
  8
image
100
AcDbVertex
100
AcDb2dVertex
 10
2.537795067430559
 20
3.994165634491841
 30
0.0
 70
     8
  0
VERTEX
  5
177C
330
16E0
100
AcDbEntity
  8
image
100
AcDbVertex
100
AcDb2dVertex
 10
2.537051308335951
 20
4.012280506201595
 30
0.0
 70
     8
  0
VERTEX
  5
177D
330
16E0
100
AcDbEntity
  8
image
100
AcDbVertex
100
AcDb2dVertex
 10
2.536496504838388
 20
4.030379349560744
 30
0.0
 70
     8
  0
VERTEX
  5
177E
330
16E0
100
AcDbEntity
  8
image
100
AcDbVertex
100
AcDb2dVertex
 10
2.536142767269971
 20
4.048463686782894
 30
0.0
 70
     8
  0
VERTEX
  5
177F
330
16E0
100
AcDbEntity
  8
image
100
AcDbVertex
100
AcDb2dVertex
 10
2.535989570738768
 20
4.066562781420078
 30
0.0
 70
     8
  0
VERTEX
  5
1780
330
16E0
100
AcDbEntity
  8
image
100
AcDbVertex
100
AcDb2dVertex
 10
2.536033231546846
 20
4.084712832358933
 30
0.0
 70
     8
  0
VERTEX
  5
1781
330
16E0
100
AcDbEntity
  8
image
100
AcDbVertex
100
AcDb2dVertex
 10
2.536270065996266
 20
4.102950038486101
 30
0.0
 70
     8
  0
VERTEX
  5
1782
330
16E0
100
AcDbEntity
  8
image
100
AcDbVertex
100
AcDb2dVertex
 10
2.536696390389093
 20
4.12131059868822
 30
0.0
 70
     8
  0
VERTEX
  5
1783
330
16E0
100
AcDbEntity
  8
image
100
AcDbVertex
100
AcDb2dVertex
 10
2.53730852102739
 20
4.139830711851929
 30
0.0
 70
     8
  0
VERTEX
  5
1784
330
16E0
100
AcDbEntity
  8
image
100
AcDbVertex
100
AcDb2dVertex
 10
2.53810277421322
 20
4.158546576863868
 30
0.0
 70
     8
  0
VERTEX
  5
1785
330
16E0
100
AcDbEntity
  8
image
100
AcDbVertex
100
AcDb2dVertex
 10
2.539075466248648
 20
4.177494392610674
 30
0.0
 70
     8
  0
VERTEX
  5
1786
330
16E0
100
AcDbEntity
  8
image
100
AcDbVertex
100
AcDb2dVertex
 10
2.540219032947869
 20
4.196691945333845
 30
0.0
 70
     8
  0
VERTEX
  5
1787
330
16E0
100
AcDbEntity
  8
image
100
AcDbVertex
100
AcDb2dVertex
 10
2.541510388173609
 20
4.216083370694293
 30
0.0
 70
     8
  0
VERTEX
  5
1788
330
16E0
100
AcDbEntity
  8
image
100
AcDbVertex
100
AcDb2dVertex
 10
2.542922565300727
 20
4.235594391707787
 30
0.0
 70
     8
  0
VERTEX
  5
1789
330
16E0
100
AcDbEntity
  8
image
100
AcDbVertex
100
AcDb2dVertex
 10
2.544428597704079
 20
4.2551507313901
 30
0.0
 70
     8
  0
VERTEX
  5
178A
330
16E0
100
AcDbEntity
  8
image
100
AcDbVertex
100
AcDb2dVertex
 10
2.546001518758524
 20
4.274678112756998
 30
0.0
 70
     8
  0
VERTEX
  5
178B
330
16E0
100
AcDbEntity
  8
image
100
AcDbVertex
100
AcDb2dVertex
 10
2.547614361838921
 20
4.294102258824251
 30
0.0
 70
     8
  0
VERTEX
  5
178C
330
16E0
100
AcDbEntity
  8
image
100
AcDbVertex
100
AcDb2dVertex
 10
2.549240160320127
 20
4.31334889260763
 30
0.0
 70
     8
  0
VERTEX
  5
178D
330
16E0
100
AcDbEntity
  8
image
100
AcDbVertex
100
AcDb2dVertex
 10
2.550851947577001
 20
4.332343737122905
 30
0.0
 70
     8
  0
VERTEX
  5
178E
330
16E0
100
AcDbEntity
  8
image
100
AcDbVertex
100
AcDb2dVertex
 10
2.552428872473944
 20
4.351083182971096
 30
0.0
 70
     8
  0
VERTEX
  5
178F
330
16E0
100
AcDbEntity
  8
image
100
AcDbVertex
100
AcDb2dVertex
 10
2.553974545833539
 20
4.369846291094234
 30
0.0
 70
     8
  0
VERTEX
  5
1790
330
16E0
100
AcDbEntity
  8
image
100
AcDbVertex
100
AcDb2dVertex
 10
2.555498693967913
 20
4.388982790019603
 30
0.0
 70
     8
  0
VERTEX
  5
1791
330
16E0
100
AcDbEntity
  8
image
100
AcDbVertex
100
AcDb2dVertex
 10
2.557011043189191
 20
4.408842408274483
 30
0.0
 70
     8
  0
VERTEX
  5
1792
330
16E0
100
AcDbEntity
  8
image
100
AcDbVertex
100
AcDb2dVertex
 10
2.5585213198095
 20
4.429774874386157
 30
0.0
 70
     8
  0
VERTEX
  5
1793
330
16E0
100
AcDbEntity
  8
image
100
AcDbVertex
100
AcDb2dVertex
 10
2.560039250140967
 20
4.452129916881909
 30
0.0
 70
     8
  0
VERTEX
  5
1794
330
16E0
100
AcDbEntity
  8
image
100
AcDbVertex
100
AcDb2dVertex
 10
2.561574560495717
 20
4.47625726428902
 30
0.0
 70
     8
  0
VERTEX
  5
1795
330
16E0
100
AcDbEntity
  8
image
100
AcDbVertex
100
AcDb2dVertex
 10
2.563136977185877
 20
4.502506645134773
 30
0.0
 70
     8
  0
VERTEX
  5
1796
330
16E0
100
AcDbEntity
  8
image
100
AcDbVertex
100
AcDb2dVertex
 10
2.564732302144725
 20
4.533236594953897
 30
0.0
 70
     8
  0
VERTEX
  5
1797
330
16E0
100
AcDbEntity
  8
image
100
AcDbVertex
100
AcDb2dVertex
 10
2.566350639790148
 20
4.578840877310899
 30
0.0
 70
     8
  0
VERTEX
  5
1798
330
16E0
100
AcDbEntity
  8
image
100
AcDbVertex
100
AcDb2dVertex
 10
2.567978170161181
 20
4.651722062777737
 30
0.0
 70
     8
  0
VERTEX
  5
1799
330
16E0
100
AcDbEntity
  8
image
100
AcDbVertex
100
AcDb2dVertex
 10
2.569601073296861
 20
4.764282721926363
 30
0.0
 70
     8
  0
VERTEX
  5
179A
330
16E0
100
AcDbEntity
  8
image
100
AcDbVertex
100
AcDb2dVertex
 10
2.571205529236227
 20
4.928925425328735
 30
0.0
 70
     8
  0
VERTEX
  5
179B
330
16E0
100
AcDbEntity
  8
image
100
AcDbVertex
100
AcDb2dVertex
 10
2.572777718018314
 20
5.158052743556806
 30
0.0
 70
     8
  0
VERTEX
  5
179C
330
16E0
100
AcDbEntity
  8
image
100
AcDbVertex
100
AcDb2dVertex
 10
2.574303819682161
 20
5.464067247182533
 30
0.0
 70
     8
  0
VERTEX
  5
179D
330
16E0
100
AcDbEntity
  8
image
100
AcDbVertex
100
AcDb2dVertex
 10
2.575770014266804
 20
5.859371506777869
 30
0.0
 70
     8
  0
VERTEX
  5
1701
330
16E0
100
AcDbEntity
  8
image
100
AcDbVertex
100
AcDb2dVertex
 10
2.412485933420868
 20
2.851309420159191
 30
0.0
 70
    16
  0
VERTEX
  5
1702
330
16E0
100
AcDbEntity
  8
image
100
AcDbVertex
100
AcDb2dVertex
 10
2.418634772172103
 20
2.854381164498296
 30
0.0
 70
    16
  0
VERTEX
  5
1703
330
16E0
100
AcDbEntity
  8
image
100
AcDbVertex
100
AcDb2dVertex
 10
2.429614874244163
 20
2.855697633737664
 30
0.0
 70
    16
  0
VERTEX
  5
1704
330
16E0
100
AcDbEntity
  8
image
100
AcDbVertex
100
AcDb2dVertex
 10
2.432689293619779
 20
2.857452908837401
 30
0.0
 70
    16
  0
VERTEX
  5
1705
330
16E0
100
AcDbEntity
  8
image
100
AcDbVertex
100
AcDb2dVertex
 10
2.435324502009091
 20
2.861841122415873
 30
0.0
 70
    16
  0
VERTEX
  5
1706
330
16E0
100
AcDbEntity
  8
image
100
AcDbVertex
100
AcDb2dVertex
 10
2.452378233302757
 20
2.932780339745921
 30
0.0
 70
    16
  0
VERTEX
  5
1707
330
16E0
100
AcDbEntity
  8
image
100
AcDbVertex
100
AcDb2dVertex
 10
2.529650071454907
 20
3.055366319914746
 30
0.0
 70
    16
  0
VERTEX
  5
1708
330
16E0
100
AcDbEntity
  8
image
100
AcDbVertex
100
AcDb2dVertex
 10
2.577906790987066
 20
3.193472148829174
 30
0.0
 70
    16
  0
VERTEX
  5
1709
330
16E0
100
AcDbEntity
  8
image
100
AcDbVertex
100
AcDb2dVertex
 10
2.599057739531057
 20
3.337165242525763
 30
0.0
 70
    16
  0
VERTEX
  5
170A
330
16E0
100
AcDbEntity
  8
image
100
AcDbVertex
100
AcDb2dVertex
 10
2.591541923683718
 20
3.473105405610839
 30
0.0
 70
    16
  0
VERTEX
  5
170B
330
16E0
100
AcDbEntity
  8
image
100
AcDbVertex
100
AcDb2dVertex
 10
2.575354482866499
 20
3.610529977173429
 30
0.0
 70
    16
  0
VERTEX
  5
170C
330
16E0
100
AcDbEntity
  8
image
100
AcDbVertex
100
AcDb2dVertex
 10
2.559924850833584
 20
3.741210671214947
 30
0.0
 70
    16
  0
VERTEX
  5
170D
330
16E0
100
AcDbEntity
  8
image
100
AcDbVertex
100
AcDb2dVertex
 10
2.544495187079004
 20
3.885209733018383
 30
0.0
 70
    16
  0
VERTEX
  5
170E
330
16E0
100
AcDbEntity
  8
image
100
AcDbVertex
100
AcDb2dVertex
 10
2.534318107663432
 20
4.030608058591206
 30
0.0
 70
    16
  0
VERTEX
  5
170F
330
16E0
100
AcDbEntity
  8
image
100
AcDbVertex
100
AcDb2dVertex
 10
2.537211411297598
 20
4.174634129981257
 30
0.0
 70
    16
  0
VERTEX
  5
1710
330
16E0
100
AcDbEntity
  8
image
100
AcDbVertex
100
AcDb2dVertex
 10
2.551289044638062
 20
4.335821777147815
 30
0.0
 70
    16
  0
VERTEX
  5
1711
330
16E0
100
AcDbEntity
  8
image
100
AcDbVertex
100
AcDb2dVertex
 10
2.562744095612154
 20
4.476141184164912
 30
0.0
 70
    16
  0
VERTEX
  5
1712
330
16E0
100
AcDbEntity
  8
image
100
AcDbVertex
100
AcDb2dVertex
 10
2.571952322556439
 20
4.675149299389088
 30
0.0
 70
    16
  0
VERTEX
  5
1713
330
16E0
100
AcDbEntity
  8
image
100
AcDbVertex
100
AcDb2dVertex
 10
2.575770014266804
 20
5.859371506777869
 30
0.0
 70
    16
  0
SEQEND
  5
1714
330
16E0
100
AcDbEntity
  8
image
  0
POLYLINE
  5
16FF
330
10C1
100
AcDbEntity
  8
image
100
AcDb2dPolyline
 66
     1
 10
0.0
 20
0.0
 30
0.0
 70
     4
 75
     6
  0
VERTEX
  5
179E
330
16FF
100
AcDbEntity
  8
image
100
AcDbVertex
100
AcDb2dVertex
 10
2.337668676074201
 20
2.877843623877035
 30
0.0
 70
    16
  0
VERTEX
  5
17B5
330
16FF
100
AcDbEntity
  8
image
100
AcDbVertex
100
AcDb2dVertex
 10
2.337668676074201
 20
2.877843623877035
 30
0.0
 70
     8
  0
VERTEX
  5
17B6
330
16FF
100
AcDbEntity
  8
image
100
AcDbVertex
100
AcDb2dVertex
 10
2.339740547264971
 20
2.882407169559727
 30
0.0
 70
     8
  0
VERTEX
  5
17B7
330
16FF
100
AcDbEntity
  8
image
100
AcDbVertex
100
AcDb2dVertex
 10
2.341272986417551
 20
2.886156219521284
 30
0.0
 70
     8
  0
VERTEX
  5
17B8
330
16FF
100
AcDbEntity
  8
image
100
AcDbVertex
100
AcDb2dVertex
 10
2.342334730580178
 20
2.889206914656822
 30
0.0
 70
     8
  0
VERTEX
  5
17B9
330
16FF
100
AcDbEntity
  8
image
100
AcDbVertex
100
AcDb2dVertex
 10
2.342994516801089
 20
2.891675395861453
 30
0.0
 70
     8
  0
VERTEX
  5
17BA
330
16FF
100
AcDbEntity
  8
image
100
AcDbVertex
100
AcDb2dVertex
 10
2.343321082128519
 20
2.893677804030294
 30
0.0
 70
     8
  0
VERTEX
  5
17BB
330
16FF
100
AcDbEntity
  8
image
100
AcDbVertex
100
AcDb2dVertex
 10
2.343383163610704
 20
2.895330280058458
 30
0.0
 70
     8
  0
VERTEX
  5
17BC
330
16FF
100
AcDbEntity
  8
image
100
AcDbVertex
100
AcDb2dVertex
 10
2.343249498295883
 20
2.89674896484106
 30
0.0
 70
     8
  0
VERTEX
  5
17BD
330
16FF
100
AcDbEntity
  8
image
100
AcDbVertex
100
AcDb2dVertex
 10
2.342988823232291
 20
2.898049999273215
 30
0.0
 70
     8
  0
VERTEX
  5
17BE
330
16FF
100
AcDbEntity
  8
image
100
AcDbVertex
100
AcDb2dVertex
 10
2.342661027798484
 20
2.899328031274437
 30
0.0
 70
     8
  0
VERTEX
  5
17BF
330
16FF
100
AcDbEntity
  8
image
100
AcDbVertex
100
AcDb2dVertex
 10
2.3422906106943
 20
2.900591736861846
 30
0.0
 70
     8
  0
VERTEX
  5
17C0
330
16FF
100
AcDbEntity
  8
image
100
AcDbVertex
100
AcDb2dVertex
 10
2.341893222949896
 20
2.901828299076963
 30
0.0
 70
     8
  0
VERTEX
  5
17C1
330
16FF
100
AcDbEntity
  8
image
100
AcDbVertex
100
AcDb2dVertex
 10
2.341484515595429
 20
2.903024900961308
 30
0.0
 70
     8
  0
VERTEX
  5
17C2
330
16FF
100
AcDbEntity
  8
image
100
AcDbVertex
100
AcDb2dVertex
 10
2.341080139661057
 20
2.904168725556401
 30
0.0
 70
     8
  0
VERTEX
  5
17C3
330
16FF
100
AcDbEntity
  8
image
100
AcDbVertex
100
AcDb2dVertex
 10
2.340695746176938
 20
2.905246955903763
 30
0.0
 70
     8
  0
VERTEX
  5
17C4
330
16FF
100
AcDbEntity
  8
image
100
AcDbVertex
100
AcDb2dVertex
 10
2.340346986173227
 20
2.906246775044914
 30
0.0
 70
     8
  0
VERTEX
  5
17C5
330
16FF
100
AcDbEntity
  8
image
100
AcDbVertex
100
AcDb2dVertex
 10
2.340049510680084
 20
2.907155366021374
 30
0.0
 70
     8
  0
VERTEX
  5
17C6
330
16FF
100
AcDbEntity
  8
image
100
AcDbVertex
100
AcDb2dVertex
 10
2.339815783693019
 20
2.907964514353162
 30
0.0
 70
     8
  0
VERTEX
  5
17C7
330
16FF
100
AcDbEntity
  8
image
100
AcDbVertex
100
AcDb2dVertex
 10
2.339645521068962
 20
2.908684415474289
 30
0.0
 70
     8
  0
VERTEX
  5
17C8
330
16FF
100
AcDbEntity
  8
image
100
AcDbVertex
100
AcDb2dVertex
 10
2.339535251630198
 20
2.909329867297265
 30
0.0
 70
     8
  0
VERTEX
  5
17C9
330
16FF
100
AcDbEntity
  8
image
100
AcDbVertex
100
AcDb2dVertex
 10
2.339481504199009
 20
2.909915667734598
 30
0.0
 70
     8
  0
VERTEX
  5
17CA
330
16FF
100
AcDbEntity
  8
image
100
AcDbVertex
100
AcDb2dVertex
 10
2.339480807597681
 20
2.910456614698799
 30
0.0
 70
     8
  0
VERTEX
  5
17CB
330
16FF
100
AcDbEntity
  8
image
100
AcDbVertex
100
AcDb2dVertex
 10
2.339529690648497
 20
2.910967506102377
 30
0.0
 70
     8
  0
VERTEX
  5
17CC
330
16FF
100
AcDbEntity
  8
image
100
AcDbVertex
100
AcDb2dVertex
 10
2.33962468217374
 20
2.911463139857841
 30
0.0
 70
     8
  0
VERTEX
  5
17CD
330
16FF
100
AcDbEntity
  8
image
100
AcDbVertex
100
AcDb2dVertex
 10
2.339762310995696
 20
2.9119583138777
 30
0.0
 70
     8
  0
VERTEX
  5
17CE
330
16FF
100
AcDbEntity
  8
image
100
AcDbVertex
100
AcDb2dVertex
 10
2.339955483609267
 20
2.912479773286898
 30
0.0
 70
     8
  0
VERTEX
  5
17CF
330
16FF
100
AcDbEntity
  8
image
100
AcDbVertex
100
AcDb2dVertex
 10
2.340282617199834
 20
2.913102052060106
 30
0.0
 70
     8
  0
VERTEX
  5
17D0
330
16FF
100
AcDbEntity
  8
image
100
AcDbVertex
100
AcDb2dVertex
 10
2.340838506625399
 20
2.913911631384432
 30
0.0
 70
     8
  0
VERTEX
  5
17D1
330
16FF
100
AcDbEntity
  8
image
100
AcDbVertex
100
AcDb2dVertex
 10
2.341717946743961
 20
2.914994992446982
 30
0.0
 70
     8
  0
VERTEX
  5
17D2
330
16FF
100
AcDbEntity
  8
image
100
AcDbVertex
100
AcDb2dVertex
 10
2.34301573241352
 20
2.916438616434862
 30
0.0
 70
     8
  0
VERTEX
  5
17D3
330
16FF
100
AcDbEntity
  8
image
100
AcDbVertex
100
AcDb2dVertex
 10
2.344826658492078
 20
2.918328984535177
 30
0.0
 70
     8
  0
VERTEX
  5
17D4
330
16FF
100
AcDbEntity
  8
image
100
AcDbVertex
100
AcDb2dVertex
 10
2.347245519837636
 20
2.920752577935036
 30
0.0
 70
     8
  0
VERTEX
  5
17D5
330
16FF
100
AcDbEntity
  8
image
100
AcDbVertex
100
AcDb2dVertex
 10
2.350367111308192
 20
2.923795877821542
 30
0.0
 70
     8
  0
VERTEX
  5
17D6
330
16FF
100
AcDbEntity
  8
image
100
AcDbVertex
100
AcDb2dVertex
 10
2.354262147127039
 20
2.927541202183305
 30
0.0
 70
     8
  0
VERTEX
  5
17D7
330
16FF
100
AcDbEntity
  8
image
100
AcDbVertex
100
AcDb2dVertex
 10
2.358905018978629
 20
2.932054216214941
 30
0.0
 70
     8
  0
VERTEX
  5
17D8
330
16FF
100
AcDbEntity
  8
image
100
AcDbVertex
100
AcDb2dVertex
 10
2.364246037912706
 20
2.937396421912567
 30
0.0
 70
     8
  0
VERTEX
  5
17D9
330
16FF
100
AcDbEntity
  8
image
100
AcDbVertex
100
AcDb2dVertex
 10
2.370235514979014
 20
2.9436293212723
 30
0.0
 70
     8
  0
VERTEX
  5
17DA
330
16FF
100
AcDbEntity
  8
image
100
AcDbVertex
100
AcDb2dVertex
 10
2.376823761227294
 20
2.950814416290257
 30
0.0
 70
     8
  0
VERTEX
  5
17DB
330
16FF
100
AcDbEntity
  8
image
100
AcDbVertex
100
AcDb2dVertex
 10
2.383961087707292
 20
2.959013208962556
 30
0.0
 70
     8
  0
VERTEX
  5
17DC
330
16FF
100
AcDbEntity
  8
image
100
AcDbVertex
100
AcDb2dVertex
 10
2.391597805468749
 20
2.968287201285315
 30
0.0
 70
     8
  0
VERTEX
  5
17DD
330
16FF
100
AcDbEntity
  8
image
100
AcDbVertex
100
AcDb2dVertex
 10
2.399684225561411
 20
2.978697895254651
 30
0.0
 70
     8
  0
VERTEX
  5
17DE
330
16FF
100
AcDbEntity
  8
image
100
AcDbVertex
100
AcDb2dVertex
 10
2.408159407257639
 20
2.990275361806404
 30
0.0
 70
     8
  0
VERTEX
  5
17DF
330
16FF
100
AcDbEntity
  8
image
100
AcDbVertex
100
AcDb2dVertex
 10
2.41691740272028
 20
3.002923947635313
 30
0.0
 70
     8
  0
VERTEX
  5
17E0
330
16FF
100
AcDbEntity
  8
image
100
AcDbVertex
100
AcDb2dVertex
 10
2.425841012334798
 20
3.016516568375838
 30
0.0
 70
     8
  0
VERTEX
  5
17E1
330
16FF
100
AcDbEntity
  8
image
100
AcDbVertex
100
AcDb2dVertex
 10
2.434813036486658
 20
3.03092613966244
 30
0.0
 70
     8
  0
VERTEX
  5
17E2
330
16FF
100
AcDbEntity
  8
image
100
AcDbVertex
100
AcDb2dVertex
 10
2.443716275561325
 20
3.046025577129581
 30
0.0
 70
     8
  0
VERTEX
  5
17E3
330
16FF
100
AcDbEntity
  8
image
100
AcDbVertex
100
AcDb2dVertex
 10
2.452433529944265
 20
3.06168779641172
 30
0.0
 70
     8
  0
VERTEX
  5
17E4
330
16FF
100
AcDbEntity
  8
image
100
AcDbVertex
100
AcDb2dVertex
 10
2.460847600020941
 20
3.077785713143319
 30
0.0
 70
     8
  0
VERTEX
  5
17E5
330
16FF
100
AcDbEntity
  8
image
100
AcDbVertex
100
AcDb2dVertex
 10
2.46884128617682
 20
3.09419224295884
 30
0.0
 70
     8
  0
VERTEX
  5
17E6
330
16FF
100
AcDbEntity
  8
image
100
AcDbVertex
100
AcDb2dVertex
 10
2.476318138058669
 20
3.110800858927261
 30
0.0
 70
     8
  0
VERTEX
  5
17E7
330
16FF
100
AcDbEntity
  8
image
100
AcDbVertex
100
AcDb2dVertex
 10
2.483264702358461
 20
3.127587263855638
 30
0.0
 70
     8
  0
VERTEX
  5
17E8
330
16FF
100
AcDbEntity
  8
image
100
AcDbVertex
100
AcDb2dVertex
 10
2.489688275029473
 20
3.144547717985544
 30
0.0
 70
     8
  0
VERTEX
  5
17E9
330
16FF
100
AcDbEntity
  8
image
100
AcDbVertex
100
AcDb2dVertex
 10
2.495596152024983
 20
3.161678481558552
 30
0.0
 70
     8
  0
VERTEX
  5
17EA
330
16FF
100
AcDbEntity
  8
image
100
AcDbVertex
100
AcDb2dVertex
 10
2.500995629298266
 20
3.178975814816238
 30
0.0
 70
     8
  0
VERTEX
  5
17EB
330
16FF
100
AcDbEntity
  8
image
100
AcDbVertex
100
AcDb2dVertex
 10
2.505894002802598
 20
3.196435978000173
 30
0.0
 70
     8
  0
VERTEX
  5
17EC
330
16FF
100
AcDbEntity
  8
image
100
AcDbVertex
100
AcDb2dVertex
 10
2.510298568491257
 20
3.214055231351932
 30
0.0
 70
     8
  0
VERTEX
  5
17ED
330
16FF
100
AcDbEntity
  8
image
100
AcDbVertex
100
AcDb2dVertex
 10
2.514216622317518
 20
3.231829835113089
 30
0.0
 70
     8
  0
VERTEX
  5
17EE
330
16FF
100
AcDbEntity
  8
image
100
AcDbVertex
100
AcDb2dVertex
 10
2.517655270630129
 20
3.249752369549659
 30
0.0
 70
     8
  0
VERTEX
  5
17EF
330
16FF
100
AcDbEntity
  8
image
100
AcDbVertex
100
AcDb2dVertex
 10
2.520620861359719
 20
3.267800695025429
 30
0.0
 70
     8
  0
VERTEX
  5
17F0
330
16FF
100
AcDbEntity
  8
image
100
AcDbVertex
100
AcDb2dVertex
 10
2.523119552832386
 20
3.285948991928629
 30
0.0
 70
     8
  0
VERTEX
  5
17F1
330
16FF
100
AcDbEntity
  8
image
100
AcDbVertex
100
AcDb2dVertex
 10
2.52515750337423
 20
3.30417144064749
 30
0.0
 70
     8
  0
VERTEX
  5
17F2
330
16FF
100
AcDbEntity
  8
image
100
AcDbVertex
100
AcDb2dVertex
 10
2.526740871311352
 20
3.322442221570239
 30
0.0
 70
     8
  0
VERTEX
  5
17F3
330
16FF
100
AcDbEntity
  8
image
100
AcDbVertex
100
AcDb2dVertex
 10
2.527875814969849
 20
3.340735515085107
 30
0.0
 70
     8
  0
VERTEX
  5
17F4
330
16FF
100
AcDbEntity
  8
image
100
AcDbVertex
100
AcDb2dVertex
 10
2.528568492675821
 20
3.359025501580324
 30
0.0
 70
     8
  0
VERTEX
  5
17F5
330
16FF
100
AcDbEntity
  8
image
100
AcDbVertex
100
AcDb2dVertex
 10
2.528825062755368
 20
3.377286361444119
 30
0.0
 70
     8
  0
VERTEX
  5
17F6
330
16FF
100
AcDbEntity
  8
image
100
AcDbVertex
100
AcDb2dVertex
 10
2.528658345937004
 20
3.395498018711511
 30
0.0
 70
     8
  0
VERTEX
  5
17F7
330
16FF
100
AcDbEntity
  8
image
100
AcDbVertex
100
AcDb2dVertex
 10
2.528107812558903
 20
3.413663372004678
 30
0.0
 70
     8
  0
VERTEX
  5
17F8
330
16FF
100
AcDbEntity
  8
image
100
AcDbVertex
100
AcDb2dVertex
 10
2.527219595361656
 20
3.431791063592586
 30
0.0
 70
     8
  0
VERTEX
  5
17F9
330
16FF
100
AcDbEntity
  8
image
100
AcDbVertex
100
AcDb2dVertex
 10
2.526039827085852
 20
3.449889735744203
 30
0.0
 70
     8
  0
VERTEX
  5
17FA
330
16FF
100
AcDbEntity
  8
image
100
AcDbVertex
100
AcDb2dVertex
 10
2.524614640472079
 20
3.467968030728496
 30
0.0
 70
     8
  0
VERTEX
  5
17FB
330
16FF
100
AcDbEntity
  8
image
100
AcDbVertex
100
AcDb2dVertex
 10
2.522990168260929
 20
3.486034590814431
 30
0.0
 70
     8
  0
VERTEX
  5
17FC
330
16FF
100
AcDbEntity
  8
image
100
AcDbVertex
100
AcDb2dVertex
 10
2.52121254319299
 20
3.504098058270976
 30
0.0
 70
     8
  0
VERTEX
  5
17FD
330
16FF
100
AcDbEntity
  8
image
100
AcDbVertex
100
AcDb2dVertex
 10
2.519327898008853
 20
3.522167075367097
 30
0.0
 70
     8
  0
VERTEX
  5
17FE
330
16FF
100
AcDbEntity
  8
image
100
AcDbVertex
100
AcDb2dVertex
 10
2.517376718358789
 20
3.540243768375966
 30
0.0
 70
     8
  0
VERTEX
  5
17FF
330
16FF
100
AcDbEntity
  8
image
100
AcDbVertex
100
AcDb2dVertex
 10
2.515376901531801
 20
3.558304199587571
 30
0.0
 70
     8
  0
VERTEX
  5
1800
330
16FF
100
AcDbEntity
  8
image
100
AcDbVertex
100
AcDb2dVertex
 10
2.513340697726574
 20
3.576317915296105
 30
0.0
 70
     8
  0
VERTEX
  5
1801
330
16FF
100
AcDbEntity
  8
image
100
AcDbVertex
100
AcDb2dVertex
 10
2.511280357141794
 20
3.594254461795761
 30
0.0
 70
     8
  0
VERTEX
  5
1802
330
16FF
100
AcDbEntity
  8
image
100
AcDbVertex
100
AcDb2dVertex
 10
2.509208129976145
 20
3.612083385380731
 30
0.0
 70
     8
  0
VERTEX
  5
1803
330
16FF
100
AcDbEntity
  8
image
100
AcDbVertex
100
AcDb2dVertex
 10
2.507136266428314
 20
3.629774232345208
 30
0.0
 70
     8
  0
VERTEX
  5
1804
330
16FF
100
AcDbEntity
  8
image
100
AcDbVertex
100
AcDb2dVertex
 10
2.505077016696984
 20
3.647296548983384
 30
0.0
 70
     8
  0
VERTEX
  5
1805
330
16FF
100
AcDbEntity
  8
image
100
AcDbVertex
100
AcDb2dVertex
 10
2.503042630980842
 20
3.664619881589453
 30
0.0
 70
     8
  0
VERTEX
  5
1806
330
16FF
100
AcDbEntity
  8
image
100
AcDbVertex
100
AcDb2dVertex
 10
2.5010428428167
 20
3.681728386404168
 30
0.0
 70
     8
  0
VERTEX
  5
1807
330
16FF
100
AcDbEntity
  8
image
100
AcDbVertex
100
AcDb2dVertex
 10
2.499077319093883
 20
3.698664659454529
 30
0.0
 70
     8
  0
VERTEX
  5
1808
330
16FF
100
AcDbEntity
  8
image
100
AcDbVertex
100
AcDb2dVertex
 10
2.49714321003984
 20
3.715485906714095
 30
0.0
 70
     8
  0
VERTEX
  5
1809
330
16FF
100
AcDbEntity
  8
image
100
AcDbVertex
100
AcDb2dVertex
 10
2.495237665882023
 20
3.732249334156427
 30
0.0
 70
     8
  0
VERTEX
  5
180A
330
16FF
100
AcDbEntity
  8
image
100
AcDbVertex
100
AcDb2dVertex
 10
2.493357836847883
 20
3.749012147755085
 30
0.0
 70
     8
  0
VERTEX
  5
180B
330
16FF
100
AcDbEntity
  8
image
100
AcDbVertex
100
AcDb2dVertex
 10
2.491500873164871
 20
3.76583155348363
 30
0.0
 70
     8
  0
VERTEX
  5
180C
330
16FF
100
AcDbEntity
  8
image
100
AcDbVertex
100
AcDb2dVertex
 10
2.489663925060439
 20
3.782764757315622
 30
0.0
 70
     8
  0
VERTEX
  5
180D
330
16FF
100
AcDbEntity
  8
image
100
AcDbVertex
100
AcDb2dVertex
 10
2.487844142762038
 20
3.79986896522462
 30
0.0
 70
     8
  0
VERTEX
  5
180E
330
16FF
100
AcDbEntity
  8
image
100
AcDbVertex
100
AcDb2dVertex
 10
2.486041829927301
 20
3.817187262670232
 30
0.0
 70
     8
  0
VERTEX
  5
180F
330
16FF
100
AcDbEntity
  8
image
100
AcDbVertex
100
AcDb2dVertex
 10
2.484269903934593
 20
3.834706253056239
 30
0.0
 70
     8
  0
VERTEX
  5
1810
330
16FF
100
AcDbEntity
  8
image
100
AcDbVertex
100
AcDb2dVertex
 10
2.482544435592462
 20
3.852398419272471
 30
0.0
 70
     8
  0
VERTEX
  5
1811
330
16FF
100
AcDbEntity
  8
image
100
AcDbVertex
100
AcDb2dVertex
 10
2.480881495709455
 20
3.870236244208757
 30
0.0
 70
     8
  0
VERTEX
  5
1812
330
16FF
100
AcDbEntity
  8
image
100
AcDbVertex
100
AcDb2dVertex
 10
2.47929715509412
 20
3.888192210754923
 30
0.0
 70
     8
  0
VERTEX
  5
1813
330
16FF
100
AcDbEntity
  8
image
100
AcDbVertex
100
AcDb2dVertex
 10
2.477807484555004
 20
3.906238801800799
 30
0.0
 70
     8
  0
VERTEX
  5
1814
330
16FF
100
AcDbEntity
  8
image
100
AcDbVertex
100
AcDb2dVertex
 10
2.476428554900655
 20
3.924348500236214
 30
0.0
 70
     8
  0
VERTEX
  5
1815
330
16FF
100
AcDbEntity
  8
image
100
AcDbVertex
100
AcDb2dVertex
 10
2.47517643693962
 20
3.942493788950996
 30
0.0
 70
     8
  0
VERTEX
  5
1816
330
16FF
100
AcDbEntity
  8
image
100
AcDbVertex
100
AcDb2dVertex
 10
2.4740656096705
 20
3.960651262510605
 30
0.0
 70
     8
  0
VERTEX
  5
1817
330
16FF
100
AcDbEntity
  8
image
100
AcDbVertex
100
AcDb2dVertex
 10
2.473104184852116
 20
3.978813962183031
 30
0.0
 70
     8
  0
VERTEX
  5
1818
330
16FF
100
AcDbEntity
  8
image
100
AcDbVertex
100
AcDb2dVertex
 10
2.47229868243334
 20
3.996979040911893
 30
0.0
 70
     8
  0
VERTEX
  5
1819
330
16FF
100
AcDbEntity
  8
image
100
AcDbVertex
100
AcDb2dVertex
 10
2.471655622363047
 20
4.015143651640814
 30
0.0
 70
     8
  0
VERTEX
  5
181A
330
16FF
100
AcDbEntity
  8
image
100
AcDbVertex
100
AcDb2dVertex
 10
2.47118152459011
 20
4.033304947313413
 30
0.0
 70
     8
  0
VERTEX
  5
181B
330
16FF
100
AcDbEntity
  8
image
100
AcDbVertex
100
AcDb2dVertex
 10
2.470882909063402
 20
4.051460080873312
 30
0.0
 70
     8
  0
VERTEX
  5
181C
330
16FF
100
AcDbEntity
  8
image
100
AcDbVertex
100
AcDb2dVertex
 10
2.470766295731797
 20
4.069606205264131
 30
0.0
 70
     8
  0
VERTEX
  5
181D
330
16FF
100
AcDbEntity
  8
image
100
AcDbVertex
100
AcDb2dVertex
 10
2.47083820454417
 20
4.087740473429492
 30
0.0
 70
     8
  0
VERTEX
  5
181E
330
16FF
100
AcDbEntity
  8
image
100
AcDbVertex
100
AcDb2dVertex
 10
2.47110340212975
 20
4.105887473143319
 30
0.0
 70
     8
  0
VERTEX
  5
181F
330
16FF
100
AcDbEntity
  8
image
100
AcDbVertex
100
AcDb2dVertex
 10
2.471559641839201
 20
4.12418153150075
 30
0.0
 70
     8
  0
VERTEX
  5
1820
330
16FF
100
AcDbEntity
  8
image
100
AcDbVertex
100
AcDb2dVertex
 10
2.472202923703544
 20
4.142784410427228
 30
0.0
 70
     8
  0
VERTEX
  5
1821
330
16FF
100
AcDbEntity
  8
image
100
AcDbVertex
100
AcDb2dVertex
 10
2.4730292477538
 20
4.161857871848195
 30
0.0
 70
     8
  0
VERTEX
  5
1822
330
16FF
100
AcDbEntity
  8
image
100
AcDbVertex
100
AcDb2dVertex
 10
2.47403461402099
 20
4.181563677689094
 30
0.0
 70
     8
  0
VERTEX
  5
1823
330
16FF
100
AcDbEntity
  8
image
100
AcDbVertex
100
AcDb2dVertex
 10
2.475215022536134
 20
4.202063589875367
 30
0.0
 70
     8
  0
VERTEX
  5
1824
330
16FF
100
AcDbEntity
  8
image
100
AcDbVertex
100
AcDb2dVertex
 10
2.476566473330253
 20
4.223519370332456
 30
0.0
 70
     8
  0
VERTEX
  5
1825
330
16FF
100
AcDbEntity
  8
image
100
AcDbVertex
100
AcDb2dVertex
 10
2.478084966434368
 20
4.246092780985804
 30
0.0
 70
     8
  0
VERTEX
  5
1826
330
16FF
100
AcDbEntity
  8
image
100
AcDbVertex
100
AcDb2dVertex
 10
2.479759983419388
 20
4.269890457575747
 30
0.0
 70
     8
  0
VERTEX
  5
1827
330
16FF
100
AcDbEntity
  8
image
100
AcDbVertex
100
AcDb2dVertex
 10
2.481554932015772
 20
4.294798531102203
 30
0.0
 70
     8
  0
VERTEX
  5
1828
330
16FF
100
AcDbEntity
  8
image
100
AcDbVertex
100
AcDb2dVertex
 10
2.483426701493865
 20
4.320648006379982
 30
0.0
 70
     8
  0
VERTEX
  5
1829
330
16FF
100
AcDbEntity
  8
image
100
AcDbVertex
100
AcDb2dVertex
 10
2.485332181124014
 20
4.347269888223895
 30
0.0
 70
     8
  0
VERTEX
  5
182A
330
16FF
100
AcDbEntity
  8
image
100
AcDbVertex
100
AcDb2dVertex
 10
2.487228260176567
 20
4.374495181448754
 30
0.0
 70
     8
  0
VERTEX
  5
182B
330
16FF
100
AcDbEntity
  8
image
100
AcDbVertex
100
AcDb2dVertex
 10
2.48907182792187
 20
4.402154890869369
 30
0.0
 70
     8
  0
VERTEX
  5
182C
330
16FF
100
AcDbEntity
  8
image
100
AcDbVertex
100
AcDb2dVertex
 10
2.490819773630268
 20
4.430080021300554
 30
0.0
 70
     8
  0
VERTEX
  5
182D
330
16FF
100
AcDbEntity
  8
image
100
AcDbVertex
100
AcDb2dVertex
 10
2.492428986572109
 20
4.458101577557117
 30
0.0
 70
     8
  0
VERTEX
  5
182E
330
16FF
100
AcDbEntity
  8
image
100
AcDbVertex
100
AcDb2dVertex
 10
2.493866228099805
 20
4.486071755597157
 30
0.0
 70
     8
  0
VERTEX
  5
182F
330
16FF
100
AcDbEntity
  8
image
100
AcDbVertex
100
AcDb2dVertex
 10
2.495137747894038
 20
4.513927515951911
 30
0.0
 70
     8
  0
VERTEX
  5
1830
330
16FF
100
AcDbEntity
  8
image
100
AcDbVertex
100
AcDb2dVertex
 10
2.496259667717556
 20
4.541627010295903
 30
0.0
 70
     8
  0
VERTEX
  5
1831
330
16FF
100
AcDbEntity
  8
image
100
AcDbVertex
100
AcDb2dVertex
 10
2.497248109333103
 20
4.569128390303658
 30
0.0
 70
     8
  0
VERTEX
  5
1832
330
16FF
100
AcDbEntity
  8
image
100
AcDbVertex
100
AcDb2dVertex
 10
2.49811919450343
 20
4.596389807649699
 30
0.0
 70
     8
  0
VERTEX
  5
1833
330
16FF
100
AcDbEntity
  8
image
100
AcDbVertex
100
AcDb2dVertex
 10
2.498889044991282
 20
4.62336941400855
 30
0.0
 70
     8
  0
VERTEX
  5
1834
330
16FF
100
AcDbEntity
  8
image
100
AcDbVertex
100
AcDb2dVertex
 10
2.499573782559408
 20
4.650025361054734
 30
0.0
 70
     8
  0
VERTEX
  5
1835
330
16FF
100
AcDbEntity
  8
image
100
AcDbVertex
100
AcDb2dVertex
 10
2.500189528970553
 20
4.676315800462776
 30
0.0
 70
     8
  0
VERTEX
  5
1836
330
16FF
100
AcDbEntity
  8
image
100
AcDbVertex
100
AcDb2dVertex
 10
2.500750714325278
 20
4.702238859289377
 30
0.0
 70
     8
  0
VERTEX
  5
1837
330
16FF
100
AcDbEntity
  8
image
100
AcDbVertex
100
AcDb2dVertex
 10
2.501265002075387
 20
4.727952566119949
 30
0.0
 70
     8
  0
VERTEX
  5
1838
330
16FF
100
AcDbEntity
  8
image
100
AcDbVertex
100
AcDb2dVertex
 10
2.501738364010497
 20
4.75365492492208
 30
0.0
 70
     8
  0
VERTEX
  5
1839
330
16FF
100
AcDbEntity
  8
image
100
AcDbVertex
100
AcDb2dVertex
 10
2.502176771920223
 20
4.779543939663361
 30
0.0
 70
     8
  0
VERTEX
  5
183A
330
16FF
100
AcDbEntity
  8
image
100
AcDbVertex
100
AcDb2dVertex
 10
2.502586197594182
 20
4.80581761431138
 30
0.0
 70
     8
  0
VERTEX
  5
183B
330
16FF
100
AcDbEntity
  8
image
100
AcDbVertex
100
AcDb2dVertex
 10
2.502972612821991
 20
4.832673952833727
 30
0.0
 70
     8
  0
VERTEX
  5
183C
330
16FF
100
AcDbEntity
  8
image
100
AcDbVertex
100
AcDb2dVertex
 10
2.503341989393264
 20
4.86031095919799
 30
0.0
 70
     8
  0
VERTEX
  5
183D
330
16FF
100
AcDbEntity
  8
image
100
AcDbVertex
100
AcDb2dVertex
 10
2.50370029909762
 20
4.888926637371759
 30
0.0
 70
     8
  0
VERTEX
  5
183E
330
16FF
100
AcDbEntity
  8
image
100
AcDbVertex
100
AcDb2dVertex
 10
2.50405282802345
 20
4.918749229190364
 30
0.0
 70
     8
  0
VERTEX
  5
183F
330
16FF
100
AcDbEntity
  8
image
100
AcDbVertex
100
AcDb2dVertex
 10
2.504402119454255
 20
4.950127927960097
 30
0.0
 70
     8
  0
VERTEX
  5
1840
330
16FF
100
AcDbEntity
  8
image
100
AcDbVertex
100
AcDb2dVertex
 10
2.504750030972309
 20
4.983442164854989
 30
0.0
 70
     8
  0
VERTEX
  5
1841
330
16FF
100
AcDbEntity
  8
image
100
AcDbVertex
100
AcDb2dVertex
 10
2.505098420159888
 20
5.019071371049073
 30
0.0
 70
     8
  0
VERTEX
  5
1842
330
16FF
100
AcDbEntity
  8
image
100
AcDbVertex
100
AcDb2dVertex
 10
2.505449144599269
 20
5.057394977716381
 30
0.0
 70
     8
  0
VERTEX
  5
1843
330
16FF
100
AcDbEntity
  8
image
100
AcDbVertex
100
AcDb2dVertex
 10
2.505804061872726
 20
5.098792416030945
 30
0.0
 70
     8
  0
VERTEX
  5
1844
330
16FF
100
AcDbEntity
  8
image
100
AcDbVertex
100
AcDb2dVertex
 10
2.506165029562535
 20
5.143643117166797
 30
0.0
 70
     8
  0
VERTEX
  5
1845
330
16FF
100
AcDbEntity
  8
image
100
AcDbVertex
100
AcDb2dVertex
 10
2.506533905250973
 20
5.192326512297969
 30
0.0
 70
     8
  0
VERTEX
  5
1846
330
16FF
100
AcDbEntity
  8
image
100
AcDbVertex
100
AcDb2dVertex
 10
2.506912218191097
 20
5.245405761326454
 30
0.0
 70
     8
  0
VERTEX
  5
1847
330
16FF
100
AcDbEntity
  8
image
100
AcDbVertex
100
AcDb2dVertex
 10
2.507300184319094
 20
5.304178939066078
 30
0.0
 70
     8
  0
VERTEX
  5
1848
330
16FF
100
AcDbEntity
  8
image
100
AcDbVertex
100
AcDb2dVertex
 10
2.507697691241934
 20
5.370127849058629
 30
0.0
 70
     8
  0
VERTEX
  5
1849
330
16FF
100
AcDbEntity
  8
image
100
AcDbVertex
100
AcDb2dVertex
 10
2.508104626566585
 20
5.444734294845897
 30
0.0
 70
     8
  0
VERTEX
  5
184A
330
16FF
100
AcDbEntity
  8
image
100
AcDbVertex
100
AcDb2dVertex
 10
2.508520877900016
 20
5.529480079969667
 30
0.0
 70
     8
  0
VERTEX
  5
184B
330
16FF
100
AcDbEntity
  8
image
100
AcDbVertex
100
AcDb2dVertex
 10
2.508946332849198
 20
5.625847007971727
 30
0.0
 70
     8
  0
VERTEX
  5
184C
330
16FF
100
AcDbEntity
  8
image
100
AcDbVertex
100
AcDb2dVertex
 10
2.509380879021099
 20
5.735316882393866
 30
0.0
 70
     8
  0
VERTEX
  5
184D
330
16FF
100
AcDbEntity
  8
image
100
AcDbVertex
100
AcDb2dVertex
 10
2.509824404022688
 20
5.859371506777869
 30
0.0
 70
     8
  0
VERTEX
  5
179F
330
16FF
100
AcDbEntity
  8
image
100
AcDbVertex
100
AcDb2dVertex
 10
2.343974008232272
 20
2.891202309676939
 30
0.0
 70
    16
  0
VERTEX
  5
17A0
330
16FF
100
AcDbEntity
  8
image
100
AcDbVertex
100
AcDb2dVertex
 10
2.34361039870466
 20
2.898066100130101
 30
0.0
 70
    16
  0
VERTEX
  5
17A1
330
16FF
100
AcDbEntity
  8
image
100
AcDbVertex
100
AcDb2dVertex
 10
2.339335531579026
 20
2.908265180668524
 30
0.0
 70
    16
  0
VERTEX
  5
17A2
330
16FF
100
AcDbEntity
  8
image
100
AcDbVertex
100
AcDb2dVertex
 10
2.339344539059739
 20
2.911805373324047
 30
0.0
 70
    16
  0
VERTEX
  5
17A3
330
16FF
100
AcDbEntity
  8
image
100
AcDbVertex
100
AcDb2dVertex
 10
2.341860178156193
 20
2.91626320930149
 30
0.0
 70
    16
  0
VERTEX
  5
17A4
330
16FF
100
AcDbEntity
  8
image
100
AcDbVertex
100
AcDb2dVertex
 10
2.395417416164643
 20
2.965917056399246
 30
0.0
 70
    16
  0
VERTEX
  5
17A5
330
16FF
100
AcDbEntity
  8
image
100
AcDbVertex
100
AcDb2dVertex
 10
2.474575510553702
 20
3.092255936629432
 30
0.0
 70
    16
  0
VERTEX
  5
17A6
330
16FF
100
AcDbEntity
  8
image
100
AcDbVertex
100
AcDb2dVertex
 10
2.519328258681474
 20
3.230212654836066
 30
0.0
 70
    16
  0
VERTEX
  5
17A7
330
16FF
100
AcDbEntity
  8
image
100
AcDbVertex
100
AcDb2dVertex
 10
2.533411188625512
 20
3.377872454704837
 30
0.0
 70
    16
  0
VERTEX
  5
17A8
330
16FF
100
AcDbEntity
  8
image
100
AcDbVertex
100
AcDb2dVertex
 10
2.519977363348685
 20
3.5220156950093
 30
0.0
 70
    16
  0
VERTEX
  5
17A9
330
16FF
100
AcDbEntity
  8
image
100
AcDbVertex
100
AcDb2dVertex
 10
2.502646746032867
 20
3.667067217460547
 30
0.0
 70
    16
  0
VERTEX
  5
17AA
330
16FF
100
AcDbEntity
  8
image
100
AcDbVertex
100
AcDb2dVertex
 10
2.487691438404899
 20
3.797434724685233
 30
0.0
 70
    16
  0
VERTEX
  5
17AB
330
16FF
100
AcDbEntity
  8
image
100
AcDbVertex
100
AcDb2dVertex
 10
2.473652356919763
 20
3.942407675146246
 30
0.0
 70
    16
  0
VERTEX
  5
17AC
330
16FF
100
AcDbEntity
  8
image
100
AcDbVertex
100
AcDb2dVertex
 10
2.468757755553767
 20
4.087897308435762
 30
0.0
 70
    16
  0
VERTEX
  5
17AD
330
16FF
100
AcDbEntity
  8
image
100
AcDbVertex
100
AcDb2dVertex
 10
2.476345848130188
 20
4.232445931687661
 30
0.0
 70
    16
  0
VERTEX
  5
17AE
330
16FF
100
AcDbEntity
  8
image
100
AcDbVertex
100
AcDb2dVertex
 10
2.494368650531692
 20
4.458875650728417
 30
0.0
 70
    16
  0
VERTEX
  5
17AF
330
16FF
100
AcDbEntity
  8
image
100
AcDbVertex
100
AcDb2dVertex
 10
2.500753469175697
 20
4.680660930741374
 30
0.0
 70
    16
  0
VERTEX
  5
17B0
330
16FF
100
AcDbEntity
  8
image
100
AcDbVertex
100
AcDb2dVertex
 10
2.50375464658884
 20
4.876375429082743
 30
0.0
 70
    16
  0
VERTEX
  5
17B1
330
16FF
100
AcDbEntity
  8
image
100
AcDbVertex
100
AcDb2dVertex
 10
2.506429739054665
 20
5.147397177158208
 30
0.0
 70
    16
  0
VERTEX
  5
17B2
330
16FF
100
AcDbEntity
  8
image
100
AcDbVertex
100
AcDb2dVertex
 10
2.508629798817116
 20
5.507795683100894
 30
0.0
 70
    16
  0
VERTEX
  5
17B3
330
16FF
100
AcDbEntity
  8
image
100
AcDbVertex
100
AcDb2dVertex
 10
2.509824404022688
 20
5.859371506777869
 30
0.0
 70
    16
  0
SEQEND
  5
17B4
330
16FF
100
AcDbEntity
  8
image
  0
ENDSEC
  0
SECTION
  2
OBJECTS
  0
DICTIONARY
  5
10AF
330
0
100
AcDbDictionary
281
     1
  3
ACAD_COLOR
350
121C
  3
ACAD_GROUP
350
10B0
  3
ACAD_LAYOUT
350
10BC
  3
ACAD_MATERIAL
350
11F2
  3
ACAD_MLEADERSTYLE
350
1241
  3
ACAD_MLINESTYLE
350
10B9
  3
ACAD_PLOTSETTINGS
350
10BB
  3
ACAD_PLOTSTYLENAME
350
10B1
  3
ACAD_SCALELIST
350
121F
  3
ACAD_TABLESTYLE
350
121D
  3
ACAD_VISUALSTYLE
350
120B
  3
ACDB_RECOMPOSE_DATA
350
12BC
  3
AcDbVariableDictionary
350
10DD
  3
AEC_PROPERTY_SET_DEFS
350
1350
1001
BBSI_PltSel
1000
1
1000

1001
BBSI_Bookmarks
1000
1
1000
1
1000
0
1000
1
1000
0
1000
0
1000
0
1000
0
1000
0
1000
0
1000
0
1001
BBSI_BookmarksEx
1000
0
1000
0
1000

1000
0
1001
BBSI_Plots
1000

1000
ANSI_A_(11.00_x_8.50_Inches)
1000
279.399993896484
1000
215.899993896484
1000
0
1000
1
1000
1
1000
1.513528885555E-14
1000
17.9871359092673
1000
1
1000
0
1000
1
1000
1.56885758041751
1000
0
1000
1
1000
PDF BW Shaded.ctb
1000
0
1000
0
1000
1
1000
1
1000
0
1000
0
1000
0
1000
0
1000
0
1000
0
1000

1000

  0
DICTIONARY
  5
10EB
330
10A5
100
AcDbDictionary
280
     1
281
     1
  3
ACAD_LAYERFILTERS
360
189F
  3
ACAD_LAYERSTATES
360
10EC
  0
DICTIONARY
  5
12AB
330
10C1
100
AcDbDictionary
280
     1
281
     1
  0
DICTIONARY
  5
1316
330
1195
100
AcDbDictionary
280
     1
281
     1
  3
ACAD_SORTENTS
360
1344
  0
DICTIONARY
  5
18CE
330
12DA
100
AcDbDictionary
280
     1
281
     1
  3
ACAD_MTEXT_2008_RT
360
18CF
  0
DICTIONARY
  5
121C
102
{ACAD_REACTORS
330
10AF
102
}
330
10AF
100
AcDbDictionary
281
     1
  0
DICTIONARY
  5
10B0
102
{ACAD_REACTORS
330
10AF
102
}
330
10AF
100
AcDbDictionary
281
     1
  0
DICTIONARY
  5
10BC
102
{ACAD_REACTORS
330
10AF
102
}
330
10AF
100
AcDbDictionary
281
     1
  3
Layout1
350
10C0
  3
Model
350
10C4
  0
DICTIONARY
  5
11F2
102
{ACAD_REACTORS
330
10AF
102
}
330
10AF
100
AcDbDictionary
281
     1
  3
ByBlock
350
11FB
  3
ByLayer
350
11F3
  3
Global
350
1203
  0
DICTIONARY
  5
1241
102
{ACAD_REACTORS
330
10AF
102
}
330
10AF
100
AcDbDictionary
281
     1
  3
Standard
350
1242
  0
DICTIONARY
  5
10B9
102
{ACAD_REACTORS
330
10AF
102
}
330
10AF
100
AcDbDictionary
281
     1
  3
Standard
350
10BA
  0
DICTIONARY
  5
10BB
102
{ACAD_REACTORS
330
10AF
102
}
330
10AF
100
AcDbDictionary
281
     1
  3
1055 24x36 BW
350
1256
  3
1055 24x36 BW Final
350
1258
  3
1055 24x36 Color
350
1259
  3
1055 24x36 Color Shaded
350
125A
  3
1055 30x42 BW
350
125B
  3
1055 30x42 BW Final
350
125C
  3
1055 B&W Draft
350
125D
  3
1055 B&W Final
350
125E
  3
1055 BW Half
350
125F
  3
1055 Color Draft
350
1260
  3
1055 Color Final
350
1261
  3
1055+ 24x36 BW
350
1262
  3
1055+ 24x36 BW Final
350
1263
  3
1055+ 24x36 Color
350
1264
  3
1055+ 24x36 Color Shaded
350
1265
  3
1055+ 30x42 BW
350
1266
  3
1055+ 30x42 BW Final
350
1267
  3
1055+ B&W Draft
350
1268
  3
1055+ B&W Final
350
1269
  3
1055+ BW Half
350
126A
  3
1055+ Color Draft
350
126B
  3
1055+ Color Final
350
126C
  3
_1055 22x34 True Centered BW
350
126D
  3
_1055 24x36 True Centered BW
350
126E
  3
_1055 24x36 True Centered BW Final
350
126F
  3
_1055 24x36 True Centered Color
350
1270
  3
_1055 30x42 True Centered BW
350
1271
  3
_1055+ 22x34 True Centered BW
350
1272
  3
_1055+ 24x36 True Centered BW
350
1273
  3
_1055+ 24x36 True Centered BW Final
350
1274
  3
_1055+ 24x36 True Centered Color
350
1275
  3
DWF BW 11x17 Fit
350
1276
  3
DWF BW 11x17 Half
350
1277
  3
DWF BW 22x34
350
1278
  3
DWF BW 24x36
350
1279
  3
DWF BW 30x42
350
127A
  3
DWF BW 36x48
350
127B
  3
Laser5 11x17 Fit
350
127C
  3
Laser5 11x17 Full
350
127D
  3
Laser5 11x17 Half
350
127E
  3
Laser5 8x11 Fit
350
127F
  3
Laser5 8x11 Half
350
1280
  3
Laser5 8x11 Portrait Fit
350
1281
  3
LaserJet5 11x17
350
1282
  3
LaserJet5 8.5x11
350
1283
  3
Oki9500 11x17 BW Fit
350
1284
  3
Oki9500 11x17 BW Full
350
1285
  3
Oki9500 11x17 BW Half
350
1286
  3
Oki9500 11x17 Color Fit
350
1287
  3
Oki9500 11x17 Color Full
350
1288
  3
Oki9500 11x17 Color Half
350
1289
  3
Oki9500 8x11 BW Fit
350
128A
  3
Oki9500 8x11 BW Portrait Fit
350
128B
  3
Oki9500 8x11 Color Fit
350
128C
  3
Oki9500 8x11 Color Portrait Fit
350
128D
  3
OKI9500 B&W 11x17
350
128E
  3
OKI9500 B&W 8.5x11
350
128F
  3
OKI9500 Color 11x17
350
1290
  3
OKI9500 Color 8.5x11
350
1291
  3
Oki9600 11x17 BW Fit
350
1292
  3
Oki9600 11x17 BW Full
350
1293
  3
Oki9600 11x17 BW Half
350
1294
  3
Oki9600 11x17 Color Fit
350
1295
  3
Oki9600 11x17 Color Full
350
1296
  3
Oki9600 11x17 Color Half
350
1297
  3
Oki9600 8x11 BW Fit
350
1298
  3
Oki9600 8x11 BW Portrait Fit
350
1299
  3
Oki9600 8x11 Color Fit
350
129A
  3
Oki9600 8x11 Color Portrait Fit
350
129B
  3
OKI9600 B&W 11x17
350
129C
  3
OKI9600 B&W 8.5x11
350
129D
  3
OKI9600 Color 11x17
350
129E
  3
OKI9600 Color 8.5x11
350
129F
  3
PHX Kyocera 11x17 Fit
350
12A0
  3
PHX Oki9500 11x17 BW Fit
350
12A1
  3
PHX Oki9500 11x17 BW Half
350
12A2
  0
ACDBDICTIONARYWDFLT
  5
10B1
102
{ACAD_REACTORS
330
10AF
102
}
330
10AF
100
AcDbDictionary
281
     1
  3
Normal
350
10B2
100
AcDbDictionaryWithDefault
340
10B2
  0
DICTIONARY
  5
121F
102
{ACAD_REACTORS
330
10AF
102
}
330
10AF
100
AcDbDictionary
281
     1
  3
A0
350
1220
  3
A1
350
1221
  3
A2
350
1222
  3
A3
350
1223
  3
A4
350
1224
  3
A5
350
1225
  3
A6
350
1226
  3
A7
350
1227
  3
A8
350
1228
  3
A9
350
1229
  3
B0
350
122A
  3
B1
350
122B
  3
B2
350
122C
  3
B3
350
122D
  3
B4
350
122E
  3
B5
350
122F
  3
B6
350
1230
  3
B7
350
1231
  3
B8
350
1232
  3
B9
350
1233
  3
C0
350
1234
  3
C1
350
1235
  3
C2
350
1236
  3
C3
350
1237
  3
C4
350
1238
  3
C5
350
1239
  3
C6
350
123A
  3
C7
350
123B
  3
C8
350
123C
  3
C9
350
123D
  3
D0
350
123E
  3
D1
350
123F
  3
D2
350
1240
  0
DICTIONARY
  5
121D
102
{ACAD_REACTORS
330
10AF
102
}
330
10AF
100
AcDbDictionary
281
     1
  3
Standard
350
121E
  0
DICTIONARY
  5
120B
102
{ACAD_REACTORS
330
10AF
102
}
330
10AF
100
AcDbDictionary
281
     1
  3
2dWireframe
350
1211
  3
3D Hidden
350
1213
  3
3dWireframe
350
1212
  3
Basic
350
1210
  3
Brighten
350
1217
  3
ColorChange
350
121B
  3
Conceptual
350
1214
  3
Dim
350
1216
  3
Facepattern
350
121A
  3
Flat
350
120C
  3
FlatWithEdges
350
120D
  3
Gouraud
350
120E
  3
GouraudWithEdges
350
120F
  3
Linepattern
350
1219
  3
Realistic
350
1215
  3
Thicken
350
1218
  0
XRECORD
  5
12BC
102
{ACAD_REACTORS
330
10AF
102
}
330
10AF
100
AcDbXrecord
280
     1
 90
        1
330
121E
330
12DA
  0
DICTIONARY
  5
10DD
102
{ACAD_REACTORS
330
10AF
102
}
330
10AF
100
AcDbDictionary
281
     1
  3
CANNOSCALE
350
12C0
  3
CMLEADERSTYLE
350
12BE
  3
CTABLESTYLE
350
12BD
  3
DIMASSOC
350
10E0
  3
HIDETEXT
350
10DF
  3
LAYEREVAL
350
18BE
  3
LAYERNOTIFY
350
12C2
  3
LIGHTINGUNITS
350
12C1
  3
MSLTSCALE
350
12BF
  3
SORTENTS
350
10DE
  3
UPDATETHUMBNAIL
350
1898
  0
DICTIONARY
  5
1350
102
{ACAD_REACTORS
330
10AF
102
}
330
10AF
100
AcDbDictionary
281
     1
  0
DICTIONARY
  5
189F
102
{ACAD_REACTORS
330
10EB
102
}
330
10EB
100
AcDbDictionary
281
     1
  3
_0100-
350
18A2
  3
_0280-
350
18A1
  3
_Color 253
350
18A5
  3
_Color 8
350
18A3
  3
_Color 84
350
18A4
  3
_Contours
350
18AA
  3
_Existing
350
18A6
  3
_Hardscape
350
18A9
  3
_NoXref
350
18A0
  3
_Row
350
18A7
  3
_Utility
350
18A8
  0
DICTIONARY
  5
10EC
102
{ACAD_REACTORS
330
10EB
102
}
330
10EB
100
AcDbDictionary
281
     1
  0
SORTENTSTABLE
  5
1344
102
{ACAD_REACTORS
330
1316
102
}
330
1316
100
AcDbSortentsTable
330
1195
  0
XRECORD
  5
18CF
102
{ACAD_REACTORS
330
18CE
102
}
330
18CE
100
AcDbXrecord
280
     1
 40
9453074.0
  1
\A1;PLANT MATERIAL \P\PFINISH GRADE \P\P\pxi-2,l2;MICRO-SPRAY POP-UP:\P\pt2;^IRAIN BIRD XERI-POP XP-400X\P\pi0,l0,tz;{\H0.7x;\S1#4;\H1.4286x;" BARB TRANSFER CONNECTION:\P\pi-2,l2,t2;^IRAIN BIRD XBF1CONN} \P\pi0,l0,tz;{\Fromans|c0;\H0.7x;\S1#2;\H1.4286x
  1
;" POLYETHYLENE TUBING:\P\pi-2,l2;  RAIN BIRD XF SERIES TUBING OR\P\pi0,l0;  RAIN BIRD XT-700 XERI-TUBE OR\P  RAIN BIRD XBS BLACK STRIPE TUBING}   \P\pi-2,l2;{\Fromans|c0;\H0.7x;\S1#4;\H1.4286x;" DISTRIBUTION TUBING:  \P  RAIN BIRD XQ TUBING}
  0
LAYOUT
  5
10C0
102
{ACAD_REACTORS
330
10BC
102
}
330
10BC
100
AcDbPlotSettings
  1

  2
S:\AutoCAD 2002\Plotters\1055B&WDraftShaded.pc3
  4

  6

 40
0.0
 41
0.0
 42
0.0
 43
0.0
 44
0.0
 45
0.0
 46
0.0
 47
0.0
 48
0.0
 49
0.0
140
0.0
141
0.0
142
1.0
143
1.0
 70
   688
 72
     0
 73
     0
 74
     5
  7
TRexLJ5Shaded2.ctb
 75
    16
147
1.0
 76
     0
 77
     2
 78
   300
148
0.0
149
0.0
100
AcDbLayout
  1
Layout1
 70
     1
 71
     1
 10
0.0
 20
0.0
 11
12.0
 21
9.0
 12
0.0
 22
0.0
 32
0.0
 14
1.000000000000000E+20
 24
1.000000000000000E+20
 34
1.000000000000000E+20
 15
-1.000000000000000E+20
 25
-1.000000000000000E+20
 35
-1.000000000000000E+20
146
0.0
 13
0.0
 23
0.0
 33
0.0
 16
1.0
 26
0.0
 36
0.0
 17
0.0
 27
1.0
 37
0.0
 76
     0
330
10BD
  0
LAYOUT
  5
10C4
102
{ACAD_REACTORS
330
10BC
102
}
330
10BC
100
AcDbPlotSettings
  1
LaserJet5 8.5x11
  2
LaserJet5Shaded-8x11.pc3
  4
Letter
  6

 40
5.873749732971191
 41
5.873734951019287
 42
6.55108642578125
 43
5.027084350585937
 44
279.3999938964844
 45
215.8999938964844
 46
32.0229288755689
 47
-0.0000000000000076
 48
0.0
 49
0.0
140
0.0
141
0.0
142
1.0
143
1.293546671707545
 70
 11956
 72
     0
 73
     0
 74
     1
  7
laserjet5shaded.ctb
 75
     0
147
0.7730683568455638
 76
     0
 77
     2
 78
   300
148
12.66076841047503
149
32.36515640156503
100
AcDbLayout
  1
Model
 70
     1
 71
     0
 10
0.0
 20
0.0
 11
12.0
 21
9.0
 12
0.0
 22
0.0
 32
0.0
 14
0.0
 24
0.0
 34
0.0
 15
0.0
 25
0.0
 35
0.0
146
0.0
 13
0.0
 23
0.0
 33
0.0
 16
1.0
 26
0.0
 36
0.0
 17
0.0
 27
1.0
 37
0.0
 76
     0
330
10C1
331
11F0
1001
ACAD_PSEXT
1000
LaserJet5Shaded-8x11.pc3
1000
HP LaserJet 5Si
1000
CAD Area
1000

1070
     0
  0
MATERIAL
  5
11FB
102
{ACAD_XDICTIONARY
360
11FC
102
}
102
{ACAD_REACTORS
330
11F2
102
}
330
11F2
100
AcDbMaterial
  1
ByBlock
 72
     0
 43
0.0208333333333333
 43
0.0
 43
0.0
 43
0.0
 43
0.0
 43
0.0208333333333333
 43
0.0
 43
0.0
 43
0.0
 43
0.0
 43
1.0
 43
0.0
 43
0.0
 43
0.0
 43
0.0
 43
1.0
 77
     0
 47
0.0208333333333333
 47
0.0
 47
0.0
 47
0.0
 47
0.0
 47
0.0208333333333333
 47
0.0
 47
0.0
 47
0.0
 47
0.0
 47
1.0
 47
0.0
 47
0.0
 47
0.0
 47
0.0
 47
1.0
171
     0
 49
0.0208333333333333
 49
0.0
 49
0.0
 49
0.0
 49
0.0
 49
0.0208333333333333
 49
0.0
 49
0.0
 49
0.0
 49
0.0
 49
1.0
 49
0.0
 49
0.0
 49
0.0
 49
0.0
 49
1.0
175
     0
142
0.0208333333333333
142
0.0
142
0.0
142
0.0
142
0.0
142
0.0208333333333333
142
0.0
142
0.0
142
0.0
142
0.0
142
1.0
142
0.0
142
0.0
142
0.0
142
0.0
142
1.0
179
     0
144
0.0208333333333333
144
0.0
144
0.0
144
0.0
144
0.0
144
0.0208333333333333
144
0.0
144
0.0
144
0.0
144
0.0
144
1.0
144
0.0
144
0.0
144
0.0
144
0.0
144
1.0
147
0.0208333333333333
147
0.0
147
0.0
147
0.0
147
0.0
147
0.0208333333333333
147
0.0
147
0.0
147
0.0
147
0.0
147
1.0
147
0.0
147
0.0
147
0.0
147
0.0
147
1.0
  0
MATERIAL
  5
11F3
102
{ACAD_XDICTIONARY
360
11F4
102
}
102
{ACAD_REACTORS
330
11F2
102
}
330
11F2
100
AcDbMaterial
  1
ByLayer
 72
     0
 43
0.0208333333333333
 43
0.0
 43
0.0
 43
0.0
 43
0.0
 43
0.0208333333333333
 43
0.0
 43
0.0
 43
0.0
 43
0.0
 43
1.0
 43
0.0
 43
0.0
 43
0.0
 43
0.0
 43
1.0
 77
     0
 47
0.0208333333333333
 47
0.0
 47
0.0
 47
0.0
 47
0.0
 47
0.0208333333333333
 47
0.0
 47
0.0
 47
0.0
 47
0.0
 47
1.0
 47
0.0
 47
0.0
 47
0.0
 47
0.0
 47
1.0
171
     0
 49
0.0208333333333333
 49
0.0
 49
0.0
 49
0.0
 49
0.0
 49
0.0208333333333333
 49
0.0
 49
0.0
 49
0.0
 49
0.0
 49
1.0
 49
0.0
 49
0.0
 49
0.0
 49
0.0
 49
1.0
175
     0
142
0.0208333333333333
142
0.0
142
0.0
142
0.0
142
0.0
142
0.0208333333333333
142
0.0
142
0.0
142
0.0
142
0.0
142
1.0
142
0.0
142
0.0
142
0.0
142
0.0
142
1.0
179
     0
144
0.0208333333333333
144
0.0
144
0.0
144
0.0
144
0.0
144
0.0208333333333333
144
0.0
144
0.0
144
0.0
144
0.0
144
1.0
144
0.0
144
0.0
144
0.0
144
0.0
144
1.0
147
0.0208333333333333
147
0.0
147
0.0
147
0.0
147
0.0
147
0.0208333333333333
147
0.0
147
0.0
147
0.0
147
0.0
147
1.0
147
0.0
147
0.0
147
0.0
147
0.0
147
1.0
  0
MATERIAL
  5
1203
102
{ACAD_XDICTIONARY
360
1204
102
}
102
{ACAD_REACTORS
330
11F2
102
}
330
11F2
100
AcDbMaterial
  1
Global
 72
     0
 43
0.0208333333333333
 43
0.0
 43
0.0
 43
0.0
 43
0.0
 43
0.0208333333333333
 43
0.0
 43
0.0
 43
0.0
 43
0.0
 43
1.0
 43
0.0
 43
0.0
 43
0.0
 43
0.0
 43
1.0
 77
     0
 47
0.0208333333333333
 47
0.0
 47
0.0
 47
0.0
 47
0.0
 47
0.0208333333333333
 47
0.0
 47
0.0
 47
0.0
 47
0.0
 47
1.0
 47
0.0
 47
0.0
 47
0.0
 47
0.0
 47
1.0
171
     0
 49
0.0208333333333333
 49
0.0
 49
0.0
 49
0.0
 49
0.0
 49
0.0208333333333333
 49
0.0
 49
0.0
 49
0.0
 49
0.0
 49
1.0
 49
0.0
 49
0.0
 49
0.0
 49
0.0
 49
1.0
175
     0
142
0.0208333333333333
142
0.0
142
0.0
142
0.0
142
0.0
142
0.0208333333333333
142
0.0
142
0.0
142
0.0
142
0.0
142
1.0
142
0.0
142
0.0
142
0.0
142
0.0
142
1.0
179
     0
144
0.0208333333333333
144
0.0
144
0.0
144
0.0
144
0.0
144
0.0208333333333333
144
0.0
144
0.0
144
0.0
144
0.0
144
1.0
144
0.0
144
0.0
144
0.0
144
0.0
144
1.0
147
0.0208333333333333
147
0.0
147
0.0
147
0.0
147
0.0
147
0.0208333333333333
147
0.0
147
0.0
147
0.0
147
0.0
147
1.0
147
0.0
147
0.0
147
0.0
147
0.0
147
1.0
  0
MLEADERSTYLE
  5
1242
102
{ACAD_REACTORS
330
1241
102
}
330
1241
100
AcDbMLeaderStyle
170
     2
171
     1
172
     0
 90
        2
 40
0.0
 41
0.0
173
     1
 91
-1056964608
340
10B6
 92
       -2
290
     1
 42
0.09
291
     1
 43
0.36
  3
Standard
 44
0.18
300

342
10B4
174
     1
178
     6
175
     1
176
     0
 93
-1056964608
 45
0.18
292
     0
297
     0
 46
0.18
 94
-1056964608
 47
1.0
 49
1.0
140
1.0
293
     1
141
0.0
294
     1
177
     0
142
1.0
295
     0
296
     0
143
0.125
1001
ACAD_MLEADERVER
1070
     2
  0
MLINESTYLE
  5
10BA
102
{ACAD_REACTORS
330
10B9
102
}
330
10B9
100
AcDbMlineStyle
  2
STANDARD
 70
     0
  3

 62
   256
 51
90.0
 52
90.0
 71
     2
 49
0.5
 62
   256
  6
BYLAYER
 49
-0.5
 62
   256
  6
BYLAYER
  0
PLOTSETTINGS
  5
1256
102
{ACAD_REACTORS
330
10BB
102
}
330
10BB
100
AcDbPlotSettings
  1
1055 24x36 BW
  2
1055B&WDraftShaded.pc3
  4
User257
  6

 40
14.98600006103515
 41
8.297271728515625
 42
14.9859619140625
 43
8.29736328125
 44
914.3153076171875
 45
1269.915283203125
 46
0.0
 47
0.0
 48
0.0
 49
0.0
140
0.0
141
0.0
142
1.0
143
1.0
 70
  2800
 72
     0
 73
     2
 74
     1
  7
1055B&WFullDraftShaded.ctb
 75
    16
147
1.0
 76
     0
 77
     2
 78
   300
148
-75.74468520391772
149
-27.53050504688192
1001
ACAD_PSEXT
1000
1055B&WDraftShaded.pc3
1000
HP DesignJet 1055CM by HP
1000
FRONT
1000

1070
     0
  0
PLOTSETTINGS
  5
1258
102
{ACAD_REACTORS
330
10BB
102
}
330
10BB
100
AcDbPlotSettings
  1
1055 24x36 BW Final
  2
1055B&WFinalShaded.pc3
  4
User257
  6

 40
14.98600006103515
 41
8.297271728515625
 42
14.9859619140625
 43
8.29736328125
 44
914.357666015625
 45
1269.957641601562
 46
0.0
 47
0.0
 48
0.0
 49
0.0
140
0.0
141
0.0
142
1.0
143
1.0
 70
  2800
 72
     0
 73
     2
 74
     1
  7
1055B&WFullFinalShaded.ctb
 75
    16
147
1.0
 76
     0
 77
     2
 78
   300
148
-75.74468520391772
149
-27.53050504688192
1001
ACAD_PSEXT
1000
1055B&WFinalShaded.pc3
1000
HP DesignJet 1055CM by HP
1000
FRONT
1000

1070
     0
  0
PLOTSETTINGS
  5
1259
102
{ACAD_REACTORS
330
10BB
102
}
330
10BB
100
AcDbPlotSettings
  1
1055 24x36 Color
  2
1055ColorDraftShaded.pc3
  4
User257
  6

 40
14.98600006103515
 41
8.297271728515625
 42
14.9859619140625
 43
8.29736328125
 44
914.3153076171875
 45
1269.915283203125
 46
0.0
 47
0.0
 48
0.0
 49
0.0
140
0.0
141
0.0
142
1.0
143
1.0
 70
  2800
 72
     0
 73
     2
 74
     1
  7
Color.ctb
 75
    16
147
1.0
 76
     0
 77
     2
 78
   300
148
-75.74468520391772
149
-27.53050504688192
1001
ACAD_PSEXT
1000
1055ColorDraftShaded.pc3
1000
HP DesignJet 1055CM by HP
1000
FRONT
1000

1070
     0
  0
PLOTSETTINGS
  5
125A
102
{ACAD_REACTORS
330
10BB
102
}
330
10BB
100
AcDbPlotSettings
  1
1055 24x36 Color Shaded
  2
1055ColorDraftShaded.pc3
  4
User257
  6

 40
14.98600006103515
 41
8.297271728515625
 42
14.9859619140625
 43
8.29736328125
 44
914.3153076171875
 45
1269.915283203125
 46
0.0
 47
0.0
 48
0.0
 49
0.0
140
0.0
141
0.0
142
1.0
143
1.0
 70
  2800
 72
     0
 73
     2
 74
     1
  7
1055ColorFullDraftShaded.ctb
 75
    16
147
1.0
 76
     0
 77
     2
 78
   300
148
-75.74468520391772
149
-27.53050504688192
1001
ACAD_PSEXT
1000
1055ColorDraftShaded.pc3
1000
HP DesignJet 1055CM by HP
1000
FRONT
1000

1070
     0
  0
PLOTSETTINGS
  5
125B
102
{ACAD_REACTORS
330
10BB
102
}
330
10BB
100
AcDbPlotSettings
  1
1055 30x42 BW
  2
1055B&WDraftShaded.pc3
  4
User257
  6

 40
14.98600006103515
 41
8.297271728515625
 42
14.9859619140625
 43
8.29736328125
 44
914.3153076171875
 45
1269.915283203125
 46
0.0
 47
0.0
 48
0.0
 49
0.0
140
0.0
141
0.0
142
1.0
143
1.0
 70
  2800
 72
     0
 73
     1
 74
     1
  7
1055B&WFullDraftShaded.ctb
 75
    16
147
1.0
 76
     0
 77
     2
 78
   300
148
-75.74468520391772
149
-27.53050504688192
1001
ACAD_PSEXT
1000
1055B&WDraftShaded.pc3
1000
HP DesignJet 1055CM by HP
1000
FRONT
1000

1070
     0
  0
PLOTSETTINGS
  5
125C
102
{ACAD_REACTORS
330
10BB
102
}
330
10BB
100
AcDbPlotSettings
  1
1055 30x42 BW Final
  2
1055B&WFinalShaded.pc3
  4
User257
  6

 40
14.98600006103515
 41
8.297271728515625
 42
14.9859619140625
 43
8.29736328125
 44
914.357666015625
 45
1269.957641601562
 46
0.0
 47
0.0
 48
0.0
 49
0.0
140
0.0
141
0.0
142
1.0
143
1.0
 70
  2800
 72
     0
 73
     1
 74
     1
  7
1055B&WFullFinalShaded.ctb
 75
    16
147
1.0
 76
     0
 77
     2
 78
   300
148
-75.74468520391772
149
-27.53050504688192
1001
ACAD_PSEXT
1000
1055B&WFinalShaded.pc3
1000
HP DesignJet 1055CM by HP
1000
FRONT
1000

1070
     0
  0
PLOTSETTINGS
  5
125D
102
{ACAD_REACTORS
330
10BB
102
}
330
10BB
100
AcDbPlotSettings
  1
1055 B&W Draft
  2
1055B&WDraftShaded.pc3
  4
User257
  6

 40
4.995333194732666
 41
8.297271728515625
 42
4.99530029296875
 43
8.29736328125
 44
914.3153076171875
 45
1269.915283203125
 46
0.0
 47
0.0
 48
0.0
 49
0.0
140
0.0
141
0.0
142
1.0
143
30.0
 70
 11936
 72
     0
 73
     2
 74
     1
  7
1055B&WFullDraftShaded.ctb
 75
     0
147
3.484472351238056
 76
     0
 77
     2
 78
   300
148
-119.4582094169044
149
-58.17053554795709
1001
ACAD_PSEXT
1000
1055B&WDraftShaded.pc3
1000
HP DesignJet 1055CM by HP
1000
\\aqua-srv01
1000

1070
     0
  0
PLOTSETTINGS
  5
125E
102
{ACAD_REACTORS
330
10BB
102
}
330
10BB
100
AcDbPlotSettings
  1
1055 B&W Final
  2
1055B&WFinalShaded.pc3
  4
User257
  6

 40
4.995333194732666
 41
8.297271728515625
 42
4.99530029296875
 43
8.29736328125
 44
914.357666015625
 45
1269.957641601562
 46
0.0
 47
0.0
 48
0.0
 49
0.0
140
0.0
141
0.0
142
1.0
143
30.0
 70
 11936
 72
     0
 73
     2
 74
     1
  7
1055B&WFullFinalShaded.ctb
 75
     0
147
3.484472351238056
 76
     0
 77
     2
 78
   300
148
-119.4582094169044
149
-58.17053554795709
1001
ACAD_PSEXT
1000
1055B&WFinalShaded.pc3
1000
HP DesignJet 1055CM by HP
1000
\\aqua-srv01
1000

1070
     0
  0
PLOTSETTINGS
  5
125F
102
{ACAD_REACTORS
330
10BB
102
}
330
10BB
100
AcDbPlotSettings
  1
1055 BW Half
  2
1055B&WDraftShaded.pc3
  4
User257
  6

 40
14.98600006103515
 41
8.297271728515625
 42
14.9859619140625
 43
8.29736328125
 44
914.3153076171875
 45
1269.915283203125
 46
0.0
 47
0.0
 48
0.0
 49
0.0
140
0.0
141
0.0
142
1.0
143
2.0
 70
  2800
 72
     0
 73
     2
 74
     1
  7
1055B&WFullDraftShaded.ctb
 75
    17
147
0.5
 76
     0
 77
     2
 78
   300
148
-75.74468520391772
149
-27.53050504688192
1001
ACAD_PSEXT
1000
1055B&WDraftShaded.pc3
1000
HP DesignJet 1055CM by HP
1000
FRONT
1000

1070
     0
  0
PLOTSETTINGS
  5
1260
102
{ACAD_REACTORS
330
10BB
102
}
330
10BB
100
AcDbPlotSettings
  1
1055 Color Draft
  2
1055ColorDraftShaded.pc3
  4
User257
  6

 40
4.995333194732666
 41
8.297271728515625
 42
4.99530029296875
 43
8.29736328125
 44
914.3153076171875
 45
1269.915283203125
 46
0.0
 47
0.0
 48
0.0
 49
0.0
140
0.0
141
0.0
142
1.0
143
30.0
 70
 11936
 72
     0
 73
     2
 74
     1
  7
1055ColorFullDraftShaded.ctb
 75
     0
147
3.484472351238056
 76
     0
 77
     2
 78
   300
148
-119.4582094169044
149
-58.17053554795709
1001
ACAD_PSEXT
1000
1055ColorDraftShaded.pc3
1000
HP DesignJet 1055CM by HP
1000
\\aqua-srv01
1000

1070
     0
  0
PLOTSETTINGS
  5
1261
102
{ACAD_REACTORS
330
10BB
102
}
330
10BB
100
AcDbPlotSettings
  1
1055 Color Final
  2
1055ColorFinalShaded.pc3
  4
User257
  6

 40
4.995333194732666
 41
8.297271728515625
 42
4.99530029296875
 43
8.29736328125
 44
914.357666015625
 45
1269.957641601562
 46
0.0
 47
0.0
 48
0.0
 49
0.0
140
0.0
141
0.0
142
1.0
143
30.0
 70
 11936
 72
     0
 73
     2
 74
     1
  7
1055ColorFullFinalShaded.ctb
 75
     0
147
3.484472351238056
 76
     0
 77
     2
 78
   300
148
-119.4582094169044
149
-58.17053554795709
1001
ACAD_PSEXT
1000
1055ColorFinalShaded.pc3
1000
HP DesignJet 1055CM by HP
1000
\\aqua-srv01
1000

1070
     0
  0
PLOTSETTINGS
  5
1262
102
{ACAD_REACTORS
330
10BB
102
}
330
10BB
100
AcDbPlotSettings
  1
1055+ 24x36 BW
  2
1055_PLUS_B&WDraftShaded.pc3
  4
User257
  6

 40
14.98600006103515
 41
8.297271728515625
 42
14.9859619140625
 43
8.29736328125
 44
914.3153076171875
 45
1269.915283203125
 46
0.0
 47
0.0
 48
0.0
 49
0.0
140
0.0
141
0.0
142
1.0
143
1.0
 70
  2800
 72
     0
 73
     2
 74
     1
  7
1055B&WFullDraftShaded.ctb
 75
    16
147
1.0
 76
     0
 77
     2
 78
   300
148
-75.74468520391772
149
-27.53050504688192
1001
ACAD_PSEXT
1000
1055_PLUS_B&WDraftShaded.pc3
1000
HP DesignJet 1055CM by HP
1000
FRONT
1000

1070
     0
  0
PLOTSETTINGS
  5
1263
102
{ACAD_REACTORS
330
10BB
102
}
330
10BB
100
AcDbPlotSettings
  1
1055+ 24x36 BW Final
  2
1055_PLUS_B&WFinalShaded.pc3
  4
User257
  6

 40
14.98600006103515
 41
8.297271728515625
 42
14.9859619140625
 43
8.29736328125
 44
914.357666015625
 45
1269.957641601562
 46
0.0
 47
0.0
 48
0.0
 49
0.0
140
0.0
141
0.0
142
1.0
143
1.0
 70
  2800
 72
     0
 73
     2
 74
     1
  7
1055B&WFullFinalShaded.ctb
 75
    16
147
1.0
 76
     0
 77
     2
 78
   300
148
-75.74468520391772
149
-27.53050504688192
1001
ACAD_PSEXT
1000
1055_PLUS_B&WFinalShaded.pc3
1000
HP DesignJet 1055CM by HP
1000
FRONT
1000

1070
     0
  0
PLOTSETTINGS
  5
1264
102
{ACAD_REACTORS
330
10BB
102
}
330
10BB
100
AcDbPlotSettings
  1
1055+ 24x36 Color
  2
1055_PLUS_ColorDraftShaded.pc3
  4
User257
  6

 40
14.98600006103515
 41
8.297271728515625
 42
14.9859619140625
 43
8.29736328125
 44
914.3153076171875
 45
1269.915283203125
 46
0.0
 47
0.0
 48
0.0
 49
0.0
140
0.0
141
0.0
142
1.0
143
1.0
 70
  2800
 72
     0
 73
     2
 74
     1
  7
Color.ctb
 75
    16
147
1.0
 76
     0
 77
     2
 78
   300
148
-75.74468520391772
149
-27.53050504688192
1001
ACAD_PSEXT
1000
1055_PLUS_ColorDraftShaded.pc3
1000
HP DesignJet 1055CM by HP
1000
FRONT
1000

1070
     0
  0
PLOTSETTINGS
  5
1265
102
{ACAD_REACTORS
330
10BB
102
}
330
10BB
100
AcDbPlotSettings
  1
1055+ 24x36 Color Shaded
  2
1055_PLUS_ColorDraftShaded.pc3
  4
User257
  6

 40
14.98600006103515
 41
8.297271728515625
 42
14.9859619140625
 43
8.29736328125
 44
914.3153076171875
 45
1269.915283203125
 46
0.0
 47
0.0
 48
0.0
 49
0.0
140
0.0
141
0.0
142
1.0
143
1.0
 70
  2800
 72
     0
 73
     2
 74
     1
  7
1055ColorFullDraftShaded.ctb
 75
    16
147
1.0
 76
     0
 77
     2
 78
   300
148
-75.74468520391772
149
-27.53050504688192
1001
ACAD_PSEXT
1000
1055_PLUS_ColorDraftShaded.pc3
1000
HP DesignJet 1055CM by HP
1000
FRONT
1000

1070
     0
  0
PLOTSETTINGS
  5
1266
102
{ACAD_REACTORS
330
10BB
102
}
330
10BB
100
AcDbPlotSettings
  1
1055+ 30x42 BW
  2
1055_PLUS_B&WDraftShaded.pc3
  4
User257
  6

 40
14.98600006103515
 41
8.297271728515625
 42
14.9859619140625
 43
8.29736328125
 44
914.3153076171875
 45
1269.915283203125
 46
0.0
 47
0.0
 48
0.0
 49
0.0
140
0.0
141
0.0
142
1.0
143
1.0
 70
  2800
 72
     0
 73
     1
 74
     1
  7
1055B&WFullDraftShaded.ctb
 75
    16
147
1.0
 76
     0
 77
     2
 78
   300
148
-75.74468520391772
149
-27.53050504688192
1001
ACAD_PSEXT
1000
1055_PLUS_B&WDraftShaded.pc3
1000
HP DesignJet 1055CM by HP
1000
FRONT
1000

1070
     0
  0
PLOTSETTINGS
  5
1267
102
{ACAD_REACTORS
330
10BB
102
}
330
10BB
100
AcDbPlotSettings
  1
1055+ 30x42 BW Final
  2
1055_PLUS_B&WFinalShaded.pc3
  4
User257
  6

 40
14.98600006103515
 41
8.297271728515625
 42
14.9859619140625
 43
8.29736328125
 44
914.357666015625
 45
1269.957641601562
 46
0.0
 47
0.0
 48
0.0
 49
0.0
140
0.0
141
0.0
142
1.0
143
1.0
 70
  2800
 72
     0
 73
     1
 74
     1
  7
1055B&WFullFinalShaded.ctb
 75
    16
147
1.0
 76
     0
 77
     2
 78
   300
148
-75.74468520391772
149
-27.53050504688192
1001
ACAD_PSEXT
1000
1055_PLUS_B&WFinalShaded.pc3
1000
HP DesignJet 1055CM by HP
1000
FRONT
1000

1070
     0
  0
PLOTSETTINGS
  5
1268
102
{ACAD_REACTORS
330
10BB
102
}
330
10BB
100
AcDbPlotSettings
  1
1055+ B&W Draft
  2
1055_PLUS_B&WDraftShaded.pc3
  4
User257
  6

 40
4.995333194732666
 41
13.2926607131958
 42
4.99530029296875
 43
13.292724609375
 44
914.3153076171875
 45
1269.915283203125
 46
0.0
 47
0.0
 48
0.0
 49
0.0
140
0.0
141
0.0
142
1.0
143
30.0
 70
 11936
 72
     0
 73
     2
 74
     1
  7
1055B&WFullDraftShaded.ctb
 75
     0
147
3.484472351238056
 76
     0
 77
     2
 78
   300
148
-119.4582094169044
149
-58.17053554795709
1001
ACAD_PSEXT
1000
1055_PLUS_B&WDraftShaded.pc3
1000
HP DesignJet 1055CM by HP
1000
\\aqua-srv01
1000

1070
     0
  0
PLOTSETTINGS
  5
1269
102
{ACAD_REACTORS
330
10BB
102
}
330
10BB
100
AcDbPlotSettings
  1
1055+ B&W Final
  2
1055_PLUS_B&WFinalShaded.pc3
  4
User257
  6

 40
4.995333194732666
 41
13.2926607131958
 42
4.99530029296875
 43
13.292724609375
 44
914.357666015625
 45
1269.957641601562
 46
0.0
 47
0.0
 48
0.0
 49
0.0
140
0.0
141
0.0
142
1.0
143
30.0
 70
 11936
 72
     0
 73
     2
 74
     1
  7
1055B&WFullFinalShaded.ctb
 75
     0
147
3.484472351238056
 76
     0
 77
     2
 78
   300
148
-119.4582094169044
149
-58.17053554795709
1001
ACAD_PSEXT
1000
1055_PLUS_B&WFinalShaded.pc3
1000
HP DesignJet 1055CM by HP
1000
\\aqua-srv01
1000

1070
     0
  0
PLOTSETTINGS
  5
126A
102
{ACAD_REACTORS
330
10BB
102
}
330
10BB
100
AcDbPlotSettings
  1
1055+ BW Half
  2
1055_PLUS_B&WDraftShaded.pc3
  4
User257
  6

 40
14.98600006103515
 41
8.297271728515625
 42
14.9859619140625
 43
8.29736328125
 44
914.3153076171875
 45
1269.915283203125
 46
0.0
 47
0.0
 48
0.0
 49
0.0
140
0.0
141
0.0
142
1.0
143
2.0
 70
  2800
 72
     0
 73
     2
 74
     1
  7
1055B&WFullDraftShaded.ctb
 75
    17
147
0.5
 76
     0
 77
     2
 78
   300
148
-75.74468520391772
149
-27.53050504688192
1001
ACAD_PSEXT
1000
1055_PLUS_B&WDraftShaded.pc3
1000
HP DesignJet 1055CM by HP
1000
FRONT
1000

1070
     0
  0
PLOTSETTINGS
  5
126B
102
{ACAD_REACTORS
330
10BB
102
}
330
10BB
100
AcDbPlotSettings
  1
1055+ Color Draft
  2
1055_PLUS_ColorDraftShaded.pc3
  4
User257
  6

 40
4.995333194732666
 41
8.297271728515625
 42
4.99530029296875
 43
8.29736328125
 44
914.3153076171875
 45
1269.915283203125
 46
0.0
 47
0.0
 48
0.0
 49
0.0
140
0.0
141
0.0
142
1.0
143
30.0
 70
 11936
 72
     0
 73
     2
 74
     1
  7
1055ColorFullDraftShaded.ctb
 75
     0
147
3.484472351238056
 76
     0
 77
     2
 78
   300
148
-119.4582094169044
149
-58.17053554795709
1001
ACAD_PSEXT
1000
1055_PLUS_ColorDraftShaded.pc3
1000
HP DesignJet 1055CM by HP
1000
\\aqua-srv01
1000

1070
     0
  0
PLOTSETTINGS
  5
126C
102
{ACAD_REACTORS
330
10BB
102
}
330
10BB
100
AcDbPlotSettings
  1
1055+ Color Final
  2
1055_PLUS_ColorFinalShaded.pc3
  4
User257
  6

 40
4.995333194732666
 41
13.2926607131958
 42
4.99530029296875
 43
13.292724609375
 44
914.357666015625
 45
1269.957641601562
 46
0.0
 47
0.0
 48
0.0
 49
0.0
140
0.0
141
0.0
142
1.0
143
30.0
 70
 11936
 72
     0
 73
     2
 74
     1
  7
1055ColorFullFinalShaded.ctb
 75
     0
147
3.484472351238056
 76
     0
 77
     2
 78
   300
148
-119.4582094169044
149
-58.17053554795709
1001
ACAD_PSEXT
1000
1055_PLUS_ColorFinalShaded.pc3
1000
HP DesignJet 1055CM by HP
1000
\\aqua-srv01
1000

1070
     0
  0
PLOTSETTINGS
  5
126D
102
{ACAD_REACTORS
330
10BB
102
}
330
10BB
100
AcDbPlotSettings
  1
_1055 22x34 True Centered BW
  2
1055B&WDraftShaded 24x36 true.pc3
  4
User1639
  6

 40
0.0
 41
0.0
 42
0.0
 43
0.0
 44
863.6000366210938
 45
558.7999877929687
 46
379.1860116761152
 47
224.9166389522296
 48
0.0
 49
0.0
140
0.0
141
0.0
142
1.0
143
1.0
 70
  2804
 72
     0
 73
     0
 74
     1
  7
1055B&WFullDraftShaded.ctb
 75
    16
147
1.0
 76
     0
 77
     2
 78
   300
148
-75.74468520391772
149
-27.53050504688192
1001
ACAD_PSEXT
1000
1055B&WDraftShaded 24x36 true.pc3
1000
HP DesignJet 1055CM by HP
1000
FRONT
1000

1070
     0
  0
PLOTSETTINGS
  5
126E
102
{ACAD_REACTORS
330
10BB
102
}
330
10BB
100
AcDbPlotSettings
  1
_1055 24x36 True Centered BW
  2
1055B&WDraftShaded 24x36 true.pc3
  4
User1308
  6

 40
14.98600006103515
 41
8.297332763671875
 42
14.9859619140625
 43
8.29736328125
 44
914.3153076171875
 45
609.5153198242187
 46
389.5576661866133
 47
241.9769569453936
 48
0.0
 49
0.0
140
0.0
141
0.0
142
1.0
143
1.0
 70
  2804
 72
     0
 73
     0
 74
     1
  7
1055B&WFullDraftShaded.ctb
 75
    16
147
1.0
 76
     0
 77
     2
 78
   300
148
-75.74468520391772
149
-27.53050504688192
1001
ACAD_PSEXT
1000
1055B&WDraftShaded 24x36 true.pc3
1000
HP DesignJet 1055CM by HP
1000
FRONT
1000

1070
     0
  0
PLOTSETTINGS
  5
126F
102
{ACAD_REACTORS
330
10BB
102
}
330
10BB
100
AcDbPlotSettings
  1
_1055 24x36 True Centered BW Final
  2
1055B&WFinalShaded 24x36 true.pc3
  4
User1308
  6

 40
14.98600006103515
 41
8.297332763671875
 42
14.9859619140625
 43
8.29736328125
 44
914.357666015625
 45
609.5576782226562
 46
389.578845385832
 47
241.9981361446124
 48
0.0
 49
0.0
140
0.0
141
0.0
142
1.0
143
1.0
 70
  2804
 72
     0
 73
     0
 74
     1
  7
1055B&WFullFinalShaded.ctb
 75
    16
147
1.0
 76
     0
 77
     2
 78
   300
148
-75.74468520391772
149
-27.53050504688192
1001
ACAD_PSEXT
1000
1055B&WFinalShaded 24x36 true.pc3
1000
HP DesignJet 1055CM by HP
1000
FRONT
1000

1070
     0
  0
PLOTSETTINGS
  5
1270
102
{ACAD_REACTORS
330
10BB
102
}
330
10BB
100
AcDbPlotSettings
  1
_1055 24x36 True Centered Color
  2
1055ColorDraftShaded 24x36 true.pc3
  4
User1308
  6

 40
14.98600006103515
 41
8.297332763671875
 42
14.9859619140625
 43
8.29736328125
 44
914.3153076171875
 45
609.5153198242187
 46
389.5576661866133
 47
241.9769569453936
 48
0.0
 49
0.0
140
0.0
141
0.0
142
1.0
143
1.0
 70
  2804
 72
     0
 73
     0
 74
     1
  7
1055ColorFullDraftShaded.ctb
 75
    16
147
1.0
 76
     0
 77
     2
 78
   300
148
-75.74468520391772
149
-27.53050504688192
1001
ACAD_PSEXT
1000
1055ColorDraftShaded 24x36 true.pc3
1000
HP DesignJet 1055CM by HP
1000
FRONT
1000

1070
     0
  0
PLOTSETTINGS
  5
1271
102
{ACAD_REACTORS
330
10BB
102
}
330
10BB
100
AcDbPlotSettings
  1
_1055 30x42 True Centered BW
  2
1055B&WDraftShaded 30x42 true.pc3
  4
User286
  6

 40
0.0
 41
0.0
 42
-0.08465576171875
 43
-0.084716796875
 44
761.9153442382812
 45
1066.71533203125
 46
326.5166450557452
 47
480.7860177796309
 48
0.0
 49
0.0
140
0.0
141
0.0
142
1.0
143
1.0
 70
  2804
 72
     0
 73
     1
 74
     1
  7
1055B&WFullDraftShaded.ctb
 75
    16
147
1.0
 76
     0
 77
     2
 78
   300
148
-75.74468520391772
149
-27.53050504688192
1001
ACAD_PSEXT
1000
1055B&WDraftShaded 30x42 true.pc3
1000
HP DesignJet 1055CM by HP
1000
FRONT
1000

1070
     0
  0
PLOTSETTINGS
  5
1272
102
{ACAD_REACTORS
330
10BB
102
}
330
10BB
100
AcDbPlotSettings
  1
_1055+ 22x34 True Centered BW
  2
1055_PLUS_B&WDraftShaded 24x36 true.pc3
  4
User1639
  6

 40
0.0
 41
0.0
 42
0.0
 43
0.0
 44
863.6000366210938
 45
558.7999877929687
 46
379.1860116761152
 47
224.9166389522296
 48
0.0
 49
0.0
140
0.0
141
0.0
142
1.0
143
1.0
 70
  2804
 72
     0
 73
     0
 74
     1
  7
1055B&WFullDraftShaded.ctb
 75
    16
147
1.0
 76
     0
 77
     2
 78
   300
148
-75.74468520391772
149
-27.53050504688192
1001
ACAD_PSEXT
1000
1055_PLUS_B&WDraftShaded 24x36 true.pc3
1000
HP DesignJet 1055CM by HP
1000
FRONT
1000

1070
     0
  0
PLOTSETTINGS
  5
1273
102
{ACAD_REACTORS
330
10BB
102
}
330
10BB
100
AcDbPlotSettings
  1
_1055+ 24x36 True Centered BW
  2
1055_PLUS_B&WDraftShaded 24x36 true.pc3
  4
User1308
  6

 40
14.98600006103515
 41
8.297332763671875
 42
14.9859619140625
 43
8.29736328125
 44
914.3153076171875
 45
609.5153198242187
 46
389.5576661866133
 47
241.9769569453936
 48
0.0
 49
0.0
140
0.0
141
0.0
142
1.0
143
1.0
 70
  2804
 72
     0
 73
     0
 74
     1
  7
1055B&WFullDraftShaded.ctb
 75
    16
147
1.0
 76
     0
 77
     2
 78
   300
148
-75.74468520391772
149
-27.53050504688192
1001
ACAD_PSEXT
1000
1055_PLUS_B&WDraftShaded 24x36 true.pc3
1000
HP DesignJet 1055CM by HP
1000
FRONT
1000

1070
     0
  0
PLOTSETTINGS
  5
1274
102
{ACAD_REACTORS
330
10BB
102
}
330
10BB
100
AcDbPlotSettings
  1
_1055+ 24x36 True Centered BW Final
  2
1055_PLUS_B&WFinalShaded 24x36 true.pc3
  4
User1308
  6

 40
14.98600006103515
 41
8.297332763671875
 42
14.9859619140625
 43
8.29736328125
 44
914.357666015625
 45
609.5576782226562
 46
389.578845385832
 47
241.9981361446124
 48
0.0
 49
0.0
140
0.0
141
0.0
142
1.0
143
1.0
 70
  2804
 72
     0
 73
     0
 74
     1
  7
1055B&WFullFinalShaded.ctb
 75
    16
147
1.0
 76
     0
 77
     2
 78
   300
148
-75.74468520391772
149
-27.53050504688192
1001
ACAD_PSEXT
1000
1055_PLUS_B&WFinalShaded 24x36 true.pc3
1000
HP DesignJet 1055CM by HP
1000
FRONT
1000

1070
     0
  0
PLOTSETTINGS
  5
1275
102
{ACAD_REACTORS
330
10BB
102
}
330
10BB
100
AcDbPlotSettings
  1
_1055+ 24x36 True Centered Color
  2
1055_PLUS_ColorDraftShaded 24x36 true.pc3
  4
User1308
  6

 40
14.98600006103515
 41
8.297332763671875
 42
14.9859619140625
 43
8.29736328125
 44
914.3153076171875
 45
609.5153198242187
 46
389.5576661866133
 47
241.9769569453936
 48
0.0
 49
0.0
140
0.0
141
0.0
142
1.0
143
1.0
 70
  2804
 72
     0
 73
     0
 74
     1
  7
1055ColorFullDraftShaded.ctb
 75
    16
147
1.0
 76
     0
 77
     2
 78
   300
148
-75.74468520391772
149
-27.53050504688192
1001
ACAD_PSEXT
1000
1055_PLUS_ColorDraftShaded 24x36 true.pc3
1000
HP DesignJet 1055CM by HP
1000
FRONT
1000

1070
     0
  0
PLOTSETTINGS
  5
1276
102
{ACAD_REACTORS
330
10BB
102
}
330
10BB
100
AcDbPlotSettings
  1
DWF BW 11x17 Fit
  2
DWF-BW_11x17.pc3
  4
UserDefinedImperial (17.00 x 11.00Inches)
  6

 40
0.0
 41
0.0
 42
0.0
 43
0.0
 44
431.7999877929687
 45
279.3999938964844
 46
80.99316641155249
 47
0.000000000000005
 48
0.0
 49
0.0
140
0.0
141
0.0
142
1.0
143
0.3900025492802298
 70
  2740
 72
     0
 73
     0
 74
     1
  7
1055B&WFullFinalShaded.ctb
 75
     0
147
2.564085803658341
 76
     0
 77
     2
 78
   300
148
-75.74468520391772
149
-27.53050504688192
1001
ACAD_PSEXT
1000
DWF-BW_11x17.pc3
1000
DWF eView (optimized for viewing)
1000
File
1000

1070
     0
  0
PLOTSETTINGS
  5
1277
102
{ACAD_REACTORS
330
10BB
102
}
330
10BB
100
AcDbPlotSettings
  1
DWF BW 11x17 Half
  2
DWF-BW_11x17.pc3
  4
UserDefinedImperial (17.00 x 11.00Inches)
  6

 40
0.0
 41
0.0
 42
0.0
 43
0.0
 44
431.7999877929687
 45
279.3999938964844
 46
189.5929905792686
 47
112.4583194761148
 48
0.0
 49
0.0
140
0.0
141
0.0
142
1.0
143
2.0
 70
  2740
 72
     0
 73
     0
 74
     1
  7
1055B&WFullFinalShaded.ctb
 75
    17
147
0.5
 76
     0
 77
     2
 78
   300
148
-75.74468520391772
149
-27.53050504688192
1001
ACAD_PSEXT
1000
DWF-BW_11x17.pc3
1000
DWF eView (optimized for viewing)
1000
File
1000

1070
     0
  0
PLOTSETTINGS
  5
1278
102
{ACAD_REACTORS
330
10BB
102
}
330
10BB
100
AcDbPlotSettings
  1
DWF BW 22x34
  2
DWF-BW_22x34.pc3
  4
UserDefinedImperial (34.00 x 22.00Inches)
  6

 40
0.0
 41
0.0
 42
0.0
 43
0.0
 44
863.5999755859375
 45
558.7999877929687
 46
379.1859811585372
 47
224.9166389522296
 48
0.0
 49
0.0
140
0.0
141
0.0
142
1.0
143
1.0
 70
  2740
 72
     0
 73
     0
 74
     1
  7
1055B&WFullFinalShaded.ctb
 75
    16
147
1.0
 76
     0
 77
     2
 78
   300
148
-75.74468520391772
149
-27.53050504688192
1001
ACAD_PSEXT
1000
DWF-BW_22x34.pc3
1000
DWF eView (optimized for viewing)
1000
File
1000

1070
     0
  0
PLOTSETTINGS
  5
1279
102
{ACAD_REACTORS
330
10BB
102
}
330
10BB
100
AcDbPlotSettings
  1
DWF BW 24x36
  2
DWF-BW_24x36.pc3
  4
UserDefinedImperial (36.00 x 24.00Inches)
  6

 40
0.0
 41
0.0
 42
0.0
 43
0.0
 44
914.4000244140626
 45
609.5999755859375
 46
404.5860055725996
 47
250.3166328487139
 48
0.0
 49
0.0
140
0.0
141
0.0
142
1.0
143
1.0
 70
  2740
 72
     0
 73
     0
 74
     1
  7
1055B&WFullFinalShaded.ctb
 75
    16
147
1.0
 76
     0
 77
     2
 78
   300
148
-75.74468520391772
149
-27.53050504688192
1001
ACAD_PSEXT
1000
DWF-BW_24x36.pc3
1000
DWF eView (optimized for viewing)
1000
File
1000

1070
     0
  0
PLOTSETTINGS
  5
127A
102
{ACAD_REACTORS
330
10BB
102
}
330
10BB
100
AcDbPlotSettings
  1
DWF BW 30x42
  2
DWF-BW_30x42.pc3
  4
UserDefinedImperial (42.00 x 30.00Inches)
  6

 40
0.0
 41
0.0
 42
0.0
 43
0.0
 44
1066.800048828125
 45
762.0
 46
480.7860177796309
 47
326.5166450557452
 48
0.0
 49
0.0
140
0.0
141
0.0
142
1.0
143
1.0
 70
  2740
 72
     0
 73
     0
 74
     1
  7
1055B&WFullFinalShaded.ctb
 75
    16
147
1.0
 76
     0
 77
     2
 78
   300
148
-75.74468520391772
149
-27.53050504688192
1001
ACAD_PSEXT
1000
DWF-BW_30x42.pc3
1000
DWF eView (optimized for viewing)
1000
File
1000

1070
     0
  0
PLOTSETTINGS
  5
127B
102
{ACAD_REACTORS
330
10BB
102
}
330
10BB
100
AcDbPlotSettings
  1
DWF BW 36x48
  2
DWF-BW_36x48.pc3
  4
UserDefinedImperial (48.00 x 36.00Inches)
  6

 40
0.0
 41
0.0
 42
0.0
 43
0.0
 44
1219.199951171875
 45
914.4000244140626
 46
556.9859689515058
 47
402.7166572627765
 48
0.0
 49
0.0
140
0.0
141
0.0
142
1.0
143
1.0
 70
  2740
 72
     0
 73
     0
 74
     1
  7
1055B&WFullFinalShaded.ctb
 75
    16
147
1.0
 76
     0
 77
     2
 78
   300
148
-75.74468520391772
149
-27.53050504688192
1001
ACAD_PSEXT
1000
DWF-BW_36x48.pc3
1000
DWF eView (optimized for viewing)
1000
File
1000

1070
     0
  0
PLOTSETTINGS
  5
127C
102
{ACAD_REACTORS
330
10BB
102
}
330
10BB
100
AcDbPlotSettings
  1
Laser5 11x17 Fit
  2
LaserJet5Shaded.pc3
  4
11x17
  6

 40
5.873749732971191
 41
5.027085304260253
 42
5.873748779296875
 43
5.027069091796875
 44
431.7999877929687
 45
279.3999938964844
 46
79.97401308328474
 47
0.0
 48
0.0
 49
0.0
140
0.0
141
0.0
142
1.0
143
0.4045605831172927
 70
  2740
 72
     0
 73
     0
 74
     1
  7
LaserJet5Shaded.ctb
 75
     0
147
2.471817675104729
 76
     0
 77
     2
 78
   300
148
-75.74468520391772
149
-27.53050504688192
1001
ACAD_PSEXT
1000
LaserJet5Shaded.pc3
1000
HP LaserJet 5Si
1000
\\aqua-srv01
1000

1070
     0
  0
PLOTSETTINGS
  5
127D
102
{ACAD_REACTORS
330
10BB
102
}
330
10BB
100
AcDbPlotSettings
  1
Laser5 11x17 Full
  2
LaserJet5Shaded.pc3
  4
11x17
  6

 40
5.873749732971191
 41
5.027085304260253
 42
5.873748779296875
 43
5.027069091796875
 44
431.7999877929687
 45
279.3999938964844
 46
157.4122380059187
 47
80.18956480595884
 48
0.0
 49
0.0
140
0.0
141
0.0
142
1.0
143
1.0
 70
  2724
 72
     0
 73
     0
 74
     1
  7
LaserJet5Shaded.ctb
 75
     0
147
2.433550528115671
 76
     0
 77
     2
 78
   300
148
-75.74468520391772
149
-27.53050504688192
1001
ACAD_PSEXT
1000
LaserJet5Shaded.pc3
1000
HP LaserJet 5Si
1000
\\aqua-srv01
1000

1070
     0
  0
PLOTSETTINGS
  5
127E
102
{ACAD_REACTORS
330
10BB
102
}
330
10BB
100
AcDbPlotSettings
  1
Laser5 11x17 Half
  2
LaserJet5Shaded.pc3
  4
11x17
  6

 40
5.873749732971191
 41
5.027085304260253
 42
5.873748779296875
 43
5.027069091796875
 44
431.7999877929687
 45
279.3999938964844
 46
183.7192413231345
 47
107.4312422780862
 48
0.0
 49
0.0
140
0.0
141
0.0
142
1.0
143
2.0
 70
  2740
 72
     0
 73
     0
 74
     1
  7
LaserJet5Shaded.ctb
 75
    17
147
0.5
 76
     0
 77
     2
 78
   300
148
-75.74468520391772
149
-27.53050504688192
1001
ACAD_PSEXT
1000
LaserJet5Shaded.pc3
1000
HP LaserJet 5Si
1000
\\aqua-srv01
1000

1070
     0
  0
PLOTSETTINGS
  5
127F
102
{ACAD_REACTORS
330
10BB
102
}
330
10BB
100
AcDbPlotSettings
  1
Laser5 8x11 Fit
  2
LaserJet5Shaded-8x11.pc3
  4
Letter
  6

 40
5.873749732971191
 41
5.027085304260253
 42
5.873748779296875
 43
5.027084350585937
 44
279.3999938964844
 45
215.8999938964844
 46
34.4346667826652
 47
0.0
 48
0.0
 49
0.0
140
0.0
141
0.0
142
1.0
143
0.5293607985003172
 70
  2740
 72
     0
 73
     0
 74
     1
  7
LaserJet5Shaded.ctb
 75
     0
147
1.889070748784206
 76
     0
 77
     2
 78
   300
148
-75.74468520391772
149
-27.53050504688192
1001
ACAD_PSEXT
1000
LaserJet5Shaded-8x11.pc3
1000
HP LaserJet 5Si
1000
\\aqua-srv01
1000

1070
     0
  0
PLOTSETTINGS
  5
1280
102
{ACAD_REACTORS
330
10BB
102
}
330
10BB
100
AcDbPlotSettings
  1
Laser5 8x11 Half
  2
LaserJet5Shaded-8x11.pc3
  4
Letter
  6

 40
5.873749732971191
 41
5.027085304260253
 42
5.873748779296875
 43
5.027084350585937
 44
279.3999938964844
 45
215.8999938964844
 46
107.5192443748923
 47
75.68123464869171
 48
0.0
 49
0.0
140
0.0
141
0.0
142
1.0
143
2.0
 70
  2740
 72
     0
 73
     0
 74
     1
  7
LaserJet5Shaded.ctb
 75
    17
147
0.5
 76
     0
 77
     2
 78
   300
148
-75.74468520391772
149
-27.53050504688192
1001
ACAD_PSEXT
1000
LaserJet5Shaded-8x11.pc3
1000
HP LaserJet 5Si
1000
\\aqua-srv01
1000

1070
     0
  0
PLOTSETTINGS
  5
1281
102
{ACAD_REACTORS
330
10BB
102
}
330
10BB
100
AcDbPlotSettings
  1
Laser5 8x11 Portrait Fit
  2
LaserJet5Shaded-8x11.pc3
  4
Letter
  6

 40
5.873749732971191
 41
5.027085304260253
 42
5.873748779296875
 43
5.027084350585937
 44
279.3999938964844
 45
215.8999938964844
 46
27.24653799736659
 47
0.0000000000000029
 48
0.0
 49
0.0
140
0.0
141
0.0
142
1.0
143
0.5111981924167587
 70
  2740
 72
     0
 73
     1
 74
     1
  7
LaserJet5Shaded.ctb
 75
     0
147
1.956188450652308
 76
     0
 77
     2
 78
   300
148
-75.74468520391772
149
-27.53050504688192
1001
ACAD_PSEXT
1000
LaserJet5Shaded-8x11.pc3
1000
HP LaserJet 5Si
1000
\\aqua-srv01
1000

1070
     0
  0
PLOTSETTINGS
  5
1282
102
{ACAD_REACTORS
330
10BB
102
}
330
10BB
100
AcDbPlotSettings
  1
LaserJet5 11x17
  2
LaserJet5Shaded.pc3
  4
11x17
  6

 40
7.111999988555908
 41
5.079999923706054
 42
7.11199951171875
 43
5.079986572265625
 44
279.3999938964844
 45
431.7999877929687
 46
0.0
 47
74.88489939702606
 48
0.0
 49
0.0
140
0.0
141
0.0
142
1.0
143
0.3551636250563743
 70
 11956
 72
     0
 73
     1
 74
     1
  7
LaserJet5Shaded.ctb
 75
     0
147
2.815603652658045
 76
     0
 77
     2
 78
   300
148
-119.4582094169044
149
-58.17053554795709
1001
ACAD_PSEXT
1000
LaserJet5Shaded.pc3
1000
HP LaserJet 5Si
1000
\\aqua-srv01
1000

1070
     0
  0
PLOTSETTINGS
  5
1283
102
{ACAD_REACTORS
330
10BB
102
}
330
10BB
100
AcDbPlotSettings
  1
LaserJet5 8.5x11
  2
LaserJet5Shaded-8x11.pc3
  4
Letter
  6

 40
5.873749732971191
 41
5.873734951019287
 42
6.55108642578125
 43
5.027084350585937
 44
279.3999938964844
 45
215.8999938964844
 46
28.40045128601757
 47
0.0000000000000046
 48
0.0
 49
0.0
140
0.0
141
0.0
142
1.0
143
0.4594207153946231
 70
 11956
 72
     0
 73
     0
 74
     1
  7
LaserJet5Shaded.ctb
 75
     0
147
2.176654135286525
 76
     0
 77
     2
 78
   300
148
-119.4582094169044
149
-58.17053554795709
1001
ACAD_PSEXT
1000
LaserJet5Shaded-8x11.pc3
1000
HP LaserJet 5Si
1000
CAD Area
1000

1070
     0
  0
PLOTSETTINGS
  5
1284
102
{ACAD_REACTORS
330
10BB
102
}
330
10BB
100
AcDbPlotSettings
  1
Oki9500 11x17 BW Fit
  2
OKI DOKI Color Laser.pc3
  4
Tabloid
  6

 40
5.027083396911621
 41
5.027085304260253
 42
5.027099609375
 43
5.027069091796875
 44
431.7999877929687
 45
279.3999938964844
 46
80.82067083627547
 47
0.0
 48
0.0
 49
0.0
140
0.0
141
0.0
142
1.0
143
0.4045605831172927
 70
  2740
 72
     0
 73
     0
 74
     1
  7
OKIB&WShaded.ctb
 75
     0
147
2.471817675104729
 76
     0
 77
     2
 78
   300
148
-75.74468520391772
149
-27.53050504688192
1001
ACAD_PSEXT
1000
OKI DOKI Color Laser.pc3
1000
OKI C9500(PCL)
1000
FRONT
1000

1070
     0
  0
PLOTSETTINGS
  5
1285
102
{ACAD_REACTORS
330
10BB
102
}
330
10BB
100
AcDbPlotSettings
  1
Oki9500 11x17 BW Full
  2
OKI DOKI Color Laser.pc3
  4
Tabloid
  6

 40
5.027083396911621
 41
5.027085304260253
 42
5.027099609375
 43
5.027069091796875
 44
431.7999877929687
 45
279.3999938964844
 46
158.2588957589094
 47
80.18956480595884
 48
0.0
 49
0.0
140
0.0
141
0.0
142
1.0
143
1.0
 70
  2724
 72
     0
 73
     0
 74
     1
  7
OKIB&WShaded.ctb
 75
     0
147
2.471817675104729
 76
     0
 77
     2
 78
   300
148
-75.74468520391772
149
-27.53050504688192
1001
ACAD_PSEXT
1000
OKI DOKI Color Laser.pc3
1000
OKI C9500(PCL)
1000
FRONT
1000

1070
     0
  0
PLOTSETTINGS
  5
1286
102
{ACAD_REACTORS
330
10BB
102
}
330
10BB
100
AcDbPlotSettings
  1
Oki9500 11x17 BW Half
  2
OKI DOKI Color Laser.pc3
  4
Tabloid
  6

 40
5.027083396911621
 41
5.027085304260253
 42
5.027099609375
 43
5.027069091796875
 44
431.7999877929687
 45
279.3999938964844
 46
184.5658990761252
 47
107.4312422780862
 48
0.0
 49
0.0
140
0.0
141
0.0
142
1.0
143
2.0
 70
  2740
 72
     0
 73
     0
 74
     1
  7
OKIB&WShaded.ctb
 75
    17
147
0.5
 76
     0
 77
     2
 78
   300
148
-75.74468520391772
149
-27.53050504688192
1001
ACAD_PSEXT
1000
OKI DOKI Color Laser.pc3
1000
OKI C9500(PCL)
1000
FRONT
1000

1070
     0
  0
PLOTSETTINGS
  5
1287
102
{ACAD_REACTORS
330
10BB
102
}
330
10BB
100
AcDbPlotSettings
  1
Oki9500 11x17 Color Fit
  2
OKI DOKI Color Laser.pc3
  4
Tabloid
  6

 40
5.027083396911621
 41
5.027085304260253
 42
5.027099609375
 43
5.027069091796875
 44
431.7999877929687
 45
279.3999938964844
 46
80.82067083627547
 47
0.0
 48
0.0
 49
0.0
140
0.0
141
0.0
142
1.0
143
0.4045605831172927
 70
  2740
 72
     0
 73
     0
 74
     1
  7
OKIColorShaded.ctb
 75
     0
147
2.471817675104729
 76
     0
 77
     2
 78
   300
148
-75.74468520391772
149
-27.53050504688192
1001
ACAD_PSEXT
1000
OKI DOKI Color Laser.pc3
1000
OKI C9500(PCL)
1000
FRONT
1000

1070
     0
  0
PLOTSETTINGS
  5
1288
102
{ACAD_REACTORS
330
10BB
102
}
330
10BB
100
AcDbPlotSettings
  1
Oki9500 11x17 Color Full
  2
OKI DOKI Color Laser.pc3
  4
Tabloid
  6

 40
5.027082920074462
 41
5.027085781097412
 42
5.027099609375
 43
5.027069091796875
 44
431.7999877929687
 45
279.3999938964844
 46
158.258895997328
 47
80.18956456754025
 48
0.0
 49
0.0
140
0.0
141
0.0
142
1.0
143
1.0
 70
  2724
 72
     0
 73
     0
 74
     1
  7
OKIColorShaded.ctb
 75
     0
147
2.471817675104729
 76
     0
 77
     2
 78
   300
148
-75.74468520391772
149
-27.53050504688192
1001
ACAD_PSEXT
1000
OKI DOKI Color Laser.pc3
1000
OKI C9600(PCL)
1000
FRONT
1000

1070
     0
  0
PLOTSETTINGS
  5
1289
102
{ACAD_REACTORS
330
10BB
102
}
330
10BB
100
AcDbPlotSettings
  1
Oki9500 11x17 Color Half
  2
OKI DOKI Color Laser.pc3
  4
Tabloid
  6

 40
5.027083396911621
 41
5.027085304260253
 42
5.027099609375
 43
5.027069091796875
 44
431.7999877929687
 45
279.3999938964844
 46
184.5658990761252
 47
107.4312422780862
 48
0.0
 49
0.0
140
0.0
141
0.0
142
1.0
143
2.0
 70
  2740
 72
     0
 73
     0
 74
     1
  7
OKIColorShaded.ctb
 75
    17
147
0.5
 76
     0
 77
     2
 78
   300
148
-75.74468520391772
149
-27.53050504688192
1001
ACAD_PSEXT
1000
OKI DOKI Color Laser.pc3
1000
OKI C9500(PCL)
1000
FRONT
1000

1070
     0
  0
PLOTSETTINGS
  5
128A
102
{ACAD_REACTORS
330
10BB
102
}
330
10BB
100
AcDbPlotSettings
  1
Oki9500 8x11 BW Fit
  2
OKI DOKI Color Laser8x11.pc3
  4
Letter
  6

 40
5.027083396911621
 41
5.027085304260253
 42
5.027099609375
 43
5.027084350585937
 44
279.3999938964844
 45
215.8999938964844
 46
35.28132453565591
 47
0.0
 48
0.0
 49
0.0
140
0.0
141
0.0
142
1.0
143
0.5293607985003172
 70
  2740
 72
     0
 73
     0
 74
     1
  7
OKIB&WShaded.ctb
 75
     0
147
1.889070748784206
 76
     0
 77
     2
 78
   300
148
-75.74468520391772
149
-27.53050504688192
1001
ACAD_PSEXT
1000
OKI DOKI Color Laser8x11.pc3
1000
OKI C9500(PCL)
1000
FRONT
1000

1070
     0
  0
PLOTSETTINGS
  5
128B
102
{ACAD_REACTORS
330
10BB
102
}
330
10BB
100
AcDbPlotSettings
  1
Oki9500 8x11 BW Portrait Fit
  2
OKI DOKI Color Laser8x11.pc3
  4
Letter
  6

 40
5.027083396911621
 41
5.027085304260253
 42
5.027099609375
 43
5.027084350585937
 44
279.3999938964844
 45
215.8999938964844
 46
28.0931957503573
 47
0.0000000000000029
 48
0.0
 49
0.0
140
0.0
141
0.0
142
1.0
143
0.5111981924167587
 70
  2740
 72
     0
 73
     1
 74
     1
  7
OKIB&WShaded.ctb
 75
     0
147
1.956188450652308
 76
     0
 77
     2
 78
   300
148
-75.74468520391772
149
-27.53050504688192
1001
ACAD_PSEXT
1000
OKI DOKI Color Laser8x11.pc3
1000
OKI C9500(PCL)
1000
FRONT
1000

1070
     0
  0
PLOTSETTINGS
  5
128C
102
{ACAD_REACTORS
330
10BB
102
}
330
10BB
100
AcDbPlotSettings
  1
Oki9500 8x11 Color Fit
  2
OKI DOKI Color Laser8x11.pc3
  4
Letter
  6

 40
5.027083396911621
 41
5.027085304260253
 42
5.027099609375
 43
5.027084350585937
 44
279.3999938964844
 45
215.8999938964844
 46
35.28132453565591
 47
0.0
 48
0.0
 49
0.0
140
0.0
141
0.0
142
1.0
143
0.5293607985003172
 70
  2740
 72
     0
 73
     0
 74
     1
  7
OKIColorShaded.ctb
 75
     0
147
1.889070748784206
 76
     0
 77
     2
 78
   300
148
-75.74468520391772
149
-27.53050504688192
1001
ACAD_PSEXT
1000
OKI DOKI Color Laser8x11.pc3
1000
OKI C9500(PCL)
1000
FRONT
1000

1070
     0
  0
PLOTSETTINGS
  5
128D
102
{ACAD_REACTORS
330
10BB
102
}
330
10BB
100
AcDbPlotSettings
  1
Oki9500 8x11 Color Portrait Fit
  2
OKI DOKI Color Laser8x11.pc3
  4
Letter
  6

 40
5.027083396911621
 41
5.027085304260253
 42
5.027099609375
 43
5.027084350585937
 44
279.3999938964844
 45
215.8999938964844
 46
28.0931957503573
 47
0.0000000000000029
 48
0.0
 49
0.0
140
0.0
141
0.0
142
1.0
143
0.5111981924167587
 70
  2740
 72
     0
 73
     1
 74
     1
  7
OKIColorShaded.ctb
 75
     0
147
1.956188450652308
 76
     0
 77
     2
 78
   300
148
-75.74468520391772
149
-27.53050504688192
1001
ACAD_PSEXT
1000
OKI DOKI Color Laser8x11.pc3
1000
OKI C9500(PCL)
1000
FRONT
1000

1070
     0
  0
PLOTSETTINGS
  5
128E
102
{ACAD_REACTORS
330
10BB
102
}
330
10BB
100
AcDbPlotSettings
  1
OKI9500 B&W 11x17
  2
OKI DOKI Color Laser.pc3
  4
11x17
  6

 40
5.873749732971191
 41
5.873734951019287
 42
5.873748779296875
 43
5.027069091796875
 44
431.7999877929687
 45
279.3999938964844
 46
72.38759962724653
 47
0.0000000000000057
 48
0.0
 49
0.0
140
0.0
141
0.0
142
1.0
143
0.3507677900220671
 70
 11956
 72
     0
 73
     0
 74
     1
  7
OKIB&WShaded.ctb
 75
     0
147
2.850888902704233
 76
     0
 77
     2
 78
   300
148
-119.4582094169044
149
-58.17053554795709
1001
ACAD_PSEXT
1000
OKI DOKI Color Laser.pc3
1000
HP LaserJet 5Si
1000
CAD Area
1000

1070
     0
  0
PLOTSETTINGS
  5
128F
102
{ACAD_REACTORS
330
10BB
102
}
330
10BB
100
AcDbPlotSettings
  1
OKI9500 B&W 8.5x11
  2
OKI DOKI Color Laser8x11.pc3
  4
Letter
  6

 40
5.873749732971191
 41
5.873734951019287
 42
6.55108642578125
 43
5.027084350585937
 44
279.3999938964844
 45
215.8999938964844
 46
28.40045128601757
 47
0.0000000000000046
 48
0.0
 49
0.0
140
0.0
141
0.0
142
1.0
143
0.4594207153946231
 70
 11956
 72
     0
 73
     0
 74
     1
  7
OKIB&WShaded.ctb
 75
     0
147
2.176654135286525
 76
     0
 77
     2
 78
   300
148
-119.4582094169044
149
-58.17053554795709
1001
ACAD_PSEXT
1000
OKI DOKI Color Laser8x11.pc3
1000
HP LaserJet 5Si
1000
CAD Area
1000

1070
     0
  0
PLOTSETTINGS
  5
1290
102
{ACAD_REACTORS
330
10BB
102
}
330
10BB
100
AcDbPlotSettings
  1
OKI9500 Color 11x17
  2
OKI DOKI Color Laser.pc3
  4
Tabloid
  6

 40
5.027083396911621
 41
5.027085304260253
 42
5.027099609375
 43
5.027069091796875
 44
431.7999877929687
 45
279.3999938964844
 46
72.80024597690952
 47
0.0
 48
0.0
 49
0.0
140
0.0
141
0.0
142
1.0
143
0.349665202263268
 70
 11956
 72
     0
 73
     0
 74
     1
  7
OKIColorShaded.ctb
 75
     0
147
2.859878516727796
 76
     0
 77
     2
 78
   300
148
-119.4582094169044
149
-58.17053554795709
1001
ACAD_PSEXT
1000
OKI DOKI Color Laser.pc3
1000
OKI C9500(PCL)
1000
FRONT
1000

1070
     0
  0
PLOTSETTINGS
  5
1291
102
{ACAD_REACTORS
330
10BB
102
}
330
10BB
100
AcDbPlotSettings
  1
OKI9500 Color 8.5x11
  2
OKI DOKI Color Laser8x11.pc3
  4
Letter
  6

 40
5.873749732971191
 41
5.873734951019287
 42
6.55108642578125
 43
5.027084350585937
 44
279.3999938964844
 45
215.8999938964844
 46
28.40045128601757
 47
0.0000000000000046
 48
0.0
 49
0.0
140
0.0
141
0.0
142
1.0
143
0.4594207153946231
 70
 11956
 72
     0
 73
     0
 74
     1
  7
OKIColorShaded.ctb
 75
     0
147
2.176654135286525
 76
     0
 77
     2
 78
   300
148
-119.4582094169044
149
-58.17053554795709
1001
ACAD_PSEXT
1000
OKI DOKI Color Laser8x11.pc3
1000
HP LaserJet 5Si
1000
CAD Area
1000

1070
     0
  0
PLOTSETTINGS
  5
1292
102
{ACAD_REACTORS
330
10BB
102
}
330
10BB
100
AcDbPlotSettings
  1
Oki9600 11x17 BW Fit
  2
9600 BW 11x17.pc3
  4
Tabloid
  6

 40
5.027082920074462
 41
5.027085781097412
 42
5.027099609375
 43
5.027069091796875
 44
431.7999877929687
 45
279.3999938964844
 46
80.82067130493244
 47
0.000000000000007
 48
0.0
 49
0.0
140
0.0
141
0.0
142
1.0
143
0.4045605838335077
 70
  2804
 72
     0
 73
     0
 74
     1
  7
OKIB&WShaded.ctb
 75
     0
147
2.47181767072874
 76
     0
 77
     2
 78
   300
148
-75.74468520391772
149
-27.53050504688192
1001
ACAD_PSEXT
1000
9600 BW 11x17.pc3
1000
OKI C9600(PCL)
1000
Expansion Area
1000

1070
     0
  0
PLOTSETTINGS
  5
1293
102
{ACAD_REACTORS
330
10BB
102
}
330
10BB
100
AcDbPlotSettings
  1
Oki9600 11x17 BW Full
  2
9600 BW 11x17.pc3
  4
Tabloid
  6

 40
5.027082920074462
 41
5.027085781097412
 42
5.027099609375
 43
5.027069091796875
 44
431.7999877929687
 45
279.3999938964844
 46
158.258895997328
 47
80.18956456754025
 48
0.0
 49
0.0
140
0.0
141
0.0
142
1.0
143
1.0
 70
  2788
 72
     0
 73
     0
 74
     1
  7
OKIB&WShaded.ctb
 75
     0
147
2.47181767072874
 76
     0
 77
     2
 78
   300
148
-75.74468520391772
149
-27.53050504688192
1001
ACAD_PSEXT
1000
9600 BW 11x17.pc3
1000
OKI C9600(PCL)
1000
Expansion Area
1000

1070
     0
  0
PLOTSETTINGS
  5
1294
102
{ACAD_REACTORS
330
10BB
102
}
330
10BB
100
AcDbPlotSettings
  1
Oki9600 11x17 BW Half
  2
9600 BW 11x17.pc3
  4
Tabloid
  6

 40
5.027082920074462
 41
5.027085781097412
 42
5.027099609375
 43
5.027069091796875
 44
431.7999877929687
 45
279.3999938964844
 46
184.5658993145439
 47
107.4312420396676
 48
0.0
 49
0.0
140
0.0
141
0.0
142
1.0
143
2.0
 70
  2788
 72
     0
 73
     0
 74
     1
  7
OKIB&WShaded.ctb
 75
     0
147
2.47181767072874
 76
     0
 77
     2
 78
   300
148
-75.74468520391772
149
-27.53050504688192
1001
ACAD_PSEXT
1000
9600 BW 11x17.pc3
1000
OKI C9600(PCL)
1000
Expansion Area
1000

1070
     0
  0
PLOTSETTINGS
  5
1295
102
{ACAD_REACTORS
330
10BB
102
}
330
10BB
100
AcDbPlotSettings
  1
Oki9600 11x17 Color Fit
  2
9600 Color 11x17.pc3
  4
Tabloid
  6

 40
5.027082920074462
 41
5.027085781097412
 42
5.027099609375
 43
5.027069091796875
 44
431.7999877929687
 45
279.3999938964844
 46
80.82067130493244
 47
0.000000000000007
 48
0.0
 49
0.0
140
0.0
141
0.0
142
1.0
143
0.4045605838335077
 70
  2804
 72
     0
 73
     0
 74
     1
  7
OKIColorShaded.ctb
 75
     0
147
2.47181767072874
 76
     0
 77
     2
 78
   300
148
-75.74468520391772
149
-27.53050504688192
1001
ACAD_PSEXT
1000
9600 Color 11x17.pc3
1000
OKI C9600(PCL)
1000
Expansion Area
1000

1070
     0
  0
PLOTSETTINGS
  5
1296
102
{ACAD_REACTORS
330
10BB
102
}
330
10BB
100
AcDbPlotSettings
  1
Oki9600 11x17 Color Full
  2
9600 Color 11x17.pc3
  4
Tabloid
  6

 40
5.027082920074462
 41
5.027085781097412
 42
5.027099609375
 43
5.027069091796875
 44
431.7999877929687
 45
279.3999938964844
 46
158.258895997328
 47
80.18956456754025
 48
0.0
 49
0.0
140
0.0
141
0.0
142
1.0
143
1.0
 70
  2788
 72
     0
 73
     0
 74
     1
  7
OKIColorShaded.ctb
 75
     0
147
2.47181767072874
 76
     0
 77
     2
 78
   300
148
-75.74468520391772
149
-27.53050504688192
1001
ACAD_PSEXT
1000
9600 Color 11x17.pc3
1000
OKI C9600(PCL)
1000
Expansion Area
1000

1070
     0
  0
PLOTSETTINGS
  5
1297
102
{ACAD_REACTORS
330
10BB
102
}
330
10BB
100
AcDbPlotSettings
  1
Oki9600 11x17 Color Half
  2
9600 Color 11x17.pc3
  4
Tabloid
  6

 40
5.027082920074462
 41
5.027085781097412
 42
5.027099609375
 43
5.027069091796875
 44
431.7999877929687
 45
279.3999938964844
 46
184.5658993145439
 47
107.4312420396676
 48
0.0
 49
0.0
140
0.0
141
0.0
142
1.0
143
2.0
 70
  2788
 72
     0
 73
     0
 74
     1
  7
OKIColorShaded.ctb
 75
     0
147
2.47181767072874
 76
     0
 77
     2
 78
   300
148
-75.74468520391772
149
-27.53050504688192
1001
ACAD_PSEXT
1000
9600 Color 11x17.pc3
1000
OKI C9600(PCL)
1000
Expansion Area
1000

1070
     0
  0
PLOTSETTINGS
  5
1298
102
{ACAD_REACTORS
330
10BB
102
}
330
10BB
100
AcDbPlotSettings
  1
Oki9600 8x11 BW Fit
  2
9600 BW 8.5x11.pc3
  4
Letter
  6

 40
5.027082920074462
 41
5.027070522308349
 42
5.027099609375
 43
5.027084350585937
 44
279.3999938964844
 45
215.8999938964844
 46
35.28131763668624
 47
0.0000000000000033
 48
0.0
 49
0.0
140
0.0
141
0.0
142
1.0
143
0.5293607604865011
 70
  2804
 72
     0
 73
     0
 74
     1
  7
OKIB&WShaded.ctb
 75
     0
147
1.889070884439876
 76
     0
 77
     2
 78
   300
148
-75.74468520391772
149
-27.53050504688192
1001
ACAD_PSEXT
1000
9600 BW 8.5x11.pc3
1000
OKI C9600(PCL)
1000
Expansion Area
1000

1070
     0
  0
PLOTSETTINGS
  5
1299
102
{ACAD_REACTORS
330
10BB
102
}
330
10BB
100
AcDbPlotSettings
  1
Oki9600 8x11 BW Portrait Fit
  2
9600 BW 8.5x11.pc3
  4
Letter
  6

 40
5.027082920074462
 41
5.027070522308349
 42
5.027099609375
 43
5.027084350585937
 44
279.3999938964844
 45
215.8999938964844
 46
28.09318833520237
 47
-0.0000000000000029
 48
0.0
 49
0.0
140
0.0
141
0.0
142
1.0
143
0.5111981557072135
 70
  2804
 72
     0
 73
     1
 74
     1
  7
OKIB&WShaded.ctb
 75
     0
147
1.956188591127753
 76
     0
 77
     2
 78
   300
148
-75.74468520391772
149
-27.53050504688192
1001
ACAD_PSEXT
1000
9600 BW 8.5x11.pc3
1000
OKI C9600(PCL)
1000
Expansion Area
1000

1070
     0
  0
PLOTSETTINGS
  5
129A
102
{ACAD_REACTORS
330
10BB
102
}
330
10BB
100
AcDbPlotSettings
  1
Oki9600 8x11 Color Fit
  2
9600 Color 8.5x11.pc3
  4
Letter
  6

 40
5.027082920074462
 41
5.027070522308349
 42
5.027099609375
 43
5.027084350585937
 44
279.3999938964844
 45
215.8999938964844
 46
35.28131763668624
 47
0.0000000000000033
 48
0.0
 49
0.0
140
0.0
141
0.0
142
1.0
143
0.5293607604865011
 70
  2804
 72
     0
 73
     0
 74
     1
  7
OKIColorShaded.ctb
 75
     0
147
1.889070884439876
 76
     0
 77
     2
 78
   300
148
-75.74468520391772
149
-27.53050504688192
1001
ACAD_PSEXT
1000
9600 Color 8.5x11.pc3
1000
OKI C9600(PCL)
1000
Expansion Area
1000

1070
     0
  0
PLOTSETTINGS
  5
129B
102
{ACAD_REACTORS
330
10BB
102
}
330
10BB
100
AcDbPlotSettings
  1
Oki9600 8x11 Color Portrait Fit
  2
9600 Color 8.5x11.pc3
  4
Letter
  6

 40
5.027082920074462
 41
5.027070522308349
 42
5.027099609375
 43
5.027084350585937
 44
279.3999938964844
 45
215.8999938964844
 46
28.09318833520237
 47
-0.0000000000000029
 48
0.0
 49
0.0
140
0.0
141
0.0
142
1.0
143
0.5111981557072135
 70
  2804
 72
     0
 73
     1
 74
     1
  7
OKIColorShaded.ctb
 75
     0
147
1.956188591127753
 76
     0
 77
     2
 78
   300
148
-75.74468520391772
149
-27.53050504688192
1001
ACAD_PSEXT
1000
9600 Color 8.5x11.pc3
1000
OKI C9600(PCL)
1000
Expansion Area
1000

1070
     0
  0
PLOTSETTINGS
  5
129C
102
{ACAD_REACTORS
330
10BB
102
}
330
10BB
100
AcDbPlotSettings
  1
OKI9600 B&W 11x17
  2
9600 BW 11x17.pc3
  4
Tabloid
  6

 40
5.027082920074462
 41
5.027085781097412
 42
5.027099609375
 43
5.027069091796875
 44
431.7999877929687
 45
279.3999938964844
 46
72.80024645976547
 47
-0.0000000000000027
 48
0.0
 49
0.0
140
0.0
141
0.0
142
1.0
143
0.3496652028822988
 70
 11956
 72
     0
 73
     0
 74
     1
  7
OKIB&WShaded.ctb
 75
     0
147
2.859878511664802
 76
     0
 77
     2
 78
   300
148
-119.4582094169044
149
-58.17053554795709
1001
ACAD_PSEXT
1000
9600 BW 11x17.pc3
1000
OKI C9600(PCL)
1000
Expansion Area
1000

1070
     0
  0
PLOTSETTINGS
  5
129D
102
{ACAD_REACTORS
330
10BB
102
}
330
10BB
100
AcDbPlotSettings
  1
OKI9600 B&W 8.5x11
  2
9600 BW 8.5x11.pc3
  4
Letter
  6

 40
5.027082920074462
 41
5.027070522308349
 42
5.027099609375
 43
5.027084350585937
 44
279.3999938964844
 45
215.8999938964844
 46
29.15175911978468
 47
0.0000000000000065
 48
0.0
 49
0.0
140
0.0
141
0.0
142
1.0
143
0.4575310722549676
 70
 11956
 72
     0
 73
     0
 74
     1
  7
OKIB&WShaded.ctb
 75
     0
147
2.185643906262899
 76
     0
 77
     2
 78
   300
148
-119.4582094169044
149
-58.17053554795709
1001
ACAD_PSEXT
1000
9600 BW 8.5x11.pc3
1000
OKI C9600(PCL)
1000
Expansion Area
1000

1070
     0
  0
PLOTSETTINGS
  5
129E
102
{ACAD_REACTORS
330
10BB
102
}
330
10BB
100
AcDbPlotSettings
  1
OKI9600 Color 11x17
  2
9600 Color 11x17.pc3
  4
Tabloid
  6

 40
5.027082920074462
 41
5.027085781097412
 42
5.027099609375
 43
5.027069091796875
 44
431.7999877929687
 45
279.3999938964844
 46
72.80024645976547
 47
-0.0000000000000027
 48
0.0
 49
0.0
140
0.0
141
0.0
142
1.0
143
0.3496652028822988
 70
 11956
 72
     0
 73
     0
 74
     1
  7
OKIColorShaded.ctb
 75
     0
147
2.859878511664802
 76
     0
 77
     2
 78
   300
148
-119.4582094169044
149
-58.17053554795709
1001
ACAD_PSEXT
1000
9600 Color 11x17.pc3
1000
OKI C9600(PCL)
1000
Expansion Area
1000

1070
     0
  0
PLOTSETTINGS
  5
129F
102
{ACAD_REACTORS
330
10BB
102
}
330
10BB
100
AcDbPlotSettings
  1
OKI9600 Color 8.5x11
  2
9600 Color 8.5x11.pc3
  4
Letter
  6

 40
5.027082920074462
 41
5.027070522308349
 42
5.027099609375
 43
5.027084350585937
 44
279.3999938964844
 45
215.8999938964844
 46
29.15175911978468
 47
0.0000000000000065
 48
0.0
 49
0.0
140
0.0
141
0.0
142
1.0
143
0.4575310722549676
 70
 11956
 72
     0
 73
     0
 74
     1
  7
OKIColorShaded.ctb
 75
     0
147
2.185643906262899
 76
     0
 77
     2
 78
   300
148
-119.4582094169044
149
-58.17053554795709
1001
ACAD_PSEXT
1000
9600 Color 8.5x11.pc3
1000
OKI C9600(PCL)
1000
Expansion Area
1000

1070
     0
  0
PLOTSETTINGS
  5
12A0
102
{ACAD_REACTORS
330
10BB
102
}
330
10BB
100
AcDbPlotSettings
  1
PHX Kyocera 11x17 Fit
  2
PHX_Kyocera.pc3
  4
Tabloid
  6

 40
4.984749794006347
 41
5.069418907165527
 42
5.069427490234375
 43
4.9847412109375
 44
431.7999877929687
 45
279.3999938964844
 46
80.8206764601584
 47
-0.0000000000000226
 48
0.0
 49
0.0
140
0.0
141
0.0
142
1.0
143
0.4045605917118723
 70
  2740
 72
     0
 73
     0
 74
     1
  7
LaserJet5Shaded.ctb
 75
     0
147
2.471817622592858
 76
     0
 77
     2
 78
   300
148
-75.74468520391772
149
-27.53050504688192
1001
ACAD_PSEXT
1000
PHX_Kyocera.pc3
1000
Kyocera Mita KM-2050 KX
1000
Arizona
1000

1070
     0
  0
PLOTSETTINGS
  5
12A1
102
{ACAD_REACTORS
330
10BB
102
}
330
10BB
100
AcDbPlotSettings
  1
PHX Oki9500 11x17 BW Fit
  2
PHX OKI BW.pc3
  4
Tabloid
  6

 40
5.027082920074462
 41
5.027085781097412
 42
5.027099609375
 43
5.027069091796875
 44
431.7999877929687
 45
279.3999938964844
 46
80.82067130493246
 47
0.0
 48
0.0
 49
0.0
140
0.0
141
0.0
142
1.0
143
0.4045605838335077
 70
  2740
 72
     0
 73
     0
 74
     1
  7
OKIB&WShaded.ctb
 75
     0
147
2.47181767072874
 76
     0
 77
     2
 78
   300
148
-75.74468520391772
149
-27.53050504688192
1001
ACAD_PSEXT
1000
PHX OKI BW.pc3
1000
OKI C9500(PCL)
1000
Arizona
1000

1070
     0
  0
PLOTSETTINGS
  5
12A2
102
{ACAD_REACTORS
330
10BB
102
}
330
10BB
100
AcDbPlotSettings
  1
PHX Oki9500 11x17 BW Half
  2
PHX OKI BW.pc3
  4
Tabloid
  6

 40
5.027082920074462
 41
5.027085781097412
 42
5.027099609375
 43
5.027069091796875
 44
431.7999877929687
 45
279.3999938964844
 46
184.5658993145439
 47
107.4312420396676
 48
0.0
 49
0.0
140
0.0
141
0.0
142
1.0
143
2.0
 70
  2724
 72
     0
 73
     0
 74
     1
  7
OKIB&WShaded.ctb
 75
     0
147
2.47181767072874
 76
     0
 77
     2
 78
   300
148
-75.74468520391772
149
-27.53050504688192
1001
ACAD_PSEXT
1000
PHX OKI BW.pc3
1000
OKI C9500(PCL)
1000
Arizona
1000

1070
     0
  0
ACDBPLACEHOLDER
  5
10B2
102
{ACAD_REACTORS
330
10B1
102
}
330
10B1
  0
SCALE
  5
1220
102
{ACAD_REACTORS
330
121F
102
}
330
121F
100
AcDbScale
 70
     0
300
1:1
140
1.0
141
1.0
290
     1
  0
SCALE
  5
1221
102
{ACAD_REACTORS
330
121F
102
}
330
121F
100
AcDbScale
 70
     0
300
1:2
140
1.0
141
2.0
290
     0
  0
SCALE
  5
1222
102
{ACAD_REACTORS
330
121F
102
}
330
121F
100
AcDbScale
 70
     0
300
1:4
140
1.0
141
4.0
290
     0
  0
SCALE
  5
1223
102
{ACAD_REACTORS
330
121F
102
}
330
121F
100
AcDbScale
 70
     0
300
1:5
140
1.0
141
5.0
290
     0
  0
SCALE
  5
1224
102
{ACAD_REACTORS
330
121F
102
}
330
121F
100
AcDbScale
 70
     0
300
1:8
140
1.0
141
8.0
290
     0
  0
SCALE
  5
1225
102
{ACAD_REACTORS
330
121F
102
}
330
121F
100
AcDbScale
 70
     0
300
1:10
140
1.0
141
10.0
290
     0
  0
SCALE
  5
1226
102
{ACAD_REACTORS
330
121F
102
}
330
121F
100
AcDbScale
 70
     0
300
1:16
140
1.0
141
16.0
290
     0
  0
SCALE
  5
1227
102
{ACAD_REACTORS
330
121F
102
}
330
121F
100
AcDbScale
 70
     0
300
1:20
140
1.0
141
20.0
290
     0
  0
SCALE
  5
1228
102
{ACAD_REACTORS
330
121F
102
}
330
121F
100
AcDbScale
 70
     0
300
1:30
140
1.0
141
30.0
290
     0
  0
SCALE
  5
1229
102
{ACAD_REACTORS
330
121F
102
}
330
121F
100
AcDbScale
 70
     0
300
1:40
140
1.0
141
40.0
290
     0
  0
SCALE
  5
122A
102
{ACAD_REACTORS
330
121F
102
}
330
121F
100
AcDbScale
 70
     0
300
1:50
140
1.0
141
50.0
290
     0
  0
SCALE
  5
122B
102
{ACAD_REACTORS
330
121F
102
}
330
121F
100
AcDbScale
 70
     0
300
1:100
140
1.0
141
100.0
290
     0
  0
SCALE
  5
122C
102
{ACAD_REACTORS
330
121F
102
}
330
121F
100
AcDbScale
 70
     0
300
2:1
140
2.0
141
1.0
290
     0
  0
SCALE
  5
122D
102
{ACAD_REACTORS
330
121F
102
}
330
121F
100
AcDbScale
 70
     0
300
4:1
140
4.0
141
1.0
290
     0
  0
SCALE
  5
122E
102
{ACAD_REACTORS
330
121F
102
}
330
121F
100
AcDbScale
 70
     0
300
8:1
140
8.0
141
1.0
290
     0
  0
SCALE
  5
122F
102
{ACAD_REACTORS
330
121F
102
}
330
121F
100
AcDbScale
 70
     0
300
10:1
140
10.0
141
1.0
290
     0
  0
SCALE
  5
1230
102
{ACAD_REACTORS
330
121F
102
}
330
121F
100
AcDbScale
 70
     0
300
100:1
140
100.0
141
1.0
290
     0
  0
SCALE
  5
1231
102
{ACAD_REACTORS
330
121F
102
}
330
121F
100
AcDbScale
 70
     0
300
1/128" = 1'-0"
140
0.0078125
141
12.0
290
     0
  0
SCALE
  5
1232
102
{ACAD_REACTORS
330
121F
102
}
330
121F
100
AcDbScale
 70
     0
300
1/64" = 1'-0"
140
0.015625
141
12.0
290
     0
  0
SCALE
  5
1233
102
{ACAD_REACTORS
330
121F
102
}
330
121F
100
AcDbScale
 70
     0
300
1/32" = 1'-0"
140
0.03125
141
12.0
290
     0
  0
SCALE
  5
1234
102
{ACAD_REACTORS
330
121F
102
}
330
121F
100
AcDbScale
 70
     0
300
1/16" = 1'-0"
140
0.0625
141
12.0
290
     0
  0
SCALE
  5
1235
102
{ACAD_REACTORS
330
121F
102
}
330
121F
100
AcDbScale
 70
     0
300
3/32" = 1'-0"
140
0.09375
141
12.0
290
     0
  0
SCALE
  5
1236
102
{ACAD_REACTORS
330
121F
102
}
330
121F
100
AcDbScale
 70
     0
300
1/8" = 1'-0"
140
0.125
141
12.0
290
     0
  0
SCALE
  5
1237
102
{ACAD_REACTORS
330
121F
102
}
330
121F
100
AcDbScale
 70
     0
300
3/16" = 1'-0"
140
0.1875
141
12.0
290
     0
  0
SCALE
  5
1238
102
{ACAD_REACTORS
330
121F
102
}
330
121F
100
AcDbScale
 70
     0
300
1/4" = 1'-0"
140
0.25
141
12.0
290
     0
  0
SCALE
  5
1239
102
{ACAD_REACTORS
330
121F
102
}
330
121F
100
AcDbScale
 70
     0
300
3/8" = 1'-0"
140
0.375
141
12.0
290
     0
  0
SCALE
  5
123A
102
{ACAD_REACTORS
330
121F
102
}
330
121F
100
AcDbScale
 70
     0
300
1/2" = 1'-0"
140
0.5
141
12.0
290
     0
  0
SCALE
  5
123B
102
{ACAD_REACTORS
330
121F
102
}
330
121F
100
AcDbScale
 70
     0
300
3/4" = 1'-0"
140
0.75
141
12.0
290
     0
  0
SCALE
  5
123C
102
{ACAD_REACTORS
330
121F
102
}
330
121F
100
AcDbScale
 70
     0
300
1" = 1'-0"
140
1.0
141
12.0
290
     0
  0
SCALE
  5
123D
102
{ACAD_REACTORS
330
121F
102
}
330
121F
100
AcDbScale
 70
     0
300
1-1/2" = 1'-0"
140
1.5
141
12.0
290
     0
  0
SCALE
  5
123E
102
{ACAD_REACTORS
330
121F
102
}
330
121F
100
AcDbScale
 70
     0
300
3" = 1'-0"
140
3.0
141
12.0
290
     0
  0
SCALE
  5
123F
102
{ACAD_REACTORS
330
121F
102
}
330
121F
100
AcDbScale
 70
     0
300
6" = 1'-0"
140
6.0
141
12.0
290
     0
  0
SCALE
  5
1240
102
{ACAD_REACTORS
330
121F
102
}
330
121F
100
AcDbScale
 70
     0
300
1'-0" = 1'-0"
140
12.0
141
12.0
290
     0
  0
TABLESTYLE
  5
121E
102
{ACAD_XDICTIONARY
360
12BA
102
}
102
{ACAD_REACTORS
330
121D
102
}
330
121D
100
AcDbTableStyle
  3
Standard
 70
     0
 71
     0
 40
0.06
 41
0.06
280
     0
281
     0
  7
STANDARD
140
0.18
170
     2
 62
     0
 63
     7
283
     0
274
    -2
284
     1
 64
     0
275
    -2
285
     1
 65
     0
276
    -2
286
     1
 66
     0
277
    -2
287
     1
 67
     0
278
    -2
288
     1
 68
     0
279
    -2
289
     1
 69
     0
  7
STANDARD
140
0.25
170
     5
 62
     0
 63
     7
283
     0
274
    -2
284
     1
 64
     0
275
    -2
285
     1
 65
     0
276
    -2
286
     1
 66
     0
277
    -2
287
     1
 67
     0
278
    -2
288
     1
 68
     0
279
    -2
289
     1
 69
     0
  7
STANDARD
140
0.18
170
     5
 62
     0
 63
     7
283
     0
274
    -2
284
     1
 64
     0
275
    -2
285
     1
 65
     0
276
    -2
286
     1
 66
     0
277
    -2
287
     1
 67
     0
278
    -2
288
     1
 68
     0
279
    -2
289
     1
 69
     0
  0
VISUALSTYLE
  5
1211
102
{ACAD_REACTORS
330
120B
102
}
330
120B
100
AcDbVisualStyle
  2
2dWireframe
 70
     4
 71
     0
 72
     2
 73
     0
 90
        0
 40
-0.6
 41
-30.0
 62
     5
 63
     7
421
 16777215
 74
     1
 91
        4
 64
     7
 65
   257
 75
     1
175
     1
 42
1.0
 92
        0
 66
   257
 43
1.0
 76
     1
 77
     6
 78
     2
 67
     7
 79
     5
170
     0
171
     0
290
     0
174
     0
 93
        1
 44
0.0
173
     0
291
     0
 45
0.0
1001
ACAD
1000
AcDbSavedByObjectVersion
1070
     0
  0
VISUALSTYLE
  5
1213
102
{ACAD_REACTORS
330
120B
102
}
330
120B
100
AcDbVisualStyle
  2
3D Hidden
 70
     6
 71
     1
 72
     2
 73
     2
 90
        0
 40
-0.6
 41
-30.0
 62
     5
 63
     7
421
 16777215
 74
     2
 91
        2
 64
     7
 65
   257
 75
     2
175
     1
 42
40.0
 92
        0
 66
   257
 43
1.0
 76
     1
 77
     6
 78
     2
 67
     7
 79
     3
170
     0
171
     0
290
     0
174
     0
 93
        1
 44
0.0
173
     0
291
     0
 45
0.0
1001
ACAD
1000
AcDbSavedByObjectVersion
1070
     0
  0
VISUALSTYLE
  5
1212
102
{ACAD_REACTORS
330
120B
102
}
330
120B
100
AcDbVisualStyle
  2
3dWireframe
 70
     5
 71
     0
 72
     2
 73
     0
 90
        0
 40
-0.6
 41
-30.0
 62
     5
 63
     7
421
 16777215
 74
     1
 91
        4
 64
     7
 65
   257
 75
     1
175
     1
 42
1.0
 92
        0
 66
   257
 43
1.0
 76
     1
 77
     6
 78
     2
 67
     7
 79
     5
170
     0
171
     0
290
     0
174
     0
 93
        1
 44
0.0
173
     0
291
     0
 45
0.0
1001
ACAD
1000
AcDbSavedByObjectVersion
1070
     0
  0
VISUALSTYLE
  5
1210
102
{ACAD_REACTORS
330
120B
102
}
330
120B
100
AcDbVisualStyle
  2
Basic
 70
     7
 71
     1
 72
     0
 73
     1
 90
        0
 40
-0.6
 41
-30.0
 62
     5
 63
     7
421
 16777215
 74
     0
 91
        4
 64
     7
 65
   257
 75
     1
175
     1
 42
1.0
 92
        8
 66
     7
 43
1.0
 76
     1
 77
     6
 78
     2
 67
     7
 79
     5
170
     0
171
     0
290
     0
174
     0
 93
        1
 44
0.0
173
     0
291
     1
 45
0.0
1001
ACAD
1000
AcDbSavedByObjectVersion
1070
     0
  0
VISUALSTYLE
  5
1217
102
{ACAD_REACTORS
330
120B
102
}
330
120B
100
AcDbVisualStyle
  2
Brighten
 70
    12
 71
     2
 72
     2
 73
     0
 90
        0
 40
-0.6
 41
-30.0
 62
     5
 63
     7
421
 16777215
 74
     1
 91
        4
 64
     7
 65
   257
 75
     1
175
     1
 42
1.0
 92
        8
 66
     7
 43
1.0
 76
     1
 77
     6
 78
     2
 67
     7
 79
     5
170
     0
171
     0
290
     0
174
     0
 93
        1
 44
50.0
173
     0
291
     1
 45
0.0
1001
ACAD
1000
AcDbSavedByObjectVersion
1070
     0
  0
VISUALSTYLE
  5
121B
102
{ACAD_REACTORS
330
120B
102
}
330
120B
100
AcDbVisualStyle
  2
ColorChange
 70
    16
 71
     2
 72
     2
 73
     3
 90
        0
 40
-0.6
 41
-30.0
 62
     5
 63
     8
421
  8421504
 74
     1
 91
        4
 64
     7
 65
   257
 75
     1
175
     1
 42
1.0
 92
        8
 66
     8
424
  8421504
 43
1.0
 76
     1
 77
     6
 78
     2
 67
     7
 79
     5
170
     0
171
     0
290
     0
174
     0
 93
        1
 44
0.0
173
     0
291
     1
 45
0.0
1001
ACAD
1000
AcDbSavedByObjectVersion
1070
     0
  0
VISUALSTYLE
  5
1214
102
{ACAD_REACTORS
330
120B
102
}
330
120B
100
AcDbVisualStyle
  2
Conceptual
 70
     9
 71
     3
 72
     2
 73
     0
 90
        0
 40
-0.6
 41
-30.0
 62
     5
 63
     7
421
 16777215
 74
     2
 91
        2
 64
     7
 65
   257
 75
     1
175
     1
 42
40.0
 92
        8
 66
     7
 43
1.0
 76
     1
 77
     6
 78
     2
 67
     7
 79
     3
170
     0
171
     0
290
     0
174
     0
 93
        1
 44
0.0
173
     0
291
     0
 45
0.0
1001
ACAD
1000
AcDbSavedByObjectVersion
1070
     0
  0
VISUALSTYLE
  5
1216
102
{ACAD_REACTORS
330
120B
102
}
330
120B
100
AcDbVisualStyle
  2
Dim
 70
    11
 71
     2
 72
     2
 73
     0
 90
        0
 40
-0.6
 41
-30.0
 62
     5
 63
     7
421
 16777215
 74
     1
 91
        4
 64
     7
 65
   257
 75
     1
175
     1
 42
1.0
 92
        8
 66
     7
 43
1.0
 76
     1
 77
     6
 78
     2
 67
     7
 79
     5
170
     0
171
     0
290
     0
174
     0
 93
        1
 44
-50.0
173
     0
291
     1
 45
0.0
1001
ACAD
1000
AcDbSavedByObjectVersion
1070
     0
  0
VISUALSTYLE
  5
121A
102
{ACAD_REACTORS
330
120B
102
}
330
120B
100
AcDbVisualStyle
  2
Facepattern
 70
    15
 71
     2
 72
     2
 73
     0
 90
        0
 40
-0.6
 41
-30.0
 62
     5
 63
     7
421
 16777215
 74
     1
 91
        4
 64
     7
 65
   257
 75
     1
175
     1
 42
1.0
 92
        8
 66
     7
 43
1.0
 76
     1
 77
     6
 78
     2
 67
     7
 79
     5
170
     0
171
     0
290
     0
174
     0
 93
        1
 44
0.0
173
     0
291
     1
 45
0.0
1001
ACAD
1000
AcDbSavedByObjectVersion
1070
     0
  0
VISUALSTYLE
  5
120C
102
{ACAD_REACTORS
330
120B
102
}
330
120B
100
AcDbVisualStyle
  2
Flat
 70
     0
 71
     2
 72
     1
 73
     1
 90
        2
 40
-0.6
 41
30.0
 62
     5
 63
     7
421
 16777215
 74
     0
 91
        4
 64
     7
 65
   257
 75
     1
175
     1
 42
1.0
 92
        8
 66
     7
 43
1.0
 76
     1
 77
     6
 78
     2
 67
     7
 79
     5
170
     0
171
     0
290
     0
174
     0
 93
       13
 44
0.0
173
     0
291
     1
 45
0.0
1001
ACAD
1000
AcDbSavedByObjectVersion
1070
     0
  0
VISUALSTYLE
  5
120D
102
{ACAD_REACTORS
330
120B
102
}
330
120B
100
AcDbVisualStyle
  2
FlatWithEdges
 70
     1
 71
     2
 72
     1
 73
     1
 90
        2
 40
-0.6
 41
30.0
 62
     5
 63
     7
421
 16777215
 74
     1
 91
        4
 64
     7
 65
   257
 75
     1
175
     1
 42
1.0
 92
        0
 66
   257
 43
1.0
 76
     1
 77
     6
 78
     2
 67
     7
 79
     5
170
     0
171
     0
290
     0
174
     0
 93
       13
 44
0.0
173
     0
291
     1
 45
0.0
1001
ACAD
1000
AcDbSavedByObjectVersion
1070
     0
  0
VISUALSTYLE
  5
120E
102
{ACAD_REACTORS
330
120B
102
}
330
120B
100
AcDbVisualStyle
  2
Gouraud
 70
     2
 71
     2
 72
     2
 73
     1
 90
        2
 40
-0.6
 41
30.0
 62
     5
 63
     7
421
 16777215
 74
     0
 91
        4
 64
     7
 65
   257
 75
     1
175
     1
 42
1.0
 92
        0
 66
     7
 43
1.0
 76
     1
 77
     6
 78
     2
 67
     7
 79
     5
170
     0
171
     0
290
     0
174
     0
 93
       13
 44
0.0
173
     0
291
     1
 45
0.0
1001
ACAD
1000
AcDbSavedByObjectVersion
1070
     0
  0
VISUALSTYLE
  5
120F
102
{ACAD_REACTORS
330
120B
102
}
330
120B
100
AcDbVisualStyle
  2
GouraudWithEdges
 70
     3
 71
     2
 72
     2
 73
     1
 90
        2
 40
-0.6
 41
30.0
 62
     5
 63
     7
421
 16777215
 74
     1
 91
        4
 64
     7
 65
   257
 75
     1
175
     1
 42
1.0
 92
        0
 66
   257
 43
1.0
 76
     1
 77
     6
 78
     2
 67
     7
 79
     5
170
     0
171
     0
290
     0
174
     0
 93
       13
 44
0.0
173
     0
291
     1
 45
0.0
1001
ACAD
1000
AcDbSavedByObjectVersion
1070
     0
  0
VISUALSTYLE
  5
1219
102
{ACAD_REACTORS
330
120B
102
}
330
120B
100
AcDbVisualStyle
  2
Linepattern
 70
    14
 71
     2
 72
     2
 73
     0
 90
        0
 40
-0.6
 41
-30.0
 62
     5
 63
     7
421
 16777215
 74
     1
 91
        4
 64
     7
 65
   257
 75
     7
175
     7
 42
1.0
 92
        8
 66
     7
 43
1.0
 76
     1
 77
     6
 78
     2
 67
     7
 79
     5
170
     0
171
     0
290
     0
174
     0
 93
        1
 44
0.0
173
     0
291
     1
 45
0.0
1001
ACAD
1000
AcDbSavedByObjectVersion
1070
     0
  0
VISUALSTYLE
  5
1215
102
{ACAD_REACTORS
330
120B
102
}
330
120B
100
AcDbVisualStyle
  2
Realistic
 70
     8
 71
     2
 72
     2
 73
     0
 90
        0
 40
-0.6
 41
-30.0
 62
     5
 63
     7
421
 16777215
 74
     1
 91
        0
 64
     7
 65
   257
 75
     1
175
     1
 42
1.0
 92
        8
 66
     8
424
  7895160
 43
1.0
 76
     1
 77
     6
 78
     2
 67
     7
 79
     5
170
     0
171
     0
290
     0
174
     0
 93
       13
 44
0.0
173
     0
291
     0
 45
0.0
1001
ACAD
1000
AcDbSavedByObjectVersion
1070
     0
  0
VISUALSTYLE
  5
1218
102
{ACAD_REACTORS
330
120B
102
}
330
120B
100
AcDbVisualStyle
  2
Thicken
 70
    13
 71
     2
 72
     2
 73
     0
 90
        0
 40
-0.6
 41
-30.0
 62
     5
 63
     7
421
 16777215
 74
     1
 91
        4
 64
     7
 65
   257
 75
     1
175
     1
 42
1.0
 92
       12
 66
     7
 43
1.0
 76
     1
 77
     6
 78
     2
 67
     7
 79
     5
170
     0
171
     0
290
     0
174
     0
 93
        1
 44
0.0
173
     0
291
     1
 45
0.0
1001
ACAD
1000
AcDbSavedByObjectVersion
1070
     0
  0
DICTIONARYVAR
  5
12C0
102
{ACAD_REACTORS
330
10DD
102
}
330
10DD
100
DictionaryVariables
280
     0
  1
1:1
  0
DICTIONARYVAR
  5
12BE
102
{ACAD_REACTORS
330
10DD
102
}
330
10DD
100
DictionaryVariables
280
     0
  1
STANDARD
  0
DICTIONARYVAR
  5
12BD
102
{ACAD_REACTORS
330
10DD
102
}
330
10DD
100
DictionaryVariables
280
     0
  1
STANDARD
  0
DICTIONARYVAR
  5
10E0
102
{ACAD_REACTORS
330
10DD
102
}
330
10DD
100
DictionaryVariables
280
     0
  1
1
  0
DICTIONARYVAR
  5
10DF
102
{ACAD_REACTORS
330
10DD
102
}
330
10DD
100
DictionaryVariables
280
     0
  1
1
  0
DICTIONARYVAR
  5
18BE
102
{ACAD_REACTORS
330
10DD
102
}
330
10DD
100
DictionaryVariables
280
     0
  1
0
  0
DICTIONARYVAR
  5
12C2
102
{ACAD_REACTORS
330
10DD
102
}
330
10DD
100
DictionaryVariables
280
     0
  1
15
  0
DICTIONARYVAR
  5
12C1
102
{ACAD_REACTORS
330
10DD
102
}
330
10DD
100
DictionaryVariables
280
     0
  1
0
  0
DICTIONARYVAR
  5
12BF
102
{ACAD_REACTORS
330
10DD
102
}
330
10DD
100
DictionaryVariables
280
     0
  1
0
  0
DICTIONARYVAR
  5
10DE
102
{ACAD_REACTORS
330
10DD
102
}
330
10DD
100
DictionaryVariables
280
     0
  1
1
  0
DICTIONARYVAR
  5
1898
102
{ACAD_REACTORS
330
10DD
102
}
330
10DD
100
DictionaryVariables
280
     0
  1
0
  0
XRECORD
  5
18A2
102
{ACAD_REACTORS
330
189F
102
}
330
189F
100
AcDbXrecord
280
     1
  1
_0100-
  1
*0100-*
  1
*
  1
*
 70
     0
  1
*
  1
*
  0
XRECORD
  5
18A1
102
{ACAD_REACTORS
330
189F
102
}
330
189F
100
AcDbXrecord
280
     1
  1
_0280-
  1
*0280-*
  1
*
  1
*
 70
     0
  1
*
  1
*
  0
XRECORD
  5
18A5
102
{ACAD_REACTORS
330
189F
102
}
330
189F
100
AcDbXrecord
280
     1
  1
_Color 253
  1
*
  1
253
  1
*
 70
     0
  1
*
  1
*
  0
XRECORD
  5
18A3
102
{ACAD_REACTORS
330
189F
102
}
330
189F
100
AcDbXrecord
280
     1
  1
_Color 8
  1
*
  1
8
  1
*
 70
     0
  1
*
  1
*
  0
XRECORD
  5
18A4
102
{ACAD_REACTORS
330
189F
102
}
330
189F
100
AcDbXrecord
280
     1
  1
_Color 84
  1
*
  1
84
  1
*
 70
     0
  1
*
  1
*
  0
XRECORD
  5
18AA
102
{ACAD_REACTORS
330
189F
102
}
330
189F
100
AcDbXrecord
280
     1
  1
_Contours
  1
*contour*,*cont-*,*cp cont*,*p-cont*
  1
*
  1
*
 70
     0
  1
*
  1
*
  0
XRECORD
  5
18A6
102
{ACAD_REACTORS
330
189F
102
}
330
189F
100
AcDbXrecord
280
     1
  1
_Existing
  1
*exist*
  1
*
  1
*
 70
     0
  1
*
  1
*
  0
XRECORD
  5
18A9
102
{ACAD_REACTORS
330
189F
102
}
330
189F
100
AcDbXrecord
280
     1
  1
_Hardscape
  1
*sidewalk*,*sw*,*curb*,*walk*,*-lip*,*tbc*
  1
*
  1
*
 70
     0
  1
*
  1
*
  0
XRECORD
  5
18A0
102
{ACAD_REACTORS
330
189F
102
}
330
189F
100
AcDbXrecord
280
     1
  1
_NoXref
  1
~*|*
  1
*
  1
*
 70
     0
  1
*
  1
*
  0
XRECORD
  5
18A7
102
{ACAD_REACTORS
330
189F
102
}
330
189F
100
AcDbXrecord
280
     1
  1
_Row
  1
*row*
  1
*
  1
*
 70
     0
  1
*
  1
*
  0
XRECORD
  5
18A8
102
{ACAD_REACTORS
330
189F
102
}
330
189F
100
AcDbXrecord
280
     1
  1
_Utility
  1
*ut-*,*utility*,*wat*
  1
*
  1
*
 70
     0
  1
*
  1
*
  0
DICTIONARY
  5
11FC
330
11FB
100
AcDbDictionary
280
     1
281
     1
  3
ACAD_XREC_ROUNDTRIP
360
18D1
  3
BUMPTILE
360
11FE
  3
DIFFUSETILE
360
11FD
  3
OPACITYTILE
360
1201
  3
REFLECTIONTILE
360
1200
  3
REFRACTIONTILE
360
1202
  3
SPECULARTILE
360
11FF
  0
DICTIONARY
  5
11F4
330
11F3
100
AcDbDictionary
280
     1
281
     1
  3
ACAD_XREC_ROUNDTRIP
360
18D0
  3
BUMPTILE
360
11F6
  3
DIFFUSETILE
360
11F5
  3
OPACITYTILE
360
11F9
  3
REFLECTIONTILE
360
11F8
  3
REFRACTIONTILE
360
11FA
  3
SPECULARTILE
360
11F7
  0
DICTIONARY
  5
1204
330
1203
100
AcDbDictionary
280
     1
281
     1
  3
ACAD_XREC_ROUNDTRIP
360
18D2
  3
BUMPTILE
360
1206
  3
DIFFUSETILE
360
1205
  3
OPACITYTILE
360
1209
  3
REFLECTIONTILE
360
1208
  3
REFRACTIONTILE
360
120A
  3
SPECULARTILE
360
1207
  0
DICTIONARY
  5
12BA
330
121E
100
AcDbDictionary
280
     1
281
     1
  3
ACAD_ROUNDTRIP_2008_TABLESTYLE_CELLSTYLEMAP
360
18CD
  3
ACAD_XREC_ROUNDTRIP
360
18D3
  0
XRECORD
  5
18D1
102
{ACAD_REACTORS
330
11FC
102
}
330
11FC
100
AcDbXrecord
280
     1
102
MATERIAL
148
0.0
149
0.0
149
0.0
 93
        0
 94
      127
282
     0
 72
     0
 77
     0
171
     0
175
     0
179
     0
273
     0
  0
XRECORD
  5
11FE
102
{ACAD_REACTORS
330
11FC
102
}
330
11FC
100
AcDbXrecord
280
     1
270
     1
271
     1
  0
XRECORD
  5
11FD
102
{ACAD_REACTORS
330
11FC
102
}
330
11FC
100
AcDbXrecord
280
     1
270
     1
271
     1
  0
XRECORD
  5
1201
102
{ACAD_REACTORS
330
11FC
102
}
330
11FC
100
AcDbXrecord
280
     1
270
     1
271
     1
  0
XRECORD
  5
1200
102
{ACAD_REACTORS
330
11FC
102
}
330
11FC
100
AcDbXrecord
280
     1
270
     1
271
     1
  0
XRECORD
  5
1202
102
{ACAD_REACTORS
330
11FC
102
}
330
11FC
100
AcDbXrecord
280
     1
270
     1
271
     1
  0
XRECORD
  5
11FF
102
{ACAD_REACTORS
330
11FC
102
}
330
11FC
100
AcDbXrecord
280
     1
270
     1
271
     1
  0
XRECORD
  5
18D0
102
{ACAD_REACTORS
330
11F4
102
}
330
11F4
100
AcDbXrecord
280
     1
102
MATERIAL
148
0.0
149
0.0
149
0.0
 93
        0
 94
      127
282
     0
 72
     0
 77
     0
171
     0
175
     0
179
     0
273
     0
  0
XRECORD
  5
11F6
102
{ACAD_REACTORS
330
11F4
102
}
330
11F4
100
AcDbXrecord
280
     1
270
     1
271
     1
  0
XRECORD
  5
11F5
102
{ACAD_REACTORS
330
11F4
102
}
330
11F4
100
AcDbXrecord
280
     1
270
     1
271
     1
  0
XRECORD
  5
11F9
102
{ACAD_REACTORS
330
11F4
102
}
330
11F4
100
AcDbXrecord
280
     1
270
     1
271
     1
  0
XRECORD
  5
11F8
102
{ACAD_REACTORS
330
11F4
102
}
330
11F4
100
AcDbXrecord
280
     1
270
     1
271
     1
  0
XRECORD
  5
11FA
102
{ACAD_REACTORS
330
11F4
102
}
330
11F4
100
AcDbXrecord
280
     1
270
     1
271
     1
  0
XRECORD
  5
11F7
102
{ACAD_REACTORS
330
11F4
102
}
330
11F4
100
AcDbXrecord
280
     1
270
     1
271
     1
  0
XRECORD
  5
18D2
102
{ACAD_REACTORS
330
1204
102
}
330
1204
100
AcDbXrecord
280
     1
102
MATERIAL
148
0.0
149
0.0
149
0.0
 93
        0
 94
      127
282
     0
 72
     0
 77
     0
171
     0
175
     0
179
     0
273
     0
  0
XRECORD
  5
1206
102
{ACAD_REACTORS
330
1204
102
}
330
1204
100
AcDbXrecord
280
     1
270
     1
271
     1
  0
XRECORD
  5
1205
102
{ACAD_REACTORS
330
1204
102
}
330
1204
100
AcDbXrecord
280
     1
270
     1
271
     1
  0
XRECORD
  5
1209
102
{ACAD_REACTORS
330
1204
102
}
330
1204
100
AcDbXrecord
280
     1
270
     1
271
     1
  0
XRECORD
  5
1208
102
{ACAD_REACTORS
330
1204
102
}
330
1204
100
AcDbXrecord
280
     1
270
     1
271
     1
  0
XRECORD
  5
120A
102
{ACAD_REACTORS
330
1204
102
}
330
1204
100
AcDbXrecord
280
     1
270
     1
271
     1
  0
XRECORD
  5
1207
102
{ACAD_REACTORS
330
1204
102
}
330
1204
100
AcDbXrecord
280
     1
270
     1
271
     1
  0
CELLSTYLEMAP
  5
18CD
102
{ACAD_REACTORS
330
12BA
102
}
330
12BA
100
AcDbCellStyleMap
 90
        3
300
CELLSTYLE
  1
TABLEFORMAT_BEGIN
 90
        5
170
     1
 91
        0
 92
    32768
 62
   257
 93
        1
300
CONTENTFORMAT
  1
CONTENTFORMAT_BEGIN
 90
        0
 91
        0
 92
      512
 93
        0
300

 40
0.0
140
1.0
 94
        5
 62
     0
340
10B4
144
0.25
309
CONTENTFORMAT_END
171
     0
 94
        0
309
TABLEFORMAT_END
  1
CELLSTYLE_BEGIN
 90
        1
 91
        1
300
_TITLE
309
CELLSTYLE_END
300
CELLSTYLE
  1
TABLEFORMAT_BEGIN
 90
        5
170
     1
 91
        0
 92
        0
 62
   257
 93
        1
300
CONTENTFORMAT
  1
CONTENTFORMAT_BEGIN
 90
        0
 91
        0
 92
      512
 93
        0
300

 40
0.0
140
1.0
 94
        5
 62
     0
340
10B4
144
0.18
309
CONTENTFORMAT_END
171
     0
 94
        0
309
TABLEFORMAT_END
  1
CELLSTYLE_BEGIN
 90
        2
 91
        1
300
_HEADER
309
CELLSTYLE_END
300
CELLSTYLE
  1
TABLEFORMAT_BEGIN
 90
        5
170
     1
 91
        0
 92
        0
 62
   257
 93
        1
300
CONTENTFORMAT
  1
CONTENTFORMAT_BEGIN
 90
        0
 91
        0
 92
      512
 93
        0
300

 40
0.0
140
1.0
 94
        2
 62
     0
340
10B4
144
0.18
309
CONTENTFORMAT_END
171
     0
 94
        0
309
TABLEFORMAT_END
  1
CELLSTYLE_BEGIN
 90
        3
 91
        2
300
_DATA
309
CELLSTYLE_END
  0
XRECORD
  5
18D3
102
{ACAD_REACTORS
330
12BA
102
}
330
12BA
100
AcDbXrecord
280
     1
102
ACAD_ROUNDTRIP_PRE2007_TABLESTYLE
 90
      512
 91
        0
  1

 92
      512
 93
        0
  2

 94
      512
 95
        0
  3

  0
ENDSEC
  0
EOF
