  0
SECTION
  2
HEADER
  9
$ACADVER
  1
AC1018
  9
$ACADMAINTVER
 70
   104
  9
$DWGCODEPAGE
  3
ANSI_1252
  9
$LASTSAVEDBY
  1
dweyer
  9
$INSBASE
 10
0.0
 20
0.0
 30
0.0
  9
$EXTMIN
 10
-0.4984554492313005
 20
-1.274218755967127
 30
0.0
  9
$EXTMAX
 10
9.836131975556137
 20
9.165781244032872
 30
0.03
  9
$LIMMIN
 10
0.0
 20
0.0
  9
$LIMMAX
 10
12.0
 20
9.0
  9
$ORTHOMODE
 70
     0
  9
$REGENMODE
 70
     1
  9
$FILLMODE
 70
     1
  9
$QTEXTMODE
 70
     0
  9
$MIRRTEXT
 70
     0
  9
$LTSCALE
 40
1.0
  9
$ATTMODE
 70
     1
  9
$TEXTSIZE
 40
0.125
  9
$TRACEWID
 40
0.05
  9
$TEXTSTYLE
  7
ROMANS
  9
$CLAYER
  8
0
  9
$CELTYPE
  6
ByLayer
  9
$CECOLOR
 62
   256
  9
$CELTSCALE
 40
1.0
  9
$DISPSILH
 70
     0
  9
$DIMSCALE
 40
1.0
  9
$DIMASZ
 40
0.18
  9
$DIMEXO
 40
0.0625
  9
$DIMDLI
 40
0.38
  9
$DIMRND
 40
0.0
  9
$DIMDLE
 40
0.0
  9
$DIMEXE
 40
0.125
  9
$DIMTP
 40
0.0
  9
$DIMTM
 40
0.0
  9
$DIMTXT
 40
0.125
  9
$DIMCEN
 40
0.09
  9
$DIMTSZ
 40
0.0
  9
$DIMTOL
 70
     0
  9
$DIMLIM
 70
     0
  9
$DIMTIH
 70
     1
  9
$DIMTOH
 70
     1
  9
$DIMSE1
 70
     0
  9
$DIMSE2
 70
     0
  9
$DIMTAD
 70
     0
  9
$DIMZIN
 70
     0
  9
$DIMBLK
  1

  9
$DIMASO
 70
     1
  9
$DIMSHO
 70
     1
  9
$DIMPOST
  1

  9
$DIMAPOST
  1

  9
$DIMALT
 70
     0
  9
$DIMALTD
 70
     2
  9
$DIMALTF
 40
25.4
  9
$DIMLFAC
 40
1.0
  9
$DIMTOFL
 70
     0
  9
$DIMTVP
 40
0.0
  9
$DIMTIX
 70
     0
  9
$DIMSOXD
 70
     0
  9
$DIMSAH
 70
     0
  9
$DIMBLK1
  1

  9
$DIMBLK2
  1

  9
$DIMSTYLE
  2
STANDARD
  9
$DIMCLRD
 70
   256
  9
$DIMCLRE
 70
   256
  9
$DIMCLRT
 70
   256
  9
$DIMTFAC
 40
1.0
  9
$DIMGAP
 40
0.09
  9
$DIMJUST
 70
     0
  9
$DIMSD1
 70
     0
  9
$DIMSD2
 70
     0
  9
$DIMTOLJ
 70
     1
  9
$DIMTZIN
 70
     0
  9
$DIMALTZ
 70
     0
  9
$DIMALTTZ
 70
     0
  9
$DIMUPT
 70
     0
  9
$DIMDEC
 70
     4
  9
$DIMTDEC
 70
     4
  9
$DIMALTU
 70
     2
  9
$DIMALTTD
 70
     2
  9
$DIMTXSTY
  7
Arial
  9
$DIMAUNIT
 70
     0
  9
$DIMADEC
 70
     0
  9
$DIMALTRND
 40
0.0
  9
$DIMAZIN
 70
     0
  9
$DIMDSEP
 70
    46
  9
$DIMATFIT
 70
     3
  9
$DIMFRAC
 70
     0
  9
$DIMLDRBLK
  1

  9
$DIMLUNIT
 70
     2
  9
$DIMLWD
 70
    -1
  9
$DIMLWE
 70
    -1
  9
$DIMTMOVE
 70
     2
  9
$LUNITS
 70
     2
  9
$LUPREC
 70
     3
  9
$SKETCHINC
 40
0.1
  9
$FILLETRAD
 40
0.0
  9
$AUNITS
 70
     0
  9
$AUPREC
 70
     0
  9
$MENU
  1
ACAD
  9
$ELEVATION
 40
0.0
  9
$PELEVATION
 40
0.0
  9
$THICKNESS
 40
0.0
  9
$LIMCHECK
 70
     0
  9
$CHAMFERA
 40
0.0
  9
$CHAMFERB
 40
0.0
  9
$CHAMFERC
 40
0.0
  9
$CHAMFERD
 40
0.0
  9
$SKPOLY
 70
     0
  9
$TDCREATE
 40
2451605.558833901
  9
$TDUCREATE
 40
2451605.850500568
  9
$TDUPDATE
 40
2455215.545561840
  9
$TDUUPDATE
 40
2455215.837228507
  9
$TDINDWG
 40
0.2507965972
  9
$TDUSRTIMER
 40
0.2507965972
  9
$USRTIMER
 70
     1
  9
$ANGBASE
 50
0.0
  9
$ANGDIR
 70
     0
  9
$PDMODE
 70
     0
  9
$PDSIZE
 40
0.0
  9
$PLINEWID
 40
0.0
  9
$SPLFRAME
 70
     0
  9
$SPLINETYPE
 70
     6
  9
$SPLINESEGS
 70
     8
  9
$HANDSEED
  5
182B
  9
$SURFTAB1
 70
     6
  9
$SURFTAB2
 70
     6
  9
$SURFTYPE
 70
     6
  9
$SURFU
 70
     6
  9
$SURFV
 70
     6
  9
$UCSBASE
  2

  9
$UCSNAME
  2

  9
$UCSORG
 10
0.0
 20
0.0
 30
0.0
  9
$UCSXDIR
 10
1.0
 20
0.0
 30
0.0
  9
$UCSYDIR
 10
0.0
 20
1.0
 30
0.0
  9
$UCSORTHOREF
  2

  9
$UCSORTHOVIEW
 70
     0
  9
$UCSORGTOP
 10
0.0
 20
0.0
 30
0.0
  9
$UCSORGBOTTOM
 10
0.0
 20
0.0
 30
0.0
  9
$UCSORGLEFT
 10
0.0
 20
0.0
 30
0.0
  9
$UCSORGRIGHT
 10
0.0
 20
0.0
 30
0.0
  9
$UCSORGFRONT
 10
0.0
 20
0.0
 30
0.0
  9
$UCSORGBACK
 10
0.0
 20
0.0
 30
0.0
  9
$PUCSBASE
  2

  9
$PUCSNAME
  2

  9
$PUCSORG
 10
0.0
 20
0.0
 30
0.0
  9
$PUCSXDIR
 10
1.0
 20
0.0
 30
0.0
  9
$PUCSYDIR
 10
0.0
 20
1.0
 30
0.0
  9
$PUCSORTHOREF
  2

  9
$PUCSORTHOVIEW
 70
     0
  9
$PUCSORGTOP
 10
0.0
 20
0.0
 30
0.0
  9
$PUCSORGBOTTOM
 10
0.0
 20
0.0
 30
0.0
  9
$PUCSORGLEFT
 10
0.0
 20
0.0
 30
0.0
  9
$PUCSORGRIGHT
 10
0.0
 20
0.0
 30
0.0
  9
$PUCSORGFRONT
 10
0.0
 20
0.0
 30
0.0
  9
$PUCSORGBACK
 10
0.0
 20
0.0
 30
0.0
  9
$USERI1
 70
     0
  9
$USERI2
 70
     0
  9
$USERI3
 70
     0
  9
$USERI4
 70
     0
  9
$USERI5
 70
     0
  9
$USERR1
 40
0.0
  9
$USERR2
 40
0.0
  9
$USERR3
 40
0.0
  9
$USERR4
 40
0.0
  9
$USERR5
 40
0.0
  9
$WORLDVIEW
 70
     1
  9
$SHADEDGE
 70
     3
  9
$SHADEDIF
 70
    70
  9
$TILEMODE
 70
     1
  9
$MAXACTVP
 70
    16
  9
$PINSBASE
 10
0.0
 20
0.0
 30
0.0
  9
$PLIMCHECK
 70
     0
  9
$PEXTMIN
 10
1.000000000000000E+20
 20
1.000000000000000E+20
 30
1.000000000000000E+20
  9
$PEXTMAX
 10
-1.000000000000000E+20
 20
-1.000000000000000E+20
 30
-1.000000000000000E+20
  9
$PLIMMIN
 10
0.0
 20
0.0
  9
$PLIMMAX
 10
12.0
 20
9.0
  9
$UNITMODE
 70
     0
  9
$VISRETAIN
 70
     0
  9
$PLINEGEN
 70
     1
  9
$PSLTSCALE
 70
     1
  9
$TREEDEPTH
 70
  3020
  9
$CMLSTYLE
  2
Standard
  9
$CMLJUST
 70
     0
  9
$CMLSCALE
 40
1.0
  9
$PROXYGRAPHICS
 70
     1
  9
$MEASUREMENT
 70
     0
  9
$CELWEIGHT
370
    -1
  9
$ENDCAPS
280
     0
  9
$JOINSTYLE
280
     0
  9
$LWDISPLAY
290
     0
  9
$INSUNITS
 70
     0
  9
$HYPERLINKBASE
  1

  9
$STYLESHEET
  1
pdf bw shaded.ctb
  9
$XEDIT
290
     1
  9
$CEPSNTYPE
380
     0
  9
$PSTYLEMODE
290
     1
  9
$FINGERPRINTGUID
  2
{809E942E-D3FA-4AF4-BE5E-39ACFC237699}
  9
$VERSIONGUID
  2
{A56D38C0-0C32-4CC5-B8DE-3317637C96DB}
  9
$EXTNAMES
290
     1
  9
$PSVPSCALE
 40
0.0
  9
$OLESTARTUP
290
     1
  9
$SORTENTS
280
    48
  9
$INDEXCTL
280
     0
  9
$HIDETEXT
280
     1
  9
$XCLIPFRAME
290
     0
  9
$HALOGAP
280
     0
  9
$OBSCOLOR
 70
   257
  9
$OBSLTYPE
280
     0
  9
$INTERSECTIONDISPLAY
280
     0
  9
$INTERSECTIONCOLOR
 70
   257
  9
$DIMASSOC
280
     1
  9
$PROJECTNAME
  1

  0
ENDSEC
  0
SECTION
  2
CLASSES
  0
CLASS
  1
ACDBDICTIONARYWDFLT
  2
AcDbDictionaryWithDefault
  3
ObjectDBX Classes
 90
        0
 91
        1
280
     0
281
     0
  0
CLASS
  1
DICTIONARYVAR
  2
AcDbDictionaryVar
  3
ObjectDBX Classes
 90
        0
 91
       11
280
     0
281
     0
  0
CLASS
  1
MATERIAL
  2
AcDbMaterial
  3
ObjectDBX Classes
 90
     1153
 91
        3
280
     0
281
     0
  0
CLASS
  1
VISUALSTYLE
  2
AcDbVisualStyle
  3
ObjectDBX Classes
 90
     4095
 91
       16
280
     0
281
     0
  0
CLASS
  1
TABLESTYLE
  2
AcDbTableStyle
  3
ObjectDBX Classes
 90
     4095
 91
        1
280
     0
281
     0
  0
CLASS
  1
SCALE
  2
AcDbScale
  3
ObjectDBX Classes
 90
     1153
 91
       33
280
     0
281
     0
  0
CLASS
  1
MLEADERSTYLE
  2
AcDbMLeaderStyle
  3
ACDB_MLEADERSTYLE_CLASS
 90
     4095
 91
        1
280
     0
281
     0
  0
CLASS
  1
EXACXREFPANELOBJECT
  2
ExAcXREFPanelObject
  3
EXAC_ESW
 90
     1025
 91
        0
280
     0
281
     0
  0
CLASS
  1
NPOCOLLECTION
  2
AcDbImpNonPersistentObjectsCollection
  3
ObjectDBX Classes
 90
     1153
 91
        0
280
     0
281
     0
  0
CLASS
  1
PLOTSETTINGS
  2
AcDbPlotSettings
  3
ObjectDBX Classes
 90
        0
 91
       76
280
     0
281
     0
  0
CLASS
  1
LAYER_INDEX
  2
AcDbLayerIndex
  3
ObjectDBX Classes
 90
        0
 91
        0
280
     0
281
     0
  0
CLASS
  1
SPATIAL_INDEX
  2
AcDbSpatialIndex
  3
ObjectDBX Classes
 90
        0
 91
        0
280
     0
281
     0
  0
CLASS
  1
IDBUFFER
  2
AcDbIdBuffer
  3
ObjectDBX Classes
 90
        0
 91
        0
280
     0
281
     0
  0
CLASS
  1
CELLSTYLEMAP
  2
AcDbCellStyleMap
  3
ObjectDBX Classes
 90
     1152
 91
        7
280
     0
281
     0
  0
CLASS
  1
AEC_REFEDIT_STATUS_TRACKER
  2
AecDbRefEditStatusTracker
  3
AecArchBase50|Product Desc: Autodesk Architectural Desktop 2007 |Company: Autodesk,Inc. |WEB Address: www.autodesk.com
 90
      129
 91
        0
280
     0
281
     0
  0
CLASS
  1
SORTENTSTABLE
  2
AcDbSortentsTable
  3
ObjectDBX Classes
 90
        0
 91
        2
280
     0
281
     0
  0
ENDSEC
  0
SECTION
  2
TABLES
  0
TABLE
  2
VPORT
  5
10AB
330
0
100
AcDbSymbolTable
 70
     1
  0
VPORT
  5
11F0
330
10AB
100
AcDbSymbolTableRecord
100
AcDbViewportTableRecord
  2
*Active
 70
     0
 10
0.0
 20
0.0
 11
1.0
 21
1.0
 12
4.668838263162419
 22
3.945781244032871
 13
0.0
 23
0.0
 14
0.14
 24
0.14
 15
0.14
 25
0.14
 16
0.0
 26
0.0
 36
1.0
 17
0.0
 27
0.0
 37
0.0
 40
10.53266272189349
 41
2.308148148148148
 42
50.0
 43
0.0
 44
0.0
 50
0.0
 51
0.0
 71
     0
 72
  4000
 73
     1
 74
     1
 75
     0
 76
     0
 77
     0
 78
     0
281
     0
 65
     1
110
0.0
120
0.0
130
0.0
111
1.0
121
0.0
131
0.0
112
0.0
122
1.0
132
0.0
 79
     0
146
0.0
  0
ENDTAB
  0
TABLE
  2
LTYPE
  5
10A8
330
0
100
AcDbSymbolTable
 70
     1
  0
LTYPE
  5
10B6
330
10A8
100
AcDbSymbolTableRecord
100
AcDbLinetypeTableRecord
  2
ByBlock
 70
     0
  3

 72
    65
 73
     0
 40
0.0
  0
LTYPE
  5
10B7
330
10A8
100
AcDbSymbolTableRecord
100
AcDbLinetypeTableRecord
  2
ByLayer
 70
     0
  3

 72
    65
 73
     0
 40
0.0
  0
LTYPE
  5
10B8
330
10A8
100
AcDbSymbolTableRecord
100
AcDbLinetypeTableRecord
  2
CONTINUOUS
 70
     0
  3
Solid line
 72
    65
 73
     0
 40
0.0
  0
ENDTAB
  0
TABLE
  2
LAYER
  5
10A5
102
{ACAD_XDICTIONARY
360
10EB
102
}
330
0
100
AcDbSymbolTable
 70
     4
  0
LAYER
  5
10B3
330
10A5
100
AcDbSymbolTableRecord
100
AcDbLayerTableRecord
  2
0
 70
     0
 62
     7
  6
CONTINUOUS
370
    -3
390
10B2
  0
LAYER
  5
10CC
330
10A5
100
AcDbSymbolTableRecord
100
AcDbLayerTableRecord
  2
text_bubbles
 70
     0
 62
     6
  6
CONTINUOUS
370
    -3
390
10B2
  0
LAYER
  5
10CD
330
10A5
100
AcDbSymbolTableRecord
100
AcDbLayerTableRecord
  2
image
 70
     0
 62
     7
  6
CONTINUOUS
370
    -3
390
10B2
  0
LAYER
  5
118F
330
10A5
100
AcDbSymbolTableRecord
100
AcDbLayerTableRecord
  2
title
 70
     0
 62
     4
  6
CONTINUOUS
370
    -3
390
10B2
  0
ENDTAB
  0
TABLE
  2
STYLE
  5
10A6
330
0
100
AcDbSymbolTable
 70
     7
  0
STYLE
  5
10B4
330
10A6
100
AcDbSymbolTableRecord
100
AcDbTextStyleTableRecord
  2
STANDARD
 70
     0
 40
0.0
 41
1.0
 50
0.0
 71
     0
 42
0.2
  3
txt
  4

  0
STYLE
  5
10C7
330
10A6
100
AcDbSymbolTableRecord
100
AcDbTextStyleTableRecord
  2
ROMANS
 70
     0
 40
0.0
 41
1.0
 50
0.0
 71
     0
 42
0.125
  3
ROMANS.SHX
  4

  0
STYLE
  5
10C8
330
10A6
100
AcDbSymbolTableRecord
100
AcDbTextStyleTableRecord
  2
SIMPLEX
 70
     0
 40
0.0
 41
1.0
 50
0.0
 71
     0
 42
0.125
  3
SIMPLEX
  4

  0
STYLE
  5
1190
330
10A6
100
AcDbSymbolTableRecord
100
AcDbTextStyleTableRecord
  2
L100
 70
     0
 40
0.1
 41
1.0
 50
0.0
 71
     0
 42
0.1
  3
romans.shx
  4

  0
STYLE
  5
1191
330
10A6
100
AcDbSymbolTableRecord
100
AcDbTextStyleTableRecord
  2
L200
 70
     0
 40
0.2
 41
1.0
 50
0.0
 71
     0
 42
0.081
  3
ARIAL.TTF
  4

1001
ACAD
1000
Arial
1071
       34
  0
STYLE
  5
1192
330
10A6
100
AcDbSymbolTableRecord
100
AcDbTextStyleTableRecord
  2
L80
 70
     0
 40
0.08
 41
1.0
 50
0.0
 71
     0
 42
0.08
  3
ROMANS
  4

  0
STYLE
  5
1345
330
10A6
100
AcDbSymbolTableRecord
100
AcDbTextStyleTableRecord
  2
Arial
 70
     0
 40
0.0
 41
1.0
 50
0.0
 71
     0
 42
0.125
  3
ARIAL.TTF
  4

1001
ACAD
1000
Arial
1071
       34
  0
ENDTAB
  0
TABLE
  2
VIEW
  5
10A9
330
0
100
AcDbSymbolTable
 70
     0
  0
ENDTAB
  0
TABLE
  2
UCS
  5
10AA
330
0
100
AcDbSymbolTable
 70
     0
  0
ENDTAB
  0
TABLE
  2
APPID
  5
10AC
330
0
100
AcDbSymbolTable
 70
    14
  0
APPID
  5
10B5
330
10AC
100
AcDbSymbolTableRecord
100
AcDbRegAppTableRecord
  2
ACAD
 70
     0
  0
APPID
  5
10CA
330
10AC
100
AcDbSymbolTableRecord
100
AcDbRegAppTableRecord
  2
ABNSLEADERTOOLS
 70
     0
  0
APPID
  5
1193
330
10AC
100
AcDbSymbolTableRecord
100
AcDbRegAppTableRecord
  2
RAK
 70
     0
  0
APPID
  5
1194
330
10AC
100
AcDbSymbolTableRecord
100
AcDbRegAppTableRecord
  2
DCO15
 70
     0
  0
APPID
  5
1243
330
10AC
100
AcDbSymbolTableRecord
100
AcDbRegAppTableRecord
  2
ACAD_MLEADERVER
 70
     0
  0
APPID
  5
1257
330
10AC
100
AcDbSymbolTableRecord
100
AcDbRegAppTableRecord
  2
ACAD_PSEXT
 70
     0
  0
APPID
  5
12D8
330
10AC
100
AcDbSymbolTableRecord
100
AcDbRegAppTableRecord
  2
ACAD_EXEMPT_FROM_CAD_STANDARDS
 70
     0
  0
APPID
  5
1346
330
10AC
100
AcDbSymbolTableRecord
100
AcDbRegAppTableRecord
  2
BBSI_PltSel
 70
     0
  0
APPID
  5
1347
330
10AC
100
AcDbSymbolTableRecord
100
AcDbRegAppTableRecord
  2
BBSI_Plots
 70
     0
  0
APPID
  5
1348
330
10AC
100
AcDbSymbolTableRecord
100
AcDbRegAppTableRecord
  2
BBSI_Bookmarks
 70
     0
  0
APPID
  5
1349
330
10AC
100
AcDbSymbolTableRecord
100
AcDbRegAppTableRecord
  2
BBSI_BookmarksEx
 70
     0
  0
APPID
  5
135A
330
10AC
100
AcDbSymbolTableRecord
100
AcDbRegAppTableRecord
  2
BBSI_StampsEx
 70
     0
  0
APPID
  5
135B
330
10AC
100
AcDbSymbolTableRecord
100
AcDbRegAppTableRecord
  2
BBSI_Attachs
 70
     0
  0
APPID
  5
135C
330
10AC
100
AcDbSymbolTableRecord
100
AcDbRegAppTableRecord
  2
BBSI_DigSigs
 70
     0
  0
ENDTAB
  0
TABLE
  2
DIMSTYLE
  5
10AD
330
0
100
AcDbSymbolTable
 70
     1
100
AcDbDimStyleTable
 71
     1
340
10CB
  0
DIMSTYLE
105
10CB
330
10AD
100
AcDbSymbolTableRecord
100
AcDbDimStyleTableRecord
  2
STANDARD
 70
     0
279
     2
340
10B4
  0
ENDTAB
  0
TABLE
  2
BLOCK_RECORD
  5
10A4
330
0
100
AcDbSymbolTable
 70
     2
  0
BLOCK_RECORD
  5
10C1
102
{ACAD_XDICTIONARY
360
12AB
102
}
330
10A4
100
AcDbSymbolTableRecord
100
AcDbBlockTableRecord
  2
*Model_Space
340
10C4
  0
BLOCK_RECORD
  5
10BD
330
10A4
100
AcDbSymbolTableRecord
100
AcDbBlockTableRecord
  2
*Paper_Space
340
10C0
  0
BLOCK_RECORD
  5
10C5
330
10A4
100
AcDbSymbolTableRecord
100
AcDbBlockTableRecord
  2
*U0
340
0
102
{BLKREFS
331
9BB
102
}
  0
BLOCK_RECORD
  5
1195
102
{ACAD_XDICTIONARY
360
1316
102
}
330
10A4
100
AcDbSymbolTableRecord
100
AcDbBlockTableRecord
  2
titleblock
340
0
102
{BLKREFS
331
11A4
102
}
  0
ENDTAB
  0
ENDSEC
  0
SECTION
  2
BLOCKS
  0
BLOCK
  5
10D6
330
10C1
100
AcDbEntity
  8
0
100
AcDbBlockBegin
  2
*Model_Space
 70
     0
 10
0.0
 20
0.0
 30
0.0
  3
*Model_Space
  1

  0
ENDBLK
  5
10D7
330
10C1
100
AcDbEntity
  8
0
100
AcDbBlockEnd
  0
BLOCK
  5
10D4
330
10BD
100
AcDbEntity
 67
     1
  8
0
100
AcDbBlockBegin
  2
*Paper_Space
 70
     0
 10
0.0
 20
0.0
 30
0.0
  3
*Paper_Space
  1

  0
ENDBLK
  5
10D5
330
10BD
100
AcDbEntity
 67
     1
  8
0
100
AcDbBlockEnd
  0
BLOCK
  5
1009
330
10C5
100
AcDbEntity
  8
0
100
AcDbBlockBegin
  2
*U0
 70
     1
 10
0.0
 20
0.0
 30
0.0
  3
*U0
  1

  0
SOLID
  5
F89
330
10C5
100
AcDbEntity
  8
0
  6
Continuous
100
AcDbTrace
 10
3.52560214138319
 20
4.743065616962137
 30
0.0
 11
3.533975430180516
 21
4.742719295175727
 31
0.0
 12
3.545766839806102
 22
4.743062390154575
 32
0.0
 13
3.545766839806102
 23
4.743062390154575
 33
0.0
  0
SOLID
  5
F8A
330
10C5
100
AcDbEntity
  8
0
  6
Continuous
100
AcDbTrace
 10
3.557518351033997
 20
4.744090514166313
 30
0.0
 11
3.52560214138319
 21
4.743065616962137
 31
0.0
 12
3.545766839806102
 22
4.743062390154575
 32
0.0
 13
3.545766839806102
 23
4.743062390154575
 33
0.0
  0
SOLID
  5
F8B
330
10C5
100
AcDbEntity
  8
0
  6
Continuous
100
AcDbTrace
 10
3.517286050638753
 20
4.744102216592396
 30
0.0
 11
3.52560214138319
 21
4.743065616962137
 31
0.0
 12
3.557518351033997
 22
4.744090514166313
 32
0.0
 13
3.557518351033997
 23
4.744090514166313
 33
0.0
  0
SOLID
  5
F8C
330
10C5
100
AcDbEntity
  8
0
  6
Continuous
100
AcDbTrace
 10
3.569190200470061
 20
4.745800188364732
 30
0.0
 11
3.517286050638753
 21
4.744102216592396
 31
0.0
 12
3.557518351033997
 22
4.744090514166313
 32
0.0
 13
3.557518351033997
 23
4.744090514166313
 33
0.0
  0
SOLID
  5
F8D
330
10C5
100
AcDbEntity
  8
0
  6
Continuous
100
AcDbTrace
 10
3.509083965279394
 20
4.745822013039933
 30
0.0
 11
3.517286050638753
 21
4.744102216592396
 31
0.0
 12
3.569190200470061
 22
4.745800188364732
 32
0.0
 13
3.569190200470061
 23
4.745800188364732
 33
0.0
  0
SOLID
  5
F8E
330
10C5
100
AcDbEntity
  8
0
  6
Continuous
100
AcDbTrace
 10
3.580742894270437
 20
4.748185627753528
 30
0.0
 11
3.509083965279394
 21
4.745822013039933
 31
0.0
 12
3.569190200470061
 22
4.745800188364732
 32
0.0
 13
3.569190200470061
 23
4.745800188364732
 33
0.0
  0
SOLID
  5
F8F
330
10C5
100
AcDbEntity
  8
0
  6
Continuous
100
AcDbTrace
 10
3.501051913864924
 20
4.74821325835116
 30
0.0
 11
3.509083965279394
 21
4.745822013039933
 31
0.0
 12
3.580742894270437
 22
4.748185627753528
 32
0.0
 13
3.580742894270437
 23
4.748185627753528
 33
0.0
  0
SOLID
  5
F90
330
10C5
100
AcDbEntity
  8
0
  6
Continuous
100
AcDbTrace
 10
3.592137341776225
 20
4.751238760760903
 30
0.0
 11
3.501051913864924
 21
4.74821325835116
 31
0.0
 12
3.580742894270437
 22
4.748185627753528
 32
0.0
 13
3.580742894270437
 23
4.748185627753528
 33
0.0
  0
SOLID
  5
F91
330
10C5
100
AcDbEntity
  8
0
  6
Continuous
100
AcDbTrace
 10
3.493244763450895
 20
4.751259617895911
 30
0.0
 11
3.501051913864924
 21
4.74821325835116
 31
0.0
 12
3.592137341776225
 22
4.751238760760903
 32
0.0
 13
3.592137341776225
 23
4.751238760760903
 33
0.0
  0
SOLID
  5
F92
330
10C5
100
AcDbEntity
  8
0
  6
Continuous
100
AcDbTrace
 10
3.485715844790982
 20
4.754940281949528
 30
0.0
 11
3.493244763450895
 21
4.751259617895911
 31
0.0
 12
3.592137341776225
 22
4.751238760760903
 32
0.0
 13
3.592137341776225
 23
4.751238760760903
 33
0.0
  0
SOLID
  5
F93
330
10C5
100
AcDbEntity
  8
0
  6
Continuous
100
AcDbTrace
 10
3.603334987783891
 20
4.754949256551205
 30
0.0
 11
3.485715844790982
 21
4.754940281949528
 31
0.0
 12
3.592137341776225
 22
4.751238760760903
 32
0.0
 13
3.592137341776225
 23
4.751238760760903
 33
0.0
  0
SOLID
  5
F94
330
10C5
100
AcDbEntity
  8
0
  6
Continuous
100
AcDbTrace
 10
3.478516588033856
 20
4.759230107844379
 30
0.0
 11
3.485715844790982
 21
4.754940281949528
 31
0.0
 12
3.603334987783891
 22
4.754949256551205
 32
0.0
 13
3.603334987783891
 23
4.754949256551205
 33
0.0
  0
SOLID
  5
F95
330
10C5
100
AcDbEntity
  8
0
  6
Continuous
100
AcDbTrace
 10
3.614297943003879
 20
4.759304559981211
 30
0.0
 11
3.478516588033856
 21
4.759230107844379
 31
0.0
 12
3.603334987783891
 22
4.754949256551205
 32
0.0
 13
3.603334987783891
 23
4.754949256551205
 33
0.0
  0
SOLID
  5
F96
330
10C5
100
AcDbEntity
  8
0
  6
Continuous
100
AcDbTrace
 10
3.471696171403118
 20
4.764099791719776
 30
0.0
 11
3.478516588033856
 21
4.759230107844379
 31
0.0
 12
3.614297943003879
 22
4.759304559981211
 32
0.0
 13
3.614297943003879
 23
4.759304559981211
 33
0.0
  0
SOLID
  5
F97
330
10C5
100
AcDbEntity
  8
0
  6
Continuous
100
AcDbTrace
 10
3.624989112265963
 20
4.764289934082753
 30
0.0
 11
3.471696171403118
 21
4.764099791719776
 31
0.0
 12
3.614297943003879
 22
4.759304559981211
 32
0.0
 13
3.614297943003879
 23
4.759304559981211
 33
0.0
  0
SOLID
  5
F98
330
10C5
100
AcDbEntity
  8
0
  6
Continuous
100
AcDbTrace
 10
3.465301185260166
 20
4.769516068697058
 30
0.0
 11
3.471696171403118
 21
4.764099791719776
 31
0.0
 12
3.624989112265963
 22
4.764289934082753
 32
0.0
 13
3.624989112265963
 23
4.764289934082753
 33
0.0
  0
SOLID
  5
F99
330
10C5
100
AcDbEntity
  8
0
  6
Continuous
100
AcDbTrace
 10
3.635372320037573
 20
4.769888509927953
 30
0.0
 11
3.465301185260166
 21
4.769516068697058
 31
0.0
 12
3.624989112265963
 22
4.764289934082753
 32
0.0
 13
3.624989112265963
 23
4.764289934082753
 33
0.0
  0
SOLID
  5
F9A
330
10C5
100
AcDbEntity
  8
0
  6
Continuous
100
AcDbTrace
 10
3.459375313844789
 20
4.775441940112435
 30
0.0
 11
3.465301185260166
 21
4.769516068697058
 31
0.0
 12
3.635372320037573
 22
4.769888509927953
 32
0.0
 13
3.635372320037573
 23
4.769888509927953
 33
0.0
  0
SOLID
  5
F9B
330
10C5
100
AcDbEntity
  8
0
  6
Continuous
100
AcDbTrace
 10
3.645412432830335
 20
4.776081343708339
 30
0.0
 11
3.459375313844789
 21
4.775441940112435
 31
0.0
 12
3.635372320037573
 22
4.769888509927953
 32
0.0
 13
3.635372320037573
 23
4.769888509927953
 33
0.0
  0
SOLID
  5
F9C
330
10C5
100
AcDbEntity
  8
0
  6
Continuous
100
AcDbTrace
 10
3.453959036867508
 20
4.781836926255386
 30
0.0
 11
3.459375313844789
 21
4.775441940112435
 31
0.0
 12
3.645412432830335
 22
4.776081343708339
 32
0.0
 13
3.645412432830335
 23
4.776081343708339
 33
0.0
  0
SOLID
  5
F9D
330
10C5
100
AcDbEntity
  8
0
  6
Continuous
100
AcDbTrace
 10
3.655075478080681
 20
4.782847480834693
 30
0.0
 11
3.453959036867508
 21
4.781836926255386
 31
0.0
 12
3.645412432830335
 22
4.776081343708339
 32
0.0
 13
3.645412432830335
 23
4.776081343708339
 33
0.0
  0
SOLID
  5
F9E
330
10C5
100
AcDbEntity
  8
0
  6
Continuous
100
AcDbTrace
 10
3.44908935299211
 20
4.788657342886125
 30
0.0
 11
3.453959036867508
 21
4.781836926255386
 31
0.0
 12
3.655075478080681
 22
4.782847480834693
 32
0.0
 13
3.655075478080681
 23
4.782847480834693
 33
0.0
  0
SOLID
  5
F9F
330
10C5
100
AcDbEntity
  8
0
  6
Continuous
100
AcDbTrace
 10
3.66432875910225
 20
4.79016402684075
 30
0.0
 11
3.44908935299211
 21
4.788657342886125
 31
0.0
 12
3.655075478080681
 22
4.782847480834693
 32
0.0
 13
3.655075478080681
 23
4.782847480834693
 33
0.0
  0
SOLID
  5
FA0
330
10C5
100
AcDbEntity
  8
0
  6
Continuous
100
AcDbTrace
 10
3.444799527097258
 20
4.795856599643251
 30
0.0
 11
3.44908935299211
 21
4.788657342886125
 31
0.0
 12
3.66432875910225
 22
4.79016402684075
 32
0.0
 13
3.66432875910225
 23
4.79016402684075
 33
0.0
  0
SOLID
  5
FA1
330
10C5
100
AcDbEntity
  8
0
  6
Continuous
100
AcDbTrace
 10
3.673140965721121
 20
4.798006224850824
 30
0.0
 11
3.444799527097258
 21
4.795856599643251
 31
0.0
 12
3.66432875910225
 22
4.79016402684075
 32
0.0
 13
3.66432875910225
 23
4.79016402684075
 33
0.0
  0
SOLID
  5
FA2
330
10C5
100
AcDbEntity
  8
0
  6
Continuous
100
AcDbTrace
 10
3.441118863043642
 20
4.803385518303164
 30
0.0
 11
3.444799527097258
 21
4.795856599643251
 31
0.0
 12
3.673140965721121
 22
4.798006224850824
 32
0.0
 13
3.673140965721121
 23
4.798006224850824
 33
0.0
  0
SOLID
  5
FA3
330
10C5
100
AcDbEntity
  8
0
  6
Continuous
100
AcDbTrace
 10
3.681482280219534
 20
4.806347539349236
 30
0.0
 11
3.441118863043642
 21
4.803385518303164
 31
0.0
 12
3.673140965721121
 22
4.798006224850824
 32
0.0
 13
3.673140965721121
 23
4.798006224850824
 33
0.0
  0
SOLID
  5
FA4
330
10C5
100
AcDbEntity
  8
0
  6
Continuous
100
AcDbTrace
 10
3.438072503498891
 20
4.811192668717192
 30
0.0
 11
3.441118863043642
 21
4.803385518303164
 31
0.0
 12
3.681482280219534
 22
4.806347539349236
 32
0.0
 13
3.681482280219534
 23
4.806347539349236
 33
0.0
  0
SOLID
  5
FA5
330
10C5
100
AcDbEntity
  8
0
  6
Continuous
100
AcDbTrace
 10
3.689324478229607
 20
4.815159745968108
 30
0.0
 11
3.438072503498891
 21
4.811192668717192
 31
0.0
 12
3.681482280219534
 22
4.806347539349236
 32
0.0
 13
3.681482280219534
 23
4.806347539349236
 33
0.0
  0
SOLID
  5
FA6
330
10C5
100
AcDbEntity
  8
0
  6
Continuous
100
AcDbTrace
 10
3.435681258187664
 20
4.819224720131663
 30
0.0
 11
3.438072503498891
 21
4.811192668717192
 31
0.0
 12
3.689324478229607
 22
4.815159745968108
 32
0.0
 13
3.689324478229607
 23
4.815159745968108
 33
0.0
  0
SOLID
  5
FA7
330
10C5
100
AcDbEntity
  8
0
  6
Continuous
100
AcDbTrace
 10
3.696641024235664
 20
4.824413026989676
 30
0.0
 11
3.435681258187664
 21
4.819224720131663
 31
0.0
 12
3.689324478229607
 22
4.815159745968108
 32
0.0
 13
3.689324478229607
 23
4.815159745968108
 33
0.0
  0
SOLID
  5
FA8
330
10C5
100
AcDbEntity
  8
0
  6
Continuous
100
AcDbTrace
 10
3.433961461740127
 20
4.827426805491022
 30
0.0
 11
3.435681258187664
 21
4.819224720131663
 31
0.0
 12
3.696641024235664
 22
4.824413026989676
 32
0.0
 13
3.696641024235664
 23
4.824413026989676
 33
0.0
  0
SOLID
  5
FA9
330
10C5
100
AcDbEntity
  8
0
  6
Continuous
100
AcDbTrace
 10
3.703407161362018
 20
4.834076072240022
 30
0.0
 11
3.433961461740127
 21
4.827426805491022
 31
0.0
 12
3.696641024235664
 22
4.824413026989676
 32
0.0
 13
3.696641024235664
 23
4.824413026989676
 33
0.0
  0
SOLID
  5
FAA
330
10C5
100
AcDbEntity
  8
0
  6
Continuous
100
AcDbTrace
 10
3.432924862109867
 20
4.835742896235458
 30
0.0
 11
3.433961461740127
 21
4.827426805491022
 31
0.0
 12
3.703407161362018
 22
4.834076072240022
 32
0.0
 13
3.703407161362018
 23
4.834076072240022
 33
0.0
  0
SOLID
  5
FAB
330
10C5
100
AcDbEntity
  8
0
  6
Continuous
100
AcDbTrace
 10
3.709599995142404
 20
4.844116185032785
 30
0.0
 11
3.432924862109867
 21
4.835742896235458
 31
0.0
 12
3.703407161362018
 22
4.834076072240022
 32
0.0
 13
3.703407161362018
 23
4.834076072240022
 33
0.0
  0
SOLID
  5
FAC
330
10C5
100
AcDbEntity
  8
0
  6
Continuous
100
AcDbTrace
 10
3.432578540323459
 20
4.844116185032785
 30
0.0
 11
3.432924862109867
 21
4.835742896235458
 31
0.0
 12
3.709599995142404
 22
4.844116185032785
 32
0.0
 13
3.709599995142404
 23
4.844116185032785
 33
0.0
  0
SOLID
  5
FAD
330
10C5
100
AcDbEntity
  8
0
  6
Continuous
100
AcDbTrace
 10
3.432924862109867
 20
4.852489473830111
 30
0.0
 11
3.432578540323459
 21
4.844116185032785
 31
0.0
 12
3.709599995142404
 22
4.844116185032785
 32
0.0
 13
3.709599995142404
 23
4.844116185032785
 33
0.0
  0
SOLID
  5
FAE
330
10C5
100
AcDbEntity
  8
0
  6
Continuous
100
AcDbTrace
 10
3.715198570987604
 20
4.854499392804394
 30
0.0
 11
3.432924862109867
 21
4.852489473830111
 31
0.0
 12
3.709599995142404
 22
4.844116185032785
 32
0.0
 13
3.709599995142404
 23
4.844116185032785
 33
0.0
  0
SOLID
  5
FAF
330
10C5
100
AcDbEntity
  8
0
  6
Continuous
100
AcDbTrace
 10
3.433961461740127
 20
4.860805564574548
 30
0.0
 11
3.432924862109867
 21
4.852489473830111
 31
0.0
 12
3.715198570987604
 22
4.854499392804394
 32
0.0
 13
3.715198570987604
 23
4.854499392804394
 33
0.0
  0
SOLID
  5
FB0
330
10C5
100
AcDbEntity
  8
0
  6
Continuous
100
AcDbTrace
 10
3.720183945089146
 20
4.865190562066478
 30
0.0
 11
3.433961461740127
 21
4.860805564574548
 31
0.0
 12
3.715198570987604
 22
4.854499392804394
 32
0.0
 13
3.715198570987604
 23
4.854499392804394
 33
0.0
  0
SOLID
  5
FB1
330
10C5
100
AcDbEntity
  8
0
  6
Continuous
100
AcDbTrace
 10
3.435681258187664
 20
4.869007649933906
 30
0.0
 11
3.433961461740127
 21
4.860805564574548
 31
0.0
 12
3.720183945089146
 22
4.865190562066478
 32
0.0
 13
3.720183945089146
 23
4.865190562066478
 33
0.0
  0
SOLID
  5
FB2
330
10C5
100
AcDbEntity
  8
0
  6
Continuous
100
AcDbTrace
 10
3.724539248519152
 20
4.876153517286466
 30
0.0
 11
3.435681258187664
 21
4.869007649933906
 31
0.0
 12
3.720183945089146
 22
4.865190562066478
 32
0.0
 13
3.720183945089146
 23
4.865190562066478
 33
0.0
  0
SOLID
  5
FB3
330
10C5
100
AcDbEntity
  8
0
  6
Continuous
100
AcDbTrace
 10
3.438072503498891
 20
4.877039701348377
 30
0.0
 11
3.435681258187664
 21
4.869007649933906
 31
0.0
 12
3.724539248519152
 22
4.876153517286466
 32
0.0
 13
3.724539248519152
 23
4.876153517286466
 33
0.0
  0
SOLID
  5
FB4
330
10C5
100
AcDbEntity
  8
0
  6
Continuous
100
AcDbTrace
 10
3.441118863043642
 20
4.884846851762405
 30
0.0
 11
3.438072503498891
 21
4.877039701348377
 31
0.0
 12
3.724539248519152
 22
4.876153517286466
 32
0.0
 13
3.724539248519152
 23
4.876153517286466
 33
0.0
  0
SOLID
  5
FB5
330
10C5
100
AcDbEntity
  8
0
  6
Continuous
100
AcDbTrace
 10
3.728249744309455
 20
4.887351163294133
 30
0.0
 11
3.441118863043642
 21
4.884846851762405
 31
0.0
 12
3.724539248519152
 22
4.876153517286466
 32
0.0
 13
3.724539248519152
 23
4.876153517286466
 33
0.0
  0
SOLID
  5
FB6
330
10C5
100
AcDbEntity
  8
0
  6
Continuous
100
AcDbTrace
 10
3.444799527097258
 20
4.892375770422319
 30
0.0
 11
3.441118863043642
 21
4.884846851762405
 31
0.0
 12
3.728249744309455
 22
4.887351163294133
 32
0.0
 13
3.728249744309455
 23
4.887351163294133
 33
0.0
  0
SOLID
  5
FB7
330
10C5
100
AcDbEntity
  8
0
  6
Continuous
100
AcDbTrace
 10
3.73130287731683
 20
4.89874561079992
 30
0.0
 11
3.444799527097258
 21
4.892375770422319
 31
0.0
 12
3.728249744309455
 22
4.887351163294133
 32
0.0
 13
3.728249744309455
 23
4.887351163294133
 33
0.0
  0
SOLID
  5
FB8
330
10C5
100
AcDbEntity
  8
0
  6
Continuous
100
AcDbTrace
 10
3.44908935299211
 20
4.899575027179444
 30
0.0
 11
3.444799527097258
 21
4.892375770422319
 31
0.0
 12
3.73130287731683
 22
4.89874561079992
 32
0.0
 13
3.73130287731683
 23
4.89874561079992
 33
0.0
  0
SOLID
  5
FB9
330
10C5
100
AcDbEntity
  8
0
  6
Continuous
100
AcDbTrace
 10
3.453959036867508
 20
4.906395443810183
 30
0.0
 11
3.44908935299211
 21
4.899575027179444
 31
0.0
 12
3.73130287731683
 22
4.89874561079992
 32
0.0
 13
3.73130287731683
 23
4.89874561079992
 33
0.0
  0
SOLID
  5
FBA
330
10C5
100
AcDbEntity
  8
0
  6
Continuous
100
AcDbTrace
 10
3.733688316705626
 20
4.910298304600297
 30
0.0
 11
3.453959036867508
 21
4.906395443810183
 31
0.0
 12
3.73130287731683
 22
4.89874561079992
 32
0.0
 13
3.73130287731683
 23
4.89874561079992
 33
0.0
  0
SOLID
  5
FBB
330
10C5
100
AcDbEntity
  8
0
  6
Continuous
100
AcDbTrace
 10
3.459375313844789
 20
4.912790429953135
 30
0.0
 11
3.453959036867508
 21
4.906395443810183
 31
0.0
 12
3.733688316705626
 22
4.910298304600297
 32
0.0
 13
3.733688316705626
 23
4.910298304600297
 33
0.0
  0
SOLID
  5
FBC
330
10C5
100
AcDbEntity
  8
0
  6
Continuous
100
AcDbTrace
 10
3.465301185260166
 20
4.918716301368512
 30
0.0
 11
3.459375313844789
 21
4.912790429953135
 31
0.0
 12
3.733688316705626
 22
4.910298304600297
 32
0.0
 13
3.733688316705626
 23
4.910298304600297
 33
0.0
  0
SOLID
  5
FBD
330
10C5
100
AcDbEntity
  8
0
  6
Continuous
100
AcDbTrace
 10
3.735397990904044
 20
4.92197015403636
 30
0.0
 11
3.465301185260166
 21
4.918716301368512
 31
0.0
 12
3.733688316705626
 22
4.910298304600297
 32
0.0
 13
3.733688316705626
 23
4.910298304600297
 33
0.0
  0
SOLID
  5
FBE
330
10C5
100
AcDbEntity
  8
0
  6
Continuous
100
AcDbTrace
 10
3.471696171403118
 20
4.924132578345793
 30
0.0
 11
3.465301185260166
 21
4.918716301368512
 31
0.0
 12
3.735397990904044
 22
4.92197015403636
 32
0.0
 13
3.735397990904044
 23
4.92197015403636
 33
0.0
  0
SOLID
  5
FBF
330
10C5
100
AcDbEntity
  8
0
  6
Continuous
100
AcDbTrace
 10
3.478516588033856
 20
4.929002262221191
 30
0.0
 11
3.471696171403118
 21
4.924132578345793
 31
0.0
 12
3.735397990904044
 22
4.92197015403636
 32
0.0
 13
3.735397990904044
 23
4.92197015403636
 33
0.0
  0
SOLID
  5
FC0
330
10C5
100
AcDbEntity
  8
0
  6
Continuous
100
AcDbTrace
 10
3.485715844790982
 20
4.933292088116042
 30
0.0
 11
3.478516588033856
 21
4.929002262221191
 31
0.0
 12
3.735397990904044
 22
4.92197015403636
 32
0.0
 13
3.735397990904044
 23
4.92197015403636
 33
0.0
  0
SOLID
  5
FC1
330
10C5
100
AcDbEntity
  8
0
  6
Continuous
100
AcDbTrace
 10
3.736426114915783
 20
4.933721665264256
 30
0.0
 11
3.485715844790982
 21
4.933292088116042
 31
0.0
 12
3.735397990904044
 22
4.92197015403636
 32
0.0
 13
3.735397990904044
 23
4.92197015403636
 33
0.0
  0
SOLID
  5
FC2
330
10C5
100
AcDbEntity
  8
0
  6
Continuous
100
AcDbTrace
 10
3.493244763450895
 20
4.936972752169658
 30
0.0
 11
3.485715844790982
 21
4.933292088116042
 31
0.0
 12
3.736426114915783
 22
4.933721665264256
 32
0.0
 13
3.736426114915783
 23
4.933721665264256
 33
0.0
  0
SOLID
  5
FC3
330
10C5
100
AcDbEntity
  8
0
  6
Continuous
100
AcDbTrace
 10
3.501051913864924
 20
4.94001911171441
 30
0.0
 11
3.493244763450895
 21
4.936972752169658
 31
0.0
 12
3.736426114915783
 22
4.933721665264256
 32
0.0
 13
3.736426114915783
 23
4.933721665264256
 33
0.0
  0
SOLID
  5
FC4
330
10C5
100
AcDbEntity
  8
0
  6
Continuous
100
AcDbTrace
 10
3.509083965279394
 20
4.942410357025637
 30
0.0
 11
3.501051913864924
 21
4.94001911171441
 31
0.0
 12
3.736426114915783
 22
4.933721665264256
 32
0.0
 13
3.736426114915783
 23
4.933721665264256
 33
0.0
  0
SOLID
  5
FC5
330
10C5
100
AcDbEntity
  8
0
  6
Continuous
100
AcDbTrace
 10
3.517286050638753
 20
4.944130153473174
 30
0.0
 11
3.509083965279394
 21
4.942410357025637
 31
0.0
 12
3.736426114915783
 22
4.933721665264256
 32
0.0
 13
3.736426114915783
 23
4.933721665264256
 33
0.0
  0
SOLID
  5
FC6
330
10C5
100
AcDbEntity
  8
0
  6
Continuous
100
AcDbTrace
 10
3.52560214138319
 20
4.945166753103433
 30
0.0
 11
3.517286050638753
 21
4.944130153473174
 31
0.0
 12
3.736426114915783
 22
4.933721665264256
 32
0.0
 13
3.736426114915783
 23
4.933721665264256
 33
0.0
  0
SOLID
  5
FC7
330
10C5
100
AcDbEntity
  8
0
  6
Continuous
100
AcDbTrace
 10
3.73676920989463
 20
4.945513074889841
 30
0.0
 11
3.52560214138319
 21
4.945166753103433
 31
0.0
 12
3.736426114915783
 22
4.933721665264256
 32
0.0
 13
3.736426114915783
 23
4.933721665264256
 33
0.0
  0
SOLID
  5
FC8
330
10C5
100
AcDbEntity
  8
0
  6
Continuous
100
AcDbTrace
 10
3.533975430180516
 20
4.945513074889842
 30
0.0
 11
3.52560214138319
 21
4.945166753103433
 31
0.0
 12
3.73676920989463
 22
4.945513074889841
 32
0.0
 13
3.73676920989463
 23
4.945513074889841
 33
0.0
  0
SOLID
  5
FC9
330
10C5
100
AcDbEntity
  8
0
  6
Continuous
100
AcDbTrace
 10
3.542348718977842
 20
4.945859396676252
 30
0.0
 11
3.533975430180516
 21
4.945513074889842
 31
0.0
 12
3.73676920989463
 22
4.945513074889841
 32
0.0
 13
3.73676920989463
 23
4.945513074889841
 33
0.0
  0
SOLID
  5
FCA
330
10C5
100
AcDbEntity
  8
0
  6
Continuous
100
AcDbTrace
 10
3.550664809722279
 20
4.946895996306511
 30
0.0
 11
3.542348718977842
 21
4.945859396676252
 31
0.0
 12
3.73676920989463
 22
4.945513074889841
 32
0.0
 13
3.73676920989463
 23
4.945513074889841
 33
0.0
  0
SOLID
  5
FCB
330
10C5
100
AcDbEntity
  8
0
  6
Continuous
100
AcDbTrace
 10
3.558866895081638
 20
4.948615792754048
 30
0.0
 11
3.550664809722279
 21
4.946895996306511
 31
0.0
 12
3.73676920989463
 22
4.945513074889841
 32
0.0
 13
3.73676920989463
 23
4.945513074889841
 33
0.0
  0
SOLID
  5
FCC
330
10C5
100
AcDbEntity
  8
0
  6
Continuous
100
AcDbTrace
 10
3.566898946496108
 20
4.951007038065275
 30
0.0
 11
3.558866895081638
 21
4.948615792754048
 31
0.0
 12
3.73676920989463
 22
4.945513074889841
 32
0.0
 13
3.73676920989463
 23
4.945513074889841
 33
0.0
  0
SOLID
  5
FCD
330
10C5
100
AcDbEntity
  8
0
  6
Continuous
100
AcDbTrace
 10
3.574706096910137
 20
4.954053397610026
 30
0.0
 11
3.566898946496108
 21
4.951007038065275
 31
0.0
 12
3.73676920989463
 22
4.945513074889841
 32
0.0
 13
3.73676920989463
 23
4.945513074889841
 33
0.0
  0
SOLID
  5
FCE
330
10C5
100
AcDbEntity
  8
0
  6
Continuous
100
AcDbTrace
 10
3.736426114915783
 20
4.957304484515427
 30
0.0
 11
3.574706096910137
 21
4.954053397610026
 31
0.0
 12
3.73676920989463
 22
4.945513074889841
 32
0.0
 13
3.73676920989463
 23
4.945513074889841
 33
0.0
  0
SOLID
  5
FCF
330
10C5
100
AcDbEntity
  8
0
  6
Continuous
100
AcDbTrace
 10
3.582235015570049
 20
4.957734061663643
 30
0.0
 11
3.574706096910137
 21
4.954053397610026
 31
0.0
 12
3.736426114915783
 22
4.957304484515427
 32
0.0
 13
3.736426114915783
 23
4.957304484515427
 33
0.0
  0
SOLID
  5
FD0
330
10C5
100
AcDbEntity
  8
0
  6
Continuous
100
AcDbTrace
 10
3.589434272327176
 20
4.962023887558494
 30
0.0
 11
3.582235015570049
 21
4.957734061663643
 31
0.0
 12
3.736426114915783
 22
4.957304484515427
 32
0.0
 13
3.736426114915783
 23
4.957304484515427
 33
0.0
  0
SOLID
  5
FD1
330
10C5
100
AcDbEntity
  8
0
  6
Continuous
100
AcDbTrace
 10
3.596254688957915
 20
4.966893571433891
 30
0.0
 11
3.589434272327176
 21
4.962023887558494
 31
0.0
 12
3.736426114915783
 22
4.957304484515427
 32
0.0
 13
3.736426114915783
 23
4.957304484515427
 33
0.0
  0
SOLID
  5
FD2
330
10C5
100
AcDbEntity
  8
0
  6
Continuous
100
AcDbTrace
 10
3.735397990904044
 20
4.969055995743323
 30
0.0
 11
3.596254688957915
 21
4.966893571433891
 31
0.0
 12
3.736426114915783
 22
4.957304484515427
 32
0.0
 13
3.736426114915783
 23
4.957304484515427
 33
0.0
  0
SOLID
  5
FD3
330
10C5
100
AcDbEntity
  8
0
  6
Continuous
100
AcDbTrace
 10
3.602649675100866
 20
4.972309848411173
 30
0.0
 11
3.596254688957915
 21
4.966893571433891
 31
0.0
 12
3.735397990904044
 22
4.969055995743323
 32
0.0
 13
3.735397990904044
 23
4.969055995743323
 33
0.0
  0
SOLID
  5
FD4
330
10C5
100
AcDbEntity
  8
0
  6
Continuous
100
AcDbTrace
 10
3.608575546516243
 20
4.97823571982655
 30
0.0
 11
3.602649675100866
 21
4.972309848411173
 31
0.0
 12
3.735397990904044
 22
4.969055995743323
 32
0.0
 13
3.735397990904044
 23
4.969055995743323
 33
0.0
  0
SOLID
  5
FD5
330
10C5
100
AcDbEntity
  8
0
  6
Continuous
100
AcDbTrace
 10
3.733688316705626
 20
4.980727845179386
 30
0.0
 11
3.608575546516243
 21
4.97823571982655
 31
0.0
 12
3.735397990904044
 22
4.969055995743323
 32
0.0
 13
3.735397990904044
 23
4.969055995743323
 33
0.0
  0
SOLID
  5
FD6
330
10C5
100
AcDbEntity
  8
0
  6
Continuous
100
AcDbTrace
 10
3.613991823493524
 20
4.984630705969501
 30
0.0
 11
3.608575546516243
 21
4.97823571982655
 31
0.0
 12
3.733688316705626
 22
4.980727845179386
 32
0.0
 13
3.733688316705626
 23
4.980727845179386
 33
0.0
  0
SOLID
  5
FD7
330
10C5
100
AcDbEntity
  8
0
  6
Continuous
100
AcDbTrace
 10
3.618861507368922
 20
4.99145112260024
 30
0.0
 11
3.613991823493524
 21
4.984630705969501
 31
0.0
 12
3.733688316705626
 22
4.980727845179386
 32
0.0
 13
3.733688316705626
 23
4.980727845179386
 33
0.0
  0
SOLID
  5
FD8
330
10C5
100
AcDbEntity
  8
0
  6
Continuous
100
AcDbTrace
 10
3.73130287731683
 20
4.992280538979763
 30
0.0
 11
3.618861507368922
 21
4.99145112260024
 31
0.0
 12
3.733688316705626
 22
4.980727845179386
 32
0.0
 13
3.733688316705626
 23
4.980727845179386
 33
0.0
  0
SOLID
  5
FD9
330
10C5
100
AcDbEntity
  8
0
  6
Continuous
100
AcDbTrace
 10
3.623151333263773
 20
4.998650379357366
 30
0.0
 11
3.618861507368922
 21
4.99145112260024
 31
0.0
 12
3.73130287731683
 22
4.992280538979763
 32
0.0
 13
3.73130287731683
 23
4.992280538979763
 33
0.0
  0
SOLID
  5
FDA
330
10C5
100
AcDbEntity
  8
0
  6
Continuous
100
AcDbTrace
 10
3.728249744309455
 20
5.00367498648555
 30
0.0
 11
3.623151333263773
 21
4.998650379357366
 31
0.0
 12
3.73130287731683
 22
4.992280538979763
 32
0.0
 13
3.73130287731683
 23
4.992280538979763
 33
0.0
  0
SOLID
  5
FDB
330
10C5
100
AcDbEntity
  8
0
  6
Continuous
100
AcDbTrace
 10
3.62683199731739
 20
5.006179298017279
 30
0.0
 11
3.623151333263773
 21
4.998650379357366
 31
0.0
 12
3.728249744309455
 22
5.00367498648555
 32
0.0
 13
3.728249744309455
 23
5.00367498648555
 33
0.0
  0
SOLID
  5
FDC
330
10C5
100
AcDbEntity
  8
0
  6
Continuous
100
AcDbTrace
 10
3.629878356862141
 20
5.013986448431308
 30
0.0
 11
3.62683199731739
 21
5.006179298017279
 31
0.0
 12
3.728249744309455
 22
5.00367498648555
 32
0.0
 13
3.728249744309455
 23
5.00367498648555
 33
0.0
  0
SOLID
  5
FDD
330
10C5
100
AcDbEntity
  8
0
  6
Continuous
100
AcDbTrace
 10
3.724539248519152
 20
5.014872632493217
 30
0.0
 11
3.629878356862141
 21
5.013986448431308
 31
0.0
 12
3.728249744309455
 22
5.00367498648555
 32
0.0
 13
3.728249744309455
 23
5.00367498648555
 33
0.0
  0
SOLID
  5
FDE
330
10C5
100
AcDbEntity
  8
0
  6
Continuous
100
AcDbTrace
 10
3.632269602173368
 20
5.022018499845779
 30
0.0
 11
3.629878356862141
 21
5.013986448431308
 31
0.0
 12
3.724539248519152
 22
5.014872632493217
 32
0.0
 13
3.724539248519152
 23
5.014872632493217
 33
0.0
  0
SOLID
  5
FDF
330
10C5
100
AcDbEntity
  8
0
  6
Continuous
100
AcDbTrace
 10
3.720183945089146
 20
5.025835587713204
 30
0.0
 11
3.632269602173368
 21
5.022018499845779
 31
0.0
 12
3.724539248519152
 22
5.014872632493217
 32
0.0
 13
3.724539248519152
 23
5.014872632493217
 33
0.0
  0
SOLID
  5
FE0
330
10C5
100
AcDbEntity
  8
0
  6
Continuous
100
AcDbTrace
 10
3.633989398620905
 20
5.030220585205137
 30
0.0
 11
3.632269602173368
 21
5.022018499845779
 31
0.0
 12
3.720183945089146
 22
5.025835587713204
 32
0.0
 13
3.720183945089146
 23
5.025835587713204
 33
0.0
  0
SOLID
  5
FE1
330
10C5
100
AcDbEntity
  8
0
  6
Continuous
100
AcDbTrace
 10
3.715198570987604
 20
5.036526756975289
 30
0.0
 11
3.633989398620905
 21
5.030220585205137
 31
0.0
 12
3.720183945089146
 22
5.025835587713204
 32
0.0
 13
3.720183945089146
 23
5.025835587713204
 33
0.0
  0
SOLID
  5
FE2
330
10C5
100
AcDbEntity
  8
0
  6
Continuous
100
AcDbTrace
 10
3.635025998251165
 20
5.038536675949574
 30
0.0
 11
3.633989398620905
 21
5.030220585205137
 31
0.0
 12
3.715198570987604
 22
5.036526756975289
 32
0.0
 13
3.715198570987604
 23
5.036526756975289
 33
0.0
  0
SOLID
  5
FE3
330
10C5
100
AcDbEntity
  8
0
  6
Continuous
100
AcDbTrace
 10
3.709599995142404
 20
5.046909964746898
 30
0.0
 11
3.635025998251165
 21
5.038536675949574
 31
0.0
 12
3.715198570987604
 22
5.036526756975289
 32
0.0
 13
3.715198570987604
 23
5.036526756975289
 33
0.0
  0
SOLID
  5
FE4
330
10C5
100
AcDbEntity
  8
0
  6
Continuous
100
AcDbTrace
 10
3.635372320037573
 20
5.0469099647469
 30
0.0
 11
3.635025998251165
 21
5.038536675949574
 31
0.0
 12
3.709599995142404
 22
5.046909964746898
 32
0.0
 13
3.709599995142404
 23
5.046909964746898
 33
0.0
  0
SOLID
  5
FE5
330
10C5
100
AcDbEntity
  8
0
  6
Continuous
100
AcDbTrace
 10
3.635025998251165
 20
5.055283253544226
 30
0.0
 11
3.635372320037573
 21
5.0469099647469
 31
0.0
 12
3.709599995142404
 22
5.046909964746898
 32
0.0
 13
3.709599995142404
 23
5.046909964746898
 33
0.0
  0
SOLID
  5
FE6
330
10C5
100
AcDbEntity
  8
0
  6
Continuous
100
AcDbTrace
 10
3.703407161362018
 20
5.056950077539661
 30
0.0
 11
3.635025998251165
 21
5.055283253544226
 31
0.0
 12
3.709599995142404
 22
5.046909964746898
 32
0.0
 13
3.709599995142404
 23
5.046909964746898
 33
0.0
  0
SOLID
  5
FE7
330
10C5
100
AcDbEntity
  8
0
  6
Continuous
100
AcDbTrace
 10
3.633989398620905
 20
5.063599344288663
 30
0.0
 11
3.635025998251165
 21
5.055283253544226
 31
0.0
 12
3.703407161362018
 22
5.056950077539661
 32
0.0
 13
3.703407161362018
 23
5.056950077539661
 33
0.0
  0
SOLID
  5
FE8
330
10C5
100
AcDbEntity
  8
0
  6
Continuous
100
AcDbTrace
 10
3.696641024235664
 20
5.066613122790007
 30
0.0
 11
3.633989398620905
 21
5.063599344288663
 31
0.0
 12
3.703407161362018
 22
5.056950077539661
 32
0.0
 13
3.703407161362018
 23
5.056950077539661
 33
0.0
  0
SOLID
  5
FE9
330
10C5
100
AcDbEntity
  8
0
  6
Continuous
100
AcDbTrace
 10
3.632269602173368
 20
5.071801429648021
 30
0.0
 11
3.633989398620905
 21
5.063599344288663
 31
0.0
 12
3.696641024235664
 22
5.066613122790007
 32
0.0
 13
3.696641024235664
 23
5.066613122790007
 33
0.0
  0
SOLID
  5
FEA
330
10C5
100
AcDbEntity
  8
0
  6
Continuous
100
AcDbTrace
 10
3.689324478229607
 20
5.075866403811575
 30
0.0
 11
3.632269602173368
 21
5.071801429648021
 31
0.0
 12
3.696641024235664
 22
5.066613122790007
 32
0.0
 13
3.696641024235664
 23
5.066613122790007
 33
0.0
  0
SOLID
  5
FEB
330
10C5
100
AcDbEntity
  8
0
  6
Continuous
100
AcDbTrace
 10
3.629878356862141
 20
5.079833481062492
 30
0.0
 11
3.632269602173368
 21
5.071801429648021
 31
0.0
 12
3.689324478229607
 22
5.075866403811575
 32
0.0
 13
3.689324478229607
 23
5.075866403811575
 33
0.0
  0
SOLID
  5
FEC
330
10C5
100
AcDbEntity
  8
0
  6
Continuous
100
AcDbTrace
 10
3.681482280219534
 20
5.084678610430446
 30
0.0
 11
3.629878356862141
 21
5.079833481062492
 31
0.0
 12
3.689324478229607
 22
5.075866403811575
 32
0.0
 13
3.689324478229607
 23
5.075866403811575
 33
0.0
  0
SOLID
  5
FED
330
10C5
100
AcDbEntity
  8
0
  6
Continuous
100
AcDbTrace
 10
3.62683199731739
 20
5.087640631476521
 30
0.0
 11
3.629878356862141
 21
5.079833481062492
 31
0.0
 12
3.681482280219534
 22
5.084678610430446
 32
0.0
 13
3.681482280219534
 23
5.084678610430446
 33
0.0
  0
SOLID
  5
FEE
330
10C5
100
AcDbEntity
  8
0
  6
Continuous
100
AcDbTrace
 10
3.673140965721121
 20
5.093019924928859
 30
0.0
 11
3.62683199731739
 21
5.087640631476521
 31
0.0
 12
3.681482280219534
 22
5.084678610430446
 32
0.0
 13
3.681482280219534
 23
5.084678610430446
 33
0.0
  0
SOLID
  5
FEF
330
10C5
100
AcDbEntity
  8
0
  6
Continuous
100
AcDbTrace
 10
3.623151333263773
 20
5.095169550136434
 30
0.0
 11
3.62683199731739
 21
5.087640631476521
 31
0.0
 12
3.673140965721121
 22
5.093019924928859
 32
0.0
 13
3.673140965721121
 23
5.093019924928859
 33
0.0
  0
SOLID
  5
FF0
330
10C5
100
AcDbEntity
  8
0
  6
Continuous
100
AcDbTrace
 10
3.66432875910225
 20
5.100862122938933
 30
0.0
 11
3.623151333263773
 21
5.095169550136434
 31
0.0
 12
3.673140965721121
 22
5.093019924928859
 32
0.0
 13
3.673140965721121
 23
5.093019924928859
 33
0.0
  0
SOLID
  5
FF1
330
10C5
100
AcDbEntity
  8
0
  6
Continuous
100
AcDbTrace
 10
3.618861507368922
 20
5.10236880689356
 30
0.0
 11
3.623151333263773
 21
5.095169550136434
 31
0.0
 12
3.66432875910225
 22
5.100862122938933
 32
0.0
 13
3.66432875910225
 23
5.100862122938933
 33
0.0
  0
SOLID
  5
FF2
330
10C5
100
AcDbEntity
  8
0
  6
Continuous
100
AcDbTrace
 10
3.655075478080681
 20
5.10817866894499
 30
0.0
 11
3.618861507368922
 21
5.10236880689356
 31
0.0
 12
3.66432875910225
 22
5.100862122938933
 32
0.0
 13
3.66432875910225
 23
5.100862122938933
 33
0.0
  0
SOLID
  5
FF3
330
10C5
100
AcDbEntity
  8
0
  6
Continuous
100
AcDbTrace
 10
3.613991823493524
 20
5.109189223524299
 30
0.0
 11
3.618861507368922
 21
5.10236880689356
 31
0.0
 12
3.655075478080681
 22
5.10817866894499
 32
0.0
 13
3.655075478080681
 23
5.10817866894499
 33
0.0
  0
SOLID
  5
FF4
330
10C5
100
AcDbEntity
  8
0
  6
Continuous
100
AcDbTrace
 10
3.645412432830335
 20
5.114944806071344
 30
0.0
 11
3.613991823493524
 21
5.109189223524299
 31
0.0
 12
3.655075478080681
 22
5.10817866894499
 32
0.0
 13
3.655075478080681
 23
5.10817866894499
 33
0.0
  0
SOLID
  5
FF5
330
10C5
100
AcDbEntity
  8
0
  6
Continuous
100
AcDbTrace
 10
3.608575546516243
 20
5.11558420966725
 30
0.0
 11
3.613991823493524
 21
5.109189223524299
 31
0.0
 12
3.645412432830335
 22
5.114944806071344
 32
0.0
 13
3.645412432830335
 23
5.114944806071344
 33
0.0
  0
SOLID
  5
FF6
330
10C5
100
AcDbEntity
  8
0
  6
Continuous
100
AcDbTrace
 10
3.635372320037573
 20
5.121137639851729
 30
0.0
 11
3.608575546516243
 21
5.11558420966725
 31
0.0
 12
3.645412432830335
 22
5.114944806071344
 32
0.0
 13
3.645412432830335
 23
5.114944806071344
 33
0.0
  0
SOLID
  5
FF7
330
10C5
100
AcDbEntity
  8
0
  6
Continuous
100
AcDbTrace
 10
3.602649675100866
 20
5.121510081082627
 30
0.0
 11
3.608575546516243
 21
5.11558420966725
 31
0.0
 12
3.635372320037573
 22
5.121137639851729
 32
0.0
 13
3.635372320037573
 23
5.121137639851729
 33
0.0
  0
SOLID
  5
FF8
330
10C5
100
AcDbEntity
  8
0
  6
Continuous
100
AcDbTrace
 10
3.624989112265963
 20
5.126736215696929
 30
0.0
 11
3.602649675100866
 21
5.121510081082627
 31
0.0
 12
3.635372320037573
 22
5.121137639851729
 32
0.0
 13
3.635372320037573
 23
5.121137639851729
 33
0.0
  0
SOLID
  5
FF9
330
10C5
100
AcDbEntity
  8
0
  6
Continuous
100
AcDbTrace
 10
3.596254688957914
 20
5.126926358059908
 30
0.0
 11
3.602649675100866
 21
5.121510081082627
 31
0.0
 12
3.624989112265963
 22
5.126736215696929
 32
0.0
 13
3.624989112265963
 23
5.126736215696929
 33
0.0
  0
SOLID
  5
FFA
330
10C5
100
AcDbEntity
  8
0
  6
Continuous
100
AcDbTrace
 10
3.614297943003879
 20
5.131721589798472
 30
0.0
 11
3.596254688957914
 21
5.126926358059908
 31
0.0
 12
3.624989112265963
 22
5.126736215696929
 32
0.0
 13
3.624989112265963
 23
5.126736215696929
 33
0.0
  0
SOLID
  5
FFB
330
10C5
100
AcDbEntity
  8
0
  6
Continuous
100
AcDbTrace
 10
3.589434272327176
 20
5.131796041935306
 30
0.0
 11
3.596254688957914
 21
5.126926358059908
 31
0.0
 12
3.614297943003879
 22
5.131721589798472
 32
0.0
 13
3.614297943003879
 23
5.131721589798472
 33
0.0
  0
SOLID
  5
FFC
330
10C5
100
AcDbEntity
  8
0
  6
Continuous
100
AcDbTrace
 10
3.603334987783891
 20
5.136076893228477
 30
0.0
 11
3.589434272327176
 21
5.131796041935306
 31
0.0
 12
3.614297943003879
 22
5.131721589798472
 32
0.0
 13
3.614297943003879
 23
5.131721589798472
 33
0.0
  0
SOLID
  5
FFD
330
10C5
100
AcDbEntity
  8
0
  6
Continuous
100
AcDbTrace
 10
3.582235015570049
 20
5.136085867830157
 30
0.0
 11
3.589434272327176
 21
5.131796041935306
 31
0.0
 12
3.603334987783891
 22
5.136076893228477
 32
0.0
 13
3.603334987783891
 23
5.136076893228477
 33
0.0
  0
SOLID
  5
FFE
330
10C5
100
AcDbEntity
  8
0
  6
Continuous
100
AcDbTrace
 10
3.574706096910137
 20
5.139766531883774
 30
0.0
 11
3.582235015570049
 21
5.136085867830157
 31
0.0
 12
3.603334987783891
 22
5.136076893228477
 32
0.0
 13
3.603334987783891
 23
5.136076893228477
 33
0.0
  0
SOLID
  5
FFF
330
10C5
100
AcDbEntity
  8
0
  6
Continuous
100
AcDbTrace
 10
3.592137341776225
 20
5.13978738901878
 30
0.0
 11
3.574706096910137
 21
5.139766531883774
 31
0.0
 12
3.603334987783891
 22
5.136076893228477
 32
0.0
 13
3.603334987783891
 23
5.136076893228477
 33
0.0
  0
SOLID
  5
1000
330
10C5
100
AcDbEntity
  8
0
  6
Continuous
100
AcDbTrace
 10
3.566898946496108
 20
5.142812891428525
 30
0.0
 11
3.574706096910137
 21
5.139766531883774
 31
0.0
 12
3.592137341776225
 22
5.13978738901878
 32
0.0
 13
3.592137341776225
 23
5.13978738901878
 33
0.0
  0
SOLID
  5
1001
330
10C5
100
AcDbEntity
  8
0
  6
Continuous
100
AcDbTrace
 10
3.580742894270437
 20
5.142840522026155
 30
0.0
 11
3.566898946496108
 21
5.142812891428525
 31
0.0
 12
3.592137341776225
 22
5.13978738901878
 32
0.0
 13
3.592137341776225
 23
5.13978738901878
 33
0.0
  0
SOLID
  5
1002
330
10C5
100
AcDbEntity
  8
0
  6
Continuous
100
AcDbTrace
 10
3.558866895081638
 20
5.145204136739752
 30
0.0
 11
3.566898946496108
 21
5.142812891428525
 31
0.0
 12
3.580742894270437
 22
5.142840522026155
 32
0.0
 13
3.580742894270437
 23
5.142840522026155
 33
0.0
  0
SOLID
  5
1003
330
10C5
100
AcDbEntity
  8
0
  6
Continuous
100
AcDbTrace
 10
3.569190200470061
 20
5.145225961414951
 30
0.0
 11
3.558866895081638
 21
5.145204136739752
 31
0.0
 12
3.580742894270437
 22
5.142840522026155
 32
0.0
 13
3.580742894270437
 23
5.142840522026155
 33
0.0
  0
SOLID
  5
1004
330
10C5
100
AcDbEntity
  8
0
  6
Continuous
100
AcDbTrace
 10
3.550664809722279
 20
5.146923933187289
 30
0.0
 11
3.558866895081638
 21
5.145204136739752
 31
0.0
 12
3.569190200470061
 22
5.145225961414951
 32
0.0
 13
3.569190200470061
 23
5.145225961414951
 33
0.0
  0
SOLID
  5
1005
330
10C5
100
AcDbEntity
  8
0
  6
Continuous
100
AcDbTrace
 10
3.557518351033997
 20
5.146935635613369
 30
0.0
 11
3.550664809722279
 21
5.146923933187289
 31
0.0
 12
3.569190200470061
 22
5.145225961414951
 32
0.0
 13
3.569190200470061
 23
5.145225961414951
 33
0.0
  0
SOLID
  5
1006
330
10C5
100
AcDbEntity
  8
0
  6
Continuous
100
AcDbTrace
 10
3.542348718977842
 20
5.147960532817548
 30
0.0
 11
3.550664809722279
 21
5.146923933187289
 31
0.0
 12
3.557518351033997
 22
5.146935635613369
 32
0.0
 13
3.557518351033997
 23
5.146935635613369
 33
0.0
  0
SOLID
  5
1007
330
10C5
100
AcDbEntity
  8
0
  6
Continuous
100
AcDbTrace
 10
3.545766839806102
 20
5.147963759625108
 30
0.0
 11
3.542348718977842
 21
5.147960532817548
 31
0.0
 12
3.557518351033997
 22
5.146935635613369
 32
0.0
 13
3.557518351033997
 23
5.146935635613369
 33
0.0
  0
SOLID
  5
1008
330
10C5
100
AcDbEntity
  8
0
  6
Continuous
100
AcDbTrace
 10
3.533975430180516
 20
5.148306854603958
 30
0.0
 11
3.542348718977842
 21
5.147960532817548
 31
0.0
 12
3.545766839806102
 22
5.147963759625108
 32
0.0
 13
3.545766839806102
 23
5.147963759625108
 33
0.0
  0
ENDBLK
  5
100A
330
10C5
100
AcDbEntity
  8
0
100
AcDbBlockEnd
  0
BLOCK
  5
11A1
330
1195
100
AcDbEntity
  8
0
100
AcDbBlockBegin
  2
titleblock
 70
     2
 10
0.0
 20
0.0
 30
0.0
  3
titleblock
  1

  0
LWPOLYLINE
  5
1196
330
1195
100
AcDbEntity
  8
0
100
AcDbPolyline
 90
        4
 70
     1
 43
0.0
 10
0.0
 20
0.0
 10
10.33458742478744
 20
0.0000000000000002
 10
10.33458742478744
 20
10.44
 10
0.0
 20
10.44
  0
ATTDEF
  5
1197
330
1195
100
AcDbEntity
  8
title
100
AcDbText
 10
0.5055556038023421
 20
0.7842270964783673
 30
0.0
 40
0.2
  1
D
  7
L200
 72
     4
 11
0.6064423705144839
 21
0.8842270964783672
 31
0.0
100
AcDbAttributeDefinition
  3
#
  2
D
 70
     0
  0
ATTDEF
  5
1198
330
1195
100
AcDbEntity
  8
title
100
AcDbText
 10
1.231442370514484
 20
1.34371230274675
 30
0.0
 40
0.2
  1

  7
L200
100
AcDbAttributeDefinition
  3
DETAIL TITLE TOP LINE
  2
TITLE1
 70
     0
  0
ATTDEF
  5
1199
330
1195
100
AcDbEntity
  8
title
100
AcDbText
 10
1.231442370514484
 20
0.9842270964783674
 30
0.0
 40
0.2
  1
TITLE
  7
L200
100
AcDbAttributeDefinition
  3
DETAIL TITLE TOP 2ND LINE
  2
TITLE2
 70
     0
  0
ATTDEF
  5
119A
330
1195
100
AcDbEntity
  8
title
100
AcDbText
 10
2.713645751168312
 20
0.5927927664583189
 30
0.0
 40
0.2
  1
TITLE2
  7
L200
100
AcDbAttributeDefinition
  3
DETAIL TITLE BOTTOM 1
  2
TITLE3
 70
     0
  0
ATTDEF
  5
119B
330
1195
100
AcDbEntity
  8
title
100
AcDbText
 10
2.713645751168312
 20
0.2692560808167741
 30
0.0
 40
0.2
  1

  7
L200
100
AcDbAttributeDefinition
  3
DETAIL TITLE BOTTOM 2
  2
TITLE4
 70
     0
  0
ATTDEF
  5
119C
330
1195
100
AcDbEntity
  8
title
 62
     7
100
AcDbText
 10
8.177214829966379
 20
0.9696027915446398
 30
0.0
 40
0.08
  1
-
  7
L80
 72
     2
 11
8.261024353775903
 21
0.9696027915446398
 31
0.0
100
AcDbAttributeDefinition
  3
REVISION DATE
  2
REVISED
 70
     0
  0
ATTDEF
  5
119D
330
1195
100
AcDbEntity
  8
title
 62
     7
100
AcDbText
 10
0.2639423705144838
 20
0.0847116480207213
 30
0.0
 40
0.08
  1
-
  7
L80
100
AcDbAttributeDefinition
  3
DWG-NAME
  2
DWG-NAME
 70
     0
  0
LWPOLYLINE
  5
119E
330
1195
100
AcDbEntity
  8
title
 62
     3
100
AcDbPolyline
 90
        2
 70
     1
 43
0.03
 10
0.6064423705144839
 20
0.5417270964783675
 42
0.9999999999999998
 10
0.6064423705144839
 20
1.226727096478367
 42
0.9999999999999998
  0
ATTDEF
  5
119F
330
1195
100
AcDbEntity
  8
title
 62
     7
100
AcDbText
 10
1.231442370514484
 20
0.7005637793954894
 30
0.0
 40
0.1
  1
N.T.S.
  7
L100
100
AcDbAttributeDefinition
  3
SCALE
  2
SCALE
 70
     0
  0
LWPOLYLINE
  5
11A0
330
1195
100
AcDbEntity
  8
title
 62
     3
100
AcDbPolyline
 90
        2
 70
     0
 43
0.04
 39
0.03
 10
0.9489423705144833
 20
0.8842270964783672
 10
8.261024353775903
 20
0.8842270964783672
  0
ENDBLK
  5
11A2
330
1195
100
AcDbEntity
  8
0
100
AcDbBlockEnd
  0
ENDSEC
  0
SECTION
  2
ENTITIES
  0
LWPOLYLINE
  5
433
330
10C1
100
AcDbEntity
  8
image
100
AcDbPolyline
 90
        2
 70
     0
 43
0.0
 10
2.337668676074201
 20
2.877843623877035
 10
2.404141058914288
 20
2.839461269326443
  0
LWPOLYLINE
  5
9B0
330
10C1
100
AcDbEntity
  8
image
100
AcDbPolyline
 90
        4
 70
     1
 43
0.0
 10
3.168923194485563
 20
6.393434983149141
 10
3.319490630930837
 20
6.393434983149141
 10
3.319490630930837
 20
6.052852553108725
 10
3.168923194485563
 20
6.052852553108725
  0
LWPOLYLINE
  5
9B4
330
10C1
100
AcDbEntity
  8
image
100
AcDbPolyline
 90
        2
 70
     0
 43
0.0
 10
3.334846398180119
 20
6.261522742910989
 10
3.319490630930837
 20
6.261522742910989
  0
LWPOLYLINE
  5
9B5
330
10C1
100
AcDbEntity
  8
image
100
AcDbPolyline
 90
        2
 70
     0
 43
0.0
 10
3.334846398180119
 20
6.184764793346878
 10
3.319490630930837
 20
6.184764793346878
  0
ARC
  5
9B8
330
10C1
100
AcDbEntity
  8
image
100
AcDbCircle
 10
3.533975430180516
 20
6.223143768128934
 30
0.0
 40
0.2027937797141143
100
AcDbArc
 50
270.0
 51
90.0
  0
ARC
  5
9B9
330
10C1
100
AcDbEntity
  8
image
100
AcDbCircle
 10
3.533975430180516
 20
6.223143768128934
 30
0.0
 40
0.2027937797141145
100
AcDbArc
 50
90.0
 51
270.0
  0
LWPOLYLINE
  5
9BA
330
10C1
100
AcDbEntity
  8
image
100
AcDbPolyline
 90
        3
 70
     0
 43
0.0
 10
3.533975430180516
 20
6.425937547843048
 42
-1.0
 10
3.533975430180516
 20
6.223143768128934
 42
0.9999999999999998
 10
3.533975430180516
 20
6.02034998841482
 42
0.9999999999999998
  0
INSERT
  5
9BB
330
10C1
100
AcDbEntity
  8
image
  6
Continuous
100
AcDbBlockReference
  2
*U0
 10
0.0
 20
1.27763069323909
 30
0.0
1001
ACAD
1002
{
1000
R14_HATCH_DATA
1000
9BB
1011
1.0
1021
1.27763069323909
1031
0.0
1011
0.0
1021
2.27763069323909
1031
0.0
1011
0.0
1021
1.27763069323909
1031
1.0
1040
0.0
1010
0.0
1020
0.0
1030
1.0
1000
SOLID
1070
     1
1070
     0
1071
        1
1071
        1
1071
        3
1070
     2
1040
3.533975430180516
1040
4.945513074889841
1040
0.2027937797141143
1040
4.712388980384689
1040
7.853981633974482
1070
     1
1070
     2
1040
3.533975430180516
1040
5.0469099647469
1040
0.1013968898570573
1040
4.712388980384689
1040
7.853981633974482
1070
     0
1070
     2
1040
3.533975430180516
1040
4.844116185032785
1040
0.1013968898570573
1040
1.570796326794896
1040
4.712388980384689
1070
     1
1071
        0
1070
     0
1070
     1
1071
        1
1040
0.6842136253258577
1040
1.521370937345172
1040
0.0
1002
}
  0
LWPOLYLINE
  5
9BC
330
10C1
100
AcDbEntity
  8
image
100
AcDbPolyline
 90
        2
 70
     0
 43
0.0
 10
2.34799891771966
 20
6.487212668917094
 10
3.814352274246395
 20
6.487212668917094
  0
LWPOLYLINE
  5
9BD
330
10C1
100
AcDbEntity
  8
image
100
AcDbPolyline
 90
        2
 70
     0
 43
0.0
 10
1.749674538734558
 20
6.487212668917093
 10
0.7751655625014139
 20
6.487212668917093
  0
ARC
  5
A34
330
10C1
100
AcDbEntity
  8
image
100
AcDbCircle
 10
1.558780132813375
 20
6.781184221654639
 30
0.0
 40
0.1065815326392652
100
AcDbArc
 50
116.0563205359582
 51
205.254994024374
  0
ARC
  5
A35
330
10C1
100
AcDbEntity
  8
image
100
AcDbCircle
 10
1.415569469940394
 20
6.831460343184327
 30
0.0
 40
0.1065815326392652
100
AcDbArc
 50
296.0563205359582
 51
25.2549940243739
  0
ARC
  5
A36
330
10C1
100
AcDbEntity
  8
image
100
AcDbCircle
 10
1.098550957652382
 20
6.741380649850117
 30
0.0
 40
0.1065815326392652
100
AcDbArc
 50
116.0563205359582
 51
205.254994024374
  0
ARC
  5
A37
330
10C1
100
AcDbEntity
  8
image
100
AcDbCircle
 10
0.9553402947794014
 20
6.791656771379805
 30
0.0
 40
0.1065815326392652
100
AcDbArc
 50
296.0563205359582
 51
25.2549940243739
  0
ARC
  5
A38
330
10C1
100
AcDbEntity
  8
image
100
AcDbCircle
 10
1.160744089430895
 20
7.03990743838403
 30
0.0
 40
0.1065815326392652
100
AcDbArc
 50
116.0563205359582
 51
205.254994024374
  0
ARC
  5
A39
330
10C1
100
AcDbEntity
  8
image
100
AcDbCircle
 10
1.017533426557914
 20
7.09018355991372
 30
0.0
 40
0.1065815326392652
100
AcDbArc
 50
296.0563205359582
 51
25.2549940243739
  0
ARC
  5
A3A
330
10C1
100
AcDbEntity
  8
image
100
AcDbCircle
 10
1.170694990515457
 20
7.146879537608683
 30
0.0
 40
0.1065815326392652
100
AcDbArc
 50
116.0563205359582
 51
205.254994024374
  0
ARC
  5
A3B
330
10C1
100
AcDbEntity
  8
image
100
AcDbCircle
 10
1.027484327642475
 20
7.19715565913837
 30
0.0
 40
0.1065815326392652
100
AcDbArc
 50
296.0563205359582
 51
25.2549940243739
  0
ARC
  5
A3C
330
10C1
100
AcDbEntity
  8
image
100
AcDbCircle
 10
1.28264262771678
 20
7.02000565248177
 30
0.0
 40
0.1065815326392652
100
AcDbArc
 50
116.0563205359582
 51
205.254994024374
  0
ARC
  5
A3D
330
10C1
100
AcDbEntity
  8
image
100
AcDbCircle
 10
1.139431964843798
 20
7.070281774011458
 30
0.0
 40
0.1065815326392652
100
AcDbArc
 50
296.0563205359582
 51
25.2549940243739
  0
ARC
  5
A3E
330
10C1
100
AcDbEntity
  8
image
100
AcDbCircle
 10
1.464246572510037
 20
7.01005475953064
 30
0.0
 40
0.1065815326392652
100
AcDbArc
 50
116.0563205359582
 51
205.254994024374
  0
ARC
  5
A3F
330
10C1
100
AcDbEntity
  8
image
100
AcDbCircle
 10
1.321035909637055
 20
7.060330881060329
 30
0.0
 40
0.1065815326392652
100
AcDbArc
 50
296.0563205359582
 51
25.2549940243739
  0
ARC
  5
A40
330
10C1
100
AcDbEntity
  8
image
100
AcDbCircle
 10
1.42444296817179
 20
6.87820542792816
 30
0.0
 40
0.1065815326392652
100
AcDbArc
 50
116.0563205359582
 51
205.254994024374
  0
ARC
  5
A41
330
10C1
100
AcDbEntity
  8
image
100
AcDbCircle
 10
1.281232305298807
 20
6.92848154945785
 30
0.0
 40
0.1065815326392652
100
AcDbArc
 50
296.0563205359582
 51
25.2549940243739
  0
ARC
  5
A42
330
10C1
100
AcDbEntity
  8
image
100
AcDbCircle
 10
1.643362792032154
 20
6.733917480136769
 30
0.0
 40
0.1065815326392652
100
AcDbArc
 50
116.0563205359582
 51
205.254994024374
  0
ARC
  5
A43
330
10C1
100
AcDbEntity
  8
image
100
AcDbCircle
 10
1.500152129159171
 20
6.784193601666458
 30
0.0
 40
0.1065815326392652
100
AcDbArc
 50
296.0563205359582
 51
25.2549940243739
  0
ARC
  5
A44
330
10C1
100
AcDbEntity
  8
image
100
AcDbCircle
 10
1.133379111448349
 20
6.890644044117073
 30
0.0
 40
0.1065815326392652
100
AcDbArc
 50
116.0563205359582
 51
205.254994024374
  0
ARC
  5
A45
330
10C1
100
AcDbEntity
  8
image
100
AcDbCircle
 10
0.9901684485753674
 20
6.940920165646762
 30
0.0
 40
0.1065815326392652
100
AcDbArc
 50
296.0563205359582
 51
25.2549940243739
  0
ARC
  5
A46
330
10C1
100
AcDbEntity
  8
image
100
AcDbCircle
 10
1.359762111122135
 20
6.66923667595442
 30
0.0
 40
0.1065815326392652
100
AcDbArc
 50
116.0563205359582
 51
205.254994024374
  0
ARC
  5
A47
330
10C1
100
AcDbEntity
  8
image
100
AcDbCircle
 10
1.216551448249153
 20
6.719512797484111
 30
0.0
 40
0.1065815326392652
100
AcDbArc
 50
296.0563205359582
 51
25.2549940243739
  0
ARC
  5
A48
330
10C1
100
AcDbEntity
  8
image
100
AcDbCircle
 10
1.374688462748979
 20
6.564752299967552
 30
0.0
 40
0.1065815326392652
100
AcDbArc
 50
116.0563205359582
 51
205.254994024374
  0
ARC
  5
A49
330
10C1
100
AcDbEntity
  8
image
100
AcDbCircle
 10
1.231477799875997
 20
6.61502842149724
 30
0.0
 40
0.1065815326392652
100
AcDbArc
 50
296.0563205359582
 51
25.2549940243739
  0
ARC
  5
A4A
330
10C1
100
AcDbEntity
  8
image
100
AcDbCircle
 10
1.489123825221442
 20
6.674212122429985
 30
0.0
 40
0.1065815326392652
100
AcDbArc
 50
116.0563205359582
 51
205.254994024374
  0
ARC
  5
A4B
330
10C1
100
AcDbEntity
  8
image
100
AcDbCircle
 10
1.34591316234846
 20
6.724488243959675
 30
0.0
 40
0.1065815326392652
100
AcDbArc
 50
296.0563205359582
 51
25.2549940243739
  0
ARC
  5
A4C
330
10C1
100
AcDbEntity
  8
image
100
AcDbCircle
 10
1.669227861068149
 20
6.5818940733154
 30
0.0
 40
0.1065815326392652
100
AcDbArc
 50
143.5307656099477
 51
232.7294390983635
  0
ARC
  5
A4D
330
10C1
100
AcDbEntity
  8
image
100
AcDbCircle
 10
1.51897393363377
 20
6.560429226539061
 30
0.0
 40
0.1065815326392652
100
AcDbArc
 50
323.5307656099477
 51
52.72943909836342
  0
ARC
  5
A4E
330
10C1
100
AcDbEntity
  8
image
100
AcDbCircle
 10
1.339950912884732
 20
7.156632019235547
 30
0.0
 40
0.1065815326392652
100
AcDbArc
 50
143.5307656099477
 51
232.7294390983635
  0
ARC
  5
A4F
330
10C1
100
AcDbEntity
  8
image
100
AcDbCircle
 10
1.189696985450354
 20
7.135167172459208
 30
0.0
 40
0.1065815326392652
100
AcDbArc
 50
323.5307656099477
 51
52.72943909836342
  0
ARC
  5
A52
330
10C1
100
AcDbEntity
  8
image
100
AcDbCircle
 10
1.208240133611363
 20
6.941105289515491
 30
0.0
 40
0.1065815326392652
100
AcDbArc
 50
143.5307656099477
 51
232.7294390983635
  0
ARC
  5
A53
330
10C1
100
AcDbEntity
  8
image
100
AcDbCircle
 10
1.057986206176987
 20
6.919640442739153
 30
0.0
 40
0.1065815326392652
100
AcDbArc
 50
323.5307656099477
 51
52.72943909836342
  0
ARC
  5
A54
330
10C1
100
AcDbEntity
  8
image
100
AcDbCircle
 10
1.148371597578016
 20
6.671696877365423
 30
0.0
 40
0.1065815326392652
100
AcDbArc
 50
143.5307656099477
 51
232.7294390983635
  0
ARC
  5
A55
330
10C1
100
AcDbEntity
  8
image
100
AcDbCircle
 10
0.9981176701436382
 20
6.650232030589084
 30
0.0
 40
0.1065815326392652
100
AcDbArc
 50
323.5307656099477
 51
52.72943909836342
  0
ARC
  5
A56
330
10C1
100
AcDbEntity
  8
image
100
AcDbCircle
 10
1.118437329561341
 20
6.587880926918734
 30
0.0
 40
0.1065815326392652
100
AcDbArc
 50
143.5307656099477
 51
232.7294390983635
  0
ARC
  5
A57
330
10C1
100
AcDbEntity
  8
image
100
AcDbCircle
 10
0.9681834021269645
 20
6.566416080142395
 30
0.0
 40
0.1065815326392652
100
AcDbArc
 50
323.5307656099477
 51
52.72943909836342
  0
ARC
  5
A58
330
10C1
100
AcDbEntity
  8
image
100
AcDbCircle
 10
1.220213840818035
 20
6.575907219712065
 30
0.0
 40
0.1065815326392652
100
AcDbArc
 50
143.5307656099477
 51
232.7294390983635
  0
ARC
  5
A59
330
10C1
100
AcDbEntity
  8
image
100
AcDbCircle
 10
1.069959913383658
 20
6.554442372935727
 30
0.0
 40
0.1065815326392652
100
AcDbArc
 50
323.5307656099477
 51
52.72943909836342
  0
ARC
  5
A5A
330
10C1
100
AcDbEntity
  8
image
100
AcDbCircle
 10
1.274095523248048
 20
6.815381363845459
 30
0.0
 40
0.1065815326392652
100
AcDbArc
 50
143.5307656099477
 51
232.7294390983635
  0
ARC
  5
A5B
330
10C1
100
AcDbEntity
  8
image
100
AcDbCircle
 10
1.12384159581367
 20
6.79391651706912
 30
0.0
 40
0.1065815326392652
100
AcDbArc
 50
323.5307656099477
 51
52.72943909836342
  0
ARC
  5
A5C
330
10C1
100
AcDbEntity
  8
image
100
AcDbCircle
 10
1.369885180901406
 20
6.899197314292147
 30
0.0
 40
0.1065815326392652
100
AcDbArc
 50
143.5307656099477
 51
232.7294390983635
  0
ARC
  5
A5D
330
10C1
100
AcDbEntity
  8
image
100
AcDbCircle
 10
1.219631253467028
 20
6.87773246751581
 30
0.0
 40
0.1065815326392652
100
AcDbArc
 50
323.5307656099477
 51
52.72943909836342
  0
ARC
  5
A5E
330
10C1
100
AcDbEntity
  8
image
100
AcDbCircle
 10
1.58541191062146
 20
6.989000118342171
 30
0.0
 40
0.1065815326392652
100
AcDbArc
 50
143.5307656099477
 51
232.7294390983635
  0
ARC
  5
A5F
330
10C1
100
AcDbEntity
  8
image
100
AcDbCircle
 10
1.435157983187083
 20
6.96753527156583
 30
0.0
 40
0.1065815326392652
100
AcDbArc
 50
323.5307656099477
 51
52.72943909836342
  0
ARC
  5
A60
330
10C1
100
AcDbEntity
  8
image
100
AcDbCircle
 10
1.555477642604787
 20
6.929131582308822
 30
0.0
 40
0.1065815326392652
100
AcDbArc
 50
143.5307656099477
 51
232.7294390983635
  0
ARC
  5
A61
330
10C1
100
AcDbEntity
  8
image
100
AcDbCircle
 10
1.405223715170408
 20
6.907666735532483
 30
0.0
 40
0.1065815326392652
100
AcDbArc
 50
323.5307656099477
 51
52.72943909836342
  0
ARC
  5
A62
330
10C1
100
AcDbEntity
  8
image
100
AcDbCircle
 10
1.507582813778107
 20
6.821368217448795
 30
0.0
 40
0.1065815326392652
100
AcDbArc
 50
143.5307656099477
 51
232.7294390983635
  0
ARC
  5
A63
330
10C1
100
AcDbEntity
  8
image
100
AcDbCircle
 10
1.35732888634373
 20
6.799903370672455
 30
0.0
 40
0.1065815326392652
100
AcDbArc
 50
323.5307656099477
 51
52.72943909836342
  0
ARC
  5
A64
330
10C1
100
AcDbEntity
  8
image
100
AcDbCircle
 10
1.423766863331419
 20
6.671696877365423
 30
0.0
 40
0.1065815326392652
100
AcDbArc
 50
143.5307656099477
 51
232.7294390983635
  0
ARC
  5
A65
330
10C1
100
AcDbEntity
  8
image
100
AcDbCircle
 10
1.273512935897042
 20
6.650232030589084
 30
0.0
 40
0.1065815326392652
100
AcDbArc
 50
323.5307656099477
 51
52.72943909836342
  0
ARC
  5
A66
330
10C1
100
AcDbEntity
  8
image
100
AcDbCircle
 10
1.298042937661387
 20
6.575907219712065
 30
0.0
 40
0.1065815326392652
100
AcDbArc
 50
143.5307656099477
 51
232.7294390983635
  0
ARC
  5
A67
330
10C1
100
AcDbEntity
  8
image
100
AcDbCircle
 10
1.14778901022701
 20
6.554442372935727
 30
0.0
 40
0.1065815326392652
100
AcDbArc
 50
323.5307656099477
 51
52.72943909836342
  0
ARC
  5
A68
330
10C1
100
AcDbEntity
  8
image
100
AcDbCircle
 10
1.495609106571437
 20
6.563933512505395
 30
0.0
 40
0.1065815326392652
100
AcDbArc
 50
143.5307656099477
 51
232.7294390983635
  0
ARC
  5
A69
330
10C1
100
AcDbEntity
  8
image
100
AcDbCircle
 10
1.34535517913706
 20
6.542468665729057
 30
0.0
 40
0.1065815326392652
100
AcDbArc
 50
323.5307656099477
 51
52.72943909836342
  0
ARC
  5
A6A
330
10C1
100
AcDbEntity
  8
image
100
AcDbCircle
 10
1.603372471431464
 20
6.599854634125406
 30
0.0
 40
0.1065815326392652
100
AcDbArc
 50
143.5307656099477
 51
232.7294390983635
  0
ARC
  5
A6B
330
10C1
100
AcDbEntity
  8
image
100
AcDbCircle
 10
1.453118543997088
 20
6.578389787349065
 30
0.0
 40
0.1065815326392652
100
AcDbArc
 50
323.5307656099477
 51
52.72943909836342
  0
ARC
  5
A6C
330
10C1
100
AcDbEntity
  8
image
100
AcDbCircle
 10
1.699162129084822
 20
6.815381363845459
 30
0.0
 40
0.1065815326392652
100
AcDbArc
 50
143.5307656099477
 51
232.7294390983635
  0
ARC
  5
A6D
330
10C1
100
AcDbEntity
  8
image
100
AcDbCircle
 10
1.548908201650446
 20
6.79391651706912
 30
0.0
 40
0.1065815326392652
100
AcDbArc
 50
323.5307656099477
 51
52.72943909836342
  0
ARC
  5
A70
330
10C1
100
AcDbEntity
  8
image
100
AcDbCircle
 10
1.43574057053809
 20
7.144658312028878
 30
0.0
 40
0.1065815326392652
100
AcDbArc
 50
143.5307656099477
 51
232.7294390983635
  0
ARC
  5
A71
330
10C1
100
AcDbEntity
  8
image
100
AcDbCircle
 10
1.285486643103711
 20
7.123193465252538
 30
0.0
 40
0.1065815326392652
100
AcDbArc
 50
323.5307656099477
 51
52.72943909836342
  0
ARC
  5
A72
330
10C1
100
AcDbEntity
  8
image
100
AcDbCircle
 10
1.519556520984778
 20
7.006960679152174
 30
0.0
 40
0.1065815326392652
100
AcDbArc
 50
143.5307656099477
 51
232.7294390983635
  0
ARC
  5
A73
330
10C1
100
AcDbEntity
  8
image
100
AcDbCircle
 10
1.3693025935504
 20
6.985495832375836
 30
0.0
 40
0.1065815326392652
100
AcDbArc
 50
323.5307656099477
 51
52.72943909836342
  0
ARC
  5
A74
330
10C1
100
AcDbEntity
  8
image
100
AcDbCircle
 10
1.208240133611363
 20
7.066829215185524
 30
0.0
 40
0.1065815326392652
100
AcDbArc
 50
143.5307656099477
 51
232.7294390983635
  0
ARC
  5
A75
330
10C1
100
AcDbEntity
  8
image
100
AcDbCircle
 10
1.057986206176987
 20
7.045364368409184
 30
0.0
 40
0.1065815326392652
100
AcDbArc
 50
323.5307656099477
 51
52.72943909836342
  0
ARC
  5
A76
330
10C1
100
AcDbEntity
  8
image
100
AcDbCircle
 10
1.694605913566499
 20
6.706570128091154
 30
0.0
 40
0.1065815326392652
100
AcDbArc
 50
159.7199718669748
 51
248.9186453553905
  0
ARC
  5
A77
330
10C1
100
AcDbEntity
  8
image
100
AcDbCircle
 10
1.556294739412419
 20
6.644064116694599
 30
0.0
 40
0.1065815326392652
100
AcDbArc
 50
339.7199718669747
 51
68.91864535539045
  0
ARC
  5
A78
330
10C1
100
AcDbEntity
  8
image
100
AcDbCircle
 10
1.592829402309808
 20
6.862228321777861
 30
0.0
 40
0.1065815326392652
100
AcDbArc
 50
159.7199718669748
 51
248.9186453553905
  0
ARC
  5
A79
330
10C1
100
AcDbEntity
  8
image
100
AcDbCircle
 10
1.454518228155727
 20
6.799722310381304
 30
0.0
 40
0.1065815326392652
100
AcDbArc
 50
339.7199718669747
 51
68.91864535539045
  0
ARC
  5
A7A
330
10C1
100
AcDbEntity
  8
image
100
AcDbCircle
 10
1.347368404573078
 20
6.826307200157851
 30
0.0
 40
0.1065815326392652
100
AcDbArc
 50
159.7199718669748
 51
248.9186453553905
  0
ARC
  5
A7B
330
10C1
100
AcDbEntity
  8
image
100
AcDbCircle
 10
1.209057230418997
 20
6.763801188761295
 30
0.0
 40
0.1065815326392652
100
AcDbArc
 50
339.7199718669747
 51
68.91864535539045
  0
ARC
  5
A7C
330
10C1
100
AcDbEntity
  8
image
100
AcDbCircle
 10
1.305460429349734
 20
6.724530688901158
 30
0.0
 40
0.1065815326392652
100
AcDbArc
 50
159.7199718669748
 51
248.9186453553905
  0
ARC
  5
A7D
330
10C1
100
AcDbEntity
  8
image
100
AcDbCircle
 10
1.167149255195653
 20
6.662024677504603
 30
0.0
 40
0.1065815326392652
100
AcDbArc
 50
339.7199718669747
 51
68.91864535539045
  0
ARC
  5
A7E
330
10C1
100
AcDbEntity
  8
image
100
AcDbCircle
 10
1.183960816904646
 20
6.806934748827134
 30
0.0
 40
0.1065815326392652
100
AcDbArc
 50
159.7199718669748
 51
248.9186453553905
  0
ARC
  5
A7F
330
10C1
100
AcDbEntity
  8
image
100
AcDbCircle
 10
1.045649642750565
 20
6.744428737430578
 30
0.0
 40
0.1065815326392652
100
AcDbArc
 50
339.7199718669747
 51
68.91864535539045
  0
ARC
  5
A80
330
10C1
100
AcDbEntity
  8
image
100
AcDbCircle
 10
1.347368404573078
 20
7.005912808257896
 30
0.0
 40
0.1065815326392652
100
AcDbArc
 50
159.7199718669748
 51
248.9186453553905
  0
ARC
  5
A81
330
10C1
100
AcDbEntity
  8
image
100
AcDbCircle
 10
1.209057230418997
 20
6.94340679686134
 30
0.0
 40
0.1065815326392652
100
AcDbArc
 50
339.7199718669747
 51
68.91864535539045
  0
ARC
  5
A82
330
10C1
100
AcDbEntity
  8
image
100
AcDbCircle
 10
1.544934573483129
 20
7.143610441134598
 30
0.0
 40
0.1065815326392652
100
AcDbArc
 50
159.7199718669748
 51
248.9186453553905
  0
ARC
  5
A83
330
10C1
100
AcDbEntity
  8
image
100
AcDbCircle
 10
1.406623399329047
 20
7.081104429738044
 30
0.0
 40
0.1065815326392652
100
AcDbArc
 50
339.7199718669747
 51
68.91864535539045
  0
ARC
  5
A84
330
10C1
100
AcDbEntity
  8
image
100
AcDbCircle
 10
1.455131769433106
 20
6.969991686637888
 30
0.0
 40
0.1065815326392652
100
AcDbArc
 50
159.7199718669748
 51
248.9186453553905
  0
ARC
  5
A85
330
10C1
100
AcDbEntity
  8
image
100
AcDbCircle
 10
1.316820595279026
 20
6.907485675241332
 30
0.0
 40
0.1065815326392652
100
AcDbArc
 50
339.7199718669747
 51
68.91864535539045
  0
ARC
  5
A88
330
10C1
100
AcDbEntity
  8
image
100
AcDbCircle
 10
1.544934573483129
 20
6.682622713677813
 30
0.0
 40
0.1065815326392652
100
AcDbArc
 50
159.7199718669748
 51
248.9186453553905
  0
ARC
  5
A89
330
10C1
100
AcDbEntity
  8
image
100
AcDbCircle
 10
1.406623399329047
 20
6.62011670228126
 30
0.0
 40
0.1065815326392652
100
AcDbArc
 50
339.7199718669747
 51
68.91864535539045
  0
ARC
  5
A8A
330
10C1
100
AcDbEntity
  8
image
100
AcDbCircle
 10
1.580855695103138
 20
6.730517542504493
 30
0.0
 40
0.1065815326392652
100
AcDbArc
 50
159.7199718669748
 51
248.9186453553905
  0
ARC
  5
A8B
330
10C1
100
AcDbEntity
  8
image
100
AcDbCircle
 10
1.442544520949057
 20
6.668011531107938
 30
0.0
 40
0.1065815326392652
100
AcDbArc
 50
339.7199718669747
 51
68.91864535539045
  0
ARC
  5
A8C
330
10C1
100
AcDbEntity
  8
image
100
AcDbCircle
 10
1.281513014936395
 20
7.155584148341268
 30
0.0
 40
0.1065815326392652
100
AcDbArc
 50
159.7199718669748
 51
248.9186453553905
  0
ARC
  5
A8D
330
10C1
100
AcDbEntity
  8
image
100
AcDbCircle
 10
1.143201840782314
 20
7.093078136944713
 30
0.0
 40
0.1065815326392652
100
AcDbArc
 50
339.7199718669747
 51
68.91864535539045
  0
ARC
  5
A8E
330
10C1
100
AcDbEntity
  8
image
100
AcDbCircle
 10
1.269539307729725
 20
6.964004833034553
 30
0.0
 40
0.1065815326392652
100
AcDbArc
 50
159.7199718669748
 51
248.9186453553905
  0
ARC
  5
A8F
330
10C1
100
AcDbEntity
  8
image
100
AcDbCircle
 10
1.131228133575645
 20
6.901498821637997
 30
0.0
 40
0.1065815326392652
100
AcDbArc
 50
339.7199718669747
 51
68.91864535539045
  0
ARC
  5
A90
330
10C1
100
AcDbEntity
  8
image
100
AcDbCircle
 10
1.310998804765627
 20
6.606838431249046
 30
0.0
 40
0.1065815326392652
100
AcDbArc
 50
278.5307656099479
 51
7.729439098363567
  0
ARC
  5
A91
330
10C1
100
AcDbEntity
  8
image
100
AcDbCircle
 10
1.432422314467067
 20
6.515770798972965
 30
0.0
 40
0.1065815326392652
100
AcDbArc
 50
98.53076560994791
 51
187.7294390983636
  0
ARC
  5
A92
330
10C1
100
AcDbEntity
  8
image
100
AcDbCircle
 10
1.077511514235568
 20
6.690654381695734
 30
0.0
 40
0.1065815326392652
100
AcDbArc
 50
278.5307656099479
 51
7.729439098363567
  0
ARC
  5
A93
330
10C1
100
AcDbEntity
  8
image
100
AcDbCircle
 10
1.198935023937008
 20
6.599586749419652
 30
0.0
 40
0.1065815326392652
100
AcDbArc
 50
98.53076560994791
 51
187.7294390983636
  0
ARC
  5
A94
330
10C1
100
AcDbEntity
  8
image
100
AcDbCircle
 10
0.9502228413169593
 20
7.039377514805851
 30
0.0
 40
0.1065815326392652
100
AcDbArc
 50
323.5307656099477
 51
52.72943909836342
  0
ARC
  5
A95
330
10C1
100
AcDbEntity
  8
image
100
AcDbCircle
 10
1.100476768751336
 20
7.060842361582189
 30
0.0
 40
0.1065815326392652
100
AcDbArc
 50
143.5307656099477
 51
232.7294390983635
  0
ARC
  5
A98
330
10C1
100
AcDbEntity
  8
image
100
AcDbCircle
 10
1.298860034469019
 20
6.757814335157962
 30
0.0
 40
0.1065815326392652
100
AcDbArc
 50
339.7199718669747
 51
68.91864535539045
  0
ARC
  5
A99
330
10C1
100
AcDbEntity
  8
image
100
AcDbCircle
 10
1.4371712086231
 20
6.820320346554516
 30
0.0
 40
0.1065815326392652
100
AcDbArc
 50
159.7199718669748
 51
248.9186453553905
  0
ARC
  5
A9A
330
10C1
100
AcDbEntity
  8
image
100
AcDbCircle
 10
1.239156561525609
 20
7.067826158705829
 30
0.0
 40
0.1065815326392652
100
AcDbArc
 50
278.5307656099479
 51
7.729439098363567
  0
ARC
  5
A9B
330
10C1
100
AcDbEntity
  8
image
100
AcDbCircle
 10
1.360580071227048
 20
6.97675852642975
 30
0.0
 40
0.1065815326392652
100
AcDbArc
 50
98.53076560994791
 51
187.7294390983636
  0
ARC
  5
B08
330
10C1
100
AcDbEntity
  8
image
100
AcDbCircle
 10
0.9731922626733172
 20
6.760863895574026
 30
0.0
 40
0.1065815326392652
100
AcDbArc
 50
116.0563205359582
 51
205.254994024374
  0
ARC
  5
B09
330
10C1
100
AcDbEntity
  8
image
100
AcDbCircle
 10
0.8299815998003349
 20
6.811140017103715
 30
0.0
 40
0.1065815326392652
100
AcDbArc
 50
296.0563205359582
 51
25.2549940243739
  0
ARC
  5
B0A
330
10C1
100
AcDbEntity
  8
image
100
AcDbCircle
 10
1.148736828268982
 20
6.834864609569368
 30
0.0
 40
0.1065815326392652
100
AcDbArc
 50
143.5307656099477
 51
232.7294390983635
  0
ARC
  5
B0B
330
10C1
100
AcDbEntity
  8
image
100
AcDbCircle
 10
0.9984829008346057
 20
6.81339976279303
 30
0.0
 40
0.1065815326392652
100
AcDbArc
 50
323.5307656099477
 51
52.72943909836342
  0
ARC
  5
B0C
330
10C1
100
AcDbEntity
  8
image
100
AcDbCircle
 10
1.05860212192558
 20
6.826417994551042
 30
0.0
 40
0.1065815326392652
100
AcDbArc
 50
159.7199718669748
 51
248.9186453553905
  0
ARC
  5
B0D
330
10C1
100
AcDbEntity
  8
image
100
AcDbCircle
 10
0.9202909477714998
 20
6.763911983154487
 30
0.0
 40
0.1065815326392652
100
AcDbArc
 50
339.7199718669747
 51
68.91864535539045
  0
ARC
  5
B0E
330
10C1
100
AcDbEntity
  8
image
100
AcDbCircle
 10
1.023012902598951
 20
6.691180123089332
 30
0.0
 40
0.1065815326392652
100
AcDbArc
 50
143.5307656099477
 51
232.7294390983635
  0
ARC
  5
B0F
330
10C1
100
AcDbEntity
  8
image
100
AcDbCircle
 10
0.9930786345822754
 20
6.607364172642642
 30
0.0
 40
0.1065815326392652
100
AcDbArc
 50
143.5307656099477
 51
232.7294390983635
  0
ARC
  5
B10
330
10C1
100
AcDbEntity
  8
image
100
AcDbCircle
 10
0.8428247071478994
 20
6.585899325866304
 30
0.0
 40
0.1065815326392652
100
AcDbArc
 50
323.5307656099477
 51
52.72943909836342
  0
ARC
  5
B11
330
10C1
100
AcDbEntity
  8
image
100
AcDbCircle
 10
1.094855145838968
 20
6.595390465435973
 30
0.0
 40
0.1065815326392652
100
AcDbArc
 50
143.5307656099477
 51
232.7294390983635
  0
ARC
  5
B12
330
10C1
100
AcDbEntity
  8
image
100
AcDbCircle
 10
0.9446012184045919
 20
6.573925618659635
 30
0.0
 40
0.1065815326392652
100
AcDbArc
 50
323.5307656099477
 51
52.72943909836342
  0
ARC
  5
B14
330
10C1
100
AcDbEntity
  8
image
100
AcDbCircle
 10
0.9521528192565025
 20
6.710137627419642
 30
0.0
 40
0.1065815326392652
100
AcDbArc
 50
278.5307656099479
 51
7.729439098363567
  0
ARC
  5
B15
330
10C1
100
AcDbEntity
  8
image
100
AcDbCircle
 10
0.872758975164573
 20
6.669715276312993
 30
0.0
 40
0.1065815326392652
100
AcDbArc
 50
323.5307656099477
 51
52.72943909836342
  0
ARC
  5
B16
330
10C1
100
AcDbEntity
  8
image
100
AcDbCircle
 10
1.073576328957941
 20
6.619069995143563
 30
0.0
 40
0.1065815326392652
100
AcDbArc
 50
98.53076560994791
 51
187.7294390983636
  0
ARC
  5
B17
330
10C1
100
AcDbEntity
  8
image
100
AcDbCircle
 10
1.008020416469283
 20
6.910127289840982
 30
0.0
 40
0.1065815326392652
100
AcDbArc
 50
116.0563205359582
 51
205.254994024374
  0
ARC
  5
B18
330
10C1
100
AcDbEntity
  8
image
100
AcDbCircle
 10
0.8648097535963021
 20
6.960403411370671
 30
0.0
 40
0.1065815326392652
100
AcDbArc
 50
296.0563205359582
 51
25.2549940243739
  0
ARC
  5
B19
330
10C1
100
AcDbEntity
  8
image
100
AcDbCircle
 10
0.9232676838471668
 20
6.908032631851196
 30
0.0
 40
0.1065815326392652
100
AcDbArc
 50
323.5307656099477
 51
52.72943909836342
  0
ARC
  5
B1A
330
10C1
100
AcDbEntity
  8
image
100
AcDbCircle
 10
1.073521611281543
 20
6.929497478627534
 30
0.0
 40
0.1065815326392652
100
AcDbArc
 50
143.5307656099477
 51
232.7294390983635
  0
ARC
  5
B1B
330
10C1
100
AcDbEntity
  8
image
100
AcDbCircle
 10
3.181124972990894
 20
6.769835675342018
 30
0.0
 40
0.1065815326392652
100
AcDbArc
 50
111.0813546446095
 51
200.2800281330253
  0
ARC
  5
B1C
330
10C1
100
AcDbEntity
  8
image
100
AcDbCircle
 10
3.042813798836814
 20
6.832341686738573
 30
0.0
 40
0.1065815326392652
100
AcDbArc
 50
291.0813546446095
 51
20.28002813302522
  0
ARC
  5
B1D
330
10C1
100
AcDbEntity
  8
image
100
AcDbCircle
 10
3.102933019927789
 20
6.819323454980559
 30
0.0
 40
0.1065815326392652
100
AcDbArc
 50
127.2705609016365
 51
216.4692343900523
  0
ARC
  5
B1E
330
10C1
100
AcDbEntity
  8
image
100
AcDbCircle
 10
2.95267909249341
 20
6.840788301756899
 30
0.0
 40
0.1065815326392652
100
AcDbArc
 50
307.2705609016365
 51
36.46923439005223
  0
ARC
  5
B1F
330
10C1
100
AcDbEntity
  8
image
100
AcDbCircle
 10
3.27143432096206
 20
6.817063709291246
 30
0.0
 40
0.1065815326392652
100
AcDbArc
 50
154.7450059756261
 51
243.9436794640418
  0
ARC
  5
B20
330
10C1
100
AcDbEntity
  8
image
100
AcDbCircle
 10
3.128223658089077
 20
6.766787587761556
 30
0.0
 40
0.1065815326392652
100
AcDbArc
 50
334.745005975626
 51
63.94367946404176
  0
ARC
  5
B21
330
10C1
100
AcDbEntity
  8
image
100
AcDbCircle
 10
2.542635787949019
 20
6.787107913842169
 30
0.0
 40
0.1065815326392652
100
AcDbArc
 50
334.745005975626
 51
63.94367946404176
  0
ARC
  5
B22
330
10C1
100
AcDbEntity
  8
image
100
AcDbCircle
 10
2.685846450822
 20
6.837384035371857
 30
0.0
 40
0.1065815326392652
100
AcDbArc
 50
154.7450059756261
 51
243.9436794640418
  0
ARC
  5
B23
330
10C1
100
AcDbEntity
  8
image
100
AcDbCircle
 10
3.002864963110012
 20
6.747304342037646
 30
0.0
 40
0.1065815326392652
100
AcDbArc
 50
334.745005975626
 51
63.94367946404176
  0
ARC
  5
B24
330
10C1
100
AcDbEntity
  8
image
100
AcDbCircle
 10
3.146075625982994
 20
6.797580463567336
 30
0.0
 40
0.1065815326392652
100
AcDbArc
 50
154.7450059756261
 51
243.9436794640418
  0
ARC
  5
B25
330
10C1
100
AcDbEntity
  8
image
100
AcDbCircle
 10
2.458053128730241
 20
6.739841172324299
 30
0.0
 40
0.1065815326392652
100
AcDbArc
 50
334.745005975626
 51
63.94367946404176
  0
ARC
  5
B26
330
10C1
100
AcDbEntity
  8
image
100
AcDbCircle
 10
2.601263791603222
 20
6.790117293853988
 30
0.0
 40
0.1065815326392652
100
AcDbArc
 50
154.7450059756261
 51
243.9436794640418
  0
ARC
  5
B27
330
10C1
100
AcDbEntity
  8
image
100
AcDbCircle
 10
2.827320397514347
 20
6.821305056032989
 30
0.0
 40
0.1065815326392652
100
AcDbArc
 50
307.2705609016365
 51
36.46923439005223
  0
ARC
  5
B28
330
10C1
100
AcDbEntity
  8
image
100
AcDbCircle
 10
2.977574324948723
 20
6.79984020925665
 30
0.0
 40
0.1065815326392652
100
AcDbArc
 50
127.2705609016365
 51
216.4692343900523
  0
ARC
  5
B29
330
10C1
100
AcDbEntity
  8
image
100
AcDbCircle
 10
2.731530739860989
 20
6.905121006479678
 30
0.0
 40
0.1065815326392652
100
AcDbArc
 50
307.2705609016365
 51
36.46923439005223
  0
ARC
  5
B2A
330
10C1
100
AcDbEntity
  8
image
100
AcDbCircle
 10
2.593833106984287
 20
6.827291909636325
 30
0.0
 40
0.1065815326392652
100
AcDbArc
 50
307.2705609016365
 51
36.46923439005223
  0
ARC
  5
B2B
330
10C1
100
AcDbEntity
  8
image
100
AcDbCircle
 10
2.744087034418664
 20
6.805827062859986
 30
0.0
 40
0.1065815326392652
100
AcDbArc
 50
127.2705609016365
 51
216.4692343900523
  0
ARC
  5
B2C
330
10C1
100
AcDbEntity
  8
image
100
AcDbCircle
 10
2.402253791677571
 20
6.821305056032989
 30
0.0
 40
0.1065815326392652
100
AcDbArc
 50
307.2705609016365
 51
36.46923439005223
  0
ARC
  5
B2D
330
10C1
100
AcDbEntity
  8
image
100
AcDbCircle
 10
2.552507719111947
 20
6.79984020925665
 30
0.0
 40
0.1065815326392652
100
AcDbArc
 50
127.2705609016365
 51
216.4692343900523
  0
ARC
  5
B2E
330
10C1
100
AcDbEntity
  8
image
100
AcDbCircle
 10
2.508586518452586
 20
6.868152013965391
 30
0.0
 40
0.1065815326392652
100
AcDbArc
 50
291.0813546446095
 51
20.28002813302522
  0
ARC
  5
B2F
330
10C1
100
AcDbEntity
  8
image
100
AcDbCircle
 10
2.646897692606668
 20
6.805646002568835
 30
0.0
 40
0.1065815326392652
100
AcDbArc
 50
111.0813546446095
 51
200.2800281330253
  0
ARC
  5
B30
330
10C1
100
AcDbEntity
  8
image
100
AcDbCircle
 10
2.754047516189315
 20
6.832230892345381
 30
0.0
 40
0.1065815326392652
100
AcDbArc
 50
291.0813546446095
 51
20.28002813302522
  0
ARC
  5
B31
330
10C1
100
AcDbEntity
  8
image
100
AcDbCircle
 10
2.892358690343397
 20
6.769724880948825
 30
0.0
 40
0.1065815326392652
100
AcDbArc
 50
111.0813546446095
 51
200.2800281330253
  0
ARC
  5
B32
330
10C1
100
AcDbEntity
  8
image
100
AcDbCircle
 10
2.917455103857749
 20
6.812858441014665
 30
0.0
 40
0.1065815326392652
100
AcDbArc
 50
291.0813546446095
 51
20.28002813302522
  0
ARC
  5
B33
330
10C1
100
AcDbEntity
  8
image
100
AcDbCircle
 10
3.055766278011828
 20
6.750352429618108
 30
0.0
 40
0.1065815326392652
100
AcDbArc
 50
111.0813546446095
 51
200.2800281330253
  0
ARC
  5
B34
330
10C1
100
AcDbEntity
  8
image
100
AcDbCircle
 10
2.802555886293374
 20
6.763738027345492
 30
0.0
 40
0.1065815326392652
100
AcDbArc
 50
111.0813546446095
 51
200.2800281330253
  0
ARC
  5
B35
330
10C1
100
AcDbEntity
  8
image
100
AcDbCircle
 10
2.664244712139294
 20
6.826244038742046
 30
0.0
 40
0.1065815326392652
100
AcDbArc
 50
291.0813546446095
 51
20.28002813302522
  0
ARC
  5
B36
330
10C1
100
AcDbEntity
  8
image
100
AcDbCircle
 10
2.612292095540952
 20
6.680135814617516
 30
0.0
 40
0.1065815326392652
100
AcDbArc
 50
334.745005975626
 51
63.94367946404176
  0
ARC
  5
B37
330
10C1
100
AcDbEntity
  8
image
100
AcDbCircle
 10
2.827902984865351
 20
6.656155722776614
 30
0.0
 40
0.1065815326392652
100
AcDbArc
 50
127.2705609016365
 51
216.4692343900523
  0
ARC
  5
B38
330
10C1
100
AcDbEntity
  8
image
100
AcDbCircle
 10
2.790417115996766
 20
6.612762123436575
 30
0.0
 40
0.1065815326392652
100
AcDbArc
 50
172.2705609016364
 51
261.4692343900521
  0
ARC
  5
B39
330
10C1
100
AcDbEntity
  8
image
100
AcDbCircle
 10
2.668993606295327
 20
6.521694491160496
 30
0.0
 40
0.1065815326392652
100
AcDbArc
 50
352.2705609016364
 51
81.4692343900521
  0
ARC
  5
B3A
330
10C1
100
AcDbEntity
  8
image
100
AcDbCircle
 10
3.027839591804453
 20
6.624993687331094
 30
0.0
 40
0.1065815326392652
100
AcDbArc
 50
352.2705609016364
 51
81.4692343900521
  0
ARC
  5
B3B
330
10C1
100
AcDbEntity
  8
image
100
AcDbCircle
 10
3.149263101505892
 20
6.716061319607172
 30
0.0
 40
0.1065815326392652
100
AcDbArc
 50
172.2705609016364
 51
261.4692343900521
  0
ARC
  5
B3C
330
10C1
100
AcDbEntity
  8
image
100
AcDbCircle
 10
3.156814702357801
 20
6.579849310847166
 30
0.0
 40
0.1065815326392652
100
AcDbArc
 50
127.2705609016365
 51
216.4692343900523
  0
ARC
  5
B3D
330
10C1
100
AcDbEntity
  8
image
100
AcDbCircle
 10
2.953044323184377
 20
6.677620569552954
 30
0.0
 40
0.1065815326392652
100
AcDbArc
 50
307.2705609016365
 51
36.46923439005223
  0
ARC
  5
B3E
330
10C1
100
AcDbEntity
  8
image
100
AcDbCircle
 10
2.982978591201053
 20
6.593804619106265
 30
0.0
 40
0.1065815326392652
100
AcDbArc
 50
307.2705609016365
 51
36.46923439005223
  0
ARC
  5
B3F
330
10C1
100
AcDbEntity
  8
image
100
AcDbCircle
 10
3.133232518635429
 20
6.572339772329925
 30
0.0
 40
0.1065815326392652
100
AcDbArc
 50
127.2705609016365
 51
216.4692343900523
  0
ARC
  5
B40
330
10C1
100
AcDbEntity
  8
image
100
AcDbCircle
 10
3.006560774923426
 20
6.601314157623503
 30
0.0
 40
0.1065815326392652
100
AcDbArc
 50
307.2705609016365
 51
36.46923439005223
  0
ARC
  5
B41
330
10C1
100
AcDbEntity
  8
image
100
AcDbCircle
 10
3.258591213614495
 20
6.591823018053835
 30
0.0
 40
0.1065815326392652
100
AcDbArc
 50
127.2705609016365
 51
216.4692343900523
  0
ARC
  5
B42
330
10C1
100
AcDbEntity
  8
image
100
AcDbCircle
 10
3.108337286180118
 20
6.613287864830173
 30
0.0
 40
0.1065815326392652
100
AcDbArc
 50
307.2705609016365
 51
36.46923439005223
  0
ARC
  5
B43
330
10C1
100
AcDbEntity
  8
image
100
AcDbCircle
 10
3.228656945597821
 20
6.675638968500524
 30
0.0
 40
0.1065815326392652
100
AcDbArc
 50
127.2705609016365
 51
216.4692343900523
  0
ARC
  5
B44
330
10C1
100
AcDbEntity
  8
image
100
AcDbCircle
 10
3.078403018163443
 20
6.697103815276863
 30
0.0
 40
0.1065815326392652
100
AcDbArc
 50
307.2705609016365
 51
36.46923439005223
  0
ARC
  5
B45
330
10C1
100
AcDbEntity
  8
image
100
AcDbCircle
 10
2.726727458013415
 20
6.570675992155082
 30
0.0
 40
0.1065815326392652
100
AcDbArc
 50
334.745005975626
 51
63.94367946404176
  0
ARC
  5
B46
330
10C1
100
AcDbEntity
  8
image
100
AcDbCircle
 10
2.869938120886397
 20
6.62095211368477
 30
0.0
 40
0.1065815326392652
100
AcDbArc
 50
154.7450059756261
 51
243.9436794640418
  0
ARC
  5
B47
330
10C1
100
AcDbEntity
  8
image
100
AcDbCircle
 10
2.88120207994436
 20
6.581830911899595
 30
0.0
 40
0.1065815326392652
100
AcDbArc
 50
307.2705609016365
 51
36.46923439005223
  0
ARC
  5
B48
330
10C1
100
AcDbEntity
  8
image
100
AcDbCircle
 10
3.031456007378737
 20
6.560366065123258
 30
0.0
 40
0.1065815326392652
100
AcDbArc
 50
127.2705609016365
 51
216.4692343900523
  0
ARC
  5
B49
330
10C1
100
AcDbEntity
  8
image
100
AcDbCircle
 10
2.803372983101007
 20
6.581830911899595
 30
0.0
 40
0.1065815326392652
100
AcDbArc
 50
307.2705609016365
 51
36.46923439005223
  0
ARC
  5
B4A
330
10C1
100
AcDbEntity
  8
image
100
AcDbCircle
 10
2.953626910535384
 20
6.560366065123258
 30
0.0
 40
0.1065815326392652
100
AcDbArc
 50
127.2705609016365
 51
216.4692343900523
  0
ARC
  5
B4B
330
10C1
100
AcDbEntity
  8
image
100
AcDbCircle
 10
3.023904406526826
 20
6.696578073883264
 30
0.0
 40
0.1065815326392652
100
AcDbArc
 50
172.2705609016364
 51
261.4692343900521
  0
ARC
  5
B4C
330
10C1
100
AcDbEntity
  8
image
100
AcDbCircle
 10
2.79595549141266
 20
6.730454381088689
 30
0.0
 40
0.1065815326392652
100
AcDbArc
 50
291.0813546446095
 51
20.28002813302522
  0
ARC
  5
B4D
330
10C1
100
AcDbEntity
  8
image
100
AcDbCircle
 10
3.103298250618755
 20
6.656155722776614
 30
0.0
 40
0.1065815326392652
100
AcDbArc
 50
127.2705609016365
 51
216.4692343900523
  0
ARC
  5
B4E
330
10C1
100
AcDbEntity
  8
image
100
AcDbCircle
 10
2.902480896825387
 20
6.605510441607183
 30
0.0
 40
0.1065815326392652
100
AcDbArc
 50
352.2705609016364
 51
81.4692343900521
  0
ARC
  5
B4F
330
10C1
100
AcDbEntity
  8
image
100
AcDbCircle
 10
2.74165380964026
 20
6.67516036814195
 30
0.0
 40
0.1065815326392652
100
AcDbArc
 50
334.745005975626
 51
63.94367946404176
  0
ARC
  5
B50
330
10C1
100
AcDbEntity
  8
image
100
AcDbCircle
 10
2.88486447251324
 20
6.725436489671642
 30
0.0
 40
0.1065815326392652
100
AcDbArc
 50
154.7450059756261
 51
243.9436794640418
  0
ARC
  5
B51
330
10C1
100
AcDbEntity
  8
image
100
AcDbCircle
 10
2.677649057430975
 20
6.677620569552954
 30
0.0
 40
0.1065815326392652
100
AcDbArc
 50
307.2705609016365
 51
36.46923439005223
  0
ARC
  5
B52
330
10C1
100
AcDbEntity
  8
image
100
AcDbCircle
 10
2.93426666556674
 20
6.667948369692132
 30
0.0
 40
0.1065815326392652
100
AcDbArc
 50
111.0813546446095
 51
200.2800281330253
  0
ARC
  5
B53
330
10C1
100
AcDbEntity
  8
image
100
AcDbCircle
 10
2.432188059694245
 20
6.58781776550293
 30
0.0
 40
0.1065815326392652
100
AcDbArc
 50
307.2705609016365
 51
36.46923439005223
  0
ARC
  5
B54
330
10C1
100
AcDbEntity
  8
image
100
AcDbCircle
 10
2.582441987128623
 20
6.566352918726591
 30
0.0
 40
0.1065815326392652
100
AcDbArc
 50
127.2705609016365
 51
216.4692343900523
  0
ARC
  5
B55
330
10C1
100
AcDbEntity
  8
image
100
AcDbCircle
 10
2.570646629434783
 20
6.55271072138984
 30
0.0
 40
0.0852652261114122
100
AcDbArc
 50
307.2705609016365
 51
36.46923439005223
  0
ARC
  5
B56
330
10C1
100
AcDbEntity
  8
image
100
AcDbCircle
 10
2.690849771382285
 20
6.535538843968769
 30
0.0
 40
0.0852652261114122
100
AcDbArc
 50
127.2705609016365
 51
216.4692343900523
  0
ARC
  5
B57
330
10C1
100
AcDbEntity
  8
image
100
AcDbCircle
 10
2.49804344933093
 20
6.605778326312935
 30
0.0
 40
0.1065815326392652
100
AcDbArc
 50
307.2705609016365
 51
36.46923439005223
  0
ARC
  5
B58
330
10C1
100
AcDbEntity
  8
image
100
AcDbCircle
 10
2.648297376765305
 20
6.584313479536596
 30
0.0
 40
0.1065815326392652
100
AcDbArc
 50
127.2705609016365
 51
216.4692343900523
  0
ARC
  5
B59
330
10C1
100
AcDbEntity
  8
image
100
AcDbCircle
 10
2.694792521433346
 20
6.62604039446879
 30
0.0
 40
0.1065815326392652
100
AcDbArc
 50
111.0813546446095
 51
200.2800281330253
  0
ARC
  5
B5A
330
10C1
100
AcDbEntity
  8
image
100
AcDbCircle
 10
2.520560225659256
 20
6.736441234692024
 30
0.0
 40
0.1065815326392652
100
AcDbArc
 50
291.0813546446095
 51
20.28002813302522
  0
ARC
  5
B5B
330
10C1
100
AcDbEntity
  8
image
100
AcDbCircle
 10
2.658871399813337
 20
6.673935223295469
 30
0.0
 40
0.1065815326392652
100
AcDbArc
 50
111.0813546446095
 51
200.2800281330253
  0
ARC
  5
B5C
330
10C1
100
AcDbEntity
  8
image
100
AcDbCircle
 10
2.755502758413933
 20
6.730411936147205
 30
0.0
 40
0.1065815326392652
100
AcDbArc
 50
154.7450059756261
 51
243.9436794640418
  0
ARC
  5
B5D
330
10C1
100
AcDbEntity
  8
image
100
AcDbCircle
 10
2.556481347279264
 20
6.688546405865343
 30
0.0
 40
0.1065815326392652
100
AcDbArc
 50
291.0813546446095
 51
20.28002813302522
  0
ARC
  5
B5E
330
10C1
100
AcDbEntity
  8
image
100
AcDbCircle
 10
2.406810007195894
 20
6.712493820278685
 30
0.0
 40
0.1065815326392652
100
AcDbArc
 50
291.0813546446095
 51
20.28002813302522
  0
ARC
  5
B5F
330
10C1
100
AcDbEntity
  8
image
100
AcDbCircle
 10
2.545121181349975
 20
6.64998780888213
 30
0.0
 40
0.1065815326392652
100
AcDbArc
 50
111.0813546446095
 51
200.2800281330253
  0
ARC
  5
B60
330
10C1
100
AcDbEntity
  8
image
100
AcDbCircle
 10
2.637169348252357
 20
7.01597845171817
 30
0.0
 40
0.1065815326392652
100
AcDbArc
 50
334.745005975626
 51
63.94367946404176
  0
ARC
  5
B61
330
10C1
100
AcDbEntity
  8
image
100
AcDbCircle
 10
2.676972952590605
 20
6.884129120115691
 30
0.0
 40
0.1065815326392652
100
AcDbArc
 50
334.745005975626
 51
63.94367946404176
  0
ARC
  5
B62
330
10C1
100
AcDbEntity
  8
image
100
AcDbCircle
 10
2.820183615463587
 20
6.93440524164538
 30
0.0
 40
0.1065815326392652
100
AcDbArc
 50
154.7450059756261
 51
243.9436794640418
  0
ARC
  5
B63
330
10C1
100
AcDbEntity
  8
image
100
AcDbCircle
 10
2.665675350224304
 20
7.150582004216408
 30
0.0
 40
0.1065815326392652
100
AcDbArc
 50
307.2705609016365
 51
36.46923439005223
  0
ARC
  5
B64
330
10C1
100
AcDbEntity
  8
image
100
AcDbCircle
 10
2.815929277658682
 20
7.129117157440068
 30
0.0
 40
0.1065815326392652
100
AcDbArc
 50
127.2705609016365
 51
216.4692343900523
  0
ARC
  5
B65
330
10C1
100
AcDbEntity
  8
image
100
AcDbCircle
 10
2.646284151329289
 20
6.975915378825418
 30
0.0
 40
0.1065815326392652
100
AcDbArc
 50
291.0813546446095
 51
20.28002813302522
  0
ARC
  5
B66
330
10C1
100
AcDbEntity
  8
image
100
AcDbCircle
 10
2.78459532548337
 20
6.913409367428863
 30
0.0
 40
0.1065815326392652
100
AcDbArc
 50
111.0813546446095
 51
200.2800281330253
  0
ARC
  5
B67
330
10C1
100
AcDbEntity
  8
image
100
AcDbCircle
 10
2.862259359236785
 20
7.073749850893359
 30
0.0
 40
0.1065815326392652
100
AcDbArc
 50
172.2705609016364
 51
261.4692343900521
  0
ARC
  5
B68
330
10C1
100
AcDbEntity
  8
image
100
AcDbCircle
 10
3.178148236915228
 20
6.913956324038726
 30
0.0
 40
0.1065815326392652
100
AcDbArc
 50
127.2705609016365
 51
216.4692343900523
  0
ARC
  5
B69
330
10C1
100
AcDbEntity
  8
image
100
AcDbCircle
 10
2.940671831331498
 20
7.045831130571561
 30
0.0
 40
0.1065815326392652
100
AcDbArc
 50
334.745005975626
 51
63.94367946404176
  0
ARC
  5
B6A
330
10C1
100
AcDbEntity
  8
image
100
AcDbCircle
 10
2.968036809314045
 20
6.896567736304603
 30
0.0
 40
0.1065815326392652
100
AcDbArc
 50
334.745005975626
 51
63.94367946404176
  0
ARC
  5
B6B
330
10C1
100
AcDbEntity
  8
image
100
AcDbCircle
 10
3.111247472187026
 20
6.946843857834292
 30
0.0
 40
0.1065815326392652
100
AcDbArc
 50
154.7450059756261
 51
243.9436794640418
  0
ARC
  5
B6C
330
10C1
100
AcDbEntity
  8
image
100
AcDbCircle
 10
3.151193079445436
 20
7.045301206993381
 30
0.0
 40
0.1065815326392652
100
AcDbArc
 50
127.2705609016365
 51
216.4692343900523
  0
ARC
  5
B6D
330
10C1
100
AcDbEntity
  8
image
100
AcDbCircle
 10
3.000939152011057
 20
7.066766053769719
 30
0.0
 40
0.1065815326392652
100
AcDbArc
 50
307.2705609016365
 51
36.46923439005223
  0
ARC
  5
B6E
330
10C1
100
AcDbEntity
  8
image
100
AcDbCircle
 10
3.027894309480852
 20
6.935421170815064
 30
0.0
 40
0.1065815326392652
100
AcDbArc
 50
307.2705609016365
 51
36.46923439005223
  0
ARC
  5
B6F
330
10C1
100
AcDbEntity
  8
image
100
AcDbCircle
 10
3.236606167166093
 20
6.966327103558201
 30
0.0
 40
0.1065815326392652
100
AcDbArc
 50
154.7450059756261
 51
243.9436794640418
  0
ARC
  5
B70
330
10C1
100
AcDbEntity
  8
image
100
AcDbCircle
 10
3.09339550429311
 20
6.916050982028512
 30
0.0
 40
0.1065815326392652
100
AcDbArc
 50
334.745005975626
 51
63.94367946404176
  0
ARC
  5
B71
330
10C1
100
AcDbEntity
  8
image
100
AcDbCircle
 10
3.08388249420448
 20
7.09610725210125
 30
0.0
 40
0.1065815326392652
100
AcDbArc
 50
154.7450059756261
 51
243.9436794640418
  0
ARC
  5
B72
330
10C1
100
AcDbEntity
  8
image
100
AcDbCircle
 10
2.818773293045614
 20
7.025929344669299
 30
0.0
 40
0.1065815326392652
100
AcDbArc
 50
334.745005975626
 51
63.94367946404176
  0
ARC
  5
B73
330
10C1
100
AcDbEntity
  8
image
100
AcDbCircle
 10
2.961983955918596
 20
7.076205466198988
 30
0.0
 40
0.1065815326392652
100
AcDbArc
 50
154.7450059756261
 51
243.9436794640418
  0
ARC
  5
B74
330
10C1
100
AcDbEntity
  8
image
100
AcDbCircle
 10
2.893175787151029
 20
7.072752907373055
 30
0.0
 40
0.1065815326392652
100
AcDbArc
 50
307.2705609016365
 51
36.46923439005223
  0
ARC
  5
B75
330
10C1
100
AcDbEntity
  8
image
100
AcDbCircle
 10
3.043429714585407
 20
7.051288060596714
 30
0.0
 40
0.1065815326392652
100
AcDbArc
 50
127.2705609016365
 51
216.4692343900523
  0
ARC
  5
B76
330
10C1
100
AcDbEntity
  8
image
100
AcDbCircle
 10
2.819902905825999
 20
7.161507840528798
 30
0.0
 40
0.1065815326392652
100
AcDbArc
 50
291.0813546446095
 51
20.28002813302522
  0
ARC
  5
B77
330
10C1
100
AcDbEntity
  8
image
100
AcDbCircle
 10
2.740835849535345
 20
6.98268221861728
 30
0.0
 40
0.1065815326392652
100
AcDbArc
 50
352.2705609016364
 51
81.4692343900521
  0
ARC
  5
B78
330
10C1
100
AcDbEntity
  8
image
100
AcDbCircle
 10
2.831876613032669
 20
6.969928525222083
 30
0.0
 40
0.1065815326392652
100
AcDbArc
 50
291.0813546446095
 51
20.28002813302522
  0
ARC
  5
B79
330
10C1
100
AcDbEntity
  8
image
100
AcDbCircle
 10
2.970187787186748
 20
6.907422513825528
 30
0.0
 40
0.1065815326392652
100
AcDbArc
 50
111.0813546446095
 51
200.2800281330253
  0
ARC
  5
B7A
330
10C1
100
AcDbEntity
  8
image
100
AcDbCircle
 10
2.893175787151029
 20
6.947028981703022
 30
0.0
 40
0.1065815326392652
100
AcDbArc
 50
307.2705609016365
 51
36.46923439005223
  0
ARC
  5
B7B
330
10C1
100
AcDbEntity
  8
image
100
AcDbCircle
 10
3.043429714585407
 20
6.925564134926683
 30
0.0
 40
0.1065815326392652
100
AcDbArc
 50
127.2705609016365
 51
216.4692343900523
  0
ARC
  5
B7C
330
10C1
100
AcDbEntity
  8
image
100
AcDbCircle
 10
2.881784667295365
 20
6.88365615970334
 30
0.0
 40
0.1065815326392652
100
AcDbArc
 50
127.2705609016365
 51
216.4692343900523
  0
ARC
  5
B7D
330
10C1
100
AcDbEntity
  8
image
100
AcDbCircle
 10
2.754047516189315
 20
7.011836500445427
 30
0.0
 40
0.1065815326392652
100
AcDbArc
 50
291.0813546446095
 51
20.28002813302522
  0
ARC
  5
B7E
330
10C1
100
AcDbEntity
  8
image
100
AcDbCircle
 10
2.892358690343397
 20
6.949330489048871
 30
0.0
 40
0.1065815326392652
100
AcDbArc
 50
111.0813546446095
 51
200.2800281330253
  0
ARC
  5
B7F
330
10C1
100
AcDbEntity
  8
image
100
AcDbCircle
 10
2.95821407998008
 20
7.099001829132244
 30
0.0
 40
0.1065815326392652
100
AcDbArc
 50
111.0813546446095
 51
200.2800281330253
  0
ARC
  5
B80
330
10C1
100
AcDbEntity
  8
image
100
AcDbCircle
 10
2.930720930246937
 20
7.152803229796213
 30
0.0
 40
0.1065815326392652
100
AcDbArc
 50
334.745005975626
 51
63.94367946404176
  0
ARC
  5
B81
330
10C1
100
AcDbEntity
  8
image
100
AcDbCircle
 10
3.073931593119918
 20
7.203079351325901
 30
0.0
 40
0.1065815326392652
100
AcDbArc
 50
154.7450059756261
 51
243.9436794640418
  0
ARC
  5
B82
330
10C1
100
AcDbEntity
  8
image
100
AcDbCircle
 10
2.761465007877662
 20
7.162555711423078
 30
0.0
 40
0.1065815326392652
100
AcDbArc
 50
307.2705609016365
 51
36.46923439005223
  0
ARC
  5
B83
330
10C1
100
AcDbEntity
  8
image
100
AcDbCircle
 10
2.911718935312039
 20
7.141090864646739
 30
0.0
 40
0.1065815326392652
100
AcDbArc
 50
127.2705609016365
 51
216.4692343900523
  0
ARC
  5
B84
330
10C1
100
AcDbEntity
  8
image
100
AcDbCircle
 10
2.780380011125338
 20
7.066254573247859
 30
0.0
 40
0.1065815326392652
100
AcDbArc
 50
154.7450059756261
 51
243.9436794640418
  0
ARC
  5
B85
330
10C1
100
AcDbEntity
  8
image
100
AcDbCircle
 10
2.666257937575311
 20
6.973458963753361
 30
0.0
 40
0.1065815326392652
100
AcDbArc
 50
127.2705609016365
 51
216.4692343900523
  0
ARC
  5
B86
330
10C1
100
AcDbEntity
  8
image
100
AcDbCircle
 10
2.581859399777616
 20
7.012884371339705
 30
0.0
 40
0.1065815326392652
100
AcDbArc
 50
307.2705609016365
 51
36.46923439005223
  0
ARC
  5
B87
330
10C1
100
AcDbEntity
  8
image
100
AcDbCircle
 10
2.732113327211993
 20
6.991419524563367
 30
0.0
 40
0.1065815326392652
100
AcDbArc
 50
127.2705609016365
 51
216.4692343900523
  0
ARC
  5
B88
330
10C1
100
AcDbEntity
  8
image
100
AcDbCircle
 10
2.556481347279264
 20
7.149534133322129
 30
0.0
 40
0.1065815326392652
100
AcDbArc
 50
291.0813546446095
 51
20.28002813302522
  0
ARC
  5
B89
330
10C1
100
AcDbEntity
  8
image
100
AcDbCircle
 10
2.694792521433346
 20
7.087028121925574
 30
0.0
 40
0.1065815326392652
100
AcDbArc
 50
111.0813546446095
 51
200.2800281330253
  0
ARC
  5
B8A
330
10C1
100
AcDbEntity
  8
image
100
AcDbCircle
 10
2.516004010140933
 20
6.994923810529701
 30
0.0
 40
0.1065815326392652
100
AcDbArc
 50
307.2705609016365
 51
36.46923439005223
  0
ARC
  5
B8B
330
10C1
100
AcDbEntity
  8
image
100
AcDbCircle
 10
2.545938278157608
 20
6.935055274496352
 30
0.0
 40
0.1065815326392652
100
AcDbArc
 50
307.2705609016365
 51
36.46923439005223
  0
ARC
  5
B8C
330
10C1
100
AcDbEntity
  8
image
100
AcDbCircle
 10
2.696192205591986
 20
6.913590427720014
 30
0.0
 40
0.1065815326392652
100
AcDbArc
 50
127.2705609016365
 51
216.4692343900523
  0
ARC
  5
B8E
330
10C1
100
AcDbEntity
  8
image
100
AcDbCircle
 10
1.092432145898079
 20
6.55271072138984
 30
0.0
 40
0.0852652261114122
100
AcDbArc
 50
143.5307656099477
 51
232.7294390983635
  0
ARC
  5
B8F
330
10C1
100
AcDbEntity
  8
image
100
AcDbCircle
 10
0.9146319408556074
 20
6.58303766051402
 30
0.0
 40
0.1065815326392652
100
AcDbArc
 50
278.5307656099479
 51
7.729439098363567
  0
ARC
  5
B90
330
10C1
100
AcDbEntity
  8
image
100
AcDbCircle
 10
1.036055450557046
 20
6.491970028237939
 30
0.0
 40
0.1065815326392652
100
AcDbArc
 50
98.53076560994791
 51
187.7294390983636
  0
ARC
  5
B91
330
10C1
100
AcDbEntity
  8
image
100
AcDbCircle
 10
3.090566226655781
 20
6.488449791158335
 30
0.0
 40
0.1065815326392652
100
AcDbArc
 50
352.2705609016364
 51
81.4692343900521
  0
ARC
  5
B92
330
10C1
100
AcDbEntity
  8
image
100
AcDbCircle
 10
3.211989736357219
 20
6.579517423434413
 30
0.0
 40
0.1065815326392652
100
AcDbArc
 50
172.2705609016364
 51
261.4692343900521
  0
LINE
  5
CA9
330
10C1
100
AcDbEntity
  8
image
100
AcDbLine
 10
2.403896466254497
 20
3.460360415755602
 30
0.0
 11
2.415426007337428
 21
5.859371506777868
 31
0.0
  0
LINE
  5
CAA
330
10C1
100
AcDbEntity
  8
image
100
AcDbLine
 10
1.691202722435311
 20
3.460360415755602
 30
0.0
 11
1.678625774014972
 21
5.975750099823321
 31
0.0
  0
LINE
  5
CAB
330
10C1
100
AcDbEntity
  8
image
100
AcDbLine
 10
1.700984793428906
 20
3.438001396341667
 30
0.0
 11
1.795809568287577
 21
3.438001396341667
 31
0.0
  0
LINE
  5
CAC
330
10C1
100
AcDbEntity
  8
image
100
AcDbLine
 10
1.691202722435311
 20
3.460360415755602
 30
0.0
 11
2.403896466254497
 21
3.460360415755602
 31
0.0
  0
ARC
  5
CAD
330
10C1
100
AcDbEntity
  8
image
100
AcDbCircle
 10
1.707118464166621
 20
3.454004215026234
 30
0.0
 40
0.0171380314671728
100
AcDbArc
 50
158.2299291778305
 51
249.0288262834868
  0
LINE
  5
CAE
330
10C1
100
AcDbEntity
  8
image
100
AcDbLine
 10
1.764149023273273
 20
3.151805947843295
 30
0.0
 11
2.330950165416536
 21
3.151805947843294
 31
0.0
  0
LINE
  5
CAF
330
10C1
100
AcDbEntity
  8
image
100
AcDbLine
 10
1.764149023273273
 20
3.151805947843295
 30
0.0
 11
1.764149023273273
 21
3.438001396341667
 31
0.0
  0
LINE
  5
CB0
330
10C1
100
AcDbEntity
  8
image
100
AcDbLine
 10
2.330950165416535
 20
3.151805947843295
 30
0.0
 11
2.330950165416535
 21
3.438001396341667
 31
0.0
  0
ARC
  5
CB1
330
10C1
100
AcDbEntity
  8
image
100
AcDbCircle
 10
2.387980724523186
 20
3.454004215026234
 30
0.0
 40
0.0171380314671728
100
AcDbArc
 50
290.9711737165133
 51
21.77007082216947
  0
LINE
  5
CB2
330
10C1
100
AcDbEntity
  8
image
100
AcDbLine
 10
2.047549594344906
 20
6.48721266891709
 30
0.0
 11
1.747100270970146
 21
6.487212668917092
 31
0.0
  0
LINE
  5
CB3
330
10C1
100
AcDbEntity
  8
image
100
AcDbLine
 10
1.777087556227662
 20
6.229288992061031
 30
0.0
 11
1.737636439143001
 21
6.229288992061026
 31
0.0
  0
LINE
  5
CB4
330
10C1
100
AcDbEntity
  8
image
100
AcDbLine
 10
2.047549594344904
 20
6.272007107057963
 30
0.0
 11
1.633907735187102
 21
6.272007107057968
 31
0.0
  0
LINE
  5
CB5
330
10C1
100
AcDbEntity
  8
image
100
AcDbLine
 10
1.58639481893249
 20
6.017673261224449
 30
0.0
 11
2.508704369757319
 21
6.017673261224449
 31
0.0
  0
LINE
  5
CB6
330
10C1
100
AcDbEntity
  8
image
100
AcDbLine
 10
1.58639481893249
 20
5.975750099823321
 30
0.0
 11
2.508704369757319
 21
5.975750099823321
 31
0.0
  0
LINE
  5
CB7
330
10C1
100
AcDbEntity
  8
image
100
AcDbLine
 10
1.605862096860379
 20
6.229288992061024
 30
0.0
 11
1.605862096860381
 21
6.017673261224449
 31
0.0
  0
LINE
  5
CB8
330
10C1
100
AcDbEntity
  8
image
100
AcDbLine
 10
1.627286417216135
 20
6.229288992061024
 30
0.0
 11
1.627286417216135
 21
6.017673261224449
 31
0.0
  0
LINE
  5
CB9
330
10C1
100
AcDbEntity
  8
image
100
AcDbLine
 10
1.737636439142997
 20
6.017673261224454
 30
0.0
 11
1.737636439143001
 21
6.229288992061031
 31
0.0
  0
LINE
  5
CBA
330
10C1
100
AcDbEntity
  8
image
100
AcDbLine
 10
1.686861311862625
 20
6.017673261224455
 30
0.0
 11
1.68686131186263
 21
6.229288992061032
 31
0.0
  0
LINE
  5
CBB
330
10C1
100
AcDbEntity
  8
image
100
AcDbLine
 10
1.658020874487544
 20
6.017673261224455
 30
0.0
 11
1.658020874487547
 21
6.229288992061032
 31
0.0
  0
LINE
  5
CBC
330
10C1
100
AcDbEntity
  8
image
100
AcDbLine
 10
1.58639481893249
 20
5.975750099823321
 30
0.0
 11
1.58639481893249
 21
6.216109558523124
 31
0.0
  0
LINE
  5
CBD
330
10C1
100
AcDbEntity
  8
image
100
AcDbLine
 10
1.633907735187102
 20
6.272007107057968
 30
0.0
 11
1.747100270970148
 21
6.487212668917094
 31
0.0
  0
LINE
  5
CBE
330
10C1
100
AcDbEntity
  8
image
100
AcDbLine
 10
1.747100270970148
 20
6.272007107057967
 30
0.0
 11
1.747100270970148
 21
6.487212668917094
 31
0.0
  0
LINE
  5
CBF
330
10C1
100
AcDbEntity
  8
image
100
AcDbLine
 10
1.633907735187102
 20
6.272007107057968
 30
0.0
 11
1.586394818932487
 21
6.216109558523124
 31
0.0
  0
LINE
  5
CC0
330
10C1
100
AcDbEntity
  8
image
100
AcDbLine
 10
1.627286417216135
 20
6.229288992061024
 30
0.0
 11
1.605862096860379
 21
6.229288992061024
 31
0.0
  0
LINE
  5
CC1
330
10C1
100
AcDbEntity
  8
image
100
AcDbLine
 10
1.605862096860377
 20
6.216109558523128
 30
0.0
 11
1.58639481893249
 21
6.216109558523127
 31
0.0
  0
LINE
  5
CC2
330
10C1
100
AcDbEntity
  8
image
100
AcDbLine
 10
1.686861311862627
 20
6.22928899206103
 30
0.0
 11
1.658020874487545
 21
6.229288992061028
 31
0.0
  0
LINE
  5
CC3
330
10C1
100
AcDbEntity
  8
image
100
AcDbLine
 10
1.658020874487545
 20
6.216109558523128
 30
0.0
 11
1.627286417216135
 21
6.216109558523128
 31
0.0
  0
LINE
  5
CC4
330
10C1
100
AcDbEntity
  8
image
100
AcDbLine
 10
1.737636439142999
 20
6.216109558523124
 30
0.0
 11
1.686861311862627
 21
6.216109558523126
 31
0.0
  0
LINE
  5
CC5
330
10C1
100
AcDbEntity
  8
image
100
AcDbLine
 10
2.299088562751675
 20
6.509571688331027
 30
0.0
 11
2.299088562751675
 21
6.487212668917092
 31
0.0
  0
LINE
  5
CC6
330
10C1
100
AcDbEntity
  8
image
100
AcDbLine
 10
1.796010625938133
 20
6.487212668917092
 30
0.0
 11
1.796010625938133
 21
6.509571688331027
 31
0.0
  0
LINE
  5
CC7
330
10C1
100
AcDbEntity
  8
image
100
AcDbLine
 10
2.23139320484806
 20
6.487212668917092
 30
0.0
 11
2.291934058913524
 21
6.272007107057965
 31
0.0
  0
LINE
  5
CC8
330
10C1
100
AcDbEntity
  8
image
100
AcDbLine
 10
2.24551677994176
 20
6.487212668917092
 30
0.0
 11
2.306057634007223
 21
6.272007107057967
 31
0.0
  0
LINE
  5
CC9
330
10C1
100
AcDbEntity
  8
image
100
AcDbLine
 10
2.047549594344902
 20
6.48721266891709
 30
0.0
 11
2.347998917719658
 21
6.487212668917092
 31
0.0
  0
LINE
  5
CCA
330
10C1
100
AcDbEntity
  8
image
100
AcDbLine
 10
2.047549594344904
 20
6.272007107057963
 30
0.0
 11
2.461191453502706
 21
6.272007107057968
 31
0.0
  0
LINE
  5
CCB
330
10C1
100
AcDbEntity
  8
image
100
AcDbLine
 10
2.256880994316894
 20
6.216109558523127
 30
0.0
 11
2.318011632462147
 21
6.216109558523126
 31
0.0
  0
LINE
  5
CCC
330
10C1
100
AcDbEntity
  8
image
100
AcDbLine
 10
1.777087556227659
 20
6.017673261224453
 30
0.0
 11
1.777087556227662
 21
6.229288992061031
 31
0.0
  0
LINE
  5
CCD
330
10C1
100
AcDbEntity
  8
image
100
AcDbLine
 10
1.953921200549046
 20
6.01767326122445
 30
0.0
 11
1.95392120054905
 21
6.229288992061028
 31
0.0
  0
LINE
  5
CCE
330
10C1
100
AcDbEntity
  8
image
100
AcDbLine
 10
1.885875627046342
 20
6.017673261224451
 30
0.0
 11
1.885875627046345
 21
6.229288992061029
 31
0.0
  0
LINE
  5
CCF
330
10C1
100
AcDbEntity
  8
image
100
AcDbLine
 10
1.838218194372912
 20
6.017673261224453
 30
0.0
 11
1.838218194372917
 21
6.22928899206103
 31
0.0
  0
LINE
  5
CD0
330
10C1
100
AcDbEntity
  8
image
100
AcDbLine
 10
2.256880994316896
 20
6.017673261224453
 30
0.0
 11
2.256880994316892
 21
6.22928899206103
 31
0.0
  0
LINE
  5
CD1
330
10C1
100
AcDbEntity
  8
image
100
AcDbLine
 10
2.209223561643467
 20
6.017673261224451
 30
0.0
 11
2.209223561643463
 21
6.229288992061029
 31
0.0
  0
LINE
  5
CD2
330
10C1
100
AcDbEntity
  8
image
100
AcDbLine
 10
2.141177988140762
 20
6.01767326122445
 30
0.0
 11
2.141177988140759
 21
6.229288992061028
 31
0.0
  0
LINE
  5
CD3
330
10C1
100
AcDbEntity
  8
image
100
AcDbLine
 10
2.009818749083891
 20
6.017673261224449
 30
0.0
 11
2.009818749083891
 21
6.229288992061026
 31
0.0
  0
LINE
  5
CD4
330
10C1
100
AcDbEntity
  8
image
100
AcDbLine
 10
2.085280439605924
 20
6.017673261224449
 30
0.0
 11
2.085280439605919
 21
6.229288992061026
 31
0.0
  0
LINE
  5
CD5
330
10C1
100
AcDbEntity
  8
image
100
AcDbLine
 10
2.009818749083889
 20
6.216109558523124
 30
0.0
 11
2.085280439605921
 21
6.216109558523126
 31
0.0
  0
LINE
  5
CD6
330
10C1
100
AcDbEntity
  8
image
100
AcDbLine
 10
1.849582408748052
 20
6.487212668917092
 30
0.0
 11
1.789041554682588
 21
6.272007107057967
 31
0.0
  0
LINE
  5
CD7
330
10C1
100
AcDbEntity
  8
image
100
AcDbLine
 10
1.863705983841752
 20
6.487212668917092
 30
0.0
 11
1.803165129776289
 21
6.272007107057965
 31
0.0
  0
LINE
  5
CD8
330
10C1
100
AcDbEntity
  8
image
100
AcDbLine
 10
1.863705983841752
 20
6.487212668917092
 30
0.0
 11
1.86370598384175
 21
6.272007107057966
 31
0.0
  0
LINE
  5
CD9
330
10C1
100
AcDbEntity
  8
image
100
AcDbLine
 10
1.953921200549046
 20
6.216109558523126
 30
0.0
 11
1.885875627046347
 21
6.216109558523128
 31
0.0
  0
LINE
  5
CDA
330
10C1
100
AcDbEntity
  8
image
100
AcDbLine
 10
1.838218194372915
 20
6.216109558523127
 30
0.0
 11
1.777087556227661
 21
6.216109558523126
 31
0.0
  0
LINE
  5
CDB
330
10C1
100
AcDbEntity
  8
image
100
AcDbLine
 10
1.885875627046345
 20
6.229288992061029
 30
0.0
 11
1.838218194372917
 21
6.229288992061024
 31
0.0
  0
LINE
  5
CDC
330
10C1
100
AcDbEntity
  8
image
100
AcDbLine
 10
2.009818749083889
 20
6.229288992061026
 30
0.0
 11
1.953921200549052
 21
6.229288992061026
 31
0.0
  0
LINE
  5
CDD
330
10C1
100
AcDbEntity
  8
image
100
AcDbLine
 10
2.23139320484806
 20
6.487212668917092
 30
0.0
 11
2.231393204848062
 21
6.272007107057966
 31
0.0
  0
LINE
  5
CDE
330
10C1
100
AcDbEntity
  8
image
100
AcDbLine
 10
2.064318858905356
 20
6.272007107057963
 30
0.0
 11
2.064318858905356
 21
6.48721266891709
 31
0.0
  0
LINE
  5
CDF
330
10C1
100
AcDbEntity
  8
image
100
AcDbLine
 10
2.030780329784452
 20
6.272007107057963
 30
0.0
 11
2.030780329784452
 21
6.48721266891709
 31
0.0
  0
LINE
  5
CE0
330
10C1
100
AcDbEntity
  8
image
100
AcDbLine
 10
2.141177988140762
 20
6.216109558523126
 30
0.0
 11
2.209223561643461
 21
6.216109558523128
 31
0.0
  0
LINE
  5
CE1
330
10C1
100
AcDbEntity
  8
image
100
AcDbLine
 10
2.085280439605919
 20
6.229288992061026
 30
0.0
 11
2.141177988140756
 21
6.229288992061026
 31
0.0
  0
LINE
  5
CE2
330
10C1
100
AcDbEntity
  8
image
100
AcDbLine
 10
2.209223561643463
 20
6.229288992061029
 30
0.0
 11
2.256880994316892
 21
6.229288992061024
 31
0.0
  0
LINE
  5
CE3
330
10C1
100
AcDbEntity
  8
image
100
AcDbLine
 10
2.437078314202265
 20
6.017673261224455
 30
0.0
 11
2.437078314202261
 21
6.229288992061032
 31
0.0
  0
LINE
  5
CE4
330
10C1
100
AcDbEntity
  8
image
100
AcDbLine
 10
2.408237876827183
 20
6.017673261224455
 30
0.0
 11
2.408237876827179
 21
6.229288992061032
 31
0.0
  0
LINE
  5
CE5
330
10C1
100
AcDbEntity
  8
image
100
AcDbLine
 10
2.357462749546811
 20
6.017673261224454
 30
0.0
 11
2.357462749546806
 21
6.229288992061031
 31
0.0
  0
LINE
  5
CE6
330
10C1
100
AcDbEntity
  8
image
100
AcDbLine
 10
2.31801163246215
 20
6.017673261224453
 30
0.0
 11
2.318011632462146
 21
6.229288992061031
 31
0.0
  0
LINE
  5
CE7
330
10C1
100
AcDbEntity
  8
image
100
AcDbLine
 10
2.467812771473674
 20
6.229288992061024
 30
0.0
 11
2.467812771473674
 21
6.017673261224449
 31
0.0
  0
LINE
  5
CE8
330
10C1
100
AcDbEntity
  8
image
100
AcDbLine
 10
2.48923709182943
 20
6.229288992061024
 30
0.0
 11
2.489237091829427
 21
6.017673261224449
 31
0.0
  0
LINE
  5
CE9
330
10C1
100
AcDbEntity
  8
image
100
AcDbLine
 10
2.508704369757319
 20
5.975750099823321
 30
0.0
 11
2.508704369757319
 21
6.216109558523123
 31
0.0
  0
LINE
  5
CEA
330
10C1
100
AcDbEntity
  8
image
100
AcDbLine
 10
2.34799891771966
 20
6.487212668917094
 30
0.0
 11
2.461191453502706
 21
6.272007107057968
 31
0.0
  0
LINE
  5
CEB
330
10C1
100
AcDbEntity
  8
image
100
AcDbLine
 10
2.34799891771966
 20
6.272007107057967
 30
0.0
 11
2.34799891771966
 21
6.487212668917094
 31
0.0
  0
LINE
  5
CEC
330
10C1
100
AcDbEntity
  8
image
100
AcDbLine
 10
2.408237876827181
 20
6.22928899206103
 30
0.0
 11
2.437078314202263
 21
6.229288992061028
 31
0.0
  0
LINE
  5
CED
330
10C1
100
AcDbEntity
  8
image
100
AcDbLine
 10
2.318011632462146
 20
6.229288992061031
 30
0.0
 11
2.357462749546806
 21
6.229288992061026
 31
0.0
  0
LINE
  5
CEE
330
10C1
100
AcDbEntity
  8
image
100
AcDbLine
 10
2.357462749546809
 20
6.216109558523124
 30
0.0
 11
2.408237876827181
 21
6.216109558523126
 31
0.0
  0
LINE
  5
CEF
330
10C1
100
AcDbEntity
  8
image
100
AcDbLine
 10
2.467812771473674
 20
6.229288992061024
 30
0.0
 11
2.48923709182943
 21
6.229288992061024
 31
0.0
  0
LINE
  5
CF0
330
10C1
100
AcDbEntity
  8
image
100
AcDbLine
 10
2.461191453502706
 20
6.272007107057968
 30
0.0
 11
2.508704369757321
 21
6.216109558523124
 31
0.0
  0
LINE
  5
CF1
330
10C1
100
AcDbEntity
  8
image
100
AcDbLine
 10
2.437078314202263
 20
6.216109558523128
 30
0.0
 11
2.467812771473674
 21
6.216109558523128
 31
0.0
  0
LINE
  5
CF2
330
10C1
100
AcDbEntity
  8
image
100
AcDbLine
 10
2.489237091829432
 20
6.216109558523128
 30
0.0
 11
2.508704369757319
 21
6.216109558523127
 31
0.0
  0
LINE
  5
CF3
330
10C1
100
AcDbEntity
  8
image
100
AcDbLine
 10
2.047549594344902
 20
6.509571688331025
 30
0.0
 11
2.299088562751675
 21
6.509571688331027
 31
0.0
  0
LINE
  5
CF4
330
10C1
100
AcDbEntity
  8
image
100
AcDbLine
 10
2.047549594344906
 20
6.509571688331025
 30
0.0
 11
1.796010625938133
 21
6.509571688331027
 31
0.0
  0
LWPOLYLINE
  5
CF5
330
10C1
100
AcDbEntity
  8
image
100
AcDbPolyline
 90
        4
 70
     1
 43
0.0
 10
1.699694537355055
 20
5.859371506777869
 10
1.699694537355055
 20
5.968371726420803
 10
2.390588237245655
 20
5.968371726420803
 10
2.390588237245655
 20
5.859371506777869
  0
LWPOLYLINE
  5
CF6
330
10C1
100
AcDbEntity
  8
image
100
AcDbPolyline
 90
        3
 70
     0
 43
0.0
 10
2.390588237245655
 20
5.968371726420803
 10
2.58622965711759
 20
5.968371726420803
 10
2.58622965711759
 20
5.927846003733046
  0
LWPOLYLINE
  5
CF7
330
10C1
100
AcDbEntity
  8
image
100
AcDbPolyline
 90
        4
 70
     1
 43
0.0
 10
2.488408947181623
 20
5.927846003733046
 10
2.488408947181623
 20
5.899897229465627
 10
2.865717399791781
 20
5.899897229465627
 10
2.865717399791781
 20
5.927846003733046
  0
LWPOLYLINE
  5
CF8
330
10C1
100
AcDbEntity
  8
image
100
AcDbPolyline
 90
        3
 70
     0
 43
0.0
 10
2.58622965711759
 20
5.899897229465627
 10
2.58622965711759
 20
5.859371506777869
 10
2.390588237245655
 20
5.859371506777869
  0
LINE
  5
CF9
330
10C1
100
AcDbEntity
  8
image
100
AcDbLine
 10
2.416407009314214
 20
5.968371726420803
 30
0.0
 11
2.416473414674836
 21
5.975750099823321
 31
0.0
  0
LINE
  5
CFA
330
10C1
100
AcDbEntity
  8
image
100
AcDbLine
 10
2.299133093464279
 20
3.204579161194162
 30
0.0
 11
2.299133093464281
 21
3.460360415755602
 31
0.0
  0
LINE
  5
CFB
330
10C1
100
AcDbEntity
  8
image
100
AcDbLine
 10
2.234728118467635
 20
3.154271367512807
 30
0.0
 11
2.234728118467635
 21
3.438001396341667
 31
0.0
  0
LINE
  5
CFC
330
10C1
100
AcDbEntity
  8
image
100
AcDbLine
 10
2.299133093464279
 20
3.204579161194162
 30
0.0
 11
2.282241034722248
 21
3.204579161194161
 31
0.0
  0
LWPOLYLINE
  5
CFD
330
10C1
100
AcDbEntity
  8
image
100
AcDbPolyline
 90
        2
 70
     0
 43
0.0
 10
1.748497709683521
 20
3.095908399308457
 10
2.34660147900629
 20
3.095908399308457
  0
LWPOLYLINE
  5
CFE
330
10C1
100
AcDbEntity
  8
image
100
AcDbPolyline
 90
        2
 70
     0
 43
0.0
 10
1.748497709683521
 20
3.095908399308457
 10
1.764149023273273
 20
3.151805947843295
  0
LWPOLYLINE
  5
CFF
330
10C1
100
AcDbEntity
  8
image
100
AcDbPolyline
 90
        2
 70
     0
 43
0.0
 10
2.34660147900629
 20
3.095908399308457
 10
2.330950165416536
 20
3.151805947843294
  0
LWPOLYLINE
  5
D00
330
10C1
100
AcDbEntity
  8
image
100
AcDbPolyline
 90
        2
 70
     0
 43
0.0
 10
2.07046758924419
 20
3.095908399308457
 10
2.07046758924419
 20
2.387127483886708
  0
LWPOLYLINE
  5
D01
330
10C1
100
AcDbEntity
  8
image
100
AcDbPolyline
 90
        2
 70
     0
 43
0.0
 10
2.024631599445622
 20
3.095908399308457
 10
2.024631599445622
 20
2.387127483886708
  0
LWPOLYLINE
  5
D02
330
10C1
100
AcDbEntity
  8
image
100
AcDbPolyline
 90
        2
 70
     0
 43
0.0
 10
1.843523542192745
 20
3.095908399308457
 10
2.251575646497065
 20
3.095908399308457
  0
LWPOLYLINE
  5
D03
330
10C1
100
AcDbEntity
  8
image
100
AcDbPolyline
 90
        2
 70
     0
 43
0.0
 10
2.251575646497065
 20
3.095908399308457
 10
2.23116690493039
 20
2.697780948438536
  0
LWPOLYLINE
  5
D04
330
10C1
100
AcDbEntity
  8
image
100
AcDbPolyline
 90
        2
 70
     0
 43
0.0
 10
1.843523542192745
 20
3.095908399308457
 10
1.863932283759422
 20
2.697780948438536
  0
LWPOLYLINE
  5
D05
330
10C1
100
AcDbEntity
  8
image
100
AcDbPolyline
 90
        2
 70
     0
 43
0.0
 10
1.825915814404273
 20
2.341291494088141
 10
2.269183374285539
 20
2.341291494088141
  0
LWPOLYLINE
  5
D06
330
10C1
100
AcDbEntity
  8
image
100
AcDbPolyline
 90
        2
 70
     0
 43
0.0
 10
1.813444378401231
 20
2.387127483886708
 10
2.296877341908904
 20
2.387127483886708
  0
LWPOLYLINE
  5
D07
330
10C1
100
AcDbEntity
  8
image
100
AcDbPolyline
 90
        3
 70
     0
 43
0.0
 10
2.242087416204562
 20
2.910814922217757
 10
2.242087416204562
 20
2.910814922217757
 10
2.34660147900629
 20
3.095908399308457
  0
ARC
  5
D0E
330
10C1
100
AcDbEntity
  8
image
100
AcDbCircle
 10
2.364440181081809
 20
2.866073399716404
 30
0.0
 40
0.657426235489358
100
AcDbArc
 50
159.5372614874052
 51
194.8320667203905
  0
ARC
  5
D1C
330
10C1
100
AcDbEntity
  8
image
100
AcDbCircle
 10
2.575989389030946
 20
2.585146882659014
 30
0.0
 40
0.3535399049847557
100
AcDbArc
 50
169.1090290672645
 51
185.0219351923089
  0
LINE
  5
D1E
330
10C1
100
AcDbEntity
  8
image
100
AcDbLine
 10
2.335948286823663
 20
3.438001396341667
 30
0.0
 11
2.394114395260901
 21
3.438001396341667
 31
0.0
  0
LINE
  5
D1F
330
10C1
100
AcDbEntity
  8
image
100
AcDbLine
 10
1.860214543284218
 20
3.154271367512807
 30
0.0
 11
1.860214543284218
 21
3.438001396341668
 31
0.0
  0
LINE
  5
D20
330
10C1
100
AcDbEntity
  8
image
100
AcDbLine
 10
1.795809568287577
 20
3.204579161194162
 30
0.0
 11
1.795809568287577
 21
3.460360415755602
 31
0.0
  0
LINE
  5
D22
330
10C1
100
AcDbEntity
  8
image
100
AcDbLine
 10
1.795809568287577
 20
3.204579161194162
 30
0.0
 11
1.812701627029605
 21
3.204579161194161
 31
0.0
  0
LINE
  5
D23
330
10C1
100
AcDbEntity
  8
image
100
AcDbLine
 10
2.299133093464279
 20
3.438001396341667
 30
0.0
 11
2.335948286823663
 21
3.438001396341667
 31
0.0
  0
LINE
  5
D24
330
10C1
100
AcDbEntity
  8
image
100
AcDbLine
 10
2.282241034722248
 20
3.204579161194162
 30
0.0
 11
2.282241034722248
 21
3.450115775595628
 31
0.0
  0
LINE
  5
D25
330
10C1
100
AcDbEntity
  8
image
100
AcDbLine
 10
1.812701627029607
 20
3.204579161194162
 30
0.0
 11
1.812701627029607
 21
3.45011577559563
 31
0.0
  0
LINE
  5
D28
330
10C1
100
AcDbEntity
  8
image
100
AcDbLine
 10
2.251620177209665
 20
3.154271367512808
 30
0.0
 11
2.234728118467635
 21
3.154271367512807
 31
0.0
  0
LINE
  5
D29
330
10C1
100
AcDbEntity
  8
image
100
AcDbLine
 10
1.84332248454219
 20
3.154271367512808
 30
0.0
 11
1.860214543284218
 21
3.154271367512807
 31
0.0
  0
LINE
  5
D2A
330
10C1
100
AcDbEntity
  8
image
100
AcDbLine
 10
1.86021454328422
 20
3.438001396341668
 30
0.0
 11
2.234728118467637
 21
3.438001396341667
 31
0.0
  0
ARC
  5
D2B
330
10C1
100
AcDbEntity
  8
image
100
AcDbCircle
 10
1.864734669423222
 20
3.554960098299317
 30
0.0
 40
0.1170460144726449
100
AcDbArc
 50
233.9230091132946
 51
267.7867801058023
  0
ARC
  5
D2C
330
10C1
100
AcDbEntity
  8
image
100
AcDbCircle
 10
2.230207992328635
 20
3.554960098299317
 30
0.0
 40
0.1170460144726449
100
AcDbArc
 50
272.2132198941957
 51
306.0769908867054
  0
CIRCLE
  5
EA8
330
10C1
100
AcDbEntity
  8
text_bubbles
100
AcDbCircle
 10
0.5382963848290605
 20
5.999159874629095
 30
0.0
 40
0.15625
  0
TEXT
  5
EAB
330
10C1
100
AcDbEntity
  8
text_bubbles
100
AcDbText
 10
4.947793607510662
 20
5.582375243653899
 30
0.0
 40
0.125
  1
3
  7
ROMANS
 72
     4
 11
5.007317417034472
 21
5.644875243653899
 31
0.0
100
AcDbText
  0
CIRCLE
  5
EAC
330
10C1
100
AcDbEntity
  8
text_bubbles
100
AcDbCircle
 10
5.007317417034472
 20
5.644875243653899
 30
0.0
 40
0.15625
  0
CIRCLE
  5
EBB
330
10C1
100
AcDbEntity
  8
text_bubbles
100
AcDbCircle
 10
0.5300876479845967
 20
4.910698291955048
 30
0.0
 40
0.15625
  0
TEXT
  5
EBC
330
10C1
100
AcDbEntity
  8
text_bubbles
100
AcDbText
 10
0.4705638384607873
 20
4.848198291955048
 30
0.0
 40
0.125
  1
3
  7
ROMANS
 72
     4
 11
0.5300876479845967
 21
4.910698291955048
 31
0.0
100
AcDbText
  0
TEXT
  5
EC2
330
10C1
100
AcDbEntity
  8
text_bubbles
100
AcDbText
 10
4.944817417034472
 20
3.851004405199849
 30
0.0
 40
0.125
  1
6
  7
ROMANS
 72
     4
 11
5.007317417034472
 21
3.913504405199849
 31
0.0
100
AcDbText
  0
CIRCLE
  5
EC3
330
10C1
100
AcDbEntity
  8
text_bubbles
100
AcDbCircle
 10
5.007317417034472
 20
3.913504405199849
 30
0.0
 40
0.15625
  0
CIRCLE
  5
ECE
330
10C1
100
AcDbEntity
  8
text_bubbles
100
AcDbCircle
 10
5.007317417034472
 20
5.204543616182217
 30
0.0
 40
0.15625
  0
CIRCLE
  5
ECF
330
10C1
100
AcDbEntity
  8
text_bubbles
100
AcDbCircle
 10
5.007317417034472
 20
4.341826789474817
 30
0.0
 40
0.15625
  0
CIRCLE
  5
ED1
330
10C1
100
AcDbEntity
  8
text_bubbles
100
AcDbCircle
 10
4.162795164287159
 20
4.323105310391063
 30
0.0
 40
0.15625
  0
TEXT
  5
ED2
330
10C1
100
AcDbEntity
  8
text_bubbles
100
AcDbText
 10
4.100295164287159
 20
4.260605310391063
 30
0.0
 40
0.125
  1
6
  7
ROMANS
 72
     4
 11
4.162795164287159
 21
4.323105310391063
 31
0.0
100
AcDbText
  0
CIRCLE
  5
ED4
330
10C1
100
AcDbEntity
  8
text_bubbles
100
AcDbCircle
 10
4.162746984740806
 20
6.607071370050098
 30
0.0
 40
0.15625
  0
TEXT
  5
ED5
330
10C1
100
AcDbEntity
  8
text_bubbles
100
AcDbText
 10
4.100246984740806
 20
6.544571370050098
 30
0.0
 40
0.125
  1
4
  7
ROMANS
 72
     4
 11
4.162746984740806
 21
6.607071370050098
 31
0.0
100
AcDbText
  0
TEXT
  5
ED6
330
10C1
100
AcDbEntity
  8
text_bubbles
100
AcDbText
 10
4.947793607510662
 20
4.279326789474817
 30
0.0
 40
0.125
  1
5
  7
ROMANS
 72
     4
 11
5.007317417034472
 21
4.341826789474817
 31
0.0
100
AcDbText
  0
TEXT
  5
ED7
330
10C1
100
AcDbEntity
  8
text_bubbles
100
AcDbText
 10
4.944817417034472
 20
5.142043616182217
 30
0.0
 40
0.125
  1
4
  7
ROMANS
 72
     4
 11
5.007317417034472
 21
5.204543616182217
 31
0.0
100
AcDbText
  0
CIRCLE
  5
EDC
330
10C1
100
AcDbEntity
  8
text_bubbles
100
AcDbCircle
 10
0.5298379315888742
 20
6.592434217149252
 30
0.0
 40
0.15625
  0
TEXT
  5
EDD
330
10C1
100
AcDbEntity
  8
text_bubbles
100
AcDbText
 10
0.478772575305251
 20
5.936659874629095
 30
0.0
 40
0.125
  1
2
  7
ROMANS
 72
     4
 11
0.5382963848290605
 21
5.999159874629095
 31
0.0
100
AcDbText
  0
TEXT
  5
EDE
330
10C1
100
AcDbEntity
  8
text_bubbles
100
AcDbText
 10
0.4792426934936361
 20
6.529934217149252
 30
0.0
 40
0.125
  1
1
  7
ROMANS
 72
     4
 11
0.5298379315888742
 21
6.592434217149252
 31
0.0
100
AcDbText
  0
CIRCLE
  5
EDF
330
10C1
100
AcDbEntity
  8
text_bubbles
100
AcDbCircle
 10
5.007317417034472
 20
6.130720812704075
 30
0.0
 40
0.15625
  0
CIRCLE
  5
EE0
330
10C1
100
AcDbEntity
  8
text_bubbles
100
AcDbCircle
 10
5.007317417034472
 20
6.480720812704074
 30
0.0
 40
0.15625
  0
TEXT
  5
EE1
330
10C1
100
AcDbEntity
  8
text_bubbles
100
AcDbText
 10
4.947793607510662
 20
6.068220812704075
 30
0.0
 40
0.125
  1
2
  7
ROMANS
 72
     4
 11
5.007317417034472
 21
6.130720812704075
 31
0.0
100
AcDbText
  0
TEXT
  5
EE2
330
10C1
100
AcDbEntity
  8
text_bubbles
100
AcDbText
 10
4.956722178939234
 20
6.418220812704074
 30
0.0
 40
0.125
  1
1
  7
ROMANS
 72
     4
 11
5.007317417034472
 21
6.480720812704074
 31
0.0
100
AcDbText
  0
LEADER
  5
1149
330
10C1
100
AcDbEntity
  8
text_bubbles
100
AcDbLeader
  3
STANDARD
 76
     2
 10
0.9211546182521173
 20
6.487347712471947
 30
0.0
 10
0.6521529046424028
 20
6.10616807709972
 30
0.0
  0
LEADER
  5
114A
330
10C1
100
AcDbEntity
  8
text_bubbles
100
AcDbLeader
  3
STANDARD
 76
     2
 10
1.024242718219613
 20
6.726152533585726
 30
0.0
 10
0.6859867176031483
 20
6.586811128472342
 30
0.0
  0
LEADER
  5
114D
330
10C1
100
AcDbEntity
  8
text_bubbles
100
AcDbLeader
  3
STANDARD
 76
     2
 10
2.570996219207269
 20
4.639187101196285
 30
0.0
 10
4.007002049946633
 20
4.335045495652609
 30
0.0
  0
LEADER
  5
114E
330
10C1
100
AcDbEntity
  8
text_bubbles
100
AcDbLeader
  3
STANDARD
 76
     2
 10
1.684914248225141
 20
4.718055257789462
 30
0.0
 10
0.6849878520202579
 20
4.890204651729101
 30
0.0
  0
LEADER
  5
1150
330
10C1
100
AcDbEntity
  8
text_bubbles
100
AcDbLeader
  3
STANDARD
 76
     2
 10
3.260178666080706
 20
6.052852553108725
 30
0.0
 10
4.005087745516646
 20
5.635947411057102
 30
0.0
  0
LEADER
  5
1151
330
10C1
100
AcDbEntity
  8
text_bubbles
100
AcDbLeader
  3
STANDARD
 76
     2
 10
3.733688316705626
 20
6.258358538418477
 30
0.0
 10
4.059683329074204
 20
6.489632256545966
 30
0.0
  0
TEXT
  5
118C
330
10C1
100
AcDbEntity
  8
text_bubbles
100
AcDbText
 10
4.099574361380966
 20
5.547087377450005
 30
0.0
 40
0.125
  1
5
  7
ROMANS
 72
     4
 11
4.159098170904775
 21
5.609587377450005
 31
0.0
100
AcDbText
  0
CIRCLE
  5
118D
330
10C1
100
AcDbEntity
  8
text_bubbles
100
AcDbCircle
 10
4.159098170904775
 20
5.609587377450005
 30
0.0
 40
0.15625
  0
INSERT
  5
11A4
330
10C1
100
AcDbEntity
  8
title
100
AcDbBlockReference
 66
     1
  2
titleblock
 10
-0.4984554492313005
 20
-1.274218755967127
 30
0.0
  0
ATTRIB
  5
11A5
330
11A4
100
AcDbEntity
  8
title
100
AcDbText
 10
0.0071001545710415
 20
-0.48999165948876
 30
0.0
 40
0.2
  1
D
  7
L200
 72
     4
 11
0.1079869212831834
 21
-0.3899916594887599
 31
0.0
100
AcDbAttribute
  2
D
 70
     0
  0
ATTRIB
  5
11A6
330
11A4
100
AcDbEntity
  8
title
100
AcDbText
 10
0.7329869212831837
 20
0.0694935467796234
 30
0.0
 40
0.2
  1
XERI-POP MICRO-SPRAY 4" FROM BARBED
  7
L200
100
AcDbAttribute
  2
TITLE1
 70
     0
  0
ATTRIB
  5
11A7
330
11A4
100
AcDbEntity
  8
title
100
AcDbText
 10
0.7329869212831837
 20
-0.2899916594887597
 30
0.0
 40
0.2
  1
CONNECTOR INTO 1/2: POLYETHYLENE
  7
L200
100
AcDbAttribute
  2
TITLE2
 70
     0
  0
ATTRIB
  5
11A8
330
11A4
100
AcDbEntity
  8
title
100
AcDbText
 10
2.215190301937012
 20
-0.6814259895088083
 30
0.0
 40
0.2
  1
TUBING - OPTION 1A
  7
L200
100
AcDbAttribute
  2
TITLE3
 70
     0
  0
ATTRIB
  5
11A9
330
11A4
100
AcDbEntity
  8
title
100
AcDbText
 10
2.215190301937012
 20
-1.004962675150353
 30
0.0
 40
0.2
  1

  7
L200
100
AcDbAttribute
  2
TITLE4
 70
     0
  0
ATTRIB
  5
11AA
330
11A4
100
AcDbEntity
  8
title
 62
     7
100
AcDbText
 10
7.194949856925554
 20
-0.3046159644224873
 30
0.0
 40
0.08
  1
1-18-10
  7
L80
 72
     2
 11
7.762568904544602
 21
-0.3046159644224873
 31
0.0
100
AcDbAttribute
  2
REVISED
 70
     0
  0
ATTRIB
  5
11AB
330
11A4
100
AcDbEntity
  8
title
 62
     7
100
AcDbText
 10
-0.2345130787168166
 20
-1.189507107946405
 30
0.0
 40
0.08
  1
Xeri-Pop 4 Option 1A.dwg
  7
L80
100
AcDbAttribute
  2
DWG-NAME
 70
     0
  0
ATTRIB
  5
11AC
330
11A4
100
AcDbEntity
  8
title
 62
     7
100
AcDbText
 10
0.7329869212831837
 20
-0.5736549765716378
 30
0.0
 40
0.1
  1
N.T.S.
  7
L100
100
AcDbAttribute
  2
SCALE
 70
     0
  0
SEQEND
  5
11AD
330
11A4
100
AcDbEntity
  8
title
  0
MTEXT
  5
12DA
102
{ACAD_XDICTIONARY
360
1825
102
}
330
10C1
100
AcDbEntity
  8
text_bubbles
100
AcDbMText
 10
5.296680084347973
 20
6.53936234323909
 30
0.0
 40
0.125
 41
4.202295919515166
 71
     1
 72
     5
  3
\A1;PLANT MATERIAL \P\PFINISH GRADE \P\P\pi-0.25,l0.25;MICRO-SPRAY POP-UP:\P\pt0.25;^IRAIN BIRD XERI-POP XP-400X \P\pi0,l0,tz;{\Fromans|c0;\H0.7x;\S1#2;\H1.4286x;" POLYETHYLENE TUBING:\P\pi-0.25,l0.25;  RAIN BIRD XF SERIES TUBING OR\P\pi0,l0;  RAIN BI
  3
RD XT-700 XERI-TUBE OR\P  RAIN BIRD XBS BLACK STRIPE TUBING \H0.99998x;\P\Fsimplex|c0;\H0.7x;\S1#4;}" SELF-PIERCING BARB CONNECTOR:\P\pt0.25;^IRAIN BIRD SPB-025   \P\pi-0.25,l0.25,tz;{\Fromans|c0;\H0.7x;\S1#4;\H1.4286x;" DISTRIBUTION TUBING:  \P  RAIN
  1
 BIRD XQ TUBING\P  (LENGTH AS REQUIRED)}
  7
SIMPLEX
 73
     1
 44
1.0
  0
MTEXT
  5
1352
330
10C1
100
AcDbEntity
  8
image
100
AcDbMText
 10
0.5208512900660899
 20
1.96712208636801
 30
0.0
 40
0.125
 41
6.504695409496386
 71
     1
 72
     5
  1
NOTE:\P1. RAIN BIRD XERI-POP CAN UTILIZE THE FOLLOWING NOZZLES:\P^ISQ SQUARE SERIES NOZZLES (FORMERLY XPCN)\P^I5 SERIES MPR NOZZLES (ALL CONFIGURATIONS)\P^I5 SERIES PLASTIC BUBBLERS\P^I8 SERIES MPR NOZZLES (8H, 8T AND 8Q)
  7
ROMANS
 73
     1
 44
1.0
  0
POLYLINE
  5
14E5
330
10C1
100
AcDbEntity
  8
image
100
AcDb2dPolyline
 66
     1
 10
0.0
 20
0.0
 30
0.0
 70
     4
 75
     6
  0
VERTEX
  5
14E7
330
14E5
100
AcDbEntity
  8
image
100
AcDbVertex
100
AcDb2dVertex
 10
3.168923194485563
 20
6.184729810421732
 30
0.0
 70
    16
  0
VERTEX
  5
14F2
330
14E5
100
AcDbEntity
  8
image
100
AcDbVertex
100
AcDb2dVertex
 10
3.168923194485563
 20
6.184729810421732
 30
0.0
 70
     8
  0
VERTEX
  5
14F3
330
14E5
100
AcDbEntity
  8
image
100
AcDbVertex
100
AcDb2dVertex
 10
3.163588556422878
 20
6.183816800472672
 30
0.0
 70
     8
  0
VERTEX
  5
14F4
330
14E5
100
AcDbEntity
  8
image
100
AcDbVertex
100
AcDb2dVertex
 10
3.15902785096051
 20
6.182575601305213
 30
0.0
 70
     8
  0
VERTEX
  5
14F5
330
14E5
100
AcDbEntity
  8
image
100
AcDbVertex
100
AcDb2dVertex
 10
3.155164716274946
 20
6.181093412394863
 30
0.0
 70
     8
  0
VERTEX
  5
14F6
330
14E5
100
AcDbEntity
  8
image
100
AcDbVertex
100
AcDb2dVertex
 10
3.151922790542671
 20
6.179457433217132
 30
0.0
 70
     8
  0
VERTEX
  5
14F7
330
14E5
100
AcDbEntity
  8
image
100
AcDbVertex
100
AcDb2dVertex
 10
3.149225711940169
 20
6.177754863247526
 30
0.0
 70
     8
  0
VERTEX
  5
14F8
330
14E5
100
AcDbEntity
  8
image
100
AcDbVertex
100
AcDb2dVertex
 10
3.146997118643927
 20
6.176072901961555
 30
0.0
 70
     8
  0
VERTEX
  5
14F9
330
14E5
100
AcDbEntity
  8
image
100
AcDbVertex
100
AcDb2dVertex
 10
3.145160648830429
 20
6.174498748834727
 30
0.0
 70
     8
  0
VERTEX
  5
14FA
330
14E5
100
AcDbEntity
  8
image
100
AcDbVertex
100
AcDb2dVertex
 10
3.143639940676159
 20
6.173119603342549
 30
0.0
 70
     8
  0
VERTEX
  5
14FB
330
14E5
100
AcDbEntity
  8
image
100
AcDbVertex
100
AcDb2dVertex
 10
3.142343562386576
 20
6.172009247932948
 30
0.0
 70
     8
  0
VERTEX
  5
14FC
330
14E5
100
AcDbEntity
  8
image
100
AcDbVertex
100
AcDb2dVertex
 10
3.141119802283017
 20
6.17118779694353
 30
0.0
 70
     8
  0
VERTEX
  5
14FD
330
14E5
100
AcDbEntity
  8
image
100
AcDbVertex
100
AcDb2dVertex
 10
3.13980187871579
 20
6.170661947684316
 30
0.0
 70
     8
  0
VERTEX
  5
14FE
330
14E5
100
AcDbEntity
  8
image
100
AcDbVertex
100
AcDb2dVertex
 10
3.138223010035205
 20
6.170438397465328
 30
0.0
 70
     8
  0
VERTEX
  5
14FF
330
14E5
100
AcDbEntity
  8
image
100
AcDbVertex
100
AcDb2dVertex
 10
3.136216414591572
 20
6.170523843596591
 30
0.0
 70
     8
  0
VERTEX
  5
1500
330
14E5
100
AcDbEntity
  8
image
100
AcDbVertex
100
AcDb2dVertex
 10
3.133615310735198
 20
6.170924983388127
 30
0.0
 70
     8
  0
VERTEX
  5
1501
330
14E5
100
AcDbEntity
  8
image
100
AcDbVertex
100
AcDb2dVertex
 10
3.130252916816393
 20
6.171648514149958
 30
0.0
 70
     8
  0
VERTEX
  5
1502
330
14E5
100
AcDbEntity
  8
image
100
AcDbVertex
100
AcDb2dVertex
 10
3.125962451185466
 20
6.172701133192107
 30
0.0
 70
     8
  0
VERTEX
  5
1503
330
14E5
100
AcDbEntity
  8
image
100
AcDbVertex
100
AcDb2dVertex
 10
3.120610322384984
 20
6.174070850610704
 30
0.0
 70
     8
  0
VERTEX
  5
1504
330
14E5
100
AcDbEntity
  8
image
100
AcDbVertex
100
AcDb2dVertex
 10
3.114195699726547
 20
6.17567092764631
 30
0.0
 70
     8
  0
VERTEX
  5
1505
330
14E5
100
AcDbEntity
  8
image
100
AcDbVertex
100
AcDb2dVertex
 10
3.106750942714011
 20
6.17739593832559
 30
0.0
 70
     8
  0
VERTEX
  5
1506
330
14E5
100
AcDbEntity
  8
image
100
AcDbVertex
100
AcDb2dVertex
 10
3.098308410851234
 20
6.179140456675212
 30
0.0
 70
     8
  0
VERTEX
  5
1507
330
14E5
100
AcDbEntity
  8
image
100
AcDbVertex
100
AcDb2dVertex
 10
3.088900463642073
 20
6.180799056721843
 30
0.0
 70
     8
  0
VERTEX
  5
1508
330
14E5
100
AcDbEntity
  8
image
100
AcDbVertex
100
AcDb2dVertex
 10
3.078559460590385
 20
6.182266312492151
 30
0.0
 70
     8
  0
VERTEX
  5
1509
330
14E5
100
AcDbEntity
  8
image
100
AcDbVertex
100
AcDb2dVertex
 10
3.067317761200028
 20
6.183436798012801
 30
0.0
 70
     8
  0
VERTEX
  5
150A
330
14E5
100
AcDbEntity
  8
image
100
AcDbVertex
100
AcDb2dVertex
 10
3.055207724974859
 20
6.184205087310463
 30
0.0
 70
     8
  0
VERTEX
  5
150B
330
14E5
100
AcDbEntity
  8
image
100
AcDbVertex
100
AcDb2dVertex
 10
3.042271672985167
 20
6.184489726295208
 30
0.0
 70
     8
  0
VERTEX
  5
150C
330
14E5
100
AcDbEntity
  8
image
100
AcDbVertex
100
AcDb2dVertex
 10
3.028591772566972
 20
6.184305148410745
 30
0.0
 70
     8
  0
VERTEX
  5
150D
330
14E5
100
AcDbEntity
  8
image
100
AcDbVertex
100
AcDb2dVertex
 10
3.014260152622724
 20
6.183689758984185
 30
0.0
 70
     8
  0
VERTEX
  5
150E
330
14E5
100
AcDbEntity
  8
image
100
AcDbVertex
100
AcDb2dVertex
 10
2.999368942054876
 20
6.182681963342639
 30
0.0
 70
     8
  0
VERTEX
  5
150F
330
14E5
100
AcDbEntity
  8
image
100
AcDbVertex
100
AcDb2dVertex
 10
2.984010269765879
 20
6.181320166813224
 30
0.0
 70
     8
  0
VERTEX
  5
1510
330
14E5
100
AcDbEntity
  8
image
100
AcDbVertex
100
AcDb2dVertex
 10
2.968276264658184
 20
6.179642774723052
 30
0.0
 70
     8
  0
VERTEX
  5
1511
330
14E5
100
AcDbEntity
  8
image
100
AcDbVertex
100
AcDb2dVertex
 10
2.952259055634243
 20
6.177688192399234
 30
0.0
 70
     8
  0
VERTEX
  5
1512
330
14E5
100
AcDbEntity
  8
image
100
AcDbVertex
100
AcDb2dVertex
 10
2.936050771596506
 20
6.175494825168883
 30
0.0
 70
     8
  0
VERTEX
  5
1513
330
14E5
100
AcDbEntity
  8
image
100
AcDbVertex
100
AcDb2dVertex
 10
2.919729729940687
 20
6.173090690428979
 30
0.0
 70
     8
  0
VERTEX
  5
1514
330
14E5
100
AcDbEntity
  8
image
100
AcDbVertex
100
AcDb2dVertex
 10
2.903319002035539
 20
6.17046225385596
 30
0.0
 70
     8
  0
VERTEX
  5
1515
330
14E5
100
AcDbEntity
  8
image
100
AcDbVertex
100
AcDb2dVertex
 10
2.886827847743076
 20
6.167585593196131
 30
0.0
 70
     8
  0
VERTEX
  5
1516
330
14E5
100
AcDbEntity
  8
image
100
AcDbVertex
100
AcDb2dVertex
 10
2.870265526925313
 20
6.164436786195794
 30
0.0
 70
     8
  0
VERTEX
  5
1517
330
14E5
100
AcDbEntity
  8
image
100
AcDbVertex
100
AcDb2dVertex
 10
2.853641299444265
 20
6.160991910601253
 30
0.0
 70
     8
  0
VERTEX
  5
1518
330
14E5
100
AcDbEntity
  8
image
100
AcDbVertex
100
AcDb2dVertex
 10
2.836964425161944
 20
6.157227044158813
 30
0.0
 70
     8
  0
VERTEX
  5
1519
330
14E5
100
AcDbEntity
  8
image
100
AcDbVertex
100
AcDb2dVertex
 10
2.820244163940367
 20
6.153118264614779
 30
0.0
 70
     8
  0
VERTEX
  5
151A
330
14E5
100
AcDbEntity
  8
image
100
AcDbVertex
100
AcDb2dVertex
 10
2.803489775641547
 20
6.148641649715451
 30
0.0
 70
     8
  0
VERTEX
  5
151B
330
14E5
100
AcDbEntity
  8
image
100
AcDbVertex
100
AcDb2dVertex
 10
2.786717815697624
 20
6.143767341759399
 30
0.0
 70
     8
  0
VERTEX
  5
151C
330
14E5
100
AcDbEntity
  8
image
100
AcDbVertex
100
AcDb2dVertex
 10
2.769974021821235
 20
6.138441741254231
 30
0.0
 70
     8
  0
VERTEX
  5
151D
330
14E5
100
AcDbEntity
  8
image
100
AcDbVertex
100
AcDb2dVertex
 10
2.753311427295143
 20
6.132605313259819
 30
0.0
 70
     8
  0
VERTEX
  5
151E
330
14E5
100
AcDbEntity
  8
image
100
AcDbVertex
100
AcDb2dVertex
 10
2.736783065402112
 20
6.126198522836033
 30
0.0
 70
     8
  0
VERTEX
  5
151F
330
14E5
100
AcDbEntity
  8
image
100
AcDbVertex
100
AcDb2dVertex
 10
2.720441969424903
 20
6.119161835042746
 30
0.0
 70
     8
  0
VERTEX
  5
1520
330
14E5
100
AcDbEntity
  8
image
100
AcDbVertex
100
AcDb2dVertex
 10
2.704341172646279
 20
6.111435714939828
 30
0.0
 70
     8
  0
VERTEX
  5
1521
330
14E5
100
AcDbEntity
  8
image
100
AcDbVertex
100
AcDb2dVertex
 10
2.688533708349004
 20
6.10296062758715
 30
0.0
 70
     8
  0
VERTEX
  5
1522
330
14E5
100
AcDbEntity
  8
image
100
AcDbVertex
100
AcDb2dVertex
 10
2.673072609815839
 20
6.093677038044586
 30
0.0
 70
     8
  0
VERTEX
  5
1523
330
14E5
100
AcDbEntity
  8
image
100
AcDbVertex
100
AcDb2dVertex
 10
2.658025640061726
 20
6.083496531833661
 30
0.0
 70
     8
  0
VERTEX
  5
1524
330
14E5
100
AcDbEntity
  8
image
100
AcDbVertex
100
AcDb2dVertex
 10
2.643519481030311
 20
6.072215176322531
 30
0.0
 70
     8
  0
VERTEX
  5
1525
330
14E5
100
AcDbEntity
  8
image
100
AcDbVertex
100
AcDb2dVertex
 10
2.629695544397419
 20
6.059600159341004
 30
0.0
 70
     8
  0
VERTEX
  5
1526
330
14E5
100
AcDbEntity
  8
image
100
AcDbVertex
100
AcDb2dVertex
 10
2.616695241838874
 20
6.045418668718893
 30
0.0
 70
     8
  0
VERTEX
  5
1527
330
14E5
100
AcDbEntity
  8
image
100
AcDbVertex
100
AcDb2dVertex
 10
2.604659985030502
 20
6.029437892286006
 30
0.0
 70
     8
  0
VERTEX
  5
1528
330
14E5
100
AcDbEntity
  8
image
100
AcDbVertex
100
AcDb2dVertex
 10
2.593731185648128
 20
6.011425017872156
 30
0.0
 70
     8
  0
VERTEX
  5
1529
330
14E5
100
AcDbEntity
  8
image
100
AcDbVertex
100
AcDb2dVertex
 10
2.584050255367575
 20
5.991147233307152
 30
0.0
 70
     8
  0
VERTEX
  5
152A
330
14E5
100
AcDbEntity
  8
image
100
AcDbVertex
100
AcDb2dVertex
 10
2.575758605864669
 20
5.968371726420804
 30
0.0
 70
     8
  0
VERTEX
  5
14E8
330
14E5
100
AcDbEntity
  8
image
100
AcDbVertex
100
AcDb2dVertex
 10
3.153597705674854
 20
6.182810213493666
 30
0.0
 70
    16
  0
VERTEX
  5
14E9
330
14E5
100
AcDbEntity
  8
image
100
AcDbVertex
100
AcDb2dVertex
 10
3.141086342428535
 20
6.17010939416752
 30
0.0
 70
    16
  0
VERTEX
  5
14EA
330
14E5
100
AcDbEntity
  8
image
100
AcDbVertex
100
AcDb2dVertex
 10
3.137640887044804
 20
6.169119420228471
 30
0.0
 70
    16
  0
VERTEX
  5
14EB
330
14E5
100
AcDbEntity
  8
image
100
AcDbVertex
100
AcDb2dVertex
 10
3.064124816505045
 20
6.189619724071238
 30
0.0
 70
    16
  0
VERTEX
  5
14EC
330
14E5
100
AcDbEntity
  8
image
100
AcDbVertex
100
AcDb2dVertex
 10
2.93710619678417
 20
6.177632207349353
 30
0.0
 70
    16
  0
VERTEX
  5
14ED
330
14E5
100
AcDbEntity
  8
image
100
AcDbVertex
100
AcDb2dVertex
 10
2.803755025937315
 20
6.152820397544649
 30
0.0
 70
    16
  0
VERTEX
  5
14EE
330
14E5
100
AcDbEntity
  8
image
100
AcDbVertex
100
AcDb2dVertex
 10
2.668812353315853
 20
6.102936100764761
 30
0.0
 70
    16
  0
VERTEX
  5
14EF
330
14E5
100
AcDbEntity
  8
image
100
AcDbVertex
100
AcDb2dVertex
 10
2.595891597568156
 20
6.032643652030801
 30
0.0
 70
    16
  0
VERTEX
  5
14F0
330
14E5
100
AcDbEntity
  8
image
100
AcDbVertex
100
AcDb2dVertex
 10
2.575758605864669
 20
5.968371726420803
 30
0.0
 70
    16
  0
SEQEND
  5
14F1
330
14E5
100
AcDbEntity
  8
image
  0
POLYLINE
  5
14E6
330
10C1
100
AcDbEntity
  8
image
100
AcDb2dPolyline
 66
     1
 10
0.0
 20
0.0
 30
0.0
 70
     4
 75
     6
  0
VERTEX
  5
152B
330
14E6
100
AcDbEntity
  8
image
100
AcDbVertex
100
AcDb2dVertex
 10
3.168923194485563
 20
6.261489054084037
 30
0.0
 70
    16
  0
VERTEX
  5
1537
330
14E6
100
AcDbEntity
  8
image
100
AcDbVertex
100
AcDb2dVertex
 10
3.168923194485563
 20
6.261489054084037
 30
0.0
 70
     8
  0
VERTEX
  5
1538
330
14E6
100
AcDbEntity
  8
image
100
AcDbVertex
100
AcDb2dVertex
 10
3.163422842819979
 20
6.262339102813575
 30
0.0
 70
     8
  0
VERTEX
  5
1539
330
14E6
100
AcDbEntity
  8
image
100
AcDbVertex
100
AcDb2dVertex
 10
3.158726574037233
 20
6.263525513839438
 30
0.0
 70
     8
  0
VERTEX
  5
153A
330
14E6
100
AcDbEntity
  8
image
100
AcDbVertex
100
AcDb2dVertex
 10
3.154754535089021
 20
6.26496037931019
 30
0.0
 70
     8
  0
VERTEX
  5
153B
330
14E6
100
AcDbEntity
  8
image
100
AcDbVertex
100
AcDb2dVertex
 10
3.151426872927041
 20
6.266555791374395
 30
0.0
 70
     8
  0
VERTEX
  5
153C
330
14E6
100
AcDbEntity
  8
image
100
AcDbVertex
100
AcDb2dVertex
 10
3.14866373450299
 20
6.268223842180617
 30
0.0
 70
     8
  0
VERTEX
  5
153D
330
14E6
100
AcDbEntity
  8
image
100
AcDbVertex
100
AcDb2dVertex
 10
3.146385266768565
 20
6.269876623877421
 30
0.0
 70
     8
  0
VERTEX
  5
153E
330
14E6
100
AcDbEntity
  8
image
100
AcDbVertex
100
AcDb2dVertex
 10
3.144511616675463
 20
6.271426228613371
 30
0.0
 70
     8
  0
VERTEX
  5
153F
330
14E6
100
AcDbEntity
  8
image
100
AcDbVertex
100
AcDb2dVertex
 10
3.14296293117538
 20
6.27278474853703
 30
0.0
 70
     8
  0
VERTEX
  5
1540
330
14E6
100
AcDbEntity
  8
image
100
AcDbVertex
100
AcDb2dVertex
 10
3.141645061856237
 20
6.273877475429279
 30
0.0
 70
     8
  0
VERTEX
  5
1541
330
14E6
100
AcDbEntity
  8
image
100
AcDbVertex
100
AcDb2dVertex
 10
3.14040667885084
 20
6.274682499600264
 30
0.0
 70
     8
  0
VERTEX
  5
1542
330
14E6
100
AcDbEntity
  8
image
100
AcDbVertex
100
AcDb2dVertex
 10
3.139082156928219
 20
6.275191110992447
 30
0.0
 70
     8
  0
VERTEX
  5
1543
330
14E6
100
AcDbEntity
  8
image
100
AcDbVertex
100
AcDb2dVertex
 10
3.137505870857405
 20
6.275394599548291
 30
0.0
 70
     8
  0
VERTEX
  5
1544
330
14E6
100
AcDbEntity
  8
image
100
AcDbVertex
100
AcDb2dVertex
 10
3.135512195407427
 20
6.275284255210257
 30
0.0
 70
     8
  0
VERTEX
  5
1545
330
14E6
100
AcDbEntity
  8
image
100
AcDbVertex
100
AcDb2dVertex
 10
3.132935505347316
 20
6.274851367920808
 30
0.0
 70
     8
  0
VERTEX
  5
1546
330
14E6
100
AcDbEntity
  8
image
100
AcDbVertex
100
AcDb2dVertex
 10
3.129610175446101
 20
6.274087227622406
 30
0.0
 70
     8
  0
VERTEX
  5
1547
330
14E6
100
AcDbEntity
  8
image
100
AcDbVertex
100
AcDb2dVertex
 10
3.125370580472811
 20
6.272983124257514
 30
0.0
 70
     8
  0
VERTEX
  5
1548
330
14E6
100
AcDbEntity
  8
image
100
AcDbVertex
100
AcDb2dVertex
 10
3.120109916719925
 20
6.271544816769465
 30
0.0
 70
     8
  0
VERTEX
  5
1549
330
14E6
100
AcDbEntity
  8
image
100
AcDbVertex
100
AcDb2dVertex
 10
3.113956666573716
 20
6.269835940105091
 30
0.0
 70
     8
  0
VERTEX
  5
154A
330
14E6
100
AcDbEntity
  8
image
100
AcDbVertex
100
AcDb2dVertex
 10
3.107098133943901
 20
6.267934598212091
 30
0.0
 70
     8
  0
VERTEX
  5
154B
330
14E6
100
AcDbEntity
  8
image
100
AcDbVertex
100
AcDb2dVertex
 10
3.099721622740201
 20
6.265918895038169
 30
0.0
 70
     8
  0
VERTEX
  5
154C
330
14E6
100
AcDbEntity
  8
image
100
AcDbVertex
100
AcDb2dVertex
 10
3.092014436872336
 20
6.263866934531026
 30
0.0
 70
     8
  0
VERTEX
  5
154D
330
14E6
100
AcDbEntity
  8
image
100
AcDbVertex
100
AcDb2dVertex
 10
3.084163880250025
 20
6.261856820638365
 30
0.0
 70
     8
  0
VERTEX
  5
154E
330
14E6
100
AcDbEntity
  8
image
100
AcDbVertex
100
AcDb2dVertex
 10
3.076357256782989
 20
6.259966657307886
 30
0.0
 70
     8
  0
VERTEX
  5
154F
330
14E6
100
AcDbEntity
  8
image
100
AcDbVertex
100
AcDb2dVertex
 10
3.068781870380946
 20
6.258274548487293
 30
0.0
 70
     8
  0
VERTEX
  5
1550
330
14E6
100
AcDbEntity
  8
image
100
AcDbVertex
100
AcDb2dVertex
 10
3.061562312061484
 20
6.256836990948712
 30
0.0
 70
     8
  0
VERTEX
  5
1551
330
14E6
100
AcDbEntity
  8
image
100
AcDbVertex
100
AcDb2dVertex
 10
3.054572321273665
 20
6.255624052761976
 30
0.0
 70
     8
  0
VERTEX
  5
1552
330
14E6
100
AcDbEntity
  8
image
100
AcDbVertex
100
AcDb2dVertex
 10
3.047622924574416
 20
6.25458419482134
 30
0.0
 70
     8
  0
VERTEX
  5
1553
330
14E6
100
AcDbEntity
  8
image
100
AcDbVertex
100
AcDb2dVertex
 10
3.040525148520665
 20
6.253665878021062
 30
0.0
 70
     8
  0
VERTEX
  5
1554
330
14E6
100
AcDbEntity
  8
image
100
AcDbVertex
100
AcDb2dVertex
 10
3.033090019669341
 20
6.252817563255399
 30
0.0
 70
     8
  0
VERTEX
  5
1555
330
14E6
100
AcDbEntity
  8
image
100
AcDbVertex
100
AcDb2dVertex
 10
3.025128564577372
 20
6.251987711418606
 30
0.0
 70
     8
  0
VERTEX
  5
1556
330
14E6
100
AcDbEntity
  8
image
100
AcDbVertex
100
AcDb2dVertex
 10
3.016451809801688
 20
6.251124783404941
 30
0.0
 70
     8
  0
VERTEX
  5
1557
330
14E6
100
AcDbEntity
  8
image
100
AcDbVertex
100
AcDb2dVertex
 10
3.006870781899216
 20
6.250177240108661
 30
0.0
 70
     8
  0
VERTEX
  5
1558
330
14E6
100
AcDbEntity
  8
image
100
AcDbVertex
100
AcDb2dVertex
 10
2.996244165544806
 20
6.2490996668411
 30
0.0
 70
     8
  0
VERTEX
  5
1559
330
14E6
100
AcDbEntity
  8
image
100
AcDbVertex
100
AcDb2dVertex
 10
2.984621277884999
 20
6.247871146581905
 30
0.0
 70
     8
  0
VERTEX
  5
155A
330
14E6
100
AcDbEntity
  8
image
100
AcDbVertex
100
AcDb2dVertex
 10
2.972099094184255
 20
6.246476886727799
 30
0.0
 70
     8
  0
VERTEX
  5
155B
330
14E6
100
AcDbEntity
  8
image
100
AcDbVertex
100
AcDb2dVertex
 10
2.958774589707036
 20
6.244902094675504
 30
0.0
 70
     8
  0
VERTEX
  5
155C
330
14E6
100
AcDbEntity
  8
image
100
AcDbVertex
100
AcDb2dVertex
 10
2.944744739717804
 20
6.243131977821745
 30
0.0
 70
     8
  0
VERTEX
  5
155D
330
14E6
100
AcDbEntity
  8
image
100
AcDbVertex
100
AcDb2dVertex
 10
2.930106519481019
 20
6.241151743563245
 30
0.0
 70
     8
  0
VERTEX
  5
155E
330
14E6
100
AcDbEntity
  8
image
100
AcDbVertex
100
AcDb2dVertex
 10
2.914956904261144
 20
6.238946599296728
 30
0.0
 70
     8
  0
VERTEX
  5
155F
330
14E6
100
AcDbEntity
  8
image
100
AcDbVertex
100
AcDb2dVertex
 10
2.899392869322639
 20
6.236501752418916
 30
0.0
 70
     8
  0
VERTEX
  5
1560
330
14E6
100
AcDbEntity
  8
image
100
AcDbVertex
100
AcDb2dVertex
 10
2.88350387827684
 20
6.233803125348967
 30
0.0
 70
     8
  0
VERTEX
  5
1561
330
14E6
100
AcDbEntity
  8
image
100
AcDbVertex
100
AcDb2dVertex
 10
2.867349348122573
 20
6.230839500595781
 30
0.0
 70
     8
  0
VERTEX
  5
1562
330
14E6
100
AcDbEntity
  8
image
100
AcDbVertex
100
AcDb2dVertex
 10
2.850981184205538
 20
6.227600375690688
 30
0.0
 70
     8
  0
VERTEX
  5
1563
330
14E6
100
AcDbEntity
  8
image
100
AcDbVertex
100
AcDb2dVertex
 10
2.834451291871437
 20
6.224075248165019
 30
0.0
 70
     8
  0
VERTEX
  5
1564
330
14E6
100
AcDbEntity
  8
image
100
AcDbVertex
100
AcDb2dVertex
 10
2.817811576465969
 20
6.220253615550108
 30
0.0
 70
     8
  0
VERTEX
  5
1565
330
14E6
100
AcDbEntity
  8
image
100
AcDbVertex
100
AcDb2dVertex
 10
2.801113943334834
 20
6.216124975377286
 30
0.0
 70
     8
  0
VERTEX
  5
1566
330
14E6
100
AcDbEntity
  8
image
100
AcDbVertex
100
AcDb2dVertex
 10
2.784410297823733
 20
6.211678825177886
 30
0.0
 70
     8
  0
VERTEX
  5
1567
330
14E6
100
AcDbEntity
  8
image
100
AcDbVertex
100
AcDb2dVertex
 10
2.767752545278366
 20
6.206904662483238
 30
0.0
 70
     8
  0
VERTEX
  5
1568
330
14E6
100
AcDbEntity
  8
image
100
AcDbVertex
100
AcDb2dVertex
 10
2.751176976732682
 20
6.201771823868228
 30
0.0
 70
     8
  0
VERTEX
  5
1569
330
14E6
100
AcDbEntity
  8
image
100
AcDbVertex
100
AcDb2dVertex
 10
2.734657425973631
 20
6.196169002081951
 30
0.0
 70
     8
  0
VERTEX
  5
156A
330
14E6
100
AcDbEntity
  8
image
100
AcDbVertex
100
AcDb2dVertex
 10
2.718152112476408
 20
6.189964728917055
 30
0.0
 70
     8
  0
VERTEX
  5
156B
330
14E6
100
AcDbEntity
  8
image
100
AcDbVertex
100
AcDb2dVertex
 10
2.701619255716212
 20
6.183027536166188
 30
0.0
 70
     8
  0
VERTEX
  5
156C
330
14E6
100
AcDbEntity
  8
image
100
AcDbVertex
100
AcDb2dVertex
 10
2.685017075168239
 20
6.175225955621997
 30
0.0
 70
     8
  0
VERTEX
  5
156D
330
14E6
100
AcDbEntity
  8
image
100
AcDbVertex
100
AcDb2dVertex
 10
2.668303790307687
 20
6.166428519077132
 30
0.0
 70
     8
  0
VERTEX
  5
156E
330
14E6
100
AcDbEntity
  8
image
100
AcDbVertex
100
AcDb2dVertex
 10
2.651437620609753
 20
6.156503758324238
 30
0.0
 70
     8
  0
VERTEX
  5
156F
330
14E6
100
AcDbEntity
  8
image
100
AcDbVertex
100
AcDb2dVertex
 10
2.634376785549634
 20
6.145320205155964
 30
0.0
 70
     8
  0
VERTEX
  5
1570
330
14E6
100
AcDbEntity
  8
image
100
AcDbVertex
100
AcDb2dVertex
 10
2.617126309384546
 20
6.132694853588488
 30
0.0
 70
     8
  0
VERTEX
  5
1571
330
14E6
100
AcDbEntity
  8
image
100
AcDbVertex
100
AcDb2dVertex
 10
2.599878435499774
 20
6.118238546532104
 30
0.0
 70
     8
  0
VERTEX
  5
1572
330
14E6
100
AcDbEntity
  8
image
100
AcDbVertex
100
AcDb2dVertex
 10
2.582872212062623
 20
6.101510589120634
 30
0.0
 70
     8
  0
VERTEX
  5
1573
330
14E6
100
AcDbEntity
  8
image
100
AcDbVertex
100
AcDb2dVertex
 10
2.566346687240395
 20
6.0820702864879
 30
0.0
 70
     8
  0
VERTEX
  5
1574
330
14E6
100
AcDbEntity
  8
image
100
AcDbVertex
100
AcDb2dVertex
 10
2.550540909200396
 20
6.059476943767728
 30
0.0
 70
     8
  0
VERTEX
  5
1575
330
14E6
100
AcDbEntity
  8
image
100
AcDbVertex
100
AcDb2dVertex
 10
2.535693926109928
 20
6.033289866093939
 30
0.0
 70
     8
  0
VERTEX
  5
1576
330
14E6
100
AcDbEntity
  8
image
100
AcDbVertex
100
AcDb2dVertex
 10
2.522044786136296
 20
6.003068358600356
 30
0.0
 70
     8
  0
VERTEX
  5
1577
330
14E6
100
AcDbEntity
  8
image
100
AcDbVertex
100
AcDb2dVertex
 10
2.509832537446802
 20
5.968371726420803
 30
0.0
 70
     8
  0
VERTEX
  5
152C
330
14E6
100
AcDbEntity
  8
image
100
AcDbVertex
100
AcDb2dVertex
 10
3.153112499046175
 20
6.263229227321984
 30
0.0
 70
    16
  0
VERTEX
  5
152D
330
14E6
100
AcDbEntity
  8
image
100
AcDbVertex
100
AcDb2dVertex
 10
3.140348408031734
 20
6.275760670283443
 30
0.0
 70
    16
  0
VERTEX
  5
152E
330
14E6
100
AcDbEntity
  8
image
100
AcDbVertex
100
AcDb2dVertex
 10
3.136889410371949
 20
6.276702304247153
 30
0.0
 70
    16
  0
VERTEX
  5
152F
330
14E6
100
AcDbEntity
  8
image
100
AcDbVertex
100
AcDb2dVertex
 10
3.064317433317336
 20
6.255328858273029
 30
0.0
 70
    16
  0
VERTEX
  5
1530
330
14E6
100
AcDbEntity
  8
image
100
AcDbVertex
100
AcDb2dVertex
 10
3.018532078644382
 20
6.251629553584484
 30
0.0
 70
    16
  0
VERTEX
  5
1531
330
14E6
100
AcDbEntity
  8
image
100
AcDbVertex
100
AcDb2dVertex
 10
2.902778943500431
 20
6.239216368041003
 30
0.0
 70
    16
  0
VERTEX
  5
1532
330
14E6
100
AcDbEntity
  8
image
100
AcDbVertex
100
AcDb2dVertex
 10
2.766709363289733
 20
6.210515488764997
 30
0.0
 70
    16
  0
VERTEX
  5
1533
330
14E6
100
AcDbEntity
  8
image
100
AcDbVertex
100
AcDb2dVertex
 10
2.636898875010832
 20
6.160149651798437
 30
0.0
 70
    16
  0
VERTEX
  5
1534
330
14E6
100
AcDbEntity
  8
image
100
AcDbVertex
100
AcDb2dVertex
 10
2.540270191646773
 20
6.067254640584174
 30
0.0
 70
    16
  0
VERTEX
  5
1535
330
14E6
100
AcDbEntity
  8
image
100
AcDbVertex
100
AcDb2dVertex
 10
2.509832537446802
 20
5.968371726420803
 30
0.0
 70
    16
  0
SEQEND
  5
1536
330
14E6
100
AcDbEntity
  8
image
  0
LWPOLYLINE
  5
1578
330
10C1
100
AcDbEntity
  8
image
100
AcDbPolyline
 90
        2
 70
     0
 43
0.0
 10
2.621692146741772
 20
2.924724995489979
 10
2.269183374285539
 20
2.341291494088141
  0
LWPOLYLINE
  5
1579
330
10C1
100
AcDbEntity
  8
image
100
AcDbPolyline
 90
        2
 70
     0
 43
0.0
 10
2.456879266251498
 20
2.651944958639969
 10
2.07046758924419
 20
2.651944958639969
  0
LWPOLYLINE
  5
157A
330
10C1
100
AcDbEntity
  8
image
100
AcDbPolyline
 90
        2
 70
     0
 43
0.0
 10
1.825915814404273
 20
2.341291494088141
 10
1.728919209002527
 20
2.697780948438536
  0
LWPOLYLINE
  5
157B
330
10C1
100
AcDbEntity
  8
image
100
AcDbPolyline
 90
        2
 70
     0
 43
0.0
 10
2.424489694528805
 20
2.697780948438536
 10
2.07046758924419
 20
2.697780948438536
  0
LWPOLYLINE
  5
157C
330
10C1
100
AcDbEntity
  8
image
100
AcDbPolyline
 90
        2
 70
     0
 43
0.0
 10
2.024631599445622
 20
2.697780948438536
 10
1.728919209002527
 20
2.697780948438536
  0
LWPOLYLINE
  5
157D
330
10C1
100
AcDbEntity
  8
image
100
AcDbPolyline
 90
        2
 70
     0
 43
0.0
 10
2.024631599445622
 20
2.651944958639969
 10
1.741390645005569
 20
2.651944958639969
  0
LWPOLYLINE
  5
157E
330
10C1
100
AcDbEntity
  8
image
100
AcDbPolyline
 90
        2
 70
     0
 43
0.0
 10
1.866281920460452
 20
2.651944958639969
 10
1.879856948740391
 20
2.387127483886708
  0
LWPOLYLINE
  5
157F
330
10C1
100
AcDbEntity
  8
image
100
AcDbPolyline
 90
        2
 70
     0
 43
0.0
 10
2.223806632433594
 20
2.554199017270274
 10
2.215242239949421
 20
2.387127483886708
  0
LWPOLYLINE
  5
1580
330
10C1
100
AcDbEntity
  8
image
100
AcDbPolyline
 90
        2
 70
     0
 43
0.0
 10
2.561608607395713
 20
2.924724995489979
 10
2.424489694528805
 20
2.697780948438536
  0
LWPOLYLINE
  5
1581
330
10C1
100
AcDbEntity
  8
image
100
AcDbPolyline
 90
        2
 70
     0
 43
0.0
 10
2.561608607395713
 20
2.924724995489979
 10
2.621692146741772
 20
2.924724995489979
  0
LWPOLYLINE
  5
1582
330
10C1
100
AcDbEntity
  8
image
100
AcDbPolyline
 90
        2
 70
     0
 43
0.0
 10
2.343056603865473
 20
2.874732537047561
 10
2.321848687651686
 20
2.839631541608979
  0
LWPOLYLINE
  5
1583
330
10C1
100
AcDbEntity
  8
image
100
AcDbPolyline
 90
        2
 70
     0
 43
0.0
 10
2.398225141319597
 20
2.842877227005557
 10
2.376363321752407
 20
2.806693963116189
  0
LWPOLYLINE
  5
1584
330
10C1
100
AcDbEntity
  8
image
100
AcDbPolyline
 90
        2
 70
     0
 43
0.0
 10
2.234422397890759
 20
2.761288103419285
 10
2.321848687651686
 20
2.839631541608978
  0
LWPOLYLINE
  5
1585
330
10C1
100
AcDbEntity
  8
image
100
AcDbPolyline
 90
        2
 70
     0
 43
0.0
 10
2.357676221400792
 20
2.697780948438536
 10
2.376363321752407
 20
2.806693963116189
  0
LWPOLYLINE
  5
1586
330
10C1
100
AcDbEntity
  8
image
100
AcDbPolyline
 90
        2
 70
     0
 43
0.0
 10
2.282864437174017
 20
2.651944958639968
 10
2.223806632433594
 20
2.554199017270268
  0
LWPOLYLINE
  5
1587
330
10C1
100
AcDbEntity
  8
image
100
AcDbPolyline
 90
        2
 70
     0
 43
0.0
 10
2.299133093464278
 20
3.204579161194162
 10
2.251620177209665
 20
3.154271367512808
  0
LWPOLYLINE
  5
1588
330
10C1
100
AcDbEntity
  8
image
100
AcDbPolyline
 90
        2
 70
     0
 43
0.0
 10
1.795809568287576
 20
3.204579161194162
 10
1.84332248454219
 20
3.154271367512808
  0
LWPOLYLINE
  5
1589
330
10C1
100
AcDbEntity
  8
image
100
AcDbPolyline
 90
        2
 70
     0
 43
0.0
 10
2.282241034722248
 20
3.204579161194161
 10
2.234728118467635
 20
3.154271367512807
  0
LWPOLYLINE
  5
158A
330
10C1
100
AcDbEntity
  8
image
100
AcDbPolyline
 90
        2
 70
     0
 43
0.0
 10
1.812701627029605
 20
3.204579161194161
 10
1.860214543284218
 20
3.154271367512807
  0
POLYLINE
  5
1608
330
10C1
100
AcDbEntity
  8
image
100
AcDb2dPolyline
 66
     1
 10
0.0
 20
0.0
 30
0.0
 70
     4
 75
     6
  0
VERTEX
  5
160A
330
1608
100
AcDbEntity
  8
image
100
AcDbVertex
100
AcDb2dVertex
 10
2.404141058914288
 20
2.839461269326443
 30
0.0
 70
    16
  0
VERTEX
  5
1626
330
1608
100
AcDbEntity
  8
image
100
AcDbVertex
100
AcDb2dVertex
 10
2.404141058914288
 20
2.839461269326443
 30
0.0
 70
     8
  0
VERTEX
  5
1627
330
1608
100
AcDbEntity
  8
image
100
AcDbVertex
100
AcDb2dVertex
 10
2.407034200016974
 20
2.843440007658649
 30
0.0
 70
     8
  0
VERTEX
  5
1628
330
1608
100
AcDbEntity
  8
image
100
AcDbVertex
100
AcDb2dVertex
 10
2.40949843043303
 20
2.846566388859754
 30
0.0
 70
     8
  0
VERTEX
  5
1629
330
1608
100
AcDbEntity
  8
image
100
AcDbVertex
100
AcDb2dVertex
 10
2.41159894464435
 20
2.848954831923332
 30
0.0
 70
     8
  0
VERTEX
  5
162A
330
1608
100
AcDbEntity
  8
image
100
AcDbVertex
100
AcDb2dVertex
 10
2.413400937132831
 20
2.850719755842958
 30
0.0
 70
     8
  0
VERTEX
  5
162B
330
1608
100
AcDbEntity
  8
image
100
AcDbVertex
100
AcDb2dVertex
 10
2.414969602380371
 20
2.851975579612205
 30
0.0
 70
     8
  0
VERTEX
  5
162C
330
1608
100
AcDbEntity
  8
image
100
AcDbVertex
100
AcDb2dVertex
 10
2.416370134868866
 20
2.852836722224648
 30
0.0
 70
     8
  0
VERTEX
  5
162D
330
1608
100
AcDbEntity
  8
image
100
AcDbVertex
100
AcDb2dVertex
 10
2.417667729080211
 20
2.85341760267386
 30
0.0
 70
     8
  0
VERTEX
  5
162E
330
1608
100
AcDbEntity
  8
image
100
AcDbVertex
100
AcDb2dVertex
 10
2.418927579496304
 20
2.853832639953415
 30
0.0
 70
     8
  0
VERTEX
  5
162F
330
1608
100
AcDbEntity
  8
image
100
AcDbVertex
100
AcDb2dVertex
 10
2.420200869498334
 20
2.854178397402076
 30
0.0
 70
     8
  0
VERTEX
  5
1630
330
1608
100
AcDbEntity
  8
image
100
AcDbVertex
100
AcDb2dVertex
 10
2.42148273806466
 20
2.854480015739361
 30
0.0
 70
     8
  0
VERTEX
  5
1631
330
1608
100
AcDbEntity
  8
image
100
AcDbVertex
100
AcDb2dVertex
 10
2.422754313072936
 20
2.854744780029976
 30
0.0
 70
     8
  0
VERTEX
  5
1632
330
1608
100
AcDbEntity
  8
image
100
AcDbVertex
100
AcDb2dVertex
 10
2.423996722400815
 20
2.854979975338628
 30
0.0
 70
     8
  0
VERTEX
  5
1633
330
1608
100
AcDbEntity
  8
image
100
AcDbVertex
100
AcDb2dVertex
 10
2.42519109392595
 20
2.855192886730022
 30
0.0
 70
     8
  0
VERTEX
  5
1634
330
1608
100
AcDbEntity
  8
image
100
AcDbVertex
100
AcDb2dVertex
 10
2.426318555525995
 20
2.855390799268866
 30
0.0
 70
     8
  0
VERTEX
  5
1635
330
1608
100
AcDbEntity
  8
image
100
AcDbVertex
100
AcDb2dVertex
 10
2.427360235078601
 20
2.855580998019865
 30
0.0
 70
     8
  0
VERTEX
  5
1636
330
1608
100
AcDbEntity
  8
image
100
AcDbVertex
100
AcDb2dVertex
 10
2.428297260461422
 20
2.855770768047726
 30
0.0
 70
     8
  0
VERTEX
  5
1637
330
1608
100
AcDbEntity
  8
image
100
AcDbVertex
100
AcDb2dVertex
 10
2.429116335397929
 20
2.855966894475582
 30
0.0
 70
     8
  0
VERTEX
  5
1638
330
1608
100
AcDbEntity
  8
image
100
AcDbVertex
100
AcDb2dVertex
 10
2.429826466994863
 20
2.856174162660277
 30
0.0
 70
     8
  0
VERTEX
  5
1639
330
1608
100
AcDbEntity
  8
image
100
AcDbVertex
100
AcDb2dVertex
 10
2.430442238204783
 20
2.856396858017081
 30
0.0
 70
     8
  0
VERTEX
  5
163A
330
1608
100
AcDbEntity
  8
image
100
AcDbVertex
100
AcDb2dVertex
 10
2.430978231980247
 20
2.856639265961264
 30
0.0
 70
     8
  0
VERTEX
  5
163B
330
1608
100
AcDbEntity
  8
image
100
AcDbVertex
100
AcDb2dVertex
 10
2.431449031273815
 20
2.856905671908096
 30
0.0
 70
     8
  0
VERTEX
  5
163C
330
1608
100
AcDbEntity
  8
image
100
AcDbVertex
100
AcDb2dVertex
 10
2.431869219038045
 20
2.857200361272847
 30
0.0
 70
     8
  0
VERTEX
  5
163D
330
1608
100
AcDbEntity
  8
image
100
AcDbVertex
100
AcDb2dVertex
 10
2.432253378225497
 20
2.857527619470789
 30
0.0
 70
     8
  0
VERTEX
  5
163E
330
1608
100
AcDbEntity
  8
image
100
AcDbVertex
100
AcDb2dVertex
 10
2.432616091788728
 20
2.85789173191719
 30
0.0
 70
     8
  0
VERTEX
  5
163F
330
1608
100
AcDbEntity
  8
image
100
AcDbVertex
100
AcDb2dVertex
 10
2.432974348690124
 20
2.858317076453316
 30
0.0
 70
     8
  0
VERTEX
  5
1640
330
1608
100
AcDbEntity
  8
image
100
AcDbVertex
100
AcDb2dVertex
 10
2.433354761931363
 20
2.858908400624408
 30
0.0
 70
     8
  0
VERTEX
  5
1641
330
1608
100
AcDbEntity
  8
image
100
AcDbVertex
100
AcDb2dVertex
 10
2.433786350523951
 20
2.859790544401702
 30
0.0
 70
     8
  0
VERTEX
  5
1642
330
1608
100
AcDbEntity
  8
image
100
AcDbVertex
100
AcDb2dVertex
 10
2.434298133479395
 20
2.861088347756435
 30
0.0
 70
     8
  0
VERTEX
  5
1643
330
1608
100
AcDbEntity
  8
image
100
AcDbVertex
100
AcDb2dVertex
 10
2.434919129809197
 20
2.862926650659842
 30
0.0
 70
     8
  0
VERTEX
  5
1644
330
1608
100
AcDbEntity
  8
image
100
AcDbVertex
100
AcDb2dVertex
 10
2.435678358524865
 20
2.865430293083159
 30
0.0
 70
     8
  0
VERTEX
  5
1645
330
1608
100
AcDbEntity
  8
image
100
AcDbVertex
100
AcDb2dVertex
 10
2.436604838637904
 20
2.868724114997623
 30
0.0
 70
     8
  0
VERTEX
  5
1646
330
1608
100
AcDbEntity
  8
image
100
AcDbVertex
100
AcDb2dVertex
 10
2.437727589159817
 20
2.872932956374469
 30
0.0
 70
     8
  0
VERTEX
  5
1647
330
1608
100
AcDbEntity
  8
image
100
AcDbVertex
100
AcDb2dVertex
 10
2.439078314964791
 20
2.878142385246758
 30
0.0
 70
     8
  0
VERTEX
  5
1648
330
1608
100
AcDbEntity
  8
image
100
AcDbVertex
100
AcDb2dVertex
 10
2.440699464377737
 20
2.88428088189485
 30
0.0
 70
     8
  0
VERTEX
  5
1649
330
1608
100
AcDbEntity
  8
image
100
AcDbVertex
100
AcDb2dVertex
 10
2.442636171586245
 20
2.891237654660927
 30
0.0
 70
     8
  0
VERTEX
  5
164A
330
1608
100
AcDbEntity
  8
image
100
AcDbVertex
100
AcDb2dVertex
 10
2.444933570777904
 20
2.898901911887175
 30
0.0
 70
     8
  0
VERTEX
  5
164B
330
1608
100
AcDbEntity
  8
image
100
AcDbVertex
100
AcDb2dVertex
 10
2.447636796140306
 20
2.907162861915778
 30
0.0
 70
     8
  0
VERTEX
  5
164C
330
1608
100
AcDbEntity
  8
image
100
AcDbVertex
100
AcDb2dVertex
 10
2.450790981861041
 20
2.915909713088919
 30
0.0
 70
     8
  0
VERTEX
  5
164D
330
1608
100
AcDbEntity
  8
image
100
AcDbVertex
100
AcDb2dVertex
 10
2.4544412621277
 20
2.925031673748782
 30
0.0
 70
     8
  0
VERTEX
  5
164E
330
1608
100
AcDbEntity
  8
image
100
AcDbVertex
100
AcDb2dVertex
 10
2.458632771127873
 20
2.934417952237551
 30
0.0
 70
     8
  0
VERTEX
  5
164F
330
1608
100
AcDbEntity
  8
image
100
AcDbVertex
100
AcDb2dVertex
 10
2.463387017932431
 20
2.943975233705595
 30
0.0
 70
     8
  0
VERTEX
  5
1650
330
1608
100
AcDbEntity
  8
image
100
AcDbVertex
100
AcDb2dVertex
 10
2.46863101114537
 20
2.953680110536022
 30
0.0
 70
     8
  0
VERTEX
  5
1651
330
1608
100
AcDbEntity
  8
image
100
AcDbVertex
100
AcDb2dVertex
 10
2.474268134253964
 20
2.963526651920125
 30
0.0
 70
     8
  0
VERTEX
  5
1652
330
1608
100
AcDbEntity
  8
image
100
AcDbVertex
100
AcDb2dVertex
 10
2.48020177074549
 20
2.973508927049195
 30
0.0
 70
     8
  0
VERTEX
  5
1653
330
1608
100
AcDbEntity
  8
image
100
AcDbVertex
100
AcDb2dVertex
 10
2.486335304107221
 20
2.983621005114526
 30
0.0
 70
     8
  0
VERTEX
  5
1654
330
1608
100
AcDbEntity
  8
image
100
AcDbVertex
100
AcDb2dVertex
 10
2.492572117826435
 20
2.993856955307411
 30
0.0
 70
     8
  0
VERTEX
  5
1655
330
1608
100
AcDbEntity
  8
image
100
AcDbVertex
100
AcDb2dVertex
 10
2.498815595390406
 20
3.004210846819141
 30
0.0
 70
     8
  0
VERTEX
  5
1656
330
1608
100
AcDbEntity
  8
image
100
AcDbVertex
100
AcDb2dVertex
 10
2.504969120286409
 20
3.014676748841009
 30
0.0
 70
     8
  0
VERTEX
  5
1657
330
1608
100
AcDbEntity
  8
image
100
AcDbVertex
100
AcDb2dVertex
 10
2.510951399771304
 20
3.025249077700906
 30
0.0
 70
     8
  0
VERTEX
  5
1658
330
1608
100
AcDbEntity
  8
image
100
AcDbVertex
100
AcDb2dVertex
 10
2.516742436180281
 20
3.035923638273111
 30
0.0
 70
     8
  0
VERTEX
  5
1659
330
1608
100
AcDbEntity
  8
image
100
AcDbVertex
100
AcDb2dVertex
 10
2.522337555618113
 20
3.046696582568501
 30
0.0
 70
     8
  0
VERTEX
  5
165A
330
1608
100
AcDbEntity
  8
image
100
AcDbVertex
100
AcDb2dVertex
 10
2.527732084189573
 20
3.057564062597953
 30
0.0
 70
     8
  0
VERTEX
  5
165B
330
1608
100
AcDbEntity
  8
image
100
AcDbVertex
100
AcDb2dVertex
 10
2.532921347999436
 20
3.068522230372344
 30
0.0
 70
     8
  0
VERTEX
  5
165C
330
1608
100
AcDbEntity
  8
image
100
AcDbVertex
100
AcDb2dVertex
 10
2.537900673152475
 20
3.079567237902551
 30
0.0
 70
     8
  0
VERTEX
  5
165D
330
1608
100
AcDbEntity
  8
image
100
AcDbVertex
100
AcDb2dVertex
 10
2.542665385753463
 20
3.090695237199451
 30
0.0
 70
     8
  0
VERTEX
  5
165E
330
1608
100
AcDbEntity
  8
image
100
AcDbVertex
100
AcDb2dVertex
 10
2.547210811907174
 20
3.101902380273921
 30
0.0
 70
     8
  0
VERTEX
  5
165F
330
1608
100
AcDbEntity
  8
image
100
AcDbVertex
100
AcDb2dVertex
 10
2.55153423741374
 20
3.11318382108722
 30
0.0
 70
     8
  0
VERTEX
  5
1660
330
1608
100
AcDbEntity
  8
image
100
AcDbVertex
100
AcDb2dVertex
 10
2.555640786854732
 20
3.124530721402129
 30
0.0
 70
     8
  0
VERTEX
  5
1661
330
1608
100
AcDbEntity
  8
image
100
AcDbVertex
100
AcDb2dVertex
 10
2.559537544507079
 20
3.135933244931813
 30
0.0
 70
     8
  0
VERTEX
  5
1662
330
1608
100
AcDbEntity
  8
image
100
AcDbVertex
100
AcDb2dVertex
 10
2.563231594647711
 20
3.147381555389436
 30
0.0
 70
     8
  0
VERTEX
  5
1663
330
1608
100
AcDbEntity
  8
image
100
AcDbVertex
100
AcDb2dVertex
 10
2.566730021553557
 20
3.158865816488162
 30
0.0
 70
     8
  0
VERTEX
  5
1664
330
1608
100
AcDbEntity
  8
image
100
AcDbVertex
100
AcDb2dVertex
 10
2.570039909501546
 20
3.170376191941154
 30
0.0
 70
     8
  0
VERTEX
  5
1665
330
1608
100
AcDbEntity
  8
image
100
AcDbVertex
100
AcDb2dVertex
 10
2.573168342768608
 20
3.181902845461576
 30
0.0
 70
     8
  0
VERTEX
  5
1666
330
1608
100
AcDbEntity
  8
image
100
AcDbVertex
100
AcDb2dVertex
 10
2.576122405631673
 20
3.193435940762592
 30
0.0
 70
     8
  0
VERTEX
  5
1667
330
1608
100
AcDbEntity
  8
image
100
AcDbVertex
100
AcDb2dVertex
 10
2.578906854512577
 20
3.204968073285441
 30
0.0
 70
     8
  0
VERTEX
  5
1668
330
1608
100
AcDbEntity
  8
image
100
AcDbVertex
100
AcDb2dVertex
 10
2.581517134412784
 20
3.216501565383654
 30
0.0
 70
     8
  0
VERTEX
  5
1669
330
1608
100
AcDbEntity
  8
image
100
AcDbVertex
100
AcDb2dVertex
 10
2.583946362478666
 20
3.22804117113884
 30
0.0
 70
     8
  0
VERTEX
  5
166A
330
1608
100
AcDbEntity
  8
image
100
AcDbVertex
100
AcDb2dVertex
 10
2.586187655856594
 20
3.239591644632604
 30
0.0
 70
     8
  0
VERTEX
  5
166B
330
1608
100
AcDbEntity
  8
image
100
AcDbVertex
100
AcDb2dVertex
 10
2.588234131692939
 20
3.251157739946554
 30
0.0
 70
     8
  0
VERTEX
  5
166C
330
1608
100
AcDbEntity
  8
image
100
AcDbVertex
100
AcDb2dVertex
 10
2.590078907134072
 20
3.262744211162298
 30
0.0
 70
     8
  0
VERTEX
  5
166D
330
1608
100
AcDbEntity
  8
image
100
AcDbVertex
100
AcDb2dVertex
 10
2.591715099326365
 20
3.274355812361441
 30
0.0
 70
     8
  0
VERTEX
  5
166E
330
1608
100
AcDbEntity
  8
image
100
AcDbVertex
100
AcDb2dVertex
 10
2.593135825416189
 20
3.285997297625592
 30
0.0
 70
     8
  0
VERTEX
  5
166F
330
1608
100
AcDbEntity
  8
image
100
AcDbVertex
100
AcDb2dVertex
 10
2.594336496782807
 20
3.297671494479439
 30
0.0
 70
     8
  0
VERTEX
  5
1670
330
1608
100
AcDbEntity
  8
image
100
AcDbVertex
100
AcDb2dVertex
 10
2.595321701737049
 20
3.309373524220007
 30
0.0
 70
     8
  0
VERTEX
  5
1671
330
1608
100
AcDbEntity
  8
image
100
AcDbVertex
100
AcDb2dVertex
 10
2.596098322822633
 20
3.321096581587399
 30
0.0
 70
     8
  0
VERTEX
  5
1672
330
1608
100
AcDbEntity
  8
image
100
AcDbVertex
100
AcDb2dVertex
 10
2.596673242583281
 20
3.332833861321724
 30
0.0
 70
     8
  0
VERTEX
  5
1673
330
1608
100
AcDbEntity
  8
image
100
AcDbVertex
100
AcDb2dVertex
 10
2.597053343562714
 20
3.344578558163085
 30
0.0
 70
     8
  0
VERTEX
  5
1674
330
1608
100
AcDbEntity
  8
image
100
AcDbVertex
100
AcDb2dVertex
 10
2.597245508304652
 20
3.35632386685159
 30
0.0
 70
     8
  0
VERTEX
  5
1675
330
1608
100
AcDbEntity
  8
image
100
AcDbVertex
100
AcDb2dVertex
 10
2.597256619352815
 20
3.368062982127343
 30
0.0
 70
     8
  0
VERTEX
  5
1676
330
1608
100
AcDbEntity
  8
image
100
AcDbVertex
100
AcDb2dVertex
 10
2.597093559250924
 20
3.379789098730451
 30
0.0
 70
     8
  0
VERTEX
  5
1677
330
1608
100
AcDbEntity
  8
image
100
AcDbVertex
100
AcDb2dVertex
 10
2.596764881722118
 20
3.391492916602738
 30
0.0
 70
     8
  0
VERTEX
  5
1678
330
1608
100
AcDbEntity
  8
image
100
AcDbVertex
100
AcDb2dVertex
 10
2.596285825207205
 20
3.403155156492909
 30
0.0
 70
     8
  0
VERTEX
  5
1679
330
1608
100
AcDbEntity
  8
image
100
AcDbVertex
100
AcDb2dVertex
 10
2.595673299326414
 20
3.414754044351383
 30
0.0
 70
     8
  0
VERTEX
  5
167A
330
1608
100
AcDbEntity
  8
image
100
AcDbVertex
100
AcDb2dVertex
 10
2.594944213699973
 20
3.426267806128584
 30
0.0
 70
     8
  0
VERTEX
  5
167B
330
1608
100
AcDbEntity
  8
image
100
AcDbVertex
100
AcDb2dVertex
 10
2.594115477948109
 20
3.437674667774933
 30
0.0
 70
     8
  0
VERTEX
  5
167C
330
1608
100
AcDbEntity
  8
image
100
AcDbVertex
100
AcDb2dVertex
 10
2.593204001691049
 20
3.448952855240851
 30
0.0
 70
     8
  0
VERTEX
  5
167D
330
1608
100
AcDbEntity
  8
image
100
AcDbVertex
100
AcDb2dVertex
 10
2.592226694549022
 20
3.460080594476762
 30
0.0
 70
     8
  0
VERTEX
  5
167E
330
1608
100
AcDbEntity
  8
image
100
AcDbVertex
100
AcDb2dVertex
 10
2.591200466142255
 20
3.471036111433086
 30
0.0
 70
     8
  0
VERTEX
  5
167F
330
1608
100
AcDbEntity
  8
image
100
AcDbVertex
100
AcDb2dVertex
 10
2.590139688026608
 20
3.481807761731031
 30
0.0
 70
     8
  0
VERTEX
  5
1680
330
1608
100
AcDbEntity
  8
image
100
AcDbVertex
100
AcDb2dVertex
 10
2.589048579500467
 20
3.492424419674943
 30
0.0
 70
     8
  0
VERTEX
  5
1681
330
1608
100
AcDbEntity
  8
image
100
AcDbVertex
100
AcDb2dVertex
 10
2.58792882179785
 20
3.502925089239955
 30
0.0
 70
     8
  0
VERTEX
  5
1682
330
1608
100
AcDbEntity
  8
image
100
AcDbVertex
100
AcDb2dVertex
 10
2.586782096152775
 20
3.513348774401198
 30
0.0
 70
     8
  0
VERTEX
  5
1683
330
1608
100
AcDbEntity
  8
image
100
AcDbVertex
100
AcDb2dVertex
 10
2.58561008379926
 20
3.523734479133803
 30
0.0
 70
     8
  0
VERTEX
  5
1684
330
1608
100
AcDbEntity
  8
image
100
AcDbVertex
100
AcDb2dVertex
 10
2.584414465971323
 20
3.534121207412904
 30
0.0
 70
     8
  0
VERTEX
  5
1685
330
1608
100
AcDbEntity
  8
image
100
AcDbVertex
100
AcDb2dVertex
 10
2.583196923902983
 20
3.544547963213631
 30
0.0
 70
     8
  0
VERTEX
  5
1686
330
1608
100
AcDbEntity
  8
image
100
AcDbVertex
100
AcDb2dVertex
 10
2.581959138828256
 20
3.555053750511116
 30
0.0
 70
     8
  0
VERTEX
  5
1687
330
1608
100
AcDbEntity
  8
image
100
AcDbVertex
100
AcDb2dVertex
 10
2.580702544706904
 20
3.565672171106056
 30
0.0
 70
     8
  0
VERTEX
  5
1688
330
1608
100
AcDbEntity
  8
image
100
AcDbVertex
100
AcDb2dVertex
 10
2.579427586401651
 20
3.576415218101403
 30
0.0
 70
     8
  0
VERTEX
  5
1689
330
1608
100
AcDbEntity
  8
image
100
AcDbVertex
100
AcDb2dVertex
 10
2.578134461500964
 20
3.587289482425675
 30
0.0
 70
     8
  0
VERTEX
  5
168A
330
1608
100
AcDbEntity
  8
image
100
AcDbVertex
100
AcDb2dVertex
 10
2.57682336759331
 20
3.598301555007389
 30
0.0
 70
     8
  0
VERTEX
  5
168B
330
1608
100
AcDbEntity
  8
image
100
AcDbVertex
100
AcDb2dVertex
 10
2.575494502267156
 20
3.609458026775062
 30
0.0
 70
     8
  0
VERTEX
  5
168C
330
1608
100
AcDbEntity
  8
image
100
AcDbVertex
100
AcDb2dVertex
 10
2.57414806311097
 20
3.620765488657211
 30
0.0
 70
     8
  0
VERTEX
  5
168D
330
1608
100
AcDbEntity
  8
image
100
AcDbVertex
100
AcDb2dVertex
 10
2.572784247713217
 20
3.632230531582355
 30
0.0
 70
     8
  0
VERTEX
  5
168E
330
1608
100
AcDbEntity
  8
image
100
AcDbVertex
100
AcDb2dVertex
 10
2.571403253662365
 20
3.64385974647901
 30
0.0
 70
     8
  0
VERTEX
  5
168F
330
1608
100
AcDbEntity
  8
image
100
AcDbVertex
100
AcDb2dVertex
 10
2.570006068681954
 20
3.655652820546432
 30
0.0
 70
     8
  0
VERTEX
  5
1690
330
1608
100
AcDbEntity
  8
image
100
AcDbVertex
100
AcDb2dVertex
 10
2.568596841035811
 20
3.667581826066828
 30
0.0
 70
     8
  0
VERTEX
  5
1691
330
1608
100
AcDbEntity
  8
image
100
AcDbVertex
100
AcDb2dVertex
 10
2.567180509122836
 20
3.679611931593145
 30
0.0
 70
     8
  0
VERTEX
  5
1692
330
1608
100
AcDbEntity
  8
image
100
AcDbVertex
100
AcDb2dVertex
 10
2.565762011341929
 20
3.69170830567833
 30
0.0
 70
     8
  0
VERTEX
  5
1693
330
1608
100
AcDbEntity
  8
image
100
AcDbVertex
100
AcDb2dVertex
 10
2.564346286091992
 20
3.703836116875329
 30
0.0
 70
     8
  0
VERTEX
  5
1694
330
1608
100
AcDbEntity
  8
image
100
AcDbVertex
100
AcDb2dVertex
 10
2.562938271771924
 20
3.715960533737089
 30
0.0
 70
     8
  0
VERTEX
  5
1695
330
1608
100
AcDbEntity
  8
image
100
AcDbVertex
100
AcDb2dVertex
 10
2.561542906780625
 20
3.728046724816554
 30
0.0
 70
     8
  0
VERTEX
  5
1696
330
1608
100
AcDbEntity
  8
image
100
AcDbVertex
100
AcDb2dVertex
 10
2.560165129516996
 20
3.740059858666673
 30
0.0
 70
     8
  0
VERTEX
  5
1697
330
1608
100
AcDbEntity
  8
image
100
AcDbVertex
100
AcDb2dVertex
 10
2.558808918063758
 20
3.751974163860561
 30
0.0
 70
     8
  0
VERTEX
  5
1698
330
1608
100
AcDbEntity
  8
image
100
AcDbVertex
100
AcDb2dVertex
 10
2.557474409238924
 20
3.763800109052013
 30
0.0
 70
     8
  0
VERTEX
  5
1699
330
1608
100
AcDbEntity
  8
image
100
AcDbVertex
100
AcDb2dVertex
 10
2.556160779544325
 20
3.775557222914995
 30
0.0
 70
     8
  0
VERTEX
  5
169A
330
1608
100
AcDbEntity
  8
image
100
AcDbVertex
100
AcDb2dVertex
 10
2.554867205481794
 20
3.787265034123472
 30
0.0
 70
     8
  0
VERTEX
  5
169B
330
1608
100
AcDbEntity
  8
image
100
AcDbVertex
100
AcDb2dVertex
 10
2.553592863553165
 20
3.798943071351408
 30
0.0
 70
     8
  0
VERTEX
  5
169C
330
1608
100
AcDbEntity
  8
image
100
AcDbVertex
100
AcDb2dVertex
 10
2.552336930260271
 20
3.810610863272769
 30
0.0
 70
     8
  0
VERTEX
  5
169D
330
1608
100
AcDbEntity
  8
image
100
AcDbVertex
100
AcDb2dVertex
 10
2.551098582104945
 20
3.822287938561519
 30
0.0
 70
     8
  0
VERTEX
  5
169E
330
1608
100
AcDbEntity
  8
image
100
AcDbVertex
100
AcDb2dVertex
 10
2.549876995589018
 20
3.833993825891625
 30
0.0
 70
     8
  0
VERTEX
  5
169F
330
1608
100
AcDbEntity
  8
image
100
AcDbVertex
100
AcDb2dVertex
 10
2.548672186737213
 20
3.845743142942931
 30
0.0
 70
     8
  0
VERTEX
  5
16A0
330
1608
100
AcDbEntity
  8
image
100
AcDbVertex
100
AcDb2dVertex
 10
2.547487529665801
 20
3.857530863418801
 30
0.0
 70
     8
  0
VERTEX
  5
16A1
330
1608
100
AcDbEntity
  8
image
100
AcDbVertex
100
AcDb2dVertex
 10
2.546327238013941
 20
3.869347050028482
 30
0.0
 70
     8
  0
VERTEX
  5
16A2
330
1608
100
AcDbEntity
  8
image
100
AcDbVertex
100
AcDb2dVertex
 10
2.545195525420795
 20
3.881181765481216
 30
0.0
 70
     8
  0
VERTEX
  5
16A3
330
1608
100
AcDbEntity
  8
image
100
AcDbVertex
100
AcDb2dVertex
 10
2.544096605525521
 20
3.893025072486249
 30
0.0
 70
     8
  0
VERTEX
  5
16A4
330
1608
100
AcDbEntity
  8
image
100
AcDbVertex
100
AcDb2dVertex
 10
2.543034691967279
 20
3.904867033752826
 30
0.0
 70
     8
  0
VERTEX
  5
16A5
330
1608
100
AcDbEntity
  8
image
100
AcDbVertex
100
AcDb2dVertex
 10
2.542013998385229
 20
3.916697711990192
 30
0.0
 70
     8
  0
VERTEX
  5
16A6
330
1608
100
AcDbEntity
  8
image
100
AcDbVertex
100
AcDb2dVertex
 10
2.541038738418532
 20
3.928507169907591
 30
0.0
 70
     8
  0
VERTEX
  5
16A7
330
1608
100
AcDbEntity
  8
image
100
AcDbVertex
100
AcDb2dVertex
 10
2.540113421471821
 20
3.94028953352752
 30
0.0
 70
     8
  0
VERTEX
  5
16A8
330
1608
100
AcDbEntity
  8
image
100
AcDbVertex
100
AcDb2dVertex
 10
2.539243740011634
 20
3.952055182125488
 30
0.0
 70
     8
  0
VERTEX
  5
16A9
330
1608
100
AcDbEntity
  8
image
100
AcDbVertex
100
AcDb2dVertex
 10
2.538435682269982
 20
3.963818558290255
 30
0.0
 70
     8
  0
VERTEX
  5
16AA
330
1608
100
AcDbEntity
  8
image
100
AcDbVertex
100
AcDb2dVertex
 10
2.537695236478876
 20
3.975594104610581
 30
0.0
 70
     8
  0
VERTEX
  5
16AB
330
1608
100
AcDbEntity
  8
image
100
AcDbVertex
100
AcDb2dVertex
 10
2.537028390870329
 20
3.987396263675227
 30
0.0
 70
     8
  0
VERTEX
  5
16AC
330
1608
100
AcDbEntity
  8
image
100
AcDbVertex
100
AcDb2dVertex
 10
2.536441133676352
 20
3.999239478072954
 30
0.0
 70
     8
  0
VERTEX
  5
16AD
330
1608
100
AcDbEntity
  8
image
100
AcDbVertex
100
AcDb2dVertex
 10
2.535939453128957
 20
4.011138190392522
 30
0.0
 70
     8
  0
VERTEX
  5
16AE
330
1608
100
AcDbEntity
  8
image
100
AcDbVertex
100
AcDb2dVertex
 10
2.535529337460156
 20
4.023106843222692
 30
0.0
 70
     8
  0
VERTEX
  5
16AF
330
1608
100
AcDbEntity
  8
image
100
AcDbVertex
100
AcDb2dVertex
 10
2.535215598008383
 20
4.035154515744166
 30
0.0
 70
     8
  0
VERTEX
  5
16B0
330
1608
100
AcDbEntity
  8
image
100
AcDbVertex
100
AcDb2dVertex
 10
2.534998338537772
 20
4.047268833505411
 30
0.0
 70
     8
  0
VERTEX
  5
16B1
330
1608
100
AcDbEntity
  8
image
100
AcDbVertex
100
AcDb2dVertex
 10
2.534876485918877
 20
4.059432058646836
 30
0.0
 70
     8
  0
VERTEX
  5
16B2
330
1608
100
AcDbEntity
  8
image
100
AcDbVertex
100
AcDb2dVertex
 10
2.534848967022254
 20
4.071626453308851
 30
0.0
 70
     8
  0
VERTEX
  5
16B3
330
1608
100
AcDbEntity
  8
image
100
AcDbVertex
100
AcDb2dVertex
 10
2.53491470871846
 20
4.083834279631863
 30
0.0
 70
     8
  0
VERTEX
  5
16B4
330
1608
100
AcDbEntity
  8
image
100
AcDbVertex
100
AcDb2dVertex
 10
2.535072637878048
 20
4.096037799756283
 30
0.0
 70
     8
  0
VERTEX
  5
16B5
330
1608
100
AcDbEntity
  8
image
100
AcDbVertex
100
AcDb2dVertex
 10
2.535321681371576
 20
4.108219275822519
 30
0.0
 70
     8
  0
VERTEX
  5
16B6
330
1608
100
AcDbEntity
  8
image
100
AcDbVertex
100
AcDb2dVertex
 10
2.535660766069598
 20
4.120360969970981
 30
0.0
 70
     8
  0
VERTEX
  5
16B7
330
1608
100
AcDbEntity
  8
image
100
AcDbVertex
100
AcDb2dVertex
 10
2.536088015261803
 20
4.132449625268265
 30
0.0
 70
     8
  0
VERTEX
  5
16B8
330
1608
100
AcDbEntity
  8
image
100
AcDbVertex
100
AcDb2dVertex
 10
2.536598337914406
 20
4.144489908485726
 30
0.0
 70
     8
  0
VERTEX
  5
16B9
330
1608
100
AcDbEntity
  8
image
100
AcDbVertex
100
AcDb2dVertex
 10
2.537185839412756
 20
4.156490967320903
 30
0.0
 70
     8
  0
VERTEX
  5
16BA
330
1608
100
AcDbEntity
  8
image
100
AcDbVertex
100
AcDb2dVertex
 10
2.5378446251422
 20
4.168461949471337
 30
0.0
 70
     8
  0
VERTEX
  5
16BB
330
1608
100
AcDbEntity
  8
image
100
AcDbVertex
100
AcDb2dVertex
 10
2.538568800488087
 20
4.180412002634571
 30
0.0
 70
     8
  0
VERTEX
  5
16BC
330
1608
100
AcDbEntity
  8
image
100
AcDbVertex
100
AcDb2dVertex
 10
2.539352470835766
 20
4.192350274508145
 30
0.0
 70
     8
  0
VERTEX
  5
16BD
330
1608
100
AcDbEntity
  8
image
100
AcDbVertex
100
AcDb2dVertex
 10
2.540189741570583
 20
4.204285912789599
 30
0.0
 70
     8
  0
VERTEX
  5
16BE
330
1608
100
AcDbEntity
  8
image
100
AcDbVertex
100
AcDb2dVertex
 10
2.541074718077887
 20
4.216228065176477
 30
0.0
 70
     8
  0
VERTEX
  5
16BF
330
1608
100
AcDbEntity
  8
image
100
AcDbVertex
100
AcDb2dVertex
 10
2.542001205034458
 20
4.228180297443526
 30
0.0
 70
     8
  0
VERTEX
  5
16C0
330
1608
100
AcDbEntity
  8
image
100
AcDbVertex
100
AcDb2dVertex
 10
2.542961804282803
 20
4.24012384767433
 30
0.0
 70
     8
  0
VERTEX
  5
16C1
330
1608
100
AcDbEntity
  8
image
100
AcDbVertex
100
AcDb2dVertex
 10
2.54394881695686
 20
4.25203437202968
 30
0.0
 70
     8
  0
VERTEX
  5
16C2
330
1608
100
AcDbEntity
  8
image
100
AcDbVertex
100
AcDb2dVertex
 10
2.544954544190567
 20
4.263887526670367
 30
0.0
 70
     8
  0
VERTEX
  5
16C3
330
1608
100
AcDbEntity
  8
image
100
AcDbVertex
100
AcDb2dVertex
 10
2.545971287117864
 20
4.275658967757181
 30
0.0
 70
     8
  0
VERTEX
  5
16C4
330
1608
100
AcDbEntity
  8
image
100
AcDbVertex
100
AcDb2dVertex
 10
2.546991346872689
 20
4.287324351450915
 30
0.0
 70
     8
  0
VERTEX
  5
16C5
330
1608
100
AcDbEntity
  8
image
100
AcDbVertex
100
AcDb2dVertex
 10
2.548007024588979
 20
4.298859333912359
 30
0.0
 70
     8
  0
VERTEX
  5
16C6
330
1608
100
AcDbEntity
  8
image
100
AcDbVertex
100
AcDb2dVertex
 10
2.549010621400675
 20
4.310239571302304
 30
0.0
 70
     8
  0
VERTEX
  5
16C7
330
1608
100
AcDbEntity
  8
image
100
AcDbVertex
100
AcDb2dVertex
 10
2.549995765355428
 20
4.321446794896624
 30
0.0
 70
     8
  0
VERTEX
  5
16C8
330
1608
100
AcDbEntity
  8
image
100
AcDbVertex
100
AcDb2dVertex
 10
2.550961392155742
 20
4.332487036431529
 30
0.0
 70
     8
  0
VERTEX
  5
16C9
330
1608
100
AcDbEntity
  8
image
100
AcDbVertex
100
AcDb2dVertex
 10
2.551907764417836
 20
4.343372402758307
 30
0.0
 70
     8
  0
VERTEX
  5
16CA
330
1608
100
AcDbEntity
  8
image
100
AcDbVertex
100
AcDb2dVertex
 10
2.55283514475793
 20
4.35411500072825
 30
0.0
 70
     8
  0
VERTEX
  5
16CB
330
1608
100
AcDbEntity
  8
image
100
AcDbVertex
100
AcDb2dVertex
 10
2.553743795792239
 20
4.364726937192649
 30
0.0
 70
     8
  0
VERTEX
  5
16CC
330
1608
100
AcDbEntity
  8
image
100
AcDbVertex
100
AcDb2dVertex
 10
2.554633980136984
 20
4.375220319002796
 30
0.0
 70
     8
  0
VERTEX
  5
16CD
330
1608
100
AcDbEntity
  8
image
100
AcDbVertex
100
AcDb2dVertex
 10
2.555505960408384
 20
4.38560725300998
 30
0.0
 70
     8
  0
VERTEX
  5
16CE
330
1608
100
AcDbEntity
  8
image
100
AcDbVertex
100
AcDb2dVertex
 10
2.556359999222654
 20
4.395899846065493
 30
0.0
 70
     8
  0
VERTEX
  5
16CF
330
1608
100
AcDbEntity
  8
image
100
AcDbVertex
100
AcDb2dVertex
 10
2.557197200622835
 20
4.406131401550202
 30
0.0
 70
     8
  0
VERTEX
  5
16D0
330
1608
100
AcDbEntity
  8
image
100
AcDbVertex
100
AcDb2dVertex
 10
2.558022034359239
 20
4.416420008963276
 30
0.0
 70
     8
  0
VERTEX
  5
16D1
330
1608
100
AcDbEntity
  8
image
100
AcDbVertex
100
AcDb2dVertex
 10
2.558839811609002
 20
4.426904954333465
 30
0.0
 70
     8
  0
VERTEX
  5
16D2
330
1608
100
AcDbEntity
  8
image
100
AcDbVertex
100
AcDb2dVertex
 10
2.559655843549255
 20
4.437725523689511
 30
0.0
 70
     8
  0
VERTEX
  5
16D3
330
1608
100
AcDbEntity
  8
image
100
AcDbVertex
100
AcDb2dVertex
 10
2.560475441357134
 20
4.449021003060162
 30
0.0
 70
     8
  0
VERTEX
  5
16D4
330
1608
100
AcDbEntity
  8
image
100
AcDbVertex
100
AcDb2dVertex
 10
2.561303916209771
 20
4.460930678474166
 30
0.0
 70
     8
  0
VERTEX
  5
16D5
330
1608
100
AcDbEntity
  8
image
100
AcDbVertex
100
AcDb2dVertex
 10
2.5621465792843
 20
4.473593835960268
 30
0.0
 70
     8
  0
VERTEX
  5
16D6
330
1608
100
AcDbEntity
  8
image
100
AcDbVertex
100
AcDb2dVertex
 10
2.563008741757856
 20
4.487149761547214
 30
0.0
 70
     8
  0
VERTEX
  5
16D7
330
1608
100
AcDbEntity
  8
image
100
AcDbVertex
100
AcDb2dVertex
 10
2.563892474782651
 20
4.5016718581795
 30
0.0
 70
     8
  0
VERTEX
  5
16D8
330
1608
100
AcDbEntity
  8
image
100
AcDbVertex
100
AcDb2dVertex
 10
2.564786889411224
 20
4.516969996464625
 30
0.0
 70
     8
  0
VERTEX
  5
16D9
330
1608
100
AcDbEntity
  8
image
100
AcDbVertex
100
AcDb2dVertex
 10
2.565677856671194
 20
4.532788163925838
 30
0.0
 70
     8
  0
VERTEX
  5
16DA
330
1608
100
AcDbEntity
  8
image
100
AcDbVertex
100
AcDb2dVertex
 10
2.566551247590177
 20
4.548870348086383
 30
0.0
 70
     8
  0
VERTEX
  5
16DB
330
1608
100
AcDbEntity
  8
image
100
AcDbVertex
100
AcDb2dVertex
 10
2.567392933195793
 20
4.564960536469511
 30
0.0
 70
     8
  0
VERTEX
  5
16DC
330
1608
100
AcDbEntity
  8
image
100
AcDbVertex
100
AcDb2dVertex
 10
2.56818878451566
 20
4.580802716598468
 30
0.0
 70
     8
  0
VERTEX
  5
16DD
330
1608
100
AcDbEntity
  8
image
100
AcDbVertex
100
AcDb2dVertex
 10
2.568924672577395
 20
4.596140875996503
 30
0.0
 70
     8
  0
VERTEX
  5
16DE
330
1608
100
AcDbEntity
  8
image
100
AcDbVertex
100
AcDb2dVertex
 10
2.569586468408618
 20
4.610719002186862
 30
0.0
 70
     8
  0
VERTEX
  5
16DF
330
1608
100
AcDbEntity
  8
image
100
AcDbVertex
100
AcDb2dVertex
 10
2.570170300802947
 20
4.626605516653254
 30
0.0
 70
     8
  0
VERTEX
  5
16E0
330
1608
100
AcDbEntity
  8
image
100
AcDbVertex
100
AcDb2dVertex
 10
2.570713329618008
 20
4.655166576721216
 30
0.0
 70
     8
  0
VERTEX
  5
16E1
330
1608
100
AcDbEntity
  8
image
100
AcDbVertex
100
AcDb2dVertex
 10
2.571262972477427
 20
4.710092773676747
 30
0.0
 70
     8
  0
VERTEX
  5
16E2
330
1608
100
AcDbEntity
  8
image
100
AcDbVertex
100
AcDb2dVertex
 10
2.57186664700483
 20
4.805074698805845
 30
0.0
 70
     8
  0
VERTEX
  5
16E3
330
1608
100
AcDbEntity
  8
image
100
AcDbVertex
100
AcDb2dVertex
 10
2.572571770823843
 20
4.953802943394508
 30
0.0
 70
     8
  0
VERTEX
  5
16E4
330
1608
100
AcDbEntity
  8
image
100
AcDbVertex
100
AcDb2dVertex
 10
2.573425761558092
 20
5.169968098728734
 30
0.0
 70
     8
  0
VERTEX
  5
16E5
330
1608
100
AcDbEntity
  8
image
100
AcDbVertex
100
AcDb2dVertex
 10
2.574476036831203
 20
5.467260756094522
 30
0.0
 70
     8
  0
VERTEX
  5
16E6
330
1608
100
AcDbEntity
  8
image
100
AcDbVertex
100
AcDb2dVertex
 10
2.575770014266804
 20
5.859371506777869
 30
0.0
 70
     8
  0
VERTEX
  5
160B
330
1608
100
AcDbEntity
  8
image
100
AcDbVertex
100
AcDb2dVertex
 10
2.412485933420868
 20
2.851309420159191
 30
0.0
 70
    16
  0
VERTEX
  5
160C
330
1608
100
AcDbEntity
  8
image
100
AcDbVertex
100
AcDb2dVertex
 10
2.418634772172103
 20
2.854381164498296
 30
0.0
 70
    16
  0
VERTEX
  5
160D
330
1608
100
AcDbEntity
  8
image
100
AcDbVertex
100
AcDb2dVertex
 10
2.429614874244163
 20
2.855697633737664
 30
0.0
 70
    16
  0
VERTEX
  5
160E
330
1608
100
AcDbEntity
  8
image
100
AcDbVertex
100
AcDb2dVertex
 10
2.432689293619779
 20
2.857452908837401
 30
0.0
 70
    16
  0
VERTEX
  5
160F
330
1608
100
AcDbEntity
  8
image
100
AcDbVertex
100
AcDb2dVertex
 10
2.435324502009091
 20
2.861841122415873
 30
0.0
 70
    16
  0
VERTEX
  5
1610
330
1608
100
AcDbEntity
  8
image
100
AcDbVertex
100
AcDb2dVertex
 10
2.452378233302757
 20
2.932780339745921
 30
0.0
 70
    16
  0
VERTEX
  5
1611
330
1608
100
AcDbEntity
  8
image
100
AcDbVertex
100
AcDb2dVertex
 10
2.506959191547122
 20
3.013545232025746
 30
0.0
 70
    16
  0
VERTEX
  5
1612
330
1608
100
AcDbEntity
  8
image
100
AcDbVertex
100
AcDb2dVertex
 10
2.549599722227213
 20
3.101099225197152
 30
0.0
 70
    16
  0
VERTEX
  5
1613
330
1608
100
AcDbEntity
  8
image
100
AcDbVertex
100
AcDb2dVertex
 10
2.577906790987066
 20
3.193472148829174
 30
0.0
 70
    16
  0
VERTEX
  5
1614
330
1608
100
AcDbEntity
  8
image
100
AcDbVertex
100
AcDb2dVertex
 10
2.595507547614563
 20
3.285627824061709
 30
0.0
 70
    16
  0
VERTEX
  5
1615
330
1608
100
AcDbEntity
  8
image
100
AcDbVertex
100
AcDb2dVertex
 10
2.598877971051816
 20
3.380000340677539
 30
0.0
 70
    16
  0
VERTEX
  5
1616
330
1608
100
AcDbEntity
  8
image
100
AcDbVertex
100
AcDb2dVertex
 10
2.591541923683718
 20
3.473105405610839
 30
0.0
 70
    16
  0
VERTEX
  5
1617
330
1608
100
AcDbEntity
  8
image
100
AcDbVertex
100
AcDb2dVertex
 10
2.582157131066844
 20
3.553794705477621
 30
0.0
 70
    16
  0
VERTEX
  5
1618
330
1608
100
AcDbEntity
  8
image
100
AcDbVertex
100
AcDb2dVertex
 10
2.571584385018441
 20
3.642038275545373
 30
0.0
 70
    16
  0
VERTEX
  5
1619
330
1608
100
AcDbEntity
  8
image
100
AcDbVertex
100
AcDb2dVertex
 10
2.559924850833584
 20
3.741210671214947
 30
0.0
 70
    16
  0
VERTEX
  5
161A
330
1608
100
AcDbEntity
  8
image
100
AcDbVertex
100
AcDb2dVertex
 10
2.549706988749196
 20
3.833478191594878
 30
0.0
 70
    16
  0
VERTEX
  5
161B
330
1608
100
AcDbEntity
  8
image
100
AcDbVertex
100
AcDb2dVertex
 10
2.54050916770374
 20
3.928839517755293
 30
0.0
 70
    16
  0
VERTEX
  5
161C
330
1608
100
AcDbEntity
  8
image
100
AcDbVertex
100
AcDb2dVertex
 10
2.534488770947033
 20
4.022206756829495
 30
0.0
 70
    16
  0
VERTEX
  5
161D
330
1608
100
AcDbEntity
  8
image
100
AcDbVertex
100
AcDb2dVertex
 10
2.53471177326906
 20
4.120974514262881
 30
0.0
 70
    16
  0
VERTEX
  5
161E
330
1608
100
AcDbEntity
  8
image
100
AcDbVertex
100
AcDb2dVertex
 10
2.540628732394313
 20
4.216061005944865
 30
0.0
 70
    16
  0
VERTEX
  5
161F
330
1608
100
AcDbEntity
  8
image
100
AcDbVertex
100
AcDb2dVertex
 10
2.549221605621013
 20
4.312149853016519
 30
0.0
 70
    16
  0
VERTEX
  5
1620
330
1608
100
AcDbEntity
  8
image
100
AcDbVertex
100
AcDb2dVertex
 10
2.55654857352569
 20
4.396777009802882
 30
0.0
 70
    16
  0
VERTEX
  5
1621
330
1608
100
AcDbEntity
  8
image
100
AcDbVertex
100
AcDb2dVertex
 10
2.562744095612154
 20
4.476141184164912
 30
0.0
 70
    16
  0
VERTEX
  5
1622
330
1608
100
AcDbEntity
  8
image
100
AcDbVertex
100
AcDb2dVertex
 10
2.570527494572827
 20
4.621556822820751
 30
0.0
 70
    16
  0
VERTEX
  5
1623
330
1608
100
AcDbEntity
  8
image
100
AcDbVertex
100
AcDb2dVertex
 10
2.571952322556439
 20
4.675149299389088
 30
0.0
 70
    16
  0
VERTEX
  5
1624
330
1608
100
AcDbEntity
  8
image
100
AcDbVertex
100
AcDb2dVertex
 10
2.575770014266804
 20
5.859371506777869
 30
0.0
 70
    16
  0
SEQEND
  5
1625
330
1608
100
AcDbEntity
  8
image
  0
POLYLINE
  5
1609
330
10C1
100
AcDbEntity
  8
image
100
AcDb2dPolyline
 66
     1
 10
0.0
 20
0.0
 30
0.0
 70
     4
 75
     6
  0
VERTEX
  5
16E7
330
1609
100
AcDbEntity
  8
image
100
AcDbVertex
100
AcDb2dVertex
 10
2.337668676074201
 20
2.877843623877035
 30
0.0
 70
    16
  0
VERTEX
  5
1705
330
1609
100
AcDbEntity
  8
image
100
AcDbVertex
100
AcDb2dVertex
 10
2.337668676074201
 20
2.877843623877035
 30
0.0
 70
     8
  0
VERTEX
  5
1706
330
1609
100
AcDbEntity
  8
image
100
AcDbVertex
100
AcDb2dVertex
 10
2.339740547264971
 20
2.882407169559727
 30
0.0
 70
     8
  0
VERTEX
  5
1707
330
1609
100
AcDbEntity
  8
image
100
AcDbVertex
100
AcDb2dVertex
 10
2.341272986417551
 20
2.886156219521284
 30
0.0
 70
     8
  0
VERTEX
  5
1708
330
1609
100
AcDbEntity
  8
image
100
AcDbVertex
100
AcDb2dVertex
 10
2.342334730580178
 20
2.889206914656822
 30
0.0
 70
     8
  0
VERTEX
  5
1709
330
1609
100
AcDbEntity
  8
image
100
AcDbVertex
100
AcDb2dVertex
 10
2.342994516801089
 20
2.891675395861453
 30
0.0
 70
     8
  0
VERTEX
  5
170A
330
1609
100
AcDbEntity
  8
image
100
AcDbVertex
100
AcDb2dVertex
 10
2.343321082128519
 20
2.893677804030294
 30
0.0
 70
     8
  0
VERTEX
  5
170B
330
1609
100
AcDbEntity
  8
image
100
AcDbVertex
100
AcDb2dVertex
 10
2.343383163610704
 20
2.895330280058458
 30
0.0
 70
     8
  0
VERTEX
  5
170C
330
1609
100
AcDbEntity
  8
image
100
AcDbVertex
100
AcDb2dVertex
 10
2.343249498295883
 20
2.89674896484106
 30
0.0
 70
     8
  0
VERTEX
  5
170D
330
1609
100
AcDbEntity
  8
image
100
AcDbVertex
100
AcDb2dVertex
 10
2.342988823232291
 20
2.898049999273215
 30
0.0
 70
     8
  0
VERTEX
  5
170E
330
1609
100
AcDbEntity
  8
image
100
AcDbVertex
100
AcDb2dVertex
 10
2.342661027798484
 20
2.899328031274437
 30
0.0
 70
     8
  0
VERTEX
  5
170F
330
1609
100
AcDbEntity
  8
image
100
AcDbVertex
100
AcDb2dVertex
 10
2.3422906106943
 20
2.900591736861846
 30
0.0
 70
     8
  0
VERTEX
  5
1710
330
1609
100
AcDbEntity
  8
image
100
AcDbVertex
100
AcDb2dVertex
 10
2.341893222949896
 20
2.901828299076963
 30
0.0
 70
     8
  0
VERTEX
  5
1711
330
1609
100
AcDbEntity
  8
image
100
AcDbVertex
100
AcDb2dVertex
 10
2.341484515595429
 20
2.903024900961308
 30
0.0
 70
     8
  0
VERTEX
  5
1712
330
1609
100
AcDbEntity
  8
image
100
AcDbVertex
100
AcDb2dVertex
 10
2.341080139661057
 20
2.904168725556401
 30
0.0
 70
     8
  0
VERTEX
  5
1713
330
1609
100
AcDbEntity
  8
image
100
AcDbVertex
100
AcDb2dVertex
 10
2.340695746176938
 20
2.905246955903763
 30
0.0
 70
     8
  0
VERTEX
  5
1714
330
1609
100
AcDbEntity
  8
image
100
AcDbVertex
100
AcDb2dVertex
 10
2.340346986173227
 20
2.906246775044914
 30
0.0
 70
     8
  0
VERTEX
  5
1715
330
1609
100
AcDbEntity
  8
image
100
AcDbVertex
100
AcDb2dVertex
 10
2.340049510680084
 20
2.907155366021374
 30
0.0
 70
     8
  0
VERTEX
  5
1716
330
1609
100
AcDbEntity
  8
image
100
AcDbVertex
100
AcDb2dVertex
 10
2.339815783693019
 20
2.907964514353162
 30
0.0
 70
     8
  0
VERTEX
  5
1717
330
1609
100
AcDbEntity
  8
image
100
AcDbVertex
100
AcDb2dVertex
 10
2.339645521068962
 20
2.908684415474289
 30
0.0
 70
     8
  0
VERTEX
  5
1718
330
1609
100
AcDbEntity
  8
image
100
AcDbVertex
100
AcDb2dVertex
 10
2.339535251630198
 20
2.909329867297265
 30
0.0
 70
     8
  0
VERTEX
  5
1719
330
1609
100
AcDbEntity
  8
image
100
AcDbVertex
100
AcDb2dVertex
 10
2.339481504199009
 20
2.909915667734598
 30
0.0
 70
     8
  0
VERTEX
  5
171A
330
1609
100
AcDbEntity
  8
image
100
AcDbVertex
100
AcDb2dVertex
 10
2.339480807597681
 20
2.910456614698799
 30
0.0
 70
     8
  0
VERTEX
  5
171B
330
1609
100
AcDbEntity
  8
image
100
AcDbVertex
100
AcDb2dVertex
 10
2.339529690648497
 20
2.910967506102377
 30
0.0
 70
     8
  0
VERTEX
  5
171C
330
1609
100
AcDbEntity
  8
image
100
AcDbVertex
100
AcDb2dVertex
 10
2.33962468217374
 20
2.911463139857841
 30
0.0
 70
     8
  0
VERTEX
  5
171D
330
1609
100
AcDbEntity
  8
image
100
AcDbVertex
100
AcDb2dVertex
 10
2.339762310995696
 20
2.9119583138777
 30
0.0
 70
     8
  0
VERTEX
  5
171E
330
1609
100
AcDbEntity
  8
image
100
AcDbVertex
100
AcDb2dVertex
 10
2.339955483609267
 20
2.912479773286898
 30
0.0
 70
     8
  0
VERTEX
  5
171F
330
1609
100
AcDbEntity
  8
image
100
AcDbVertex
100
AcDb2dVertex
 10
2.340282617199834
 20
2.913102052060106
 30
0.0
 70
     8
  0
VERTEX
  5
1720
330
1609
100
AcDbEntity
  8
image
100
AcDbVertex
100
AcDb2dVertex
 10
2.340838506625399
 20
2.913911631384432
 30
0.0
 70
     8
  0
VERTEX
  5
1721
330
1609
100
AcDbEntity
  8
image
100
AcDbVertex
100
AcDb2dVertex
 10
2.341717946743961
 20
2.914994992446982
 30
0.0
 70
     8
  0
VERTEX
  5
1722
330
1609
100
AcDbEntity
  8
image
100
AcDbVertex
100
AcDb2dVertex
 10
2.34301573241352
 20
2.916438616434862
 30
0.0
 70
     8
  0
VERTEX
  5
1723
330
1609
100
AcDbEntity
  8
image
100
AcDbVertex
100
AcDb2dVertex
 10
2.344826658492078
 20
2.918328984535177
 30
0.0
 70
     8
  0
VERTEX
  5
1724
330
1609
100
AcDbEntity
  8
image
100
AcDbVertex
100
AcDb2dVertex
 10
2.347245519837636
 20
2.920752577935036
 30
0.0
 70
     8
  0
VERTEX
  5
1725
330
1609
100
AcDbEntity
  8
image
100
AcDbVertex
100
AcDb2dVertex
 10
2.350367111308192
 20
2.923795877821542
 30
0.0
 70
     8
  0
VERTEX
  5
1726
330
1609
100
AcDbEntity
  8
image
100
AcDbVertex
100
AcDb2dVertex
 10
2.354254516342456
 20
2.927526734612709
 30
0.0
 70
     8
  0
VERTEX
  5
1727
330
1609
100
AcDbEntity
  8
image
100
AcDbVertex
100
AcDb2dVertex
 10
2.358843972701964
 20
2.931938475650169
 30
0.0
 70
     8
  0
VERTEX
  5
1728
330
1609
100
AcDbEntity
  8
image
100
AcDbVertex
100
AcDb2dVertex
 10
2.364040006728961
 20
2.937005797506461
 30
0.0
 70
     8
  0
VERTEX
  5
1729
330
1609
100
AcDbEntity
  8
image
100
AcDbVertex
100
AcDb2dVertex
 10
2.369747144765691
 20
2.942703396754122
 30
0.0
 70
     8
  0
VERTEX
  5
172A
330
1609
100
AcDbEntity
  8
image
100
AcDbVertex
100
AcDb2dVertex
 10
2.375869913154398
 20
2.949005969965692
 30
0.0
 70
     8
  0
VERTEX
  5
172B
330
1609
100
AcDbEntity
  8
image
100
AcDbVertex
100
AcDb2dVertex
 10
2.382312838237326
 20
2.955888213713707
 30
0.0
 70
     8
  0
VERTEX
  5
172C
330
1609
100
AcDbEntity
  8
image
100
AcDbVertex
100
AcDb2dVertex
 10
2.388980446356721
 20
2.963324824570708
 30
0.0
 70
     8
  0
VERTEX
  5
172D
330
1609
100
AcDbEntity
  8
image
100
AcDbVertex
100
AcDb2dVertex
 10
2.395777263854827
 20
2.971290499109231
 30
0.0
 70
     8
  0
VERTEX
  5
172E
330
1609
100
AcDbEntity
  8
image
100
AcDbVertex
100
AcDb2dVertex
 10
2.402618300740752
 20
2.979755181786439
 30
0.0
 70
     8
  0
VERTEX
  5
172F
330
1609
100
AcDbEntity
  8
image
100
AcDbVertex
100
AcDb2dVertex
 10
2.40946050169107
 20
2.988669808597984
 30
0.0
 70
     8
  0
VERTEX
  5
1730
330
1609
100
AcDbEntity
  8
image
100
AcDbVertex
100
AcDb2dVertex
 10
2.416271295049218
 20
2.997980563424144
 30
0.0
 70
     8
  0
VERTEX
  5
1731
330
1609
100
AcDbEntity
  8
image
100
AcDbVertex
100
AcDb2dVertex
 10
2.423018109158635
 20
3.007633630145196
 30
0.0
 70
     8
  0
VERTEX
  5
1732
330
1609
100
AcDbEntity
  8
image
100
AcDbVertex
100
AcDb2dVertex
 10
2.429668372362758
 20
3.017575192641416
 30
0.0
 70
     8
  0
VERTEX
  5
1733
330
1609
100
AcDbEntity
  8
image
100
AcDbVertex
100
AcDb2dVertex
 10
2.436189513005024
 20
3.02775143479308
 30
0.0
 70
     8
  0
VERTEX
  5
1734
330
1609
100
AcDbEntity
  8
image
100
AcDbVertex
100
AcDb2dVertex
 10
2.442548959428873
 20
3.038108540480467
 30
0.0
 70
     8
  0
VERTEX
  5
1735
330
1609
100
AcDbEntity
  8
image
100
AcDbVertex
100
AcDb2dVertex
 10
2.44871413997774
 20
3.048592693583852
 30
0.0
 70
     8
  0
VERTEX
  5
1736
330
1609
100
AcDbEntity
  8
image
100
AcDbVertex
100
AcDb2dVertex
 10
2.454658014038127
 20
3.059160529003297
 30
0.0
 70
     8
  0
VERTEX
  5
1737
330
1609
100
AcDbEntity
  8
image
100
AcDbVertex
100
AcDb2dVertex
 10
2.460375665168776
 20
3.069810485718
 30
0.0
 70
     8
  0
VERTEX
  5
1738
330
1609
100
AcDbEntity
  8
image
100
AcDbVertex
100
AcDb2dVertex
 10
2.465867707971494
 20
3.080551453726943
 30
0.0
 70
     8
  0
VERTEX
  5
1739
330
1609
100
AcDbEntity
  8
image
100
AcDbVertex
100
AcDb2dVertex
 10
2.471134757048085
 20
3.091392323029108
 30
0.0
 70
     8
  0
VERTEX
  5
173A
330
1609
100
AcDbEntity
  8
image
100
AcDbVertex
100
AcDb2dVertex
 10
2.476177427000355
 20
3.102341983623478
 30
0.0
 70
     8
  0
VERTEX
  5
173B
330
1609
100
AcDbEntity
  8
image
100
AcDbVertex
100
AcDb2dVertex
 10
2.480996332430109
 20
3.113409325509034
 30
0.0
 70
     8
  0
VERTEX
  5
173C
330
1609
100
AcDbEntity
  8
image
100
AcDbVertex
100
AcDb2dVertex
 10
2.485592087939153
 20
3.12460323868476
 30
0.0
 70
     8
  0
VERTEX
  5
173D
330
1609
100
AcDbEntity
  8
image
100
AcDbVertex
100
AcDb2dVertex
 10
2.489965308129292
 20
3.135932613149637
 30
0.0
 70
     8
  0
VERTEX
  5
173E
330
1609
100
AcDbEntity
  8
image
100
AcDbVertex
100
AcDb2dVertex
 10
2.494116812822894
 20
3.147401521494713
 30
0.0
 70
     8
  0
VERTEX
  5
173F
330
1609
100
AcDbEntity
  8
image
100
AcDbVertex
100
AcDb2dVertex
 10
2.49804824272457
 20
3.158994766679301
 30
0.0
 70
     8
  0
VERTEX
  5
1740
330
1609
100
AcDbEntity
  8
image
100
AcDbVertex
100
AcDb2dVertex
 10
2.501761443759499
 20
3.170692334254775
 30
0.0
 70
     8
  0
VERTEX
  5
1741
330
1609
100
AcDbEntity
  8
image
100
AcDbVertex
100
AcDb2dVertex
 10
2.505258261852854
 20
3.182474209772514
 30
0.0
 70
     8
  0
VERTEX
  5
1742
330
1609
100
AcDbEntity
  8
image
100
AcDbVertex
100
AcDb2dVertex
 10
2.508540542929812
 20
3.194320378783894
 30
0.0
 70
     8
  0
VERTEX
  5
1743
330
1609
100
AcDbEntity
  8
image
100
AcDbVertex
100
AcDb2dVertex
 10
2.511610132915548
 20
3.206210826840291
 30
0.0
 70
     8
  0
VERTEX
  5
1744
330
1609
100
AcDbEntity
  8
image
100
AcDbVertex
100
AcDb2dVertex
 10
2.514468877735238
 20
3.218125539493083
 30
0.0
 70
     8
  0
VERTEX
  5
1745
330
1609
100
AcDbEntity
  8
image
100
AcDbVertex
100
AcDb2dVertex
 10
2.517118623314056
 20
3.230044502293646
 30
0.0
 70
     8
  0
VERTEX
  5
1746
330
1609
100
AcDbEntity
  8
image
100
AcDbVertex
100
AcDb2dVertex
 10
2.519560165240989
 20
3.241950126396318
 30
0.0
 70
     8
  0
VERTEX
  5
1747
330
1609
100
AcDbEntity
  8
image
100
AcDbVertex
100
AcDb2dVertex
 10
2.521790097760261
 20
3.253834525367274
 30
0.0
 70
     8
  0
VERTEX
  5
1748
330
1609
100
AcDbEntity
  8
image
100
AcDbVertex
100
AcDb2dVertex
 10
2.523803964779905
 20
3.265692238375653
 30
0.0
 70
     8
  0
VERTEX
  5
1749
330
1609
100
AcDbEntity
  8
image
100
AcDbVertex
100
AcDb2dVertex
 10
2.525597310207957
 20
3.277517804590592
 30
0.0
 70
     8
  0
VERTEX
  5
174A
330
1609
100
AcDbEntity
  8
image
100
AcDbVertex
100
AcDb2dVertex
 10
2.52716567795245
 20
3.289305763181227
 30
0.0
 70
     8
  0
VERTEX
  5
174B
330
1609
100
AcDbEntity
  8
image
100
AcDbVertex
100
AcDb2dVertex
 10
2.528504611921418
 20
3.301050653316695
 30
0.0
 70
     8
  0
VERTEX
  5
174C
330
1609
100
AcDbEntity
  8
image
100
AcDbVertex
100
AcDb2dVertex
 10
2.529609656022896
 20
3.312747014166135
 30
0.0
 70
     8
  0
VERTEX
  5
174D
330
1609
100
AcDbEntity
  8
image
100
AcDbVertex
100
AcDb2dVertex
 10
2.530476354164918
 20
3.324389384898682
 30
0.0
 70
     8
  0
VERTEX
  5
174E
330
1609
100
AcDbEntity
  8
image
100
AcDbVertex
100
AcDb2dVertex
 10
2.531103771822435
 20
3.335972454279549
 30
0.0
 70
     8
  0
VERTEX
  5
174F
330
1609
100
AcDbEntity
  8
image
100
AcDbVertex
100
AcDb2dVertex
 10
2.531505060738073
 20
3.34749150945825
 30
0.0
 70
     8
  0
VERTEX
  5
1750
330
1609
100
AcDbEntity
  8
image
100
AcDbVertex
100
AcDb2dVertex
 10
2.531696894221374
 20
3.358941987180371
 30
0.0
 70
     8
  0
VERTEX
  5
1751
330
1609
100
AcDbEntity
  8
image
100
AcDbVertex
100
AcDb2dVertex
 10
2.531695945581879
 20
3.370319324191501
 30
0.0
 70
     8
  0
VERTEX
  5
1752
330
1609
100
AcDbEntity
  8
image
100
AcDbVertex
100
AcDb2dVertex
 10
2.531518888129133
 20
3.381618957237229
 30
0.0
 70
     8
  0
VERTEX
  5
1753
330
1609
100
AcDbEntity
  8
image
100
AcDbVertex
100
AcDb2dVertex
 10
2.531182395172676
 20
3.392836323063143
 30
0.0
 70
     8
  0
VERTEX
  5
1754
330
1609
100
AcDbEntity
  8
image
100
AcDbVertex
100
AcDb2dVertex
 10
2.530703140022052
 20
3.40396685841483
 30
0.0
 70
     8
  0
VERTEX
  5
1755
330
1609
100
AcDbEntity
  8
image
100
AcDbVertex
100
AcDb2dVertex
 10
2.530097795986803
 20
3.415006000037879
 30
0.0
 70
     8
  0
VERTEX
  5
1756
330
1609
100
AcDbEntity
  8
image
100
AcDbVertex
100
AcDb2dVertex
 10
2.52938260807296
 20
3.425947823426053
 30
0.0
 70
     8
  0
VERTEX
  5
1757
330
1609
100
AcDbEntity
  8
image
100
AcDbVertex
100
AcDb2dVertex
 10
2.528572108072505
 20
3.436780959065815
 30
0.0
 70
     8
  0
VERTEX
  5
1758
330
1609
100
AcDbEntity
  8
image
100
AcDbVertex
100
AcDb2dVertex
 10
2.52768039947391
 20
3.447492676191803
 30
0.0
 70
     8
  0
VERTEX
  5
1759
330
1609
100
AcDbEntity
  8
image
100
AcDbVertex
100
AcDb2dVertex
 10
2.526721585765647
 20
3.458070244038656
 30
0.0
 70
     8
  0
VERTEX
  5
175A
330
1609
100
AcDbEntity
  8
image
100
AcDbVertex
100
AcDb2dVertex
 10
2.525709770436186
 20
3.468500931841011
 30
0.0
 70
     8
  0
VERTEX
  5
175B
330
1609
100
AcDbEntity
  8
image
100
AcDbVertex
100
AcDb2dVertex
 10
2.524659056974
 20
3.478772008833506
 30
0.0
 70
     8
  0
VERTEX
  5
175C
330
1609
100
AcDbEntity
  8
image
100
AcDbVertex
100
AcDb2dVertex
 10
2.523583548867559
 20
3.488870744250779
 30
0.0
 70
     8
  0
VERTEX
  5
175D
330
1609
100
AcDbEntity
  8
image
100
AcDbVertex
100
AcDb2dVertex
 10
2.522497349605335
 20
3.49878440732747
 30
0.0
 70
     8
  0
VERTEX
  5
175E
330
1609
100
AcDbEntity
  8
image
100
AcDbVertex
100
AcDb2dVertex
 10
2.521411280621371
 20
3.508513594032158
 30
0.0
 70
     8
  0
VERTEX
  5
175F
330
1609
100
AcDbEntity
  8
image
100
AcDbVertex
100
AcDb2dVertex
 10
2.520323035132001
 20
3.518112207269203
 30
0.0
 70
     8
  0
VERTEX
  5
1760
330
1609
100
AcDbEntity
  8
image
100
AcDbVertex
100
AcDb2dVertex
 10
2.51922702429913
 20
3.527647476676904
 30
0.0
 70
     8
  0
VERTEX
  5
1761
330
1609
100
AcDbEntity
  8
image
100
AcDbVertex
100
AcDb2dVertex
 10
2.518117659284662
 20
3.537186631893563
 30
0.0
 70
     8
  0
VERTEX
  5
1762
330
1609
100
AcDbEntity
  8
image
100
AcDbVertex
100
AcDb2dVertex
 10
2.516989351250503
 20
3.546796902557483
 30
0.0
 70
     8
  0
VERTEX
  5
1763
330
1609
100
AcDbEntity
  8
image
100
AcDbVertex
100
AcDb2dVertex
 10
2.515836511358558
 20
3.556545518306962
 30
0.0
 70
     8
  0
VERTEX
  5
1764
330
1609
100
AcDbEntity
  8
image
100
AcDbVertex
100
AcDb2dVertex
 10
2.514653550770732
 20
3.566499708780304
 30
0.0
 70
     8
  0
VERTEX
  5
1765
330
1609
100
AcDbEntity
  8
image
100
AcDbVertex
100
AcDb2dVertex
 10
2.513434880648931
 20
3.576726703615809
 30
0.0
 70
     8
  0
VERTEX
  5
1766
330
1609
100
AcDbEntity
  8
image
100
AcDbVertex
100
AcDb2dVertex
 10
2.512176615574439
 20
3.587277151429794
 30
0.0
 70
     8
  0
VERTEX
  5
1767
330
1609
100
AcDbEntity
  8
image
100
AcDbVertex
100
AcDb2dVertex
 10
2.510881683806058
 20
3.598135376750638
 30
0.0
 70
     8
  0
VERTEX
  5
1768
330
1609
100
AcDbEntity
  8
image
100
AcDbVertex
100
AcDb2dVertex
 10
2.509554717021969
 20
3.609269123084736
 30
0.0
 70
     8
  0
VERTEX
  5
1769
330
1609
100
AcDbEntity
  8
image
100
AcDbVertex
100
AcDb2dVertex
 10
2.508200346900354
 20
3.620646133938482
 30
0.0
 70
     8
  0
VERTEX
  5
176A
330
1609
100
AcDbEntity
  8
image
100
AcDbVertex
100
AcDb2dVertex
 10
2.506823205119394
 20
3.632234152818271
 30
0.0
 70
     8
  0
VERTEX
  5
176B
330
1609
100
AcDbEntity
  8
image
100
AcDbVertex
100
AcDb2dVertex
 10
2.50542792335727
 20
3.644000923230497
 30
0.0
 70
     8
  0
VERTEX
  5
176C
330
1609
100
AcDbEntity
  8
image
100
AcDbVertex
100
AcDb2dVertex
 10
2.504019133292163
 20
3.655914188681556
 30
0.0
 70
     8
  0
VERTEX
  5
176D
330
1609
100
AcDbEntity
  8
image
100
AcDbVertex
100
AcDb2dVertex
 10
2.502601466602255
 20
3.667941692677842
 30
0.0
 70
     8
  0
VERTEX
  5
176E
330
1609
100
AcDbEntity
  8
image
100
AcDbVertex
100
AcDb2dVertex
 10
2.501179562902804
 20
3.680051040811342
 30
0.0
 70
     8
  0
VERTEX
  5
176F
330
1609
100
AcDbEntity
  8
image
100
AcDbVertex
100
AcDb2dVertex
 10
2.499758093557374
 20
3.692209287016413
 30
0.0
 70
     8
  0
VERTEX
  5
1770
330
1609
100
AcDbEntity
  8
image
100
AcDbVertex
100
AcDb2dVertex
 10
2.498341737866606
 20
3.704383347313007
 30
0.0
 70
     8
  0
VERTEX
  5
1771
330
1609
100
AcDbEntity
  8
image
100
AcDbVertex
100
AcDb2dVertex
 10
2.49693517513114
 20
3.716540137721072
 30
0.0
 70
     8
  0
VERTEX
  5
1772
330
1609
100
AcDbEntity
  8
image
100
AcDbVertex
100
AcDb2dVertex
 10
2.495543084651618
 20
3.728646574260558
 30
0.0
 70
     8
  0
VERTEX
  5
1773
330
1609
100
AcDbEntity
  8
image
100
AcDbVertex
100
AcDb2dVertex
 10
2.49417014572868
 20
3.740669572951417
 30
0.0
 70
     8
  0
VERTEX
  5
1774
330
1609
100
AcDbEntity
  8
image
100
AcDbVertex
100
AcDb2dVertex
 10
2.492821037662967
 20
3.752576049813598
 30
0.0
 70
     8
  0
VERTEX
  5
1775
330
1609
100
AcDbEntity
  8
image
100
AcDbVertex
100
AcDb2dVertex
 10
2.49150043975512
 20
3.764332920867051
 30
0.0
 70
     8
  0
VERTEX
  5
1776
330
1609
100
AcDbEntity
  8
image
100
AcDbVertex
100
AcDb2dVertex
 10
2.490211969591727
 20
3.775916774238321
 30
0.0
 70
     8
  0
VERTEX
  5
1777
330
1609
100
AcDbEntity
  8
image
100
AcDbVertex
100
AcDb2dVertex
 10
2.488954997903167
 20
3.787342886480326
 30
0.0
 70
     8
  0
VERTEX
  5
1778
330
1609
100
AcDbEntity
  8
image
100
AcDbVertex
100
AcDb2dVertex
 10
2.487727833705767
 20
3.79863620625258
 30
0.0
 70
     8
  0
VERTEX
  5
1779
330
1609
100
AcDbEntity
  8
image
100
AcDbVertex
100
AcDb2dVertex
 10
2.486528786015852
 20
3.809821682214594
 30
0.0
 70
     8
  0
VERTEX
  5
177A
330
1609
100
AcDbEntity
  8
image
100
AcDbVertex
100
AcDb2dVertex
 10
2.485356163849749
 20
3.820924263025882
 30
0.0
 70
     8
  0
VERTEX
  5
177B
330
1609
100
AcDbEntity
  8
image
100
AcDbVertex
100
AcDb2dVertex
 10
2.484208276223785
 20
3.831968897345957
 30
0.0
 70
     8
  0
VERTEX
  5
177C
330
1609
100
AcDbEntity
  8
image
100
AcDbVertex
100
AcDb2dVertex
 10
2.483083432154284
 20
3.842980533834332
 30
0.0
 70
     8
  0
VERTEX
  5
177D
330
1609
100
AcDbEntity
  8
image
100
AcDbVertex
100
AcDb2dVertex
 10
2.481979940657575
 20
3.853984121150519
 30
0.0
 70
     8
  0
VERTEX
  5
177E
330
1609
100
AcDbEntity
  8
image
100
AcDbVertex
100
AcDb2dVertex
 10
2.48089702327891
 20
3.86500250282379
 30
0.0
 70
     8
  0
VERTEX
  5
177F
330
1609
100
AcDbEntity
  8
image
100
AcDbVertex
100
AcDb2dVertex
 10
2.479837551679249
 20
3.876050101862445
 30
0.0
 70
     8
  0
VERTEX
  5
1780
330
1609
100
AcDbEntity
  8
image
100
AcDbVertex
100
AcDb2dVertex
 10
2.47880531004848
 20
3.887139236144544
 30
0.0
 70
     8
  0
VERTEX
  5
1781
330
1609
100
AcDbEntity
  8
image
100
AcDbVertex
100
AcDb2dVertex
 10
2.47780408257649
 20
3.898282223548146
 30
0.0
 70
     8
  0
VERTEX
  5
1782
330
1609
100
AcDbEntity
  8
image
100
AcDbVertex
100
AcDb2dVertex
 10
2.476837653453168
 20
3.909491381951311
 30
0.0
 70
     8
  0
VERTEX
  5
1783
330
1609
100
AcDbEntity
  8
image
100
AcDbVertex
100
AcDb2dVertex
 10
2.4759098068684
 20
3.920779029232097
 30
0.0
 70
     8
  0
VERTEX
  5
1784
330
1609
100
AcDbEntity
  8
image
100
AcDbVertex
100
AcDb2dVertex
 10
2.475024327012074
 20
3.932157483268564
 30
0.0
 70
     8
  0
VERTEX
  5
1785
330
1609
100
AcDbEntity
  8
image
100
AcDbVertex
100
AcDb2dVertex
 10
2.474184998074077
 20
3.943639061938771
 30
0.0
 70
     8
  0
VERTEX
  5
1786
330
1609
100
AcDbEntity
  8
image
100
AcDbVertex
100
AcDb2dVertex
 10
2.473395800709127
 20
3.955231558675279
 30
0.0
 70
     8
  0
VERTEX
  5
1787
330
1609
100
AcDbEntity
  8
image
100
AcDbVertex
100
AcDb2dVertex
 10
2.472661501431252
 20
3.966924669128653
 30
0.0
 70
     8
  0
VERTEX
  5
1788
330
1609
100
AcDbEntity
  8
image
100
AcDbVertex
100
AcDb2dVertex
 10
2.471987063219313
 20
3.97870356450396
 30
0.0
 70
     8
  0
VERTEX
  5
1789
330
1609
100
AcDbEntity
  8
image
100
AcDbVertex
100
AcDb2dVertex
 10
2.471377449052169
 20
3.990553416006268
 30
0.0
 70
     8
  0
VERTEX
  5
178A
330
1609
100
AcDbEntity
  8
image
100
AcDbVertex
100
AcDb2dVertex
 10
2.47083762190868
 20
4.002459394840643
 30
0.0
 70
     8
  0
VERTEX
  5
178B
330
1609
100
AcDbEntity
  8
image
100
AcDbVertex
100
AcDb2dVertex
 10
2.470372544767705
 20
4.014406672212154
 30
0.0
 70
     8
  0
VERTEX
  5
178C
330
1609
100
AcDbEntity
  8
image
100
AcDbVertex
100
AcDb2dVertex
 10
2.469987180608103
 20
4.026380419325866
 30
0.0
 70
     8
  0
VERTEX
  5
178D
330
1609
100
AcDbEntity
  8
image
100
AcDbVertex
100
AcDb2dVertex
 10
2.469686492408734
 20
4.038365807386846
 30
0.0
 70
     8
  0
VERTEX
  5
178E
330
1609
100
AcDbEntity
  8
image
100
AcDbVertex
100
AcDb2dVertex
 10
2.469474696992635
 20
4.050351349481169
 30
0.0
 70
     8
  0
VERTEX
  5
178F
330
1609
100
AcDbEntity
  8
image
100
AcDbVertex
100
AcDb2dVertex
 10
2.469353026559551
 20
4.062338926218933
 30
0.0
 70
     8
  0
VERTEX
  5
1790
330
1609
100
AcDbEntity
  8
image
100
AcDbVertex
100
AcDb2dVertex
 10
2.469321967153406
 20
4.074333760091243
 30
0.0
 70
     8
  0
VERTEX
  5
1791
330
1609
100
AcDbEntity
  8
image
100
AcDbVertex
100
AcDb2dVertex
 10
2.469382004818123
 20
4.086341073589205
 30
0.0
 70
     8
  0
VERTEX
  5
1792
330
1609
100
AcDbEntity
  8
image
100
AcDbVertex
100
AcDb2dVertex
 10
2.469533625597626
 20
4.098366089203924
 30
0.0
 70
     8
  0
VERTEX
  5
1793
330
1609
100
AcDbEntity
  8
image
100
AcDbVertex
100
AcDb2dVertex
 10
2.469777315535838
 20
4.110414029426505
 30
0.0
 70
     8
  0
VERTEX
  5
1794
330
1609
100
AcDbEntity
  8
image
100
AcDbVertex
100
AcDb2dVertex
 10
2.470113560676682
 20
4.122490116748052
 30
0.0
 70
     8
  0
VERTEX
  5
1795
330
1609
100
AcDbEntity
  8
image
100
AcDbVertex
100
AcDb2dVertex
 10
2.470542847064082
 20
4.134599573659673
 30
0.0
 70
     8
  0
VERTEX
  5
1796
330
1609
100
AcDbEntity
  8
image
100
AcDbVertex
100
AcDb2dVertex
 10
2.471063899754913
 20
4.146741769367445
 30
0.0
 70
     8
  0
VERTEX
  5
1797
330
1609
100
AcDbEntity
  8
image
100
AcDbVertex
100
AcDb2dVertex
 10
2.471668399857857
 20
4.158892659937353
 30
0.0
 70
     8
  0
VERTEX
  5
1798
330
1609
100
AcDbEntity
  8
image
100
AcDbVertex
100
AcDb2dVertex
 10
2.472346267494549
 20
4.171022348150351
 30
0.0
 70
     8
  0
VERTEX
  5
1799
330
1609
100
AcDbEntity
  8
image
100
AcDbVertex
100
AcDb2dVertex
 10
2.473087422786623
 20
4.183100936787395
 30
0.0
 70
     8
  0
VERTEX
  5
179A
330
1609
100
AcDbEntity
  8
image
100
AcDbVertex
100
AcDb2dVertex
 10
2.473881785855713
 20
4.195098528629443
 30
0.0
 70
     8
  0
VERTEX
  5
179B
330
1609
100
AcDbEntity
  8
image
100
AcDbVertex
100
AcDb2dVertex
 10
2.474719276823454
 20
4.206985226457451
 30
0.0
 70
     8
  0
VERTEX
  5
179C
330
1609
100
AcDbEntity
  8
image
100
AcDbVertex
100
AcDb2dVertex
 10
2.475589815811479
 20
4.218731133052376
 30
0.0
 70
     8
  0
VERTEX
  5
179D
330
1609
100
AcDbEntity
  8
image
100
AcDbVertex
100
AcDb2dVertex
 10
2.476483322941424
 20
4.230306351195173
 30
0.0
 70
     8
  0
VERTEX
  5
179E
330
1609
100
AcDbEntity
  8
image
100
AcDbVertex
100
AcDb2dVertex
 10
2.477392032105276
 20
4.241708240675349
 30
0.0
 70
     8
  0
VERTEX
  5
179F
330
1609
100
AcDbEntity
  8
image
100
AcDbVertex
100
AcDb2dVertex
 10
2.478317432276437
 20
4.253043189316617
 30
0.0
 70
     8
  0
VERTEX
  5
17A0
330
1609
100
AcDbEntity
  8
image
100
AcDbVertex
100
AcDb2dVertex
 10
2.479263326198666
 20
4.264444841951236
 30
0.0
 70
     8
  0
VERTEX
  5
17A1
330
1609
100
AcDbEntity
  8
image
100
AcDbVertex
100
AcDb2dVertex
 10
2.480233516615719
 20
4.276046843411469
 30
0.0
 70
     8
  0
VERTEX
  5
17A2
330
1609
100
AcDbEntity
  8
image
100
AcDbVertex
100
AcDb2dVertex
 10
2.481231806271352
 20
4.287982838529576
 30
0.0
 70
     8
  0
VERTEX
  5
17A3
330
1609
100
AcDbEntity
  8
image
100
AcDbVertex
100
AcDb2dVertex
 10
2.482261997909323
 20
4.300386472137819
 30
0.0
 70
     8
  0
VERTEX
  5
17A4
330
1609
100
AcDbEntity
  8
image
100
AcDbVertex
100
AcDb2dVertex
 10
2.483327894273388
 20
4.313391389068458
 30
0.0
 70
     8
  0
VERTEX
  5
17A5
330
1609
100
AcDbEntity
  8
image
100
AcDbVertex
100
AcDb2dVertex
 10
2.484433298107304
 20
4.327131234153756
 30
0.0
 70
     8
  0
VERTEX
  5
17A6
330
1609
100
AcDbEntity
  8
image
100
AcDbVertex
100
AcDb2dVertex
 10
2.485578135305066
 20
4.341681802129258
 30
0.0
 70
     8
  0
VERTEX
  5
17A7
330
1609
100
AcDbEntity
  8
image
100
AcDbVertex
100
AcDb2dVertex
 10
2.486746824361615
 20
4.356887487343648
 30
0.0
 70
     8
  0
VERTEX
  5
17A8
330
1609
100
AcDbEntity
  8
image
100
AcDbVertex
100
AcDb2dVertex
 10
2.487919906922134
 20
4.372534834048894
 30
0.0
 70
     8
  0
VERTEX
  5
17A9
330
1609
100
AcDbEntity
  8
image
100
AcDbVertex
100
AcDb2dVertex
 10
2.489077924631803
 20
4.388410386496966
 30
0.0
 70
     8
  0
VERTEX
  5
17AA
330
1609
100
AcDbEntity
  8
image
100
AcDbVertex
100
AcDb2dVertex
 10
2.490201419135803
 20
4.404300688939832
 30
0.0
 70
     8
  0
VERTEX
  5
17AB
330
1609
100
AcDbEntity
  8
image
100
AcDbVertex
100
AcDb2dVertex
 10
2.491270932079314
 20
4.41999228562946
 30
0.0
 70
     8
  0
VERTEX
  5
17AC
330
1609
100
AcDbEntity
  8
image
100
AcDbVertex
100
AcDb2dVertex
 10
2.492267005107517
 20
4.435271720817818
 30
0.0
 70
     8
  0
VERTEX
  5
17AD
330
1609
100
AcDbEntity
  8
image
100
AcDbVertex
100
AcDb2dVertex
 10
2.493170179865591
 20
4.449925538756876
 30
0.0
 70
     8
  0
VERTEX
  5
17AE
330
1609
100
AcDbEntity
  8
image
100
AcDbVertex
100
AcDb2dVertex
 10
2.493966572644627
 20
4.463808694586717
 30
0.0
 70
     8
  0
VERTEX
  5
17AF
330
1609
100
AcDbEntity
  8
image
100
AcDbVertex
100
AcDb2dVertex
 10
2.494664598319344
 20
4.477049786999884
 30
0.0
 70
     8
  0
VERTEX
  5
17B0
330
1609
100
AcDbEntity
  8
image
100
AcDbVertex
100
AcDb2dVertex
 10
2.495278246410369
 20
4.489845825577037
 30
0.0
 70
     8
  0
VERTEX
  5
17B1
330
1609
100
AcDbEntity
  8
image
100
AcDbVertex
100
AcDb2dVertex
 10
2.495821506438331
 20
4.502393819898832
 30
0.0
 70
     8
  0
VERTEX
  5
17B2
330
1609
100
AcDbEntity
  8
image
100
AcDbVertex
100
AcDb2dVertex
 10
2.496308367923857
 20
4.51489077954593
 30
0.0
 70
     8
  0
VERTEX
  5
17B3
330
1609
100
AcDbEntity
  8
image
100
AcDbVertex
100
AcDb2dVertex
 10
2.496752820387574
 20
4.527533714098987
 30
0.0
 70
     8
  0
VERTEX
  5
17B4
330
1609
100
AcDbEntity
  8
image
100
AcDbVertex
100
AcDb2dVertex
 10
2.497168853350111
 20
4.540519633138662
 30
0.0
 70
     8
  0
VERTEX
  5
17B5
330
1609
100
AcDbEntity
  8
image
100
AcDbVertex
100
AcDb2dVertex
 10
2.497570456332095
 20
4.554045546245614
 30
0.0
 70
     8
  0
VERTEX
  5
17B6
330
1609
100
AcDbEntity
  8
image
100
AcDbVertex
100
AcDb2dVertex
 10
2.497969238781786
 20
4.568280207988403
 30
0.0
 70
     8
  0
VERTEX
  5
17B7
330
1609
100
AcDbEntity
  8
image
100
AcDbVertex
100
AcDb2dVertex
 10
2.498367289857965
 20
4.5832793528872
 30
0.0
 70
     8
  0
VERTEX
  5
17B8
330
1609
100
AcDbEntity
  8
image
100
AcDbVertex
100
AcDb2dVertex
 10
2.498764318647046
 20
4.599070460450078
 30
0.0
 70
     8
  0
VERTEX
  5
17B9
330
1609
100
AcDbEntity
  8
image
100
AcDbVertex
100
AcDb2dVertex
 10
2.499160034235445
 20
4.615681010185107
 30
0.0
 70
     8
  0
VERTEX
  5
17BA
330
1609
100
AcDbEntity
  8
image
100
AcDbVertex
100
AcDb2dVertex
 10
2.499554145709575
 20
4.633138481600362
 30
0.0
 70
     8
  0
VERTEX
  5
17BB
330
1609
100
AcDbEntity
  8
image
100
AcDbVertex
100
AcDb2dVertex
 10
2.499946362155849
 20
4.651470354203914
 30
0.0
 70
     8
  0
VERTEX
  5
17BC
330
1609
100
AcDbEntity
  8
image
100
AcDbVertex
100
AcDb2dVertex
 10
2.500336392660682
 20
4.670704107503837
 30
0.0
 70
     8
  0
VERTEX
  5
17BD
330
1609
100
AcDbEntity
  8
image
100
AcDbVertex
100
AcDb2dVertex
 10
2.500723946310487
 20
4.690867221008201
 30
0.0
 70
     8
  0
VERTEX
  5
17BE
330
1609
100
AcDbEntity
  8
image
100
AcDbVertex
100
AcDb2dVertex
 10
2.50110873219168
 20
4.711987174225082
 30
0.0
 70
     8
  0
VERTEX
  5
17BF
330
1609
100
AcDbEntity
  8
image
100
AcDbVertex
100
AcDb2dVertex
 10
2.501490459390672
 20
4.73409144666255
 30
0.0
 70
     8
  0
VERTEX
  5
17C0
330
1609
100
AcDbEntity
  8
image
100
AcDbVertex
100
AcDb2dVertex
 10
2.501868836993879
 20
4.757207517828678
 30
0.0
 70
     8
  0
VERTEX
  5
17C1
330
1609
100
AcDbEntity
  8
image
100
AcDbVertex
100
AcDb2dVertex
 10
2.502243574087715
 20
4.781362867231539
 30
0.0
 70
     8
  0
VERTEX
  5
17C2
330
1609
100
AcDbEntity
  8
image
100
AcDbVertex
100
AcDb2dVertex
 10
2.502614379758592
 20
4.806584974379204
 30
0.0
 70
     8
  0
VERTEX
  5
17C3
330
1609
100
AcDbEntity
  8
image
100
AcDbVertex
100
AcDb2dVertex
 10
2.502980963092927
 20
4.832901318779748
 30
0.0
 70
     8
  0
VERTEX
  5
17C4
330
1609
100
AcDbEntity
  8
image
100
AcDbVertex
100
AcDb2dVertex
 10
2.503343033177131
 20
4.860339379941242
 30
0.0
 70
     8
  0
VERTEX
  5
17C5
330
1609
100
AcDbEntity
  8
image
100
AcDbVertex
100
AcDb2dVertex
 10
2.50370029909762
 20
4.888926637371759
 30
0.0
 70
     8
  0
VERTEX
  5
17C6
330
1609
100
AcDbEntity
  8
image
100
AcDbVertex
100
AcDb2dVertex
 10
2.50405282802345
 20
4.918749229190364
 30
0.0
 70
     8
  0
VERTEX
  5
17C7
330
1609
100
AcDbEntity
  8
image
100
AcDbVertex
100
AcDb2dVertex
 10
2.504402119454255
 20
4.950127927960097
 30
0.0
 70
     8
  0
VERTEX
  5
17C8
330
1609
100
AcDbEntity
  8
image
100
AcDbVertex
100
AcDb2dVertex
 10
2.504750030972309
 20
4.983442164854989
 30
0.0
 70
     8
  0
VERTEX
  5
17C9
330
1609
100
AcDbEntity
  8
image
100
AcDbVertex
100
AcDb2dVertex
 10
2.505098420159888
 20
5.019071371049073
 30
0.0
 70
     8
  0
VERTEX
  5
17CA
330
1609
100
AcDbEntity
  8
image
100
AcDbVertex
100
AcDb2dVertex
 10
2.505449144599269
 20
5.057394977716381
 30
0.0
 70
     8
  0
VERTEX
  5
17CB
330
1609
100
AcDbEntity
  8
image
100
AcDbVertex
100
AcDb2dVertex
 10
2.505804061872726
 20
5.098792416030945
 30
0.0
 70
     8
  0
VERTEX
  5
17CC
330
1609
100
AcDbEntity
  8
image
100
AcDbVertex
100
AcDb2dVertex
 10
2.506165029562535
 20
5.143643117166797
 30
0.0
 70
     8
  0
VERTEX
  5
17CD
330
1609
100
AcDbEntity
  8
image
100
AcDbVertex
100
AcDb2dVertex
 10
2.506533905250973
 20
5.192326512297969
 30
0.0
 70
     8
  0
VERTEX
  5
17CE
330
1609
100
AcDbEntity
  8
image
100
AcDbVertex
100
AcDb2dVertex
 10
2.506912218191097
 20
5.245405761326454
 30
0.0
 70
     8
  0
VERTEX
  5
17CF
330
1609
100
AcDbEntity
  8
image
100
AcDbVertex
100
AcDb2dVertex
 10
2.507300184319094
 20
5.304178939066078
 30
0.0
 70
     8
  0
VERTEX
  5
17D0
330
1609
100
AcDbEntity
  8
image
100
AcDbVertex
100
AcDb2dVertex
 10
2.507697691241934
 20
5.370127849058629
 30
0.0
 70
     8
  0
VERTEX
  5
17D1
330
1609
100
AcDbEntity
  8
image
100
AcDbVertex
100
AcDb2dVertex
 10
2.508104626566585
 20
5.444734294845897
 30
0.0
 70
     8
  0
VERTEX
  5
17D2
330
1609
100
AcDbEntity
  8
image
100
AcDbVertex
100
AcDb2dVertex
 10
2.508520877900016
 20
5.529480079969667
 30
0.0
 70
     8
  0
VERTEX
  5
17D3
330
1609
100
AcDbEntity
  8
image
100
AcDbVertex
100
AcDb2dVertex
 10
2.508946332849198
 20
5.625847007971727
 30
0.0
 70
     8
  0
VERTEX
  5
17D4
330
1609
100
AcDbEntity
  8
image
100
AcDbVertex
100
AcDb2dVertex
 10
2.509380879021099
 20
5.735316882393866
 30
0.0
 70
     8
  0
VERTEX
  5
17D5
330
1609
100
AcDbEntity
  8
image
100
AcDbVertex
100
AcDb2dVertex
 10
2.509824404022688
 20
5.859371506777869
 30
0.0
 70
     8
  0
VERTEX
  5
16E8
330
1609
100
AcDbEntity
  8
image
100
AcDbVertex
100
AcDb2dVertex
 10
2.343974008232272
 20
2.891202309676939
 30
0.0
 70
    16
  0
VERTEX
  5
16E9
330
1609
100
AcDbEntity
  8
image
100
AcDbVertex
100
AcDb2dVertex
 10
2.34361039870466
 20
2.898066100130101
 30
0.0
 70
    16
  0
VERTEX
  5
16EA
330
1609
100
AcDbEntity
  8
image
100
AcDbVertex
100
AcDb2dVertex
 10
2.339335531579026
 20
2.908265180668524
 30
0.0
 70
    16
  0
VERTEX
  5
16EB
330
1609
100
AcDbEntity
  8
image
100
AcDbVertex
100
AcDb2dVertex
 10
2.339344539059739
 20
2.911805373324047
 30
0.0
 70
    16
  0
VERTEX
  5
16EC
330
1609
100
AcDbEntity
  8
image
100
AcDbVertex
100
AcDb2dVertex
 10
2.341860178156193
 20
2.91626320930149
 30
0.0
 70
    16
  0
VERTEX
  5
16ED
330
1609
100
AcDbEntity
  8
image
100
AcDbVertex
100
AcDb2dVertex
 10
2.395417416164643
 20
2.965917056399246
 30
0.0
 70
    16
  0
VERTEX
  5
16EE
330
1609
100
AcDbEntity
  8
image
100
AcDbVertex
100
AcDb2dVertex
 10
2.451133740314195
 20
3.047811559756914
 30
0.0
 70
    16
  0
VERTEX
  5
16EF
330
1609
100
AcDbEntity
  8
image
100
AcDbVertex
100
AcDb2dVertex
 10
2.492332462445022
 20
3.13439286607621
 30
0.0
 70
    16
  0
VERTEX
  5
16F0
330
1609
100
AcDbEntity
  8
image
100
AcDbVertex
100
AcDb2dVertex
 10
2.519328258681474
 20
3.230212654836066
 30
0.0
 70
    16
  0
VERTEX
  5
16F1
330
1609
100
AcDbEntity
  8
image
100
AcDbVertex
100
AcDb2dVertex
 10
2.53306624271342
 20
3.325023528341403
 30
0.0
 70
    16
  0
VERTEX
  5
16F2
330
1609
100
AcDbEntity
  8
image
100
AcDbVertex
100
AcDb2dVertex
 10
2.531264895454351
 20
3.416029541190413
 30
0.0
 70
    16
  0
VERTEX
  5
16F3
330
1609
100
AcDbEntity
  8
image
100
AcDbVertex
100
AcDb2dVertex
 10
2.522460951389994
 20
3.50089430712422
 30
0.0
 70
    16
  0
VERTEX
  5
16F4
330
1609
100
AcDbEntity
  8
image
100
AcDbVertex
100
AcDb2dVertex
 10
2.513875396617681
 20
3.573099674277522
 30
0.0
 70
    16
  0
VERTEX
  5
16F5
330
1609
100
AcDbEntity
  8
image
100
AcDbVertex
100
AcDb2dVertex
 10
2.502646746032867
 20
3.667067217460547
 30
0.0
 70
    16
  0
VERTEX
  5
16F6
330
1609
100
AcDbEntity
  8
image
100
AcDbVertex
100
AcDb2dVertex
 10
2.491146418864381
 20
3.766281611947345
 30
0.0
 70
    16
  0
VERTEX
  5
16F7
330
1609
100
AcDbEntity
  8
image
100
AcDbVertex
100
AcDb2dVertex
 10
2.481770217040327
 20
3.85380385995238
 30
0.0
 70
    16
  0
VERTEX
  5
16F8
330
1609
100
AcDbEntity
  8
image
100
AcDbVertex
100
AcDb2dVertex
 10
2.473652356919763
 20
3.942407675146246
 30
0.0
 70
    16
  0
VERTEX
  5
16F9
330
1609
100
AcDbEntity
  8
image
100
AcDbVertex
100
AcDb2dVertex
 10
2.468730343725084
 20
4.038399811095263
 30
0.0
 70
    16
  0
VERTEX
  5
16FA
330
1609
100
AcDbEntity
  8
image
100
AcDbVertex
100
AcDb2dVertex
 10
2.469545222632305
 20
4.134187924793778
 30
0.0
 70
    16
  0
VERTEX
  5
16FB
330
1609
100
AcDbEntity
  8
image
100
AcDbVertex
100
AcDb2dVertex
 10
2.476345848130188
 20
4.232445931687661
 30
0.0
 70
    16
  0
VERTEX
  5
16FC
330
1609
100
AcDbEntity
  8
image
100
AcDbVertex
100
AcDb2dVertex
 10
2.483971322495486
 20
4.317866455626615
 30
0.0
 70
    16
  0
VERTEX
  5
16FD
330
1609
100
AcDbEntity
  8
image
100
AcDbVertex
100
AcDb2dVertex
 10
2.494368650531692
 20
4.458875650728417
 30
0.0
 70
    16
  0
VERTEX
  5
16FE
330
1609
100
AcDbEntity
  8
image
100
AcDbVertex
100
AcDb2dVertex
 10
2.497575154571296
 20
4.546184174000973
 30
0.0
 70
    16
  0
VERTEX
  5
16FF
330
1609
100
AcDbEntity
  8
image
100
AcDbVertex
100
AcDb2dVertex
 10
2.500753469175697
 20
4.680660930741374
 30
0.0
 70
    16
  0
VERTEX
  5
1700
330
1609
100
AcDbEntity
  8
image
100
AcDbVertex
100
AcDb2dVertex
 10
2.50375464658884
 20
4.876375429082743
 30
0.0
 70
    16
  0
VERTEX
  5
1701
330
1609
100
AcDbEntity
  8
image
100
AcDbVertex
100
AcDb2dVertex
 10
2.506429739054665
 20
5.147397177158208
 30
0.0
 70
    16
  0
VERTEX
  5
1702
330
1609
100
AcDbEntity
  8
image
100
AcDbVertex
100
AcDb2dVertex
 10
2.508629798817116
 20
5.507795683100894
 30
0.0
 70
    16
  0
VERTEX
  5
1703
330
1609
100
AcDbEntity
  8
image
100
AcDbVertex
100
AcDb2dVertex
 10
2.509824404022688
 20
5.859371506777869
 30
0.0
 70
    16
  0
SEQEND
  5
1704
330
1609
100
AcDbEntity
  8
image
  0
ENDSEC
  0
SECTION
  2
OBJECTS
  0
DICTIONARY
  5
10AF
330
0
100
AcDbDictionary
281
     1
  3
ACAD_COLOR
350
121C
  3
ACAD_GROUP
350
10B0
  3
ACAD_LAYOUT
350
10BC
  3
ACAD_MATERIAL
350
11F2
  3
ACAD_MLEADERSTYLE
350
1241
  3
ACAD_MLINESTYLE
350
10B9
  3
ACAD_PLOTSETTINGS
350
10BB
  3
ACAD_PLOTSTYLENAME
350
10B1
  3
ACAD_SCALELIST
350
121F
  3
ACAD_TABLESTYLE
350
121D
  3
ACAD_VISUALSTYLE
350
120B
  3
ACDB_RECOMPOSE_DATA
350
12BC
  3
AcDbVariableDictionary
350
10DD
  3
AEC_PROPERTY_SET_DEFS
350
1350
1001
BBSI_PltSel
1000
1
1000

1001
BBSI_Bookmarks
1000
1
1000
1
1000
0
1000
1
1000
0
1000
0
1000
0
1000
0
1000
0
1000
0
1000
0
1001
BBSI_BookmarksEx
1000
0
1000
0
1000

1000
0
1001
BBSI_Plots
1000

1000
ANSI_A_(11.00_x_8.50_Inches)
1000
279.399993896484
1000
215.899993896484
1000
0
1000
1
1000
1
1000
1.513528885555E-14
1000
17.9871359092673
1000
1
1000
0
1000
1
1000
1.56885758041751
1000
0
1000
1
1000
PDF BW Shaded.ctb
1000
0
1000
0
1000
1
1000
1
1000
0
1000
0
1000
0
1000
0
1000
0
1000
0
1000

1000

  0
DICTIONARY
  5
10EB
330
10A5
100
AcDbDictionary
280
     1
281
     1
  3
ACAD_LAYERFILTERS
360
17FD
  3
ACAD_LAYERSTATES
360
10EC
  0
DICTIONARY
  5
12AB
330
10C1
100
AcDbDictionary
280
     1
281
     1
  3
ACAD_SORTENTS
360
1415
  0
DICTIONARY
  5
1316
330
1195
100
AcDbDictionary
280
     1
281
     1
  3
ACAD_SORTENTS
360
1344
  0
DICTIONARY
  5
1825
330
12DA
100
AcDbDictionary
280
     1
281
     1
  3
ACAD_MTEXT_2008_RT
360
1826
  0
DICTIONARY
  5
121C
102
{ACAD_REACTORS
330
10AF
102
}
330
10AF
100
AcDbDictionary
281
     1
  0
DICTIONARY
  5
10B0
102
{ACAD_REACTORS
330
10AF
102
}
330
10AF
100
AcDbDictionary
281
     1
  0
DICTIONARY
  5
10BC
102
{ACAD_REACTORS
330
10AF
102
}
330
10AF
100
AcDbDictionary
281
     1
  3
Layout1
350
10C0
  3
Model
350
10C4
  0
DICTIONARY
  5
11F2
102
{ACAD_REACTORS
330
10AF
102
}
330
10AF
100
AcDbDictionary
281
     1
  3
ByBlock
350
11FB
  3
ByLayer
350
11F3
  3
Global
350
1203
  0
DICTIONARY
  5
1241
102
{ACAD_REACTORS
330
10AF
102
}
330
10AF
100
AcDbDictionary
281
     1
  3
Standard
350
1242
  0
DICTIONARY
  5
10B9
102
{ACAD_REACTORS
330
10AF
102
}
330
10AF
100
AcDbDictionary
281
     1
  3
Standard
350
10BA
  0
DICTIONARY
  5
10BB
102
{ACAD_REACTORS
330
10AF
102
}
330
10AF
100
AcDbDictionary
281
     1
  3
1055 24x36 BW
350
1256
  3
1055 24x36 BW Final
350
1258
  3
1055 24x36 Color
350
1259
  3
1055 24x36 Color Shaded
350
125A
  3
1055 30x42 BW
350
125B
  3
1055 30x42 BW Final
350
125C
  3
1055 B&W Draft
350
125D
  3
1055 B&W Final
350
125E
  3
1055 BW Half
350
125F
  3
1055 Color Draft
350
1260
  3
1055 Color Final
350
1261
  3
1055+ 24x36 BW
350
1262
  3
1055+ 24x36 BW Final
350
1263
  3
1055+ 24x36 Color
350
1264
  3
1055+ 24x36 Color Shaded
350
1265
  3
1055+ 30x42 BW
350
1266
  3
1055+ 30x42 BW Final
350
1267
  3
1055+ B&W Draft
350
1268
  3
1055+ B&W Final
350
1269
  3
1055+ BW Half
350
126A
  3
1055+ Color Draft
350
126B
  3
1055+ Color Final
350
126C
  3
_1055 22x34 True Centered BW
350
126D
  3
_1055 24x36 True Centered BW
350
126E
  3
_1055 24x36 True Centered BW Final
350
126F
  3
_1055 24x36 True Centered Color
350
1270
  3
_1055 30x42 True Centered BW
350
1271
  3
_1055+ 22x34 True Centered BW
350
1272
  3
_1055+ 24x36 True Centered BW
350
1273
  3
_1055+ 24x36 True Centered BW Final
350
1274
  3
_1055+ 24x36 True Centered Color
350
1275
  3
DWF BW 11x17 Fit
350
1276
  3
DWF BW 11x17 Half
350
1277
  3
DWF BW 22x34
350
1278
  3
DWF BW 24x36
350
1279
  3
DWF BW 30x42
350
127A
  3
DWF BW 36x48
350
127B
  3
Laser5 11x17 Fit
350
127C
  3
Laser5 11x17 Full
350
127D
  3
Laser5 11x17 Half
350
127E
  3
Laser5 8x11 Fit
350
127F
  3
Laser5 8x11 Half
350
1280
  3
Laser5 8x11 Portrait Fit
350
1281
  3
LaserJet5 11x17
350
1282
  3
LaserJet5 8.5x11
350
1283
  3
Oki9500 11x17 BW Fit
350
1284
  3
Oki9500 11x17 BW Full
350
1285
  3
Oki9500 11x17 BW Half
350
1286
  3
Oki9500 11x17 Color Fit
350
1287
  3
Oki9500 11x17 Color Full
350
1288
  3
Oki9500 11x17 Color Half
350
1289
  3
Oki9500 8x11 BW Fit
350
128A
  3
Oki9500 8x11 BW Portrait Fit
350
128B
  3
Oki9500 8x11 Color Fit
350
128C
  3
Oki9500 8x11 Color Portrait Fit
350
128D
  3
OKI9500 B&W 11x17
350
128E
  3
OKI9500 B&W 8.5x11
350
128F
  3
OKI9500 Color 11x17
350
1290
  3
OKI9500 Color 8.5x11
350
1291
  3
Oki9600 11x17 BW Fit
350
1292
  3
Oki9600 11x17 BW Full
350
1293
  3
Oki9600 11x17 BW Half
350
1294
  3
Oki9600 11x17 Color Fit
350
1295
  3
Oki9600 11x17 Color Full
350
1296
  3
Oki9600 11x17 Color Half
350
1297
  3
Oki9600 8x11 BW Fit
350
1298
  3
Oki9600 8x11 BW Portrait Fit
350
1299
  3
Oki9600 8x11 Color Fit
350
129A
  3
Oki9600 8x11 Color Portrait Fit
350
129B
  3
OKI9600 B&W 11x17
350
129C
  3
OKI9600 B&W 8.5x11
350
129D
  3
OKI9600 Color 11x17
350
129E
  3
OKI9600 Color 8.5x11
350
129F
  3
PHX Kyocera 11x17 Fit
350
12A0
  3
PHX Oki9500 11x17 BW Fit
350
12A1
  3
PHX Oki9500 11x17 BW Half
350
12A2
  0
ACDBDICTIONARYWDFLT
  5
10B1
102
{ACAD_REACTORS
330
10AF
102
}
330
10AF
100
AcDbDictionary
281
     1
  3
Normal
350
10B2
100
AcDbDictionaryWithDefault
340
10B2
  0
DICTIONARY
  5
121F
102
{ACAD_REACTORS
330
10AF
102
}
330
10AF
100
AcDbDictionary
281
     1
  3
A0
350
1220
  3
A1
350
1221
  3
A2
350
1222
  3
A3
350
1223
  3
A4
350
1224
  3
A5
350
1225
  3
A6
350
1226
  3
A7
350
1227
  3
A8
350
1228
  3
A9
350
1229
  3
B0
350
122A
  3
B1
350
122B
  3
B2
350
122C
  3
B3
350
122D
  3
B4
350
122E
  3
B5
350
122F
  3
B6
350
1230
  3
B7
350
1231
  3
B8
350
1232
  3
B9
350
1233
  3
C0
350
1234
  3
C1
350
1235
  3
C2
350
1236
  3
C3
350
1237
  3
C4
350
1238
  3
C5
350
1239
  3
C6
350
123A
  3
C7
350
123B
  3
C8
350
123C
  3
C9
350
123D
  3
D0
350
123E
  3
D1
350
123F
  3
D2
350
1240
  0
DICTIONARY
  5
121D
102
{ACAD_REACTORS
330
10AF
102
}
330
10AF
100
AcDbDictionary
281
     1
  3
Standard
350
121E
  0
DICTIONARY
  5
120B
102
{ACAD_REACTORS
330
10AF
102
}
330
10AF
100
AcDbDictionary
281
     1
  3
2dWireframe
350
1211
  3
3D Hidden
350
1213
  3
3dWireframe
350
1212
  3
Basic
350
1210
  3
Brighten
350
1217
  3
ColorChange
350
121B
  3
Conceptual
350
1214
  3
Dim
350
1216
  3
Facepattern
350
121A
  3
Flat
350
120C
  3
FlatWithEdges
350
120D
  3
Gouraud
350
120E
  3
GouraudWithEdges
350
120F
  3
Linepattern
350
1219
  3
Realistic
350
1215
  3
Thicken
350
1218
  0
XRECORD
  5
12BC
102
{ACAD_REACTORS
330
10AF
102
}
330
10AF
100
AcDbXrecord
280
     1
 90
        1
330
121E
330
12DA
  0
DICTIONARY
  5
10DD
102
{ACAD_REACTORS
330
10AF
102
}
330
10AF
100
AcDbDictionary
281
     1
  3
CANNOSCALE
350
12C0
  3
CMLEADERSTYLE
350
12BE
  3
CTABLESTYLE
350
12BD
  3
DIMASSOC
350
10E0
  3
HIDETEXT
350
10DF
  3
LAYEREVAL
350
181C
  3
LAYERNOTIFY
350
12C2
  3
LIGHTINGUNITS
350
12C1
  3
MSLTSCALE
350
12BF
  3
SORTENTS
350
10DE
  0
DICTIONARY
  5
1350
102
{ACAD_REACTORS
330
10AF
102
}
330
10AF
100
AcDbDictionary
281
     1
  0
DICTIONARY
  5
17FD
102
{ACAD_REACTORS
330
10EB
102
}
330
10EB
100
AcDbDictionary
281
     1
  3
_0100-
350
1800
  3
_0280-
350
17FF
  3
_Color 253
350
1803
  3
_Color 8
350
1801
  3
_Color 84
350
1802
  3
_Contours
350
1808
  3
_Existing
350
1804
  3
_Hardscape
350
1807
  3
_NoXref
350
17FE
  3
_Row
350
1805
  3
_Utility
350
1806
  0
DICTIONARY
  5
10EC
102
{ACAD_REACTORS
330
10EB
102
}
330
10EB
100
AcDbDictionary
281
     1
  0
SORTENTSTABLE
  5
1415
102
{ACAD_REACTORS
330
12AB
102
}
330
12AB
100
AcDbSortentsTable
330
10C1
331
A58
  5
A59
331
A60
  5
A61
331
9B9
  5
9BA
331
A68
  5
A69
331
A70
  5
A71
331
A91
  5
A92
331
B38
  5
B39
331
CFD
  5
CFE
331
B77
  5
B78
331
A99
  5
A9A
331
B40
  5
B41
331
CC6
  5
CC7
331
D05
  5
D06
331
B7F
  5
B80
331
B09
  5
B0A
331
B48
  5
B49
331
CCE
  5
CCF
331
ED4
  5
ED5
331
B87
  5
B88
331
B11
  5
B12
331
B50
  5
B51
331
CD6
  5
CD7
331
EDC
  5
EDD
331
B8F
  5
B90
331
CDE
  5
CDF
331
A39
  5
A3A
331
A78
  5
A79
331
A41
  5
A42
331
A80
  5
A81
331
A49
  5
A4A
331
A88
  5
A89
331
B19
  5
B1A
331
B58
  5
B59
331
118C
  5
118D
331
CE6
  5
CE7
331
B21
  5
B22
331
B60
  5
B61
331
D25
  5
D26
331
CAF
  5
CB0
331
B29
  5
B2A
331
B68
  5
B69
331
CEE
  5
CEF
331
B31
  5
B32
331
CB7
  5
CB8
331
CF6
  5
CF7
331
CBF
  5
CC0
331
A59
  5
A5A
331
A61
  5
A62
331
9BA
  5
9BB
331
A69
  5
A6A
331
A71
  5
A72
331
B70
  5
B71
331
A92
  5
A93
331
B39
  5
B3A
331
11A4
  5
12DA
331
CFE
  5
CFF
331
B78
  5
B79
331
A9A
  5
A9B
331
B41
  5
B42
331
CC7
  5
CC8
331
D06
  5
D07
331
B80
  5
B81
331
B0A
  5
B0B
331
B49
  5
B4A
331
CCF
  5
CD0
331
114D
  5
114E
331
D0E
  5
D0F
331
B88
  5
B89
331
B12
  5
B14
331
B51
  5
B52
331
CD7
  5
CD8
331
ED5
  5
ED6
331
D1E
  5
D1F
331
CDF
  5
CE0
331
EDD
  5
EDE
331
A3A
  5
A3B
331
A79
  5
A7A
331
A42
  5
A43
331
A81
  5
A82
331
A4A
  5
A4B
331
A89
  5
A8A
331
A52
  5
A53
331
B90
  5
B91
331
B1A
  5
B1B
331
B59
  5
B5A
331
118D
  5
11A4
331
B22
  5
B23
331
B61
  5
B62
331
CE7
  5
CE8
331
CB0
  5
CB1
331
B2A
  5
B2B
331
B69
  5
B6A
331
CEF
  5
CF0
331
CF7
  5
CF8
331
CB8
  5
CB9
331
B32
  5
B33
331
433
  5
433
331
A5A
  5
A5B
331
A62
  5
A63
331
9BB
  5
9BC
331
A6A
  5
A6B
331
A72
  5
A73
331
B71
  5
B72
331
A93
  5
A94
331
B3A
  5
B3B
331
CC0
  5
CC1
331
CFF
  5
D00
331
B79
  5
B7A
331
A9B
  5
B08
331
B42
  5
B43
331
CC8
  5
CC9
331
D07
  5
D08
331
B81
  5
B82
331
B0B
  5
B0C
331
B4A
  5
B4B
331
CD0
  5
CD1
331
ECE
  5
ECF
331
114E
  5
1150
331
B89
  5
B8A
331
B52
  5
B53
331
CD8
  5
CD9
331
ED6
  5
ED7
331
D1F
  5
D20
331
EDE
  5
EDF
331
A3B
  5
A3C
331
A7A
  5
A7B
331
A43
  5
A44
331
A82
  5
A83
331
A4B
  5
A4C
331
A8A
  5
A8B
331
A53
  5
A54
331
B91
  5
B92
331
B1B
  5
B1C
331
B5A
  5
B5B
331
CE0
  5
CE1
331
12DA
  5
1352
331
CA9
  5
CAA
331
B23
  5
B24
331
B62
  5
B63
331
CE8
  5
CE9
331
CB1
  5
CB2
331
B2B
  5
B2C
331
B6A
  5
B6B
331
CF0
  5
CF1
331
CB9
  5
CBA
331
B33
  5
B34
331
A5B
  5
A5C
331
9B4
  5
9B5
331
A63
  5
A64
331
9BC
  5
9BD
331
A6B
  5
A6C
331
A34
  5
A35
331
A73
  5
A74
331
CF8
  5
CF9
331
B72
  5
B73
331
A94
  5
A95
331
B3B
  5
B3C
331
CC1
  5
CC2
331
D00
  5
D01
331
B7A
  5
B7B
331
B43
  5
B44
331
CC9
  5
CCA
331
1352
  5
13BC
331
ECF
  5
ED1
331
B82
  5
B83
331
B0C
  5
B0D
331
B4B
  5
B4C
331
CD1
  5
CD2
331
ED7
  5
EDC
331
B8A
  5
B8B
331
B14
  5
B15
331
B53
  5
B54
331
CD9
  5
CDA
331
EDF
  5
EE0
331
A3C
  5
A3D
331
A7B
  5
A7C
331
A44
  5
A45
331
A83
  5
A84
331
A4C
  5
A4D
331
A8B
  5
A8C
331
A54
  5
A55
331
D20
  5
D21
331
B92
  5
CA9
331
B1C
  5
B1D
331
B5B
  5
B5C
331
CE1
  5
CE2
331
D28
  5
D29
331
CAA
  5
CAB
331
B24
  5
B25
331
B63
  5
B64
331
CE9
  5
CEA
331
EA8
  5
EAB
331
CB2
  5
CB3
331
B2C
  5
B2D
331
B6B
  5
B6C
331
CF1
  5
CF2
331
CBA
  5
CBB
331
B34
  5
B35
331
A5C
  5
A5D
331
9B5
  5
9B8
331
A64
  5
A65
331
9BD
  5
A34
331
A6C
  5
A6D
331
A35
  5
A36
331
A74
  5
A75
331
CF9
  5
CFA
331
B73
  5
B74
331
A95
  5
A98
331
B3C
  5
B3D
331
CC2
  5
CC3
331
D01
  5
D02
331
B7B
  5
B7C
331
B44
  5
B45
331
CCA
  5
CCB
331
B83
  5
B84
331
B0D
  5
B0E
331
B4C
  5
B4D
331
CD2
  5
CD3
331
1150
  5
1151
331
B8B
  5
B8C
331
B15
  5
B16
331
B54
  5
B55
331
CDA
  5
CDB
331
A3D
  5
A3E
331
A7C
  5
A7D
331
A45
  5
A46
331
A84
  5
A85
331
A4D
  5
A4E
331
A8C
  5
A8D
331
A55
  5
A56
331
EE0
  5
EE1
331
CE2
  5
CE3
331
B1D
  5
B1E
331
B5C
  5
B5D
331
CAB
  5
CAC
331
B25
  5
B26
331
B64
  5
B65
331
CEA
  5
CEB
331
D29
  5
D2A
331
CB3
  5
CB4
331
B2D
  5
B2E
331
B6C
  5
B6D
331
CF2
  5
CF3
331
CBB
  5
CBC
331
B35
  5
B36
331
A5D
  5
A5E
331
A65
  5
A66
331
A6D
  5
A70
331
A36
  5
A37
331
A75
  5
A76
331
CFA
  5
CFB
331
B74
  5
B75
331
B3D
  5
B3E
331
CC3
  5
CC4
331
D02
  5
D03
331
B7C
  5
B7D
331
B45
  5
B46
331
CCB
  5
CCC
331
1149
  5
114A
331
ED1
  5
ED2
331
B84
  5
B85
331
B0E
  5
B0F
331
B4D
  5
B4E
331
CD3
  5
CD4
331
1151
  5
118C
331
B8C
  5
B8E
331
B16
  5
B17
331
B55
  5
B56
331
CDB
  5
CDC
331
A3E
  5
A3F
331
A7D
  5
A7E
331
A46
  5
A47
331
A85
  5
A88
331
A4E
  5
A4F
331
A8D
  5
A8E
331
A56
  5
A57
331
EE1
  5
EE2
331
D22
  5
D23
331
B1E
  5
B1F
331
B5D
  5
B5E
331
CE3
  5
CE4
331
CAC
  5
CAD
331
B26
  5
B27
331
B65
  5
B66
331
CEB
  5
CEC
331
D2A
  5
D2B
331
CB4
  5
CB5
331
B2E
  5
B2F
331
B6D
  5
B6E
331
CF3
  5
CF4
331
CBC
  5
CBD
331
B36
  5
B37
331
A5E
  5
A5F
331
A66
  5
A67
331
A37
  5
A38
331
A76
  5
A77
331
EC2
  5
EC3
331
CFB
  5
CFC
331
B75
  5
B76
331
B3E
  5
B3F
331
CC4
  5
CC5
331
D03
  5
D04
331
B7D
  5
B7E
331
B46
  5
B47
331
CCC
  5
CCD
331
114A
  5
114D
331
ED2
  5
ED4
331
B85
  5
B86
331
B0F
  5
B10
331
B4E
  5
B4F
331
CD4
  5
CD5
331
B17
  5
B18
331
B56
  5
B57
331
CDC
  5
CDD
331
A3F
  5
A40
331
A7E
  5
A7F
331
A47
  5
A48
331
A4F
  5
A52
331
A8E
  5
A8F
331
A57
  5
A58
331
EE2
  5
1149
331
CE4
  5
CE5
331
B1F
  5
B20
331
B5E
  5
B5F
331
D23
  5
D24
331
CAD
  5
CAE
331
B27
  5
B28
331
B66
  5
B67
331
CEC
  5
CED
331
D2B
  5
D2C
331
EAB
  5
EAC
331
CB5
  5
CB6
331
B2F
  5
B30
331
B6E
  5
B6F
331
CF4
  5
CF5
331
EBB
  5
EBC
331
CBD
  5
CBE
331
B37
  5
B38
331
9B0
  5
9B4
331
A5F
  5
A60
331
9B8
  5
9B9
331
A67
  5
A68
331
A77
  5
A78
331
A90
  5
A91
331
EC3
  5
ECE
331
CFC
  5
CFD
331
B76
  5
B77
331
A98
  5
A99
331
B3F
  5
B40
331
CC5
  5
CC6
331
D04
  5
D05
331
B7E
  5
B7F
331
B08
  5
B09
331
B47
  5
B48
331
CCD
  5
CCE
331
B86
  5
B87
331
B10
  5
B11
331
B4F
  5
B50
331
CD5
  5
CD6
331
B8E
  5
B8F
331
B57
  5
B58
331
CDD
  5
CDE
331
D1C
  5
D1D
331
A38
  5
A39
331
A40
  5
A41
331
A7F
  5
A80
331
A48
  5
A49
331
A8F
  5
A90
331
B18
  5
B19
331
D24
  5
D25
331
B20
  5
B21
331
B5F
  5
B60
331
CE5
  5
CE6
331
CAE
  5
CAF
331
B28
  5
B29
331
B67
  5
B68
331
CED
  5
CEE
331
D2C
  5
EA8
331
EAC
  5
EBB
331
CB6
  5
CB7
331
B6F
  5
B70
331
B30
  5
B31
331
CF5
  5
CF6
331
EBC
  5
EC2
331
CBE
  5
CBF
  0
SORTENTSTABLE
  5
1344
102
{ACAD_REACTORS
330
1316
102
}
330
1316
100
AcDbSortentsTable
330
1195
  0
XRECORD
  5
1826
102
{ACAD_REACTORS
330
1825
102
}
330
1825
100
AcDbXrecord
280
     1
 40
10169127.0
  1
\A1;PLANT MATERIAL \P\PFINISH GRADE \P\P\pxi-2,l2;MICRO-SPRAY POP-UP:\P\pt2;^IRAIN BIRD XERI-POP XP-400X \P\pi0,l0,tz;{\Fromans|c0;\H0.7x;\S1#2;\H1.4286x;" POLYETHYLENE TUBING:\P\pi-2,l2;  RAIN BIRD XF SERIES TUBING OR\P\pi0,l0;  RAIN BIRD XT-700 XERI
  1
-TUBE OR\P  RAIN BIRD XBS BLACK STRIPE TUBING \H0.99998x;\P\Fsimplex|c0;\H0.7x;\S1#4;}" SELF-PIERCING BARB CONNECTOR:\P\pt2;^IRAIN BIRD SPB-025   \P\pi-2,l2,tz;{\Fromans|c0;\H0.7x;\S1#4;\H1.4286x;" DISTRIBUTION TUBING:  \P  RAIN BIRD XQ TUBING\P  (LEN
  1
GTH AS REQUIRED)}
  0
LAYOUT
  5
10C0
102
{ACAD_REACTORS
330
10BC
102
}
330
10BC
100
AcDbPlotSettings
  1

  2
S:\AutoCAD 2002\Plotters\1055B&WDraftShaded.pc3
  4

  6

 40
0.0
 41
0.0
 42
0.0
 43
0.0
 44
0.0
 45
0.0
 46
0.0
 47
0.0
 48
0.0
 49
0.0
140
0.0
141
0.0
142
1.0
143
1.0
 70
   688
 72
     0
 73
     0
 74
     5
  7
TRexLJ5Shaded2.ctb
 75
    16
147
1.0
 76
     0
 77
     2
 78
   300
148
0.0
149
0.0
100
AcDbLayout
  1
Layout1
 70
     1
 71
     1
 10
0.0
 20
0.0
 11
12.0
 21
9.0
 12
0.0
 22
0.0
 32
0.0
 14
1.000000000000000E+20
 24
1.000000000000000E+20
 34
1.000000000000000E+20
 15
-1.000000000000000E+20
 25
-1.000000000000000E+20
 35
-1.000000000000000E+20
146
0.0
 13
0.0
 23
0.0
 33
0.0
 16
1.0
 26
0.0
 36
0.0
 17
0.0
 27
1.0
 37
0.0
 76
     0
330
10BD
  0
LAYOUT
  5
10C4
102
{ACAD_REACTORS
330
10BC
102
}
330
10BC
100
AcDbPlotSettings
  1
LaserJet5 8.5x11
  2
LaserJet5Shaded-8x11.pc3
  4
Letter
  6

 40
5.873749732971191
 41
5.873734951019287
 42
6.55108642578125
 43
5.027084350585937
 44
279.3999938964844
 45
215.8999938964844
 46
32.0229288755689
 47
-0.0000000000000076
 48
0.0
 49
0.0
140
0.0
141
0.0
142
1.0
143
1.293546671707545
 70
 11956
 72
     0
 73
     0
 74
     1
  7
laserjet5shaded.ctb
 75
     0
147
0.7730683568455638
 76
     0
 77
     2
 78
   300
148
12.66076841047503
149
32.36515640156503
100
AcDbLayout
  1
Model
 70
     1
 71
     0
 10
0.0
 20
0.0
 11
12.0
 21
9.0
 12
0.0
 22
0.0
 32
0.0
 14
0.0
 24
0.0
 34
0.0
 15
0.0
 25
0.0
 35
0.0
146
0.0
 13
0.0
 23
0.0
 33
0.0
 16
1.0
 26
0.0
 36
0.0
 17
0.0
 27
1.0
 37
0.0
 76
     0
330
10C1
331
11F0
1001
ACAD_PSEXT
1000
LaserJet5Shaded-8x11.pc3
1000
HP LaserJet 5Si
1000
CAD Area
1000

1070
     0
  0
MATERIAL
  5
11FB
102
{ACAD_XDICTIONARY
360
11FC
102
}
102
{ACAD_REACTORS
330
11F2
102
}
330
11F2
100
AcDbMaterial
  1
ByBlock
 72
     0
 43
0.0208333333333333
 43
0.0
 43
0.0
 43
0.0
 43
0.0
 43
0.0208333333333333
 43
0.0
 43
0.0
 43
0.0
 43
0.0
 43
1.0
 43
0.0
 43
0.0
 43
0.0
 43
0.0
 43
1.0
 77
     0
 47
0.0208333333333333
 47
0.0
 47
0.0
 47
0.0
 47
0.0
 47
0.0208333333333333
 47
0.0
 47
0.0
 47
0.0
 47
0.0
 47
1.0
 47
0.0
 47
0.0
 47
0.0
 47
0.0
 47
1.0
171
     0
 49
0.0208333333333333
 49
0.0
 49
0.0
 49
0.0
 49
0.0
 49
0.0208333333333333
 49
0.0
 49
0.0
 49
0.0
 49
0.0
 49
1.0
 49
0.0
 49
0.0
 49
0.0
 49
0.0
 49
1.0
175
     0
142
0.0208333333333333
142
0.0
142
0.0
142
0.0
142
0.0
142
0.0208333333333333
142
0.0
142
0.0
142
0.0
142
0.0
142
1.0
142
0.0
142
0.0
142
0.0
142
0.0
142
1.0
179
     0
144
0.0208333333333333
144
0.0
144
0.0
144
0.0
144
0.0
144
0.0208333333333333
144
0.0
144
0.0
144
0.0
144
0.0
144
1.0
144
0.0
144
0.0
144
0.0
144
0.0
144
1.0
147
0.0208333333333333
147
0.0
147
0.0
147
0.0
147
0.0
147
0.0208333333333333
147
0.0
147
0.0
147
0.0
147
0.0
147
1.0
147
0.0
147
0.0
147
0.0
147
0.0
147
1.0
  0
MATERIAL
  5
11F3
102
{ACAD_XDICTIONARY
360
11F4
102
}
102
{ACAD_REACTORS
330
11F2
102
}
330
11F2
100
AcDbMaterial
  1
ByLayer
 72
     0
 43
0.0208333333333333
 43
0.0
 43
0.0
 43
0.0
 43
0.0
 43
0.0208333333333333
 43
0.0
 43
0.0
 43
0.0
 43
0.0
 43
1.0
 43
0.0
 43
0.0
 43
0.0
 43
0.0
 43
1.0
 77
     0
 47
0.0208333333333333
 47
0.0
 47
0.0
 47
0.0
 47
0.0
 47
0.0208333333333333
 47
0.0
 47
0.0
 47
0.0
 47
0.0
 47
1.0
 47
0.0
 47
0.0
 47
0.0
 47
0.0
 47
1.0
171
     0
 49
0.0208333333333333
 49
0.0
 49
0.0
 49
0.0
 49
0.0
 49
0.0208333333333333
 49
0.0
 49
0.0
 49
0.0
 49
0.0
 49
1.0
 49
0.0
 49
0.0
 49
0.0
 49
0.0
 49
1.0
175
     0
142
0.0208333333333333
142
0.0
142
0.0
142
0.0
142
0.0
142
0.0208333333333333
142
0.0
142
0.0
142
0.0
142
0.0
142
1.0
142
0.0
142
0.0
142
0.0
142
0.0
142
1.0
179
     0
144
0.0208333333333333
144
0.0
144
0.0
144
0.0
144
0.0
144
0.0208333333333333
144
0.0
144
0.0
144
0.0
144
0.0
144
1.0
144
0.0
144
0.0
144
0.0
144
0.0
144
1.0
147
0.0208333333333333
147
0.0
147
0.0
147
0.0
147
0.0
147
0.0208333333333333
147
0.0
147
0.0
147
0.0
147
0.0
147
1.0
147
0.0
147
0.0
147
0.0
147
0.0
147
1.0
  0
MATERIAL
  5
1203
102
{ACAD_XDICTIONARY
360
1204
102
}
102
{ACAD_REACTORS
330
11F2
102
}
330
11F2
100
AcDbMaterial
  1
Global
 72
     0
 43
0.0208333333333333
 43
0.0
 43
0.0
 43
0.0
 43
0.0
 43
0.0208333333333333
 43
0.0
 43
0.0
 43
0.0
 43
0.0
 43
1.0
 43
0.0
 43
0.0
 43
0.0
 43
0.0
 43
1.0
 77
     0
 47
0.0208333333333333
 47
0.0
 47
0.0
 47
0.0
 47
0.0
 47
0.0208333333333333
 47
0.0
 47
0.0
 47
0.0
 47
0.0
 47
1.0
 47
0.0
 47
0.0
 47
0.0
 47
0.0
 47
1.0
171
     0
 49
0.0208333333333333
 49
0.0
 49
0.0
 49
0.0
 49
0.0
 49
0.0208333333333333
 49
0.0
 49
0.0
 49
0.0
 49
0.0
 49
1.0
 49
0.0
 49
0.0
 49
0.0
 49
0.0
 49
1.0
175
     0
142
0.0208333333333333
142
0.0
142
0.0
142
0.0
142
0.0
142
0.0208333333333333
142
0.0
142
0.0
142
0.0
142
0.0
142
1.0
142
0.0
142
0.0
142
0.0
142
0.0
142
1.0
179
     0
144
0.0208333333333333
144
0.0
144
0.0
144
0.0
144
0.0
144
0.0208333333333333
144
0.0
144
0.0
144
0.0
144
0.0
144
1.0
144
0.0
144
0.0
144
0.0
144
0.0
144
1.0
147
0.0208333333333333
147
0.0
147
0.0
147
0.0
147
0.0
147
0.0208333333333333
147
0.0
147
0.0
147
0.0
147
0.0
147
1.0
147
0.0
147
0.0
147
0.0
147
0.0
147
1.0
  0
MLEADERSTYLE
  5
1242
102
{ACAD_REACTORS
330
1241
102
}
330
1241
100
AcDbMLeaderStyle
170
     2
171
     1
172
     0
 90
        2
 40
0.0
 41
0.0
173
     1
 91
-1056964608
340
10B6
 92
       -2
290
     1
 42
0.09
291
     1
 43
0.36
  3
Standard
 44
0.18
300

342
10B4
174
     1
178
     6
175
     1
176
     0
 93
-1056964608
 45
0.18
292
     0
297
     0
 46
0.18
 94
-1056964608
 47
1.0
 49
1.0
140
1.0
293
     1
141
0.0
294
     1
177
     0
142
1.0
295
     0
296
     0
143
0.125
1001
ACAD_MLEADERVER
1070
     2
  0
MLINESTYLE
  5
10BA
102
{ACAD_REACTORS
330
10B9
102
}
330
10B9
100
AcDbMlineStyle
  2
STANDARD
 70
     0
  3

 62
   256
 51
90.0
 52
90.0
 71
     2
 49
0.5
 62
   256
  6
BYLAYER
 49
-0.5
 62
   256
  6
BYLAYER
  0
PLOTSETTINGS
  5
1256
102
{ACAD_REACTORS
330
10BB
102
}
330
10BB
100
AcDbPlotSettings
  1
1055 24x36 BW
  2
1055B&WDraftShaded.pc3
  4
User257
  6

 40
14.98600006103515
 41
8.297271728515625
 42
14.9859619140625
 43
8.29736328125
 44
914.3153076171875
 45
1269.915283203125
 46
0.0
 47
0.0
 48
0.0
 49
0.0
140
0.0
141
0.0
142
1.0
143
1.0
 70
  2800
 72
     0
 73
     2
 74
     1
  7
1055B&WFullDraftShaded.ctb
 75
    16
147
1.0
 76
     0
 77
     2
 78
   300
148
-75.74468520391772
149
-27.53050504688192
1001
ACAD_PSEXT
1000
1055B&WDraftShaded.pc3
1000
HP DesignJet 1055CM by HP
1000
FRONT
1000

1070
     0
  0
PLOTSETTINGS
  5
1258
102
{ACAD_REACTORS
330
10BB
102
}
330
10BB
100
AcDbPlotSettings
  1
1055 24x36 BW Final
  2
1055B&WFinalShaded.pc3
  4
User257
  6

 40
14.98600006103515
 41
8.297271728515625
 42
14.9859619140625
 43
8.29736328125
 44
914.357666015625
 45
1269.957641601562
 46
0.0
 47
0.0
 48
0.0
 49
0.0
140
0.0
141
0.0
142
1.0
143
1.0
 70
  2800
 72
     0
 73
     2
 74
     1
  7
1055B&WFullFinalShaded.ctb
 75
    16
147
1.0
 76
     0
 77
     2
 78
   300
148
-75.74468520391772
149
-27.53050504688192
1001
ACAD_PSEXT
1000
1055B&WFinalShaded.pc3
1000
HP DesignJet 1055CM by HP
1000
FRONT
1000

1070
     0
  0
PLOTSETTINGS
  5
1259
102
{ACAD_REACTORS
330
10BB
102
}
330
10BB
100
AcDbPlotSettings
  1
1055 24x36 Color
  2
1055ColorDraftShaded.pc3
  4
User257
  6

 40
14.98600006103515
 41
8.297271728515625
 42
14.9859619140625
 43
8.29736328125
 44
914.3153076171875
 45
1269.915283203125
 46
0.0
 47
0.0
 48
0.0
 49
0.0
140
0.0
141
0.0
142
1.0
143
1.0
 70
  2800
 72
     0
 73
     2
 74
     1
  7
Color.ctb
 75
    16
147
1.0
 76
     0
 77
     2
 78
   300
148
-75.74468520391772
149
-27.53050504688192
1001
ACAD_PSEXT
1000
1055ColorDraftShaded.pc3
1000
HP DesignJet 1055CM by HP
1000
FRONT
1000

1070
     0
  0
PLOTSETTINGS
  5
125A
102
{ACAD_REACTORS
330
10BB
102
}
330
10BB
100
AcDbPlotSettings
  1
1055 24x36 Color Shaded
  2
1055ColorDraftShaded.pc3
  4
User257
  6

 40
14.98600006103515
 41
8.297271728515625
 42
14.9859619140625
 43
8.29736328125
 44
914.3153076171875
 45
1269.915283203125
 46
0.0
 47
0.0
 48
0.0
 49
0.0
140
0.0
141
0.0
142
1.0
143
1.0
 70
  2800
 72
     0
 73
     2
 74
     1
  7
1055ColorFullDraftShaded.ctb
 75
    16
147
1.0
 76
     0
 77
     2
 78
   300
148
-75.74468520391772
149
-27.53050504688192
1001
ACAD_PSEXT
1000
1055ColorDraftShaded.pc3
1000
HP DesignJet 1055CM by HP
1000
FRONT
1000

1070
     0
  0
PLOTSETTINGS
  5
125B
102
{ACAD_REACTORS
330
10BB
102
}
330
10BB
100
AcDbPlotSettings
  1
1055 30x42 BW
  2
1055B&WDraftShaded.pc3
  4
User257
  6

 40
14.98600006103515
 41
8.297271728515625
 42
14.9859619140625
 43
8.29736328125
 44
914.3153076171875
 45
1269.915283203125
 46
0.0
 47
0.0
 48
0.0
 49
0.0
140
0.0
141
0.0
142
1.0
143
1.0
 70
  2800
 72
     0
 73
     1
 74
     1
  7
1055B&WFullDraftShaded.ctb
 75
    16
147
1.0
 76
     0
 77
     2
 78
   300
148
-75.74468520391772
149
-27.53050504688192
1001
ACAD_PSEXT
1000
1055B&WDraftShaded.pc3
1000
HP DesignJet 1055CM by HP
1000
FRONT
1000

1070
     0
  0
PLOTSETTINGS
  5
125C
102
{ACAD_REACTORS
330
10BB
102
}
330
10BB
100
AcDbPlotSettings
  1
1055 30x42 BW Final
  2
1055B&WFinalShaded.pc3
  4
User257
  6

 40
14.98600006103515
 41
8.297271728515625
 42
14.9859619140625
 43
8.29736328125
 44
914.357666015625
 45
1269.957641601562
 46
0.0
 47
0.0
 48
0.0
 49
0.0
140
0.0
141
0.0
142
1.0
143
1.0
 70
  2800
 72
     0
 73
     1
 74
     1
  7
1055B&WFullFinalShaded.ctb
 75
    16
147
1.0
 76
     0
 77
     2
 78
   300
148
-75.74468520391772
149
-27.53050504688192
1001
ACAD_PSEXT
1000
1055B&WFinalShaded.pc3
1000
HP DesignJet 1055CM by HP
1000
FRONT
1000

1070
     0
  0
PLOTSETTINGS
  5
125D
102
{ACAD_REACTORS
330
10BB
102
}
330
10BB
100
AcDbPlotSettings
  1
1055 B&W Draft
  2
1055B&WDraftShaded.pc3
  4
User257
  6

 40
4.995333194732666
 41
8.297271728515625
 42
4.99530029296875
 43
8.29736328125
 44
914.3153076171875
 45
1269.915283203125
 46
0.0
 47
0.0
 48
0.0
 49
0.0
140
0.0
141
0.0
142
1.0
143
30.0
 70
 11936
 72
     0
 73
     2
 74
     1
  7
1055B&WFullDraftShaded.ctb
 75
     0
147
3.484472351238056
 76
     0
 77
     2
 78
   300
148
-119.4582094169044
149
-58.17053554795709
1001
ACAD_PSEXT
1000
1055B&WDraftShaded.pc3
1000
HP DesignJet 1055CM by HP
1000
\\aqua-srv01
1000

1070
     0
  0
PLOTSETTINGS
  5
125E
102
{ACAD_REACTORS
330
10BB
102
}
330
10BB
100
AcDbPlotSettings
  1
1055 B&W Final
  2
1055B&WFinalShaded.pc3
  4
User257
  6

 40
4.995333194732666
 41
8.297271728515625
 42
4.99530029296875
 43
8.29736328125
 44
914.357666015625
 45
1269.957641601562
 46
0.0
 47
0.0
 48
0.0
 49
0.0
140
0.0
141
0.0
142
1.0
143
30.0
 70
 11936
 72
     0
 73
     2
 74
     1
  7
1055B&WFullFinalShaded.ctb
 75
     0
147
3.484472351238056
 76
     0
 77
     2
 78
   300
148
-119.4582094169044
149
-58.17053554795709
1001
ACAD_PSEXT
1000
1055B&WFinalShaded.pc3
1000
HP DesignJet 1055CM by HP
1000
\\aqua-srv01
1000

1070
     0
  0
PLOTSETTINGS
  5
125F
102
{ACAD_REACTORS
330
10BB
102
}
330
10BB
100
AcDbPlotSettings
  1
1055 BW Half
  2
1055B&WDraftShaded.pc3
  4
User257
  6

 40
14.98600006103515
 41
8.297271728515625
 42
14.9859619140625
 43
8.29736328125
 44
914.3153076171875
 45
1269.915283203125
 46
0.0
 47
0.0
 48
0.0
 49
0.0
140
0.0
141
0.0
142
1.0
143
2.0
 70
  2800
 72
     0
 73
     2
 74
     1
  7
1055B&WFullDraftShaded.ctb
 75
    17
147
0.5
 76
     0
 77
     2
 78
   300
148
-75.74468520391772
149
-27.53050504688192
1001
ACAD_PSEXT
1000
1055B&WDraftShaded.pc3
1000
HP DesignJet 1055CM by HP
1000
FRONT
1000

1070
     0
  0
PLOTSETTINGS
  5
1260
102
{ACAD_REACTORS
330
10BB
102
}
330
10BB
100
AcDbPlotSettings
  1
1055 Color Draft
  2
1055ColorDraftShaded.pc3
  4
User257
  6

 40
4.995333194732666
 41
8.297271728515625
 42
4.99530029296875
 43
8.29736328125
 44
914.3153076171875
 45
1269.915283203125
 46
0.0
 47
0.0
 48
0.0
 49
0.0
140
0.0
141
0.0
142
1.0
143
30.0
 70
 11936
 72
     0
 73
     2
 74
     1
  7
1055ColorFullDraftShaded.ctb
 75
     0
147
3.484472351238056
 76
     0
 77
     2
 78
   300
148
-119.4582094169044
149
-58.17053554795709
1001
ACAD_PSEXT
1000
1055ColorDraftShaded.pc3
1000
HP DesignJet 1055CM by HP
1000
\\aqua-srv01
1000

1070
     0
  0
PLOTSETTINGS
  5
1261
102
{ACAD_REACTORS
330
10BB
102
}
330
10BB
100
AcDbPlotSettings
  1
1055 Color Final
  2
1055ColorFinalShaded.pc3
  4
User257
  6

 40
4.995333194732666
 41
8.297271728515625
 42
4.99530029296875
 43
8.29736328125
 44
914.357666015625
 45
1269.957641601562
 46
0.0
 47
0.0
 48
0.0
 49
0.0
140
0.0
141
0.0
142
1.0
143
30.0
 70
 11936
 72
     0
 73
     2
 74
     1
  7
1055ColorFullFinalShaded.ctb
 75
     0
147
3.484472351238056
 76
     0
 77
     2
 78
   300
148
-119.4582094169044
149
-58.17053554795709
1001
ACAD_PSEXT
1000
1055ColorFinalShaded.pc3
1000
HP DesignJet 1055CM by HP
1000
\\aqua-srv01
1000

1070
     0
  0
PLOTSETTINGS
  5
1262
102
{ACAD_REACTORS
330
10BB
102
}
330
10BB
100
AcDbPlotSettings
  1
1055+ 24x36 BW
  2
1055_PLUS_B&WDraftShaded.pc3
  4
User257
  6

 40
14.98600006103515
 41
8.297271728515625
 42
14.9859619140625
 43
8.29736328125
 44
914.3153076171875
 45
1269.915283203125
 46
0.0
 47
0.0
 48
0.0
 49
0.0
140
0.0
141
0.0
142
1.0
143
1.0
 70
  2800
 72
     0
 73
     2
 74
     1
  7
1055B&WFullDraftShaded.ctb
 75
    16
147
1.0
 76
     0
 77
     2
 78
   300
148
-75.74468520391772
149
-27.53050504688192
1001
ACAD_PSEXT
1000
1055_PLUS_B&WDraftShaded.pc3
1000
HP DesignJet 1055CM by HP
1000
FRONT
1000

1070
     0
  0
PLOTSETTINGS
  5
1263
102
{ACAD_REACTORS
330
10BB
102
}
330
10BB
100
AcDbPlotSettings
  1
1055+ 24x36 BW Final
  2
1055_PLUS_B&WFinalShaded.pc3
  4
User257
  6

 40
14.98600006103515
 41
8.297271728515625
 42
14.9859619140625
 43
8.29736328125
 44
914.357666015625
 45
1269.957641601562
 46
0.0
 47
0.0
 48
0.0
 49
0.0
140
0.0
141
0.0
142
1.0
143
1.0
 70
  2800
 72
     0
 73
     2
 74
     1
  7
1055B&WFullFinalShaded.ctb
 75
    16
147
1.0
 76
     0
 77
     2
 78
   300
148
-75.74468520391772
149
-27.53050504688192
1001
ACAD_PSEXT
1000
1055_PLUS_B&WFinalShaded.pc3
1000
HP DesignJet 1055CM by HP
1000
FRONT
1000

1070
     0
  0
PLOTSETTINGS
  5
1264
102
{ACAD_REACTORS
330
10BB
102
}
330
10BB
100
AcDbPlotSettings
  1
1055+ 24x36 Color
  2
1055_PLUS_ColorDraftShaded.pc3
  4
User257
  6

 40
14.98600006103515
 41
8.297271728515625
 42
14.9859619140625
 43
8.29736328125
 44
914.3153076171875
 45
1269.915283203125
 46
0.0
 47
0.0
 48
0.0
 49
0.0
140
0.0
141
0.0
142
1.0
143
1.0
 70
  2800
 72
     0
 73
     2
 74
     1
  7
Color.ctb
 75
    16
147
1.0
 76
     0
 77
     2
 78
   300
148
-75.74468520391772
149
-27.53050504688192
1001
ACAD_PSEXT
1000
1055_PLUS_ColorDraftShaded.pc3
1000
HP DesignJet 1055CM by HP
1000
FRONT
1000

1070
     0
  0
PLOTSETTINGS
  5
1265
102
{ACAD_REACTORS
330
10BB
102
}
330
10BB
100
AcDbPlotSettings
  1
1055+ 24x36 Color Shaded
  2
1055_PLUS_ColorDraftShaded.pc3
  4
User257
  6

 40
14.98600006103515
 41
8.297271728515625
 42
14.9859619140625
 43
8.29736328125
 44
914.3153076171875
 45
1269.915283203125
 46
0.0
 47
0.0
 48
0.0
 49
0.0
140
0.0
141
0.0
142
1.0
143
1.0
 70
  2800
 72
     0
 73
     2
 74
     1
  7
1055ColorFullDraftShaded.ctb
 75
    16
147
1.0
 76
     0
 77
     2
 78
   300
148
-75.74468520391772
149
-27.53050504688192
1001
ACAD_PSEXT
1000
1055_PLUS_ColorDraftShaded.pc3
1000
HP DesignJet 1055CM by HP
1000
FRONT
1000

1070
     0
  0
PLOTSETTINGS
  5
1266
102
{ACAD_REACTORS
330
10BB
102
}
330
10BB
100
AcDbPlotSettings
  1
1055+ 30x42 BW
  2
1055_PLUS_B&WDraftShaded.pc3
  4
User257
  6

 40
14.98600006103515
 41
8.297271728515625
 42
14.9859619140625
 43
8.29736328125
 44
914.3153076171875
 45
1269.915283203125
 46
0.0
 47
0.0
 48
0.0
 49
0.0
140
0.0
141
0.0
142
1.0
143
1.0
 70
  2800
 72
     0
 73
     1
 74
     1
  7
1055B&WFullDraftShaded.ctb
 75
    16
147
1.0
 76
     0
 77
     2
 78
   300
148
-75.74468520391772
149
-27.53050504688192
1001
ACAD_PSEXT
1000
1055_PLUS_B&WDraftShaded.pc3
1000
HP DesignJet 1055CM by HP
1000
FRONT
1000

1070
     0
  0
PLOTSETTINGS
  5
1267
102
{ACAD_REACTORS
330
10BB
102
}
330
10BB
100
AcDbPlotSettings
  1
1055+ 30x42 BW Final
  2
1055_PLUS_B&WFinalShaded.pc3
  4
User257
  6

 40
14.98600006103515
 41
8.297271728515625
 42
14.9859619140625
 43
8.29736328125
 44
914.357666015625
 45
1269.957641601562
 46
0.0
 47
0.0
 48
0.0
 49
0.0
140
0.0
141
0.0
142
1.0
143
1.0
 70
  2800
 72
     0
 73
     1
 74
     1
  7
1055B&WFullFinalShaded.ctb
 75
    16
147
1.0
 76
     0
 77
     2
 78
   300
148
-75.74468520391772
149
-27.53050504688192
1001
ACAD_PSEXT
1000
1055_PLUS_B&WFinalShaded.pc3
1000
HP DesignJet 1055CM by HP
1000
FRONT
1000

1070
     0
  0
PLOTSETTINGS
  5
1268
102
{ACAD_REACTORS
330
10BB
102
}
330
10BB
100
AcDbPlotSettings
  1
1055+ B&W Draft
  2
1055_PLUS_B&WDraftShaded.pc3
  4
User257
  6

 40
4.995333194732666
 41
13.2926607131958
 42
4.99530029296875
 43
13.292724609375
 44
914.3153076171875
 45
1269.915283203125
 46
0.0
 47
0.0
 48
0.0
 49
0.0
140
0.0
141
0.0
142
1.0
143
30.0
 70
 11936
 72
     0
 73
     2
 74
     1
  7
1055B&WFullDraftShaded.ctb
 75
     0
147
3.484472351238056
 76
     0
 77
     2
 78
   300
148
-119.4582094169044
149
-58.17053554795709
1001
ACAD_PSEXT
1000
1055_PLUS_B&WDraftShaded.pc3
1000
HP DesignJet 1055CM by HP
1000
\\aqua-srv01
1000

1070
     0
  0
PLOTSETTINGS
  5
1269
102
{ACAD_REACTORS
330
10BB
102
}
330
10BB
100
AcDbPlotSettings
  1
1055+ B&W Final
  2
1055_PLUS_B&WFinalShaded.pc3
  4
User257
  6

 40
4.995333194732666
 41
13.2926607131958
 42
4.99530029296875
 43
13.292724609375
 44
914.357666015625
 45
1269.957641601562
 46
0.0
 47
0.0
 48
0.0
 49
0.0
140
0.0
141
0.0
142
1.0
143
30.0
 70
 11936
 72
     0
 73
     2
 74
     1
  7
1055B&WFullFinalShaded.ctb
 75
     0
147
3.484472351238056
 76
     0
 77
     2
 78
   300
148
-119.4582094169044
149
-58.17053554795709
1001
ACAD_PSEXT
1000
1055_PLUS_B&WFinalShaded.pc3
1000
HP DesignJet 1055CM by HP
1000
\\aqua-srv01
1000

1070
     0
  0
PLOTSETTINGS
  5
126A
102
{ACAD_REACTORS
330
10BB
102
}
330
10BB
100
AcDbPlotSettings
  1
1055+ BW Half
  2
1055_PLUS_B&WDraftShaded.pc3
  4
User257
  6

 40
14.98600006103515
 41
8.297271728515625
 42
14.9859619140625
 43
8.29736328125
 44
914.3153076171875
 45
1269.915283203125
 46
0.0
 47
0.0
 48
0.0
 49
0.0
140
0.0
141
0.0
142
1.0
143
2.0
 70
  2800
 72
     0
 73
     2
 74
     1
  7
1055B&WFullDraftShaded.ctb
 75
    17
147
0.5
 76
     0
 77
     2
 78
   300
148
-75.74468520391772
149
-27.53050504688192
1001
ACAD_PSEXT
1000
1055_PLUS_B&WDraftShaded.pc3
1000
HP DesignJet 1055CM by HP
1000
FRONT
1000

1070
     0
  0
PLOTSETTINGS
  5
126B
102
{ACAD_REACTORS
330
10BB
102
}
330
10BB
100
AcDbPlotSettings
  1
1055+ Color Draft
  2
1055_PLUS_ColorDraftShaded.pc3
  4
User257
  6

 40
4.995333194732666
 41
8.297271728515625
 42
4.99530029296875
 43
8.29736328125
 44
914.3153076171875
 45
1269.915283203125
 46
0.0
 47
0.0
 48
0.0
 49
0.0
140
0.0
141
0.0
142
1.0
143
30.0
 70
 11936
 72
     0
 73
     2
 74
     1
  7
1055ColorFullDraftShaded.ctb
 75
     0
147
3.484472351238056
 76
     0
 77
     2
 78
   300
148
-119.4582094169044
149
-58.17053554795709
1001
ACAD_PSEXT
1000
1055_PLUS_ColorDraftShaded.pc3
1000
HP DesignJet 1055CM by HP
1000
\\aqua-srv01
1000

1070
     0
  0
PLOTSETTINGS
  5
126C
102
{ACAD_REACTORS
330
10BB
102
}
330
10BB
100
AcDbPlotSettings
  1
1055+ Color Final
  2
1055_PLUS_ColorFinalShaded.pc3
  4
User257
  6

 40
4.995333194732666
 41
13.2926607131958
 42
4.99530029296875
 43
13.292724609375
 44
914.357666015625
 45
1269.957641601562
 46
0.0
 47
0.0
 48
0.0
 49
0.0
140
0.0
141
0.0
142
1.0
143
30.0
 70
 11936
 72
     0
 73
     2
 74
     1
  7
1055ColorFullFinalShaded.ctb
 75
     0
147
3.484472351238056
 76
     0
 77
     2
 78
   300
148
-119.4582094169044
149
-58.17053554795709
1001
ACAD_PSEXT
1000
1055_PLUS_ColorFinalShaded.pc3
1000
HP DesignJet 1055CM by HP
1000
\\aqua-srv01
1000

1070
     0
  0
PLOTSETTINGS
  5
126D
102
{ACAD_REACTORS
330
10BB
102
}
330
10BB
100
AcDbPlotSettings
  1
_1055 22x34 True Centered BW
  2
1055B&WDraftShaded 24x36 true.pc3
  4
User1639
  6

 40
0.0
 41
0.0
 42
0.0
 43
0.0
 44
863.6000366210938
 45
558.7999877929687
 46
379.1860116761152
 47
224.9166389522296
 48
0.0
 49
0.0
140
0.0
141
0.0
142
1.0
143
1.0
 70
  2804
 72
     0
 73
     0
 74
     1
  7
1055B&WFullDraftShaded.ctb
 75
    16
147
1.0
 76
     0
 77
     2
 78
   300
148
-75.74468520391772
149
-27.53050504688192
1001
ACAD_PSEXT
1000
1055B&WDraftShaded 24x36 true.pc3
1000
HP DesignJet 1055CM by HP
1000
FRONT
1000

1070
     0
  0
PLOTSETTINGS
  5
126E
102
{ACAD_REACTORS
330
10BB
102
}
330
10BB
100
AcDbPlotSettings
  1
_1055 24x36 True Centered BW
  2
1055B&WDraftShaded 24x36 true.pc3
  4
User1308
  6

 40
14.98600006103515
 41
8.297332763671875
 42
14.9859619140625
 43
8.29736328125
 44
914.3153076171875
 45
609.5153198242187
 46
389.5576661866133
 47
241.9769569453936
 48
0.0
 49
0.0
140
0.0
141
0.0
142
1.0
143
1.0
 70
  2804
 72
     0
 73
     0
 74
     1
  7
1055B&WFullDraftShaded.ctb
 75
    16
147
1.0
 76
     0
 77
     2
 78
   300
148
-75.74468520391772
149
-27.53050504688192
1001
ACAD_PSEXT
1000
1055B&WDraftShaded 24x36 true.pc3
1000
HP DesignJet 1055CM by HP
1000
FRONT
1000

1070
     0
  0
PLOTSETTINGS
  5
126F
102
{ACAD_REACTORS
330
10BB
102
}
330
10BB
100
AcDbPlotSettings
  1
_1055 24x36 True Centered BW Final
  2
1055B&WFinalShaded 24x36 true.pc3
  4
User1308
  6

 40
14.98600006103515
 41
8.297332763671875
 42
14.9859619140625
 43
8.29736328125
 44
914.357666015625
 45
609.5576782226562
 46
389.578845385832
 47
241.9981361446124
 48
0.0
 49
0.0
140
0.0
141
0.0
142
1.0
143
1.0
 70
  2804
 72
     0
 73
     0
 74
     1
  7
1055B&WFullFinalShaded.ctb
 75
    16
147
1.0
 76
     0
 77
     2
 78
   300
148
-75.74468520391772
149
-27.53050504688192
1001
ACAD_PSEXT
1000
1055B&WFinalShaded 24x36 true.pc3
1000
HP DesignJet 1055CM by HP
1000
FRONT
1000

1070
     0
  0
PLOTSETTINGS
  5
1270
102
{ACAD_REACTORS
330
10BB
102
}
330
10BB
100
AcDbPlotSettings
  1
_1055 24x36 True Centered Color
  2
1055ColorDraftShaded 24x36 true.pc3
  4
User1308
  6

 40
14.98600006103515
 41
8.297332763671875
 42
14.9859619140625
 43
8.29736328125
 44
914.3153076171875
 45
609.5153198242187
 46
389.5576661866133
 47
241.9769569453936
 48
0.0
 49
0.0
140
0.0
141
0.0
142
1.0
143
1.0
 70
  2804
 72
     0
 73
     0
 74
     1
  7
1055ColorFullDraftShaded.ctb
 75
    16
147
1.0
 76
     0
 77
     2
 78
   300
148
-75.74468520391772
149
-27.53050504688192
1001
ACAD_PSEXT
1000
1055ColorDraftShaded 24x36 true.pc3
1000
HP DesignJet 1055CM by HP
1000
FRONT
1000

1070
     0
  0
PLOTSETTINGS
  5
1271
102
{ACAD_REACTORS
330
10BB
102
}
330
10BB
100
AcDbPlotSettings
  1
_1055 30x42 True Centered BW
  2
1055B&WDraftShaded 30x42 true.pc3
  4
User286
  6

 40
0.0
 41
0.0
 42
-0.08465576171875
 43
-0.084716796875
 44
761.9153442382812
 45
1066.71533203125
 46
326.5166450557452
 47
480.7860177796309
 48
0.0
 49
0.0
140
0.0
141
0.0
142
1.0
143
1.0
 70
  2804
 72
     0
 73
     1
 74
     1
  7
1055B&WFullDraftShaded.ctb
 75
    16
147
1.0
 76
     0
 77
     2
 78
   300
148
-75.74468520391772
149
-27.53050504688192
1001
ACAD_PSEXT
1000
1055B&WDraftShaded 30x42 true.pc3
1000
HP DesignJet 1055CM by HP
1000
FRONT
1000

1070
     0
  0
PLOTSETTINGS
  5
1272
102
{ACAD_REACTORS
330
10BB
102
}
330
10BB
100
AcDbPlotSettings
  1
_1055+ 22x34 True Centered BW
  2
1055_PLUS_B&WDraftShaded 24x36 true.pc3
  4
User1639
  6

 40
0.0
 41
0.0
 42
0.0
 43
0.0
 44
863.6000366210938
 45
558.7999877929687
 46
379.1860116761152
 47
224.9166389522296
 48
0.0
 49
0.0
140
0.0
141
0.0
142
1.0
143
1.0
 70
  2804
 72
     0
 73
     0
 74
     1
  7
1055B&WFullDraftShaded.ctb
 75
    16
147
1.0
 76
     0
 77
     2
 78
   300
148
-75.74468520391772
149
-27.53050504688192
1001
ACAD_PSEXT
1000
1055_PLUS_B&WDraftShaded 24x36 true.pc3
1000
HP DesignJet 1055CM by HP
1000
FRONT
1000

1070
     0
  0
PLOTSETTINGS
  5
1273
102
{ACAD_REACTORS
330
10BB
102
}
330
10BB
100
AcDbPlotSettings
  1
_1055+ 24x36 True Centered BW
  2
1055_PLUS_B&WDraftShaded 24x36 true.pc3
  4
User1308
  6

 40
14.98600006103515
 41
8.297332763671875
 42
14.9859619140625
 43
8.29736328125
 44
914.3153076171875
 45
609.5153198242187
 46
389.5576661866133
 47
241.9769569453936
 48
0.0
 49
0.0
140
0.0
141
0.0
142
1.0
143
1.0
 70
  2804
 72
     0
 73
     0
 74
     1
  7
1055B&WFullDraftShaded.ctb
 75
    16
147
1.0
 76
     0
 77
     2
 78
   300
148
-75.74468520391772
149
-27.53050504688192
1001
ACAD_PSEXT
1000
1055_PLUS_B&WDraftShaded 24x36 true.pc3
1000
HP DesignJet 1055CM by HP
1000
FRONT
1000

1070
     0
  0
PLOTSETTINGS
  5
1274
102
{ACAD_REACTORS
330
10BB
102
}
330
10BB
100
AcDbPlotSettings
  1
_1055+ 24x36 True Centered BW Final
  2
1055_PLUS_B&WFinalShaded 24x36 true.pc3
  4
User1308
  6

 40
14.98600006103515
 41
8.297332763671875
 42
14.9859619140625
 43
8.29736328125
 44
914.357666015625
 45
609.5576782226562
 46
389.578845385832
 47
241.9981361446124
 48
0.0
 49
0.0
140
0.0
141
0.0
142
1.0
143
1.0
 70
  2804
 72
     0
 73
     0
 74
     1
  7
1055B&WFullFinalShaded.ctb
 75
    16
147
1.0
 76
     0
 77
     2
 78
   300
148
-75.74468520391772
149
-27.53050504688192
1001
ACAD_PSEXT
1000
1055_PLUS_B&WFinalShaded 24x36 true.pc3
1000
HP DesignJet 1055CM by HP
1000
FRONT
1000

1070
     0
  0
PLOTSETTINGS
  5
1275
102
{ACAD_REACTORS
330
10BB
102
}
330
10BB
100
AcDbPlotSettings
  1
_1055+ 24x36 True Centered Color
  2
1055_PLUS_ColorDraftShaded 24x36 true.pc3
  4
User1308
  6

 40
14.98600006103515
 41
8.297332763671875
 42
14.9859619140625
 43
8.29736328125
 44
914.3153076171875
 45
609.5153198242187
 46
389.5576661866133
 47
241.9769569453936
 48
0.0
 49
0.0
140
0.0
141
0.0
142
1.0
143
1.0
 70
  2804
 72
     0
 73
     0
 74
     1
  7
1055ColorFullDraftShaded.ctb
 75
    16
147
1.0
 76
     0
 77
     2
 78
   300
148
-75.74468520391772
149
-27.53050504688192
1001
ACAD_PSEXT
1000
1055_PLUS_ColorDraftShaded 24x36 true.pc3
1000
HP DesignJet 1055CM by HP
1000
FRONT
1000

1070
     0
  0
PLOTSETTINGS
  5
1276
102
{ACAD_REACTORS
330
10BB
102
}
330
10BB
100
AcDbPlotSettings
  1
DWF BW 11x17 Fit
  2
DWF-BW_11x17.pc3
  4
UserDefinedImperial (17.00 x 11.00Inches)
  6

 40
0.0
 41
0.0
 42
0.0
 43
0.0
 44
431.7999877929687
 45
279.3999938964844
 46
80.99316641155249
 47
0.000000000000005
 48
0.0
 49
0.0
140
0.0
141
0.0
142
1.0
143
0.3900025492802298
 70
  2740
 72
     0
 73
     0
 74
     1
  7
1055B&WFullFinalShaded.ctb
 75
     0
147
2.564085803658341
 76
     0
 77
     2
 78
   300
148
-75.74468520391772
149
-27.53050504688192
1001
ACAD_PSEXT
1000
DWF-BW_11x17.pc3
1000
DWF eView (optimized for viewing)
1000
File
1000

1070
     0
  0
PLOTSETTINGS
  5
1277
102
{ACAD_REACTORS
330
10BB
102
}
330
10BB
100
AcDbPlotSettings
  1
DWF BW 11x17 Half
  2
DWF-BW_11x17.pc3
  4
UserDefinedImperial (17.00 x 11.00Inches)
  6

 40
0.0
 41
0.0
 42
0.0
 43
0.0
 44
431.7999877929687
 45
279.3999938964844
 46
189.5929905792686
 47
112.4583194761148
 48
0.0
 49
0.0
140
0.0
141
0.0
142
1.0
143
2.0
 70
  2740
 72
     0
 73
     0
 74
     1
  7
1055B&WFullFinalShaded.ctb
 75
    17
147
0.5
 76
     0
 77
     2
 78
   300
148
-75.74468520391772
149
-27.53050504688192
1001
ACAD_PSEXT
1000
DWF-BW_11x17.pc3
1000
DWF eView (optimized for viewing)
1000
File
1000

1070
     0
  0
PLOTSETTINGS
  5
1278
102
{ACAD_REACTORS
330
10BB
102
}
330
10BB
100
AcDbPlotSettings
  1
DWF BW 22x34
  2
DWF-BW_22x34.pc3
  4
UserDefinedImperial (34.00 x 22.00Inches)
  6

 40
0.0
 41
0.0
 42
0.0
 43
0.0
 44
863.5999755859375
 45
558.7999877929687
 46
379.1859811585372
 47
224.9166389522296
 48
0.0
 49
0.0
140
0.0
141
0.0
142
1.0
143
1.0
 70
  2740
 72
     0
 73
     0
 74
     1
  7
1055B&WFullFinalShaded.ctb
 75
    16
147
1.0
 76
     0
 77
     2
 78
   300
148
-75.74468520391772
149
-27.53050504688192
1001
ACAD_PSEXT
1000
DWF-BW_22x34.pc3
1000
DWF eView (optimized for viewing)
1000
File
1000

1070
     0
  0
PLOTSETTINGS
  5
1279
102
{ACAD_REACTORS
330
10BB
102
}
330
10BB
100
AcDbPlotSettings
  1
DWF BW 24x36
  2
DWF-BW_24x36.pc3
  4
UserDefinedImperial (36.00 x 24.00Inches)
  6

 40
0.0
 41
0.0
 42
0.0
 43
0.0
 44
914.4000244140626
 45
609.5999755859375
 46
404.5860055725996
 47
250.3166328487139
 48
0.0
 49
0.0
140
0.0
141
0.0
142
1.0
143
1.0
 70
  2740
 72
     0
 73
     0
 74
     1
  7
1055B&WFullFinalShaded.ctb
 75
    16
147
1.0
 76
     0
 77
     2
 78
   300
148
-75.74468520391772
149
-27.53050504688192
1001
ACAD_PSEXT
1000
DWF-BW_24x36.pc3
1000
DWF eView (optimized for viewing)
1000
File
1000

1070
     0
  0
PLOTSETTINGS
  5
127A
102
{ACAD_REACTORS
330
10BB
102
}
330
10BB
100
AcDbPlotSettings
  1
DWF BW 30x42
  2
DWF-BW_30x42.pc3
  4
UserDefinedImperial (42.00 x 30.00Inches)
  6

 40
0.0
 41
0.0
 42
0.0
 43
0.0
 44
1066.800048828125
 45
762.0
 46
480.7860177796309
 47
326.5166450557452
 48
0.0
 49
0.0
140
0.0
141
0.0
142
1.0
143
1.0
 70
  2740
 72
     0
 73
     0
 74
     1
  7
1055B&WFullFinalShaded.ctb
 75
    16
147
1.0
 76
     0
 77
     2
 78
   300
148
-75.74468520391772
149
-27.53050504688192
1001
ACAD_PSEXT
1000
DWF-BW_30x42.pc3
1000
DWF eView (optimized for viewing)
1000
File
1000

1070
     0
  0
PLOTSETTINGS
  5
127B
102
{ACAD_REACTORS
330
10BB
102
}
330
10BB
100
AcDbPlotSettings
  1
DWF BW 36x48
  2
DWF-BW_36x48.pc3
  4
UserDefinedImperial (48.00 x 36.00Inches)
  6

 40
0.0
 41
0.0
 42
0.0
 43
0.0
 44
1219.199951171875
 45
914.4000244140626
 46
556.9859689515058
 47
402.7166572627765
 48
0.0
 49
0.0
140
0.0
141
0.0
142
1.0
143
1.0
 70
  2740
 72
     0
 73
     0
 74
     1
  7
1055B&WFullFinalShaded.ctb
 75
    16
147
1.0
 76
     0
 77
     2
 78
   300
148
-75.74468520391772
149
-27.53050504688192
1001
ACAD_PSEXT
1000
DWF-BW_36x48.pc3
1000
DWF eView (optimized for viewing)
1000
File
1000

1070
     0
  0
PLOTSETTINGS
  5
127C
102
{ACAD_REACTORS
330
10BB
102
}
330
10BB
100
AcDbPlotSettings
  1
Laser5 11x17 Fit
  2
LaserJet5Shaded.pc3
  4
11x17
  6

 40
5.873749732971191
 41
5.027085304260253
 42
5.873748779296875
 43
5.027069091796875
 44
431.7999877929687
 45
279.3999938964844
 46
79.97401308328474
 47
0.0
 48
0.0
 49
0.0
140
0.0
141
0.0
142
1.0
143
0.4045605831172927
 70
  2740
 72
     0
 73
     0
 74
     1
  7
LaserJet5Shaded.ctb
 75
     0
147
2.471817675104729
 76
     0
 77
     2
 78
   300
148
-75.74468520391772
149
-27.53050504688192
1001
ACAD_PSEXT
1000
LaserJet5Shaded.pc3
1000
HP LaserJet 5Si
1000
\\aqua-srv01
1000

1070
     0
  0
PLOTSETTINGS
  5
127D
102
{ACAD_REACTORS
330
10BB
102
}
330
10BB
100
AcDbPlotSettings
  1
Laser5 11x17 Full
  2
LaserJet5Shaded.pc3
  4
11x17
  6

 40
5.873749732971191
 41
5.027085304260253
 42
5.873748779296875
 43
5.027069091796875
 44
431.7999877929687
 45
279.3999938964844
 46
157.4122380059187
 47
80.18956480595884
 48
0.0
 49
0.0
140
0.0
141
0.0
142
1.0
143
1.0
 70
  2724
 72
     0
 73
     0
 74
     1
  7
LaserJet5Shaded.ctb
 75
     0
147
2.433550528115671
 76
     0
 77
     2
 78
   300
148
-75.74468520391772
149
-27.53050504688192
1001
ACAD_PSEXT
1000
LaserJet5Shaded.pc3
1000
HP LaserJet 5Si
1000
\\aqua-srv01
1000

1070
     0
  0
PLOTSETTINGS
  5
127E
102
{ACAD_REACTORS
330
10BB
102
}
330
10BB
100
AcDbPlotSettings
  1
Laser5 11x17 Half
  2
LaserJet5Shaded.pc3
  4
11x17
  6

 40
5.873749732971191
 41
5.027085304260253
 42
5.873748779296875
 43
5.027069091796875
 44
431.7999877929687
 45
279.3999938964844
 46
183.7192413231345
 47
107.4312422780862
 48
0.0
 49
0.0
140
0.0
141
0.0
142
1.0
143
2.0
 70
  2740
 72
     0
 73
     0
 74
     1
  7
LaserJet5Shaded.ctb
 75
    17
147
0.5
 76
     0
 77
     2
 78
   300
148
-75.74468520391772
149
-27.53050504688192
1001
ACAD_PSEXT
1000
LaserJet5Shaded.pc3
1000
HP LaserJet 5Si
1000
\\aqua-srv01
1000

1070
     0
  0
PLOTSETTINGS
  5
127F
102
{ACAD_REACTORS
330
10BB
102
}
330
10BB
100
AcDbPlotSettings
  1
Laser5 8x11 Fit
  2
LaserJet5Shaded-8x11.pc3
  4
Letter
  6

 40
5.873749732971191
 41
5.027085304260253
 42
5.873748779296875
 43
5.027084350585937
 44
279.3999938964844
 45
215.8999938964844
 46
34.4346667826652
 47
0.0
 48
0.0
 49
0.0
140
0.0
141
0.0
142
1.0
143
0.5293607985003172
 70
  2740
 72
     0
 73
     0
 74
     1
  7
LaserJet5Shaded.ctb
 75
     0
147
1.889070748784206
 76
     0
 77
     2
 78
   300
148
-75.74468520391772
149
-27.53050504688192
1001
ACAD_PSEXT
1000
LaserJet5Shaded-8x11.pc3
1000
HP LaserJet 5Si
1000
\\aqua-srv01
1000

1070
     0
  0
PLOTSETTINGS
  5
1280
102
{ACAD_REACTORS
330
10BB
102
}
330
10BB
100
AcDbPlotSettings
  1
Laser5 8x11 Half
  2
LaserJet5Shaded-8x11.pc3
  4
Letter
  6

 40
5.873749732971191
 41
5.027085304260253
 42
5.873748779296875
 43
5.027084350585937
 44
279.3999938964844
 45
215.8999938964844
 46
107.5192443748923
 47
75.68123464869171
 48
0.0
 49
0.0
140
0.0
141
0.0
142
1.0
143
2.0
 70
  2740
 72
     0
 73
     0
 74
     1
  7
LaserJet5Shaded.ctb
 75
    17
147
0.5
 76
     0
 77
     2
 78
   300
148
-75.74468520391772
149
-27.53050504688192
1001
ACAD_PSEXT
1000
LaserJet5Shaded-8x11.pc3
1000
HP LaserJet 5Si
1000
\\aqua-srv01
1000

1070
     0
  0
PLOTSETTINGS
  5
1281
102
{ACAD_REACTORS
330
10BB
102
}
330
10BB
100
AcDbPlotSettings
  1
Laser5 8x11 Portrait Fit
  2
LaserJet5Shaded-8x11.pc3
  4
Letter
  6

 40
5.873749732971191
 41
5.027085304260253
 42
5.873748779296875
 43
5.027084350585937
 44
279.3999938964844
 45
215.8999938964844
 46
27.24653799736659
 47
0.0000000000000029
 48
0.0
 49
0.0
140
0.0
141
0.0
142
1.0
143
0.5111981924167587
 70
  2740
 72
     0
 73
     1
 74
     1
  7
LaserJet5Shaded.ctb
 75
     0
147
1.956188450652308
 76
     0
 77
     2
 78
   300
148
-75.74468520391772
149
-27.53050504688192
1001
ACAD_PSEXT
1000
LaserJet5Shaded-8x11.pc3
1000
HP LaserJet 5Si
1000
\\aqua-srv01
1000

1070
     0
  0
PLOTSETTINGS
  5
1282
102
{ACAD_REACTORS
330
10BB
102
}
330
10BB
100
AcDbPlotSettings
  1
LaserJet5 11x17
  2
LaserJet5Shaded.pc3
  4
11x17
  6

 40
7.111999988555908
 41
5.079999923706054
 42
7.11199951171875
 43
5.079986572265625
 44
279.3999938964844
 45
431.7999877929687
 46
0.0
 47
74.88489939702606
 48
0.0
 49
0.0
140
0.0
141
0.0
142
1.0
143
0.3551636250563743
 70
 11956
 72
     0
 73
     1
 74
     1
  7
LaserJet5Shaded.ctb
 75
     0
147
2.815603652658045
 76
     0
 77
     2
 78
   300
148
-119.4582094169044
149
-58.17053554795709
1001
ACAD_PSEXT
1000
LaserJet5Shaded.pc3
1000
HP LaserJet 5Si
1000
\\aqua-srv01
1000

1070
     0
  0
PLOTSETTINGS
  5
1283
102
{ACAD_REACTORS
330
10BB
102
}
330
10BB
100
AcDbPlotSettings
  1
LaserJet5 8.5x11
  2
LaserJet5Shaded-8x11.pc3
  4
Letter
  6

 40
5.873749732971191
 41
5.873734951019287
 42
6.55108642578125
 43
5.027084350585937
 44
279.3999938964844
 45
215.8999938964844
 46
28.40045128601757
 47
0.0000000000000046
 48
0.0
 49
0.0
140
0.0
141
0.0
142
1.0
143
0.4594207153946231
 70
 11956
 72
     0
 73
     0
 74
     1
  7
LaserJet5Shaded.ctb
 75
     0
147
2.176654135286525
 76
     0
 77
     2
 78
   300
148
-119.4582094169044
149
-58.17053554795709
1001
ACAD_PSEXT
1000
LaserJet5Shaded-8x11.pc3
1000
HP LaserJet 5Si
1000
CAD Area
1000

1070
     0
  0
PLOTSETTINGS
  5
1284
102
{ACAD_REACTORS
330
10BB
102
}
330
10BB
100
AcDbPlotSettings
  1
Oki9500 11x17 BW Fit
  2
OKI DOKI Color Laser.pc3
  4
Tabloid
  6

 40
5.027083396911621
 41
5.027085304260253
 42
5.027099609375
 43
5.027069091796875
 44
431.7999877929687
 45
279.3999938964844
 46
80.82067083627547
 47
0.0
 48
0.0
 49
0.0
140
0.0
141
0.0
142
1.0
143
0.4045605831172927
 70
  2740
 72
     0
 73
     0
 74
     1
  7
OKIB&WShaded.ctb
 75
     0
147
2.471817675104729
 76
     0
 77
     2
 78
   300
148
-75.74468520391772
149
-27.53050504688192
1001
ACAD_PSEXT
1000
OKI DOKI Color Laser.pc3
1000
OKI C9500(PCL)
1000
FRONT
1000

1070
     0
  0
PLOTSETTINGS
  5
1285
102
{ACAD_REACTORS
330
10BB
102
}
330
10BB
100
AcDbPlotSettings
  1
Oki9500 11x17 BW Full
  2
OKI DOKI Color Laser.pc3
  4
Tabloid
  6

 40
5.027083396911621
 41
5.027085304260253
 42
5.027099609375
 43
5.027069091796875
 44
431.7999877929687
 45
279.3999938964844
 46
158.2588957589094
 47
80.18956480595884
 48
0.0
 49
0.0
140
0.0
141
0.0
142
1.0
143
1.0
 70
  2724
 72
     0
 73
     0
 74
     1
  7
OKIB&WShaded.ctb
 75
     0
147
2.471817675104729
 76
     0
 77
     2
 78
   300
148
-75.74468520391772
149
-27.53050504688192
1001
ACAD_PSEXT
1000
OKI DOKI Color Laser.pc3
1000
OKI C9500(PCL)
1000
FRONT
1000

1070
     0
  0
PLOTSETTINGS
  5
1286
102
{ACAD_REACTORS
330
10BB
102
}
330
10BB
100
AcDbPlotSettings
  1
Oki9500 11x17 BW Half
  2
OKI DOKI Color Laser.pc3
  4
Tabloid
  6

 40
5.027083396911621
 41
5.027085304260253
 42
5.027099609375
 43
5.027069091796875
 44
431.7999877929687
 45
279.3999938964844
 46
184.5658990761252
 47
107.4312422780862
 48
0.0
 49
0.0
140
0.0
141
0.0
142
1.0
143
2.0
 70
  2740
 72
     0
 73
     0
 74
     1
  7
OKIB&WShaded.ctb
 75
    17
147
0.5
 76
     0
 77
     2
 78
   300
148
-75.74468520391772
149
-27.53050504688192
1001
ACAD_PSEXT
1000
OKI DOKI Color Laser.pc3
1000
OKI C9500(PCL)
1000
FRONT
1000

1070
     0
  0
PLOTSETTINGS
  5
1287
102
{ACAD_REACTORS
330
10BB
102
}
330
10BB
100
AcDbPlotSettings
  1
Oki9500 11x17 Color Fit
  2
OKI DOKI Color Laser.pc3
  4
Tabloid
  6

 40
5.027083396911621
 41
5.027085304260253
 42
5.027099609375
 43
5.027069091796875
 44
431.7999877929687
 45
279.3999938964844
 46
80.82067083627547
 47
0.0
 48
0.0
 49
0.0
140
0.0
141
0.0
142
1.0
143
0.4045605831172927
 70
  2740
 72
     0
 73
     0
 74
     1
  7
OKIColorShaded.ctb
 75
     0
147
2.471817675104729
 76
     0
 77
     2
 78
   300
148
-75.74468520391772
149
-27.53050504688192
1001
ACAD_PSEXT
1000
OKI DOKI Color Laser.pc3
1000
OKI C9500(PCL)
1000
FRONT
1000

1070
     0
  0
PLOTSETTINGS
  5
1288
102
{ACAD_REACTORS
330
10BB
102
}
330
10BB
100
AcDbPlotSettings
  1
Oki9500 11x17 Color Full
  2
OKI DOKI Color Laser.pc3
  4
Tabloid
  6

 40
5.027082920074462
 41
5.027085781097412
 42
5.027099609375
 43
5.027069091796875
 44
431.7999877929687
 45
279.3999938964844
 46
158.258895997328
 47
80.18956456754025
 48
0.0
 49
0.0
140
0.0
141
0.0
142
1.0
143
1.0
 70
  2724
 72
     0
 73
     0
 74
     1
  7
OKIColorShaded.ctb
 75
     0
147
2.471817675104729
 76
     0
 77
     2
 78
   300
148
-75.74468520391772
149
-27.53050504688192
1001
ACAD_PSEXT
1000
OKI DOKI Color Laser.pc3
1000
OKI C9600(PCL)
1000
FRONT
1000

1070
     0
  0
PLOTSETTINGS
  5
1289
102
{ACAD_REACTORS
330
10BB
102
}
330
10BB
100
AcDbPlotSettings
  1
Oki9500 11x17 Color Half
  2
OKI DOKI Color Laser.pc3
  4
Tabloid
  6

 40
5.027083396911621
 41
5.027085304260253
 42
5.027099609375
 43
5.027069091796875
 44
431.7999877929687
 45
279.3999938964844
 46
184.5658990761252
 47
107.4312422780862
 48
0.0
 49
0.0
140
0.0
141
0.0
142
1.0
143
2.0
 70
  2740
 72
     0
 73
     0
 74
     1
  7
OKIColorShaded.ctb
 75
    17
147
0.5
 76
     0
 77
     2
 78
   300
148
-75.74468520391772
149
-27.53050504688192
1001
ACAD_PSEXT
1000
OKI DOKI Color Laser.pc3
1000
OKI C9500(PCL)
1000
FRONT
1000

1070
     0
  0
PLOTSETTINGS
  5
128A
102
{ACAD_REACTORS
330
10BB
102
}
330
10BB
100
AcDbPlotSettings
  1
Oki9500 8x11 BW Fit
  2
OKI DOKI Color Laser8x11.pc3
  4
Letter
  6

 40
5.027083396911621
 41
5.027085304260253
 42
5.027099609375
 43
5.027084350585937
 44
279.3999938964844
 45
215.8999938964844
 46
35.28132453565591
 47
0.0
 48
0.0
 49
0.0
140
0.0
141
0.0
142
1.0
143
0.5293607985003172
 70
  2740
 72
     0
 73
     0
 74
     1
  7
OKIB&WShaded.ctb
 75
     0
147
1.889070748784206
 76
     0
 77
     2
 78
   300
148
-75.74468520391772
149
-27.53050504688192
1001
ACAD_PSEXT
1000
OKI DOKI Color Laser8x11.pc3
1000
OKI C9500(PCL)
1000
FRONT
1000

1070
     0
  0
PLOTSETTINGS
  5
128B
102
{ACAD_REACTORS
330
10BB
102
}
330
10BB
100
AcDbPlotSettings
  1
Oki9500 8x11 BW Portrait Fit
  2
OKI DOKI Color Laser8x11.pc3
  4
Letter
  6

 40
5.027083396911621
 41
5.027085304260253
 42
5.027099609375
 43
5.027084350585937
 44
279.3999938964844
 45
215.8999938964844
 46
28.0931957503573
 47
0.0000000000000029
 48
0.0
 49
0.0
140
0.0
141
0.0
142
1.0
143
0.5111981924167587
 70
  2740
 72
     0
 73
     1
 74
     1
  7
OKIB&WShaded.ctb
 75
     0
147
1.956188450652308
 76
     0
 77
     2
 78
   300
148
-75.74468520391772
149
-27.53050504688192
1001
ACAD_PSEXT
1000
OKI DOKI Color Laser8x11.pc3
1000
OKI C9500(PCL)
1000
FRONT
1000

1070
     0
  0
PLOTSETTINGS
  5
128C
102
{ACAD_REACTORS
330
10BB
102
}
330
10BB
100
AcDbPlotSettings
  1
Oki9500 8x11 Color Fit
  2
OKI DOKI Color Laser8x11.pc3
  4
Letter
  6

 40
5.027083396911621
 41
5.027085304260253
 42
5.027099609375
 43
5.027084350585937
 44
279.3999938964844
 45
215.8999938964844
 46
35.28132453565591
 47
0.0
 48
0.0
 49
0.0
140
0.0
141
0.0
142
1.0
143
0.5293607985003172
 70
  2740
 72
     0
 73
     0
 74
     1
  7
OKIColorShaded.ctb
 75
     0
147
1.889070748784206
 76
     0
 77
     2
 78
   300
148
-75.74468520391772
149
-27.53050504688192
1001
ACAD_PSEXT
1000
OKI DOKI Color Laser8x11.pc3
1000
OKI C9500(PCL)
1000
FRONT
1000

1070
     0
  0
PLOTSETTINGS
  5
128D
102
{ACAD_REACTORS
330
10BB
102
}
330
10BB
100
AcDbPlotSettings
  1
Oki9500 8x11 Color Portrait Fit
  2
OKI DOKI Color Laser8x11.pc3
  4
Letter
  6

 40
5.027083396911621
 41
5.027085304260253
 42
5.027099609375
 43
5.027084350585937
 44
279.3999938964844
 45
215.8999938964844
 46
28.0931957503573
 47
0.0000000000000029
 48
0.0
 49
0.0
140
0.0
141
0.0
142
1.0
143
0.5111981924167587
 70
  2740
 72
     0
 73
     1
 74
     1
  7
OKIColorShaded.ctb
 75
     0
147
1.956188450652308
 76
     0
 77
     2
 78
   300
148
-75.74468520391772
149
-27.53050504688192
1001
ACAD_PSEXT
1000
OKI DOKI Color Laser8x11.pc3
1000
OKI C9500(PCL)
1000
FRONT
1000

1070
     0
  0
PLOTSETTINGS
  5
128E
102
{ACAD_REACTORS
330
10BB
102
}
330
10BB
100
AcDbPlotSettings
  1
OKI9500 B&W 11x17
  2
OKI DOKI Color Laser.pc3
  4
11x17
  6

 40
5.873749732971191
 41
5.873734951019287
 42
5.873748779296875
 43
5.027069091796875
 44
431.7999877929687
 45
279.3999938964844
 46
72.38759962724653
 47
0.0000000000000057
 48
0.0
 49
0.0
140
0.0
141
0.0
142
1.0
143
0.3507677900220671
 70
 11956
 72
     0
 73
     0
 74
     1
  7
OKIB&WShaded.ctb
 75
     0
147
2.850888902704233
 76
     0
 77
     2
 78
   300
148
-119.4582094169044
149
-58.17053554795709
1001
ACAD_PSEXT
1000
OKI DOKI Color Laser.pc3
1000
HP LaserJet 5Si
1000
CAD Area
1000

1070
     0
  0
PLOTSETTINGS
  5
128F
102
{ACAD_REACTORS
330
10BB
102
}
330
10BB
100
AcDbPlotSettings
  1
OKI9500 B&W 8.5x11
  2
OKI DOKI Color Laser8x11.pc3
  4
Letter
  6

 40
5.873749732971191
 41
5.873734951019287
 42
6.55108642578125
 43
5.027084350585937
 44
279.3999938964844
 45
215.8999938964844
 46
28.40045128601757
 47
0.0000000000000046
 48
0.0
 49
0.0
140
0.0
141
0.0
142
1.0
143
0.4594207153946231
 70
 11956
 72
     0
 73
     0
 74
     1
  7
OKIB&WShaded.ctb
 75
     0
147
2.176654135286525
 76
     0
 77
     2
 78
   300
148
-119.4582094169044
149
-58.17053554795709
1001
ACAD_PSEXT
1000
OKI DOKI Color Laser8x11.pc3
1000
HP LaserJet 5Si
1000
CAD Area
1000

1070
     0
  0
PLOTSETTINGS
  5
1290
102
{ACAD_REACTORS
330
10BB
102
}
330
10BB
100
AcDbPlotSettings
  1
OKI9500 Color 11x17
  2
OKI DOKI Color Laser.pc3
  4
Tabloid
  6

 40
5.027083396911621
 41
5.027085304260253
 42
5.027099609375
 43
5.027069091796875
 44
431.7999877929687
 45
279.3999938964844
 46
72.80024597690952
 47
0.0
 48
0.0
 49
0.0
140
0.0
141
0.0
142
1.0
143
0.349665202263268
 70
 11956
 72
     0
 73
     0
 74
     1
  7
OKIColorShaded.ctb
 75
     0
147
2.859878516727796
 76
     0
 77
     2
 78
   300
148
-119.4582094169044
149
-58.17053554795709
1001
ACAD_PSEXT
1000
OKI DOKI Color Laser.pc3
1000
OKI C9500(PCL)
1000
FRONT
1000

1070
     0
  0
PLOTSETTINGS
  5
1291
102
{ACAD_REACTORS
330
10BB
102
}
330
10BB
100
AcDbPlotSettings
  1
OKI9500 Color 8.5x11
  2
OKI DOKI Color Laser8x11.pc3
  4
Letter
  6

 40
5.873749732971191
 41
5.873734951019287
 42
6.55108642578125
 43
5.027084350585937
 44
279.3999938964844
 45
215.8999938964844
 46
28.40045128601757
 47
0.0000000000000046
 48
0.0
 49
0.0
140
0.0
141
0.0
142
1.0
143
0.4594207153946231
 70
 11956
 72
     0
 73
     0
 74
     1
  7
OKIColorShaded.ctb
 75
     0
147
2.176654135286525
 76
     0
 77
     2
 78
   300
148
-119.4582094169044
149
-58.17053554795709
1001
ACAD_PSEXT
1000
OKI DOKI Color Laser8x11.pc3
1000
HP LaserJet 5Si
1000
CAD Area
1000

1070
     0
  0
PLOTSETTINGS
  5
1292
102
{ACAD_REACTORS
330
10BB
102
}
330
10BB
100
AcDbPlotSettings
  1
Oki9600 11x17 BW Fit
  2
9600 BW 11x17.pc3
  4
Tabloid
  6

 40
5.027082920074462
 41
5.027085781097412
 42
5.027099609375
 43
5.027069091796875
 44
431.7999877929687
 45
279.3999938964844
 46
80.82067130493244
 47
0.000000000000007
 48
0.0
 49
0.0
140
0.0
141
0.0
142
1.0
143
0.4045605838335077
 70
  2804
 72
     0
 73
     0
 74
     1
  7
OKIB&WShaded.ctb
 75
     0
147
2.47181767072874
 76
     0
 77
     2
 78
   300
148
-75.74468520391772
149
-27.53050504688192
1001
ACAD_PSEXT
1000
9600 BW 11x17.pc3
1000
OKI C9600(PCL)
1000
Expansion Area
1000

1070
     0
  0
PLOTSETTINGS
  5
1293
102
{ACAD_REACTORS
330
10BB
102
}
330
10BB
100
AcDbPlotSettings
  1
Oki9600 11x17 BW Full
  2
9600 BW 11x17.pc3
  4
Tabloid
  6

 40
5.027082920074462
 41
5.027085781097412
 42
5.027099609375
 43
5.027069091796875
 44
431.7999877929687
 45
279.3999938964844
 46
158.258895997328
 47
80.18956456754025
 48
0.0
 49
0.0
140
0.0
141
0.0
142
1.0
143
1.0
 70
  2788
 72
     0
 73
     0
 74
     1
  7
OKIB&WShaded.ctb
 75
     0
147
2.47181767072874
 76
     0
 77
     2
 78
   300
148
-75.74468520391772
149
-27.53050504688192
1001
ACAD_PSEXT
1000
9600 BW 11x17.pc3
1000
OKI C9600(PCL)
1000
Expansion Area
1000

1070
     0
  0
PLOTSETTINGS
  5
1294
102
{ACAD_REACTORS
330
10BB
102
}
330
10BB
100
AcDbPlotSettings
  1
Oki9600 11x17 BW Half
  2
9600 BW 11x17.pc3
  4
Tabloid
  6

 40
5.027082920074462
 41
5.027085781097412
 42
5.027099609375
 43
5.027069091796875
 44
431.7999877929687
 45
279.3999938964844
 46
184.5658993145439
 47
107.4312420396676
 48
0.0
 49
0.0
140
0.0
141
0.0
142
1.0
143
2.0
 70
  2788
 72
     0
 73
     0
 74
     1
  7
OKIB&WShaded.ctb
 75
     0
147
2.47181767072874
 76
     0
 77
     2
 78
   300
148
-75.74468520391772
149
-27.53050504688192
1001
ACAD_PSEXT
1000
9600 BW 11x17.pc3
1000
OKI C9600(PCL)
1000
Expansion Area
1000

1070
     0
  0
PLOTSETTINGS
  5
1295
102
{ACAD_REACTORS
330
10BB
102
}
330
10BB
100
AcDbPlotSettings
  1
Oki9600 11x17 Color Fit
  2
9600 Color 11x17.pc3
  4
Tabloid
  6

 40
5.027082920074462
 41
5.027085781097412
 42
5.027099609375
 43
5.027069091796875
 44
431.7999877929687
 45
279.3999938964844
 46
80.82067130493244
 47
0.000000000000007
 48
0.0
 49
0.0
140
0.0
141
0.0
142
1.0
143
0.4045605838335077
 70
  2804
 72
     0
 73
     0
 74
     1
  7
OKIColorShaded.ctb
 75
     0
147
2.47181767072874
 76
     0
 77
     2
 78
   300
148
-75.74468520391772
149
-27.53050504688192
1001
ACAD_PSEXT
1000
9600 Color 11x17.pc3
1000
OKI C9600(PCL)
1000
Expansion Area
1000

1070
     0
  0
PLOTSETTINGS
  5
1296
102
{ACAD_REACTORS
330
10BB
102
}
330
10BB
100
AcDbPlotSettings
  1
Oki9600 11x17 Color Full
  2
9600 Color 11x17.pc3
  4
Tabloid
  6

 40
5.027082920074462
 41
5.027085781097412
 42
5.027099609375
 43
5.027069091796875
 44
431.7999877929687
 45
279.3999938964844
 46
158.258895997328
 47
80.18956456754025
 48
0.0
 49
0.0
140
0.0
141
0.0
142
1.0
143
1.0
 70
  2788
 72
     0
 73
     0
 74
     1
  7
OKIColorShaded.ctb
 75
     0
147
2.47181767072874
 76
     0
 77
     2
 78
   300
148
-75.74468520391772
149
-27.53050504688192
1001
ACAD_PSEXT
1000
9600 Color 11x17.pc3
1000
OKI C9600(PCL)
1000
Expansion Area
1000

1070
     0
  0
PLOTSETTINGS
  5
1297
102
{ACAD_REACTORS
330
10BB
102
}
330
10BB
100
AcDbPlotSettings
  1
Oki9600 11x17 Color Half
  2
9600 Color 11x17.pc3
  4
Tabloid
  6

 40
5.027082920074462
 41
5.027085781097412
 42
5.027099609375
 43
5.027069091796875
 44
431.7999877929687
 45
279.3999938964844
 46
184.5658993145439
 47
107.4312420396676
 48
0.0
 49
0.0
140
0.0
141
0.0
142
1.0
143
2.0
 70
  2788
 72
     0
 73
     0
 74
     1
  7
OKIColorShaded.ctb
 75
     0
147
2.47181767072874
 76
     0
 77
     2
 78
   300
148
-75.74468520391772
149
-27.53050504688192
1001
ACAD_PSEXT
1000
9600 Color 11x17.pc3
1000
OKI C9600(PCL)
1000
Expansion Area
1000

1070
     0
  0
PLOTSETTINGS
  5
1298
102
{ACAD_REACTORS
330
10BB
102
}
330
10BB
100
AcDbPlotSettings
  1
Oki9600 8x11 BW Fit
  2
9600 BW 8.5x11.pc3
  4
Letter
  6

 40
5.027082920074462
 41
5.027070522308349
 42
5.027099609375
 43
5.027084350585937
 44
279.3999938964844
 45
215.8999938964844
 46
35.28131763668624
 47
0.0000000000000033
 48
0.0
 49
0.0
140
0.0
141
0.0
142
1.0
143
0.5293607604865011
 70
  2804
 72
     0
 73
     0
 74
     1
  7
OKIB&WShaded.ctb
 75
     0
147
1.889070884439876
 76
     0
 77
     2
 78
   300
148
-75.74468520391772
149
-27.53050504688192
1001
ACAD_PSEXT
1000
9600 BW 8.5x11.pc3
1000
OKI C9600(PCL)
1000
Expansion Area
1000

1070
     0
  0
PLOTSETTINGS
  5
1299
102
{ACAD_REACTORS
330
10BB
102
}
330
10BB
100
AcDbPlotSettings
  1
Oki9600 8x11 BW Portrait Fit
  2
9600 BW 8.5x11.pc3
  4
Letter
  6

 40
5.027082920074462
 41
5.027070522308349
 42
5.027099609375
 43
5.027084350585937
 44
279.3999938964844
 45
215.8999938964844
 46
28.09318833520237
 47
-0.0000000000000029
 48
0.0
 49
0.0
140
0.0
141
0.0
142
1.0
143
0.5111981557072135
 70
  2804
 72
     0
 73
     1
 74
     1
  7
OKIB&WShaded.ctb
 75
     0
147
1.956188591127753
 76
     0
 77
     2
 78
   300
148
-75.74468520391772
149
-27.53050504688192
1001
ACAD_PSEXT
1000
9600 BW 8.5x11.pc3
1000
OKI C9600(PCL)
1000
Expansion Area
1000

1070
     0
  0
PLOTSETTINGS
  5
129A
102
{ACAD_REACTORS
330
10BB
102
}
330
10BB
100
AcDbPlotSettings
  1
Oki9600 8x11 Color Fit
  2
9600 Color 8.5x11.pc3
  4
Letter
  6

 40
5.027082920074462
 41
5.027070522308349
 42
5.027099609375
 43
5.027084350585937
 44
279.3999938964844
 45
215.8999938964844
 46
35.28131763668624
 47
0.0000000000000033
 48
0.0
 49
0.0
140
0.0
141
0.0
142
1.0
143
0.5293607604865011
 70
  2804
 72
     0
 73
     0
 74
     1
  7
OKIColorShaded.ctb
 75
     0
147
1.889070884439876
 76
     0
 77
     2
 78
   300
148
-75.74468520391772
149
-27.53050504688192
1001
ACAD_PSEXT
1000
9600 Color 8.5x11.pc3
1000
OKI C9600(PCL)
1000
Expansion Area
1000

1070
     0
  0
PLOTSETTINGS
  5
129B
102
{ACAD_REACTORS
330
10BB
102
}
330
10BB
100
AcDbPlotSettings
  1
Oki9600 8x11 Color Portrait Fit
  2
9600 Color 8.5x11.pc3
  4
Letter
  6

 40
5.027082920074462
 41
5.027070522308349
 42
5.027099609375
 43
5.027084350585937
 44
279.3999938964844
 45
215.8999938964844
 46
28.09318833520237
 47
-0.0000000000000029
 48
0.0
 49
0.0
140
0.0
141
0.0
142
1.0
143
0.5111981557072135
 70
  2804
 72
     0
 73
     1
 74
     1
  7
OKIColorShaded.ctb
 75
     0
147
1.956188591127753
 76
     0
 77
     2
 78
   300
148
-75.74468520391772
149
-27.53050504688192
1001
ACAD_PSEXT
1000
9600 Color 8.5x11.pc3
1000
OKI C9600(PCL)
1000
Expansion Area
1000

1070
     0
  0
PLOTSETTINGS
  5
129C
102
{ACAD_REACTORS
330
10BB
102
}
330
10BB
100
AcDbPlotSettings
  1
OKI9600 B&W 11x17
  2
9600 BW 11x17.pc3
  4
Tabloid
  6

 40
5.027082920074462
 41
5.027085781097412
 42
5.027099609375
 43
5.027069091796875
 44
431.7999877929687
 45
279.3999938964844
 46
72.80024645976547
 47
-0.0000000000000027
 48
0.0
 49
0.0
140
0.0
141
0.0
142
1.0
143
0.3496652028822988
 70
 11956
 72
     0
 73
     0
 74
     1
  7
OKIB&WShaded.ctb
 75
     0
147
2.859878511664802
 76
     0
 77
     2
 78
   300
148
-119.4582094169044
149
-58.17053554795709
1001
ACAD_PSEXT
1000
9600 BW 11x17.pc3
1000
OKI C9600(PCL)
1000
Expansion Area
1000

1070
     0
  0
PLOTSETTINGS
  5
129D
102
{ACAD_REACTORS
330
10BB
102
}
330
10BB
100
AcDbPlotSettings
  1
OKI9600 B&W 8.5x11
  2
9600 BW 8.5x11.pc3
  4
Letter
  6

 40
5.027082920074462
 41
5.027070522308349
 42
5.027099609375
 43
5.027084350585937
 44
279.3999938964844
 45
215.8999938964844
 46
29.15175911978468
 47
0.0000000000000065
 48
0.0
 49
0.0
140
0.0
141
0.0
142
1.0
143
0.4575310722549676
 70
 11956
 72
     0
 73
     0
 74
     1
  7
OKIB&WShaded.ctb
 75
     0
147
2.185643906262899
 76
     0
 77
     2
 78
   300
148
-119.4582094169044
149
-58.17053554795709
1001
ACAD_PSEXT
1000
9600 BW 8.5x11.pc3
1000
OKI C9600(PCL)
1000
Expansion Area
1000

1070
     0
  0
PLOTSETTINGS
  5
129E
102
{ACAD_REACTORS
330
10BB
102
}
330
10BB
100
AcDbPlotSettings
  1
OKI9600 Color 11x17
  2
9600 Color 11x17.pc3
  4
Tabloid
  6

 40
5.027082920074462
 41
5.027085781097412
 42
5.027099609375
 43
5.027069091796875
 44
431.7999877929687
 45
279.3999938964844
 46
72.80024645976547
 47
-0.0000000000000027
 48
0.0
 49
0.0
140
0.0
141
0.0
142
1.0
143
0.3496652028822988
 70
 11956
 72
     0
 73
     0
 74
     1
  7
OKIColorShaded.ctb
 75
     0
147
2.859878511664802
 76
     0
 77
     2
 78
   300
148
-119.4582094169044
149
-58.17053554795709
1001
ACAD_PSEXT
1000
9600 Color 11x17.pc3
1000
OKI C9600(PCL)
1000
Expansion Area
1000

1070
     0
  0
PLOTSETTINGS
  5
129F
102
{ACAD_REACTORS
330
10BB
102
}
330
10BB
100
AcDbPlotSettings
  1
OKI9600 Color 8.5x11
  2
9600 Color 8.5x11.pc3
  4
Letter
  6

 40
5.027082920074462
 41
5.027070522308349
 42
5.027099609375
 43
5.027084350585937
 44
279.3999938964844
 45
215.8999938964844
 46
29.15175911978468
 47
0.0000000000000065
 48
0.0
 49
0.0
140
0.0
141
0.0
142
1.0
143
0.4575310722549676
 70
 11956
 72
     0
 73
     0
 74
     1
  7
OKIColorShaded.ctb
 75
     0
147
2.185643906262899
 76
     0
 77
     2
 78
   300
148
-119.4582094169044
149
-58.17053554795709
1001
ACAD_PSEXT
1000
9600 Color 8.5x11.pc3
1000
OKI C9600(PCL)
1000
Expansion Area
1000

1070
     0
  0
PLOTSETTINGS
  5
12A0
102
{ACAD_REACTORS
330
10BB
102
}
330
10BB
100
AcDbPlotSettings
  1
PHX Kyocera 11x17 Fit
  2
PHX_Kyocera.pc3
  4
Tabloid
  6

 40
4.984749794006347
 41
5.069418907165527
 42
5.069427490234375
 43
4.9847412109375
 44
431.7999877929687
 45
279.3999938964844
 46
80.8206764601584
 47
-0.0000000000000226
 48
0.0
 49
0.0
140
0.0
141
0.0
142
1.0
143
0.4045605917118723
 70
  2740
 72
     0
 73
     0
 74
     1
  7
LaserJet5Shaded.ctb
 75
     0
147
2.471817622592858
 76
     0
 77
     2
 78
   300
148
-75.74468520391772
149
-27.53050504688192
1001
ACAD_PSEXT
1000
PHX_Kyocera.pc3
1000
Kyocera Mita KM-2050 KX
1000
Arizona
1000

1070
     0
  0
PLOTSETTINGS
  5
12A1
102
{ACAD_REACTORS
330
10BB
102
}
330
10BB
100
AcDbPlotSettings
  1
PHX Oki9500 11x17 BW Fit
  2
PHX OKI BW.pc3
  4
Tabloid
  6

 40
5.027082920074462
 41
5.027085781097412
 42
5.027099609375
 43
5.027069091796875
 44
431.7999877929687
 45
279.3999938964844
 46
80.82067130493246
 47
0.0
 48
0.0
 49
0.0
140
0.0
141
0.0
142
1.0
143
0.4045605838335077
 70
  2740
 72
     0
 73
     0
 74
     1
  7
OKIB&WShaded.ctb
 75
     0
147
2.47181767072874
 76
     0
 77
     2
 78
   300
148
-75.74468520391772
149
-27.53050504688192
1001
ACAD_PSEXT
1000
PHX OKI BW.pc3
1000
OKI C9500(PCL)
1000
Arizona
1000

1070
     0
  0
PLOTSETTINGS
  5
12A2
102
{ACAD_REACTORS
330
10BB
102
}
330
10BB
100
AcDbPlotSettings
  1
PHX Oki9500 11x17 BW Half
  2
PHX OKI BW.pc3
  4
Tabloid
  6

 40
5.027082920074462
 41
5.027085781097412
 42
5.027099609375
 43
5.027069091796875
 44
431.7999877929687
 45
279.3999938964844
 46
184.5658993145439
 47
107.4312420396676
 48
0.0
 49
0.0
140
0.0
141
0.0
142
1.0
143
2.0
 70
  2724
 72
     0
 73
     0
 74
     1
  7
OKIB&WShaded.ctb
 75
     0
147
2.47181767072874
 76
     0
 77
     2
 78
   300
148
-75.74468520391772
149
-27.53050504688192
1001
ACAD_PSEXT
1000
PHX OKI BW.pc3
1000
OKI C9500(PCL)
1000
Arizona
1000

1070
     0
  0
ACDBPLACEHOLDER
  5
10B2
102
{ACAD_REACTORS
330
10B1
102
}
330
10B1
  0
SCALE
  5
1220
102
{ACAD_REACTORS
330
121F
102
}
330
121F
100
AcDbScale
 70
     0
300
1:1
140
1.0
141
1.0
290
     1
  0
SCALE
  5
1221
102
{ACAD_REACTORS
330
121F
102
}
330
121F
100
AcDbScale
 70
     0
300
1:2
140
1.0
141
2.0
290
     0
  0
SCALE
  5
1222
102
{ACAD_REACTORS
330
121F
102
}
330
121F
100
AcDbScale
 70
     0
300
1:4
140
1.0
141
4.0
290
     0
  0
SCALE
  5
1223
102
{ACAD_REACTORS
330
121F
102
}
330
121F
100
AcDbScale
 70
     0
300
1:5
140
1.0
141
5.0
290
     0
  0
SCALE
  5
1224
102
{ACAD_REACTORS
330
121F
102
}
330
121F
100
AcDbScale
 70
     0
300
1:8
140
1.0
141
8.0
290
     0
  0
SCALE
  5
1225
102
{ACAD_REACTORS
330
121F
102
}
330
121F
100
AcDbScale
 70
     0
300
1:10
140
1.0
141
10.0
290
     0
  0
SCALE
  5
1226
102
{ACAD_REACTORS
330
121F
102
}
330
121F
100
AcDbScale
 70
     0
300
1:16
140
1.0
141
16.0
290
     0
  0
SCALE
  5
1227
102
{ACAD_REACTORS
330
121F
102
}
330
121F
100
AcDbScale
 70
     0
300
1:20
140
1.0
141
20.0
290
     0
  0
SCALE
  5
1228
102
{ACAD_REACTORS
330
121F
102
}
330
121F
100
AcDbScale
 70
     0
300
1:30
140
1.0
141
30.0
290
     0
  0
SCALE
  5
1229
102
{ACAD_REACTORS
330
121F
102
}
330
121F
100
AcDbScale
 70
     0
300
1:40
140
1.0
141
40.0
290
     0
  0
SCALE
  5
122A
102
{ACAD_REACTORS
330
121F
102
}
330
121F
100
AcDbScale
 70
     0
300
1:50
140
1.0
141
50.0
290
     0
  0
SCALE
  5
122B
102
{ACAD_REACTORS
330
121F
102
}
330
121F
100
AcDbScale
 70
     0
300
1:100
140
1.0
141
100.0
290
     0
  0
SCALE
  5
122C
102
{ACAD_REACTORS
330
121F
102
}
330
121F
100
AcDbScale
 70
     0
300
2:1
140
2.0
141
1.0
290
     0
  0
SCALE
  5
122D
102
{ACAD_REACTORS
330
121F
102
}
330
121F
100
AcDbScale
 70
     0
300
4:1
140
4.0
141
1.0
290
     0
  0
SCALE
  5
122E
102
{ACAD_REACTORS
330
121F
102
}
330
121F
100
AcDbScale
 70
     0
300
8:1
140
8.0
141
1.0
290
     0
  0
SCALE
  5
122F
102
{ACAD_REACTORS
330
121F
102
}
330
121F
100
AcDbScale
 70
     0
300
10:1
140
10.0
141
1.0
290
     0
  0
SCALE
  5
1230
102
{ACAD_REACTORS
330
121F
102
}
330
121F
100
AcDbScale
 70
     0
300
100:1
140
100.0
141
1.0
290
     0
  0
SCALE
  5
1231
102
{ACAD_REACTORS
330
121F
102
}
330
121F
100
AcDbScale
 70
     0
300
1/128" = 1'-0"
140
0.0078125
141
12.0
290
     0
  0
SCALE
  5
1232
102
{ACAD_REACTORS
330
121F
102
}
330
121F
100
AcDbScale
 70
     0
300
1/64" = 1'-0"
140
0.015625
141
12.0
290
     0
  0
SCALE
  5
1233
102
{ACAD_REACTORS
330
121F
102
}
330
121F
100
AcDbScale
 70
     0
300
1/32" = 1'-0"
140
0.03125
141
12.0
290
     0
  0
SCALE
  5
1234
102
{ACAD_REACTORS
330
121F
102
}
330
121F
100
AcDbScale
 70
     0
300
1/16" = 1'-0"
140
0.0625
141
12.0
290
     0
  0
SCALE
  5
1235
102
{ACAD_REACTORS
330
121F
102
}
330
121F
100
AcDbScale
 70
     0
300
3/32" = 1'-0"
140
0.09375
141
12.0
290
     0
  0
SCALE
  5
1236
102
{ACAD_REACTORS
330
121F
102
}
330
121F
100
AcDbScale
 70
     0
300
1/8" = 1'-0"
140
0.125
141
12.0
290
     0
  0
SCALE
  5
1237
102
{ACAD_REACTORS
330
121F
102
}
330
121F
100
AcDbScale
 70
     0
300
3/16" = 1'-0"
140
0.1875
141
12.0
290
     0
  0
SCALE
  5
1238
102
{ACAD_REACTORS
330
121F
102
}
330
121F
100
AcDbScale
 70
     0
300
1/4" = 1'-0"
140
0.25
141
12.0
290
     0
  0
SCALE
  5
1239
102
{ACAD_REACTORS
330
121F
102
}
330
121F
100
AcDbScale
 70
     0
300
3/8" = 1'-0"
140
0.375
141
12.0
290
     0
  0
SCALE
  5
123A
102
{ACAD_REACTORS
330
121F
102
}
330
121F
100
AcDbScale
 70
     0
300
1/2" = 1'-0"
140
0.5
141
12.0
290
     0
  0
SCALE
  5
123B
102
{ACAD_REACTORS
330
121F
102
}
330
121F
100
AcDbScale
 70
     0
300
3/4" = 1'-0"
140
0.75
141
12.0
290
     0
  0
SCALE
  5
123C
102
{ACAD_REACTORS
330
121F
102
}
330
121F
100
AcDbScale
 70
     0
300
1" = 1'-0"
140
1.0
141
12.0
290
     0
  0
SCALE
  5
123D
102
{ACAD_REACTORS
330
121F
102
}
330
121F
100
AcDbScale
 70
     0
300
1-1/2" = 1'-0"
140
1.5
141
12.0
290
     0
  0
SCALE
  5
123E
102
{ACAD_REACTORS
330
121F
102
}
330
121F
100
AcDbScale
 70
     0
300
3" = 1'-0"
140
3.0
141
12.0
290
     0
  0
SCALE
  5
123F
102
{ACAD_REACTORS
330
121F
102
}
330
121F
100
AcDbScale
 70
     0
300
6" = 1'-0"
140
6.0
141
12.0
290
     0
  0
SCALE
  5
1240
102
{ACAD_REACTORS
330
121F
102
}
330
121F
100
AcDbScale
 70
     0
300
1'-0" = 1'-0"
140
12.0
141
12.0
290
     0
  0
TABLESTYLE
  5
121E
102
{ACAD_XDICTIONARY
360
12BA
102
}
102
{ACAD_REACTORS
330
121D
102
}
330
121D
100
AcDbTableStyle
  3
Standard
 70
     0
 71
     0
 40
0.06
 41
0.06
280
     0
281
     0
  7
STANDARD
140
0.18
170
     2
 62
     0
 63
     7
283
     0
274
    -2
284
     1
 64
     0
275
    -2
285
     1
 65
     0
276
    -2
286
     1
 66
     0
277
    -2
287
     1
 67
     0
278
    -2
288
     1
 68
     0
279
    -2
289
     1
 69
     0
  7
STANDARD
140
0.25
170
     5
 62
     0
 63
     7
283
     0
274
    -2
284
     1
 64
     0
275
    -2
285
     1
 65
     0
276
    -2
286
     1
 66
     0
277
    -2
287
     1
 67
     0
278
    -2
288
     1
 68
     0
279
    -2
289
     1
 69
     0
  7
STANDARD
140
0.18
170
     5
 62
     0
 63
     7
283
     0
274
    -2
284
     1
 64
     0
275
    -2
285
     1
 65
     0
276
    -2
286
     1
 66
     0
277
    -2
287
     1
 67
     0
278
    -2
288
     1
 68
     0
279
    -2
289
     1
 69
     0
  0
VISUALSTYLE
  5
1211
102
{ACAD_REACTORS
330
120B
102
}
330
120B
100
AcDbVisualStyle
  2
2dWireframe
 70
     4
 71
     0
 72
     2
 73
     0
 90
        0
 40
-0.6
 41
-30.0
 62
     5
 63
     7
421
 16777215
 74
     1
 91
        4
 64
     7
 65
   257
 75
     1
175
     1
 42
1.0
 92
        0
 66
   257
 43
1.0
 76
     1
 77
     6
 78
     2
 67
     7
 79
     5
170
     0
171
     0
290
     0
174
     0
 93
        1
 44
0.0
173
     0
291
     0
 45
0.0
1001
ACAD
1000
AcDbSavedByObjectVersion
1070
     0
  0
VISUALSTYLE
  5
1213
102
{ACAD_REACTORS
330
120B
102
}
330
120B
100
AcDbVisualStyle
  2
3D Hidden
 70
     6
 71
     1
 72
     2
 73
     2
 90
        0
 40
-0.6
 41
-30.0
 62
     5
 63
     7
421
 16777215
 74
     2
 91
        2
 64
     7
 65
   257
 75
     2
175
     1
 42
40.0
 92
        0
 66
   257
 43
1.0
 76
     1
 77
     6
 78
     2
 67
     7
 79
     3
170
     0
171
     0
290
     0
174
     0
 93
        1
 44
0.0
173
     0
291
     0
 45
0.0
1001
ACAD
1000
AcDbSavedByObjectVersion
1070
     0
  0
VISUALSTYLE
  5
1212
102
{ACAD_REACTORS
330
120B
102
}
330
120B
100
AcDbVisualStyle
  2
3dWireframe
 70
     5
 71
     0
 72
     2
 73
     0
 90
        0
 40
-0.6
 41
-30.0
 62
     5
 63
     7
421
 16777215
 74
     1
 91
        4
 64
     7
 65
   257
 75
     1
175
     1
 42
1.0
 92
        0
 66
   257
 43
1.0
 76
     1
 77
     6
 78
     2
 67
     7
 79
     5
170
     0
171
     0
290
     0
174
     0
 93
        1
 44
0.0
173
     0
291
     0
 45
0.0
1001
ACAD
1000
AcDbSavedByObjectVersion
1070
     0
  0
VISUALSTYLE
  5
1210
102
{ACAD_REACTORS
330
120B
102
}
330
120B
100
AcDbVisualStyle
  2
Basic
 70
     7
 71
     1
 72
     0
 73
     1
 90
        0
 40
-0.6
 41
-30.0
 62
     5
 63
     7
421
 16777215
 74
     0
 91
        4
 64
     7
 65
   257
 75
     1
175
     1
 42
1.0
 92
        8
 66
     7
 43
1.0
 76
     1
 77
     6
 78
     2
 67
     7
 79
     5
170
     0
171
     0
290
     0
174
     0
 93
        1
 44
0.0
173
     0
291
     1
 45
0.0
1001
ACAD
1000
AcDbSavedByObjectVersion
1070
     0
  0
VISUALSTYLE
  5
1217
102
{ACAD_REACTORS
330
120B
102
}
330
120B
100
AcDbVisualStyle
  2
Brighten
 70
    12
 71
     2
 72
     2
 73
     0
 90
        0
 40
-0.6
 41
-30.0
 62
     5
 63
     7
421
 16777215
 74
     1
 91
        4
 64
     7
 65
   257
 75
     1
175
     1
 42
1.0
 92
        8
 66
     7
 43
1.0
 76
     1
 77
     6
 78
     2
 67
     7
 79
     5
170
     0
171
     0
290
     0
174
     0
 93
        1
 44
50.0
173
     0
291
     1
 45
0.0
1001
ACAD
1000
AcDbSavedByObjectVersion
1070
     0
  0
VISUALSTYLE
  5
121B
102
{ACAD_REACTORS
330
120B
102
}
330
120B
100
AcDbVisualStyle
  2
ColorChange
 70
    16
 71
     2
 72
     2
 73
     3
 90
        0
 40
-0.6
 41
-30.0
 62
     5
 63
     8
421
  8421504
 74
     1
 91
        4
 64
     7
 65
   257
 75
     1
175
     1
 42
1.0
 92
        8
 66
     8
424
  8421504
 43
1.0
 76
     1
 77
     6
 78
     2
 67
     7
 79
     5
170
     0
171
     0
290
     0
174
     0
 93
        1
 44
0.0
173
     0
291
     1
 45
0.0
1001
ACAD
1000
AcDbSavedByObjectVersion
1070
     0
  0
VISUALSTYLE
  5
1214
102
{ACAD_REACTORS
330
120B
102
}
330
120B
100
AcDbVisualStyle
  2
Conceptual
 70
     9
 71
     3
 72
     2
 73
     0
 90
        0
 40
-0.6
 41
-30.0
 62
     5
 63
     7
421
 16777215
 74
     2
 91
        2
 64
     7
 65
   257
 75
     1
175
     1
 42
40.0
 92
        8
 66
     7
 43
1.0
 76
     1
 77
     6
 78
     2
 67
     7
 79
     3
170
     0
171
     0
290
     0
174
     0
 93
        1
 44
0.0
173
     0
291
     0
 45
0.0
1001
ACAD
1000
AcDbSavedByObjectVersion
1070
     0
  0
VISUALSTYLE
  5
1216
102
{ACAD_REACTORS
330
120B
102
}
330
120B
100
AcDbVisualStyle
  2
Dim
 70
    11
 71
     2
 72
     2
 73
     0
 90
        0
 40
-0.6
 41
-30.0
 62
     5
 63
     7
421
 16777215
 74
     1
 91
        4
 64
     7
 65
   257
 75
     1
175
     1
 42
1.0
 92
        8
 66
     7
 43
1.0
 76
     1
 77
     6
 78
     2
 67
     7
 79
     5
170
     0
171
     0
290
     0
174
     0
 93
        1
 44
-50.0
173
     0
291
     1
 45
0.0
1001
ACAD
1000
AcDbSavedByObjectVersion
1070
     0
  0
VISUALSTYLE
  5
121A
102
{ACAD_REACTORS
330
120B
102
}
330
120B
100
AcDbVisualStyle
  2
Facepattern
 70
    15
 71
     2
 72
     2
 73
     0
 90
        0
 40
-0.6
 41
-30.0
 62
     5
 63
     7
421
 16777215
 74
     1
 91
        4
 64
     7
 65
   257
 75
     1
175
     1
 42
1.0
 92
        8
 66
     7
 43
1.0
 76
     1
 77
     6
 78
     2
 67
     7
 79
     5
170
     0
171
     0
290
     0
174
     0
 93
        1
 44
0.0
173
     0
291
     1
 45
0.0
1001
ACAD
1000
AcDbSavedByObjectVersion
1070
     0
  0
VISUALSTYLE
  5
120C
102
{ACAD_REACTORS
330
120B
102
}
330
120B
100
AcDbVisualStyle
  2
Flat
 70
     0
 71
     2
 72
     1
 73
     1
 90
        2
 40
-0.6
 41
30.0
 62
     5
 63
     7
421
 16777215
 74
     0
 91
        4
 64
     7
 65
   257
 75
     1
175
     1
 42
1.0
 92
        8
 66
     7
 43
1.0
 76
     1
 77
     6
 78
     2
 67
     7
 79
     5
170
     0
171
     0
290
     0
174
     0
 93
       13
 44
0.0
173
     0
291
     1
 45
0.0
1001
ACAD
1000
AcDbSavedByObjectVersion
1070
     0
  0
VISUALSTYLE
  5
120D
102
{ACAD_REACTORS
330
120B
102
}
330
120B
100
AcDbVisualStyle
  2
FlatWithEdges
 70
     1
 71
     2
 72
     1
 73
     1
 90
        2
 40
-0.6
 41
30.0
 62
     5
 63
     7
421
 16777215
 74
     1
 91
        4
 64
     7
 65
   257
 75
     1
175
     1
 42
1.0
 92
        0
 66
   257
 43
1.0
 76
     1
 77
     6
 78
     2
 67
     7
 79
     5
170
     0
171
     0
290
     0
174
     0
 93
       13
 44
0.0
173
     0
291
     1
 45
0.0
1001
ACAD
1000
AcDbSavedByObjectVersion
1070
     0
  0
VISUALSTYLE
  5
120E
102
{ACAD_REACTORS
330
120B
102
}
330
120B
100
AcDbVisualStyle
  2
Gouraud
 70
     2
 71
     2
 72
     2
 73
     1
 90
        2
 40
-0.6
 41
30.0
 62
     5
 63
     7
421
 16777215
 74
     0
 91
        4
 64
     7
 65
   257
 75
     1
175
     1
 42
1.0
 92
        0
 66
     7
 43
1.0
 76
     1
 77
     6
 78
     2
 67
     7
 79
     5
170
     0
171
     0
290
     0
174
     0
 93
       13
 44
0.0
173
     0
291
     1
 45
0.0
1001
ACAD
1000
AcDbSavedByObjectVersion
1070
     0
  0
VISUALSTYLE
  5
120F
102
{ACAD_REACTORS
330
120B
102
}
330
120B
100
AcDbVisualStyle
  2
GouraudWithEdges
 70
     3
 71
     2
 72
     2
 73
     1
 90
        2
 40
-0.6
 41
30.0
 62
     5
 63
     7
421
 16777215
 74
     1
 91
        4
 64
     7
 65
   257
 75
     1
175
     1
 42
1.0
 92
        0
 66
   257
 43
1.0
 76
     1
 77
     6
 78
     2
 67
     7
 79
     5
170
     0
171
     0
290
     0
174
     0
 93
       13
 44
0.0
173
     0
291
     1
 45
0.0
1001
ACAD
1000
AcDbSavedByObjectVersion
1070
     0
  0
VISUALSTYLE
  5
1219
102
{ACAD_REACTORS
330
120B
102
}
330
120B
100
AcDbVisualStyle
  2
Linepattern
 70
    14
 71
     2
 72
     2
 73
     0
 90
        0
 40
-0.6
 41
-30.0
 62
     5
 63
     7
421
 16777215
 74
     1
 91
        4
 64
     7
 65
   257
 75
     7
175
     7
 42
1.0
 92
        8
 66
     7
 43
1.0
 76
     1
 77
     6
 78
     2
 67
     7
 79
     5
170
     0
171
     0
290
     0
174
     0
 93
        1
 44
0.0
173
     0
291
     1
 45
0.0
1001
ACAD
1000
AcDbSavedByObjectVersion
1070
     0
  0
VISUALSTYLE
  5
1215
102
{ACAD_REACTORS
330
120B
102
}
330
120B
100
AcDbVisualStyle
  2
Realistic
 70
     8
 71
     2
 72
     2
 73
     0
 90
        0
 40
-0.6
 41
-30.0
 62
     5
 63
     7
421
 16777215
 74
     1
 91
        0
 64
     7
 65
   257
 75
     1
175
     1
 42
1.0
 92
        8
 66
     8
424
  7895160
 43
1.0
 76
     1
 77
     6
 78
     2
 67
     7
 79
     5
170
     0
171
     0
290
     0
174
     0
 93
       13
 44
0.0
173
     0
291
     0
 45
0.0
1001
ACAD
1000
AcDbSavedByObjectVersion
1070
     0
  0
VISUALSTYLE
  5
1218
102
{ACAD_REACTORS
330
120B
102
}
330
120B
100
AcDbVisualStyle
  2
Thicken
 70
    13
 71
     2
 72
     2
 73
     0
 90
        0
 40
-0.6
 41
-30.0
 62
     5
 63
     7
421
 16777215
 74
     1
 91
        4
 64
     7
 65
   257
 75
     1
175
     1
 42
1.0
 92
       12
 66
     7
 43
1.0
 76
     1
 77
     6
 78
     2
 67
     7
 79
     5
170
     0
171
     0
290
     0
174
     0
 93
        1
 44
0.0
173
     0
291
     1
 45
0.0
1001
ACAD
1000
AcDbSavedByObjectVersion
1070
     0
  0
DICTIONARYVAR
  5
12C0
102
{ACAD_REACTORS
330
10DD
102
}
330
10DD
100
DictionaryVariables
280
     0
  1
1:1
  0
DICTIONARYVAR
  5
12BE
102
{ACAD_REACTORS
330
10DD
102
}
330
10DD
100
DictionaryVariables
280
     0
  1
STANDARD
  0
DICTIONARYVAR
  5
12BD
102
{ACAD_REACTORS
330
10DD
102
}
330
10DD
100
DictionaryVariables
280
     0
  1
STANDARD
  0
DICTIONARYVAR
  5
10E0
102
{ACAD_REACTORS
330
10DD
102
}
330
10DD
100
DictionaryVariables
280
     0
  1
1
  0
DICTIONARYVAR
  5
10DF
102
{ACAD_REACTORS
330
10DD
102
}
330
10DD
100
DictionaryVariables
280
     0
  1
1
  0
DICTIONARYVAR
  5
181C
102
{ACAD_REACTORS
330
10DD
102
}
330
10DD
100
DictionaryVariables
280
     0
  1
0
  0
DICTIONARYVAR
  5
12C2
102
{ACAD_REACTORS
330
10DD
102
}
330
10DD
100
DictionaryVariables
280
     0
  1
15
  0
DICTIONARYVAR
  5
12C1
102
{ACAD_REACTORS
330
10DD
102
}
330
10DD
100
DictionaryVariables
280
     0
  1
0
  0
DICTIONARYVAR
  5
12BF
102
{ACAD_REACTORS
330
10DD
102
}
330
10DD
100
DictionaryVariables
280
     0
  1
0
  0
DICTIONARYVAR
  5
10DE
102
{ACAD_REACTORS
330
10DD
102
}
330
10DD
100
DictionaryVariables
280
     0
  1
1
  0
XRECORD
  5
1800
102
{ACAD_REACTORS
330
17FD
102
}
330
17FD
100
AcDbXrecord
280
     1
  1
_0100-
  1
*0100-*
  1
*
  1
*
 70
     0
  1
*
  1
*
  0
XRECORD
  5
17FF
102
{ACAD_REACTORS
330
17FD
102
}
330
17FD
100
AcDbXrecord
280
     1
  1
_0280-
  1
*0280-*
  1
*
  1
*
 70
     0
  1
*
  1
*
  0
XRECORD
  5
1803
102
{ACAD_REACTORS
330
17FD
102
}
330
17FD
100
AcDbXrecord
280
     1
  1
_Color 253
  1
*
  1
253
  1
*
 70
     0
  1
*
  1
*
  0
XRECORD
  5
1801
102
{ACAD_REACTORS
330
17FD
102
}
330
17FD
100
AcDbXrecord
280
     1
  1
_Color 8
  1
*
  1
8
  1
*
 70
     0
  1
*
  1
*
  0
XRECORD
  5
1802
102
{ACAD_REACTORS
330
17FD
102
}
330
17FD
100
AcDbXrecord
280
     1
  1
_Color 84
  1
*
  1
84
  1
*
 70
     0
  1
*
  1
*
  0
XRECORD
  5
1808
102
{ACAD_REACTORS
330
17FD
102
}
330
17FD
100
AcDbXrecord
280
     1
  1
_Contours
  1
*contour*,*cont-*,*cp cont*,*p-cont*
  1
*
  1
*
 70
     0
  1
*
  1
*
  0
XRECORD
  5
1804
102
{ACAD_REACTORS
330
17FD
102
}
330
17FD
100
AcDbXrecord
280
     1
  1
_Existing
  1
*exist*
  1
*
  1
*
 70
     0
  1
*
  1
*
  0
XRECORD
  5
1807
102
{ACAD_REACTORS
330
17FD
102
}
330
17FD
100
AcDbXrecord
280
     1
  1
_Hardscape
  1
*sidewalk*,*sw*,*curb*,*walk*,*-lip*,*tbc*
  1
*
  1
*
 70
     0
  1
*
  1
*
  0
XRECORD
  5
17FE
102
{ACAD_REACTORS
330
17FD
102
}
330
17FD
100
AcDbXrecord
280
     1
  1
_NoXref
  1
~*|*
  1
*
  1
*
 70
     0
  1
*
  1
*
  0
XRECORD
  5
1805
102
{ACAD_REACTORS
330
17FD
102
}
330
17FD
100
AcDbXrecord
280
     1
  1
_Row
  1
*row*
  1
*
  1
*
 70
     0
  1
*
  1
*
  0
XRECORD
  5
1806
102
{ACAD_REACTORS
330
17FD
102
}
330
17FD
100
AcDbXrecord
280
     1
  1
_Utility
  1
*ut-*,*utility*,*wat*
  1
*
  1
*
 70
     0
  1
*
  1
*
  0
DICTIONARY
  5
11FC
330
11FB
100
AcDbDictionary
280
     1
281
     1
  3
ACAD_XREC_ROUNDTRIP
360
1828
  3
BUMPTILE
360
11FE
  3
DIFFUSETILE
360
11FD
  3
OPACITYTILE
360
1201
  3
REFLECTIONTILE
360
1200
  3
REFRACTIONTILE
360
1202
  3
SPECULARTILE
360
11FF
  0
DICTIONARY
  5
11F4
330
11F3
100
AcDbDictionary
280
     1
281
     1
  3
ACAD_XREC_ROUNDTRIP
360
1827
  3
BUMPTILE
360
11F6
  3
DIFFUSETILE
360
11F5
  3
OPACITYTILE
360
11F9
  3
REFLECTIONTILE
360
11F8
  3
REFRACTIONTILE
360
11FA
  3
SPECULARTILE
360
11F7
  0
DICTIONARY
  5
1204
330
1203
100
AcDbDictionary
280
     1
281
     1
  3
ACAD_XREC_ROUNDTRIP
360
1829
  3
BUMPTILE
360
1206
  3
DIFFUSETILE
360
1205
  3
OPACITYTILE
360
1209
  3
REFLECTIONTILE
360
1208
  3
REFRACTIONTILE
360
120A
  3
SPECULARTILE
360
1207
  0
DICTIONARY
  5
12BA
330
121E
100
AcDbDictionary
280
     1
281
     1
  3
ACAD_ROUNDTRIP_2008_TABLESTYLE_CELLSTYLEMAP
360
1824
  3
ACAD_XREC_ROUNDTRIP
360
182A
  0
XRECORD
  5
1828
102
{ACAD_REACTORS
330
11FC
102
}
330
11FC
100
AcDbXrecord
280
     1
102
MATERIAL
148
0.0
149
0.0
149
0.0
 93
        0
 94
      127
282
     0
 72
     0
 77
     0
171
     0
175
     0
179
     0
273
     0
  0
XRECORD
  5
11FE
102
{ACAD_REACTORS
330
11FC
102
}
330
11FC
100
AcDbXrecord
280
     1
270
     1
271
     1
  0
XRECORD
  5
11FD
102
{ACAD_REACTORS
330
11FC
102
}
330
11FC
100
AcDbXrecord
280
     1
270
     1
271
     1
  0
XRECORD
  5
1201
102
{ACAD_REACTORS
330
11FC
102
}
330
11FC
100
AcDbXrecord
280
     1
270
     1
271
     1
  0
XRECORD
  5
1200
102
{ACAD_REACTORS
330
11FC
102
}
330
11FC
100
AcDbXrecord
280
     1
270
     1
271
     1
  0
XRECORD
  5
1202
102
{ACAD_REACTORS
330
11FC
102
}
330
11FC
100
AcDbXrecord
280
     1
270
     1
271
     1
  0
XRECORD
  5
11FF
102
{ACAD_REACTORS
330
11FC
102
}
330
11FC
100
AcDbXrecord
280
     1
270
     1
271
     1
  0
XRECORD
  5
1827
102
{ACAD_REACTORS
330
11F4
102
}
330
11F4
100
AcDbXrecord
280
     1
102
MATERIAL
148
0.0
149
0.0
149
0.0
 93
        0
 94
      127
282
     0
 72
     0
 77
     0
171
     0
175
     0
179
     0
273
     0
  0
XRECORD
  5
11F6
102
{ACAD_REACTORS
330
11F4
102
}
330
11F4
100
AcDbXrecord
280
     1
270
     1
271
     1
  0
XRECORD
  5
11F5
102
{ACAD_REACTORS
330
11F4
102
}
330
11F4
100
AcDbXrecord
280
     1
270
     1
271
     1
  0
XRECORD
  5
11F9
102
{ACAD_REACTORS
330
11F4
102
}
330
11F4
100
AcDbXrecord
280
     1
270
     1
271
     1
  0
XRECORD
  5
11F8
102
{ACAD_REACTORS
330
11F4
102
}
330
11F4
100
AcDbXrecord
280
     1
270
     1
271
     1
  0
XRECORD
  5
11FA
102
{ACAD_REACTORS
330
11F4
102
}
330
11F4
100
AcDbXrecord
280
     1
270
     1
271
     1
  0
XRECORD
  5
11F7
102
{ACAD_REACTORS
330
11F4
102
}
330
11F4
100
AcDbXrecord
280
     1
270
     1
271
     1
  0
XRECORD
  5
1829
102
{ACAD_REACTORS
330
1204
102
}
330
1204
100
AcDbXrecord
280
     1
102
MATERIAL
148
0.0
149
0.0
149
0.0
 93
        0
 94
      127
282
     0
 72
     0
 77
     0
171
     0
175
     0
179
     0
273
     0
  0
XRECORD
  5
1206
102
{ACAD_REACTORS
330
1204
102
}
330
1204
100
AcDbXrecord
280
     1
270
     1
271
     1
  0
XRECORD
  5
1205
102
{ACAD_REACTORS
330
1204
102
}
330
1204
100
AcDbXrecord
280
     1
270
     1
271
     1
  0
XRECORD
  5
1209
102
{ACAD_REACTORS
330
1204
102
}
330
1204
100
AcDbXrecord
280
     1
270
     1
271
     1
  0
XRECORD
  5
1208
102
{ACAD_REACTORS
330
1204
102
}
330
1204
100
AcDbXrecord
280
     1
270
     1
271
     1
  0
XRECORD
  5
120A
102
{ACAD_REACTORS
330
1204
102
}
330
1204
100
AcDbXrecord
280
     1
270
     1
271
     1
  0
XRECORD
  5
1207
102
{ACAD_REACTORS
330
1204
102
}
330
1204
100
AcDbXrecord
280
     1
270
     1
271
     1
  0
CELLSTYLEMAP
  5
1824
102
{ACAD_REACTORS
330
12BA
102
}
330
12BA
100
AcDbCellStyleMap
 90
        3
300
CELLSTYLE
  1
TABLEFORMAT_BEGIN
 90
        5
170
     1
 91
        0
 92
    32768
 62
   257
 93
        1
300
CONTENTFORMAT
  1
CONTENTFORMAT_BEGIN
 90
        0
 91
        0
 92
      512
 93
        0
300

 40
0.0
140
1.0
 94
        5
 62
     0
340
10B4
144
0.25
309
CONTENTFORMAT_END
171
     0
 94
        0
309
TABLEFORMAT_END
  1
CELLSTYLE_BEGIN
 90
        1
 91
        1
300
_TITLE
309
CELLSTYLE_END
300
CELLSTYLE
  1
TABLEFORMAT_BEGIN
 90
        5
170
     1
 91
        0
 92
        0
 62
   257
 93
        1
300
CONTENTFORMAT
  1
CONTENTFORMAT_BEGIN
 90
        0
 91
        0
 92
      512
 93
        0
300

 40
0.0
140
1.0
 94
        5
 62
     0
340
10B4
144
0.18
309
CONTENTFORMAT_END
171
     0
 94
        0
309
TABLEFORMAT_END
  1
CELLSTYLE_BEGIN
 90
        2
 91
        1
300
_HEADER
309
CELLSTYLE_END
300
CELLSTYLE
  1
TABLEFORMAT_BEGIN
 90
        5
170
     1
 91
        0
 92
        0
 62
   257
 93
        1
300
CONTENTFORMAT
  1
CONTENTFORMAT_BEGIN
 90
        0
 91
        0
 92
      512
 93
        0
300

 40
0.0
140
1.0
 94
        2
 62
     0
340
10B4
144
0.18
309
CONTENTFORMAT_END
171
     0
 94
        0
309
TABLEFORMAT_END
  1
CELLSTYLE_BEGIN
 90
        3
 91
        2
300
_DATA
309
CELLSTYLE_END
  0
XRECORD
  5
182A
102
{ACAD_REACTORS
330
12BA
102
}
330
12BA
100
AcDbXrecord
280
     1
102
ACAD_ROUNDTRIP_PRE2007_TABLESTYLE
 90
      512
 91
        0
  1

 92
      512
 93
        0
  2

 94
      512
 95
        0
  3

  0
ENDSEC
  0
EOF
