  0
SECTION
  2
HEADER
  9
$ACADVER
  1
AC1018
  9
$ACADMAINTVER
 70
   104
  9
$DWGCODEPAGE
  3
ANSI_1252
  9
$LASTSAVEDBY
  1
dweyer
  9
$INSBASE
 10
0.0
 20
0.0
 30
0.0
  9
$EXTMIN
 10
-0.4984554492313005
 20
-1.274218755967127
 30
0.0
  9
$EXTMAX
 10
9.836131975556137
 20
9.165781244032872
 30
0.03
  9
$LIMMIN
 10
0.0
 20
0.0
  9
$LIMMAX
 10
12.0
 20
9.0
  9
$ORTHOMODE
 70
     0
  9
$REGENMODE
 70
     1
  9
$FILLMODE
 70
     1
  9
$QTEXTMODE
 70
     0
  9
$MIRRTEXT
 70
     0
  9
$LTSCALE
 40
1.0
  9
$ATTMODE
 70
     1
  9
$TEXTSIZE
 40
0.125
  9
$TRACEWID
 40
0.05
  9
$TEXTSTYLE
  7
ROMANS
  9
$CLAYER
  8
0
  9
$CELTYPE
  6
ByLayer
  9
$CECOLOR
 62
   256
  9
$CELTSCALE
 40
1.0
  9
$DISPSILH
 70
     0
  9
$DIMSCALE
 40
1.0
  9
$DIMASZ
 40
0.18
  9
$DIMEXO
 40
0.0625
  9
$DIMDLI
 40
0.38
  9
$DIMRND
 40
0.0
  9
$DIMDLE
 40
0.0
  9
$DIMEXE
 40
0.125
  9
$DIMTP
 40
0.0
  9
$DIMTM
 40
0.0
  9
$DIMTXT
 40
0.125
  9
$DIMCEN
 40
0.09
  9
$DIMTSZ
 40
0.0
  9
$DIMTOL
 70
     0
  9
$DIMLIM
 70
     0
  9
$DIMTIH
 70
     1
  9
$DIMTOH
 70
     1
  9
$DIMSE1
 70
     0
  9
$DIMSE2
 70
     0
  9
$DIMTAD
 70
     0
  9
$DIMZIN
 70
     0
  9
$DIMBLK
  1

  9
$DIMASO
 70
     1
  9
$DIMSHO
 70
     1
  9
$DIMPOST
  1

  9
$DIMAPOST
  1

  9
$DIMALT
 70
     0
  9
$DIMALTD
 70
     2
  9
$DIMALTF
 40
25.4
  9
$DIMLFAC
 40
1.0
  9
$DIMTOFL
 70
     0
  9
$DIMTVP
 40
0.0
  9
$DIMTIX
 70
     0
  9
$DIMSOXD
 70
     0
  9
$DIMSAH
 70
     0
  9
$DIMBLK1
  1

  9
$DIMBLK2
  1

  9
$DIMSTYLE
  2
STANDARD
  9
$DIMCLRD
 70
   256
  9
$DIMCLRE
 70
   256
  9
$DIMCLRT
 70
   256
  9
$DIMTFAC
 40
1.0
  9
$DIMGAP
 40
0.09
  9
$DIMJUST
 70
     0
  9
$DIMSD1
 70
     0
  9
$DIMSD2
 70
     0
  9
$DIMTOLJ
 70
     1
  9
$DIMTZIN
 70
     0
  9
$DIMALTZ
 70
     0
  9
$DIMALTTZ
 70
     0
  9
$DIMUPT
 70
     0
  9
$DIMDEC
 70
     4
  9
$DIMTDEC
 70
     4
  9
$DIMALTU
 70
     2
  9
$DIMALTTD
 70
     2
  9
$DIMTXSTY
  7
Arial
  9
$DIMAUNIT
 70
     0
  9
$DIMADEC
 70
     0
  9
$DIMALTRND
 40
0.0
  9
$DIMAZIN
 70
     0
  9
$DIMDSEP
 70
    46
  9
$DIMATFIT
 70
     3
  9
$DIMFRAC
 70
     0
  9
$DIMLDRBLK
  1

  9
$DIMLUNIT
 70
     2
  9
$DIMLWD
 70
    -1
  9
$DIMLWE
 70
    -1
  9
$DIMTMOVE
 70
     2
  9
$LUNITS
 70
     2
  9
$LUPREC
 70
     3
  9
$SKETCHINC
 40
0.1
  9
$FILLETRAD
 40
0.0
  9
$AUNITS
 70
     0
  9
$AUPREC
 70
     0
  9
$MENU
  1
ACAD
  9
$ELEVATION
 40
0.0
  9
$PELEVATION
 40
0.0
  9
$THICKNESS
 40
0.0
  9
$LIMCHECK
 70
     0
  9
$CHAMFERA
 40
0.0
  9
$CHAMFERB
 40
0.0
  9
$CHAMFERC
 40
0.0
  9
$CHAMFERD
 40
0.0
  9
$SKPOLY
 70
     0
  9
$TDCREATE
 40
2451605.558833901
  9
$TDUCREATE
 40
2451605.850500568
  9
$TDUPDATE
 40
2455218.454297720
  9
$TDUUPDATE
 40
2455218.745964387
  9
$TDINDWG
 40
0.2511605208
  9
$TDUSRTIMER
 40
0.2511605208
  9
$USRTIMER
 70
     1
  9
$ANGBASE
 50
0.0
  9
$ANGDIR
 70
     0
  9
$PDMODE
 70
     0
  9
$PDSIZE
 40
0.0
  9
$PLINEWID
 40
0.0
  9
$SPLFRAME
 70
     0
  9
$SPLINETYPE
 70
     6
  9
$SPLINESEGS
 70
     8
  9
$HANDSEED
  5
1785
  9
$SURFTAB1
 70
     6
  9
$SURFTAB2
 70
     6
  9
$SURFTYPE
 70
     6
  9
$SURFU
 70
     6
  9
$SURFV
 70
     6
  9
$UCSBASE
  2

  9
$UCSNAME
  2

  9
$UCSORG
 10
0.0
 20
0.0
 30
0.0
  9
$UCSXDIR
 10
1.0
 20
0.0
 30
0.0
  9
$UCSYDIR
 10
0.0
 20
1.0
 30
0.0
  9
$UCSORTHOREF
  2

  9
$UCSORTHOVIEW
 70
     0
  9
$UCSORGTOP
 10
0.0
 20
0.0
 30
0.0
  9
$UCSORGBOTTOM
 10
0.0
 20
0.0
 30
0.0
  9
$UCSORGLEFT
 10
0.0
 20
0.0
 30
0.0
  9
$UCSORGRIGHT
 10
0.0
 20
0.0
 30
0.0
  9
$UCSORGFRONT
 10
0.0
 20
0.0
 30
0.0
  9
$UCSORGBACK
 10
0.0
 20
0.0
 30
0.0
  9
$PUCSBASE
  2

  9
$PUCSNAME
  2

  9
$PUCSORG
 10
0.0
 20
0.0
 30
0.0
  9
$PUCSXDIR
 10
1.0
 20
0.0
 30
0.0
  9
$PUCSYDIR
 10
0.0
 20
1.0
 30
0.0
  9
$PUCSORTHOREF
  2

  9
$PUCSORTHOVIEW
 70
     0
  9
$PUCSORGTOP
 10
0.0
 20
0.0
 30
0.0
  9
$PUCSORGBOTTOM
 10
0.0
 20
0.0
 30
0.0
  9
$PUCSORGLEFT
 10
0.0
 20
0.0
 30
0.0
  9
$PUCSORGRIGHT
 10
0.0
 20
0.0
 30
0.0
  9
$PUCSORGFRONT
 10
0.0
 20
0.0
 30
0.0
  9
$PUCSORGBACK
 10
0.0
 20
0.0
 30
0.0
  9
$USERI1
 70
     0
  9
$USERI2
 70
     0
  9
$USERI3
 70
     0
  9
$USERI4
 70
     0
  9
$USERI5
 70
     0
  9
$USERR1
 40
0.0
  9
$USERR2
 40
0.0
  9
$USERR3
 40
0.0
  9
$USERR4
 40
0.0
  9
$USERR5
 40
0.0
  9
$WORLDVIEW
 70
     1
  9
$SHADEDGE
 70
     3
  9
$SHADEDIF
 70
    70
  9
$TILEMODE
 70
     1
  9
$MAXACTVP
 70
    16
  9
$PINSBASE
 10
0.0
 20
0.0
 30
0.0
  9
$PLIMCHECK
 70
     0
  9
$PEXTMIN
 10
1.000000000000000E+20
 20
1.000000000000000E+20
 30
1.000000000000000E+20
  9
$PEXTMAX
 10
-1.000000000000000E+20
 20
-1.000000000000000E+20
 30
-1.000000000000000E+20
  9
$PLIMMIN
 10
0.0
 20
0.0
  9
$PLIMMAX
 10
12.0
 20
9.0
  9
$UNITMODE
 70
     0
  9
$VISRETAIN
 70
     0
  9
$PLINEGEN
 70
     1
  9
$PSLTSCALE
 70
     1
  9
$TREEDEPTH
 70
  3020
  9
$CMLSTYLE
  2
Standard
  9
$CMLJUST
 70
     0
  9
$CMLSCALE
 40
1.0
  9
$PROXYGRAPHICS
 70
     1
  9
$MEASUREMENT
 70
     0
  9
$CELWEIGHT
370
    -1
  9
$ENDCAPS
280
     0
  9
$JOINSTYLE
280
     0
  9
$LWDISPLAY
290
     0
  9
$INSUNITS
 70
     0
  9
$HYPERLINKBASE
  1

  9
$STYLESHEET
  1
pdf bw shaded.ctb
  9
$XEDIT
290
     1
  9
$CEPSNTYPE
380
     0
  9
$PSTYLEMODE
290
     1
  9
$FINGERPRINTGUID
  2
{809E942E-D3FA-4AF4-BE5E-39ACFC237699}
  9
$VERSIONGUID
  2
{F1594E2F-8738-4C1F-B657-2A017B0C3BAE}
  9
$EXTNAMES
290
     1
  9
$PSVPSCALE
 40
0.0
  9
$OLESTARTUP
290
     1
  9
$SORTENTS
280
    48
  9
$INDEXCTL
280
     0
  9
$HIDETEXT
280
     1
  9
$XCLIPFRAME
290
     0
  9
$HALOGAP
280
     0
  9
$OBSCOLOR
 70
   257
  9
$OBSLTYPE
280
     0
  9
$INTERSECTIONDISPLAY
280
     0
  9
$INTERSECTIONCOLOR
 70
   257
  9
$DIMASSOC
280
     1
  9
$PROJECTNAME
  1

  0
ENDSEC
  0
SECTION
  2
CLASSES
  0
CLASS
  1
ACDBDICTIONARYWDFLT
  2
AcDbDictionaryWithDefault
  3
ObjectDBX Classes
 90
        0
 91
        1
280
     0
281
     0
  0
CLASS
  1
DICTIONARYVAR
  2
AcDbDictionaryVar
  3
ObjectDBX Classes
 90
        0
 91
       11
280
     0
281
     0
  0
CLASS
  1
MATERIAL
  2
AcDbMaterial
  3
ObjectDBX Classes
 90
     1153
 91
        3
280
     0
281
     0
  0
CLASS
  1
VISUALSTYLE
  2
AcDbVisualStyle
  3
ObjectDBX Classes
 90
     4095
 91
       16
280
     0
281
     0
  0
CLASS
  1
TABLESTYLE
  2
AcDbTableStyle
  3
ObjectDBX Classes
 90
     4095
 91
        1
280
     0
281
     0
  0
CLASS
  1
SCALE
  2
AcDbScale
  3
ObjectDBX Classes
 90
     1153
 91
       33
280
     0
281
     0
  0
CLASS
  1
MLEADERSTYLE
  2
AcDbMLeaderStyle
  3
ACDB_MLEADERSTYLE_CLASS
 90
     4095
 91
        1
280
     0
281
     0
  0
CLASS
  1
EXACXREFPANELOBJECT
  2
ExAcXREFPanelObject
  3
EXAC_ESW
 90
     1025
 91
        0
280
     0
281
     0
  0
CLASS
  1
NPOCOLLECTION
  2
AcDbImpNonPersistentObjectsCollection
  3
ObjectDBX Classes
 90
     1153
 91
        0
280
     0
281
     0
  0
CLASS
  1
PLOTSETTINGS
  2
AcDbPlotSettings
  3
ObjectDBX Classes
 90
        0
 91
       76
280
     0
281
     0
  0
CLASS
  1
LAYER_INDEX
  2
AcDbLayerIndex
  3
ObjectDBX Classes
 90
        0
 91
        0
280
     0
281
     0
  0
CLASS
  1
SPATIAL_INDEX
  2
AcDbSpatialIndex
  3
ObjectDBX Classes
 90
        0
 91
        0
280
     0
281
     0
  0
CLASS
  1
IDBUFFER
  2
AcDbIdBuffer
  3
ObjectDBX Classes
 90
        0
 91
        0
280
     0
281
     0
  0
CLASS
  1
CELLSTYLEMAP
  2
AcDbCellStyleMap
  3
ObjectDBX Classes
 90
     1152
 91
        7
280
     0
281
     0
  0
CLASS
  1
AEC_REFEDIT_STATUS_TRACKER
  2
AecDbRefEditStatusTracker
  3
AecArchBase50|Product Desc: Autodesk Architectural Desktop 2007 |Company: Autodesk,Inc. |WEB Address: www.autodesk.com
 90
      129
 91
        0
280
     0
281
     0
  0
CLASS
  1
SORTENTSTABLE
  2
AcDbSortentsTable
  3
ObjectDBX Classes
 90
        0
 91
        1
280
     0
281
     0
  0
ENDSEC
  0
SECTION
  2
TABLES
  0
TABLE
  2
VPORT
  5
10AB
330
0
100
AcDbSymbolTable
 70
     1
  0
VPORT
  5
11F0
330
10AB
100
AcDbSymbolTableRecord
100
AcDbViewportTableRecord
  2
*Active
 70
     0
 10
0.0
 20
0.0
 11
1.0
 21
1.0
 12
4.668838263162419
 22
3.945781244032871
 13
0.0
 23
0.0
 14
0.14
 24
0.14
 15
0.14
 25
0.14
 16
0.0
 26
0.0
 36
1.0
 17
0.0
 27
0.0
 37
0.0
 40
10.53266272189349
 41
2.308148148148148
 42
50.0
 43
0.0
 44
0.0
 50
0.0
 51
0.0
 71
     0
 72
  4000
 73
     1
 74
     1
 75
     0
 76
     0
 77
     0
 78
     0
281
     0
 65
     1
110
0.0
120
0.0
130
0.0
111
1.0
121
0.0
131
0.0
112
0.0
122
1.0
132
0.0
 79
     0
146
0.0
  0
ENDTAB
  0
TABLE
  2
LTYPE
  5
10A8
330
0
100
AcDbSymbolTable
 70
     1
  0
LTYPE
  5
10B6
330
10A8
100
AcDbSymbolTableRecord
100
AcDbLinetypeTableRecord
  2
ByBlock
 70
     0
  3

 72
    65
 73
     0
 40
0.0
  0
LTYPE
  5
10B7
330
10A8
100
AcDbSymbolTableRecord
100
AcDbLinetypeTableRecord
  2
ByLayer
 70
     0
  3

 72
    65
 73
     0
 40
0.0
  0
LTYPE
  5
10B8
330
10A8
100
AcDbSymbolTableRecord
100
AcDbLinetypeTableRecord
  2
CONTINUOUS
 70
     0
  3
Solid line
 72
    65
 73
     0
 40
0.0
  0
ENDTAB
  0
TABLE
  2
LAYER
  5
10A5
102
{ACAD_XDICTIONARY
360
10EB
102
}
330
0
100
AcDbSymbolTable
 70
     5
  0
LAYER
  5
10B3
330
10A5
100
AcDbSymbolTableRecord
100
AcDbLayerTableRecord
  2
0
 70
     0
 62
     7
  6
CONTINUOUS
370
    -3
390
10B2
  0
LAYER
  5
10CC
330
10A5
100
AcDbSymbolTableRecord
100
AcDbLayerTableRecord
  2
text_bubbles
 70
     0
 62
     6
  6
CONTINUOUS
370
    -3
390
10B2
  0
LAYER
  5
10CD
330
10A5
100
AcDbSymbolTableRecord
100
AcDbLayerTableRecord
  2
image
 70
     0
 62
     7
  6
CONTINUOUS
370
    -3
390
10B2
  0
LAYER
  5
118F
330
10A5
100
AcDbSymbolTableRecord
100
AcDbLayerTableRecord
  2
title
 70
     0
 62
     4
  6
CONTINUOUS
370
    -3
390
10B2
  0
ENDTAB
  0
TABLE
  2
STYLE
  5
10A6
330
0
100
AcDbSymbolTable
 70
     7
  0
STYLE
  5
10B4
330
10A6
100
AcDbSymbolTableRecord
100
AcDbTextStyleTableRecord
  2
STANDARD
 70
     0
 40
0.0
 41
1.0
 50
0.0
 71
     0
 42
0.2
  3
txt
  4

  0
STYLE
  5
10C7
330
10A6
100
AcDbSymbolTableRecord
100
AcDbTextStyleTableRecord
  2
ROMANS
 70
     0
 40
0.0
 41
1.0
 50
0.0
 71
     0
 42
0.125
  3
ROMANS.SHX
  4

  0
STYLE
  5
10C8
330
10A6
100
AcDbSymbolTableRecord
100
AcDbTextStyleTableRecord
  2
SIMPLEX
 70
     0
 40
0.0
 41
1.0
 50
0.0
 71
     0
 42
0.125
  3
SIMPLEX
  4

  0
STYLE
  5
1190
330
10A6
100
AcDbSymbolTableRecord
100
AcDbTextStyleTableRecord
  2
L100
 70
     0
 40
0.1
 41
1.0
 50
0.0
 71
     0
 42
0.1
  3
romans.shx
  4

  0
STYLE
  5
1191
330
10A6
100
AcDbSymbolTableRecord
100
AcDbTextStyleTableRecord
  2
L200
 70
     0
 40
0.2
 41
1.0
 50
0.0
 71
     0
 42
0.081
  3
ARIAL.TTF
  4

1001
ACAD
1000
Arial
1071
       34
  0
STYLE
  5
1192
330
10A6
100
AcDbSymbolTableRecord
100
AcDbTextStyleTableRecord
  2
L80
 70
     0
 40
0.08
 41
1.0
 50
0.0
 71
     0
 42
0.08
  3
ROMANS
  4

  0
STYLE
  5
1345
330
10A6
100
AcDbSymbolTableRecord
100
AcDbTextStyleTableRecord
  2
Arial
 70
     0
 40
0.0
 41
1.0
 50
0.0
 71
     0
 42
0.125
  3
ARIAL.TTF
  4

1001
ACAD
1000
Arial
1071
       34
  0
ENDTAB
  0
TABLE
  2
VIEW
  5
10A9
330
0
100
AcDbSymbolTable
 70
     0
  0
ENDTAB
  0
TABLE
  2
UCS
  5
10AA
330
0
100
AcDbSymbolTable
 70
     0
  0
ENDTAB
  0
TABLE
  2
APPID
  5
10AC
330
0
100
AcDbSymbolTable
 70
    14
  0
APPID
  5
10B5
330
10AC
100
AcDbSymbolTableRecord
100
AcDbRegAppTableRecord
  2
ACAD
 70
     0
  0
APPID
  5
10CA
330
10AC
100
AcDbSymbolTableRecord
100
AcDbRegAppTableRecord
  2
ABNSLEADERTOOLS
 70
     0
  0
APPID
  5
1193
330
10AC
100
AcDbSymbolTableRecord
100
AcDbRegAppTableRecord
  2
RAK
 70
     0
  0
APPID
  5
1194
330
10AC
100
AcDbSymbolTableRecord
100
AcDbRegAppTableRecord
  2
DCO15
 70
     0
  0
APPID
  5
1243
330
10AC
100
AcDbSymbolTableRecord
100
AcDbRegAppTableRecord
  2
ACAD_MLEADERVER
 70
     0
  0
APPID
  5
1257
330
10AC
100
AcDbSymbolTableRecord
100
AcDbRegAppTableRecord
  2
ACAD_PSEXT
 70
     0
  0
APPID
  5
12D8
330
10AC
100
AcDbSymbolTableRecord
100
AcDbRegAppTableRecord
  2
ACAD_EXEMPT_FROM_CAD_STANDARDS
 70
     0
  0
APPID
  5
1346
330
10AC
100
AcDbSymbolTableRecord
100
AcDbRegAppTableRecord
  2
BBSI_PltSel
 70
     0
  0
APPID
  5
1347
330
10AC
100
AcDbSymbolTableRecord
100
AcDbRegAppTableRecord
  2
BBSI_Plots
 70
     0
  0
APPID
  5
1348
330
10AC
100
AcDbSymbolTableRecord
100
AcDbRegAppTableRecord
  2
BBSI_Bookmarks
 70
     0
  0
APPID
  5
1349
330
10AC
100
AcDbSymbolTableRecord
100
AcDbRegAppTableRecord
  2
BBSI_BookmarksEx
 70
     0
  0
APPID
  5
135A
330
10AC
100
AcDbSymbolTableRecord
100
AcDbRegAppTableRecord
  2
BBSI_StampsEx
 70
     0
  0
APPID
  5
135B
330
10AC
100
AcDbSymbolTableRecord
100
AcDbRegAppTableRecord
  2
BBSI_Attachs
 70
     0
  0
APPID
  5
135C
330
10AC
100
AcDbSymbolTableRecord
100
AcDbRegAppTableRecord
  2
BBSI_DigSigs
 70
     0
  0
ENDTAB
  0
TABLE
  2
DIMSTYLE
  5
10AD
330
0
100
AcDbSymbolTable
 70
     1
100
AcDbDimStyleTable
 71
     1
340
10CB
  0
DIMSTYLE
105
10CB
330
10AD
100
AcDbSymbolTableRecord
100
AcDbDimStyleTableRecord
  2
STANDARD
 70
     0
279
     2
340
10B4
  0
ENDTAB
  0
TABLE
  2
BLOCK_RECORD
  5
10A4
330
0
100
AcDbSymbolTable
 70
     2
  0
BLOCK_RECORD
  5
10C1
102
{ACAD_XDICTIONARY
360
12AB
102
}
330
10A4
100
AcDbSymbolTableRecord
100
AcDbBlockTableRecord
  2
*Model_Space
340
10C4
  0
BLOCK_RECORD
  5
10BD
330
10A4
100
AcDbSymbolTableRecord
100
AcDbBlockTableRecord
  2
*Paper_Space
340
10C0
  0
BLOCK_RECORD
  5
10C5
330
10A4
100
AcDbSymbolTableRecord
100
AcDbBlockTableRecord
  2
*U0
340
0
102
{BLKREFS
331
9BB
102
}
  0
BLOCK_RECORD
  5
1195
102
{ACAD_XDICTIONARY
360
1316
102
}
330
10A4
100
AcDbSymbolTableRecord
100
AcDbBlockTableRecord
  2
titleblock
340
0
102
{BLKREFS
331
11A4
102
}
  0
ENDTAB
  0
ENDSEC
  0
SECTION
  2
BLOCKS
  0
BLOCK
  5
10D6
330
10C1
100
AcDbEntity
  8
0
100
AcDbBlockBegin
  2
*Model_Space
 70
     0
 10
0.0
 20
0.0
 30
0.0
  3
*Model_Space
  1

  0
ENDBLK
  5
10D7
330
10C1
100
AcDbEntity
  8
0
100
AcDbBlockEnd
  0
BLOCK
  5
10D4
330
10BD
100
AcDbEntity
 67
     1
  8
0
100
AcDbBlockBegin
  2
*Paper_Space
 70
     0
 10
0.0
 20
0.0
 30
0.0
  3
*Paper_Space
  1

  0
ENDBLK
  5
10D5
330
10BD
100
AcDbEntity
 67
     1
  8
0
100
AcDbBlockEnd
  0
BLOCK
  5
1009
330
10C5
100
AcDbEntity
  8
0
100
AcDbBlockBegin
  2
*U0
 70
     1
 10
0.0
 20
0.0
 30
0.0
  3
*U0
  1

  0
SOLID
  5
F89
330
10C5
100
AcDbEntity
  8
0
  6
Continuous
100
AcDbTrace
 10
3.52560214138319
 20
4.743065616962137
 30
0.0
 11
3.533975430180516
 21
4.742719295175727
 31
0.0
 12
3.545766839806102
 22
4.743062390154575
 32
0.0
 13
3.545766839806102
 23
4.743062390154575
 33
0.0
  0
SOLID
  5
F8A
330
10C5
100
AcDbEntity
  8
0
  6
Continuous
100
AcDbTrace
 10
3.557518351033997
 20
4.744090514166313
 30
0.0
 11
3.52560214138319
 21
4.743065616962137
 31
0.0
 12
3.545766839806102
 22
4.743062390154575
 32
0.0
 13
3.545766839806102
 23
4.743062390154575
 33
0.0
  0
SOLID
  5
F8B
330
10C5
100
AcDbEntity
  8
0
  6
Continuous
100
AcDbTrace
 10
3.517286050638753
 20
4.744102216592396
 30
0.0
 11
3.52560214138319
 21
4.743065616962137
 31
0.0
 12
3.557518351033997
 22
4.744090514166313
 32
0.0
 13
3.557518351033997
 23
4.744090514166313
 33
0.0
  0
SOLID
  5
F8C
330
10C5
100
AcDbEntity
  8
0
  6
Continuous
100
AcDbTrace
 10
3.569190200470061
 20
4.745800188364732
 30
0.0
 11
3.517286050638753
 21
4.744102216592396
 31
0.0
 12
3.557518351033997
 22
4.744090514166313
 32
0.0
 13
3.557518351033997
 23
4.744090514166313
 33
0.0
  0
SOLID
  5
F8D
330
10C5
100
AcDbEntity
  8
0
  6
Continuous
100
AcDbTrace
 10
3.509083965279394
 20
4.745822013039933
 30
0.0
 11
3.517286050638753
 21
4.744102216592396
 31
0.0
 12
3.569190200470061
 22
4.745800188364732
 32
0.0
 13
3.569190200470061
 23
4.745800188364732
 33
0.0
  0
SOLID
  5
F8E
330
10C5
100
AcDbEntity
  8
0
  6
Continuous
100
AcDbTrace
 10
3.580742894270437
 20
4.748185627753528
 30
0.0
 11
3.509083965279394
 21
4.745822013039933
 31
0.0
 12
3.569190200470061
 22
4.745800188364732
 32
0.0
 13
3.569190200470061
 23
4.745800188364732
 33
0.0
  0
SOLID
  5
F8F
330
10C5
100
AcDbEntity
  8
0
  6
Continuous
100
AcDbTrace
 10
3.501051913864924
 20
4.74821325835116
 30
0.0
 11
3.509083965279394
 21
4.745822013039933
 31
0.0
 12
3.580742894270437
 22
4.748185627753528
 32
0.0
 13
3.580742894270437
 23
4.748185627753528
 33
0.0
  0
SOLID
  5
F90
330
10C5
100
AcDbEntity
  8
0
  6
Continuous
100
AcDbTrace
 10
3.592137341776225
 20
4.751238760760903
 30
0.0
 11
3.501051913864924
 21
4.74821325835116
 31
0.0
 12
3.580742894270437
 22
4.748185627753528
 32
0.0
 13
3.580742894270437
 23
4.748185627753528
 33
0.0
  0
SOLID
  5
F91
330
10C5
100
AcDbEntity
  8
0
  6
Continuous
100
AcDbTrace
 10
3.493244763450895
 20
4.751259617895911
 30
0.0
 11
3.501051913864924
 21
4.74821325835116
 31
0.0
 12
3.592137341776225
 22
4.751238760760903
 32
0.0
 13
3.592137341776225
 23
4.751238760760903
 33
0.0
  0
SOLID
  5
F92
330
10C5
100
AcDbEntity
  8
0
  6
Continuous
100
AcDbTrace
 10
3.485715844790982
 20
4.754940281949528
 30
0.0
 11
3.493244763450895
 21
4.751259617895911
 31
0.0
 12
3.592137341776225
 22
4.751238760760903
 32
0.0
 13
3.592137341776225
 23
4.751238760760903
 33
0.0
  0
SOLID
  5
F93
330
10C5
100
AcDbEntity
  8
0
  6
Continuous
100
AcDbTrace
 10
3.603334987783891
 20
4.754949256551205
 30
0.0
 11
3.485715844790982
 21
4.754940281949528
 31
0.0
 12
3.592137341776225
 22
4.751238760760903
 32
0.0
 13
3.592137341776225
 23
4.751238760760903
 33
0.0
  0
SOLID
  5
F94
330
10C5
100
AcDbEntity
  8
0
  6
Continuous
100
AcDbTrace
 10
3.478516588033856
 20
4.759230107844379
 30
0.0
 11
3.485715844790982
 21
4.754940281949528
 31
0.0
 12
3.603334987783891
 22
4.754949256551205
 32
0.0
 13
3.603334987783891
 23
4.754949256551205
 33
0.0
  0
SOLID
  5
F95
330
10C5
100
AcDbEntity
  8
0
  6
Continuous
100
AcDbTrace
 10
3.614297943003879
 20
4.759304559981211
 30
0.0
 11
3.478516588033856
 21
4.759230107844379
 31
0.0
 12
3.603334987783891
 22
4.754949256551205
 32
0.0
 13
3.603334987783891
 23
4.754949256551205
 33
0.0
  0
SOLID
  5
F96
330
10C5
100
AcDbEntity
  8
0
  6
Continuous
100
AcDbTrace
 10
3.471696171403118
 20
4.764099791719776
 30
0.0
 11
3.478516588033856
 21
4.759230107844379
 31
0.0
 12
3.614297943003879
 22
4.759304559981211
 32
0.0
 13
3.614297943003879
 23
4.759304559981211
 33
0.0
  0
SOLID
  5
F97
330
10C5
100
AcDbEntity
  8
0
  6
Continuous
100
AcDbTrace
 10
3.624989112265963
 20
4.764289934082753
 30
0.0
 11
3.471696171403118
 21
4.764099791719776
 31
0.0
 12
3.614297943003879
 22
4.759304559981211
 32
0.0
 13
3.614297943003879
 23
4.759304559981211
 33
0.0
  0
SOLID
  5
F98
330
10C5
100
AcDbEntity
  8
0
  6
Continuous
100
AcDbTrace
 10
3.465301185260166
 20
4.769516068697058
 30
0.0
 11
3.471696171403118
 21
4.764099791719776
 31
0.0
 12
3.624989112265963
 22
4.764289934082753
 32
0.0
 13
3.624989112265963
 23
4.764289934082753
 33
0.0
  0
SOLID
  5
F99
330
10C5
100
AcDbEntity
  8
0
  6
Continuous
100
AcDbTrace
 10
3.635372320037573
 20
4.769888509927953
 30
0.0
 11
3.465301185260166
 21
4.769516068697058
 31
0.0
 12
3.624989112265963
 22
4.764289934082753
 32
0.0
 13
3.624989112265963
 23
4.764289934082753
 33
0.0
  0
SOLID
  5
F9A
330
10C5
100
AcDbEntity
  8
0
  6
Continuous
100
AcDbTrace
 10
3.459375313844789
 20
4.775441940112435
 30
0.0
 11
3.465301185260166
 21
4.769516068697058
 31
0.0
 12
3.635372320037573
 22
4.769888509927953
 32
0.0
 13
3.635372320037573
 23
4.769888509927953
 33
0.0
  0
SOLID
  5
F9B
330
10C5
100
AcDbEntity
  8
0
  6
Continuous
100
AcDbTrace
 10
3.645412432830335
 20
4.776081343708339
 30
0.0
 11
3.459375313844789
 21
4.775441940112435
 31
0.0
 12
3.635372320037573
 22
4.769888509927953
 32
0.0
 13
3.635372320037573
 23
4.769888509927953
 33
0.0
  0
SOLID
  5
F9C
330
10C5
100
AcDbEntity
  8
0
  6
Continuous
100
AcDbTrace
 10
3.453959036867508
 20
4.781836926255386
 30
0.0
 11
3.459375313844789
 21
4.775441940112435
 31
0.0
 12
3.645412432830335
 22
4.776081343708339
 32
0.0
 13
3.645412432830335
 23
4.776081343708339
 33
0.0
  0
SOLID
  5
F9D
330
10C5
100
AcDbEntity
  8
0
  6
Continuous
100
AcDbTrace
 10
3.655075478080681
 20
4.782847480834693
 30
0.0
 11
3.453959036867508
 21
4.781836926255386
 31
0.0
 12
3.645412432830335
 22
4.776081343708339
 32
0.0
 13
3.645412432830335
 23
4.776081343708339
 33
0.0
  0
SOLID
  5
F9E
330
10C5
100
AcDbEntity
  8
0
  6
Continuous
100
AcDbTrace
 10
3.44908935299211
 20
4.788657342886125
 30
0.0
 11
3.453959036867508
 21
4.781836926255386
 31
0.0
 12
3.655075478080681
 22
4.782847480834693
 32
0.0
 13
3.655075478080681
 23
4.782847480834693
 33
0.0
  0
SOLID
  5
F9F
330
10C5
100
AcDbEntity
  8
0
  6
Continuous
100
AcDbTrace
 10
3.66432875910225
 20
4.79016402684075
 30
0.0
 11
3.44908935299211
 21
4.788657342886125
 31
0.0
 12
3.655075478080681
 22
4.782847480834693
 32
0.0
 13
3.655075478080681
 23
4.782847480834693
 33
0.0
  0
SOLID
  5
FA0
330
10C5
100
AcDbEntity
  8
0
  6
Continuous
100
AcDbTrace
 10
3.444799527097258
 20
4.795856599643251
 30
0.0
 11
3.44908935299211
 21
4.788657342886125
 31
0.0
 12
3.66432875910225
 22
4.79016402684075
 32
0.0
 13
3.66432875910225
 23
4.79016402684075
 33
0.0
  0
SOLID
  5
FA1
330
10C5
100
AcDbEntity
  8
0
  6
Continuous
100
AcDbTrace
 10
3.673140965721121
 20
4.798006224850824
 30
0.0
 11
3.444799527097258
 21
4.795856599643251
 31
0.0
 12
3.66432875910225
 22
4.79016402684075
 32
0.0
 13
3.66432875910225
 23
4.79016402684075
 33
0.0
  0
SOLID
  5
FA2
330
10C5
100
AcDbEntity
  8
0
  6
Continuous
100
AcDbTrace
 10
3.441118863043642
 20
4.803385518303164
 30
0.0
 11
3.444799527097258
 21
4.795856599643251
 31
0.0
 12
3.673140965721121
 22
4.798006224850824
 32
0.0
 13
3.673140965721121
 23
4.798006224850824
 33
0.0
  0
SOLID
  5
FA3
330
10C5
100
AcDbEntity
  8
0
  6
Continuous
100
AcDbTrace
 10
3.681482280219534
 20
4.806347539349236
 30
0.0
 11
3.441118863043642
 21
4.803385518303164
 31
0.0
 12
3.673140965721121
 22
4.798006224850824
 32
0.0
 13
3.673140965721121
 23
4.798006224850824
 33
0.0
  0
SOLID
  5
FA4
330
10C5
100
AcDbEntity
  8
0
  6
Continuous
100
AcDbTrace
 10
3.438072503498891
 20
4.811192668717192
 30
0.0
 11
3.441118863043642
 21
4.803385518303164
 31
0.0
 12
3.681482280219534
 22
4.806347539349236
 32
0.0
 13
3.681482280219534
 23
4.806347539349236
 33
0.0
  0
SOLID
  5
FA5
330
10C5
100
AcDbEntity
  8
0
  6
Continuous
100
AcDbTrace
 10
3.689324478229607
 20
4.815159745968108
 30
0.0
 11
3.438072503498891
 21
4.811192668717192
 31
0.0
 12
3.681482280219534
 22
4.806347539349236
 32
0.0
 13
3.681482280219534
 23
4.806347539349236
 33
0.0
  0
SOLID
  5
FA6
330
10C5
100
AcDbEntity
  8
0
  6
Continuous
100
AcDbTrace
 10
3.435681258187664
 20
4.819224720131663
 30
0.0
 11
3.438072503498891
 21
4.811192668717192
 31
0.0
 12
3.689324478229607
 22
4.815159745968108
 32
0.0
 13
3.689324478229607
 23
4.815159745968108
 33
0.0
  0
SOLID
  5
FA7
330
10C5
100
AcDbEntity
  8
0
  6
Continuous
100
AcDbTrace
 10
3.696641024235664
 20
4.824413026989676
 30
0.0
 11
3.435681258187664
 21
4.819224720131663
 31
0.0
 12
3.689324478229607
 22
4.815159745968108
 32
0.0
 13
3.689324478229607
 23
4.815159745968108
 33
0.0
  0
SOLID
  5
FA8
330
10C5
100
AcDbEntity
  8
0
  6
Continuous
100
AcDbTrace
 10
3.433961461740127
 20
4.827426805491022
 30
0.0
 11
3.435681258187664
 21
4.819224720131663
 31
0.0
 12
3.696641024235664
 22
4.824413026989676
 32
0.0
 13
3.696641024235664
 23
4.824413026989676
 33
0.0
  0
SOLID
  5
FA9
330
10C5
100
AcDbEntity
  8
0
  6
Continuous
100
AcDbTrace
 10
3.703407161362018
 20
4.834076072240022
 30
0.0
 11
3.433961461740127
 21
4.827426805491022
 31
0.0
 12
3.696641024235664
 22
4.824413026989676
 32
0.0
 13
3.696641024235664
 23
4.824413026989676
 33
0.0
  0
SOLID
  5
FAA
330
10C5
100
AcDbEntity
  8
0
  6
Continuous
100
AcDbTrace
 10
3.432924862109867
 20
4.835742896235458
 30
0.0
 11
3.433961461740127
 21
4.827426805491022
 31
0.0
 12
3.703407161362018
 22
4.834076072240022
 32
0.0
 13
3.703407161362018
 23
4.834076072240022
 33
0.0
  0
SOLID
  5
FAB
330
10C5
100
AcDbEntity
  8
0
  6
Continuous
100
AcDbTrace
 10
3.709599995142404
 20
4.844116185032785
 30
0.0
 11
3.432924862109867
 21
4.835742896235458
 31
0.0
 12
3.703407161362018
 22
4.834076072240022
 32
0.0
 13
3.703407161362018
 23
4.834076072240022
 33
0.0
  0
SOLID
  5
FAC
330
10C5
100
AcDbEntity
  8
0
  6
Continuous
100
AcDbTrace
 10
3.432578540323459
 20
4.844116185032785
 30
0.0
 11
3.432924862109867
 21
4.835742896235458
 31
0.0
 12
3.709599995142404
 22
4.844116185032785
 32
0.0
 13
3.709599995142404
 23
4.844116185032785
 33
0.0
  0
SOLID
  5
FAD
330
10C5
100
AcDbEntity
  8
0
  6
Continuous
100
AcDbTrace
 10
3.432924862109867
 20
4.852489473830111
 30
0.0
 11
3.432578540323459
 21
4.844116185032785
 31
0.0
 12
3.709599995142404
 22
4.844116185032785
 32
0.0
 13
3.709599995142404
 23
4.844116185032785
 33
0.0
  0
SOLID
  5
FAE
330
10C5
100
AcDbEntity
  8
0
  6
Continuous
100
AcDbTrace
 10
3.715198570987604
 20
4.854499392804394
 30
0.0
 11
3.432924862109867
 21
4.852489473830111
 31
0.0
 12
3.709599995142404
 22
4.844116185032785
 32
0.0
 13
3.709599995142404
 23
4.844116185032785
 33
0.0
  0
SOLID
  5
FAF
330
10C5
100
AcDbEntity
  8
0
  6
Continuous
100
AcDbTrace
 10
3.433961461740127
 20
4.860805564574548
 30
0.0
 11
3.432924862109867
 21
4.852489473830111
 31
0.0
 12
3.715198570987604
 22
4.854499392804394
 32
0.0
 13
3.715198570987604
 23
4.854499392804394
 33
0.0
  0
SOLID
  5
FB0
330
10C5
100
AcDbEntity
  8
0
  6
Continuous
100
AcDbTrace
 10
3.720183945089146
 20
4.865190562066478
 30
0.0
 11
3.433961461740127
 21
4.860805564574548
 31
0.0
 12
3.715198570987604
 22
4.854499392804394
 32
0.0
 13
3.715198570987604
 23
4.854499392804394
 33
0.0
  0
SOLID
  5
FB1
330
10C5
100
AcDbEntity
  8
0
  6
Continuous
100
AcDbTrace
 10
3.435681258187664
 20
4.869007649933906
 30
0.0
 11
3.433961461740127
 21
4.860805564574548
 31
0.0
 12
3.720183945089146
 22
4.865190562066478
 32
0.0
 13
3.720183945089146
 23
4.865190562066478
 33
0.0
  0
SOLID
  5
FB2
330
10C5
100
AcDbEntity
  8
0
  6
Continuous
100
AcDbTrace
 10
3.724539248519152
 20
4.876153517286466
 30
0.0
 11
3.435681258187664
 21
4.869007649933906
 31
0.0
 12
3.720183945089146
 22
4.865190562066478
 32
0.0
 13
3.720183945089146
 23
4.865190562066478
 33
0.0
  0
SOLID
  5
FB3
330
10C5
100
AcDbEntity
  8
0
  6
Continuous
100
AcDbTrace
 10
3.438072503498891
 20
4.877039701348377
 30
0.0
 11
3.435681258187664
 21
4.869007649933906
 31
0.0
 12
3.724539248519152
 22
4.876153517286466
 32
0.0
 13
3.724539248519152
 23
4.876153517286466
 33
0.0
  0
SOLID
  5
FB4
330
10C5
100
AcDbEntity
  8
0
  6
Continuous
100
AcDbTrace
 10
3.441118863043642
 20
4.884846851762405
 30
0.0
 11
3.438072503498891
 21
4.877039701348377
 31
0.0
 12
3.724539248519152
 22
4.876153517286466
 32
0.0
 13
3.724539248519152
 23
4.876153517286466
 33
0.0
  0
SOLID
  5
FB5
330
10C5
100
AcDbEntity
  8
0
  6
Continuous
100
AcDbTrace
 10
3.728249744309455
 20
4.887351163294133
 30
0.0
 11
3.441118863043642
 21
4.884846851762405
 31
0.0
 12
3.724539248519152
 22
4.876153517286466
 32
0.0
 13
3.724539248519152
 23
4.876153517286466
 33
0.0
  0
SOLID
  5
FB6
330
10C5
100
AcDbEntity
  8
0
  6
Continuous
100
AcDbTrace
 10
3.444799527097258
 20
4.892375770422319
 30
0.0
 11
3.441118863043642
 21
4.884846851762405
 31
0.0
 12
3.728249744309455
 22
4.887351163294133
 32
0.0
 13
3.728249744309455
 23
4.887351163294133
 33
0.0
  0
SOLID
  5
FB7
330
10C5
100
AcDbEntity
  8
0
  6
Continuous
100
AcDbTrace
 10
3.73130287731683
 20
4.89874561079992
 30
0.0
 11
3.444799527097258
 21
4.892375770422319
 31
0.0
 12
3.728249744309455
 22
4.887351163294133
 32
0.0
 13
3.728249744309455
 23
4.887351163294133
 33
0.0
  0
SOLID
  5
FB8
330
10C5
100
AcDbEntity
  8
0
  6
Continuous
100
AcDbTrace
 10
3.44908935299211
 20
4.899575027179444
 30
0.0
 11
3.444799527097258
 21
4.892375770422319
 31
0.0
 12
3.73130287731683
 22
4.89874561079992
 32
0.0
 13
3.73130287731683
 23
4.89874561079992
 33
0.0
  0
SOLID
  5
FB9
330
10C5
100
AcDbEntity
  8
0
  6
Continuous
100
AcDbTrace
 10
3.453959036867508
 20
4.906395443810183
 30
0.0
 11
3.44908935299211
 21
4.899575027179444
 31
0.0
 12
3.73130287731683
 22
4.89874561079992
 32
0.0
 13
3.73130287731683
 23
4.89874561079992
 33
0.0
  0
SOLID
  5
FBA
330
10C5
100
AcDbEntity
  8
0
  6
Continuous
100
AcDbTrace
 10
3.733688316705626
 20
4.910298304600297
 30
0.0
 11
3.453959036867508
 21
4.906395443810183
 31
0.0
 12
3.73130287731683
 22
4.89874561079992
 32
0.0
 13
3.73130287731683
 23
4.89874561079992
 33
0.0
  0
SOLID
  5
FBB
330
10C5
100
AcDbEntity
  8
0
  6
Continuous
100
AcDbTrace
 10
3.459375313844789
 20
4.912790429953135
 30
0.0
 11
3.453959036867508
 21
4.906395443810183
 31
0.0
 12
3.733688316705626
 22
4.910298304600297
 32
0.0
 13
3.733688316705626
 23
4.910298304600297
 33
0.0
  0
SOLID
  5
FBC
330
10C5
100
AcDbEntity
  8
0
  6
Continuous
100
AcDbTrace
 10
3.465301185260166
 20
4.918716301368512
 30
0.0
 11
3.459375313844789
 21
4.912790429953135
 31
0.0
 12
3.733688316705626
 22
4.910298304600297
 32
0.0
 13
3.733688316705626
 23
4.910298304600297
 33
0.0
  0
SOLID
  5
FBD
330
10C5
100
AcDbEntity
  8
0
  6
Continuous
100
AcDbTrace
 10
3.735397990904044
 20
4.92197015403636
 30
0.0
 11
3.465301185260166
 21
4.918716301368512
 31
0.0
 12
3.733688316705626
 22
4.910298304600297
 32
0.0
 13
3.733688316705626
 23
4.910298304600297
 33
0.0
  0
SOLID
  5
FBE
330
10C5
100
AcDbEntity
  8
0
  6
Continuous
100
AcDbTrace
 10
3.471696171403118
 20
4.924132578345793
 30
0.0
 11
3.465301185260166
 21
4.918716301368512
 31
0.0
 12
3.735397990904044
 22
4.92197015403636
 32
0.0
 13
3.735397990904044
 23
4.92197015403636
 33
0.0
  0
SOLID
  5
FBF
330
10C5
100
AcDbEntity
  8
0
  6
Continuous
100
AcDbTrace
 10
3.478516588033856
 20
4.929002262221191
 30
0.0
 11
3.471696171403118
 21
4.924132578345793
 31
0.0
 12
3.735397990904044
 22
4.92197015403636
 32
0.0
 13
3.735397990904044
 23
4.92197015403636
 33
0.0
  0
SOLID
  5
FC0
330
10C5
100
AcDbEntity
  8
0
  6
Continuous
100
AcDbTrace
 10
3.485715844790982
 20
4.933292088116042
 30
0.0
 11
3.478516588033856
 21
4.929002262221191
 31
0.0
 12
3.735397990904044
 22
4.92197015403636
 32
0.0
 13
3.735397990904044
 23
4.92197015403636
 33
0.0
  0
SOLID
  5
FC1
330
10C5
100
AcDbEntity
  8
0
  6
Continuous
100
AcDbTrace
 10
3.736426114915783
 20
4.933721665264256
 30
0.0
 11
3.485715844790982
 21
4.933292088116042
 31
0.0
 12
3.735397990904044
 22
4.92197015403636
 32
0.0
 13
3.735397990904044
 23
4.92197015403636
 33
0.0
  0
SOLID
  5
FC2
330
10C5
100
AcDbEntity
  8
0
  6
Continuous
100
AcDbTrace
 10
3.493244763450895
 20
4.936972752169658
 30
0.0
 11
3.485715844790982
 21
4.933292088116042
 31
0.0
 12
3.736426114915783
 22
4.933721665264256
 32
0.0
 13
3.736426114915783
 23
4.933721665264256
 33
0.0
  0
SOLID
  5
FC3
330
10C5
100
AcDbEntity
  8
0
  6
Continuous
100
AcDbTrace
 10
3.501051913864924
 20
4.94001911171441
 30
0.0
 11
3.493244763450895
 21
4.936972752169658
 31
0.0
 12
3.736426114915783
 22
4.933721665264256
 32
0.0
 13
3.736426114915783
 23
4.933721665264256
 33
0.0
  0
SOLID
  5
FC4
330
10C5
100
AcDbEntity
  8
0
  6
Continuous
100
AcDbTrace
 10
3.509083965279394
 20
4.942410357025637
 30
0.0
 11
3.501051913864924
 21
4.94001911171441
 31
0.0
 12
3.736426114915783
 22
4.933721665264256
 32
0.0
 13
3.736426114915783
 23
4.933721665264256
 33
0.0
  0
SOLID
  5
FC5
330
10C5
100
AcDbEntity
  8
0
  6
Continuous
100
AcDbTrace
 10
3.517286050638753
 20
4.944130153473174
 30
0.0
 11
3.509083965279394
 21
4.942410357025637
 31
0.0
 12
3.736426114915783
 22
4.933721665264256
 32
0.0
 13
3.736426114915783
 23
4.933721665264256
 33
0.0
  0
SOLID
  5
FC6
330
10C5
100
AcDbEntity
  8
0
  6
Continuous
100
AcDbTrace
 10
3.52560214138319
 20
4.945166753103433
 30
0.0
 11
3.517286050638753
 21
4.944130153473174
 31
0.0
 12
3.736426114915783
 22
4.933721665264256
 32
0.0
 13
3.736426114915783
 23
4.933721665264256
 33
0.0
  0
SOLID
  5
FC7
330
10C5
100
AcDbEntity
  8
0
  6
Continuous
100
AcDbTrace
 10
3.73676920989463
 20
4.945513074889841
 30
0.0
 11
3.52560214138319
 21
4.945166753103433
 31
0.0
 12
3.736426114915783
 22
4.933721665264256
 32
0.0
 13
3.736426114915783
 23
4.933721665264256
 33
0.0
  0
SOLID
  5
FC8
330
10C5
100
AcDbEntity
  8
0
  6
Continuous
100
AcDbTrace
 10
3.533975430180516
 20
4.945513074889842
 30
0.0
 11
3.52560214138319
 21
4.945166753103433
 31
0.0
 12
3.73676920989463
 22
4.945513074889841
 32
0.0
 13
3.73676920989463
 23
4.945513074889841
 33
0.0
  0
SOLID
  5
FC9
330
10C5
100
AcDbEntity
  8
0
  6
Continuous
100
AcDbTrace
 10
3.542348718977842
 20
4.945859396676252
 30
0.0
 11
3.533975430180516
 21
4.945513074889842
 31
0.0
 12
3.73676920989463
 22
4.945513074889841
 32
0.0
 13
3.73676920989463
 23
4.945513074889841
 33
0.0
  0
SOLID
  5
FCA
330
10C5
100
AcDbEntity
  8
0
  6
Continuous
100
AcDbTrace
 10
3.550664809722279
 20
4.946895996306511
 30
0.0
 11
3.542348718977842
 21
4.945859396676252
 31
0.0
 12
3.73676920989463
 22
4.945513074889841
 32
0.0
 13
3.73676920989463
 23
4.945513074889841
 33
0.0
  0
SOLID
  5
FCB
330
10C5
100
AcDbEntity
  8
0
  6
Continuous
100
AcDbTrace
 10
3.558866895081638
 20
4.948615792754048
 30
0.0
 11
3.550664809722279
 21
4.946895996306511
 31
0.0
 12
3.73676920989463
 22
4.945513074889841
 32
0.0
 13
3.73676920989463
 23
4.945513074889841
 33
0.0
  0
SOLID
  5
FCC
330
10C5
100
AcDbEntity
  8
0
  6
Continuous
100
AcDbTrace
 10
3.566898946496108
 20
4.951007038065275
 30
0.0
 11
3.558866895081638
 21
4.948615792754048
 31
0.0
 12
3.73676920989463
 22
4.945513074889841
 32
0.0
 13
3.73676920989463
 23
4.945513074889841
 33
0.0
  0
SOLID
  5
FCD
330
10C5
100
AcDbEntity
  8
0
  6
Continuous
100
AcDbTrace
 10
3.574706096910137
 20
4.954053397610026
 30
0.0
 11
3.566898946496108
 21
4.951007038065275
 31
0.0
 12
3.73676920989463
 22
4.945513074889841
 32
0.0
 13
3.73676920989463
 23
4.945513074889841
 33
0.0
  0
SOLID
  5
FCE
330
10C5
100
AcDbEntity
  8
0
  6
Continuous
100
AcDbTrace
 10
3.736426114915783
 20
4.957304484515427
 30
0.0
 11
3.574706096910137
 21
4.954053397610026
 31
0.0
 12
3.73676920989463
 22
4.945513074889841
 32
0.0
 13
3.73676920989463
 23
4.945513074889841
 33
0.0
  0
SOLID
  5
FCF
330
10C5
100
AcDbEntity
  8
0
  6
Continuous
100
AcDbTrace
 10
3.582235015570049
 20
4.957734061663643
 30
0.0
 11
3.574706096910137
 21
4.954053397610026
 31
0.0
 12
3.736426114915783
 22
4.957304484515427
 32
0.0
 13
3.736426114915783
 23
4.957304484515427
 33
0.0
  0
SOLID
  5
FD0
330
10C5
100
AcDbEntity
  8
0
  6
Continuous
100
AcDbTrace
 10
3.589434272327176
 20
4.962023887558494
 30
0.0
 11
3.582235015570049
 21
4.957734061663643
 31
0.0
 12
3.736426114915783
 22
4.957304484515427
 32
0.0
 13
3.736426114915783
 23
4.957304484515427
 33
0.0
  0
SOLID
  5
FD1
330
10C5
100
AcDbEntity
  8
0
  6
Continuous
100
AcDbTrace
 10
3.596254688957915
 20
4.966893571433891
 30
0.0
 11
3.589434272327176
 21
4.962023887558494
 31
0.0
 12
3.736426114915783
 22
4.957304484515427
 32
0.0
 13
3.736426114915783
 23
4.957304484515427
 33
0.0
  0
SOLID
  5
FD2
330
10C5
100
AcDbEntity
  8
0
  6
Continuous
100
AcDbTrace
 10
3.735397990904044
 20
4.969055995743323
 30
0.0
 11
3.596254688957915
 21
4.966893571433891
 31
0.0
 12
3.736426114915783
 22
4.957304484515427
 32
0.0
 13
3.736426114915783
 23
4.957304484515427
 33
0.0
  0
SOLID
  5
FD3
330
10C5
100
AcDbEntity
  8
0
  6
Continuous
100
AcDbTrace
 10
3.602649675100866
 20
4.972309848411173
 30
0.0
 11
3.596254688957915
 21
4.966893571433891
 31
0.0
 12
3.735397990904044
 22
4.969055995743323
 32
0.0
 13
3.735397990904044
 23
4.969055995743323
 33
0.0
  0
SOLID
  5
FD4
330
10C5
100
AcDbEntity
  8
0
  6
Continuous
100
AcDbTrace
 10
3.608575546516243
 20
4.97823571982655
 30
0.0
 11
3.602649675100866
 21
4.972309848411173
 31
0.0
 12
3.735397990904044
 22
4.969055995743323
 32
0.0
 13
3.735397990904044
 23
4.969055995743323
 33
0.0
  0
SOLID
  5
FD5
330
10C5
100
AcDbEntity
  8
0
  6
Continuous
100
AcDbTrace
 10
3.733688316705626
 20
4.980727845179386
 30
0.0
 11
3.608575546516243
 21
4.97823571982655
 31
0.0
 12
3.735397990904044
 22
4.969055995743323
 32
0.0
 13
3.735397990904044
 23
4.969055995743323
 33
0.0
  0
SOLID
  5
FD6
330
10C5
100
AcDbEntity
  8
0
  6
Continuous
100
AcDbTrace
 10
3.613991823493524
 20
4.984630705969501
 30
0.0
 11
3.608575546516243
 21
4.97823571982655
 31
0.0
 12
3.733688316705626
 22
4.980727845179386
 32
0.0
 13
3.733688316705626
 23
4.980727845179386
 33
0.0
  0
SOLID
  5
FD7
330
10C5
100
AcDbEntity
  8
0
  6
Continuous
100
AcDbTrace
 10
3.618861507368922
 20
4.99145112260024
 30
0.0
 11
3.613991823493524
 21
4.984630705969501
 31
0.0
 12
3.733688316705626
 22
4.980727845179386
 32
0.0
 13
3.733688316705626
 23
4.980727845179386
 33
0.0
  0
SOLID
  5
FD8
330
10C5
100
AcDbEntity
  8
0
  6
Continuous
100
AcDbTrace
 10
3.73130287731683
 20
4.992280538979763
 30
0.0
 11
3.618861507368922
 21
4.99145112260024
 31
0.0
 12
3.733688316705626
 22
4.980727845179386
 32
0.0
 13
3.733688316705626
 23
4.980727845179386
 33
0.0
  0
SOLID
  5
FD9
330
10C5
100
AcDbEntity
  8
0
  6
Continuous
100
AcDbTrace
 10
3.623151333263773
 20
4.998650379357366
 30
0.0
 11
3.618861507368922
 21
4.99145112260024
 31
0.0
 12
3.73130287731683
 22
4.992280538979763
 32
0.0
 13
3.73130287731683
 23
4.992280538979763
 33
0.0
  0
SOLID
  5
FDA
330
10C5
100
AcDbEntity
  8
0
  6
Continuous
100
AcDbTrace
 10
3.728249744309455
 20
5.00367498648555
 30
0.0
 11
3.623151333263773
 21
4.998650379357366
 31
0.0
 12
3.73130287731683
 22
4.992280538979763
 32
0.0
 13
3.73130287731683
 23
4.992280538979763
 33
0.0
  0
SOLID
  5
FDB
330
10C5
100
AcDbEntity
  8
0
  6
Continuous
100
AcDbTrace
 10
3.62683199731739
 20
5.006179298017279
 30
0.0
 11
3.623151333263773
 21
4.998650379357366
 31
0.0
 12
3.728249744309455
 22
5.00367498648555
 32
0.0
 13
3.728249744309455
 23
5.00367498648555
 33
0.0
  0
SOLID
  5
FDC
330
10C5
100
AcDbEntity
  8
0
  6
Continuous
100
AcDbTrace
 10
3.629878356862141
 20
5.013986448431308
 30
0.0
 11
3.62683199731739
 21
5.006179298017279
 31
0.0
 12
3.728249744309455
 22
5.00367498648555
 32
0.0
 13
3.728249744309455
 23
5.00367498648555
 33
0.0
  0
SOLID
  5
FDD
330
10C5
100
AcDbEntity
  8
0
  6
Continuous
100
AcDbTrace
 10
3.724539248519152
 20
5.014872632493217
 30
0.0
 11
3.629878356862141
 21
5.013986448431308
 31
0.0
 12
3.728249744309455
 22
5.00367498648555
 32
0.0
 13
3.728249744309455
 23
5.00367498648555
 33
0.0
  0
SOLID
  5
FDE
330
10C5
100
AcDbEntity
  8
0
  6
Continuous
100
AcDbTrace
 10
3.632269602173368
 20
5.022018499845779
 30
0.0
 11
3.629878356862141
 21
5.013986448431308
 31
0.0
 12
3.724539248519152
 22
5.014872632493217
 32
0.0
 13
3.724539248519152
 23
5.014872632493217
 33
0.0
  0
SOLID
  5
FDF
330
10C5
100
AcDbEntity
  8
0
  6
Continuous
100
AcDbTrace
 10
3.720183945089146
 20
5.025835587713204
 30
0.0
 11
3.632269602173368
 21
5.022018499845779
 31
0.0
 12
3.724539248519152
 22
5.014872632493217
 32
0.0
 13
3.724539248519152
 23
5.014872632493217
 33
0.0
  0
SOLID
  5
FE0
330
10C5
100
AcDbEntity
  8
0
  6
Continuous
100
AcDbTrace
 10
3.633989398620905
 20
5.030220585205137
 30
0.0
 11
3.632269602173368
 21
5.022018499845779
 31
0.0
 12
3.720183945089146
 22
5.025835587713204
 32
0.0
 13
3.720183945089146
 23
5.025835587713204
 33
0.0
  0
SOLID
  5
FE1
330
10C5
100
AcDbEntity
  8
0
  6
Continuous
100
AcDbTrace
 10
3.715198570987604
 20
5.036526756975289
 30
0.0
 11
3.633989398620905
 21
5.030220585205137
 31
0.0
 12
3.720183945089146
 22
5.025835587713204
 32
0.0
 13
3.720183945089146
 23
5.025835587713204
 33
0.0
  0
SOLID
  5
FE2
330
10C5
100
AcDbEntity
  8
0
  6
Continuous
100
AcDbTrace
 10
3.635025998251165
 20
5.038536675949574
 30
0.0
 11
3.633989398620905
 21
5.030220585205137
 31
0.0
 12
3.715198570987604
 22
5.036526756975289
 32
0.0
 13
3.715198570987604
 23
5.036526756975289
 33
0.0
  0
SOLID
  5
FE3
330
10C5
100
AcDbEntity
  8
0
  6
Continuous
100
AcDbTrace
 10
3.709599995142404
 20
5.046909964746898
 30
0.0
 11
3.635025998251165
 21
5.038536675949574
 31
0.0
 12
3.715198570987604
 22
5.036526756975289
 32
0.0
 13
3.715198570987604
 23
5.036526756975289
 33
0.0
  0
SOLID
  5
FE4
330
10C5
100
AcDbEntity
  8
0
  6
Continuous
100
AcDbTrace
 10
3.635372320037573
 20
5.0469099647469
 30
0.0
 11
3.635025998251165
 21
5.038536675949574
 31
0.0
 12
3.709599995142404
 22
5.046909964746898
 32
0.0
 13
3.709599995142404
 23
5.046909964746898
 33
0.0
  0
SOLID
  5
FE5
330
10C5
100
AcDbEntity
  8
0
  6
Continuous
100
AcDbTrace
 10
3.635025998251165
 20
5.055283253544226
 30
0.0
 11
3.635372320037573
 21
5.0469099647469
 31
0.0
 12
3.709599995142404
 22
5.046909964746898
 32
0.0
 13
3.709599995142404
 23
5.046909964746898
 33
0.0
  0
SOLID
  5
FE6
330
10C5
100
AcDbEntity
  8
0
  6
Continuous
100
AcDbTrace
 10
3.703407161362018
 20
5.056950077539661
 30
0.0
 11
3.635025998251165
 21
5.055283253544226
 31
0.0
 12
3.709599995142404
 22
5.046909964746898
 32
0.0
 13
3.709599995142404
 23
5.046909964746898
 33
0.0
  0
SOLID
  5
FE7
330
10C5
100
AcDbEntity
  8
0
  6
Continuous
100
AcDbTrace
 10
3.633989398620905
 20
5.063599344288663
 30
0.0
 11
3.635025998251165
 21
5.055283253544226
 31
0.0
 12
3.703407161362018
 22
5.056950077539661
 32
0.0
 13
3.703407161362018
 23
5.056950077539661
 33
0.0
  0
SOLID
  5
FE8
330
10C5
100
AcDbEntity
  8
0
  6
Continuous
100
AcDbTrace
 10
3.696641024235664
 20
5.066613122790007
 30
0.0
 11
3.633989398620905
 21
5.063599344288663
 31
0.0
 12
3.703407161362018
 22
5.056950077539661
 32
0.0
 13
3.703407161362018
 23
5.056950077539661
 33
0.0
  0
SOLID
  5
FE9
330
10C5
100
AcDbEntity
  8
0
  6
Continuous
100
AcDbTrace
 10
3.632269602173368
 20
5.071801429648021
 30
0.0
 11
3.633989398620905
 21
5.063599344288663
 31
0.0
 12
3.696641024235664
 22
5.066613122790007
 32
0.0
 13
3.696641024235664
 23
5.066613122790007
 33
0.0
  0
SOLID
  5
FEA
330
10C5
100
AcDbEntity
  8
0
  6
Continuous
100
AcDbTrace
 10
3.689324478229607
 20
5.075866403811575
 30
0.0
 11
3.632269602173368
 21
5.071801429648021
 31
0.0
 12
3.696641024235664
 22
5.066613122790007
 32
0.0
 13
3.696641024235664
 23
5.066613122790007
 33
0.0
  0
SOLID
  5
FEB
330
10C5
100
AcDbEntity
  8
0
  6
Continuous
100
AcDbTrace
 10
3.629878356862141
 20
5.079833481062492
 30
0.0
 11
3.632269602173368
 21
5.071801429648021
 31
0.0
 12
3.689324478229607
 22
5.075866403811575
 32
0.0
 13
3.689324478229607
 23
5.075866403811575
 33
0.0
  0
SOLID
  5
FEC
330
10C5
100
AcDbEntity
  8
0
  6
Continuous
100
AcDbTrace
 10
3.681482280219534
 20
5.084678610430446
 30
0.0
 11
3.629878356862141
 21
5.079833481062492
 31
0.0
 12
3.689324478229607
 22
5.075866403811575
 32
0.0
 13
3.689324478229607
 23
5.075866403811575
 33
0.0
  0
SOLID
  5
FED
330
10C5
100
AcDbEntity
  8
0
  6
Continuous
100
AcDbTrace
 10
3.62683199731739
 20
5.087640631476521
 30
0.0
 11
3.629878356862141
 21
5.079833481062492
 31
0.0
 12
3.681482280219534
 22
5.084678610430446
 32
0.0
 13
3.681482280219534
 23
5.084678610430446
 33
0.0
  0
SOLID
  5
FEE
330
10C5
100
AcDbEntity
  8
0
  6
Continuous
100
AcDbTrace
 10
3.673140965721121
 20
5.093019924928859
 30
0.0
 11
3.62683199731739
 21
5.087640631476521
 31
0.0
 12
3.681482280219534
 22
5.084678610430446
 32
0.0
 13
3.681482280219534
 23
5.084678610430446
 33
0.0
  0
SOLID
  5
FEF
330
10C5
100
AcDbEntity
  8
0
  6
Continuous
100
AcDbTrace
 10
3.623151333263773
 20
5.095169550136434
 30
0.0
 11
3.62683199731739
 21
5.087640631476521
 31
0.0
 12
3.673140965721121
 22
5.093019924928859
 32
0.0
 13
3.673140965721121
 23
5.093019924928859
 33
0.0
  0
SOLID
  5
FF0
330
10C5
100
AcDbEntity
  8
0
  6
Continuous
100
AcDbTrace
 10
3.66432875910225
 20
5.100862122938933
 30
0.0
 11
3.623151333263773
 21
5.095169550136434
 31
0.0
 12
3.673140965721121
 22
5.093019924928859
 32
0.0
 13
3.673140965721121
 23
5.093019924928859
 33
0.0
  0
SOLID
  5
FF1
330
10C5
100
AcDbEntity
  8
0
  6
Continuous
100
AcDbTrace
 10
3.618861507368922
 20
5.10236880689356
 30
0.0
 11
3.623151333263773
 21
5.095169550136434
 31
0.0
 12
3.66432875910225
 22
5.100862122938933
 32
0.0
 13
3.66432875910225
 23
5.100862122938933
 33
0.0
  0
SOLID
  5
FF2
330
10C5
100
AcDbEntity
  8
0
  6
Continuous
100
AcDbTrace
 10
3.655075478080681
 20
5.10817866894499
 30
0.0
 11
3.618861507368922
 21
5.10236880689356
 31
0.0
 12
3.66432875910225
 22
5.100862122938933
 32
0.0
 13
3.66432875910225
 23
5.100862122938933
 33
0.0
  0
SOLID
  5
FF3
330
10C5
100
AcDbEntity
  8
0
  6
Continuous
100
AcDbTrace
 10
3.613991823493524
 20
5.109189223524299
 30
0.0
 11
3.618861507368922
 21
5.10236880689356
 31
0.0
 12
3.655075478080681
 22
5.10817866894499
 32
0.0
 13
3.655075478080681
 23
5.10817866894499
 33
0.0
  0
SOLID
  5
FF4
330
10C5
100
AcDbEntity
  8
0
  6
Continuous
100
AcDbTrace
 10
3.645412432830335
 20
5.114944806071344
 30
0.0
 11
3.613991823493524
 21
5.109189223524299
 31
0.0
 12
3.655075478080681
 22
5.10817866894499
 32
0.0
 13
3.655075478080681
 23
5.10817866894499
 33
0.0
  0
SOLID
  5
FF5
330
10C5
100
AcDbEntity
  8
0
  6
Continuous
100
AcDbTrace
 10
3.608575546516243
 20
5.11558420966725
 30
0.0
 11
3.613991823493524
 21
5.109189223524299
 31
0.0
 12
3.645412432830335
 22
5.114944806071344
 32
0.0
 13
3.645412432830335
 23
5.114944806071344
 33
0.0
  0
SOLID
  5
FF6
330
10C5
100
AcDbEntity
  8
0
  6
Continuous
100
AcDbTrace
 10
3.635372320037573
 20
5.121137639851729
 30
0.0
 11
3.608575546516243
 21
5.11558420966725
 31
0.0
 12
3.645412432830335
 22
5.114944806071344
 32
0.0
 13
3.645412432830335
 23
5.114944806071344
 33
0.0
  0
SOLID
  5
FF7
330
10C5
100
AcDbEntity
  8
0
  6
Continuous
100
AcDbTrace
 10
3.602649675100866
 20
5.121510081082627
 30
0.0
 11
3.608575546516243
 21
5.11558420966725
 31
0.0
 12
3.635372320037573
 22
5.121137639851729
 32
0.0
 13
3.635372320037573
 23
5.121137639851729
 33
0.0
  0
SOLID
  5
FF8
330
10C5
100
AcDbEntity
  8
0
  6
Continuous
100
AcDbTrace
 10
3.624989112265963
 20
5.126736215696929
 30
0.0
 11
3.602649675100866
 21
5.121510081082627
 31
0.0
 12
3.635372320037573
 22
5.121137639851729
 32
0.0
 13
3.635372320037573
 23
5.121137639851729
 33
0.0
  0
SOLID
  5
FF9
330
10C5
100
AcDbEntity
  8
0
  6
Continuous
100
AcDbTrace
 10
3.596254688957914
 20
5.126926358059908
 30
0.0
 11
3.602649675100866
 21
5.121510081082627
 31
0.0
 12
3.624989112265963
 22
5.126736215696929
 32
0.0
 13
3.624989112265963
 23
5.126736215696929
 33
0.0
  0
SOLID
  5
FFA
330
10C5
100
AcDbEntity
  8
0
  6
Continuous
100
AcDbTrace
 10
3.614297943003879
 20
5.131721589798472
 30
0.0
 11
3.596254688957914
 21
5.126926358059908
 31
0.0
 12
3.624989112265963
 22
5.126736215696929
 32
0.0
 13
3.624989112265963
 23
5.126736215696929
 33
0.0
  0
SOLID
  5
FFB
330
10C5
100
AcDbEntity
  8
0
  6
Continuous
100
AcDbTrace
 10
3.589434272327176
 20
5.131796041935306
 30
0.0
 11
3.596254688957914
 21
5.126926358059908
 31
0.0
 12
3.614297943003879
 22
5.131721589798472
 32
0.0
 13
3.614297943003879
 23
5.131721589798472
 33
0.0
  0
SOLID
  5
FFC
330
10C5
100
AcDbEntity
  8
0
  6
Continuous
100
AcDbTrace
 10
3.603334987783891
 20
5.136076893228477
 30
0.0
 11
3.589434272327176
 21
5.131796041935306
 31
0.0
 12
3.614297943003879
 22
5.131721589798472
 32
0.0
 13
3.614297943003879
 23
5.131721589798472
 33
0.0
  0
SOLID
  5
FFD
330
10C5
100
AcDbEntity
  8
0
  6
Continuous
100
AcDbTrace
 10
3.582235015570049
 20
5.136085867830157
 30
0.0
 11
3.589434272327176
 21
5.131796041935306
 31
0.0
 12
3.603334987783891
 22
5.136076893228477
 32
0.0
 13
3.603334987783891
 23
5.136076893228477
 33
0.0
  0
SOLID
  5
FFE
330
10C5
100
AcDbEntity
  8
0
  6
Continuous
100
AcDbTrace
 10
3.574706096910137
 20
5.139766531883774
 30
0.0
 11
3.582235015570049
 21
5.136085867830157
 31
0.0
 12
3.603334987783891
 22
5.136076893228477
 32
0.0
 13
3.603334987783891
 23
5.136076893228477
 33
0.0
  0
SOLID
  5
FFF
330
10C5
100
AcDbEntity
  8
0
  6
Continuous
100
AcDbTrace
 10
3.592137341776225
 20
5.13978738901878
 30
0.0
 11
3.574706096910137
 21
5.139766531883774
 31
0.0
 12
3.603334987783891
 22
5.136076893228477
 32
0.0
 13
3.603334987783891
 23
5.136076893228477
 33
0.0
  0
SOLID
  5
1000
330
10C5
100
AcDbEntity
  8
0
  6
Continuous
100
AcDbTrace
 10
3.566898946496108
 20
5.142812891428525
 30
0.0
 11
3.574706096910137
 21
5.139766531883774
 31
0.0
 12
3.592137341776225
 22
5.13978738901878
 32
0.0
 13
3.592137341776225
 23
5.13978738901878
 33
0.0
  0
SOLID
  5
1001
330
10C5
100
AcDbEntity
  8
0
  6
Continuous
100
AcDbTrace
 10
3.580742894270437
 20
5.142840522026155
 30
0.0
 11
3.566898946496108
 21
5.142812891428525
 31
0.0
 12
3.592137341776225
 22
5.13978738901878
 32
0.0
 13
3.592137341776225
 23
5.13978738901878
 33
0.0
  0
SOLID
  5
1002
330
10C5
100
AcDbEntity
  8
0
  6
Continuous
100
AcDbTrace
 10
3.558866895081638
 20
5.145204136739752
 30
0.0
 11
3.566898946496108
 21
5.142812891428525
 31
0.0
 12
3.580742894270437
 22
5.142840522026155
 32
0.0
 13
3.580742894270437
 23
5.142840522026155
 33
0.0
  0
SOLID
  5
1003
330
10C5
100
AcDbEntity
  8
0
  6
Continuous
100
AcDbTrace
 10
3.569190200470061
 20
5.145225961414951
 30
0.0
 11
3.558866895081638
 21
5.145204136739752
 31
0.0
 12
3.580742894270437
 22
5.142840522026155
 32
0.0
 13
3.580742894270437
 23
5.142840522026155
 33
0.0
  0
SOLID
  5
1004
330
10C5
100
AcDbEntity
  8
0
  6
Continuous
100
AcDbTrace
 10
3.550664809722279
 20
5.146923933187289
 30
0.0
 11
3.558866895081638
 21
5.145204136739752
 31
0.0
 12
3.569190200470061
 22
5.145225961414951
 32
0.0
 13
3.569190200470061
 23
5.145225961414951
 33
0.0
  0
SOLID
  5
1005
330
10C5
100
AcDbEntity
  8
0
  6
Continuous
100
AcDbTrace
 10
3.557518351033997
 20
5.146935635613369
 30
0.0
 11
3.550664809722279
 21
5.146923933187289
 31
0.0
 12
3.569190200470061
 22
5.145225961414951
 32
0.0
 13
3.569190200470061
 23
5.145225961414951
 33
0.0
  0
SOLID
  5
1006
330
10C5
100
AcDbEntity
  8
0
  6
Continuous
100
AcDbTrace
 10
3.542348718977842
 20
5.147960532817548
 30
0.0
 11
3.550664809722279
 21
5.146923933187289
 31
0.0
 12
3.557518351033997
 22
5.146935635613369
 32
0.0
 13
3.557518351033997
 23
5.146935635613369
 33
0.0
  0
SOLID
  5
1007
330
10C5
100
AcDbEntity
  8
0
  6
Continuous
100
AcDbTrace
 10
3.545766839806102
 20
5.147963759625108
 30
0.0
 11
3.542348718977842
 21
5.147960532817548
 31
0.0
 12
3.557518351033997
 22
5.146935635613369
 32
0.0
 13
3.557518351033997
 23
5.146935635613369
 33
0.0
  0
SOLID
  5
1008
330
10C5
100
AcDbEntity
  8
0
  6
Continuous
100
AcDbTrace
 10
3.533975430180516
 20
5.148306854603958
 30
0.0
 11
3.542348718977842
 21
5.147960532817548
 31
0.0
 12
3.545766839806102
 22
5.147963759625108
 32
0.0
 13
3.545766839806102
 23
5.147963759625108
 33
0.0
  0
ENDBLK
  5
100A
330
10C5
100
AcDbEntity
  8
0
100
AcDbBlockEnd
  0
BLOCK
  5
11A1
330
1195
100
AcDbEntity
  8
0
100
AcDbBlockBegin
  2
titleblock
 70
     2
 10
0.0
 20
0.0
 30
0.0
  3
titleblock
  1

  0
LWPOLYLINE
  5
1196
330
1195
100
AcDbEntity
  8
0
100
AcDbPolyline
 90
        4
 70
     1
 43
0.0
 10
0.0
 20
0.0
 10
10.33458742478744
 20
0.0000000000000002
 10
10.33458742478744
 20
10.44
 10
0.0
 20
10.44
  0
ATTDEF
  5
1197
330
1195
100
AcDbEntity
  8
title
100
AcDbText
 10
0.5055556038023421
 20
0.7842270964783673
 30
0.0
 40
0.2
  1
D
  7
L200
 72
     4
 11
0.6064423705144839
 21
0.8842270964783672
 31
0.0
100
AcDbAttributeDefinition
  3
#
  2
D
 70
     0
  0
ATTDEF
  5
1198
330
1195
100
AcDbEntity
  8
title
100
AcDbText
 10
1.231442370514484
 20
1.34371230274675
 30
0.0
 40
0.2
  1

  7
L200
100
AcDbAttributeDefinition
  3
DETAIL TITLE TOP LINE
  2
TITLE1
 70
     0
  0
ATTDEF
  5
1199
330
1195
100
AcDbEntity
  8
title
100
AcDbText
 10
1.231442370514484
 20
0.9842270964783674
 30
0.0
 40
0.2
  1
TITLE
  7
L200
100
AcDbAttributeDefinition
  3
DETAIL TITLE TOP 2ND LINE
  2
TITLE2
 70
     0
  0
ATTDEF
  5
119A
330
1195
100
AcDbEntity
  8
title
100
AcDbText
 10
2.713645751168312
 20
0.5927927664583189
 30
0.0
 40
0.2
  1
TITLE2
  7
L200
100
AcDbAttributeDefinition
  3
DETAIL TITLE BOTTOM 1
  2
TITLE3
 70
     0
  0
ATTDEF
  5
119B
330
1195
100
AcDbEntity
  8
title
100
AcDbText
 10
2.713645751168312
 20
0.2692560808167741
 30
0.0
 40
0.2
  1

  7
L200
100
AcDbAttributeDefinition
  3
DETAIL TITLE BOTTOM 2
  2
TITLE4
 70
     0
  0
ATTDEF
  5
119C
330
1195
100
AcDbEntity
  8
title
 62
     7
100
AcDbText
 10
8.177214829966379
 20
0.9696027915446398
 30
0.0
 40
0.08
  1
-
  7
L80
 72
     2
 11
8.261024353775903
 21
0.9696027915446398
 31
0.0
100
AcDbAttributeDefinition
  3
REVISION DATE
  2
REVISED
 70
     0
  0
ATTDEF
  5
119D
330
1195
100
AcDbEntity
  8
title
 62
     7
100
AcDbText
 10
0.2639423705144838
 20
0.0847116480207213
 30
0.0
 40
0.08
  1
-
  7
L80
100
AcDbAttributeDefinition
  3
DWG-NAME
  2
DWG-NAME
 70
     0
  0
LWPOLYLINE
  5
119E
330
1195
100
AcDbEntity
  8
title
 62
     3
100
AcDbPolyline
 90
        2
 70
     1
 43
0.03
 10
0.6064423705144839
 20
0.5417270964783675
 42
0.9999999999999998
 10
0.6064423705144839
 20
1.226727096478367
 42
0.9999999999999998
  0
ATTDEF
  5
119F
330
1195
100
AcDbEntity
  8
title
 62
     7
100
AcDbText
 10
1.231442370514484
 20
0.7005637793954894
 30
0.0
 40
0.1
  1
N.T.S.
  7
L100
100
AcDbAttributeDefinition
  3
SCALE
  2
SCALE
 70
     0
  0
LWPOLYLINE
  5
11A0
330
1195
100
AcDbEntity
  8
title
 62
     3
100
AcDbPolyline
 90
        2
 70
     0
 43
0.04
 39
0.03
 10
0.9489423705144833
 20
0.8842270964783672
 10
8.261024353775903
 20
0.8842270964783672
  0
ENDBLK
  5
11A2
330
1195
100
AcDbEntity
  8
0
100
AcDbBlockEnd
  0
ENDSEC
  0
SECTION
  2
ENTITIES
  0
LWPOLYLINE
  5
433
330
10C1
100
AcDbEntity
  8
image
100
AcDbPolyline
 90
        2
 70
     0
 43
0.0
 10
2.337668676074201
 20
1.709278956454721
 10
2.404141058914288
 20
1.670896601904129
  0
POLYLINE
  5
447
330
10C1
100
AcDbEntity
  8
image
100
AcDb2dPolyline
 66
     1
 10
0.0
 20
0.0
 30
0.0
 70
     4
 75
     6
  0
VERTEX
  5
448
330
447
100
AcDbEntity
  8
image
100
AcDbVertex
100
AcDb2dVertex
 10
2.404141058914288
 20
1.670896601904129
 30
0.0
 70
    16
  0
VERTEX
  5
454
330
447
100
AcDbEntity
  8
image
100
AcDbVertex
100
AcDb2dVertex
 10
2.404141058914288
 20
1.670896601904129
 30
0.0
 70
     8
  0
VERTEX
  5
455
330
447
100
AcDbEntity
  8
image
100
AcDbVertex
100
AcDb2dVertex
 10
2.406219772542501
 20
1.673861567468216
 30
0.0
 70
     8
  0
VERTEX
  5
456
330
447
100
AcDbEntity
  8
image
100
AcDbVertex
100
AcDb2dVertex
 10
2.407882871910425
 20
1.676227011991894
 30
0.0
 70
     8
  0
VERTEX
  5
457
330
447
100
AcDbEntity
  8
image
100
AcDbVertex
100
AcDb2dVertex
 10
2.409188259911318
 20
1.67807221452764
 30
0.0
 70
     8
  0
VERTEX
  5
458
330
447
100
AcDbEntity
  8
image
100
AcDbVertex
100
AcDb2dVertex
 10
2.410193839438436
 20
1.679476454127927
 30
0.0
 70
     8
  0
VERTEX
  5
459
330
447
100
AcDbEntity
  8
image
100
AcDbVertex
100
AcDb2dVertex
 10
2.410957513385036
 20
1.680519009845231
 30
0.0
 70
     8
  0
VERTEX
  5
45A
330
447
100
AcDbEntity
  8
image
100
AcDbVertex
100
AcDb2dVertex
 10
2.411537184644374
 20
1.681279160732028
 30
0.0
 70
     8
  0
VERTEX
  5
45B
330
447
100
AcDbEntity
  8
image
100
AcDbVertex
100
AcDb2dVertex
 10
2.411990756109707
 20
1.681836185840792
 30
0.0
 70
     8
  0
VERTEX
  5
45C
330
447
100
AcDbEntity
  8
image
100
AcDbVertex
100
AcDb2dVertex
 10
2.412376130674292
 20
1.682269364223999
 30
0.0
 70
     8
  0
VERTEX
  5
45D
330
447
100
AcDbEntity
  8
image
100
AcDbVertex
100
AcDb2dVertex
 10
2.412742061152318
 20
1.682645547404724
 30
0.0
 70
     8
  0
VERTEX
  5
45E
330
447
100
AcDbEntity
  8
image
100
AcDbVertex
100
AcDb2dVertex
 10
2.413100700041705
 20
1.682981876788448
 30
0.0
 70
     8
  0
VERTEX
  5
45F
330
447
100
AcDbEntity
  8
image
100
AcDbVertex
100
AcDb2dVertex
 10
2.413455049761303
 20
1.683283066251252
 30
0.0
 70
     8
  0
VERTEX
  5
460
330
447
100
AcDbEntity
  8
image
100
AcDbVertex
100
AcDb2dVertex
 10
2.413808112729965
 20
1.683553829669218
 30
0.0
 70
     8
  0
VERTEX
  5
461
330
447
100
AcDbEntity
  8
image
100
AcDbVertex
100
AcDb2dVertex
 10
2.414162891366542
 20
1.683798880918426
 30
0.0
 70
     8
  0
VERTEX
  5
462
330
447
100
AcDbEntity
  8
image
100
AcDbVertex
100
AcDb2dVertex
 10
2.414522388089886
 20
1.684022933874959
 30
0.0
 70
     8
  0
VERTEX
  5
463
330
447
100
AcDbEntity
  8
image
100
AcDbVertex
100
AcDb2dVertex
 10
2.414889605318849
 20
1.684230702414896
 30
0.0
 70
     8
  0
VERTEX
  5
464
330
447
100
AcDbEntity
  8
image
100
AcDbVertex
100
AcDb2dVertex
 10
2.415267545472282
 20
1.68442690041432
 30
0.0
 70
     8
  0
VERTEX
  5
465
330
447
100
AcDbEntity
  8
image
100
AcDbVertex
100
AcDb2dVertex
 10
2.415658567593569
 20
1.684615313262848
 30
0.0
 70
     8
  0
VERTEX
  5
466
330
447
100
AcDbEntity
  8
image
100
AcDbVertex
100
AcDb2dVertex
 10
2.41606245722422
 20
1.684796012404249
 30
0.0
 70
     8
  0
VERTEX
  5
467
330
447
100
AcDbEntity
  8
image
100
AcDbVertex
100
AcDb2dVertex
 10
2.416478356530278
 20
1.684968140795825
 30
0.0
 70
     8
  0
VERTEX
  5
468
330
447
100
AcDbEntity
  8
image
100
AcDbVertex
100
AcDb2dVertex
 10
2.416905407677786
 20
1.68513084139488
 30
0.0
 70
     8
  0
VERTEX
  5
469
330
447
100
AcDbEntity
  8
image
100
AcDbVertex
100
AcDb2dVertex
 10
2.417342752832784
 20
1.685283257158718
 30
0.0
 70
     8
  0
VERTEX
  5
46A
330
447
100
AcDbEntity
  8
image
100
AcDbVertex
100
AcDb2dVertex
 10
2.417789534161317
 20
1.685424531044644
 30
0.0
 70
     8
  0
VERTEX
  5
46B
330
447
100
AcDbEntity
  8
image
100
AcDbVertex
100
AcDb2dVertex
 10
2.418244893829426
 20
1.685553806009962
 30
0.0
 70
     8
  0
VERTEX
  5
46C
330
447
100
AcDbEntity
  8
image
100
AcDbVertex
100
AcDb2dVertex
 10
2.418707974003153
 20
1.685670225011975
 30
0.0
 70
     8
  0
VERTEX
  5
46D
330
447
100
AcDbEntity
  8
image
100
AcDbVertex
100
AcDb2dVertex
 10
2.419177630903889
 20
1.685773359532698
 30
0.0
 70
     8
  0
VERTEX
  5
46E
330
447
100
AcDbEntity
  8
image
100
AcDbVertex
100
AcDb2dVertex
 10
2.419651576974412
 20
1.685864495152992
 30
0.0
 70
     8
  0
VERTEX
  5
46F
330
447
100
AcDbEntity
  8
image
100
AcDbVertex
100
AcDb2dVertex
 10
2.420127238712851
 20
1.685945345978427
 30
0.0
 70
     8
  0
VERTEX
  5
470
330
447
100
AcDbEntity
  8
image
100
AcDbVertex
100
AcDb2dVertex
 10
2.420602042617333
 20
1.686017626114575
 30
0.0
 70
     8
  0
VERTEX
  5
471
330
447
100
AcDbEntity
  8
image
100
AcDbVertex
100
AcDb2dVertex
 10
2.421073415185984
 20
1.686083049667006
 30
0.0
 70
     8
  0
VERTEX
  5
472
330
447
100
AcDbEntity
  8
image
100
AcDbVertex
100
AcDb2dVertex
 10
2.421538782916931
 20
1.686143330741292
 30
0.0
 70
     8
  0
VERTEX
  5
473
330
447
100
AcDbEntity
  8
image
100
AcDbVertex
100
AcDb2dVertex
 10
2.421995572308302
 20
1.686200183443004
 30
0.0
 70
     8
  0
VERTEX
  5
474
330
447
100
AcDbEntity
  8
image
100
AcDbVertex
100
AcDb2dVertex
 10
2.422441209858224
 20
1.686255321877712
 30
0.0
 70
     8
  0
VERTEX
  5
475
330
447
100
AcDbEntity
  8
image
100
AcDbVertex
100
AcDb2dVertex
 10
2.422874122871108
 20
1.686310174473454
 30
0.0
 70
     8
  0
VERTEX
  5
476
330
447
100
AcDbEntity
  8
image
100
AcDbVertex
100
AcDb2dVertex
 10
2.4232967418765
 20
1.686365026948121
 30
0.0
 70
     8
  0
VERTEX
  5
477
330
447
100
AcDbEntity
  8
image
100
AcDbVertex
100
AcDb2dVertex
 10
2.423712498210231
 20
1.686419879342072
 30
0.0
 70
     8
  0
VERTEX
  5
478
330
447
100
AcDbEntity
  8
image
100
AcDbVertex
100
AcDb2dVertex
 10
2.424124823208132
 20
1.686474731695666
 30
0.0
 70
     8
  0
VERTEX
  5
479
330
447
100
AcDbEntity
  8
image
100
AcDbVertex
100
AcDb2dVertex
 10
2.424537148206033
 20
1.686529584049259
 30
0.0
 70
     8
  0
VERTEX
  5
47A
330
447
100
AcDbEntity
  8
image
100
AcDbVertex
100
AcDb2dVertex
 10
2.424952904539764
 20
1.68658443644321
 30
0.0
 70
     8
  0
VERTEX
  5
47B
330
447
100
AcDbEntity
  8
image
100
AcDbVertex
100
AcDb2dVertex
 10
2.425375523545157
 20
1.686639288917877
 30
0.0
 70
     8
  0
VERTEX
  5
47C
330
447
100
AcDbEntity
  8
image
100
AcDbVertex
100
AcDb2dVertex
 10
2.425808436558041
 20
1.686694141513619
 30
0.0
 70
     8
  0
VERTEX
  5
47D
330
447
100
AcDbEntity
  8
image
100
AcDbVertex
100
AcDb2dVertex
 10
2.426253931135637
 20
1.68674942279214
 30
0.0
 70
     8
  0
VERTEX
  5
47E
330
447
100
AcDbEntity
  8
image
100
AcDbVertex
100
AcDb2dVertex
 10
2.426709719720724
 20
1.68680727540054
 30
0.0
 70
     8
  0
VERTEX
  5
47F
330
447
100
AcDbEntity
  8
image
100
AcDbVertex
100
AcDb2dVertex
 10
2.427172370977472
 20
1.686870270507264
 30
0.0
 70
     8
  0
VERTEX
  5
480
330
447
100
AcDbEntity
  8
image
100
AcDbVertex
100
AcDb2dVertex
 10
2.427638453570051
 20
1.686940979280758
 30
0.0
 70
     8
  0
VERTEX
  5
481
330
447
100
AcDbEntity
  8
image
100
AcDbVertex
100
AcDb2dVertex
 10
2.42810453616263
 20
1.687021972889468
 30
0.0
 70
     8
  0
VERTEX
  5
482
330
447
100
AcDbEntity
  8
image
100
AcDbVertex
100
AcDb2dVertex
 10
2.428567187419378
 20
1.687115822501842
 30
0.0
 70
     8
  0
VERTEX
  5
483
330
447
100
AcDbEntity
  8
image
100
AcDbVertex
100
AcDb2dVertex
 10
2.429022976004466
 20
1.687225099286324
 30
0.0
 70
     8
  0
VERTEX
  5
484
330
447
100
AcDbEntity
  8
image
100
AcDbVertex
100
AcDb2dVertex
 10
2.429468470582062
 20
1.68735237441136
 30
0.0
 70
     8
  0
VERTEX
  5
485
330
447
100
AcDbEntity
  8
image
100
AcDbVertex
100
AcDb2dVertex
 10
2.429901383585582
 20
1.687500933289685
 30
0.0
 70
     8
  0
VERTEX
  5
486
330
447
100
AcDbEntity
  8
image
100
AcDbVertex
100
AcDb2dVertex
 10
2.430324002525432
 20
1.687676918311174
 30
0.0
 70
     8
  0
VERTEX
  5
487
330
447
100
AcDbEntity
  8
image
100
AcDbVertex
100
AcDb2dVertex
 10
2.430739758681259
 20
1.687887186109992
 30
0.0
 70
     8
  0
VERTEX
  5
488
330
447
100
AcDbEntity
  8
image
100
AcDbVertex
100
AcDb2dVertex
 10
2.431152083332716
 20
1.688138593320302
 30
0.0
 70
     8
  0
VERTEX
  5
489
330
447
100
AcDbEntity
  8
image
100
AcDbVertex
100
AcDb2dVertex
 10
2.431564407759452
 20
1.688437996576269
 30
0.0
 70
     8
  0
VERTEX
  5
48A
330
447
100
AcDbEntity
  8
image
100
AcDbVertex
100
AcDb2dVertex
 10
2.431980163241117
 20
1.688792252512057
 30
0.0
 70
     8
  0
VERTEX
  5
48B
330
447
100
AcDbEntity
  8
image
100
AcDbVertex
100
AcDb2dVertex
 10
2.432402781057362
 20
1.689208217761829
 30
0.0
 70
     8
  0
VERTEX
  5
48C
330
447
100
AcDbEntity
  8
image
100
AcDbVertex
100
AcDb2dVertex
 10
2.432835692487838
 20
1.689692748959749
 30
0.0
 70
     8
  0
VERTEX
  5
48D
330
447
100
AcDbEntity
  8
image
100
AcDbVertex
100
AcDb2dVertex
 10
2.433311533685056
 20
1.690384647353303
 30
0.0
 70
     8
  0
VERTEX
  5
48E
330
447
100
AcDbEntity
  8
image
100
AcDbVertex
100
AcDb2dVertex
 10
2.433979760292977
 20
1.691950492643266
 30
0.0
 70
     8
  0
VERTEX
  5
48F
330
447
100
AcDbEntity
  8
image
100
AcDbVertex
100
AcDb2dVertex
 10
2.435019032828424
 20
1.695188809143735
 30
0.0
 70
     8
  0
VERTEX
  5
490
330
447
100
AcDbEntity
  8
image
100
AcDbVertex
100
AcDb2dVertex
 10
2.43660801180822
 20
1.700898121168805
 30
0.0
 70
     8
  0
VERTEX
  5
491
330
447
100
AcDbEntity
  8
image
100
AcDbVertex
100
AcDb2dVertex
 10
2.438925357749186
 20
1.709876953032575
 30
0.0
 70
     8
  0
VERTEX
  5
492
330
447
100
AcDbEntity
  8
image
100
AcDbVertex
100
AcDb2dVertex
 10
2.442149731168147
 20
1.72292382904914
 30
0.0
 70
     8
  0
VERTEX
  5
493
330
447
100
AcDbEntity
  8
image
100
AcDbVertex
100
AcDb2dVertex
 10
2.446459792581923
 20
1.740837273532598
 30
0.0
 70
     8
  0
VERTEX
  5
494
330
447
100
AcDbEntity
  8
image
100
AcDbVertex
100
AcDb2dVertex
 10
2.452034202507339
 20
1.764415810797045
 30
0.0
 70
     8
  0
VERTEX
  5
449
330
447
100
AcDbEntity
  8
image
100
AcDbVertex
100
AcDb2dVertex
 10
2.41028991684169
 20
1.679673008397772
 30
0.0
 70
    16
  0
VERTEX
  5
44A
330
447
100
AcDbEntity
  8
image
100
AcDbVertex
100
AcDb2dVertex
 10
2.412485933420868
 20
1.682744752736877
 30
0.0
 70
    16
  0
VERTEX
  5
44B
330
447
100
AcDbEntity
  8
image
100
AcDbVertex
100
AcDb2dVertex
 10
2.41512114181018
 20
1.684500038168265
 30
0.0
 70
    16
  0
VERTEX
  5
44C
330
447
100
AcDbEntity
  8
image
100
AcDbVertex
100
AcDb2dVertex
 10
2.418634772172103
 20
1.685816497075982
 30
0.0
 70
    16
  0
VERTEX
  5
44D
330
447
100
AcDbEntity
  8
image
100
AcDbVertex
100
AcDb2dVertex
 10
2.422587613520326
 20
1.686255323599654
 30
0.0
 70
    16
  0
VERTEX
  5
44E
330
447
100
AcDbEntity
  8
image
100
AcDbVertex
100
AcDb2dVertex
 10
2.425662032895939
 20
1.686694139791677
 30
0.0
 70
    16
  0
VERTEX
  5
44F
330
447
100
AcDbEntity
  8
image
100
AcDbVertex
100
AcDb2dVertex
 10
2.429614874244163
 20
1.68713296631535
 30
0.0
 70
    16
  0
VERTEX
  5
450
330
447
100
AcDbEntity
  8
image
100
AcDbVertex
100
AcDb2dVertex
 10
2.432689293619779
 20
1.688888241415087
 30
0.0
 70
    16
  0
VERTEX
  5
451
330
447
100
AcDbEntity
  8
image
100
AcDbVertex
100
AcDb2dVertex
 10
2.435324502009091
 20
1.693276454993559
 30
0.0
 70
    16
  0
VERTEX
  5
452
330
447
100
AcDbEntity
  8
image
100
AcDbVertex
100
AcDb2dVertex
 10
2.452034202507339
 20
1.764415810797045
 30
0.0
 70
    16
  0
SEQEND
  5
453
330
447
100
AcDbEntity
  8
image
  0
POLYLINE
  5
495
330
10C1
100
AcDbEntity
  8
image
100
AcDb2dPolyline
 66
     1
 10
0.0
 20
0.0
 30
0.0
 70
     4
 75
     6
  0
VERTEX
  5
4E3
330
495
100
AcDbEntity
  8
image
100
AcDbVertex
100
AcDb2dVertex
 10
2.337668676074201
 20
1.709278956454721
 30
0.0
 70
    16
  0
VERTEX
  5
4E4
330
495
100
AcDbEntity
  8
image
100
AcDbVertex
100
AcDb2dVertex
 10
2.337668676074201
 20
1.709278956454721
 30
0.0
 70
     8
  0
VERTEX
  5
4E5
330
495
100
AcDbEntity
  8
image
100
AcDbVertex
100
AcDb2dVertex
 10
2.337809879502696
 20
1.709576264730957
 30
0.0
 70
     8
  0
VERTEX
  5
4E6
330
495
100
AcDbEntity
  8
image
100
AcDbVertex
100
AcDb2dVertex
 10
2.338119432477779
 20
1.710228169485447
 30
0.0
 70
     8
  0
VERTEX
  5
4E7
330
495
100
AcDbEntity
  8
image
100
AcDbVertex
100
AcDb2dVertex
 10
2.338561434649969
 20
1.711159252064253
 30
0.0
 70
     8
  0
VERTEX
  5
4E8
330
495
100
AcDbEntity
  8
image
100
AcDbVertex
100
AcDb2dVertex
 10
2.33909998566979
 20
1.712294093813435
 30
0.0
 70
     8
  0
VERTEX
  5
4E9
330
495
100
AcDbEntity
  8
image
100
AcDbVertex
100
AcDb2dVertex
 10
2.339699185187762
 20
1.713557276079055
 30
0.0
 70
     8
  0
VERTEX
  5
4EA
330
495
100
AcDbEntity
  8
image
100
AcDbVertex
100
AcDb2dVertex
 10
2.340323132854408
 20
1.714873380207171
 30
0.0
 70
     8
  0
VERTEX
  5
4EB
330
495
100
AcDbEntity
  8
image
100
AcDbVertex
100
AcDb2dVertex
 10
2.340935928320248
 20
1.716166987543846
 30
0.0
 70
     8
  0
VERTEX
  5
4EC
330
495
100
AcDbEntity
  8
image
100
AcDbVertex
100
AcDb2dVertex
 10
2.341501671235806
 20
1.71736267943514
 30
0.0
 70
     8
  0
VERTEX
  5
4ED
330
495
100
AcDbEntity
  8
image
100
AcDbVertex
100
AcDb2dVertex
 10
2.341991729568576
 20
1.718401130940768
 30
0.0
 70
     8
  0
VERTEX
  5
4EE
330
495
100
AcDbEntity
  8
image
100
AcDbVertex
100
AcDb2dVertex
 10
2.342406544553955
 20
1.719287391975062
 30
0.0
 70
     8
  0
VERTEX
  5
4EF
330
495
100
AcDbEntity
  8
image
100
AcDbVertex
100
AcDb2dVertex
 10
2.342753825744312
 20
1.720042606166009
 30
0.0
 70
     8
  0
VERTEX
  5
4F0
330
495
100
AcDbEntity
  8
image
100
AcDbVertex
100
AcDb2dVertex
 10
2.343041282692016
 20
1.720687917141595
 30
0.0
 70
     8
  0
VERTEX
  5
4F1
330
495
100
AcDbEntity
  8
image
100
AcDbVertex
100
AcDb2dVertex
 10
2.34327662494944
 20
1.721244468529808
 30
0.0
 70
     8
  0
VERTEX
  5
4F2
330
495
100
AcDbEntity
  8
image
100
AcDbVertex
100
AcDb2dVertex
 10
2.34346756206895
 20
1.721733403958634
 30
0.0
 70
     8
  0
VERTEX
  5
4F3
330
495
100
AcDbEntity
  8
image
100
AcDbVertex
100
AcDb2dVertex
 10
2.34362180360292
 20
1.72217586705606
 30
0.0
 70
     8
  0
VERTEX
  5
4F4
330
495
100
AcDbEntity
  8
image
100
AcDbVertex
100
AcDb2dVertex
 10
2.343747059103717
 20
1.722593001450072
 30
0.0
 70
     8
  0
VERTEX
  5
4F5
330
495
100
AcDbEntity
  8
image
100
AcDbVertex
100
AcDb2dVertex
 10
2.343849931083295
 20
1.7230026921931
 30
0.0
 70
     8
  0
VERTEX
  5
4F6
330
495
100
AcDbEntity
  8
image
100
AcDbVertex
100
AcDb2dVertex
 10
2.343932593891945
 20
1.72340979003534
 30
0.0
 70
     8
  0
VERTEX
  5
4F7
330
495
100
AcDbEntity
  8
image
100
AcDbVertex
100
AcDb2dVertex
 10
2.343996114839539
 20
1.72381588715143
 30
0.0
 70
     8
  0
VERTEX
  5
4F8
330
495
100
AcDbEntity
  8
image
100
AcDbVertex
100
AcDb2dVertex
 10
2.34404156123595
 20
1.724222575716009
 30
0.0
 70
     8
  0
VERTEX
  5
4F9
330
495
100
AcDbEntity
  8
image
100
AcDbVertex
100
AcDb2dVertex
 10
2.344070000391052
 20
1.724631447903716
 30
0.0
 70
     8
  0
VERTEX
  5
4FA
330
495
100
AcDbEntity
  8
image
100
AcDbVertex
100
AcDb2dVertex
 10
2.344082499614717
 20
1.725044095889189
 30
0.0
 70
     8
  0
VERTEX
  5
4FB
330
495
100
AcDbEntity
  8
image
100
AcDbVertex
100
AcDb2dVertex
 10
2.344080126216819
 20
1.725462111847067
 30
0.0
 70
     8
  0
VERTEX
  5
4FC
330
495
100
AcDbEntity
  8
image
100
AcDbVertex
100
AcDb2dVertex
 10
2.344063947507231
 20
1.725887087951988
 30
0.0
 70
     8
  0
VERTEX
  5
4FD
330
495
100
AcDbEntity
  8
image
100
AcDbVertex
100
AcDb2dVertex
 10
2.344034799255358
 20
1.7263201561686
 30
0.0
 70
     8
  0
VERTEX
  5
4FE
330
495
100
AcDbEntity
  8
image
100
AcDbVertex
100
AcDb2dVertex
 10
2.343992591068737
 20
1.72676060762158
 30
0.0
 70
     8
  0
VERTEX
  5
4FF
330
495
100
AcDbEntity
  8
image
100
AcDbVertex
100
AcDb2dVertex
 10
2.343937001014436
 20
1.727207273225616
 30
0.0
 70
     8
  0
VERTEX
  5
500
330
495
100
AcDbEntity
  8
image
100
AcDbVertex
100
AcDb2dVertex
 10
2.343867707159525
 20
1.727658983895395
 30
0.0
 70
     8
  0
VERTEX
  5
501
330
495
100
AcDbEntity
  8
image
100
AcDbVertex
100
AcDb2dVertex
 10
2.343784387571073
 20
1.728114570545602
 30
0.0
 70
     8
  0
VERTEX
  5
502
330
495
100
AcDbEntity
  8
image
100
AcDbVertex
100
AcDb2dVertex
 10
2.343686720316148
 20
1.728572864090926
 30
0.0
 70
     8
  0
VERTEX
  5
503
330
495
100
AcDbEntity
  8
image
100
AcDbVertex
100
AcDb2dVertex
 10
2.343574383461819
 20
1.729032695446052
 30
0.0
 70
     8
  0
VERTEX
  5
504
330
495
100
AcDbEntity
  8
image
100
AcDbVertex
100
AcDb2dVertex
 10
2.343447055075156
 20
1.729492895525668
 30
0.0
 70
     8
  0
VERTEX
  5
505
330
495
100
AcDbEntity
  8
image
100
AcDbVertex
100
AcDb2dVertex
 10
2.343304927048782
 20
1.72995225808171
 30
0.0
 70
     8
  0
VERTEX
  5
506
330
495
100
AcDbEntity
  8
image
100
AcDbVertex
100
AcDb2dVertex
 10
2.34315024657755
 20
1.730409428215107
 30
0.0
 70
     8
  0
VERTEX
  5
507
330
495
100
AcDbEntity
  8
image
100
AcDbVertex
100
AcDb2dVertex
 10
2.342985774681865
 20
1.730863013864041
 30
0.0
 70
     8
  0
VERTEX
  5
508
330
495
100
AcDbEntity
  8
image
100
AcDbVertex
100
AcDb2dVertex
 10
2.342814272382135
 20
1.73131162296669
 30
0.0
 70
     8
  0
VERTEX
  5
509
330
495
100
AcDbEntity
  8
image
100
AcDbVertex
100
AcDb2dVertex
 10
2.342638500698766
 20
1.731753863461235
 30
0.0
 70
     8
  0
VERTEX
  5
50A
330
495
100
AcDbEntity
  8
image
100
AcDbVertex
100
AcDb2dVertex
 10
2.342461220652166
 20
1.732188343285854
 30
0.0
 70
     8
  0
VERTEX
  5
50B
330
495
100
AcDbEntity
  8
image
100
AcDbVertex
100
AcDb2dVertex
 10
2.342285193262741
 20
1.732613670378729
 30
0.0
 70
     8
  0
VERTEX
  5
50C
330
495
100
AcDbEntity
  8
image
100
AcDbVertex
100
AcDb2dVertex
 10
2.342113179550899
 20
1.733028452678039
 30
0.0
 70
     8
  0
VERTEX
  5
50D
330
495
100
AcDbEntity
  8
image
100
AcDbVertex
100
AcDb2dVertex
 10
2.341947198087894
 20
1.733432027501241
 30
0.0
 70
     8
  0
VERTEX
  5
50E
330
495
100
AcDbEntity
  8
image
100
AcDbVertex
100
AcDb2dVertex
 10
2.341786297648382
 20
1.733826649682904
 30
0.0
 70
     8
  0
VERTEX
  5
50F
330
495
100
AcDbEntity
  8
image
100
AcDbVertex
100
AcDb2dVertex
 10
2.341628784557864
 20
1.734215303436875
 30
0.0
 70
     8
  0
VERTEX
  5
510
330
495
100
AcDbEntity
  8
image
100
AcDbVertex
100
AcDb2dVertex
 10
2.341472965141842
 20
1.734600972976999
 30
0.0
 70
     8
  0
VERTEX
  5
511
330
495
100
AcDbEntity
  8
image
100
AcDbVertex
100
AcDb2dVertex
 10
2.341317145725822
 20
1.734986642517123
 30
0.0
 70
     8
  0
VERTEX
  5
512
330
495
100
AcDbEntity
  8
image
100
AcDbVertex
100
AcDb2dVertex
 10
2.341159632635303
 20
1.735375296271093
 30
0.0
 70
     8
  0
VERTEX
  5
513
330
495
100
AcDbEntity
  8
image
100
AcDbVertex
100
AcDb2dVertex
 10
2.340998732195791
 20
1.735769918452757
 30
0.0
 70
     8
  0
VERTEX
  5
514
330
495
100
AcDbEntity
  8
image
100
AcDbVertex
100
AcDb2dVertex
 10
2.340832750732786
 20
1.736173493275959
 30
0.0
 70
     8
  0
VERTEX
  5
515
330
495
100
AcDbEntity
  8
image
100
AcDbVertex
100
AcDb2dVertex
 10
2.340660931821823
 20
1.736588221741654
 30
0.0
 70
     8
  0
VERTEX
  5
516
330
495
100
AcDbEntity
  8
image
100
AcDbVertex
100
AcDb2dVertex
 10
2.340486268038557
 20
1.737013171999225
 30
0.0
 70
     8
  0
VERTEX
  5
517
330
495
100
AcDbEntity
  8
image
100
AcDbVertex
100
AcDb2dVertex
 10
2.340312689208673
 20
1.737446628985162
 30
0.0
 70
     8
  0
VERTEX
  5
518
330
495
100
AcDbEntity
  8
image
100
AcDbVertex
100
AcDb2dVertex
 10
2.340144125157856
 20
1.737886877635956
 30
0.0
 70
     8
  0
VERTEX
  5
519
330
495
100
AcDbEntity
  8
image
100
AcDbVertex
100
AcDb2dVertex
 10
2.339984505711792
 20
1.738332202888098
 30
0.0
 70
     8
  0
VERTEX
  5
51A
330
495
100
AcDbEntity
  8
image
100
AcDbVertex
100
AcDb2dVertex
 10
2.339837760696167
 20
1.738780889678078
 30
0.0
 70
     8
  0
VERTEX
  5
51B
330
495
100
AcDbEntity
  8
image
100
AcDbVertex
100
AcDb2dVertex
 10
2.339707819936665
 20
1.739231222942387
 30
0.0
 70
     8
  0
VERTEX
  5
51C
330
495
100
AcDbEntity
  8
image
100
AcDbVertex
100
AcDb2dVertex
 10
2.339598613258974
 20
1.739681487617515
 30
0.0
 70
     8
  0
VERTEX
  5
51D
330
495
100
AcDbEntity
  8
image
100
AcDbVertex
100
AcDb2dVertex
 10
2.339514127093704
 20
1.740131315914562
 30
0.0
 70
     8
  0
VERTEX
  5
51E
330
495
100
AcDbEntity
  8
image
100
AcDbVertex
100
AcDb2dVertex
 10
2.339458574291172
 20
1.740585729143065
 30
0.0
 70
     8
  0
VERTEX
  5
51F
330
495
100
AcDbEntity
  8
image
100
AcDbVertex
100
AcDb2dVertex
 10
2.33943622430662
 20
1.74105109588717
 30
0.0
 70
     8
  0
VERTEX
  5
520
330
495
100
AcDbEntity
  8
image
100
AcDbVertex
100
AcDb2dVertex
 10
2.339451346595292
 20
1.741533784731023
 30
0.0
 70
     8
  0
VERTEX
  5
521
330
495
100
AcDbEntity
  8
image
100
AcDbVertex
100
AcDb2dVertex
 10
2.33950821061243
 20
1.742040164258771
 30
0.0
 70
     8
  0
VERTEX
  5
522
330
495
100
AcDbEntity
  8
image
100
AcDbVertex
100
AcDb2dVertex
 10
2.339611085813277
 20
1.742576603054558
 30
0.0
 70
     8
  0
VERTEX
  5
523
330
495
100
AcDbEntity
  8
image
100
AcDbVertex
100
AcDb2dVertex
 10
2.339764241653075
 20
1.743149469702533
 30
0.0
 70
     8
  0
VERTEX
  5
524
330
495
100
AcDbEntity
  8
image
100
AcDbVertex
100
AcDb2dVertex
 10
2.339971947587067
 20
1.74376513278684
 30
0.0
 70
     8
  0
VERTEX
  5
525
330
495
100
AcDbEntity
  8
image
100
AcDbVertex
100
AcDb2dVertex
 10
2.340338683389023
 20
1.744520502004341
 30
0.0
 70
     8
  0
VERTEX
  5
526
330
495
100
AcDbEntity
  8
image
100
AcDbVertex
100
AcDb2dVertex
 10
2.341369770106817
 20
1.745874651502757
 30
0.0
 70
     8
  0
VERTEX
  5
527
330
495
100
AcDbEntity
  8
image
100
AcDbVertex
100
AcDb2dVertex
 10
2.34367073910685
 20
1.748377196542526
 30
0.0
 70
     8
  0
VERTEX
  5
528
330
495
100
AcDbEntity
  8
image
100
AcDbVertex
100
AcDb2dVertex
 10
2.347847121755523
 20
1.752577752384083
 30
0.0
 70
     8
  0
VERTEX
  5
529
330
495
100
AcDbEntity
  8
image
100
AcDbVertex
100
AcDb2dVertex
 10
2.354504449419238
 20
1.759025934287865
 30
0.0
 70
     8
  0
VERTEX
  5
52A
330
495
100
AcDbEntity
  8
image
100
AcDbVertex
100
AcDb2dVertex
 10
2.364248253464396
 20
1.76827135751431
 30
0.0
 70
     8
  0
VERTEX
  5
52B
330
495
100
AcDbEntity
  8
image
100
AcDbVertex
100
AcDb2dVertex
 10
2.377684065257397
 20
1.780863637323853
 30
0.0
 70
     8
  0
VERTEX
  5
52C
330
495
100
AcDbEntity
  8
image
100
AcDbVertex
100
AcDb2dVertex
 10
2.395417416164643
 20
1.797352388976932
 30
0.0
 70
     8
  0
VERTEX
  5
496
330
495
100
AcDbEntity
  8
image
100
AcDbVertex
100
AcDb2dVertex
 10
2.337788841066315
 20
1.709531944416841
 30
0.0
 70
    16
  0
VERTEX
  5
4D8
330
495
100
AcDbEntity
  8
image
100
AcDbVertex
100
AcDb2dVertex
 10
2.342386502166597
 20
1.719211576494559
 30
0.0
 70
    16
  0
VERTEX
  5
4D9
330
495
100
AcDbEntity
  8
image
100
AcDbVertex
100
AcDb2dVertex
 10
2.343974008232272
 20
1.722637642254625
 30
0.0
 70
    16
  0
VERTEX
  5
4DA
330
495
100
AcDbEntity
  8
image
100
AcDbVertex
100
AcDb2dVertex
 10
2.344199819526613
 20
1.725795863187379
 30
0.0
 70
    16
  0
VERTEX
  5
4DB
330
495
100
AcDbEntity
  8
image
100
AcDbVertex
100
AcDb2dVertex
 10
2.34361039870466
 20
1.729501432707787
 30
0.0
 70
    16
  0
VERTEX
  5
4DC
330
495
100
AcDbEntity
  8
image
100
AcDbVertex
100
AcDb2dVertex
 10
2.342040916105682
 20
1.733155779135483
 30
0.0
 70
    16
  0
VERTEX
  5
4DD
330
495
100
AcDbEntity
  8
image
100
AcDbVertex
100
AcDb2dVertex
 10
2.340905014178003
 20
1.736046166818515
 30
0.0
 70
    16
  0
VERTEX
  5
4DE
330
495
100
AcDbEntity
  8
image
100
AcDbVertex
100
AcDb2dVertex
 10
2.339335531579026
 20
1.73970051324621
 30
0.0
 70
    16
  0
VERTEX
  5
4DF
330
495
100
AcDbEntity
  8
image
100
AcDbVertex
100
AcDb2dVertex
 10
2.339344539059739
 20
1.743240705901733
 30
0.0
 70
    16
  0
VERTEX
  5
4E0
330
495
100
AcDbEntity
  8
image
100
AcDbVertex
100
AcDb2dVertex
 10
2.341860178156193
 20
1.747698541879176
 30
0.0
 70
    16
  0
VERTEX
  5
4E1
330
495
100
AcDbEntity
  8
image
100
AcDbVertex
100
AcDb2dVertex
 10
2.395417416164643
 20
1.797352388976932
 30
0.0
 70
    16
  0
SEQEND
  5
4E2
330
495
100
AcDbEntity
  8
image
  0
LWPOLYLINE
  5
887
330
10C1
100
AcDbEntity
  8
image
100
AcDbPolyline
 90
        2
 70
     0
 43
0.0
 10
3.318318232889163
 20
7.275427289550104
 10
3.317503039019243
 20
7.352180910182884
  0
ARC
  5
9B8
330
10C1
100
AcDbEntity
  8
image
100
AcDbCircle
 10
3.533975430180516
 20
7.313804099866493
 30
0.0
 40
0.2027937797141143
100
AcDbArc
 50
270.0
 51
90.0
  0
ARC
  5
9B9
330
10C1
100
AcDbEntity
  8
image
100
AcDbCircle
 10
3.533975430180516
 20
7.313804099866493
 30
0.0
 40
0.2027937797141145
100
AcDbArc
 50
90.0
 51
270.0
  0
LWPOLYLINE
  5
9BA
330
10C1
100
AcDbEntity
  8
image
100
AcDbPolyline
 90
        3
 70
     0
 43
0.0
 10
3.533975430180516
 20
7.516597879580608
 42
-1.0
 10
3.533975430180516
 20
7.313804099866493
 42
0.9999999999999998
 10
3.533975430180516
 20
7.11101032015238
 42
0.9999999999999998
  0
INSERT
  5
9BB
330
10C1
100
AcDbEntity
  8
image
  6
Continuous
100
AcDbBlockReference
  2
*U0
 10
0.0
 20
2.36829102497665
 30
0.0
1001
ACAD
1002
{
1000
R14_HATCH_DATA
1000
9BB
1011
1.0
1021
2.36829102497665
1031
0.0
1011
0.0
1021
3.36829102497665
1031
0.0
1011
0.0
1021
2.36829102497665
1031
1.0
1040
0.0
1010
0.0
1020
0.0
1030
1.0
1000
SOLID
1070
     1
1070
     0
1071
        1
1071
        1
1071
        3
1070
     2
1040
3.533975430180516
1040
4.945513074889841
1040
0.2027937797141143
1040
4.712388980384689
1040
7.853981633974482
1070
     1
1070
     2
1040
3.533975430180516
1040
5.0469099647469
1040
0.1013968898570573
1040
4.712388980384689
1040
7.853981633974482
1070
     0
1070
     2
1040
3.533975430180516
1040
4.844116185032785
1040
0.1013968898570573
1040
1.570796326794896
1040
4.712388980384689
1070
     1
1071
        0
1070
     0
1070
     1
1071
        1
1040
0.6842136253258577
1040
1.521370937345172
1040
0.0
1002
}
  0
LWPOLYLINE
  5
9BC
330
10C1
100
AcDbEntity
  8
image
100
AcDbPolyline
 90
        2
 70
     0
 43
0.0
 10
2.360833874859288
 20
7.578008044209508
 10
3.814352274246394
 20
7.578008044209508
  0
LWPOLYLINE
  5
9BD
330
10C1
100
AcDbEntity
  8
image
100
AcDbPolyline
 90
        2
 70
     0
 43
0.0
 10
1.73578455382263
 20
7.578008044209507
 10
0.7751655625014121
 20
7.578008044209507
  0
ARC
  5
A34
330
10C1
100
AcDbEntity
  8
image
100
AcDbCircle
 10
1.558780132813374
 20
7.871979596947053
 30
0.0
 40
0.1065815326392652
100
AcDbArc
 50
116.0563205359582
 51
205.254994024374
  0
ARC
  5
A35
330
10C1
100
AcDbEntity
  8
image
100
AcDbCircle
 10
1.415569469940392
 20
7.922255718476741
 30
0.0
 40
0.1065815326392652
100
AcDbArc
 50
296.0563205359582
 51
25.2549940243739
  0
ARC
  5
A36
330
10C1
100
AcDbEntity
  8
image
100
AcDbCircle
 10
1.09855095765238
 20
7.832176025142531
 30
0.0
 40
0.1065815326392652
100
AcDbArc
 50
116.0563205359582
 51
205.254994024374
  0
ARC
  5
A37
330
10C1
100
AcDbEntity
  8
image
100
AcDbCircle
 10
0.9553402947793996
 20
7.882452146672219
 30
0.0
 40
0.1065815326392652
100
AcDbArc
 50
296.0563205359582
 51
25.2549940243739
  0
ARC
  5
A38
330
10C1
100
AcDbEntity
  8
image
100
AcDbCircle
 10
1.160744089430893
 20
8.130702813676444
 30
0.0
 40
0.1065815326392652
100
AcDbArc
 50
116.0563205359582
 51
205.254994024374
  0
ARC
  5
A39
330
10C1
100
AcDbEntity
  8
image
100
AcDbCircle
 10
1.017533426557912
 20
8.180978935206134
 30
0.0
 40
0.1065815326392652
100
AcDbArc
 50
296.0563205359582
 51
25.2549940243739
  0
ARC
  5
A3A
330
10C1
100
AcDbEntity
  8
image
100
AcDbCircle
 10
1.170694990515456
 20
8.237674912901097
 30
0.0
 40
0.1065815326392652
100
AcDbArc
 50
116.0563205359582
 51
205.254994024374
  0
ARC
  5
A3B
330
10C1
100
AcDbEntity
  8
image
100
AcDbCircle
 10
1.027484327642473
 20
8.287951034430784
 30
0.0
 40
0.1065815326392652
100
AcDbArc
 50
296.0563205359582
 51
25.2549940243739
  0
ARC
  5
A3C
330
10C1
100
AcDbEntity
  8
image
100
AcDbCircle
 10
1.282642627716778
 20
8.110801027774183
 30
0.0
 40
0.1065815326392652
100
AcDbArc
 50
116.0563205359582
 51
205.254994024374
  0
ARC
  5
A3D
330
10C1
100
AcDbEntity
  8
image
100
AcDbCircle
 10
1.139431964843796
 20
8.161077149303871
 30
0.0
 40
0.1065815326392652
100
AcDbArc
 50
296.0563205359582
 51
25.2549940243739
  0
ARC
  5
A3E
330
10C1
100
AcDbEntity
  8
image
100
AcDbCircle
 10
1.464246572510035
 20
8.100850134823055
 30
0.0
 40
0.1065815326392652
100
AcDbArc
 50
116.0563205359582
 51
205.254994024374
  0
ARC
  5
A3F
330
10C1
100
AcDbEntity
  8
image
100
AcDbCircle
 10
1.321035909637053
 20
8.151126256352743
 30
0.0
 40
0.1065815326392652
100
AcDbArc
 50
296.0563205359582
 51
25.2549940243739
  0
ARC
  5
A40
330
10C1
100
AcDbEntity
  8
image
100
AcDbCircle
 10
1.424442968171788
 20
7.969000803220574
 30
0.0
 40
0.1065815326392652
100
AcDbArc
 50
116.0563205359582
 51
205.254994024374
  0
ARC
  5
A41
330
10C1
100
AcDbEntity
  8
image
100
AcDbCircle
 10
1.281232305298805
 20
8.019276924750265
 30
0.0
 40
0.1065815326392652
100
AcDbArc
 50
296.0563205359582
 51
25.2549940243739
  0
ARC
  5
A42
330
10C1
100
AcDbEntity
  8
image
100
AcDbCircle
 10
1.643362792032152
 20
7.824712855429183
 30
0.0
 40
0.1065815326392652
100
AcDbArc
 50
116.0563205359582
 51
205.254994024374
  0
ARC
  5
A43
330
10C1
100
AcDbEntity
  8
image
100
AcDbCircle
 10
1.500152129159169
 20
7.874988976958872
 30
0.0
 40
0.1065815326392652
100
AcDbArc
 50
296.0563205359582
 51
25.2549940243739
  0
ARC
  5
A44
330
10C1
100
AcDbEntity
  8
image
100
AcDbCircle
 10
1.133379111448348
 20
7.981439419409487
 30
0.0
 40
0.1065815326392652
100
AcDbArc
 50
116.0563205359582
 51
205.254994024374
  0
ARC
  5
A45
330
10C1
100
AcDbEntity
  8
image
100
AcDbCircle
 10
0.9901684485753657
 20
8.031715540939176
 30
0.0
 40
0.1065815326392652
100
AcDbArc
 50
296.0563205359582
 51
25.2549940243739
  0
ARC
  5
A46
330
10C1
100
AcDbEntity
  8
image
100
AcDbCircle
 10
1.359762111122133
 20
7.760032051246834
 30
0.0
 40
0.1065815326392652
100
AcDbArc
 50
116.0563205359582
 51
205.254994024374
  0
ARC
  5
A47
330
10C1
100
AcDbEntity
  8
image
100
AcDbCircle
 10
1.216551448249152
 20
7.810308172776525
 30
0.0
 40
0.1065815326392652
100
AcDbArc
 50
296.0563205359582
 51
25.2549940243739
  0
ARC
  5
A48
330
10C1
100
AcDbEntity
  8
image
100
AcDbCircle
 10
1.374688462748977
 20
7.655547675259966
 30
0.0
 40
0.1065815326392652
100
AcDbArc
 50
116.0563205359582
 51
205.254994024374
  0
ARC
  5
A49
330
10C1
100
AcDbEntity
  8
image
100
AcDbCircle
 10
1.231477799875996
 20
7.705823796789654
 30
0.0
 40
0.1065815326392652
100
AcDbArc
 50
296.0563205359582
 51
25.2549940243739
  0
ARC
  5
A4A
330
10C1
100
AcDbEntity
  8
image
100
AcDbCircle
 10
1.48912382522144
 20
7.765007497722399
 30
0.0
 40
0.1065815326392652
100
AcDbArc
 50
116.0563205359582
 51
205.254994024374
  0
ARC
  5
A4B
330
10C1
100
AcDbEntity
  8
image
100
AcDbCircle
 10
1.345913162348458
 20
7.815283619252089
 30
0.0
 40
0.1065815326392652
100
AcDbArc
 50
296.0563205359582
 51
25.2549940243739
  0
ARC
  5
A4C
330
10C1
100
AcDbEntity
  8
image
100
AcDbCircle
 10
1.669227861068147
 20
7.672689448607814
 30
0.0
 40
0.1065815326392652
100
AcDbArc
 50
143.5307656099477
 51
232.7294390983635
  0
ARC
  5
A4D
330
10C1
100
AcDbEntity
  8
image
100
AcDbCircle
 10
1.518973933633769
 20
7.651224601831475
 30
0.0
 40
0.1065815326392652
100
AcDbArc
 50
323.5307656099477
 51
52.72943909836342
  0
ARC
  5
A4E
330
10C1
100
AcDbEntity
  8
image
100
AcDbCircle
 10
1.33995091288473
 20
8.24742739452796
 30
0.0
 40
0.1065815326392652
100
AcDbArc
 50
143.5307656099477
 51
232.7294390983635
  0
ARC
  5
A4F
330
10C1
100
AcDbEntity
  8
image
100
AcDbCircle
 10
1.189696985450352
 20
8.225962547751622
 30
0.0
 40
0.1065815326392652
100
AcDbArc
 50
323.5307656099477
 51
52.72943909836342
  0
ARC
  5
A52
330
10C1
100
AcDbEntity
  8
image
100
AcDbCircle
 10
1.208240133611362
 20
8.031900664807906
 30
0.0
 40
0.1065815326392652
100
AcDbArc
 50
143.5307656099477
 51
232.7294390983635
  0
ARC
  5
A53
330
10C1
100
AcDbEntity
  8
image
100
AcDbCircle
 10
1.057986206176986
 20
8.010435818031567
 30
0.0
 40
0.1065815326392652
100
AcDbArc
 50
323.5307656099477
 51
52.72943909836342
  0
ARC
  5
A54
330
10C1
100
AcDbEntity
  8
image
100
AcDbCircle
 10
1.148371597578014
 20
7.762492252657837
 30
0.0
 40
0.1065815326392652
100
AcDbArc
 50
143.5307656099477
 51
232.7294390983635
  0
ARC
  5
A55
330
10C1
100
AcDbEntity
  8
image
100
AcDbCircle
 10
0.9981176701436364
 20
7.741027405881498
 30
0.0
 40
0.1065815326392652
100
AcDbArc
 50
323.5307656099477
 51
52.72943909836342
  0
ARC
  5
A56
330
10C1
100
AcDbEntity
  8
image
100
AcDbCircle
 10
1.11843732956134
 20
7.678676302211148
 30
0.0
 40
0.1065815326392652
100
AcDbArc
 50
143.5307656099477
 51
232.7294390983635
  0
ARC
  5
A57
330
10C1
100
AcDbEntity
  8
image
100
AcDbCircle
 10
0.9681834021269628
 20
7.657211455434809
 30
0.0
 40
0.1065815326392652
100
AcDbArc
 50
323.5307656099477
 51
52.72943909836342
  0
ARC
  5
A58
330
10C1
100
AcDbEntity
  8
image
100
AcDbCircle
 10
1.220213840818033
 20
7.666702595004479
 30
0.0
 40
0.1065815326392652
100
AcDbArc
 50
143.5307656099477
 51
232.7294390983635
  0
ARC
  5
A59
330
10C1
100
AcDbEntity
  8
image
100
AcDbCircle
 10
1.069959913383656
 20
7.645237748228141
 30
0.0
 40
0.1065815326392652
100
AcDbArc
 50
323.5307656099477
 51
52.72943909836342
  0
ARC
  5
A5A
330
10C1
100
AcDbEntity
  8
image
100
AcDbCircle
 10
1.274095523248046
 20
7.906176739137873
 30
0.0
 40
0.1065815326392652
100
AcDbArc
 50
143.5307656099477
 51
232.7294390983635
  0
ARC
  5
A5B
330
10C1
100
AcDbEntity
  8
image
100
AcDbCircle
 10
1.123841595813669
 20
7.884711892361534
 30
0.0
 40
0.1065815326392652
100
AcDbArc
 50
323.5307656099477
 51
52.72943909836342
  0
ARC
  5
A5C
330
10C1
100
AcDbEntity
  8
image
100
AcDbCircle
 10
1.369885180901404
 20
7.989992689584561
 30
0.0
 40
0.1065815326392652
100
AcDbArc
 50
143.5307656099477
 51
232.7294390983635
  0
ARC
  5
A5D
330
10C1
100
AcDbEntity
  8
image
100
AcDbCircle
 10
1.219631253467027
 20
7.968527842808224
 30
0.0
 40
0.1065815326392652
100
AcDbArc
 50
323.5307656099477
 51
52.72943909836342
  0
ARC
  5
A5E
330
10C1
100
AcDbEntity
  8
image
100
AcDbCircle
 10
1.585411910621459
 20
8.079795493634584
 30
0.0
 40
0.1065815326392652
100
AcDbArc
 50
143.5307656099477
 51
232.7294390983635
  0
ARC
  5
A5F
330
10C1
100
AcDbEntity
  8
image
100
AcDbCircle
 10
1.435157983187081
 20
8.058330646858244
 30
0.0
 40
0.1065815326392652
100
AcDbArc
 50
323.5307656099477
 51
52.72943909836342
  0
ARC
  5
A60
330
10C1
100
AcDbEntity
  8
image
100
AcDbCircle
 10
1.555477642604785
 20
8.019926957601235
 30
0.0
 40
0.1065815326392652
100
AcDbArc
 50
143.5307656099477
 51
232.7294390983635
  0
ARC
  5
A61
330
10C1
100
AcDbEntity
  8
image
100
AcDbCircle
 10
1.405223715170407
 20
7.998462110824897
 30
0.0
 40
0.1065815326392652
100
AcDbArc
 50
323.5307656099477
 51
52.72943909836342
  0
ARC
  5
A62
330
10C1
100
AcDbEntity
  8
image
100
AcDbCircle
 10
1.507582813778105
 20
7.912163592741209
 30
0.0
 40
0.1065815326392652
100
AcDbArc
 50
143.5307656099477
 51
232.7294390983635
  0
ARC
  5
A63
330
10C1
100
AcDbEntity
  8
image
100
AcDbCircle
 10
1.357328886343729
 20
7.890698745964869
 30
0.0
 40
0.1065815326392652
100
AcDbArc
 50
323.5307656099477
 51
52.72943909836342
  0
ARC
  5
A64
330
10C1
100
AcDbEntity
  8
image
100
AcDbCircle
 10
1.423766863331417
 20
7.762492252657837
 30
0.0
 40
0.1065815326392652
100
AcDbArc
 50
143.5307656099477
 51
232.7294390983635
  0
ARC
  5
A65
330
10C1
100
AcDbEntity
  8
image
100
AcDbCircle
 10
1.27351293589704
 20
7.741027405881498
 30
0.0
 40
0.1065815326392652
100
AcDbArc
 50
323.5307656099477
 51
52.72943909836342
  0
ARC
  5
A66
330
10C1
100
AcDbEntity
  8
image
100
AcDbCircle
 10
1.298042937661385
 20
7.666702595004479
 30
0.0
 40
0.1065815326392652
100
AcDbArc
 50
143.5307656099477
 51
232.7294390983635
  0
ARC
  5
A67
330
10C1
100
AcDbEntity
  8
image
100
AcDbCircle
 10
1.147789010227009
 20
7.645237748228141
 30
0.0
 40
0.1065815326392652
100
AcDbArc
 50
323.5307656099477
 51
52.72943909836342
  0
ARC
  5
A68
330
10C1
100
AcDbEntity
  8
image
100
AcDbCircle
 10
1.495609106571435
 20
7.654728887797809
 30
0.0
 40
0.1065815326392652
100
AcDbArc
 50
143.5307656099477
 51
232.7294390983635
  0
ARC
  5
A69
330
10C1
100
AcDbEntity
  8
image
100
AcDbCircle
 10
1.345355179137058
 20
7.633264041021471
 30
0.0
 40
0.1065815326392652
100
AcDbArc
 50
323.5307656099477
 51
52.72943909836342
  0
ARC
  5
A6A
330
10C1
100
AcDbEntity
  8
image
100
AcDbCircle
 10
1.603372471431463
 20
7.69065000941782
 30
0.0
 40
0.1065815326392652
100
AcDbArc
 50
143.5307656099477
 51
232.7294390983635
  0
ARC
  5
A6B
330
10C1
100
AcDbEntity
  8
image
100
AcDbCircle
 10
1.453118543997087
 20
7.669185162641479
 30
0.0
 40
0.1065815326392652
100
AcDbArc
 50
323.5307656099477
 51
52.72943909836342
  0
ARC
  5
A6C
330
10C1
100
AcDbEntity
  8
image
100
AcDbCircle
 10
1.699162129084821
 20
7.906176739137873
 30
0.0
 40
0.1065815326392652
100
AcDbArc
 50
143.5307656099477
 51
232.7294390983635
  0
ARC
  5
A6D
330
10C1
100
AcDbEntity
  8
image
100
AcDbCircle
 10
1.548908201650444
 20
7.884711892361534
 30
0.0
 40
0.1065815326392652
100
AcDbArc
 50
323.5307656099477
 51
52.72943909836342
  0
ARC
  5
A70
330
10C1
100
AcDbEntity
  8
image
100
AcDbCircle
 10
1.435740570538088
 20
8.235453687321292
 30
0.0
 40
0.1065815326392652
100
AcDbArc
 50
143.5307656099477
 51
232.7294390983635
  0
ARC
  5
A71
330
10C1
100
AcDbEntity
  8
image
100
AcDbCircle
 10
1.28548664310371
 20
8.213988840544953
 30
0.0
 40
0.1065815326392652
100
AcDbArc
 50
323.5307656099477
 51
52.72943909836342
  0
ARC
  5
A72
330
10C1
100
AcDbEntity
  8
image
100
AcDbCircle
 10
1.519556520984777
 20
8.097756054444587
 30
0.0
 40
0.1065815326392652
100
AcDbArc
 50
143.5307656099477
 51
232.7294390983635
  0
ARC
  5
A73
330
10C1
100
AcDbEntity
  8
image
100
AcDbCircle
 10
1.369302593550398
 20
8.076291207668251
 30
0.0
 40
0.1065815326392652
100
AcDbArc
 50
323.5307656099477
 51
52.72943909836342
  0
ARC
  5
A74
330
10C1
100
AcDbEntity
  8
image
100
AcDbCircle
 10
1.208240133611362
 20
8.157624590477938
 30
0.0
 40
0.1065815326392652
100
AcDbArc
 50
143.5307656099477
 51
232.7294390983635
  0
ARC
  5
A75
330
10C1
100
AcDbEntity
  8
image
100
AcDbCircle
 10
1.057986206176986
 20
8.136159743701597
 30
0.0
 40
0.1065815326392652
100
AcDbArc
 50
323.5307656099477
 51
52.72943909836342
  0
ARC
  5
A76
330
10C1
100
AcDbEntity
  8
image
100
AcDbCircle
 10
1.694605913566497
 20
7.797365503383568
 30
0.0
 40
0.1065815326392652
100
AcDbArc
 50
159.7199718669748
 51
248.9186453553905
  0
ARC
  5
A77
330
10C1
100
AcDbEntity
  8
image
100
AcDbCircle
 10
1.556294739412418
 20
7.734859491987013
 30
0.0
 40
0.1065815326392652
100
AcDbArc
 50
339.7199718669747
 51
68.91864535539045
  0
ARC
  5
A78
330
10C1
100
AcDbEntity
  8
image
100
AcDbCircle
 10
1.592829402309806
 20
7.953023697070275
 30
0.0
 40
0.1065815326392652
100
AcDbArc
 50
159.7199718669748
 51
248.9186453553905
  0
ARC
  5
A79
330
10C1
100
AcDbEntity
  8
image
100
AcDbCircle
 10
1.454518228155725
 20
7.890517685673718
 30
0.0
 40
0.1065815326392652
100
AcDbArc
 50
339.7199718669747
 51
68.91864535539045
  0
ARC
  5
A7A
330
10C1
100
AcDbEntity
  8
image
100
AcDbCircle
 10
1.347368404573076
 20
7.917102575450265
 30
0.0
 40
0.1065815326392652
100
AcDbArc
 50
159.7199718669748
 51
248.9186453553905
  0
ARC
  5
A7B
330
10C1
100
AcDbEntity
  8
image
100
AcDbCircle
 10
1.209057230418995
 20
7.854596564053709
 30
0.0
 40
0.1065815326392652
100
AcDbArc
 50
339.7199718669747
 51
68.91864535539045
  0
ARC
  5
A7C
330
10C1
100
AcDbEntity
  8
image
100
AcDbCircle
 10
1.305460429349732
 20
7.815326064193572
 30
0.0
 40
0.1065815326392652
100
AcDbArc
 50
159.7199718669748
 51
248.9186453553905
  0
ARC
  5
A7D
330
10C1
100
AcDbEntity
  8
image
100
AcDbCircle
 10
1.167149255195651
 20
7.752820052797017
 30
0.0
 40
0.1065815326392652
100
AcDbArc
 50
339.7199718669747
 51
68.91864535539045
  0
ARC
  5
A7E
330
10C1
100
AcDbEntity
  8
image
100
AcDbCircle
 10
1.183960816904644
 20
7.897730124119548
 30
0.0
 40
0.1065815326392652
100
AcDbArc
 50
159.7199718669748
 51
248.9186453553905
  0
ARC
  5
A7F
330
10C1
100
AcDbEntity
  8
image
100
AcDbCircle
 10
1.045649642750563
 20
7.835224112722992
 30
0.0
 40
0.1065815326392652
100
AcDbArc
 50
339.7199718669747
 51
68.91864535539045
  0
ARC
  5
A80
330
10C1
100
AcDbEntity
  8
image
100
AcDbCircle
 10
1.347368404573076
 20
8.09670818355031
 30
0.0
 40
0.1065815326392652
100
AcDbArc
 50
159.7199718669748
 51
248.9186453553905
  0
ARC
  5
A81
330
10C1
100
AcDbEntity
  8
image
100
AcDbCircle
 10
1.209057230418995
 20
8.034202172153754
 30
0.0
 40
0.1065815326392652
100
AcDbArc
 50
339.7199718669747
 51
68.91864535539045
  0
ARC
  5
A82
330
10C1
100
AcDbEntity
  8
image
100
AcDbCircle
 10
1.544934573483127
 20
8.234405816427013
 30
0.0
 40
0.1065815326392652
100
AcDbArc
 50
159.7199718669748
 51
248.9186453553905
  0
ARC
  5
A83
330
10C1
100
AcDbEntity
  8
image
100
AcDbCircle
 10
1.406623399329045
 20
8.171899805030458
 30
0.0
 40
0.1065815326392652
100
AcDbArc
 50
339.7199718669747
 51
68.91864535539045
  0
ARC
  5
A84
330
10C1
100
AcDbEntity
  8
image
100
AcDbCircle
 10
1.455131769433104
 20
8.060787061930302
 30
0.0
 40
0.1065815326392652
100
AcDbArc
 50
159.7199718669748
 51
248.9186453553905
  0
ARC
  5
A85
330
10C1
100
AcDbEntity
  8
image
100
AcDbCircle
 10
1.316820595279024
 20
7.998281050533746
 30
0.0
 40
0.1065815326392652
100
AcDbArc
 50
339.7199718669747
 51
68.91864535539045
  0
ARC
  5
A88
330
10C1
100
AcDbEntity
  8
image
100
AcDbCircle
 10
1.544934573483127
 20
7.773418088970227
 30
0.0
 40
0.1065815326392652
100
AcDbArc
 50
159.7199718669748
 51
248.9186453553905
  0
ARC
  5
A89
330
10C1
100
AcDbEntity
  8
image
100
AcDbCircle
 10
1.406623399329045
 20
7.710912077573674
 30
0.0
 40
0.1065815326392652
100
AcDbArc
 50
339.7199718669747
 51
68.91864535539045
  0
ARC
  5
A8A
330
10C1
100
AcDbEntity
  8
image
100
AcDbCircle
 10
1.580855695103136
 20
7.821312917796907
 30
0.0
 40
0.1065815326392652
100
AcDbArc
 50
159.7199718669748
 51
248.9186453553905
  0
ARC
  5
A8B
330
10C1
100
AcDbEntity
  8
image
100
AcDbCircle
 10
1.442544520949055
 20
7.758806906400352
 30
0.0
 40
0.1065815326392652
100
AcDbArc
 50
339.7199718669747
 51
68.91864535539045
  0
ARC
  5
A8C
330
10C1
100
AcDbEntity
  8
image
100
AcDbCircle
 10
1.281513014936393
 20
8.246379523633681
 30
0.0
 40
0.1065815326392652
100
AcDbArc
 50
159.7199718669748
 51
248.9186453553905
  0
ARC
  5
A8D
330
10C1
100
AcDbEntity
  8
image
100
AcDbCircle
 10
1.143201840782312
 20
8.183873512237127
 30
0.0
 40
0.1065815326392652
100
AcDbArc
 50
339.7199718669747
 51
68.91864535539045
  0
ARC
  5
A8E
330
10C1
100
AcDbEntity
  8
image
100
AcDbCircle
 10
1.269539307729723
 20
8.054800208326966
 30
0.0
 40
0.1065815326392652
100
AcDbArc
 50
159.7199718669748
 51
248.9186453553905
  0
ARC
  5
A8F
330
10C1
100
AcDbEntity
  8
image
100
AcDbCircle
 10
1.131228133575643
 20
7.992294196930411
 30
0.0
 40
0.1065815326392652
100
AcDbArc
 50
339.7199718669747
 51
68.91864535539045
  0
ARC
  5
A90
330
10C1
100
AcDbEntity
  8
image
100
AcDbCircle
 10
1.310998804765626
 20
7.69763380654146
 30
0.0
 40
0.1065815326392652
100
AcDbArc
 50
278.5307656099479
 51
7.729439098363567
  0
ARC
  5
A91
330
10C1
100
AcDbEntity
  8
image
100
AcDbCircle
 10
1.432422314467065
 20
7.606566174265379
 30
0.0
 40
0.1065815326392652
100
AcDbArc
 50
98.53076560994791
 51
187.7294390983636
  0
ARC
  5
A92
330
10C1
100
AcDbEntity
  8
image
100
AcDbCircle
 10
1.077511514235567
 20
7.781449756988148
 30
0.0
 40
0.1065815326392652
100
AcDbArc
 50
278.5307656099479
 51
7.729439098363567
  0
ARC
  5
A93
330
10C1
100
AcDbEntity
  8
image
100
AcDbCircle
 10
1.198935023937006
 20
7.690382124712066
 30
0.0
 40
0.1065815326392652
100
AcDbArc
 50
98.53076560994791
 51
187.7294390983636
  0
ARC
  5
A94
330
10C1
100
AcDbEntity
  8
image
100
AcDbCircle
 10
0.9502228413169575
 20
8.130172890098265
 30
0.0
 40
0.1065815326392652
100
AcDbArc
 50
323.5307656099477
 51
52.72943909836342
  0
ARC
  5
A95
330
10C1
100
AcDbEntity
  8
image
100
AcDbCircle
 10
1.100476768751334
 20
8.151637736874603
 30
0.0
 40
0.1065815326392652
100
AcDbArc
 50
143.5307656099477
 51
232.7294390983635
  0
ARC
  5
A98
330
10C1
100
AcDbEntity
  8
image
100
AcDbCircle
 10
1.298860034469017
 20
7.848609710450376
 30
0.0
 40
0.1065815326392652
100
AcDbArc
 50
339.7199718669747
 51
68.91864535539045
  0
ARC
  5
A99
330
10C1
100
AcDbEntity
  8
image
100
AcDbCircle
 10
1.437171208623098
 20
7.91111572184693
 30
0.0
 40
0.1065815326392652
100
AcDbArc
 50
159.7199718669748
 51
248.9186453553905
  0
ARC
  5
A9A
330
10C1
100
AcDbEntity
  8
image
100
AcDbCircle
 10
1.239156561525608
 20
8.158621533998243
 30
0.0
 40
0.1065815326392652
100
AcDbArc
 50
278.5307656099479
 51
7.729439098363567
  0
ARC
  5
A9B
330
10C1
100
AcDbEntity
  8
image
100
AcDbCircle
 10
1.360580071227046
 20
8.067553901722163
 30
0.0
 40
0.1065815326392652
100
AcDbArc
 50
98.53076560994791
 51
187.7294390983636
  0
ARC
  5
B08
330
10C1
100
AcDbEntity
  8
image
100
AcDbCircle
 10
0.9731922626733155
 20
7.85165927086644
 30
0.0
 40
0.1065815326392652
100
AcDbArc
 50
116.0563205359582
 51
205.254994024374
  0
ARC
  5
B09
330
10C1
100
AcDbEntity
  8
image
100
AcDbCircle
 10
0.8299815998003332
 20
7.901935392396129
 30
0.0
 40
0.1065815326392652
100
AcDbArc
 50
296.0563205359582
 51
25.2549940243739
  0
ARC
  5
B0A
330
10C1
100
AcDbEntity
  8
image
100
AcDbCircle
 10
1.148736828268981
 20
7.925659984861782
 30
0.0
 40
0.1065815326392652
100
AcDbArc
 50
143.5307656099477
 51
232.7294390983635
  0
ARC
  5
B0B
330
10C1
100
AcDbEntity
  8
image
100
AcDbCircle
 10
0.9984829008346039
 20
7.904195138085444
 30
0.0
 40
0.1065815326392652
100
AcDbArc
 50
323.5307656099477
 51
52.72943909836342
  0
ARC
  5
B0C
330
10C1
100
AcDbEntity
  8
image
100
AcDbCircle
 10
1.058602121925579
 20
7.917213369843456
 30
0.0
 40
0.1065815326392652
100
AcDbArc
 50
159.7199718669748
 51
248.9186453553905
  0
ARC
  5
B0D
330
10C1
100
AcDbEntity
  8
image
100
AcDbCircle
 10
0.920290947771498
 20
7.854707358446901
 30
0.0
 40
0.1065815326392652
100
AcDbArc
 50
339.7199718669747
 51
68.91864535539045
  0
ARC
  5
B0E
330
10C1
100
AcDbEntity
  8
image
100
AcDbCircle
 10
1.023012902598949
 20
7.781975498381746
 30
0.0
 40
0.1065815326392652
100
AcDbArc
 50
143.5307656099477
 51
232.7294390983635
  0
ARC
  5
B0F
330
10C1
100
AcDbEntity
  8
image
100
AcDbCircle
 10
0.9930786345822737
 20
7.698159547935056
 30
0.0
 40
0.1065815326392652
100
AcDbArc
 50
143.5307656099477
 51
232.7294390983635
  0
ARC
  5
B10
330
10C1
100
AcDbEntity
  8
image
100
AcDbCircle
 10
0.8428247071478976
 20
7.676694701158718
 30
0.0
 40
0.1065815326392652
100
AcDbArc
 50
323.5307656099477
 51
52.72943909836342
  0
ARC
  5
B11
330
10C1
100
AcDbEntity
  8
image
100
AcDbCircle
 10
1.094855145838966
 20
7.686185840728387
 30
0.0
 40
0.1065815326392652
100
AcDbArc
 50
143.5307656099477
 51
232.7294390983635
  0
ARC
  5
B12
330
10C1
100
AcDbEntity
  8
image
100
AcDbCircle
 10
0.9446012184045901
 20
7.664720993952049
 30
0.0
 40
0.1065815326392652
100
AcDbArc
 50
323.5307656099477
 51
52.72943909836342
  0
ARC
  5
B14
330
10C1
100
AcDbEntity
  8
image
100
AcDbCircle
 10
0.9521528192565007
 20
7.800933002712056
 30
0.0
 40
0.1065815326392652
100
AcDbArc
 50
278.5307656099479
 51
7.729439098363567
  0
ARC
  5
B15
330
10C1
100
AcDbEntity
  8
image
100
AcDbCircle
 10
0.8727589751645712
 20
7.760510651605407
 30
0.0
 40
0.1065815326392652
100
AcDbArc
 50
323.5307656099477
 51
52.72943909836342
  0
ARC
  5
B16
330
10C1
100
AcDbEntity
  8
image
100
AcDbCircle
 10
1.07357632895794
 20
7.709865370435977
 30
0.0
 40
0.1065815326392652
100
AcDbArc
 50
98.53076560994791
 51
187.7294390983636
  0
ARC
  5
B17
330
10C1
100
AcDbEntity
  8
image
100
AcDbCircle
 10
1.008020416469281
 20
8.000922665133396
 30
0.0
 40
0.1065815326392652
100
AcDbArc
 50
116.0563205359582
 51
205.254994024374
  0
ARC
  5
B18
330
10C1
100
AcDbEntity
  8
image
100
AcDbCircle
 10
0.8648097535963003
 20
8.051198786663086
 30
0.0
 40
0.1065815326392652
100
AcDbArc
 50
296.0563205359582
 51
25.2549940243739
  0
ARC
  5
B19
330
10C1
100
AcDbEntity
  8
image
100
AcDbCircle
 10
0.923267683847165
 20
7.99882800714361
 30
0.0
 40
0.1065815326392652
100
AcDbArc
 50
323.5307656099477
 51
52.72943909836342
  0
ARC
  5
B1A
330
10C1
100
AcDbEntity
  8
image
100
AcDbCircle
 10
1.073521611281541
 20
8.020292853919947
 30
0.0
 40
0.1065815326392652
100
AcDbArc
 50
143.5307656099477
 51
232.7294390983635
  0
ARC
  5
B1B
330
10C1
100
AcDbEntity
  8
image
100
AcDbCircle
 10
3.181124972990892
 20
7.860631050634432
 30
0.0
 40
0.1065815326392652
100
AcDbArc
 50
111.0813546446095
 51
200.2800281330253
  0
ARC
  5
B1C
330
10C1
100
AcDbEntity
  8
image
100
AcDbCircle
 10
3.042813798836812
 20
7.923137062030987
 30
0.0
 40
0.1065815326392652
100
AcDbArc
 50
291.0813546446095
 51
20.28002813302522
  0
ARC
  5
B1D
330
10C1
100
AcDbEntity
  8
image
100
AcDbCircle
 10
3.102933019927787
 20
7.910118830272973
 30
0.0
 40
0.1065815326392652
100
AcDbArc
 50
127.2705609016365
 51
216.4692343900523
  0
ARC
  5
B1E
330
10C1
100
AcDbEntity
  8
image
100
AcDbCircle
 10
2.952679092493409
 20
7.931583677049313
 30
0.0
 40
0.1065815326392652
100
AcDbArc
 50
307.2705609016365
 51
36.46923439005223
  0
ARC
  5
B1F
330
10C1
100
AcDbEntity
  8
image
100
AcDbCircle
 10
3.271434320962058
 20
7.90785908458366
 30
0.0
 40
0.1065815326392652
100
AcDbArc
 50
154.7450059756261
 51
243.9436794640418
  0
ARC
  5
B20
330
10C1
100
AcDbEntity
  8
image
100
AcDbCircle
 10
3.128223658089075
 20
7.85758296305397
 30
0.0
 40
0.1065815326392652
100
AcDbArc
 50
334.745005975626
 51
63.94367946404176
  0
ARC
  5
B21
330
10C1
100
AcDbEntity
  8
image
100
AcDbCircle
 10
2.542635787949017
 20
7.877903289134583
 30
0.0
 40
0.1065815326392652
100
AcDbArc
 50
334.745005975626
 51
63.94367946404176
  0
ARC
  5
B22
330
10C1
100
AcDbEntity
  8
image
100
AcDbCircle
 10
2.685846450821999
 20
7.928179410664271
 30
0.0
 40
0.1065815326392652
100
AcDbArc
 50
154.7450059756261
 51
243.9436794640418
  0
ARC
  5
B23
330
10C1
100
AcDbEntity
  8
image
100
AcDbCircle
 10
3.002864963110011
 20
7.83809971733006
 30
0.0
 40
0.1065815326392652
100
AcDbArc
 50
334.745005975626
 51
63.94367946404176
  0
ARC
  5
B24
330
10C1
100
AcDbEntity
  8
image
100
AcDbCircle
 10
3.146075625982992
 20
7.88837583885975
 30
0.0
 40
0.1065815326392652
100
AcDbArc
 50
154.7450059756261
 51
243.9436794640418
  0
ARC
  5
B25
330
10C1
100
AcDbEntity
  8
image
100
AcDbCircle
 10
2.458053128730239
 20
7.830636547616713
 30
0.0
 40
0.1065815326392652
100
AcDbArc
 50
334.745005975626
 51
63.94367946404176
  0
ARC
  5
B26
330
10C1
100
AcDbEntity
  8
image
100
AcDbCircle
 10
2.60126379160322
 20
7.880912669146402
 30
0.0
 40
0.1065815326392652
100
AcDbArc
 50
154.7450059756261
 51
243.9436794640418
  0
ARC
  5
B27
330
10C1
100
AcDbEntity
  8
image
100
AcDbCircle
 10
2.827320397514345
 20
7.912100431325403
 30
0.0
 40
0.1065815326392652
100
AcDbArc
 50
307.2705609016365
 51
36.46923439005223
  0
ARC
  5
B28
330
10C1
100
AcDbEntity
  8
image
100
AcDbCircle
 10
2.977574324948721
 20
7.890635584549064
 30
0.0
 40
0.1065815326392652
100
AcDbArc
 50
127.2705609016365
 51
216.4692343900523
  0
ARC
  5
B29
330
10C1
100
AcDbEntity
  8
image
100
AcDbCircle
 10
2.731530739860987
 20
7.995916381772092
 30
0.0
 40
0.1065815326392652
100
AcDbArc
 50
307.2705609016365
 51
36.46923439005223
  0
ARC
  5
B2A
330
10C1
100
AcDbEntity
  8
image
100
AcDbCircle
 10
2.593833106984285
 20
7.918087284928739
 30
0.0
 40
0.1065815326392652
100
AcDbArc
 50
307.2705609016365
 51
36.46923439005223
  0
ARC
  5
B2B
330
10C1
100
AcDbEntity
  8
image
100
AcDbCircle
 10
2.744087034418662
 20
7.8966224381524
 30
0.0
 40
0.1065815326392652
100
AcDbArc
 50
127.2705609016365
 51
216.4692343900523
  0
ARC
  5
B2C
330
10C1
100
AcDbEntity
  8
image
100
AcDbCircle
 10
2.402253791677569
 20
7.912100431325403
 30
0.0
 40
0.1065815326392652
100
AcDbArc
 50
307.2705609016365
 51
36.46923439005223
  0
ARC
  5
B2D
330
10C1
100
AcDbEntity
  8
image
100
AcDbCircle
 10
2.552507719111945
 20
7.890635584549064
 30
0.0
 40
0.1065815326392652
100
AcDbArc
 50
127.2705609016365
 51
216.4692343900523
  0
ARC
  5
B2E
330
10C1
100
AcDbEntity
  8
image
100
AcDbCircle
 10
2.508586518452585
 20
7.958947389257805
 30
0.0
 40
0.1065815326392652
100
AcDbArc
 50
291.0813546446095
 51
20.28002813302522
  0
ARC
  5
B2F
330
10C1
100
AcDbEntity
  8
image
100
AcDbCircle
 10
2.646897692606666
 20
7.896441377861249
 30
0.0
 40
0.1065815326392652
100
AcDbArc
 50
111.0813546446095
 51
200.2800281330253
  0
ARC
  5
B30
330
10C1
100
AcDbEntity
  8
image
100
AcDbCircle
 10
2.754047516189313
 20
7.923026267637795
 30
0.0
 40
0.1065815326392652
100
AcDbArc
 50
291.0813546446095
 51
20.28002813302522
  0
ARC
  5
B31
330
10C1
100
AcDbEntity
  8
image
100
AcDbCircle
 10
2.892358690343395
 20
7.860520256241239
 30
0.0
 40
0.1065815326392652
100
AcDbArc
 50
111.0813546446095
 51
200.2800281330253
  0
ARC
  5
B32
330
10C1
100
AcDbEntity
  8
image
100
AcDbCircle
 10
2.917455103857747
 20
7.903653816307079
 30
0.0
 40
0.1065815326392652
100
AcDbArc
 50
291.0813546446095
 51
20.28002813302522
  0
ARC
  5
B33
330
10C1
100
AcDbEntity
  8
image
100
AcDbCircle
 10
3.055766278011827
 20
7.841147804910522
 30
0.0
 40
0.1065815326392652
100
AcDbArc
 50
111.0813546446095
 51
200.2800281330253
  0
ARC
  5
B34
330
10C1
100
AcDbEntity
  8
image
100
AcDbCircle
 10
2.802555886293372
 20
7.854533402637906
 30
0.0
 40
0.1065815326392652
100
AcDbArc
 50
111.0813546446095
 51
200.2800281330253
  0
ARC
  5
B35
330
10C1
100
AcDbEntity
  8
image
100
AcDbCircle
 10
2.664244712139292
 20
7.91703941403446
 30
0.0
 40
0.1065815326392652
100
AcDbArc
 50
291.0813546446095
 51
20.28002813302522
  0
ARC
  5
B36
330
10C1
100
AcDbEntity
  8
image
100
AcDbCircle
 10
2.61229209554095
 20
7.77093118990993
 30
0.0
 40
0.1065815326392652
100
AcDbArc
 50
334.745005975626
 51
63.94367946404176
  0
ARC
  5
B37
330
10C1
100
AcDbEntity
  8
image
100
AcDbCircle
 10
2.82790298486535
 20
7.746951098069028
 30
0.0
 40
0.1065815326392652
100
AcDbArc
 50
127.2705609016365
 51
216.4692343900523
  0
ARC
  5
B38
330
10C1
100
AcDbEntity
  8
image
100
AcDbCircle
 10
2.790417115996764
 20
7.703557498728989
 30
0.0
 40
0.1065815326392652
100
AcDbArc
 50
172.2705609016364
 51
261.4692343900521
  0
ARC
  5
B39
330
10C1
100
AcDbEntity
  8
image
100
AcDbCircle
 10
2.668993606295325
 20
7.61248986645291
 30
0.0
 40
0.1065815326392652
100
AcDbArc
 50
352.2705609016364
 51
81.4692343900521
  0
ARC
  5
B3A
330
10C1
100
AcDbEntity
  8
image
100
AcDbCircle
 10
3.027839591804451
 20
7.715789062623508
 30
0.0
 40
0.1065815326392652
100
AcDbArc
 50
352.2705609016364
 51
81.4692343900521
  0
ARC
  5
B3B
330
10C1
100
AcDbEntity
  8
image
100
AcDbCircle
 10
3.149263101505891
 20
7.806856694899586
 30
0.0
 40
0.1065815326392652
100
AcDbArc
 50
172.2705609016364
 51
261.4692343900521
  0
ARC
  5
B3C
330
10C1
100
AcDbEntity
  8
image
100
AcDbCircle
 10
3.1568147023578
 20
7.67064468613958
 30
0.0
 40
0.1065815326392652
100
AcDbArc
 50
127.2705609016365
 51
216.4692343900523
  0
ARC
  5
B3D
330
10C1
100
AcDbEntity
  8
image
100
AcDbCircle
 10
2.953044323184375
 20
7.768415944845368
 30
0.0
 40
0.1065815326392652
100
AcDbArc
 50
307.2705609016365
 51
36.46923439005223
  0
ARC
  5
B3E
330
10C1
100
AcDbEntity
  8
image
100
AcDbCircle
 10
2.982978591201051
 20
7.684599994398679
 30
0.0
 40
0.1065815326392652
100
AcDbArc
 50
307.2705609016365
 51
36.46923439005223
  0
ARC
  5
B3F
330
10C1
100
AcDbEntity
  8
image
100
AcDbCircle
 10
3.133232518635427
 20
7.663135147622339
 30
0.0
 40
0.1065815326392652
100
AcDbArc
 50
127.2705609016365
 51
216.4692343900523
  0
ARC
  5
B40
330
10C1
100
AcDbEntity
  8
image
100
AcDbCircle
 10
3.006560774923424
 20
7.692109532915917
 30
0.0
 40
0.1065815326392652
100
AcDbArc
 50
307.2705609016365
 51
36.46923439005223
  0
ARC
  5
B41
330
10C1
100
AcDbEntity
  8
image
100
AcDbCircle
 10
3.258591213614494
 20
7.682618393346249
 30
0.0
 40
0.1065815326392652
100
AcDbArc
 50
127.2705609016365
 51
216.4692343900523
  0
ARC
  5
B42
330
10C1
100
AcDbEntity
  8
image
100
AcDbCircle
 10
3.108337286180116
 20
7.704083240122587
 30
0.0
 40
0.1065815326392652
100
AcDbArc
 50
307.2705609016365
 51
36.46923439005223
  0
ARC
  5
B43
330
10C1
100
AcDbEntity
  8
image
100
AcDbCircle
 10
3.228656945597819
 20
7.766434343792938
 30
0.0
 40
0.1065815326392652
100
AcDbArc
 50
127.2705609016365
 51
216.4692343900523
  0
ARC
  5
B44
330
10C1
100
AcDbEntity
  8
image
100
AcDbCircle
 10
3.078403018163442
 20
7.787899190569277
 30
0.0
 40
0.1065815326392652
100
AcDbArc
 50
307.2705609016365
 51
36.46923439005223
  0
ARC
  5
B45
330
10C1
100
AcDbEntity
  8
image
100
AcDbCircle
 10
2.726727458013413
 20
7.661471367447496
 30
0.0
 40
0.1065815326392652
100
AcDbArc
 50
334.745005975626
 51
63.94367946404176
  0
ARC
  5
B46
330
10C1
100
AcDbEntity
  8
image
100
AcDbCircle
 10
2.869938120886395
 20
7.711747488977184
 30
0.0
 40
0.1065815326392652
100
AcDbArc
 50
154.7450059756261
 51
243.9436794640418
  0
ARC
  5
B47
330
10C1
100
AcDbEntity
  8
image
100
AcDbCircle
 10
2.881202079944358
 20
7.672626287192009
 30
0.0
 40
0.1065815326392652
100
AcDbArc
 50
307.2705609016365
 51
36.46923439005223
  0
ARC
  5
B48
330
10C1
100
AcDbEntity
  8
image
100
AcDbCircle
 10
3.031456007378735
 20
7.651161440415672
 30
0.0
 40
0.1065815326392652
100
AcDbArc
 50
127.2705609016365
 51
216.4692343900523
  0
ARC
  5
B49
330
10C1
100
AcDbEntity
  8
image
100
AcDbCircle
 10
2.803372983101005
 20
7.672626287192009
 30
0.0
 40
0.1065815326392652
100
AcDbArc
 50
307.2705609016365
 51
36.46923439005223
  0
ARC
  5
B4A
330
10C1
100
AcDbEntity
  8
image
100
AcDbCircle
 10
2.953626910535382
 20
7.651161440415672
 30
0.0
 40
0.1065815326392652
100
AcDbArc
 50
127.2705609016365
 51
216.4692343900523
  0
ARC
  5
B4B
330
10C1
100
AcDbEntity
  8
image
100
AcDbCircle
 10
3.023904406526824
 20
7.787373449175678
 30
0.0
 40
0.1065815326392652
100
AcDbArc
 50
172.2705609016364
 51
261.4692343900521
  0
ARC
  5
B4C
330
10C1
100
AcDbEntity
  8
image
100
AcDbCircle
 10
2.795955491412659
 20
7.821249756381103
 30
0.0
 40
0.1065815326392652
100
AcDbArc
 50
291.0813546446095
 51
20.28002813302522
  0
ARC
  5
B4D
330
10C1
100
AcDbEntity
  8
image
100
AcDbCircle
 10
3.103298250618753
 20
7.746951098069028
 30
0.0
 40
0.1065815326392652
100
AcDbArc
 50
127.2705609016365
 51
216.4692343900523
  0
ARC
  5
B4E
330
10C1
100
AcDbEntity
  8
image
100
AcDbCircle
 10
2.902480896825385
 20
7.696305816899597
 30
0.0
 40
0.1065815326392652
100
AcDbArc
 50
352.2705609016364
 51
81.4692343900521
  0
ARC
  5
B4F
330
10C1
100
AcDbEntity
  8
image
100
AcDbCircle
 10
2.741653809640258
 20
7.765955743434364
 30
0.0
 40
0.1065815326392652
100
AcDbArc
 50
334.745005975626
 51
63.94367946404176
  0
ARC
  5
B50
330
10C1
100
AcDbEntity
  8
image
100
AcDbCircle
 10
2.884864472513238
 20
7.816231864964056
 30
0.0
 40
0.1065815326392652
100
AcDbArc
 50
154.7450059756261
 51
243.9436794640418
  0
ARC
  5
B51
330
10C1
100
AcDbEntity
  8
image
100
AcDbCircle
 10
2.677649057430973
 20
7.768415944845368
 30
0.0
 40
0.1065815326392652
100
AcDbArc
 50
307.2705609016365
 51
36.46923439005223
  0
ARC
  5
B52
330
10C1
100
AcDbEntity
  8
image
100
AcDbCircle
 10
2.934266665566738
 20
7.758743744984546
 30
0.0
 40
0.1065815326392652
100
AcDbArc
 50
111.0813546446095
 51
200.2800281330253
  0
ARC
  5
B53
330
10C1
100
AcDbEntity
  8
image
100
AcDbCircle
 10
2.432188059694243
 20
7.678613140795344
 30
0.0
 40
0.1065815326392652
100
AcDbArc
 50
307.2705609016365
 51
36.46923439005223
  0
ARC
  5
B54
330
10C1
100
AcDbEntity
  8
image
100
AcDbCircle
 10
2.582441987128621
 20
7.657148294019005
 30
0.0
 40
0.1065815326392652
100
AcDbArc
 50
127.2705609016365
 51
216.4692343900523
  0
ARC
  5
B55
330
10C1
100
AcDbEntity
  8
image
100
AcDbCircle
 10
2.570646629434781
 20
7.643506096682254
 30
0.0
 40
0.0852652261114122
100
AcDbArc
 50
307.2705609016365
 51
36.46923439005223
  0
ARC
  5
B56
330
10C1
100
AcDbEntity
  8
image
100
AcDbCircle
 10
2.690849771382283
 20
7.626334219261183
 30
0.0
 40
0.0852652261114122
100
AcDbArc
 50
127.2705609016365
 51
216.4692343900523
  0
ARC
  5
B57
330
10C1
100
AcDbEntity
  8
image
100
AcDbCircle
 10
2.498043449330928
 20
7.696573701605349
 30
0.0
 40
0.1065815326392652
100
AcDbArc
 50
307.2705609016365
 51
36.46923439005223
  0
ARC
  5
B58
330
10C1
100
AcDbEntity
  8
image
100
AcDbCircle
 10
2.648297376765303
 20
7.67510885482901
 30
0.0
 40
0.1065815326392652
100
AcDbArc
 50
127.2705609016365
 51
216.4692343900523
  0
ARC
  5
B59
330
10C1
100
AcDbEntity
  8
image
100
AcDbCircle
 10
2.694792521433345
 20
7.716835769761204
 30
0.0
 40
0.1065815326392652
100
AcDbArc
 50
111.0813546446095
 51
200.2800281330253
  0
ARC
  5
B5A
330
10C1
100
AcDbEntity
  8
image
100
AcDbCircle
 10
2.520560225659254
 20
7.827236609984438
 30
0.0
 40
0.1065815326392652
100
AcDbArc
 50
291.0813546446095
 51
20.28002813302522
  0
ARC
  5
B5B
330
10C1
100
AcDbEntity
  8
image
100
AcDbCircle
 10
2.658871399813335
 20
7.764730598587883
 30
0.0
 40
0.1065815326392652
100
AcDbArc
 50
111.0813546446095
 51
200.2800281330253
  0
ARC
  5
B5C
330
10C1
100
AcDbEntity
  8
image
100
AcDbCircle
 10
2.755502758413931
 20
7.821207311439619
 30
0.0
 40
0.1065815326392652
100
AcDbArc
 50
154.7450059756261
 51
243.9436794640418
  0
ARC
  5
B5D
330
10C1
100
AcDbEntity
  8
image
100
AcDbCircle
 10
2.556481347279262
 20
7.779341781157757
 30
0.0
 40
0.1065815326392652
100
AcDbArc
 50
291.0813546446095
 51
20.28002813302522
  0
ARC
  5
B5E
330
10C1
100
AcDbEntity
  8
image
100
AcDbCircle
 10
2.406810007195892
 20
7.803289195571099
 30
0.0
 40
0.1065815326392652
100
AcDbArc
 50
291.0813546446095
 51
20.28002813302522
  0
ARC
  5
B5F
330
10C1
100
AcDbEntity
  8
image
100
AcDbCircle
 10
2.545121181349973
 20
7.740783184174544
 30
0.0
 40
0.1065815326392652
100
AcDbArc
 50
111.0813546446095
 51
200.2800281330253
  0
ARC
  5
B60
330
10C1
100
AcDbEntity
  8
image
100
AcDbCircle
 10
2.637169348252355
 20
8.106773827010584
 30
0.0
 40
0.1065815326392652
100
AcDbArc
 50
334.745005975626
 51
63.94367946404176
  0
ARC
  5
B61
330
10C1
100
AcDbEntity
  8
image
100
AcDbCircle
 10
2.676972952590603
 20
7.974924495408105
 30
0.0
 40
0.1065815326392652
100
AcDbArc
 50
334.745005975626
 51
63.94367946404176
  0
ARC
  5
B62
330
10C1
100
AcDbEntity
  8
image
100
AcDbCircle
 10
2.820183615463585
 20
8.025200616937794
 30
0.0
 40
0.1065815326392652
100
AcDbArc
 50
154.7450059756261
 51
243.9436794640418
  0
ARC
  5
B63
330
10C1
100
AcDbEntity
  8
image
100
AcDbCircle
 10
2.665675350224303
 20
8.241377379508822
 30
0.0
 40
0.1065815326392652
100
AcDbArc
 50
307.2705609016365
 51
36.46923439005223
  0
ARC
  5
B64
330
10C1
100
AcDbEntity
  8
image
100
AcDbCircle
 10
2.81592927765868
 20
8.219912532732482
 30
0.0
 40
0.1065815326392652
100
AcDbArc
 50
127.2705609016365
 51
216.4692343900523
  0
ARC
  5
B65
330
10C1
100
AcDbEntity
  8
image
100
AcDbCircle
 10
2.646284151329287
 20
8.066710754117831
 30
0.0
 40
0.1065815326392652
100
AcDbArc
 50
291.0813546446095
 51
20.28002813302522
  0
ARC
  5
B66
330
10C1
100
AcDbEntity
  8
image
100
AcDbCircle
 10
2.784595325483368
 20
8.004204742721277
 30
0.0
 40
0.1065815326392652
100
AcDbArc
 50
111.0813546446095
 51
200.2800281330253
  0
ARC
  5
B67
330
10C1
100
AcDbEntity
  8
image
100
AcDbCircle
 10
2.862259359236783
 20
8.164545226185772
 30
0.0
 40
0.1065815326392652
100
AcDbArc
 50
172.2705609016364
 51
261.4692343900521
  0
ARC
  5
B68
330
10C1
100
AcDbEntity
  8
image
100
AcDbCircle
 10
3.178148236915226
 20
8.004751699331141
 30
0.0
 40
0.1065815326392652
100
AcDbArc
 50
127.2705609016365
 51
216.4692343900523
  0
ARC
  5
B69
330
10C1
100
AcDbEntity
  8
image
100
AcDbCircle
 10
2.940671831331497
 20
8.136626505863976
 30
0.0
 40
0.1065815326392652
100
AcDbArc
 50
334.745005975626
 51
63.94367946404176
  0
ARC
  5
B6A
330
10C1
100
AcDbEntity
  8
image
100
AcDbCircle
 10
2.968036809314043
 20
7.987363111597017
 30
0.0
 40
0.1065815326392652
100
AcDbArc
 50
334.745005975626
 51
63.94367946404176
  0
ARC
  5
B6B
330
10C1
100
AcDbEntity
  8
image
100
AcDbCircle
 10
3.111247472187025
 20
8.037639233126707
 30
0.0
 40
0.1065815326392652
100
AcDbArc
 50
154.7450059756261
 51
243.9436794640418
  0
ARC
  5
B6C
330
10C1
100
AcDbEntity
  8
image
100
AcDbCircle
 10
3.151193079445434
 20
8.136096582285794
 30
0.0
 40
0.1065815326392652
100
AcDbArc
 50
127.2705609016365
 51
216.4692343900523
  0
ARC
  5
B6D
330
10C1
100
AcDbEntity
  8
image
100
AcDbCircle
 10
3.000939152011055
 20
8.157561429062134
 30
0.0
 40
0.1065815326392652
100
AcDbArc
 50
307.2705609016365
 51
36.46923439005223
  0
ARC
  5
B6E
330
10C1
100
AcDbEntity
  8
image
100
AcDbCircle
 10
3.02789430948085
 20
8.026216546107477
 30
0.0
 40
0.1065815326392652
100
AcDbArc
 50
307.2705609016365
 51
36.46923439005223
  0
ARC
  5
B6F
330
10C1
100
AcDbEntity
  8
image
100
AcDbCircle
 10
3.236606167166091
 20
8.057122478850615
 30
0.0
 40
0.1065815326392652
100
AcDbArc
 50
154.7450059756261
 51
243.9436794640418
  0
ARC
  5
B70
330
10C1
100
AcDbEntity
  8
image
100
AcDbCircle
 10
3.093395504293108
 20
8.006846357320927
 30
0.0
 40
0.1065815326392652
100
AcDbArc
 50
334.745005975626
 51
63.94367946404176
  0
ARC
  5
B71
330
10C1
100
AcDbEntity
  8
image
100
AcDbCircle
 10
3.083882494204479
 20
8.186902627393664
 30
0.0
 40
0.1065815326392652
100
AcDbArc
 50
154.7450059756261
 51
243.9436794640418
  0
ARC
  5
B72
330
10C1
100
AcDbEntity
  8
image
100
AcDbCircle
 10
2.818773293045612
 20
8.116724719961712
 30
0.0
 40
0.1065815326392652
100
AcDbArc
 50
334.745005975626
 51
63.94367946404176
  0
ARC
  5
B73
330
10C1
100
AcDbEntity
  8
image
100
AcDbCircle
 10
2.961983955918594
 20
8.167000841491402
 30
0.0
 40
0.1065815326392652
100
AcDbArc
 50
154.7450059756261
 51
243.9436794640418
  0
ARC
  5
B74
330
10C1
100
AcDbEntity
  8
image
100
AcDbCircle
 10
2.893175787151028
 20
8.16354828266547
 30
0.0
 40
0.1065815326392652
100
AcDbArc
 50
307.2705609016365
 51
36.46923439005223
  0
ARC
  5
B75
330
10C1
100
AcDbEntity
  8
image
100
AcDbCircle
 10
3.043429714585405
 20
8.142083435889128
 30
0.0
 40
0.1065815326392652
100
AcDbArc
 50
127.2705609016365
 51
216.4692343900523
  0
ARC
  5
B76
330
10C1
100
AcDbEntity
  8
image
100
AcDbCircle
 10
2.819902905825998
 20
8.252303215821212
 30
0.0
 40
0.1065815326392652
100
AcDbArc
 50
291.0813546446095
 51
20.28002813302522
  0
ARC
  5
B77
330
10C1
100
AcDbEntity
  8
image
100
AcDbCircle
 10
2.740835849535343
 20
8.073477593909693
 30
0.0
 40
0.1065815326392652
100
AcDbArc
 50
352.2705609016364
 51
81.4692343900521
  0
ARC
  5
B78
330
10C1
100
AcDbEntity
  8
image
100
AcDbCircle
 10
2.831876613032667
 20
8.060723900514497
 30
0.0
 40
0.1065815326392652
100
AcDbArc
 50
291.0813546446095
 51
20.28002813302522
  0
ARC
  5
B79
330
10C1
100
AcDbEntity
  8
image
100
AcDbCircle
 10
2.970187787186747
 20
7.998217889117942
 30
0.0
 40
0.1065815326392652
100
AcDbArc
 50
111.0813546446095
 51
200.2800281330253
  0
ARC
  5
B7A
330
10C1
100
AcDbEntity
  8
image
100
AcDbCircle
 10
2.893175787151028
 20
8.037824356995436
 30
0.0
 40
0.1065815326392652
100
AcDbArc
 50
307.2705609016365
 51
36.46923439005223
  0
ARC
  5
B7B
330
10C1
100
AcDbEntity
  8
image
100
AcDbCircle
 10
3.043429714585405
 20
8.016359510219096
 30
0.0
 40
0.1065815326392652
100
AcDbArc
 50
127.2705609016365
 51
216.4692343900523
  0
ARC
  5
B7C
330
10C1
100
AcDbEntity
  8
image
100
AcDbCircle
 10
2.881784667295363
 20
7.974451534995754
 30
0.0
 40
0.1065815326392652
100
AcDbArc
 50
127.2705609016365
 51
216.4692343900523
  0
ARC
  5
B7D
330
10C1
100
AcDbEntity
  8
image
100
AcDbCircle
 10
2.754047516189313
 20
8.102631875737841
 30
0.0
 40
0.1065815326392652
100
AcDbArc
 50
291.0813546446095
 51
20.28002813302522
  0
ARC
  5
B7E
330
10C1
100
AcDbEntity
  8
image
100
AcDbCircle
 10
2.892358690343395
 20
8.040125864341284
 30
0.0
 40
0.1065815326392652
100
AcDbArc
 50
111.0813546446095
 51
200.2800281330253
  0
ARC
  5
B7F
330
10C1
100
AcDbEntity
  8
image
100
AcDbCircle
 10
2.958214079980078
 20
8.189797204424657
 30
0.0
 40
0.1065815326392652
100
AcDbArc
 50
111.0813546446095
 51
200.2800281330253
  0
ARC
  5
B80
330
10C1
100
AcDbEntity
  8
image
100
AcDbCircle
 10
2.930720930246935
 20
8.243598605088628
 30
0.0
 40
0.1065815326392652
100
AcDbArc
 50
334.745005975626
 51
63.94367946404176
  0
ARC
  5
B81
330
10C1
100
AcDbEntity
  8
image
100
AcDbCircle
 10
3.073931593119916
 20
8.293874726618316
 30
0.0
 40
0.1065815326392652
100
AcDbArc
 50
154.7450059756261
 51
243.9436794640418
  0
ARC
  5
B82
330
10C1
100
AcDbEntity
  8
image
100
AcDbCircle
 10
2.761465007877661
 20
8.253351086715492
 30
0.0
 40
0.1065815326392652
100
AcDbArc
 50
307.2705609016365
 51
36.46923439005223
  0
ARC
  5
B83
330
10C1
100
AcDbEntity
  8
image
100
AcDbCircle
 10
2.911718935312038
 20
8.231886239939154
 30
0.0
 40
0.1065815326392652
100
AcDbArc
 50
127.2705609016365
 51
216.4692343900523
  0
ARC
  5
B84
330
10C1
100
AcDbEntity
  8
image
100
AcDbCircle
 10
2.780380011125337
 20
8.157049948540272
 30
0.0
 40
0.1065815326392652
100
AcDbArc
 50
154.7450059756261
 51
243.9436794640418
  0
ARC
  5
B85
330
10C1
100
AcDbEntity
  8
image
100
AcDbCircle
 10
2.666257937575309
 20
8.064254339045774
 30
0.0
 40
0.1065815326392652
100
AcDbArc
 50
127.2705609016365
 51
216.4692343900523
  0
ARC
  5
B86
330
10C1
100
AcDbEntity
  8
image
100
AcDbCircle
 10
2.581859399777614
 20
8.103679746632119
 30
0.0
 40
0.1065815326392652
100
AcDbArc
 50
307.2705609016365
 51
36.46923439005223
  0
ARC
  5
B87
330
10C1
100
AcDbEntity
  8
image
100
AcDbCircle
 10
2.732113327211991
 20
8.082214899855781
 30
0.0
 40
0.1065815326392652
100
AcDbArc
 50
127.2705609016365
 51
216.4692343900523
  0
ARC
  5
B88
330
10C1
100
AcDbEntity
  8
image
100
AcDbCircle
 10
2.556481347279262
 20
8.240329508614543
 30
0.0
 40
0.1065815326392652
100
AcDbArc
 50
291.0813546446095
 51
20.28002813302522
  0
ARC
  5
B89
330
10C1
100
AcDbEntity
  8
image
100
AcDbCircle
 10
2.694792521433345
 20
8.177823497217989
 30
0.0
 40
0.1065815326392652
100
AcDbArc
 50
111.0813546446095
 51
200.2800281330253
  0
ARC
  5
B8A
330
10C1
100
AcDbEntity
  8
image
100
AcDbCircle
 10
2.516004010140931
 20
8.085719185822114
 30
0.0
 40
0.1065815326392652
100
AcDbArc
 50
307.2705609016365
 51
36.46923439005223
  0
ARC
  5
B8B
330
10C1
100
AcDbEntity
  8
image
100
AcDbCircle
 10
2.545938278157606
 20
8.025850649788766
 30
0.0
 40
0.1065815326392652
100
AcDbArc
 50
307.2705609016365
 51
36.46923439005223
  0
ARC
  5
B8C
330
10C1
100
AcDbEntity
  8
image
100
AcDbCircle
 10
2.696192205591984
 20
8.004385803012429
 30
0.0
 40
0.1065815326392652
100
AcDbArc
 50
127.2705609016365
 51
216.4692343900523
  0
ARC
  5
B8D
330
10C1
100
AcDbEntity
  8
image
100
AcDbCircle
 10
0.8034306124507326
 20
7.633264041021471
 30
0.0
 40
0.1065815326392652
100
AcDbArc
 50
323.5307656099477
 51
52.72943909836342
  0
ARC
  5
B8E
330
10C1
100
AcDbEntity
  8
image
100
AcDbCircle
 10
1.092432145898077
 20
7.643506096682254
 30
0.0
 40
0.0852652261114122
100
AcDbArc
 50
143.5307656099477
 51
232.7294390983635
  0
ARC
  5
B8F
330
10C1
100
AcDbEntity
  8
image
100
AcDbCircle
 10
0.9146319408556056
 20
7.673833035806434
 30
0.0
 40
0.1065815326392652
100
AcDbArc
 50
278.5307656099479
 51
7.729439098363567
  0
ARC
  5
B90
330
10C1
100
AcDbEntity
  8
image
100
AcDbCircle
 10
1.036055450557044
 20
7.582765403530353
 30
0.0
 40
0.1065815326392652
100
AcDbArc
 50
98.53076560994791
 51
187.7294390983636
  0
ARC
  5
B91
330
10C1
100
AcDbEntity
  8
image
100
AcDbCircle
 10
3.090566226655779
 20
7.579245166450749
 30
0.0
 40
0.1065815326392652
100
AcDbArc
 50
352.2705609016364
 51
81.4692343900521
  0
ARC
  5
B92
330
10C1
100
AcDbEntity
  8
image
100
AcDbCircle
 10
3.211989736357217
 20
7.670312798726827
 30
0.0
 40
0.1065815326392652
100
AcDbArc
 50
172.2705609016364
 51
261.4692343900521
  0
LINE
  5
CA9
330
10C1
100
AcDbEntity
  8
image
100
AcDbLine
 10
2.403896466254497
 20
2.291795748333288
 30
0.0
 11
2.415832278366758
 21
7.281751036974863
 31
0.0
  0
LINE
  5
CAA
330
10C1
100
AcDbEntity
  8
image
100
AcDbLine
 10
1.691202722435311
 20
2.291795748333288
 30
0.0
 11
1.678625774014972
 21
7.281751036974863
 31
0.0
  0
LINE
  5
CAB
330
10C1
100
AcDbEntity
  8
image
100
AcDbLine
 10
1.700984793428906
 20
2.269436728919353
 30
0.0
 11
1.795809568287577
 21
2.269436728919353
 31
0.0
  0
LINE
  5
CAC
330
10C1
100
AcDbEntity
  8
image
100
AcDbLine
 10
1.691202722435311
 20
2.291795748333288
 30
0.0
 11
2.403896466254497
 21
2.291795748333288
 31
0.0
  0
ARC
  5
CAD
330
10C1
100
AcDbEntity
  8
image
100
AcDbCircle
 10
1.707118464166621
 20
2.28543954760392
 30
0.0
 40
0.0171380314671728
100
AcDbArc
 50
158.2299291778305
 51
249.0288262834868
  0
LINE
  5
CAE
330
10C1
100
AcDbEntity
  8
image
100
AcDbLine
 10
1.764149023273273
 20
1.983241280420981
 30
0.0
 11
2.330950165416536
 21
1.98324128042098
 31
0.0
  0
LINE
  5
CAF
330
10C1
100
AcDbEntity
  8
image
100
AcDbLine
 10
1.764149023273273
 20
1.983241280420981
 30
0.0
 11
1.764149023273273
 21
2.269436728919353
 31
0.0
  0
LINE
  5
CB0
330
10C1
100
AcDbEntity
  8
image
100
AcDbLine
 10
2.330950165416535
 20
1.983241280420981
 30
0.0
 11
2.330950165416535
 21
2.269436728919353
 31
0.0
  0
ARC
  5
CB1
330
10C1
100
AcDbEntity
  8
image
100
AcDbCircle
 10
2.387980724523186
 20
2.28543954760392
 30
0.0
 40
0.0171380314671728
100
AcDbArc
 50
290.9711737165133
 51
21.77007082216947
  0
LINE
  5
CB3
330
10C1
100
AcDbEntity
  8
image
100
AcDbLine
 10
1.777087556227662
 20
7.535289929212572
 30
0.0
 11
1.737636439143001
 21
7.535289929212567
 31
0.0
  0
LINE
  5
CB4
330
10C1
100
AcDbEntity
  8
image
100
AcDbLine
 10
2.047549594344904
 20
7.578008044209505
 30
0.0
 11
1.633907735187102
 21
7.578008044209509
 31
0.0
  0
LINE
  5
CB5
330
10C1
100
AcDbEntity
  8
image
100
AcDbLine
 10
1.58639481893249
 20
7.32367419837599
 30
0.0
 11
2.508704369757319
 21
7.32367419837599
 31
0.0
  0
LINE
  5
CB6
330
10C1
100
AcDbEntity
  8
image
100
AcDbLine
 10
1.58639481893249
 20
7.281751036974863
 30
0.0
 11
2.508704369757319
 21
7.281751036974863
 31
0.0
  0
LINE
  5
CB7
330
10C1
100
AcDbEntity
  8
image
100
AcDbLine
 10
1.605862096860379
 20
7.535289929212566
 30
0.0
 11
1.605862096860381
 21
7.32367419837599
 31
0.0
  0
LINE
  5
CB8
330
10C1
100
AcDbEntity
  8
image
100
AcDbLine
 10
1.627286417216135
 20
7.535289929212566
 30
0.0
 11
1.627286417216135
 21
7.32367419837599
 31
0.0
  0
LINE
  5
CB9
330
10C1
100
AcDbEntity
  8
image
100
AcDbLine
 10
1.737636439142997
 20
7.323674198375996
 30
0.0
 11
1.737636439143001
 21
7.535289929212573
 31
0.0
  0
LINE
  5
CBA
330
10C1
100
AcDbEntity
  8
image
100
AcDbLine
 10
1.686861311862625
 20
7.323674198375996
 30
0.0
 11
1.68686131186263
 21
7.535289929212574
 31
0.0
  0
LINE
  5
CBB
330
10C1
100
AcDbEntity
  8
image
100
AcDbLine
 10
1.658020874487544
 20
7.323674198375996
 30
0.0
 11
1.658020874487547
 21
7.535289929212574
 31
0.0
  0
LINE
  5
CBC
330
10C1
100
AcDbEntity
  8
image
100
AcDbLine
 10
1.58639481893249
 20
7.281751036974863
 30
0.0
 11
1.58639481893249
 21
7.522110495674666
 31
0.0
  0
LINE
  5
CBF
330
10C1
100
AcDbEntity
  8
image
100
AcDbLine
 10
1.633907735187102
 20
7.578008044209509
 30
0.0
 11
1.586394818932487
 21
7.522110495674665
 31
0.0
  0
LINE
  5
CC0
330
10C1
100
AcDbEntity
  8
image
100
AcDbLine
 10
1.627286417216135
 20
7.535289929212566
 30
0.0
 11
1.605862096860379
 21
7.535289929212566
 31
0.0
  0
LINE
  5
CC1
330
10C1
100
AcDbEntity
  8
image
100
AcDbLine
 10
1.605862096860377
 20
7.522110495674669
 30
0.0
 11
1.58639481893249
 21
7.522110495674668
 31
0.0
  0
LINE
  5
CC2
330
10C1
100
AcDbEntity
  8
image
100
AcDbLine
 10
1.686861311862627
 20
7.535289929212571
 30
0.0
 11
1.658020874487545
 21
7.535289929212569
 31
0.0
  0
LINE
  5
CC3
330
10C1
100
AcDbEntity
  8
image
100
AcDbLine
 10
1.658020874487545
 20
7.522110495674669
 30
0.0
 11
1.627286417216135
 21
7.522110495674669
 31
0.0
  0
LINE
  5
CC4
330
10C1
100
AcDbEntity
  8
image
100
AcDbLine
 10
1.737636439142999
 20
7.522110495674665
 30
0.0
 11
1.686861311862627
 21
7.522110495674668
 31
0.0
  0
LINE
  5
CCA
330
10C1
100
AcDbEntity
  8
image
100
AcDbLine
 10
2.047549594344904
 20
7.578008044209505
 30
0.0
 11
2.461191453502706
 21
7.578008044209509
 31
0.0
  0
LINE
  5
CCB
330
10C1
100
AcDbEntity
  8
image
100
AcDbLine
 10
2.256880994316894
 20
7.522110495674668
 30
0.0
 11
2.318011632462147
 21
7.522110495674668
 31
0.0
  0
LINE
  5
CCC
330
10C1
100
AcDbEntity
  8
image
100
AcDbLine
 10
1.777087556227659
 20
7.323674198375994
 30
0.0
 11
1.777087556227662
 21
7.535289929212572
 31
0.0
  0
LINE
  5
CCD
330
10C1
100
AcDbEntity
  8
image
100
AcDbLine
 10
1.953921200549046
 20
7.323674198375991
 30
0.0
 11
1.95392120054905
 21
7.535289929212569
 31
0.0
  0
LINE
  5
CCE
330
10C1
100
AcDbEntity
  8
image
100
AcDbLine
 10
1.885875627046342
 20
7.323674198375992
 30
0.0
 11
1.885875627046345
 21
7.53528992921257
 31
0.0
  0
LINE
  5
CCF
330
10C1
100
AcDbEntity
  8
image
100
AcDbLine
 10
1.838218194372912
 20
7.323674198375994
 30
0.0
 11
1.838218194372917
 21
7.535289929212571
 31
0.0
  0
LINE
  5
CD0
330
10C1
100
AcDbEntity
  8
image
100
AcDbLine
 10
2.256880994316896
 20
7.323674198375994
 30
0.0
 11
2.256880994316892
 21
7.535289929212571
 31
0.0
  0
LINE
  5
CD1
330
10C1
100
AcDbEntity
  8
image
100
AcDbLine
 10
2.209223561643467
 20
7.323674198375992
 30
0.0
 11
2.209223561643463
 21
7.53528992921257
 31
0.0
  0
LINE
  5
CD2
330
10C1
100
AcDbEntity
  8
image
100
AcDbLine
 10
2.141177988140762
 20
7.323674198375991
 30
0.0
 11
2.141177988140759
 21
7.535289929212569
 31
0.0
  0
LINE
  5
CD3
330
10C1
100
AcDbEntity
  8
image
100
AcDbLine
 10
2.009818749083891
 20
7.32367419837599
 30
0.0
 11
2.009818749083891
 21
7.535289929212567
 31
0.0
  0
LINE
  5
CD4
330
10C1
100
AcDbEntity
  8
image
100
AcDbLine
 10
2.085280439605924
 20
7.32367419837599
 30
0.0
 11
2.085280439605919
 21
7.535289929212567
 31
0.0
  0
LINE
  5
CD5
330
10C1
100
AcDbEntity
  8
image
100
AcDbLine
 10
2.009818749083889
 20
7.522110495674666
 30
0.0
 11
2.085280439605921
 21
7.522110495674668
 31
0.0
  0
LINE
  5
CD9
330
10C1
100
AcDbEntity
  8
image
100
AcDbLine
 10
1.953921200549046
 20
7.522110495674668
 30
0.0
 11
1.885875627046347
 21
7.522110495674669
 31
0.0
  0
LINE
  5
CDA
330
10C1
100
AcDbEntity
  8
image
100
AcDbLine
 10
1.838218194372915
 20
7.522110495674668
 30
0.0
 11
1.777087556227661
 21
7.522110495674668
 31
0.0
  0
LINE
  5
CDB
330
10C1
100
AcDbEntity
  8
image
100
AcDbLine
 10
1.885875627046345
 20
7.53528992921257
 30
0.0
 11
1.838218194372917
 21
7.535289929212566
 31
0.0
  0
LINE
  5
CDC
330
10C1
100
AcDbEntity
  8
image
100
AcDbLine
 10
2.009818749083889
 20
7.535289929212567
 30
0.0
 11
1.953921200549052
 21
7.535289929212567
 31
0.0
  0
LINE
  5
CE0
330
10C1
100
AcDbEntity
  8
image
100
AcDbLine
 10
2.141177988140762
 20
7.522110495674668
 30
0.0
 11
2.209223561643461
 21
7.522110495674669
 31
0.0
  0
LINE
  5
CE1
330
10C1
100
AcDbEntity
  8
image
100
AcDbLine
 10
2.085280439605919
 20
7.535289929212567
 30
0.0
 11
2.141177988140756
 21
7.535289929212567
 31
0.0
  0
LINE
  5
CE2
330
10C1
100
AcDbEntity
  8
image
100
AcDbLine
 10
2.209223561643463
 20
7.53528992921257
 30
0.0
 11
2.256880994316892
 21
7.535289929212566
 31
0.0
  0
LINE
  5
CE3
330
10C1
100
AcDbEntity
  8
image
100
AcDbLine
 10
2.437078314202265
 20
7.323674198375996
 30
0.0
 11
2.437078314202261
 21
7.535289929212574
 31
0.0
  0
LINE
  5
CE4
330
10C1
100
AcDbEntity
  8
image
100
AcDbLine
 10
2.408237876827183
 20
7.323674198375996
 30
0.0
 11
2.408237876827179
 21
7.535289929212574
 31
0.0
  0
LINE
  5
CE5
330
10C1
100
AcDbEntity
  8
image
100
AcDbLine
 10
2.357462749546811
 20
7.323674198375996
 30
0.0
 11
2.357462749546806
 21
7.535289929212573
 31
0.0
  0
LINE
  5
CE6
330
10C1
100
AcDbEntity
  8
image
100
AcDbLine
 10
2.31801163246215
 20
7.323674198375994
 30
0.0
 11
2.318011632462146
 21
7.535289929212572
 31
0.0
  0
LINE
  5
CE7
330
10C1
100
AcDbEntity
  8
image
100
AcDbLine
 10
2.467812771473674
 20
7.535289929212566
 30
0.0
 11
2.467812771473674
 21
7.32367419837599
 31
0.0
  0
LINE
  5
CE8
330
10C1
100
AcDbEntity
  8
image
100
AcDbLine
 10
2.48923709182943
 20
7.535289929212566
 30
0.0
 11
2.489237091829427
 21
7.32367419837599
 31
0.0
  0
LINE
  5
CE9
330
10C1
100
AcDbEntity
  8
image
100
AcDbLine
 10
2.508704369757319
 20
7.281751036974863
 30
0.0
 11
2.508704369757319
 21
7.522110495674664
 31
0.0
  0
LINE
  5
CEC
330
10C1
100
AcDbEntity
  8
image
100
AcDbLine
 10
2.408237876827181
 20
7.535289929212571
 30
0.0
 11
2.437078314202263
 21
7.535289929212569
 31
0.0
  0
LINE
  5
CED
330
10C1
100
AcDbEntity
  8
image
100
AcDbLine
 10
2.318011632462146
 20
7.535289929212572
 30
0.0
 11
2.357462749546806
 21
7.535289929212567
 31
0.0
  0
LINE
  5
CEE
330
10C1
100
AcDbEntity
  8
image
100
AcDbLine
 10
2.357462749546809
 20
7.522110495674665
 30
0.0
 11
2.408237876827181
 21
7.522110495674668
 31
0.0
  0
LINE
  5
CEF
330
10C1
100
AcDbEntity
  8
image
100
AcDbLine
 10
2.467812771473674
 20
7.535289929212566
 30
0.0
 11
2.48923709182943
 21
7.535289929212566
 31
0.0
  0
LINE
  5
CF0
330
10C1
100
AcDbEntity
  8
image
100
AcDbLine
 10
2.461191453502706
 20
7.578008044209509
 30
0.0
 11
2.508704369757321
 21
7.522110495674665
 31
0.0
  0
LINE
  5
CF1
330
10C1
100
AcDbEntity
  8
image
100
AcDbLine
 10
2.437078314202263
 20
7.522110495674669
 30
0.0
 11
2.467812771473674
 21
7.522110495674669
 31
0.0
  0
LINE
  5
CF2
330
10C1
100
AcDbEntity
  8
image
100
AcDbLine
 10
2.489237091829432
 20
7.522110495674669
 30
0.0
 11
2.508704369757319
 21
7.522110495674668
 31
0.0
  0
LINE
  5
CFA
330
10C1
100
AcDbEntity
  8
image
100
AcDbLine
 10
2.299133093464279
 20
2.036014493771848
 30
0.0
 11
2.299133093464281
 21
2.291795748333288
 31
0.0
  0
LINE
  5
CFB
330
10C1
100
AcDbEntity
  8
image
100
AcDbLine
 10
2.234728118467635
 20
1.985706700090493
 30
0.0
 11
2.234728118467635
 21
2.269436728919353
 31
0.0
  0
LINE
  5
CFC
330
10C1
100
AcDbEntity
  8
image
100
AcDbLine
 10
2.299133093464279
 20
2.036014493771848
 30
0.0
 11
2.282241034722248
 21
2.036014493771848
 31
0.0
  0
LWPOLYLINE
  5
CFD
330
10C1
100
AcDbEntity
  8
image
100
AcDbPolyline
 90
        2
 70
     0
 43
0.0
 10
1.748497709683521
 20
1.927343731886143
 10
2.34660147900629
 20
1.927343731886143
  0
LWPOLYLINE
  5
CFE
330
10C1
100
AcDbEntity
  8
image
100
AcDbPolyline
 90
        2
 70
     0
 43
0.0
 10
1.748497709683521
 20
1.927343731886143
 10
1.764149023273273
 20
1.983241280420981
  0
LWPOLYLINE
  5
CFF
330
10C1
100
AcDbEntity
  8
image
100
AcDbPolyline
 90
        2
 70
     0
 43
0.0
 10
2.34660147900629
 20
1.927343731886143
 10
2.330950165416536
 20
1.98324128042098
  0
LWPOLYLINE
  5
D00
330
10C1
100
AcDbEntity
  8
image
100
AcDbPolyline
 90
        2
 70
     0
 43
0.0
 10
2.07046758924419
 20
1.927343731886143
 10
2.07046758924419
 20
1.218562816464394
  0
LWPOLYLINE
  5
D01
330
10C1
100
AcDbEntity
  8
image
100
AcDbPolyline
 90
        2
 70
     0
 43
0.0
 10
2.024631599445622
 20
1.927343731886143
 10
2.024631599445622
 20
1.218562816464394
  0
LWPOLYLINE
  5
D02
330
10C1
100
AcDbEntity
  8
image
100
AcDbPolyline
 90
        2
 70
     0
 43
0.0
 10
1.843523542192745
 20
1.927343731886143
 10
2.251575646497065
 20
1.927343731886143
  0
LWPOLYLINE
  5
D03
330
10C1
100
AcDbEntity
  8
image
100
AcDbPolyline
 90
        2
 70
     0
 43
0.0
 10
2.251575646497065
 20
1.927343731886143
 10
2.23116690493039
 20
1.529216281016222
  0
LWPOLYLINE
  5
D04
330
10C1
100
AcDbEntity
  8
image
100
AcDbPolyline
 90
        2
 70
     0
 43
0.0
 10
1.843523542192745
 20
1.927343731886143
 10
1.863932283759422
 20
1.529216281016222
  0
LWPOLYLINE
  5
D05
330
10C1
100
AcDbEntity
  8
image
100
AcDbPolyline
 90
        2
 70
     0
 43
0.0
 10
1.825915814404273
 20
1.172726826665827
 10
2.269183374285539
 20
1.172726826665827
  0
LWPOLYLINE
  5
D06
330
10C1
100
AcDbEntity
  8
image
100
AcDbPolyline
 90
        2
 70
     0
 43
0.0
 10
1.813444378401231
 20
1.218562816464394
 10
2.296877341908904
 20
1.218562816464394
  0
LWPOLYLINE
  5
D07
330
10C1
100
AcDbEntity
  8
image
100
AcDbPolyline
 90
        3
 70
     0
 43
0.0
 10
2.242087416204562
 20
1.742250254795443
 10
2.242087416204562
 20
1.742250254795443
 10
2.34660147900629
 20
1.927343731886143
  0
LWPOLYLINE
  5
D08
330
10C1
100
AcDbEntity
  8
image
100
AcDbPolyline
 90
        2
 70
     0
 43
0.0
 10
2.621692146741772
 20
1.756160328067665
 10
2.269183374285539
 20
1.172726826665827
  0
LWPOLYLINE
  5
D09
330
10C1
100
AcDbEntity
  8
image
100
AcDbPolyline
 90
        2
 70
     0
 43
0.0
 10
2.456879266251498
 20
1.483380291217655
 10
2.07046758924419
 20
1.483380291217655
  0
LWPOLYLINE
  5
D0A
330
10C1
100
AcDbEntity
  8
image
100
AcDbPolyline
 90
        2
 70
     0
 43
0.0
 10
1.825915814404273
 20
1.172726826665827
 10
1.728919209002527
 20
1.529216281016222
  0
LWPOLYLINE
  5
D0B
330
10C1
100
AcDbEntity
  8
image
100
AcDbPolyline
 90
        2
 70
     0
 43
0.0
 10
2.424489694528805
 20
1.529216281016222
 10
2.07046758924419
 20
1.529216281016222
  0
LWPOLYLINE
  5
D0C
330
10C1
100
AcDbEntity
  8
image
100
AcDbPolyline
 90
        2
 70
     0
 43
0.0
 10
2.024631599445622
 20
1.529216281016222
 10
1.728919209002527
 20
1.529216281016222
  0
LWPOLYLINE
  5
D0D
330
10C1
100
AcDbEntity
  8
image
100
AcDbPolyline
 90
        2
 70
     0
 43
0.0
 10
2.024631599445622
 20
1.483380291217655
 10
1.741390645005569
 20
1.483380291217655
  0
ARC
  5
D0E
330
10C1
100
AcDbEntity
  8
image
100
AcDbCircle
 10
2.364440181081809
 20
1.69750873229409
 30
0.0
 40
0.657426235489358
100
AcDbArc
 50
159.5372614874052
 51
194.8320667203905
  0
LWPOLYLINE
  5
D0F
330
10C1
100
AcDbEntity
  8
image
100
AcDbPolyline
 90
        2
 70
     0
 43
0.0
 10
1.866281920460452
 20
1.483380291217655
 10
1.879856948740391
 20
1.218562816464394
  0
LWPOLYLINE
  5
D10
330
10C1
100
AcDbEntity
  8
image
100
AcDbPolyline
 90
        2
 70
     0
 43
0.0
 10
2.223806632433594
 20
1.38563434984796
 10
2.215242239949421
 20
1.218562816464394
  0
LWPOLYLINE
  5
D11
330
10C1
100
AcDbEntity
  8
image
100
AcDbPolyline
 90
        2
 70
     0
 43
0.0
 10
2.561608607395713
 20
1.756160328067665
 10
2.424489694528805
 20
1.529216281016222
  0
LWPOLYLINE
  5
D12
330
10C1
100
AcDbEntity
  8
image
100
AcDbPolyline
 90
        2
 70
     0
 43
0.0
 10
2.561608607395713
 20
1.756160328067665
 10
2.621692146741772
 20
1.756160328067665
  0
LWPOLYLINE
  5
D17
330
10C1
100
AcDbEntity
  8
image
100
AcDbPolyline
 90
        2
 70
     0
 43
0.0
 10
2.343056603865473
 20
1.706167869625247
 10
2.321848687651686
 20
1.671066874186665
  0
LWPOLYLINE
  5
D18
330
10C1
100
AcDbEntity
  8
image
100
AcDbPolyline
 90
        2
 70
     0
 43
0.0
 10
2.398225141319597
 20
1.674312559583243
 10
2.376363321752407
 20
1.638129295693875
  0
LWPOLYLINE
  5
D19
330
10C1
100
AcDbEntity
  8
image
100
AcDbPolyline
 90
        2
 70
     0
 43
0.0
 10
2.234422397890759
 20
1.592723435996971
 10
2.321848687651686
 20
1.671066874186664
  0
LWPOLYLINE
  5
D1A
330
10C1
100
AcDbEntity
  8
image
100
AcDbPolyline
 90
        2
 70
     0
 43
0.0
 10
2.357676221400792
 20
1.529216281016222
 10
2.376363321752407
 20
1.638129295693875
  0
LWPOLYLINE
  5
D1B
330
10C1
100
AcDbEntity
  8
image
100
AcDbPolyline
 90
        2
 70
     0
 43
0.0
 10
2.282864437174017
 20
1.483380291217654
 10
2.223806632433594
 20
1.385634349847954
  0
ARC
  5
D1C
330
10C1
100
AcDbEntity
  8
image
100
AcDbCircle
 10
2.575989389030946
 20
1.4165822152367
 30
0.0
 40
0.3535399049847557
100
AcDbArc
 50
169.1090290672645
 51
185.0219351923089
  0
LWPOLYLINE
  5
D1D
330
10C1
100
AcDbEntity
  8
image
100
AcDbPolyline
 90
        2
 70
     0
 43
0.0
 10
2.299133093464278
 20
2.036014493771848
 10
2.251620177209665
 20
1.985706700090494
  0
LINE
  5
D1E
330
10C1
100
AcDbEntity
  8
image
100
AcDbLine
 10
2.335948286823663
 20
2.269436728919353
 30
0.0
 11
2.394114395260901
 21
2.269436728919353
 31
0.0
  0
LINE
  5
D1F
330
10C1
100
AcDbEntity
  8
image
100
AcDbLine
 10
1.860214543284218
 20
1.985706700090493
 30
0.0
 11
1.860214543284218
 21
2.269436728919354
 31
0.0
  0
LINE
  5
D20
330
10C1
100
AcDbEntity
  8
image
100
AcDbLine
 10
1.795809568287577
 20
2.036014493771848
 30
0.0
 11
1.795809568287577
 21
2.291795748333288
 31
0.0
  0
LWPOLYLINE
  5
D21
330
10C1
100
AcDbEntity
  8
image
100
AcDbPolyline
 90
        2
 70
     0
 43
0.0
 10
1.795809568287576
 20
2.036014493771848
 10
1.84332248454219
 20
1.985706700090494
  0
LINE
  5
D22
330
10C1
100
AcDbEntity
  8
image
100
AcDbLine
 10
1.795809568287577
 20
2.036014493771848
 30
0.0
 11
1.812701627029605
 21
2.036014493771848
 31
0.0
  0
LINE
  5
D23
330
10C1
100
AcDbEntity
  8
image
100
AcDbLine
 10
2.299133093464279
 20
2.269436728919353
 30
0.0
 11
2.335948286823663
 21
2.269436728919353
 31
0.0
  0
LINE
  5
D24
330
10C1
100
AcDbEntity
  8
image
100
AcDbLine
 10
2.282241034722248
 20
2.036014493771848
 30
0.0
 11
2.282241034722248
 21
2.281551108173315
 31
0.0
  0
LINE
  5
D25
330
10C1
100
AcDbEntity
  8
image
100
AcDbLine
 10
1.812701627029607
 20
2.036014493771848
 30
0.0
 11
1.812701627029607
 21
2.281551108173316
 31
0.0
  0
LWPOLYLINE
  5
D26
330
10C1
100
AcDbEntity
  8
image
100
AcDbPolyline
 90
        2
 70
     0
 43
0.0
 10
2.282241034722248
 20
2.036014493771848
 10
2.234728118467635
 20
1.985706700090493
  0
LWPOLYLINE
  5
D27
330
10C1
100
AcDbEntity
  8
image
100
AcDbPolyline
 90
        2
 70
     0
 43
0.0
 10
1.812701627029605
 20
2.036014493771848
 10
1.860214543284218
 20
1.985706700090493
  0
LINE
  5
D28
330
10C1
100
AcDbEntity
  8
image
100
AcDbLine
 10
2.251620177209665
 20
1.985706700090494
 30
0.0
 11
2.234728118467635
 21
1.985706700090493
 31
0.0
  0
LINE
  5
D29
330
10C1
100
AcDbEntity
  8
image
100
AcDbLine
 10
1.84332248454219
 20
1.985706700090494
 30
0.0
 11
1.860214543284218
 21
1.985706700090493
 31
0.0
  0
LINE
  5
D2A
330
10C1
100
AcDbEntity
  8
image
100
AcDbLine
 10
1.86021454328422
 20
2.269436728919354
 30
0.0
 11
2.234728118467637
 21
2.269436728919353
 31
0.0
  0
ARC
  5
D2B
330
10C1
100
AcDbEntity
  8
image
100
AcDbCircle
 10
1.864734669423222
 20
2.386395430877002
 30
0.0
 40
0.1170460144726449
100
AcDbArc
 50
233.9230091132946
 51
267.7867801058023
  0
ARC
  5
D2C
330
10C1
100
AcDbEntity
  8
image
100
AcDbCircle
 10
2.230207992328635
 20
2.386395430877002
 30
0.0
 40
0.1170460144726449
100
AcDbArc
 50
272.2132198941957
 51
306.0769908867054
  0
CIRCLE
  5
EA8
330
10C1
100
AcDbEntity
  8
text_bubbles
100
AcDbCircle
 10
0.5382963848290605
 20
7.089820206366655
 30
0.0
 40
0.15625
  0
TEXT
  5
EAB
330
10C1
100
AcDbEntity
  8
text_bubbles
100
AcDbText
 10
4.947793607510662
 20
6.673035575391459
 30
0.0
 40
0.125
  1
3
  7
ROMANS
 72
     4
 11
5.007317417034472
 21
6.735535575391459
 31
0.0
100
AcDbText
  0
CIRCLE
  5
EAC
330
10C1
100
AcDbEntity
  8
text_bubbles
100
AcDbCircle
 10
5.007317417034472
 20
6.735535575391459
 30
0.0
 40
0.15625
  0
CIRCLE
  5
EBB
330
10C1
100
AcDbEntity
  8
text_bubbles
100
AcDbCircle
 10
0.5300876479845967
 20
6.001358623692608
 30
0.0
 40
0.15625
  0
TEXT
  5
EBC
330
10C1
100
AcDbEntity
  8
text_bubbles
100
AcDbText
 10
0.4705638384607873
 20
5.938858623692608
 30
0.0
 40
0.125
  1
3
  7
ROMANS
 72
     4
 11
0.5300876479845967
 21
6.001358623692608
 31
0.0
100
AcDbText
  0
TEXT
  5
EC2
330
10C1
100
AcDbEntity
  8
text_bubbles
100
AcDbText
 10
4.944817417034472
 20
4.941664736937409
 30
0.0
 40
0.125
  1
6
  7
ROMANS
 72
     4
 11
5.007317417034472
 21
5.004164736937409
 31
0.0
100
AcDbText
  0
CIRCLE
  5
EC3
330
10C1
100
AcDbEntity
  8
text_bubbles
100
AcDbCircle
 10
5.007317417034472
 20
5.004164736937409
 30
0.0
 40
0.15625
  0
CIRCLE
  5
ECE
330
10C1
100
AcDbEntity
  8
text_bubbles
100
AcDbCircle
 10
5.007317417034472
 20
6.295203947919777
 30
0.0
 40
0.15625
  0
CIRCLE
  5
ECF
330
10C1
100
AcDbEntity
  8
text_bubbles
100
AcDbCircle
 10
5.007317417034472
 20
5.853063246690262
 30
0.0
 40
0.15625
  0
CIRCLE
  5
ED1
330
10C1
100
AcDbEntity
  8
text_bubbles
100
AcDbCircle
 10
4.162795164287159
 20
5.413765642128623
 30
0.0
 40
0.15625
  0
TEXT
  5
ED2
330
10C1
100
AcDbEntity
  8
text_bubbles
100
AcDbText
 10
4.100295164287159
 20
5.351265642128623
 30
0.0
 40
0.125
  1
6
  7
ROMANS
 72
     4
 11
4.162795164287159
 21
5.413765642128623
 31
0.0
100
AcDbText
  0
CIRCLE
  5
ED4
330
10C1
100
AcDbEntity
  8
text_bubbles
100
AcDbCircle
 10
4.162746984740806
 20
7.697731701787658
 30
0.0
 40
0.15625
  0
TEXT
  5
ED5
330
10C1
100
AcDbEntity
  8
text_bubbles
100
AcDbText
 10
4.103223175216997
 20
7.635231701787658
 30
0.0
 40
0.125
  1
5
  7
ROMANS
 72
     4
 11
4.162746984740806
 21
7.697731701787658
 31
0.0
100
AcDbText
  0
TEXT
  5
ED6
330
10C1
100
AcDbEntity
  8
text_bubbles
100
AcDbText
 10
4.947793607510662
 20
5.790563246690262
 30
0.0
 40
0.125
  1
5
  7
ROMANS
 72
     4
 11
5.007317417034472
 21
5.853063246690262
 31
0.0
100
AcDbText
  0
TEXT
  5
ED7
330
10C1
100
AcDbEntity
  8
text_bubbles
100
AcDbText
 10
4.944817417034472
 20
6.232703947919777
 30
0.0
 40
0.125
  1
4
  7
ROMANS
 72
     4
 11
5.007317417034472
 21
6.295203947919777
 31
0.0
100
AcDbText
  0
CIRCLE
  5
EDC
330
10C1
100
AcDbEntity
  8
text_bubbles
100
AcDbCircle
 10
0.5298379315888742
 20
7.683094548886812
 30
0.0
 40
0.15625
  0
TEXT
  5
EDD
330
10C1
100
AcDbEntity
  8
text_bubbles
100
AcDbText
 10
0.478772575305251
 20
7.027320206366655
 30
0.0
 40
0.125
  1
2
  7
ROMANS
 72
     4
 11
0.5382963848290605
 21
7.089820206366655
 31
0.0
100
AcDbText
  0
TEXT
  5
EDE
330
10C1
100
AcDbEntity
  8
text_bubbles
100
AcDbText
 10
0.4792426934936361
 20
7.620594548886812
 30
0.0
 40
0.125
  1
1
  7
ROMANS
 72
     4
 11
0.5298379315888742
 21
7.683094548886812
 31
0.0
100
AcDbText
  0
CIRCLE
  5
EDF
330
10C1
100
AcDbEntity
  8
text_bubbles
100
AcDbCircle
 10
5.007317417034472
 20
7.145681965397724
 30
0.0
 40
0.15625
  0
CIRCLE
  5
EE0
330
10C1
100
AcDbEntity
  8
text_bubbles
100
AcDbCircle
 10
5.007317417034472
 20
7.571381144441634
 30
0.0
 40
0.15625
  0
TEXT
  5
EE1
330
10C1
100
AcDbEntity
  8
text_bubbles
100
AcDbText
 10
4.947793607510662
 20
7.083181965397724
 30
0.0
 40
0.125
  1
2
  7
ROMANS
 72
     4
 11
5.007317417034472
 21
7.145681965397724
 31
0.0
100
AcDbText
  0
TEXT
  5
EE2
330
10C1
100
AcDbEntity
  8
text_bubbles
100
AcDbText
 10
4.956722178939234
 20
7.508881144441634
 30
0.0
 40
0.125
  1
1
  7
ROMANS
 72
     4
 11
5.007317417034472
 21
7.571381144441634
 31
0.0
100
AcDbText
  0
LEADER
  5
1149
330
10C1
100
AcDbEntity
  8
text_bubbles
100
AcDbLeader
  3
STANDARD
 76
     2
 10
0.9211546182521173
 20
7.578008044209507
 30
0.0
 10
0.6521529046424028
 20
7.19682840883728
 30
0.0
  0
LEADER
  5
114A
330
10C1
100
AcDbEntity
  8
text_bubbles
100
AcDbLeader
  3
STANDARD
 76
     2
 10
1.024242718219613
 20
7.816812865323286
 30
0.0
 10
0.6859867176031483
 20
7.677471460209902
 30
0.0
  0
LEADER
  5
114D
330
10C1
100
AcDbEntity
  8
text_bubbles
100
AcDbLeader
  3
STANDARD
 76
     2
 10
2.570996219207269
 20
5.729847432933845
 30
0.0
 10
4.007002049946633
 20
5.425705827390169
 30
0.0
  0
LEADER
  5
114E
330
10C1
100
AcDbEntity
  8
text_bubbles
100
AcDbLeader
  3
STANDARD
 76
     2
 10
1.684914248225141
 20
5.808715589527022
 30
0.0
 10
0.6849878520202579
 20
5.980864983466661
 30
0.0
  0
LEADER
  5
1151
330
10C1
100
AcDbEntity
  8
text_bubbles
100
AcDbLeader
  3
STANDARD
 76
     2
 10
3.733688316705626
 20
7.349018870156037
 30
0.0
 10
4.059683329074204
 20
7.580292588283526
 30
0.0
  0
TEXT
  5
118C
330
10C1
100
AcDbEntity
  8
text_bubbles
100
AcDbText
 10
3.570765386324157
 20
8.182776995501868
 30
0.0
 40
0.125
  1
4
  7
ROMANS
 72
     4
 11
3.633265386324157
 21
8.245276995501868
 31
0.0
100
AcDbText
  0
CIRCLE
  5
118D
330
10C1
100
AcDbEntity
  8
text_bubbles
100
AcDbCircle
 10
3.633265386324157
 20
8.245276995501868
 30
0.0
 40
0.15625
  0
INSERT
  5
11A4
330
10C1
100
AcDbEntity
  8
title
100
AcDbBlockReference
 66
     1
  2
titleblock
 10
-0.4984554492313005
 20
-1.274218755967127
 30
0.0
  0
ATTRIB
  5
11A5
330
11A4
100
AcDbEntity
  8
title
100
AcDbText
 10
0.0071001545710415
 20
-0.48999165948876
 30
0.0
 40
0.2
  1
D
  7
L200
 72
     4
 11
0.1079869212831834
 21
-0.3899916594887599
 31
0.0
100
AcDbAttribute
  2
D
 70
     0
  0
ATTRIB
  5
11A6
330
11A4
100
AcDbEntity
  8
title
100
AcDbText
 10
0.7329869212831837
 20
0.0694935467796234
 30
0.0
 40
0.2
  1
XERI-POP MICRO-SPRAY 12" FROM
  7
L200
100
AcDbAttribute
  2
TITLE1
 70
     0
  0
ATTRIB
  5
11A7
330
11A4
100
AcDbEntity
  8
title
100
AcDbText
 10
0.7329869212831837
 20
-0.2899916594887597
 30
0.0
 40
0.2
  1
BARBED TRANSFER FITTING INTO 
  7
L200
100
AcDbAttribute
  2
TITLE2
 70
     0
  0
ATTRIB
  5
11A8
330
11A4
100
AcDbEntity
  8
title
100
AcDbText
 10
2.215190301937012
 20
-0.6814259895088083
 30
0.0
 40
0.2
  1
1/2" POLYETHYLENE TUBING
  7
L200
100
AcDbAttribute
  2
TITLE3
 70
     0
  0
ATTRIB
  5
11A9
330
11A4
100
AcDbEntity
  8
title
100
AcDbText
 10
2.215190301937012
 20
-1.004962675150353
 30
0.0
 40
0.2
  1
OPTION 3C
  7
L200
100
AcDbAttribute
  2
TITLE4
 70
     0
  0
ATTRIB
  5
11AA
330
11A4
100
AcDbEntity
  8
title
 62
     7
100
AcDbText
 10
7.194949856925554
 20
-0.3046159644224873
 30
0.0
 40
0.08
  1
1-21-10
  7
L80
 72
     2
 11
7.762568904544602
 21
-0.3046159644224873
 31
0.0
100
AcDbAttribute
  2
REVISED
 70
     0
  0
ATTRIB
  5
11AB
330
11A4
100
AcDbEntity
  8
title
 62
     7
100
AcDbText
 10
-0.2345130787168166
 20
-1.189507107946405
 30
0.0
 40
0.08
  1
Xeri-Pop 12 Option 3C.dwg
  7
L80
100
AcDbAttribute
  2
DWG-NAME
 70
     0
  0
ATTRIB
  5
11AC
330
11A4
100
AcDbEntity
  8
title
 62
     7
100
AcDbText
 10
0.7329869212831837
 20
-0.5736549765716378
 30
0.0
 40
0.1
  1
N.T.S.
  7
L100
100
AcDbAttribute
  2
SCALE
 70
     0
  0
SEQEND
  5
11AD
330
11A4
100
AcDbEntity
  8
title
  0
MTEXT
  5
12DA
102
{ACAD_XDICTIONARY
360
177D
102
}
330
10C1
100
AcDbEntity
  8
text_bubbles
100
AcDbMText
 10
5.296680084347973
 20
7.630022674976649
 30
0.0
 40
0.125
 41
4.202295919515166
 71
     1
 72
     5
  3
\A1;PLANT MATERIAL \P\PFINISH GRADE \P\P\pi-0.25,l0.25;MICRO-SPRAY POP-UP:\P\pt0.25;^IRAIN BIRD XERI-POP XP-1200X\P\pi0,l0,tz;{\H0.7x;\S1#4;\H1.4286x;" BARB TRANSFER CONNECTOR:\P\pi-0.25,l0.25,t0.25;^IRAIN BIRD XBF1CONN} \P\pi0,l0,tz;{\Fromans|c0;\H0.7
  3
x;\S1#2;\H1.4286x;" POLYETHYLENE TUBING:\P\pi-0.25,l0.25;  RAIN BIRD XF SERIES TUBING OR\P\pi0,l0;  RAIN BIRD XT-700 XERI-TUBE OR\P  RAIN BIRD XBS BLACK STRIPE TUBING}   \P\pi-0.25,l0.25;{\Fromans|c0;\H0.7x;\S1#4;\H1.4286x;" DISTRIBUTION TUBING:  \P 
  1
 RAIN BIRD XQ TUBING\P  (LENGTH AS REQUIRED)}
  7
SIMPLEX
 73
     1
 44
1.0
  0
MTEXT
  5
1352
102
{ACAD_XDICTIONARY
360
177F
102
}
330
10C1
100
AcDbEntity
  8
image
100
AcDbMText
 10
4.185426229692778
 20
3.930310722732845
 30
0.0
 40
0.125
 41
5.426689667285214
 71
     1
 72
     5
  1
NOTE:\P\pi-0.375,l0.375;1. RAIN BIRD XERI-POP CAN UTILIZE THE FOLLOWING NOZZLES:\P\pi0,l0;^ISQ SQUARE NOZZLES (FORMERLY XPCN)\P^I5 SERIES MPR NOZZLES (ALL CONFIGURATIONS)\P^I5 SERIES PLASTIC BUBBLERS\P^I8 SERIES MPR NOZZLES (8H, 8T AND 8Q)
  7
ROMANS
 73
     1
 44
1.0
  0
LINE
  5
1375
330
10C1
100
AcDbEntity
  8
0
100
AcDbLine
 10
3.317530617119238
 20
7.349584326593528
 30
0.0
 11
3.334363074685926
 21
7.349584326593528
 31
0.0
  0
LINE
  5
1378
330
10C1
100
AcDbEntity
  8
0
100
AcDbLine
 10
3.318278939373242
 20
7.279126924355495
 30
0.0
 11
3.334168496894115
 21
7.279126924355495
 31
0.0
  0
LEADER
  5
137D
330
10C1
100
AcDbEntity
  8
text_bubbles
100
AcDbLeader
  3
STANDARD
 76
     2
 10
3.295511269436093
 20
7.358796303279201
 30
0.0
 10
3.575898045535774
 20
8.099939282877549
 30
0.0
1001
ACAD
1000
DSTYLE
1002
{
1070
    44
1040
0.125
1070
   140
1040
0.125
1070
   176
1070
   256
1070
   177
1070
   256
1070
   178
1070
   256
1070
   340
1005
1345
1070
   371
1070
    -1
1070
   372
1070
    -1
1002
}
  0
POLYLINE
  5
148B
330
10C1
100
AcDbEntity
  8
image
100
AcDb2dPolyline
 66
     1
 10
0.0
 20
0.0
 30
0.0
 70
     4
 75
     6
  0
VERTEX
  5
148D
330
148B
100
AcDbEntity
  8
image
100
AcDbVertex
100
AcDb2dVertex
 10
3.317503039019243
 20
7.352180910182885
 30
0.0
 70
    16
  0
VERTEX
  5
14B5
330
148B
100
AcDbEntity
  8
image
100
AcDbVertex
100
AcDb2dVertex
 10
3.317503039019243
 20
7.352180910182885
 30
0.0
 70
     8
  0
VERTEX
  5
14B6
330
148B
100
AcDbEntity
  8
image
100
AcDbVertex
100
AcDb2dVertex
 10
3.312137226185706
 20
7.353020553410357
 30
0.0
 70
     8
  0
VERTEX
  5
14B7
330
148B
100
AcDbEntity
  8
image
100
AcDbVertex
100
AcDb2dVertex
 10
3.307542060548937
 20
7.354199144916917
 30
0.0
 70
     8
  0
VERTEX
  5
14B8
330
148B
100
AcDbEntity
  8
image
100
AcDbVertex
100
AcDb2dVertex
 10
3.303642465587212
 20
7.355628407425017
 30
0.0
 70
     8
  0
VERTEX
  5
14B9
330
148B
100
AcDbEntity
  8
image
100
AcDbVertex
100
AcDb2dVertex
 10
3.300363364778811
 20
7.357220063657116
 30
0.0
 70
     8
  0
VERTEX
  5
14BA
330
148B
100
AcDbEntity
  8
image
100
AcDbVertex
100
AcDb2dVertex
 10
3.297629681602013
 20
7.358885836335668
 30
0.0
 70
     8
  0
VERTEX
  5
14BB
330
148B
100
AcDbEntity
  8
image
100
AcDbVertex
100
AcDb2dVertex
 10
3.295366339535096
 20
7.360537448183126
 30
0.0
 70
     8
  0
VERTEX
  5
14BC
330
148B
100
AcDbEntity
  8
image
100
AcDbVertex
100
AcDb2dVertex
 10
3.293498262056339
 20
7.36208662192195
 30
0.0
 70
     8
  0
VERTEX
  5
14BD
330
148B
100
AcDbEntity
  8
image
100
AcDbVertex
100
AcDb2dVertex
 10
3.29195037264402
 20
7.36344508027459
 30
0.0
 70
     8
  0
VERTEX
  5
14BE
330
148B
100
AcDbEntity
  8
image
100
AcDbVertex
100
AcDb2dVertex
 10
3.290628639998452
 20
7.364537509552388
 30
0.0
 70
     8
  0
VERTEX
  5
14BF
330
148B
100
AcDbEntity
  8
image
100
AcDbVertex
100
AcDb2dVertex
 10
3.289363213708083
 20
7.365340450422216
 30
0.0
 70
     8
  0
VERTEX
  5
14C0
330
148B
100
AcDbEntity
  8
image
100
AcDbVertex
100
AcDb2dVertex
 10
3.287965288583396
 20
7.365843407139833
 30
0.0
 70
     8
  0
VERTEX
  5
14C1
330
148B
100
AcDbEntity
  8
image
100
AcDbVertex
100
AcDb2dVertex
 10
3.286246059434874
 20
7.366035883960994
 30
0.0
 70
     8
  0
VERTEX
  5
14C2
330
148B
100
AcDbEntity
  8
image
100
AcDbVertex
100
AcDb2dVertex
 10
3.284016721072998
 20
7.365907385141455
 30
0.0
 70
     8
  0
VERTEX
  5
14C3
330
148B
100
AcDbEntity
  8
image
100
AcDbVertex
100
AcDb2dVertex
 10
3.281088468308253
 20
7.365447414936975
 30
0.0
 70
     8
  0
VERTEX
  5
14C4
330
148B
100
AcDbEntity
  8
image
100
AcDbVertex
100
AcDb2dVertex
 10
3.277272495951119
 20
7.364645477603309
 30
0.0
 70
     8
  0
VERTEX
  5
14C5
330
148B
100
AcDbEntity
  8
image
100
AcDbVertex
100
AcDb2dVertex
 10
3.272379998812079
 20
7.363491077396215
 30
0.0
 70
     8
  0
VERTEX
  5
14C6
330
148B
100
AcDbEntity
  8
image
100
AcDbVertex
100
AcDb2dVertex
 10
3.266295382675561
 20
7.361989378030126
 30
0.0
 70
     8
  0
VERTEX
  5
14C7
330
148B
100
AcDbEntity
  8
image
100
AcDbVertex
100
AcDb2dVertex
 10
3.259195897221765
 20
7.360208181054183
 30
0.0
 70
     8
  0
VERTEX
  5
14C8
330
148B
100
AcDbEntity
  8
image
100
AcDbVertex
100
AcDb2dVertex
 10
3.251332003104835
 20
7.358230947476204
 30
0.0
 70
     8
  0
VERTEX
  5
14C9
330
148B
100
AcDbEntity
  8
image
100
AcDbVertex
100
AcDb2dVertex
 10
3.242954160978917
 20
7.35614113830401
 30
0.0
 70
     8
  0
VERTEX
  5
14CA
330
148B
100
AcDbEntity
  8
image
100
AcDbVertex
100
AcDb2dVertex
 10
3.234312831498154
 20
7.354022214545414
 30
0.0
 70
     8
  0
VERTEX
  5
14CB
330
148B
100
AcDbEntity
  8
image
100
AcDbVertex
100
AcDb2dVertex
 10
3.225658475316691
 20
7.351957637208238
 30
0.0
 70
     8
  0
VERTEX
  5
14CC
330
148B
100
AcDbEntity
  8
image
100
AcDbVertex
100
AcDb2dVertex
 10
3.217241553088674
 20
7.3500308673003
 30
0.0
 70
     8
  0
VERTEX
  5
14CD
330
148B
100
AcDbEntity
  8
image
100
AcDbVertex
100
AcDb2dVertex
 10
3.209312525468246
 20
7.348325365829416
 30
0.0
 70
     8
  0
VERTEX
  5
14CE
330
148B
100
AcDbEntity
  8
image
100
AcDbVertex
100
AcDb2dVertex
 10
3.202019079597009
 20
7.346904317087696
 30
0.0
 70
     8
  0
VERTEX
  5
14CF
330
148B
100
AcDbEntity
  8
image
100
AcDbVertex
100
AcDb2dVertex
 10
3.195097808566386
 20
7.345749798504415
 30
0.0
 70
     8
  0
VERTEX
  5
14D0
330
148B
100
AcDbEntity
  8
image
100
AcDbVertex
100
AcDb2dVertex
 10
3.188182531955257
 20
7.344823610793135
 30
0.0
 70
     8
  0
VERTEX
  5
14D1
330
148B
100
AcDbEntity
  8
image
100
AcDbVertex
100
AcDb2dVertex
 10
3.180907069342505
 20
7.344087554667423
 30
0.0
 70
     8
  0
VERTEX
  5
14D2
330
148B
100
AcDbEntity
  8
image
100
AcDbVertex
100
AcDb2dVertex
 10
3.172905240307007
 20
7.343503430840841
 30
0.0
 70
     8
  0
VERTEX
  5
14D3
330
148B
100
AcDbEntity
  8
image
100
AcDbVertex
100
AcDb2dVertex
 10
3.163810864427645
 20
7.343033040026955
 30
0.0
 70
     8
  0
VERTEX
  5
14D4
330
148B
100
AcDbEntity
  8
image
100
AcDbVertex
100
AcDb2dVertex
 10
3.153257761283299
 20
7.342638182939329
 30
0.0
 70
     8
  0
VERTEX
  5
14D5
330
148B
100
AcDbEntity
  8
image
100
AcDbVertex
100
AcDb2dVertex
 10
3.14087975045285
 20
7.342280660291527
 30
0.0
 70
     8
  0
VERTEX
  5
14D6
330
148B
100
AcDbEntity
  8
image
100
AcDbVertex
100
AcDb2dVertex
 10
3.126447719105324
 20
7.341926465819853
 30
0.0
 70
     8
  0
VERTEX
  5
14D7
330
148B
100
AcDbEntity
  8
image
100
AcDbVertex
100
AcDb2dVertex
 10
3.110280824770334
 20
7.341558365351562
 30
0.0
 70
     8
  0
VERTEX
  5
14D8
330
148B
100
AcDbEntity
  8
image
100
AcDbVertex
100
AcDb2dVertex
 10
3.092835292567641
 20
7.341163317736646
 30
0.0
 70
     8
  0
VERTEX
  5
14D9
330
148B
100
AcDbEntity
  8
image
100
AcDbVertex
100
AcDb2dVertex
 10
3.074567347617004
 20
7.340728281825099
 30
0.0
 70
     8
  0
VERTEX
  5
14DA
330
148B
100
AcDbEntity
  8
image
100
AcDbVertex
100
AcDb2dVertex
 10
3.055933215038184
 20
7.340240216466915
 30
0.0
 70
     8
  0
VERTEX
  5
14DB
330
148B
100
AcDbEntity
  8
image
100
AcDbVertex
100
AcDb2dVertex
 10
3.037389119950941
 20
7.339686080512087
 30
0.0
 70
     8
  0
VERTEX
  5
14DC
330
148B
100
AcDbEntity
  8
image
100
AcDbVertex
100
AcDb2dVertex
 10
3.019391287475034
 20
7.339052832810608
 30
0.0
 70
     8
  0
VERTEX
  5
14DD
330
148B
100
AcDbEntity
  8
image
100
AcDbVertex
100
AcDb2dVertex
 10
3.002395942730224
 20
7.338327432212472
 30
0.0
 70
     8
  0
VERTEX
  5
14DE
330
148B
100
AcDbEntity
  8
image
100
AcDbVertex
100
AcDb2dVertex
 10
2.986749472609682
 20
7.337498557949657
 30
0.0
 70
     8
  0
VERTEX
  5
14DF
330
148B
100
AcDbEntity
  8
image
100
AcDbVertex
100
AcDb2dVertex
 10
2.972358911100228
 20
7.336561770782084
 30
0.0
 70
     8
  0
VERTEX
  5
14E0
330
148B
100
AcDbEntity
  8
image
100
AcDbVertex
100
AcDb2dVertex
 10
2.959021453962091
 20
7.335514351851659
 30
0.0
 70
     8
  0
VERTEX
  5
14E1
330
148B
100
AcDbEntity
  8
image
100
AcDbVertex
100
AcDb2dVertex
 10
2.946534296955503
 20
7.33435358230029
 30
0.0
 70
     8
  0
VERTEX
  5
14E2
330
148B
100
AcDbEntity
  8
image
100
AcDbVertex
100
AcDb2dVertex
 10
2.934694635840694
 20
7.333076743269883
 30
0.0
 70
     8
  0
VERTEX
  5
14E3
330
148B
100
AcDbEntity
  8
image
100
AcDbVertex
100
AcDb2dVertex
 10
2.923299666377895
 20
7.331681115902342
 30
0.0
 70
     8
  0
VERTEX
  5
14E4
330
148B
100
AcDbEntity
  8
image
100
AcDbVertex
100
AcDb2dVertex
 10
2.912146584327336
 20
7.330163981339577
 30
0.0
 70
     8
  0
VERTEX
  5
14E5
330
148B
100
AcDbEntity
  8
image
100
AcDbVertex
100
AcDb2dVertex
 10
2.901032585449248
 20
7.328522620723492
 30
0.0
 70
     8
  0
VERTEX
  5
14E6
330
148B
100
AcDbEntity
  8
image
100
AcDbVertex
100
AcDb2dVertex
 10
2.889791750361742
 20
7.326753908298216
 30
0.0
 70
     8
  0
VERTEX
  5
14E7
330
148B
100
AcDbEntity
  8
image
100
AcDbVertex
100
AcDb2dVertex
 10
2.878405699114448
 20
7.324853090716763
 30
0.0
 70
     8
  0
VERTEX
  5
14E8
330
148B
100
AcDbEntity
  8
image
100
AcDbVertex
100
AcDb2dVertex
 10
2.866892936614878
 20
7.322815007734368
 30
0.0
 70
     8
  0
VERTEX
  5
14E9
330
148B
100
AcDbEntity
  8
image
100
AcDbVertex
100
AcDb2dVertex
 10
2.855271967770542
 20
7.32063449910627
 30
0.0
 70
     8
  0
VERTEX
  5
14EA
330
148B
100
AcDbEntity
  8
image
100
AcDbVertex
100
AcDb2dVertex
 10
2.843561297488951
 20
7.318306404587701
 30
0.0
 70
     8
  0
VERTEX
  5
14EB
330
148B
100
AcDbEntity
  8
image
100
AcDbVertex
100
AcDb2dVertex
 10
2.831779430677615
 20
7.315825563933901
 30
0.0
 70
     8
  0
VERTEX
  5
14EC
330
148B
100
AcDbEntity
  8
image
100
AcDbVertex
100
AcDb2dVertex
 10
2.819944872244047
 20
7.313186816900104
 30
0.0
 70
     8
  0
VERTEX
  5
14ED
330
148B
100
AcDbEntity
  8
image
100
AcDbVertex
100
AcDb2dVertex
 10
2.808076127095757
 20
7.310385003241546
 30
0.0
 70
     8
  0
VERTEX
  5
14EE
330
148B
100
AcDbEntity
  8
image
100
AcDbVertex
100
AcDb2dVertex
 10
2.796192325144908
 20
7.3074161077327
 30
0.0
 70
     8
  0
VERTEX
  5
14EF
330
148B
100
AcDbEntity
  8
image
100
AcDbVertex
100
AcDb2dVertex
 10
2.784315096322281
 20
7.304280695224984
 30
0.0
 70
     8
  0
VERTEX
  5
14F0
330
148B
100
AcDbEntity
  8
image
100
AcDbVertex
100
AcDb2dVertex
 10
2.772466695563308
 20
7.300980475589049
 30
0.0
 70
     8
  0
VERTEX
  5
14F1
330
148B
100
AcDbEntity
  8
image
100
AcDbVertex
100
AcDb2dVertex
 10
2.760669377803423
 20
7.297517158695551
 30
0.0
 70
     8
  0
VERTEX
  5
14F2
330
148B
100
AcDbEntity
  8
image
100
AcDbVertex
100
AcDb2dVertex
 10
2.748945397978058
 20
7.293892454415143
 30
0.0
 70
     8
  0
VERTEX
  5
14F3
330
148B
100
AcDbEntity
  8
image
100
AcDbVertex
100
AcDb2dVertex
 10
2.737317011022645
 20
7.290108072618477
 30
0.0
 70
     8
  0
VERTEX
  5
14F4
330
148B
100
AcDbEntity
  8
image
100
AcDbVertex
100
AcDb2dVertex
 10
2.72580647187262
 20
7.286165723176208
 30
0.0
 70
     8
  0
VERTEX
  5
14F5
330
148B
100
AcDbEntity
  8
image
100
AcDbVertex
100
AcDb2dVertex
 10
2.714436035463413
 20
7.28206711595899
 30
0.0
 70
     8
  0
VERTEX
  5
14F6
330
148B
100
AcDbEntity
  8
image
100
AcDbVertex
100
AcDb2dVertex
 10
2.703226151597498
 20
7.277809246830867
 30
0.0
 70
     8
  0
VERTEX
  5
14F7
330
148B
100
AcDbEntity
  8
image
100
AcDbVertex
100
AcDb2dVertex
 10
2.692190049545505
 20
7.273370255629455
 30
0.0
 70
     8
  0
VERTEX
  5
14F8
330
148B
100
AcDbEntity
  8
image
100
AcDbVertex
100
AcDb2dVertex
 10
2.681339153445103
 20
7.268723568185762
 30
0.0
 70
     8
  0
VERTEX
  5
14F9
330
148B
100
AcDbEntity
  8
image
100
AcDbVertex
100
AcDb2dVertex
 10
2.670684887433962
 20
7.263842610330797
 30
0.0
 70
     8
  0
VERTEX
  5
14FA
330
148B
100
AcDbEntity
  8
image
100
AcDbVertex
100
AcDb2dVertex
 10
2.660238675649753
 20
7.258700807895567
 30
0.0
 70
     8
  0
VERTEX
  5
14FB
330
148B
100
AcDbEntity
  8
image
100
AcDbVertex
100
AcDb2dVertex
 10
2.650011942230144
 20
7.25327158671108
 30
0.0
 70
     8
  0
VERTEX
  5
14FC
330
148B
100
AcDbEntity
  8
image
100
AcDbVertex
100
AcDb2dVertex
 10
2.640016111312805
 20
7.247528372608343
 30
0.0
 70
     8
  0
VERTEX
  5
14FD
330
148B
100
AcDbEntity
  8
image
100
AcDbVertex
100
AcDb2dVertex
 10
2.630262607035406
 20
7.241444591418364
 30
0.0
 70
     8
  0
VERTEX
  5
14FE
330
148B
100
AcDbEntity
  8
image
100
AcDbVertex
100
AcDb2dVertex
 10
2.620764946868521
 20
7.235002065167977
 30
0.0
 70
     8
  0
VERTEX
  5
14FF
330
148B
100
AcDbEntity
  8
image
100
AcDbVertex
100
AcDb2dVertex
 10
2.611545021614336
 20
7.228216200667316
 30
0.0
 70
     8
  0
VERTEX
  5
1500
330
148B
100
AcDbEntity
  8
image
100
AcDbVertex
100
AcDb2dVertex
 10
2.602626815407945
 20
7.221110800922342
 30
0.0
 70
     8
  0
VERTEX
  5
1501
330
148B
100
AcDbEntity
  8
image
100
AcDbVertex
100
AcDb2dVertex
 10
2.594034312384439
 20
7.213709668939013
 30
0.0
 70
     8
  0
VERTEX
  5
1502
330
148B
100
AcDbEntity
  8
image
100
AcDbVertex
100
AcDb2dVertex
 10
2.585791496678909
 20
7.20603660772329
 30
0.0
 70
     8
  0
VERTEX
  5
1503
330
148B
100
AcDbEntity
  8
image
100
AcDbVertex
100
AcDb2dVertex
 10
2.577922352426446
 20
7.198115420281133
 30
0.0
 70
     8
  0
VERTEX
  5
1504
330
148B
100
AcDbEntity
  8
image
100
AcDbVertex
100
AcDb2dVertex
 10
2.570450863762144
 20
7.189969909618501
 30
0.0
 70
     8
  0
VERTEX
  5
1505
330
148B
100
AcDbEntity
  8
image
100
AcDbVertex
100
AcDb2dVertex
 10
2.563401014821093
 20
7.181623878741354
 30
0.0
 70
     8
  0
VERTEX
  5
1506
330
148B
100
AcDbEntity
  8
image
100
AcDbVertex
100
AcDb2dVertex
 10
2.556793912675439
 20
7.173107956686216
 30
0.0
 70
     8
  0
VERTEX
  5
1507
330
148B
100
AcDbEntity
  8
image
100
AcDbVertex
100
AcDb2dVertex
 10
2.550639156145544
 20
7.164480076611858
 30
0.0
 70
     8
  0
VERTEX
  5
1508
330
148B
100
AcDbEntity
  8
image
100
AcDbVertex
100
AcDb2dVertex
 10
2.544943466988825
 20
7.155804997707615
 30
0.0
 70
     8
  0
VERTEX
  5
1509
330
148B
100
AcDbEntity
  8
image
100
AcDbVertex
100
AcDb2dVertex
 10
2.539713566962697
 20
7.147147479162821
 30
0.0
 70
     8
  0
VERTEX
  5
150A
330
148B
100
AcDbEntity
  8
image
100
AcDbVertex
100
AcDb2dVertex
 10
2.534956177824578
 20
7.138572280166813
 30
0.0
 70
     8
  0
VERTEX
  5
150B
330
148B
100
AcDbEntity
  8
image
100
AcDbVertex
100
AcDb2dVertex
 10
2.530678021331882
 20
7.130144159908923
 30
0.0
 70
     8
  0
VERTEX
  5
150C
330
148B
100
AcDbEntity
  8
image
100
AcDbVertex
100
AcDb2dVertex
 10
2.526885819242028
 20
7.121927877578489
 30
0.0
 70
     8
  0
VERTEX
  5
150D
330
148B
100
AcDbEntity
  8
image
100
AcDbVertex
100
AcDb2dVertex
 10
2.523586293312429
 20
7.113988192364843
 30
0.0
 70
     8
  0
VERTEX
  5
150E
330
148B
100
AcDbEntity
  8
image
100
AcDbVertex
100
AcDb2dVertex
 10
2.520776992481359
 20
7.106238735673604
 30
0.0
 70
     8
  0
VERTEX
  5
150F
330
148B
100
AcDbEntity
  8
image
100
AcDbVertex
100
AcDb2dVertex
 10
2.518418774410506
 20
7.097988627775525
 30
0.0
 70
     8
  0
VERTEX
  5
1510
330
148B
100
AcDbEntity
  8
image
100
AcDbVertex
100
AcDb2dVertex
 10
2.516463323942416
 20
7.088395861157644
 30
0.0
 70
     8
  0
VERTEX
  5
1511
330
148B
100
AcDbEntity
  8
image
100
AcDbVertex
100
AcDb2dVertex
 10
2.514862325919634
 20
7.076618428306995
 30
0.0
 70
     8
  0
VERTEX
  5
1512
330
148B
100
AcDbEntity
  8
image
100
AcDbVertex
100
AcDb2dVertex
 10
2.513567465184705
 20
7.061814321710616
 30
0.0
 70
     8
  0
VERTEX
  5
1513
330
148B
100
AcDbEntity
  8
image
100
AcDbVertex
100
AcDb2dVertex
 10
2.512530426580174
 20
7.043141533855543
 30
0.0
 70
     8
  0
VERTEX
  5
1514
330
148B
100
AcDbEntity
  8
image
100
AcDbVertex
100
AcDb2dVertex
 10
2.511702894948586
 20
7.019758057228812
 30
0.0
 70
     8
  0
VERTEX
  5
1515
330
148B
100
AcDbEntity
  8
image
100
AcDbVertex
100
AcDb2dVertex
 10
2.511036555132485
 20
6.990821884317461
 30
0.0
 70
     8
  0
VERTEX
  5
1516
330
148B
100
AcDbEntity
  8
image
100
AcDbVertex
100
AcDb2dVertex
 10
2.510488468254811
 20
6.955797175065249
 30
0.0
 70
     8
  0
VERTEX
  5
1517
330
148B
100
AcDbEntity
  8
image
100
AcDbVertex
100
AcDb2dVertex
 10
2.510037200560078
 20
6.915372759242842
 30
0.0
 70
     8
  0
VERTEX
  5
1518
330
148B
100
AcDbEntity
  8
image
100
AcDbVertex
100
AcDb2dVertex
 10
2.509666694573195
 20
6.870543634077625
 30
0.0
 70
     8
  0
VERTEX
  5
1519
330
148B
100
AcDbEntity
  8
image
100
AcDbVertex
100
AcDb2dVertex
 10
2.50936089281907
 20
6.822304796796988
 30
0.0
 70
     8
  0
VERTEX
  5
151A
330
148B
100
AcDbEntity
  8
image
100
AcDbVertex
100
AcDb2dVertex
 10
2.509103737822612
 20
6.771651244628318
 30
0.0
 70
     8
  0
VERTEX
  5
151B
330
148B
100
AcDbEntity
  8
image
100
AcDbVertex
100
AcDb2dVertex
 10
2.508879172108729
 20
6.719577974799004
 30
0.0
 70
     8
  0
VERTEX
  5
151C
330
148B
100
AcDbEntity
  8
image
100
AcDbVertex
100
AcDb2dVertex
 10
2.508671138202329
 20
6.667079984536432
 30
0.0
 70
     8
  0
VERTEX
  5
151D
330
148B
100
AcDbEntity
  8
image
100
AcDbVertex
100
AcDb2dVertex
 10
2.508463578628322
 20
6.615152271067991
 30
0.0
 70
     8
  0
VERTEX
  5
151E
330
148B
100
AcDbEntity
  8
image
100
AcDbVertex
100
AcDb2dVertex
 10
2.508243282173228
 20
6.564620482871092
 30
0.0
 70
     8
  0
VERTEX
  5
151F
330
148B
100
AcDbEntity
  8
image
100
AcDbVertex
100
AcDb2dVertex
 10
2.508008422670024
 20
6.515632873423231
 30
0.0
 70
     8
  0
VERTEX
  5
1520
330
148B
100
AcDbEntity
  8
image
100
AcDbVertex
100
AcDb2dVertex
 10
2.507760020213297
 20
6.468168347451928
 30
0.0
 70
     8
  0
VERTEX
  5
1521
330
148B
100
AcDbEntity
  8
image
100
AcDbVertex
100
AcDb2dVertex
 10
2.507499094897637
 20
6.422205809684704
 30
0.0
 70
     8
  0
VERTEX
  5
1522
330
148B
100
AcDbEntity
  8
image
100
AcDbVertex
100
AcDb2dVertex
 10
2.507226666817633
 20
6.377724164849076
 30
0.0
 70
     8
  0
VERTEX
  5
1523
330
148B
100
AcDbEntity
  8
image
100
AcDbVertex
100
AcDb2dVertex
 10
2.506943756067872
 20
6.334702317672564
 30
0.0
 70
     8
  0
VERTEX
  5
1524
330
148B
100
AcDbEntity
  8
image
100
AcDbVertex
100
AcDb2dVertex
 10
2.506651382742943
 20
6.29311917288269
 30
0.0
 70
     8
  0
VERTEX
  5
1525
330
148B
100
AcDbEntity
  8
image
100
AcDbVertex
100
AcDb2dVertex
 10
2.506350566937436
 20
6.252953635206972
 30
0.0
 70
     8
  0
VERTEX
  5
1526
330
148B
100
AcDbEntity
  8
image
100
AcDbVertex
100
AcDb2dVertex
 10
2.506042207215771
 20
6.214183545333663
 30
0.0
 70
     8
  0
VERTEX
  5
1527
330
148B
100
AcDbEntity
  8
image
100
AcDbVertex
100
AcDb2dVertex
 10
2.505726716021702
 20
6.176782487793957
 30
0.0
 70
     8
  0
VERTEX
  5
1528
330
148B
100
AcDbEntity
  8
image
100
AcDbVertex
100
AcDb2dVertex
 10
2.505404384268815
 20
6.140722983079781
 30
0.0
 70
     8
  0
VERTEX
  5
1529
330
148B
100
AcDbEntity
  8
image
100
AcDbVertex
100
AcDb2dVertex
 10
2.505075502870696
 20
6.105977551683063
 30
0.0
 70
     8
  0
VERTEX
  5
152A
330
148B
100
AcDbEntity
  8
image
100
AcDbVertex
100
AcDb2dVertex
 10
2.504740362740931
 20
6.072518714095731
 30
0.0
 70
     8
  0
VERTEX
  5
152B
330
148B
100
AcDbEntity
  8
image
100
AcDbVertex
100
AcDb2dVertex
 10
2.504399254793106
 20
6.040318990809711
 30
0.0
 70
     8
  0
VERTEX
  5
152C
330
148B
100
AcDbEntity
  8
image
100
AcDbVertex
100
AcDb2dVertex
 10
2.504052469940807
 20
6.009350902316931
 30
0.0
 70
     8
  0
VERTEX
  5
152D
330
148B
100
AcDbEntity
  8
image
100
AcDbVertex
100
AcDb2dVertex
 10
2.50370029909762
 20
5.97958696910932
 30
0.0
 70
     8
  0
VERTEX
  5
152E
330
148B
100
AcDbEntity
  8
image
100
AcDbVertex
100
AcDb2dVertex
 10
2.503343033177131
 20
5.950999711678803
 30
0.0
 70
     8
  0
VERTEX
  5
152F
330
148B
100
AcDbEntity
  8
image
100
AcDbVertex
100
AcDb2dVertex
 10
2.502980963092927
 20
5.923561650517309
 30
0.0
 70
     8
  0
VERTEX
  5
1530
330
148B
100
AcDbEntity
  8
image
100
AcDbVertex
100
AcDb2dVertex
 10
2.502614379758592
 20
5.897245306116765
 30
0.0
 70
     8
  0
VERTEX
  5
1531
330
148B
100
AcDbEntity
  8
image
100
AcDbVertex
100
AcDb2dVertex
 10
2.502243574087715
 20
5.8720231989691
 30
0.0
 70
     8
  0
VERTEX
  5
1532
330
148B
100
AcDbEntity
  8
image
100
AcDbVertex
100
AcDb2dVertex
 10
2.501868836993879
 20
5.847867849566239
 30
0.0
 70
     8
  0
VERTEX
  5
1533
330
148B
100
AcDbEntity
  8
image
100
AcDbVertex
100
AcDb2dVertex
 10
2.501490459390672
 20
5.824751778400111
 30
0.0
 70
     8
  0
VERTEX
  5
1534
330
148B
100
AcDbEntity
  8
image
100
AcDbVertex
100
AcDb2dVertex
 10
2.50110873219168
 20
5.802647505962642
 30
0.0
 70
     8
  0
VERTEX
  5
1535
330
148B
100
AcDbEntity
  8
image
100
AcDbVertex
100
AcDb2dVertex
 10
2.500723946310487
 20
5.781527552745761
 30
0.0
 70
     8
  0
VERTEX
  5
1536
330
148B
100
AcDbEntity
  8
image
100
AcDbVertex
100
AcDb2dVertex
 10
2.500336392660682
 20
5.761364439241396
 30
0.0
 70
     8
  0
VERTEX
  5
1537
330
148B
100
AcDbEntity
  8
image
100
AcDbVertex
100
AcDb2dVertex
 10
2.499946362155849
 20
5.742130685941474
 30
0.0
 70
     8
  0
VERTEX
  5
1538
330
148B
100
AcDbEntity
  8
image
100
AcDbVertex
100
AcDb2dVertex
 10
2.499554145709575
 20
5.723798813337921
 30
0.0
 70
     8
  0
VERTEX
  5
1539
330
148B
100
AcDbEntity
  8
image
100
AcDbVertex
100
AcDb2dVertex
 10
2.499160034235445
 20
5.706341341922667
 30
0.0
 70
     8
  0
VERTEX
  5
153A
330
148B
100
AcDbEntity
  8
image
100
AcDbVertex
100
AcDb2dVertex
 10
2.498764318647046
 20
5.689730792187637
 30
0.0
 70
     8
  0
VERTEX
  5
153B
330
148B
100
AcDbEntity
  8
image
100
AcDbVertex
100
AcDb2dVertex
 10
2.498367289857965
 20
5.67393968462476
 30
0.0
 70
     8
  0
VERTEX
  5
153C
330
148B
100
AcDbEntity
  8
image
100
AcDbVertex
100
AcDb2dVertex
 10
2.497969238781786
 20
5.658940539725963
 30
0.0
 70
     8
  0
VERTEX
  5
153D
330
148B
100
AcDbEntity
  8
image
100
AcDbVertex
100
AcDb2dVertex
 10
2.497570456332095
 20
5.644705877983174
 30
0.0
 70
     8
  0
VERTEX
  5
153E
330
148B
100
AcDbEntity
  8
image
100
AcDbVertex
100
AcDb2dVertex
 10
2.497170316742909
 20
5.631196767876361
 30
0.0
 70
     8
  0
VERTEX
  5
153F
330
148B
100
AcDbEntity
  8
image
100
AcDbVertex
100
AcDb2dVertex
 10
2.496764527529959
 20
5.618328469837661
 30
0.0
 70
     8
  0
VERTEX
  5
1540
330
148B
100
AcDbEntity
  8
image
100
AcDbVertex
100
AcDb2dVertex
 10
2.496347879529404
 20
5.606004792287249
 30
0.0
 70
     8
  0
VERTEX
  5
1541
330
148B
100
AcDbEntity
  8
image
100
AcDbVertex
100
AcDb2dVertex
 10
2.495915163577406
 20
5.594129543645303
 30
0.0
 70
     8
  0
VERTEX
  5
1542
330
148B
100
AcDbEntity
  8
image
100
AcDbVertex
100
AcDb2dVertex
 10
2.495461170510126
 20
5.582606532332
 30
0.0
 70
     8
  0
VERTEX
  5
1543
330
148B
100
AcDbEntity
  8
image
100
AcDbVertex
100
AcDb2dVertex
 10
2.494980691163724
 20
5.571339566767518
 30
0.0
 70
     8
  0
VERTEX
  5
1544
330
148B
100
AcDbEntity
  8
image
100
AcDbVertex
100
AcDb2dVertex
 10
2.49446851637436
 20
5.560232455372033
 30
0.0
 70
     8
  0
VERTEX
  5
1545
330
148B
100
AcDbEntity
  8
image
100
AcDbVertex
100
AcDb2dVertex
 10
2.493919436978195
 20
5.549189006565722
 30
0.0
 70
     8
  0
VERTEX
  5
1546
330
148B
100
AcDbEntity
  8
image
100
AcDbVertex
100
AcDb2dVertex
 10
2.493329392585711
 20
5.538130074282151
 30
0.0
 70
     8
  0
VERTEX
  5
1547
330
148B
100
AcDbEntity
  8
image
100
AcDbVertex
100
AcDb2dVertex
 10
2.492698917904675
 20
5.527044694508448
 30
0.0
 70
     8
  0
VERTEX
  5
1548
330
148B
100
AcDbEntity
  8
image
100
AcDbVertex
100
AcDb2dVertex
 10
2.492029696417175
 20
5.515938948745127
 30
0.0
 70
     8
  0
VERTEX
  5
1549
330
148B
100
AcDbEntity
  8
image
100
AcDbVertex
100
AcDb2dVertex
 10
2.4913234116053
 20
5.504818918492706
 30
0.0
 70
     8
  0
VERTEX
  5
154A
330
148B
100
AcDbEntity
  8
image
100
AcDbVertex
100
AcDb2dVertex
 10
2.490581746951138
 20
5.493690685251698
 30
0.0
 70
     8
  0
VERTEX
  5
154B
330
148B
100
AcDbEntity
  8
image
100
AcDbVertex
100
AcDb2dVertex
 10
2.489806385936777
 20
5.482560330522622
 30
0.0
 70
     8
  0
VERTEX
  5
154C
330
148B
100
AcDbEntity
  8
image
100
AcDbVertex
100
AcDb2dVertex
 10
2.488999012044307
 20
5.471433935805992
 30
0.0
 70
     8
  0
VERTEX
  5
154D
330
148B
100
AcDbEntity
  8
image
100
AcDbVertex
100
AcDb2dVertex
 10
2.488161308755814
 20
5.460317582602325
 30
0.0
 70
     8
  0
VERTEX
  5
154E
330
148B
100
AcDbEntity
  8
image
100
AcDbVertex
100
AcDb2dVertex
 10
2.487295171931399
 20
5.449215121123962
 30
0.0
 70
     8
  0
VERTEX
  5
154F
330
148B
100
AcDbEntity
  8
image
100
AcDbVertex
100
AcDb2dVertex
 10
2.486403346943209
 20
5.438121476430547
 30
0.0
 70
     8
  0
VERTEX
  5
1550
330
148B
100
AcDbEntity
  8
image
100
AcDbVertex
100
AcDb2dVertex
 10
2.485488791541401
 20
5.427029342293549
 30
0.0
 70
     8
  0
VERTEX
  5
1551
330
148B
100
AcDbEntity
  8
image
100
AcDbVertex
100
AcDb2dVertex
 10
2.484554463476133
 20
5.415931412484437
 30
0.0
 70
     8
  0
VERTEX
  5
1552
330
148B
100
AcDbEntity
  8
image
100
AcDbVertex
100
AcDb2dVertex
 10
2.483603320497562
 20
5.404820380774681
 30
0.0
 70
     8
  0
VERTEX
  5
1553
330
148B
100
AcDbEntity
  8
image
100
AcDbVertex
100
AcDb2dVertex
 10
2.482638320355846
 20
5.393688940935749
 30
0.0
 70
     8
  0
VERTEX
  5
1554
330
148B
100
AcDbEntity
  8
image
100
AcDbVertex
100
AcDb2dVertex
 10
2.481662420801144
 20
5.382529786739112
 30
0.0
 70
     8
  0
VERTEX
  5
1555
330
148B
100
AcDbEntity
  8
image
100
AcDbVertex
100
AcDb2dVertex
 10
2.480678579583613
 20
5.371335611956237
 30
0.0
 70
     8
  0
VERTEX
  5
1556
330
148B
100
AcDbEntity
  8
image
100
AcDbVertex
100
AcDb2dVertex
 10
2.479690741109828
 20
5.360101287677366
 30
0.0
 70
     8
  0
VERTEX
  5
1557
330
148B
100
AcDbEntity
  8
image
100
AcDbVertex
100
AcDb2dVertex
 10
2.478706796412036
 20
5.348830394267812
 30
0.0
 70
     8
  0
VERTEX
  5
1558
330
148B
100
AcDbEntity
  8
image
100
AcDbVertex
100
AcDb2dVertex
 10
2.477735623178903
 20
5.337528689411663
 30
0.0
 70
     8
  0
VERTEX
  5
1559
330
148B
100
AcDbEntity
  8
image
100
AcDbVertex
100
AcDb2dVertex
 10
2.476786099099092
 20
5.326201930793003
 30
0.0
 70
     8
  0
VERTEX
  5
155A
330
148B
100
AcDbEntity
  8
image
100
AcDbVertex
100
AcDb2dVertex
 10
2.475867101861268
 20
5.314855876095919
 30
0.0
 70
     8
  0
VERTEX
  5
155B
330
148B
100
AcDbEntity
  8
image
100
AcDbVertex
100
AcDb2dVertex
 10
2.474987509154097
 20
5.303496283004497
 30
0.0
 70
     8
  0
VERTEX
  5
155C
330
148B
100
AcDbEntity
  8
image
100
AcDbVertex
100
AcDb2dVertex
 10
2.474156198666241
 20
5.29212890920282
 30
0.0
 70
     8
  0
VERTEX
  5
155D
330
148B
100
AcDbEntity
  8
image
100
AcDbVertex
100
AcDb2dVertex
 10
2.473382048086368
 20
5.280759512374978
 30
0.0
 70
     8
  0
VERTEX
  5
155E
330
148B
100
AcDbEntity
  8
image
100
AcDbVertex
100
AcDb2dVertex
 10
2.472672624216279
 20
5.269390154390213
 30
0.0
 70
     8
  0
VERTEX
  5
155F
330
148B
100
AcDbEntity
  8
image
100
AcDbVertex
100
AcDb2dVertex
 10
2.472030250310339
 20
5.258008113858409
 30
0.0
 70
     8
  0
VERTEX
  5
1560
330
148B
100
AcDbEntity
  8
image
100
AcDbVertex
100
AcDb2dVertex
 10
2.47145593873605
 20
5.24659697357461
 30
0.0
 70
     8
  0
VERTEX
  5
1561
330
148B
100
AcDbEntity
  8
image
100
AcDbVertex
100
AcDb2dVertex
 10
2.470950701860915
 20
5.235140316333859
 30
0.0
 70
     8
  0
VERTEX
  5
1562
330
148B
100
AcDbEntity
  8
image
100
AcDbVertex
100
AcDb2dVertex
 10
2.470515552052436
 20
5.223621724931197
 30
0.0
 70
     8
  0
VERTEX
  5
1563
330
148B
100
AcDbEntity
  8
image
100
AcDbVertex
100
AcDb2dVertex
 10
2.470151501678115
 20
5.21202478216167
 30
0.0
 70
     8
  0
VERTEX
  5
1564
330
148B
100
AcDbEntity
  8
image
100
AcDbVertex
100
AcDb2dVertex
 10
2.469859563105455
 20
5.200333070820318
 30
0.0
 70
     8
  0
VERTEX
  5
1565
330
148B
100
AcDbEntity
  8
image
100
AcDbVertex
100
AcDb2dVertex
 10
2.469640748701959
 20
5.188530173702186
 30
0.0
 70
     8
  0
VERTEX
  5
1566
330
148B
100
AcDbEntity
  8
image
100
AcDbVertex
100
AcDb2dVertex
 10
2.469494539303229
 20
5.176629058591728
 30
0.0
 70
     8
  0
VERTEX
  5
1567
330
148B
100
AcDbEntity
  8
image
100
AcDbVertex
100
AcDb2dVertex
 10
2.469414289617268
 20
5.164760233231046
 30
0.0
 70
     8
  0
VERTEX
  5
1568
330
148B
100
AcDbEntity
  8
image
100
AcDbVertex
100
AcDb2dVertex
 10
2.46939182282018
 20
5.153083590351649
 30
0.0
 70
     8
  0
VERTEX
  5
1569
330
148B
100
AcDbEntity
  8
image
100
AcDbVertex
100
AcDb2dVertex
 10
2.469418962088067
 20
5.141759022685052
 30
0.0
 70
     8
  0
VERTEX
  5
156A
330
148B
100
AcDbEntity
  8
image
100
AcDbVertex
100
AcDb2dVertex
 10
2.469487530597032
 20
5.130946422962766
 30
0.0
 70
     8
  0
VERTEX
  5
156B
330
148B
100
AcDbEntity
  8
image
100
AcDbVertex
100
AcDb2dVertex
 10
2.469589351523178
 20
5.120805683916304
 30
0.0
 70
     8
  0
VERTEX
  5
156C
330
148B
100
AcDbEntity
  8
image
100
AcDbVertex
100
AcDb2dVertex
 10
2.469716248042608
 20
5.111496698277177
 30
0.0
 70
     8
  0
VERTEX
  5
156D
330
148B
100
AcDbEntity
  8
image
100
AcDbVertex
100
AcDb2dVertex
 10
2.469860043331425
 20
5.103179358776897
 30
0.0
 70
     8
  0
VERTEX
  5
156E
330
148B
100
AcDbEntity
  8
image
100
AcDbVertex
100
AcDb2dVertex
 10
2.470013612595452
 20
5.095230748066245
 30
0.0
 70
     8
  0
VERTEX
  5
156F
330
148B
100
AcDbEntity
  8
image
100
AcDbVertex
100
AcDb2dVertex
 10
2.470174039159385
 20
5.083896708473062
 30
0.0
 70
     8
  0
VERTEX
  5
1570
330
148B
100
AcDbEntity
  8
image
100
AcDbVertex
100
AcDb2dVertex
 10
2.47033945837764
 20
5.064640272244458
 30
0.0
 70
     8
  0
VERTEX
  5
1571
330
148B
100
AcDbEntity
  8
image
100
AcDbVertex
100
AcDb2dVertex
 10
2.470508005604634
 20
5.032924471627545
 30
0.0
 70
     8
  0
VERTEX
  5
1572
330
148B
100
AcDbEntity
  8
image
100
AcDbVertex
100
AcDb2dVertex
 10
2.470677816194783
 20
4.98421233886943
 30
0.0
 70
     8
  0
VERTEX
  5
1573
330
148B
100
AcDbEntity
  8
image
100
AcDbVertex
100
AcDb2dVertex
 10
2.470847025502504
 20
4.913966906217225
 30
0.0
 70
     8
  0
VERTEX
  5
1574
330
148B
100
AcDbEntity
  8
image
100
AcDbVertex
100
AcDb2dVertex
 10
2.471013768882212
 20
4.817651205918039
 30
0.0
 70
     8
  0
VERTEX
  5
1575
330
148B
100
AcDbEntity
  8
image
100
AcDbVertex
100
AcDb2dVertex
 10
2.471176181688324
 20
4.690728270218983
 30
0.0
 70
     8
  0
VERTEX
  5
1576
330
148B
100
AcDbEntity
  8
image
100
AcDbVertex
100
AcDb2dVertex
 10
2.471334758193727
 20
4.530863601041612
 30
0.0
 70
     8
  0
VERTEX
  5
1577
330
148B
100
AcDbEntity
  8
image
100
AcDbVertex
100
AcDb2dVertex
 10
2.471499428345196
 20
4.344532579005267
 30
0.0
 70
     8
  0
VERTEX
  5
1578
330
148B
100
AcDbEntity
  8
image
100
AcDbVertex
100
AcDb2dVertex
 10
2.471682481007976
 20
4.140413054403739
 30
0.0
 70
     8
  0
VERTEX
  5
1579
330
148B
100
AcDbEntity
  8
image
100
AcDbVertex
100
AcDb2dVertex
 10
2.471896205047313
 20
3.927182877530816
 30
0.0
 70
     8
  0
VERTEX
  5
157A
330
148B
100
AcDbEntity
  8
image
100
AcDbVertex
100
AcDb2dVertex
 10
2.472152889328452
 20
3.713519898680286
 30
0.0
 70
     8
  0
VERTEX
  5
157B
330
148B
100
AcDbEntity
  8
image
100
AcDbVertex
100
AcDb2dVertex
 10
2.472464822716639
 20
3.508101968145937
 30
0.0
 70
     8
  0
VERTEX
  5
157C
330
148B
100
AcDbEntity
  8
image
100
AcDbVertex
100
AcDb2dVertex
 10
2.472844294077119
 20
3.319606936221558
 30
0.0
 70
     8
  0
VERTEX
  5
157D
330
148B
100
AcDbEntity
  8
image
100
AcDbVertex
100
AcDb2dVertex
 10
2.473303592275138
 20
3.156712653200938
 30
0.0
 70
     8
  0
VERTEX
  5
157E
330
148B
100
AcDbEntity
  8
image
100
AcDbVertex
100
AcDb2dVertex
 10
2.473851501871965
 20
3.025936258575998
 30
0.0
 70
     8
  0
VERTEX
  5
157F
330
148B
100
AcDbEntity
  8
image
100
AcDbVertex
100
AcDb2dVertex
 10
2.474482790212955
 20
2.925152048631187
 30
0.0
 70
     8
  0
VERTEX
  5
1580
330
148B
100
AcDbEntity
  8
image
100
AcDbVertex
100
AcDb2dVertex
 10
2.47518872033949
 20
2.850073608849091
 30
0.0
 70
     8
  0
VERTEX
  5
1581
330
148B
100
AcDbEntity
  8
image
100
AcDbVertex
100
AcDb2dVertex
 10
2.475960555292948
 20
2.796414524712293
 30
0.0
 70
     8
  0
VERTEX
  5
1582
330
148B
100
AcDbEntity
  8
image
100
AcDbVertex
100
AcDb2dVertex
 10
2.47678955811471
 20
2.759888381703376
 30
0.0
 70
     8
  0
VERTEX
  5
1583
330
148B
100
AcDbEntity
  8
image
100
AcDbVertex
100
AcDb2dVertex
 10
2.477666991846156
 20
2.736208765304924
 30
0.0
 70
     8
  0
VERTEX
  5
1584
330
148B
100
AcDbEntity
  8
image
100
AcDbVertex
100
AcDb2dVertex
 10
2.478584119528664
 20
2.72108926099952
 30
0.0
 70
     8
  0
VERTEX
  5
1585
330
148B
100
AcDbEntity
  8
image
100
AcDbVertex
100
AcDb2dVertex
 10
2.479532204203616
 20
2.710243454269748
 30
0.0
 70
     8
  0
VERTEX
  5
1586
330
148B
100
AcDbEntity
  8
image
100
AcDbVertex
100
AcDb2dVertex
 10
2.480504358412062
 20
2.700094556044063
 30
0.0
 70
     8
  0
VERTEX
  5
1587
330
148B
100
AcDbEntity
  8
image
100
AcDbVertex
100
AcDb2dVertex
 10
2.481501092693743
 20
2.689904279034405
 30
0.0
 70
     8
  0
VERTEX
  5
1588
330
148B
100
AcDbEntity
  8
image
100
AcDbVertex
100
AcDb2dVertex
 10
2.482524767088069
 20
2.679643961398586
 30
0.0
 70
     8
  0
VERTEX
  5
1589
330
148B
100
AcDbEntity
  8
image
100
AcDbVertex
100
AcDb2dVertex
 10
2.483577741634451
 20
2.669284941294419
 30
0.0
 70
     8
  0
VERTEX
  5
158A
330
148B
100
AcDbEntity
  8
image
100
AcDbVertex
100
AcDb2dVertex
 10
2.484662376372301
 20
2.658798556879715
 30
0.0
 70
     8
  0
VERTEX
  5
158B
330
148B
100
AcDbEntity
  8
image
100
AcDbVertex
100
AcDb2dVertex
 10
2.485781031341031
 20
2.648156146312285
 30
0.0
 70
     8
  0
VERTEX
  5
158C
330
148B
100
AcDbEntity
  8
image
100
AcDbVertex
100
AcDb2dVertex
 10
2.486936066580052
 20
2.637329047749942
 30
0.0
 70
     8
  0
VERTEX
  5
158D
330
148B
100
AcDbEntity
  8
image
100
AcDbVertex
100
AcDb2dVertex
 10
2.488129842128774
 20
2.626288599350497
 30
0.0
 70
     8
  0
VERTEX
  5
158E
330
148B
100
AcDbEntity
  8
image
100
AcDbVertex
100
AcDb2dVertex
 10
2.489363655489039
 20
2.61501572980965
 30
0.0
 70
     8
  0
VERTEX
  5
158F
330
148B
100
AcDbEntity
  8
image
100
AcDbVertex
100
AcDb2dVertex
 10
2.490634554012401
 20
2.603529729974643
 30
0.0
 70
     8
  0
VERTEX
  5
1590
330
148B
100
AcDbEntity
  8
image
100
AcDbVertex
100
AcDb2dVertex
 10
2.491938522512843
 20
2.591859481230608
 30
0.0
 70
     8
  0
VERTEX
  5
1591
330
148B
100
AcDbEntity
  8
image
100
AcDbVertex
100
AcDb2dVertex
 10
2.49327154580435
 20
2.580033864962674
 30
0.0
 70
     8
  0
VERTEX
  5
1592
330
148B
100
AcDbEntity
  8
image
100
AcDbVertex
100
AcDb2dVertex
 10
2.494629608700905
 20
2.568081762555973
 30
0.0
 70
     8
  0
VERTEX
  5
1593
330
148B
100
AcDbEntity
  8
image
100
AcDbVertex
100
AcDb2dVertex
 10
2.496008696016492
 20
2.556032055395635
 30
0.0
 70
     8
  0
VERTEX
  5
1594
330
148B
100
AcDbEntity
  8
image
100
AcDbVertex
100
AcDb2dVertex
 10
2.497404792565095
 20
2.543913624866791
 30
0.0
 70
     8
  0
VERTEX
  5
1595
330
148B
100
AcDbEntity
  8
image
100
AcDbVertex
100
AcDb2dVertex
 10
2.498813883160698
 20
2.53175535235457
 30
0.0
 70
     8
  0
VERTEX
  5
1596
330
148B
100
AcDbEntity
  8
image
100
AcDbVertex
100
AcDb2dVertex
 10
2.500231802144679
 20
2.519587060491364
 30
0.0
 70
     8
  0
VERTEX
  5
1597
330
148B
100
AcDbEntity
  8
image
100
AcDbVertex
100
AcDb2dVertex
 10
2.501653781968001
 20
2.5074423368986
 30
0.0
 70
     8
  0
VERTEX
  5
1598
330
148B
100
AcDbEntity
  8
image
100
AcDbVertex
100
AcDb2dVertex
 10
2.503074904609021
 20
2.495355710444967
 30
0.0
 70
     8
  0
VERTEX
  5
1599
330
148B
100
AcDbEntity
  8
image
100
AcDbVertex
100
AcDb2dVertex
 10
2.504490252046098
 20
2.483361709999153
 30
0.0
 70
     8
  0
VERTEX
  5
159A
330
148B
100
AcDbEntity
  8
image
100
AcDbVertex
100
AcDb2dVertex
 10
2.505894906257588
 20
2.471494864429847
 30
0.0
 70
     8
  0
VERTEX
  5
159B
330
148B
100
AcDbEntity
  8
image
100
AcDbVertex
100
AcDb2dVertex
 10
2.507283949221849
 20
2.459789702605737
 30
0.0
 70
     8
  0
VERTEX
  5
159C
330
148B
100
AcDbEntity
  8
image
100
AcDbVertex
100
AcDb2dVertex
 10
2.508652462917238
 20
2.448280753395511
 30
0.0
 70
     8
  0
VERTEX
  5
159D
330
148B
100
AcDbEntity
  8
image
100
AcDbVertex
100
AcDb2dVertex
 10
2.509995529322114
 20
2.437002545667858
 30
0.0
 70
     8
  0
VERTEX
  5
159E
330
148B
100
AcDbEntity
  8
image
100
AcDbVertex
100
AcDb2dVertex
 10
2.511309920337076
 20
2.425973632286771
 30
0.0
 70
     8
  0
VERTEX
  5
159F
330
148B
100
AcDbEntity
  8
image
100
AcDbVertex
100
AcDb2dVertex
 10
2.512599167551694
 20
2.415148662097468
 30
0.0
 70
     8
  0
VERTEX
  5
15A0
330
148B
100
AcDbEntity
  8
image
100
AcDbVertex
100
AcDb2dVertex
 10
2.513868492477782
 20
2.404466307940472
 30
0.0
 70
     8
  0
VERTEX
  5
15A1
330
148B
100
AcDbEntity
  8
image
100
AcDbVertex
100
AcDb2dVertex
 10
2.515123116627151
 20
2.393865242656307
 30
0.0
 70
     8
  0
VERTEX
  5
15A2
330
148B
100
AcDbEntity
  8
image
100
AcDbVertex
100
AcDb2dVertex
 10
2.516368261511615
 20
2.383284139085495
 30
0.0
 70
     8
  0
VERTEX
  5
15A3
330
148B
100
AcDbEntity
  8
image
100
AcDbVertex
100
AcDb2dVertex
 10
2.517609148642987
 20
2.37266167006856
 30
0.0
 70
     8
  0
VERTEX
  5
15A4
330
148B
100
AcDbEntity
  8
image
100
AcDbVertex
100
AcDb2dVertex
 10
2.518850999533078
 20
2.361936508446024
 30
0.0
 70
     8
  0
VERTEX
  5
15A5
330
148B
100
AcDbEntity
  8
image
100
AcDbVertex
100
AcDb2dVertex
 10
2.520099035693701
 20
2.351047327058412
 30
0.0
 70
     8
  0
VERTEX
  5
15A6
330
148B
100
AcDbEntity
  8
image
100
AcDbVertex
100
AcDb2dVertex
 10
2.52135496409476
 20
2.339947744321287
 30
0.0
 70
     8
  0
VERTEX
  5
15A7
330
148B
100
AcDbEntity
  8
image
100
AcDbVertex
100
AcDb2dVertex
 10
2.522606433538518
 20
2.32865116095038
 30
0.0
 70
     8
  0
VERTEX
  5
15A8
330
148B
100
AcDbEntity
  8
image
100
AcDbVertex
100
AcDb2dVertex
 10
2.523837578285327
 20
2.317185923236464
 30
0.0
 70
     8
  0
VERTEX
  5
15A9
330
148B
100
AcDbEntity
  8
image
100
AcDbVertex
100
AcDb2dVertex
 10
2.525032532595541
 20
2.305580377470311
 30
0.0
 70
     8
  0
VERTEX
  5
15AA
330
148B
100
AcDbEntity
  8
image
100
AcDbVertex
100
AcDb2dVertex
 10
2.526175430729513
 20
2.293862869942693
 30
0.0
 70
     8
  0
VERTEX
  5
15AB
330
148B
100
AcDbEntity
  8
image
100
AcDbVertex
100
AcDb2dVertex
 10
2.527250406947596
 20
2.282061746944383
 30
0.0
 70
     8
  0
VERTEX
  5
15AC
330
148B
100
AcDbEntity
  8
image
100
AcDbVertex
100
AcDb2dVertex
 10
2.528241595510144
 20
2.270205354766152
 30
0.0
 70
     8
  0
VERTEX
  5
15AD
330
148B
100
AcDbEntity
  8
image
100
AcDbVertex
100
AcDb2dVertex
 10
2.529133130677509
 20
2.258322039698773
 30
0.0
 70
     8
  0
VERTEX
  5
15AE
330
148B
100
AcDbEntity
  8
image
100
AcDbVertex
100
AcDb2dVertex
 10
2.529909041905265
 20
2.246434992579688
 30
0.0
 70
     8
  0
VERTEX
  5
15AF
330
148B
100
AcDbEntity
  8
image
100
AcDbVertex
100
AcDb2dVertex
 10
2.530552939429868
 20
2.234546782433013
 30
0.0
 70
     8
  0
VERTEX
  5
15B0
330
148B
100
AcDbEntity
  8
image
100
AcDbVertex
100
AcDb2dVertex
 10
2.531048328682993
 20
2.222654822829538
 30
0.0
 70
     8
  0
VERTEX
  5
15B1
330
148B
100
AcDbEntity
  8
image
100
AcDbVertex
100
AcDb2dVertex
 10
2.531378715096315
 20
2.210756527340048
 30
0.0
 70
     8
  0
VERTEX
  5
15B2
330
148B
100
AcDbEntity
  8
image
100
AcDbVertex
100
AcDb2dVertex
 10
2.53152760410151
 20
2.198849309535332
 30
0.0
 70
     8
  0
VERTEX
  5
15B3
330
148B
100
AcDbEntity
  8
image
100
AcDbVertex
100
AcDb2dVertex
 10
2.531478501130254
 20
2.186930582986177
 30
0.0
 70
     8
  0
VERTEX
  5
15B4
330
148B
100
AcDbEntity
  8
image
100
AcDbVertex
100
AcDb2dVertex
 10
2.531214911614223
 20
2.174997761263369
 30
0.0
 70
     8
  0
VERTEX
  5
15B5
330
148B
100
AcDbEntity
  8
image
100
AcDbVertex
100
AcDb2dVertex
 10
2.530720340985091
 20
2.163048257937697
 30
0.0
 70
     8
  0
VERTEX
  5
15B6
330
148B
100
AcDbEntity
  8
image
100
AcDbVertex
100
AcDb2dVertex
 10
2.529982197801364
 20
2.151081384330024
 30
0.0
 70
     8
  0
VERTEX
  5
15B7
330
148B
100
AcDbEntity
  8
image
100
AcDbVertex
100
AcDb2dVertex
 10
2.529003503128856
 20
2.139104042761521
 30
0.0
 70
     8
  0
VERTEX
  5
15B8
330
148B
100
AcDbEntity
  8
image
100
AcDbVertex
100
AcDb2dVertex
 10
2.527791181160213
 20
2.127125033303439
 30
0.0
 70
     8
  0
VERTEX
  5
15B9
330
148B
100
AcDbEntity
  8
image
100
AcDbVertex
100
AcDb2dVertex
 10
2.526352156088079
 20
2.115153156027025
 30
0.0
 70
     8
  0
VERTEX
  5
15BA
330
148B
100
AcDbEntity
  8
image
100
AcDbVertex
100
AcDb2dVertex
 10
2.524693352105099
 20
2.103197211003527
 30
0.0
 70
     8
  0
VERTEX
  5
15BB
330
148B
100
AcDbEntity
  8
image
100
AcDbVertex
100
AcDb2dVertex
 10
2.522821693403918
 20
2.091265998304195
 30
0.0
 70
     8
  0
VERTEX
  5
15BC
330
148B
100
AcDbEntity
  8
image
100
AcDbVertex
100
AcDb2dVertex
 10
2.520744104177179
 20
2.079368318000276
 30
0.0
 70
     8
  0
VERTEX
  5
15BD
330
148B
100
AcDbEntity
  8
image
100
AcDbVertex
100
AcDb2dVertex
 10
2.518467508617527
 20
2.06751297016302
 30
0.0
 70
     8
  0
VERTEX
  5
15BE
330
148B
100
AcDbEntity
  8
image
100
AcDbVertex
100
AcDb2dVertex
 10
2.515996553907217
 20
2.055707495121607
 30
0.0
 70
     8
  0
VERTEX
  5
15BF
330
148B
100
AcDbEntity
  8
image
100
AcDbVertex
100
AcDb2dVertex
 10
2.513326779186938
 20
2.043954394236951
 30
0.0
 70
     8
  0
VERTEX
  5
15C0
330
148B
100
AcDbEntity
  8
image
100
AcDbVertex
100
AcDb2dVertex
 10
2.510451446586989
 20
2.032254909127896
 30
0.0
 70
     8
  0
VERTEX
  5
15C1
330
148B
100
AcDbEntity
  8
image
100
AcDbVertex
100
AcDb2dVertex
 10
2.507363818237671
 20
2.020610281413287
 30
0.0
 70
     8
  0
VERTEX
  5
15C2
330
148B
100
AcDbEntity
  8
image
100
AcDbVertex
100
AcDb2dVertex
 10
2.504057156269282
 20
2.009021752711971
 30
0.0
 70
     8
  0
VERTEX
  5
15C3
330
148B
100
AcDbEntity
  8
image
100
AcDbVertex
100
AcDb2dVertex
 10
2.500524722812123
 20
1.997490564642791
 30
0.0
 70
     8
  0
VERTEX
  5
15C4
330
148B
100
AcDbEntity
  8
image
100
AcDbVertex
100
AcDb2dVertex
 10
2.496759779996491
 20
1.986017958824595
 30
0.0
 70
     8
  0
VERTEX
  5
15C5
330
148B
100
AcDbEntity
  8
image
100
AcDbVertex
100
AcDb2dVertex
 10
2.492755589952688
 20
1.974605176876226
 30
0.0
 70
     8
  0
VERTEX
  5
15C6
330
148B
100
AcDbEntity
  8
image
100
AcDbVertex
100
AcDb2dVertex
 10
2.48850382796583
 20
1.963249050370872
 30
0.0
 70
     8
  0
VERTEX
  5
15C7
330
148B
100
AcDbEntity
  8
image
100
AcDbVertex
100
AcDb2dVertex
 10
2.483989821940309
 20
1.951928770699088
 30
0.0
 70
     8
  0
VERTEX
  5
15C8
330
148B
100
AcDbEntity
  8
image
100
AcDbVertex
100
AcDb2dVertex
 10
2.479197312935333
 20
1.94061911920577
 30
0.0
 70
     8
  0
VERTEX
  5
15C9
330
148B
100
AcDbEntity
  8
image
100
AcDbVertex
100
AcDb2dVertex
 10
2.474110042010113
 20
1.929294877235815
 30
0.0
 70
     8
  0
VERTEX
  5
15CA
330
148B
100
AcDbEntity
  8
image
100
AcDbVertex
100
AcDb2dVertex
 10
2.468711750223856
 20
1.91793082613412
 30
0.0
 70
     8
  0
VERTEX
  5
15CB
330
148B
100
AcDbEntity
  8
image
100
AcDbVertex
100
AcDb2dVertex
 10
2.462986178635774
 20
1.90650174724558
 30
0.0
 70
     8
  0
VERTEX
  5
15CC
330
148B
100
AcDbEntity
  8
image
100
AcDbVertex
100
AcDb2dVertex
 10
2.456917068305074
 20
1.894982421915093
 30
0.0
 70
     8
  0
VERTEX
  5
15CD
330
148B
100
AcDbEntity
  8
image
100
AcDbVertex
100
AcDb2dVertex
 10
2.450488160290965
 20
1.883347631487554
 30
0.0
 70
     8
  0
VERTEX
  5
15CE
330
148B
100
AcDbEntity
  8
image
100
AcDbVertex
100
AcDb2dVertex
 10
2.443705868192267
 20
1.871599629816733
 30
0.0
 70
     8
  0
VERTEX
  5
15CF
330
148B
100
AcDbEntity
  8
image
100
AcDbVertex
100
AcDb2dVertex
 10
2.43666729576623
 20
1.859850560791887
 30
0.0
 70
     8
  0
VERTEX
  5
15D0
330
148B
100
AcDbEntity
  8
image
100
AcDbVertex
100
AcDb2dVertex
 10
2.429492219309715
 20
1.848240040811144
 30
0.0
 70
     8
  0
VERTEX
  5
15D1
330
148B
100
AcDbEntity
  8
image
100
AcDbVertex
100
AcDb2dVertex
 10
2.42230041511958
 20
1.836907686272633
 30
0.0
 70
     8
  0
VERTEX
  5
15D2
330
148B
100
AcDbEntity
  8
image
100
AcDbVertex
100
AcDb2dVertex
 10
2.415211659492688
 20
1.825993113574484
 30
0.0
 70
     8
  0
VERTEX
  5
15D3
330
148B
100
AcDbEntity
  8
image
100
AcDbVertex
100
AcDb2dVertex
 10
2.408345728725897
 20
1.815635939114825
 30
0.0
 70
     8
  0
VERTEX
  5
15D4
330
148B
100
AcDbEntity
  8
image
100
AcDbVertex
100
AcDb2dVertex
 10
2.401822399116068
 20
1.805975779291785
 30
0.0
 70
     8
  0
VERTEX
  5
15D5
330
148B
100
AcDbEntity
  8
image
100
AcDbVertex
100
AcDb2dVertex
 10
2.395761446960061
 20
1.797152250503494
 30
0.0
 70
     8
  0
VERTEX
  5
148E
330
148B
100
AcDbEntity
  8
image
100
AcDbVertex
100
AcDb2dVertex
 10
3.302099940514815
 20
7.353889559059544
 30
0.0
 70
    16
  0
VERTEX
  5
148F
330
148B
100
AcDbEntity
  8
image
100
AcDbVertex
100
AcDb2dVertex
 10
3.289335849500373
 20
7.366421002021003
 30
0.0
 70
    16
  0
VERTEX
  5
1490
330
148B
100
AcDbEntity
  8
image
100
AcDbVertex
100
AcDb2dVertex
 10
3.285876851840589
 20
7.367362635984712
 30
0.0
 70
    16
  0
VERTEX
  5
1491
330
148B
100
AcDbEntity
  8
image
100
AcDbVertex
100
AcDb2dVertex
 10
3.201436736009747
 20
7.345074918417434
 30
0.0
 70
    16
  0
VERTEX
  5
1492
330
148B
100
AcDbEntity
  8
image
100
AcDbVertex
100
AcDb2dVertex
 10
3.1642513569299
 20
7.342289885322044
 30
0.0
 70
    16
  0
VERTEX
  5
1493
330
148B
100
AcDbEntity
  8
image
100
AcDbVertex
100
AcDb2dVertex
 10
2.986836338987753
 20
7.339449502043556
 30
0.0
 70
    16
  0
VERTEX
  5
1494
330
148B
100
AcDbEntity
  8
image
100
AcDbVertex
100
AcDb2dVertex
 10
2.902778943500431
 20
7.329876699778563
 30
0.0
 70
    16
  0
VERTEX
  5
1495
330
148B
100
AcDbEntity
  8
image
100
AcDbVertex
100
AcDb2dVertex
 10
2.808243399706013
 20
7.312179423183142
 30
0.0
 70
    16
  0
VERTEX
  5
1496
330
148B
100
AcDbEntity
  8
image
100
AcDbVertex
100
AcDb2dVertex
 10
2.712704220250057
 20
7.283715626938151
 30
0.0
 70
    16
  0
VERTEX
  5
1497
330
148B
100
AcDbEntity
  8
image
100
AcDbVertex
100
AcDb2dVertex
 10
2.627555932074237
 20
7.24536076481819
 30
0.0
 70
    16
  0
VERTEX
  5
1498
330
148B
100
AcDbEntity
  8
image
100
AcDbVertex
100
AcDb2dVertex
 10
2.558647693665434
 20
7.183508862299269
 30
0.0
 70
    16
  0
VERTEX
  5
1499
330
148B
100
AcDbEntity
  8
image
100
AcDbVertex
100
AcDb2dVertex
 10
2.518259382190585
 20
7.110347058432856
 30
0.0
 70
    16
  0
VERTEX
  5
149A
330
148B
100
AcDbEntity
  8
image
100
AcDbVertex
100
AcDb2dVertex
 10
2.509832537446802
 20
7.059032058158363
 30
0.0
 70
    16
  0
VERTEX
  5
149B
330
148B
100
AcDbEntity
  8
image
100
AcDbVertex
100
AcDb2dVertex
 10
2.508629798817116
 20
6.598456014838454
 30
0.0
 70
    16
  0
VERTEX
  5
149C
330
148B
100
AcDbEntity
  8
image
100
AcDbVertex
100
AcDb2dVertex
 10
2.506429739054665
 20
6.238057508895768
 30
0.0
 70
    16
  0
VERTEX
  5
149D
330
148B
100
AcDbEntity
  8
image
100
AcDbVertex
100
AcDb2dVertex
 10
2.50375464658884
 20
5.967035760820303
 30
0.0
 70
    16
  0
VERTEX
  5
149E
330
148B
100
AcDbEntity
  8
image
100
AcDbVertex
100
AcDb2dVertex
 10
2.500753469175697
 20
5.771321262478934
 30
0.0
 70
    16
  0
VERTEX
  5
149F
330
148B
100
AcDbEntity
  8
image
100
AcDbVertex
100
AcDb2dVertex
 10
2.497575154571296
 20
5.636844505738533
 30
0.0
 70
    16
  0
VERTEX
  5
14A0
330
148B
100
AcDbEntity
  8
image
100
AcDbVertex
100
AcDb2dVertex
 10
2.494368650531692
 20
5.549535982465977
 30
0.0
 70
    16
  0
VERTEX
  5
14A1
330
148B
100
AcDbEntity
  8
image
100
AcDbVertex
100
AcDb2dVertex
 10
2.488466865171105
 20
5.460145603791887
 30
0.0
 70
    16
  0
VERTEX
  5
14A2
330
148B
100
AcDbEntity
  8
image
100
AcDbVertex
100
AcDb2dVertex
 10
2.480731741318773
 20
5.371787097980424
 30
0.0
 70
    16
  0
VERTEX
  5
14A3
330
148B
100
AcDbEntity
  8
image
100
AcDbVertex
100
AcDb2dVertex
 10
2.472677647055478
 20
5.280719676023847
 30
0.0
 70
    16
  0
VERTEX
  5
14A4
330
148B
100
AcDbEntity
  8
image
100
AcDbVertex
100
AcDb2dVertex
 10
2.46884995897752
 20
5.189891272174053
 30
0.0
 70
    16
  0
VERTEX
  5
14A5
330
148B
100
AcDbEntity
  8
image
100
AcDbVertex
100
AcDb2dVertex
 10
2.469767009246197
 20
5.090896277493058
 30
0.0
 70
    16
  0
VERTEX
  5
14A6
330
148B
100
AcDbEntity
  8
image
100
AcDbVertex
100
AcDb2dVertex
 10
2.471242264026244
 20
5.065599770515101
 30
0.0
 70
    16
  0
VERTEX
  5
14A7
330
148B
100
AcDbEntity
  8
image
100
AcDbVertex
100
AcDb2dVertex
 10
2.47232102477877
 20
2.791074261760436
 30
0.0
 70
    16
  0
VERTEX
  5
14A8
330
148B
100
AcDbEntity
  8
image
100
AcDbVertex
100
AcDb2dVertex
 10
2.479295190509507
 20
2.710379101648783
 30
0.0
 70
    16
  0
VERTEX
  5
14A9
330
148B
100
AcDbEntity
  8
image
100
AcDbVertex
100
AcDb2dVertex
 10
2.487691438404899
 20
2.628870057262919
 30
0.0
 70
    16
  0
VERTEX
  5
14AA
330
148B
100
AcDbEntity
  8
image
100
AcDbVertex
100
AcDb2dVertex
 10
2.498718108643543
 20
2.531872265402523
 30
0.0
 70
    16
  0
VERTEX
  5
14AB
330
148B
100
AcDbEntity
  8
image
100
AcDbVertex
100
AcDb2dVertex
 10
2.510319425985114
 20
2.434172995254409
 30
0.0
 70
    16
  0
VERTEX
  5
14AC
330
148B
100
AcDbEntity
  8
image
100
AcDbVertex
100
AcDb2dVertex
 10
2.519977363348685
 20
2.353451027586986
 30
0.0
 70
    16
  0
VERTEX
  5
14AD
330
148B
100
AcDbEntity
  8
image
100
AcDbVertex
100
AcDb2dVertex
 10
2.530365334782354
 20
2.258306856748116
 30
0.0
 70
    16
  0
VERTEX
  5
14AE
330
148B
100
AcDbEntity
  8
image
100
AcDbVertex
100
AcDb2dVertex
 10
2.533360081586952
 20
2.16325378361319
 30
0.0
 70
    16
  0
VERTEX
  5
14AF
330
148B
100
AcDbEntity
  8
image
100
AcDbVertex
100
AcDb2dVertex
 10
2.520516384780387
 20
2.066967556425304
 30
0.0
 70
    16
  0
VERTEX
  5
14B0
330
148B
100
AcDbEntity
  8
image
100
AcDbVertex
100
AcDb2dVertex
 10
2.495379430996663
 20
1.973953811663712
 30
0.0
 70
    16
  0
VERTEX
  5
14B1
330
148B
100
AcDbEntity
  8
image
100
AcDbVertex
100
AcDb2dVertex
 10
2.454499430949086
 20
1.884848258177202
 30
0.0
 70
    16
  0
VERTEX
  5
14B2
330
148B
100
AcDbEntity
  8
image
100
AcDbVertex
100
AcDb2dVertex
 10
2.411201014951553
 20
1.81944204909427
 30
0.0
 70
    16
  0
VERTEX
  5
14B3
330
148B
100
AcDbEntity
  8
image
100
AcDbVertex
100
AcDb2dVertex
 10
2.395761446960061
 20
1.797152250503494
 30
0.0
 70
    16
  0
SEQEND
  5
14B4
330
148B
100
AcDbEntity
  8
image
  0
POLYLINE
  5
148C
330
10C1
100
AcDbEntity
  8
image
100
AcDb2dPolyline
 66
     1
 10
0.0
 20
0.0
 30
0.0
 70
     4
 75
     6
  0
VERTEX
  5
15D6
330
148C
100
AcDbEntity
  8
image
100
AcDbVertex
100
AcDb2dVertex
 10
3.318318232889163
 20
7.275427289550104
 30
0.0
 70
    16
  0
VERTEX
  5
15FD
330
148C
100
AcDbEntity
  8
image
100
AcDbVertex
100
AcDb2dVertex
 10
3.318318232889163
 20
7.275427289550104
 30
0.0
 70
     8
  0
VERTEX
  5
15FE
330
148C
100
AcDbEntity
  8
image
100
AcDbVertex
100
AcDb2dVertex
 10
3.313335636789131
 20
7.274886608929859
 30
0.0
 70
     8
  0
VERTEX
  5
15FF
330
148C
100
AcDbEntity
  8
image
100
AcDbVertex
100
AcDb2dVertex
 10
3.309328714525589
 20
7.274296423073923
 30
0.0
 70
     8
  0
VERTEX
  5
1600
330
148C
100
AcDbEntity
  8
image
100
AcDbVertex
100
AcDb2dVertex
 10
3.306162508738551
 20
7.273656749414161
 30
0.0
 70
     8
  0
VERTEX
  5
1601
330
148C
100
AcDbEntity
  8
image
100
AcDbVertex
100
AcDb2dVertex
 10
3.303702062068031
 20
7.272967605382445
 30
0.0
 70
     8
  0
VERTEX
  5
1602
330
148C
100
AcDbEntity
  8
image
100
AcDbVertex
100
AcDb2dVertex
 10
3.301812417154043
 20
7.27222900841064
 30
0.0
 70
     8
  0
VERTEX
  5
1603
330
148C
100
AcDbEntity
  8
image
100
AcDbVertex
100
AcDb2dVertex
 10
3.300358616636601
 20
7.271440975930615
 30
0.0
 70
     8
  0
VERTEX
  5
1604
330
148C
100
AcDbEntity
  8
image
100
AcDbVertex
100
AcDb2dVertex
 10
3.29920570315572
 20
7.27060352537424
 30
0.0
 70
     8
  0
VERTEX
  5
1605
330
148C
100
AcDbEntity
  8
image
100
AcDbVertex
100
AcDb2dVertex
 10
3.298218719351412
 20
7.269716674173381
 30
0.0
 70
     8
  0
VERTEX
  5
1606
330
148C
100
AcDbEntity
  8
image
100
AcDbVertex
100
AcDb2dVertex
 10
3.297285710937908
 20
7.268783769600071
 30
0.0
 70
     8
  0
VERTEX
  5
1607
330
148C
100
AcDbEntity
  8
image
100
AcDbVertex
100
AcDb2dVertex
 10
3.296386735926297
 20
7.267821478286996
 30
0.0
 70
     8
  0
VERTEX
  5
1608
330
148C
100
AcDbEntity
  8
image
100
AcDbVertex
100
AcDb2dVertex
 10
3.295524855401884
 20
7.266849796707004
 30
0.0
 70
     8
  0
VERTEX
  5
1609
330
148C
100
AcDbEntity
  8
image
100
AcDbVertex
100
AcDb2dVertex
 10
3.294703130449975
 20
7.265888721332944
 30
0.0
 70
     8
  0
VERTEX
  5
160A
330
148C
100
AcDbEntity
  8
image
100
AcDbVertex
100
AcDb2dVertex
 10
3.293924622155875
 20
7.264958248637667
 30
0.0
 70
     8
  0
VERTEX
  5
160B
330
148C
100
AcDbEntity
  8
image
100
AcDbVertex
100
AcDb2dVertex
 10
3.293192391604889
 20
7.264078375094021
 30
0.0
 70
     8
  0
VERTEX
  5
160C
330
148C
100
AcDbEntity
  8
image
100
AcDbVertex
100
AcDb2dVertex
 10
3.292509499882322
 20
7.263269097174855
 30
0.0
 70
     8
  0
VERTEX
  5
160D
330
148C
100
AcDbEntity
  8
image
100
AcDbVertex
100
AcDb2dVertex
 10
3.291879008073479
 20
7.262550411353019
 30
0.0
 70
     8
  0
VERTEX
  5
160E
330
148C
100
AcDbEntity
  8
image
100
AcDbVertex
100
AcDb2dVertex
 10
3.291301639063762
 20
7.261937227568224
 30
0.0
 70
     8
  0
VERTEX
  5
160F
330
148C
100
AcDbEntity
  8
image
100
AcDbVertex
100
AcDb2dVertex
 10
3.290768762938956
 20
7.261424109627626
 30
0.0
 70
     8
  0
VERTEX
  5
1610
330
148C
100
AcDbEntity
  8
image
100
AcDbVertex
100
AcDb2dVertex
 10
3.290269411584945
 20
7.261000534805245
 30
0.0
 70
     8
  0
VERTEX
  5
1611
330
148C
100
AcDbEntity
  8
image
100
AcDbVertex
100
AcDb2dVertex
 10
3.28979261688761
 20
7.2606559803751
 30
0.0
 70
     8
  0
VERTEX
  5
1612
330
148C
100
AcDbEntity
  8
image
100
AcDbVertex
100
AcDb2dVertex
 10
3.289327410732834
 20
7.260379923611208
 30
0.0
 70
     8
  0
VERTEX
  5
1613
330
148C
100
AcDbEntity
  8
image
100
AcDbVertex
100
AcDb2dVertex
 10
3.288862825006499
 20
7.260161841787589
 30
0.0
 70
     8
  0
VERTEX
  5
1614
330
148C
100
AcDbEntity
  8
image
100
AcDbVertex
100
AcDb2dVertex
 10
3.288387891594489
 20
7.259991212178263
 30
0.0
 70
     8
  0
VERTEX
  5
1615
330
148C
100
AcDbEntity
  8
image
100
AcDbVertex
100
AcDb2dVertex
 10
3.287891642382684
 20
7.259857512057247
 30
0.0
 70
     8
  0
VERTEX
  5
1616
330
148C
100
AcDbEntity
  8
image
100
AcDbVertex
100
AcDb2dVertex
 10
3.287344487277686
 20
7.259758230310944
 30
0.0
 70
     8
  0
VERTEX
  5
1617
330
148C
100
AcDbEntity
  8
image
100
AcDbVertex
100
AcDb2dVertex
 10
3.286642348268971
 20
7.25972290227529
 30
0.0
 70
     8
  0
VERTEX
  5
1618
330
148C
100
AcDbEntity
  8
image
100
AcDbVertex
100
AcDb2dVertex
 10
3.28566252536673
 20
7.259789074898606
 30
0.0
 70
     8
  0
VERTEX
  5
1619
330
148C
100
AcDbEntity
  8
image
100
AcDbVertex
100
AcDb2dVertex
 10
3.28428231858116
 20
7.259994295129211
 30
0.0
 70
     8
  0
VERTEX
  5
161A
330
148C
100
AcDbEntity
  8
image
100
AcDbVertex
100
AcDb2dVertex
 10
3.282379027922452
 20
7.260376109915426
 30
0.0
 70
     8
  0
VERTEX
  5
161B
330
148C
100
AcDbEntity
  8
image
100
AcDbVertex
100
AcDb2dVertex
 10
3.279829953400801
 20
7.260972066205572
 30
0.0
 70
     8
  0
VERTEX
  5
161C
330
148C
100
AcDbEntity
  8
image
100
AcDbVertex
100
AcDb2dVertex
 10
3.276512395026401
 20
7.261819710947968
 30
0.0
 70
     8
  0
VERTEX
  5
161D
330
148C
100
AcDbEntity
  8
image
100
AcDbVertex
100
AcDb2dVertex
 10
3.272303652809444
 20
7.262956591090934
 30
0.0
 70
     8
  0
VERTEX
  5
161E
330
148C
100
AcDbEntity
  8
image
100
AcDbVertex
100
AcDb2dVertex
 10
3.267131306586473
 20
7.264399355804272
 30
0.0
 70
     8
  0
VERTEX
  5
161F
330
148C
100
AcDbEntity
  8
image
100
AcDbVertex
100
AcDb2dVertex
 10
3.261124055499417
 20
7.266081063143704
 30
0.0
 70
     8
  0
VERTEX
  5
1620
330
148C
100
AcDbEntity
  8
image
100
AcDbVertex
100
AcDb2dVertex
 10
3.254460878516556
 20
7.267913873386435
 30
0.0
 70
     8
  0
VERTEX
  5
1621
330
148C
100
AcDbEntity
  8
image
100
AcDbVertex
100
AcDb2dVertex
 10
3.247320754606169
 20
7.269809946809668
 30
0.0
 70
     8
  0
VERTEX
  5
1622
330
148C
100
AcDbEntity
  8
image
100
AcDbVertex
100
AcDb2dVertex
 10
3.239882662736533
 20
7.271681443690607
 30
0.0
 70
     8
  0
VERTEX
  5
1623
330
148C
100
AcDbEntity
  8
image
100
AcDbVertex
100
AcDb2dVertex
 10
3.232325581875928
 20
7.273440524306458
 30
0.0
 70
     8
  0
VERTEX
  5
1624
330
148C
100
AcDbEntity
  8
image
100
AcDbVertex
100
AcDb2dVertex
 10
3.224828490992632
 20
7.274999348934424
 30
0.0
 70
     8
  0
VERTEX
  5
1625
330
148C
100
AcDbEntity
  8
image
100
AcDbVertex
100
AcDb2dVertex
 10
3.217570369054923
 20
7.276270077851708
 30
0.0
 70
     8
  0
VERTEX
  5
1626
330
148C
100
AcDbEntity
  8
image
100
AcDbVertex
100
AcDb2dVertex
 10
3.210648174286295
 20
7.277187493646024
 30
0.0
 70
     8
  0
VERTEX
  5
1627
330
148C
100
AcDbEntity
  8
image
100
AcDbVertex
100
AcDb2dVertex
 10
3.203830781931103
 20
7.277776868147121
 30
0.0
 70
     8
  0
VERTEX
  5
1628
330
148C
100
AcDbEntity
  8
image
100
AcDbVertex
100
AcDb2dVertex
 10
3.196805046488917
 20
7.278086095495257
 30
0.0
 70
     8
  0
VERTEX
  5
1629
330
148C
100
AcDbEntity
  8
image
100
AcDbVertex
100
AcDb2dVertex
 10
3.189257822459306
 20
7.278163069830689
 30
0.0
 70
     8
  0
VERTEX
  5
162A
330
148C
100
AcDbEntity
  8
image
100
AcDbVertex
100
AcDb2dVertex
 10
3.180875964341841
 20
7.278055685293678
 30
0.0
 70
     8
  0
VERTEX
  5
162B
330
148C
100
AcDbEntity
  8
image
100
AcDbVertex
100
AcDb2dVertex
 10
3.17134632663609
 20
7.27781183602448
 30
0.0
 70
     8
  0
VERTEX
  5
162C
330
148C
100
AcDbEntity
  8
image
100
AcDbVertex
100
AcDb2dVertex
 10
3.160355763841624
 20
7.277479416163353
 30
0.0
 70
     8
  0
VERTEX
  5
162D
330
148C
100
AcDbEntity
  8
image
100
AcDbVertex
100
AcDb2dVertex
 10
3.147591130458013
 20
7.277106319850556
 30
0.0
 70
     8
  0
VERTEX
  5
162E
330
148C
100
AcDbEntity
  8
image
100
AcDbVertex
100
AcDb2dVertex
 10
3.132866110704557
 20
7.276730211314986
 30
0.0
 70
     8
  0
VERTEX
  5
162F
330
148C
100
AcDbEntity
  8
image
100
AcDbVertex
100
AcDb2dVertex
 10
3.116501707679482
 20
7.276347835140099
 30
0.0
 70
     8
  0
VERTEX
  5
1630
330
148C
100
AcDbEntity
  8
image
100
AcDbVertex
100
AcDb2dVertex
 10
3.098945754200745
 20
7.27594570599799
 30
0.0
 70
     8
  0
VERTEX
  5
1631
330
148C
100
AcDbEntity
  8
image
100
AcDbVertex
100
AcDb2dVertex
 10
3.080646083086304
 20
7.275510338560757
 30
0.0
 70
     8
  0
VERTEX
  5
1632
330
148C
100
AcDbEntity
  8
image
100
AcDbVertex
100
AcDb2dVertex
 10
3.062050527154114
 20
7.275028247500493
 30
0.0
 70
     8
  0
VERTEX
  5
1633
330
148C
100
AcDbEntity
  8
image
100
AcDbVertex
100
AcDb2dVertex
 10
3.043606919222133
 20
7.274485947489295
 30
0.0
 70
     8
  0
VERTEX
  5
1634
330
148C
100
AcDbEntity
  8
image
100
AcDbVertex
100
AcDb2dVertex
 10
3.025763092108319
 20
7.273869953199258
 30
0.0
 70
     8
  0
VERTEX
  5
1635
330
148C
100
AcDbEntity
  8
image
100
AcDbVertex
100
AcDb2dVertex
 10
3.008966878630627
 20
7.273166779302478
 30
0.0
 70
     8
  0
VERTEX
  5
1636
330
148C
100
AcDbEntity
  8
image
100
AcDbVertex
100
AcDb2dVertex
 10
2.993557970660169
 20
7.272364911723599
 30
0.0
 70
     8
  0
VERTEX
  5
1637
330
148C
100
AcDbEntity
  8
image
100
AcDbVertex
100
AcDb2dVertex
 10
2.979443496280672
 20
7.27146072139746
 30
0.0
 70
     8
  0
VERTEX
  5
1638
330
148C
100
AcDbEntity
  8
image
100
AcDbVertex
100
AcDb2dVertex
 10
2.966422442629017
 20
7.270452550511448
 30
0.0
 70
     8
  0
VERTEX
  5
1639
330
148C
100
AcDbEntity
  8
image
100
AcDbVertex
100
AcDb2dVertex
 10
2.954293796842084
 20
7.26933874125295
 30
0.0
 70
     8
  0
VERTEX
  5
163A
330
148C
100
AcDbEntity
  8
image
100
AcDbVertex
100
AcDb2dVertex
 10
2.942856546056754
 20
7.268117635809355
 30
0.0
 70
     8
  0
VERTEX
  5
163B
330
148C
100
AcDbEntity
  8
image
100
AcDbVertex
100
AcDb2dVertex
 10
2.931909677409909
 20
7.266787576368049
 30
0.0
 70
     8
  0
VERTEX
  5
163C
330
148C
100
AcDbEntity
  8
image
100
AcDbVertex
100
AcDb2dVertex
 10
2.92125217803843
 20
7.26534690511642
 30
0.0
 70
     8
  0
VERTEX
  5
163D
330
148C
100
AcDbEntity
  8
image
100
AcDbVertex
100
AcDb2dVertex
 10
2.910683035079197
 20
7.263793964241854
 30
0.0
 70
     8
  0
VERTEX
  5
163E
330
148C
100
AcDbEntity
  8
image
100
AcDbVertex
100
AcDb2dVertex
 10
2.900036951764287
 20
7.262126518395723
 30
0.0
 70
     8
  0
VERTEX
  5
163F
330
148C
100
AcDbEntity
  8
image
100
AcDbVertex
100
AcDb2dVertex
 10
2.889291495706571
 20
7.260340022085324
 30
0.0
 70
     8
  0
VERTEX
  5
1640
330
148C
100
AcDbEntity
  8
image
100
AcDbVertex
100
AcDb2dVertex
 10
2.878459950614111
 20
7.258429352281939
 30
0.0
 70
     8
  0
VERTEX
  5
1641
330
148C
100
AcDbEntity
  8
image
100
AcDbVertex
100
AcDb2dVertex
 10
2.867555600194974
 20
7.25638938595685
 30
0.0
 70
     8
  0
VERTEX
  5
1642
330
148C
100
AcDbEntity
  8
image
100
AcDbVertex
100
AcDb2dVertex
 10
2.856591728157224
 20
7.254215000081337
 30
0.0
 70
     8
  0
VERTEX
  5
1643
330
148C
100
AcDbEntity
  8
image
100
AcDbVertex
100
AcDb2dVertex
 10
2.845581618208926
 20
7.251901071626683
 30
0.0
 70
     8
  0
VERTEX
  5
1644
330
148C
100
AcDbEntity
  8
image
100
AcDbVertex
100
AcDb2dVertex
 10
2.834538554058146
 20
7.249442477564168
 30
0.0
 70
     8
  0
VERTEX
  5
1645
330
148C
100
AcDbEntity
  8
image
100
AcDbVertex
100
AcDb2dVertex
 10
2.823475819412948
 20
7.246834094865074
 30
0.0
 70
     8
  0
VERTEX
  5
1646
330
148C
100
AcDbEntity
  8
image
100
AcDbVertex
100
AcDb2dVertex
 10
2.812405693480147
 20
7.244070185901719
 30
0.0
 70
     8
  0
VERTEX
  5
1647
330
148C
100
AcDbEntity
  8
image
100
AcDbVertex
100
AcDb2dVertex
 10
2.801336437461559
 20
7.241142554650574
 30
0.0
 70
     8
  0
VERTEX
  5
1648
330
148C
100
AcDbEntity
  8
image
100
AcDbVertex
100
AcDb2dVertex
 10
2.790275308057748
 20
7.238042390489145
 30
0.0
 70
     8
  0
VERTEX
  5
1649
330
148C
100
AcDbEntity
  8
image
100
AcDbVertex
100
AcDb2dVertex
 10
2.779229561969278
 20
7.234760882794938
 30
0.0
 70
     8
  0
VERTEX
  5
164A
330
148C
100
AcDbEntity
  8
image
100
AcDbVertex
100
AcDb2dVertex
 10
2.768206455896716
 20
7.23128922094546
 30
0.0
 70
     8
  0
VERTEX
  5
164B
330
148C
100
AcDbEntity
  8
image
100
AcDbVertex
100
AcDb2dVertex
 10
2.757213246540625
 20
7.22761859431822
 30
0.0
 70
     8
  0
VERTEX
  5
164C
330
148C
100
AcDbEntity
  8
image
100
AcDbVertex
100
AcDb2dVertex
 10
2.746257190601571
 20
7.223740192290722
 30
0.0
 70
     8
  0
VERTEX
  5
164D
330
148C
100
AcDbEntity
  8
image
100
AcDbVertex
100
AcDb2dVertex
 10
2.735345544780118
 20
7.219645204240475
 30
0.0
 70
     8
  0
VERTEX
  5
164E
330
148C
100
AcDbEntity
  8
image
100
AcDbVertex
100
AcDb2dVertex
 10
2.724491028511296
 20
7.215320582919397
 30
0.0
 70
     8
  0
VERTEX
  5
164F
330
148C
100
AcDbEntity
  8
image
100
AcDbVertex
100
AcDb2dVertex
 10
2.713728212167995
 20
7.210736334577055
 30
0.0
 70
     8
  0
VERTEX
  5
1650
330
148C
100
AcDbEntity
  8
image
100
AcDbVertex
100
AcDb2dVertex
 10
2.70309712885757
 20
7.20585822883743
 30
0.0
 70
     8
  0
VERTEX
  5
1651
330
148C
100
AcDbEntity
  8
image
100
AcDbVertex
100
AcDb2dVertex
 10
2.692637811687375
 20
7.200652035324501
 30
0.0
 70
     8
  0
VERTEX
  5
1652
330
148C
100
AcDbEntity
  8
image
100
AcDbVertex
100
AcDb2dVertex
 10
2.682390293764765
 20
7.195083523662248
 30
0.0
 70
     8
  0
VERTEX
  5
1653
330
148C
100
AcDbEntity
  8
image
100
AcDbVertex
100
AcDb2dVertex
 10
2.672394608197094
 20
7.189118463474649
 30
0.0
 70
     8
  0
VERTEX
  5
1654
330
148C
100
AcDbEntity
  8
image
100
AcDbVertex
100
AcDb2dVertex
 10
2.662690788091717
 20
7.182722624385685
 30
0.0
 70
     8
  0
VERTEX
  5
1655
330
148C
100
AcDbEntity
  8
image
100
AcDbVertex
100
AcDb2dVertex
 10
2.653318866555988
 20
7.175861776019336
 30
0.0
 70
     8
  0
VERTEX
  5
1656
330
148C
100
AcDbEntity
  8
image
100
AcDbVertex
100
AcDb2dVertex
 10
2.644320629578454
 20
7.168525434710979
 30
0.0
 70
     8
  0
VERTEX
  5
1657
330
148C
100
AcDbEntity
  8
image
100
AcDbVertex
100
AcDb2dVertex
 10
2.635744874672419
 20
7.160798103641581
 30
0.0
 70
     8
  0
VERTEX
  5
1658
330
148C
100
AcDbEntity
  8
image
100
AcDbVertex
100
AcDb2dVertex
 10
2.627642152232381
 20
7.152788032703509
 30
0.0
 70
     8
  0
VERTEX
  5
1659
330
148C
100
AcDbEntity
  8
image
100
AcDbVertex
100
AcDb2dVertex
 10
2.620063012652835
 20
7.14460347178913
 30
0.0
 70
     8
  0
VERTEX
  5
165A
330
148C
100
AcDbEntity
  8
image
100
AcDbVertex
100
AcDb2dVertex
 10
2.613058006328278
 20
7.13635267079081
 30
0.0
 70
     8
  0
VERTEX
  5
165B
330
148C
100
AcDbEntity
  8
image
100
AcDbVertex
100
AcDb2dVertex
 10
2.606677683653208
 20
7.128143879600913
 30
0.0
 70
     8
  0
VERTEX
  5
165C
330
148C
100
AcDbEntity
  8
image
100
AcDbVertex
100
AcDb2dVertex
 10
2.600972595022119
 20
7.120085348111808
 30
0.0
 70
     8
  0
VERTEX
  5
165D
330
148C
100
AcDbEntity
  8
image
100
AcDbVertex
100
AcDb2dVertex
 10
2.595993290829509
 20
7.11228532621586
 30
0.0
 70
     8
  0
VERTEX
  5
165E
330
148C
100
AcDbEntity
  8
image
100
AcDbVertex
100
AcDb2dVertex
 10
2.591768374941709
 20
7.104421472069718
 30
0.0
 70
     8
  0
VERTEX
  5
165F
330
148C
100
AcDbEntity
  8
image
100
AcDbVertex
100
AcDb2dVertex
 10
2.588238665112395
 20
7.094449076887173
 30
0.0
 70
     8
  0
VERTEX
  5
1660
330
148C
100
AcDbEntity
  8
image
100
AcDbVertex
100
AcDb2dVertex
 10
2.585323032567076
 20
7.079892840146297
 30
0.0
 70
     8
  0
VERTEX
  5
1661
330
148C
100
AcDbEntity
  8
image
100
AcDbVertex
100
AcDb2dVertex
 10
2.582940348531262
 20
7.058277461325163
 30
0.0
 70
     8
  0
VERTEX
  5
1662
330
148C
100
AcDbEntity
  8
image
100
AcDbVertex
100
AcDb2dVertex
 10
2.581009484230464
 20
7.027127639901844
 30
0.0
 70
     8
  0
VERTEX
  5
1663
330
148C
100
AcDbEntity
  8
image
100
AcDbVertex
100
AcDb2dVertex
 10
2.57944931089019
 20
6.983968075354414
 30
0.0
 70
     8
  0
VERTEX
  5
1664
330
148C
100
AcDbEntity
  8
image
100
AcDbVertex
100
AcDb2dVertex
 10
2.578178699735953
 20
6.926323467160944
 30
0.0
 70
     8
  0
VERTEX
  5
1665
330
148C
100
AcDbEntity
  8
image
100
AcDbVertex
100
AcDb2dVertex
 10
2.577116521993259
 20
6.851718514799508
 30
0.0
 70
     8
  0
VERTEX
  5
1666
330
148C
100
AcDbEntity
  8
image
100
AcDbVertex
100
AcDb2dVertex
 10
2.57619329338342
 20
6.758898902474041
 30
0.0
 70
     8
  0
VERTEX
  5
1667
330
148C
100
AcDbEntity
  8
image
100
AcDbVertex
100
AcDb2dVertex
 10
2.575386107610935
 20
6.651494253291916
 30
0.0
 70
     8
  0
VERTEX
  5
1668
330
148C
100
AcDbEntity
  8
image
100
AcDbVertex
100
AcDb2dVertex
 10
2.574683702876104
 20
6.534355175086369
 30
0.0
 70
     8
  0
VERTEX
  5
1669
330
148C
100
AcDbEntity
  8
image
100
AcDbVertex
100
AcDb2dVertex
 10
2.574074817379224
 20
6.412332275690636
 30
0.0
 70
     8
  0
VERTEX
  5
166A
330
148C
100
AcDbEntity
  8
image
100
AcDbVertex
100
AcDb2dVertex
 10
2.573548189320596
 20
6.290276162937952
 30
0.0
 70
     8
  0
VERTEX
  5
166B
330
148C
100
AcDbEntity
  8
image
100
AcDbVertex
100
AcDb2dVertex
 10
2.573092556900518
 20
6.173037444661551
 30
0.0
 70
     8
  0
VERTEX
  5
166C
330
148C
100
AcDbEntity
  8
image
100
AcDbVertex
100
AcDb2dVertex
 10
2.572696658319289
 20
6.065466728694671
 30
0.0
 70
     8
  0
VERTEX
  5
166D
330
148C
100
AcDbEntity
  8
image
100
AcDbVertex
100
AcDb2dVertex
 10
2.572349231777209
 20
5.972414622870545
 30
0.0
 70
     8
  0
VERTEX
  5
166E
330
148C
100
AcDbEntity
  8
image
100
AcDbVertex
100
AcDb2dVertex
 10
2.572039885178129
 20
5.897520506596133
 30
0.0
 70
     8
  0
VERTEX
  5
166F
330
148C
100
AcDbEntity
  8
image
100
AcDbVertex
100
AcDb2dVertex
 10
2.571761705240117
 20
5.839578845573288
 30
0.0
 70
     8
  0
VERTEX
  5
1670
330
148C
100
AcDbEntity
  8
image
100
AcDbVertex
100
AcDb2dVertex
 10
2.571508648384795
 20
5.796172877077586
 30
0.0
 70
     8
  0
VERTEX
  5
1671
330
148C
100
AcDbEntity
  8
image
100
AcDbVertex
100
AcDb2dVertex
 10
2.571274671033783
 20
5.764885838384605
 30
0.0
 70
     8
  0
VERTEX
  5
1672
330
148C
100
AcDbEntity
  8
image
100
AcDbVertex
100
AcDb2dVertex
 10
2.571053729608701
 20
5.743300966769922
 30
0.0
 70
     8
  0
VERTEX
  5
1673
330
148C
100
AcDbEntity
  8
image
100
AcDbVertex
100
AcDb2dVertex
 10
2.570839780531172
 20
5.729001499509112
 30
0.0
 70
     8
  0
VERTEX
  5
1674
330
148C
100
AcDbEntity
  8
image
100
AcDbVertex
100
AcDb2dVertex
 10
2.570626780222817
 20
5.719570673877752
 30
0.0
 70
     8
  0
VERTEX
  5
1675
330
148C
100
AcDbEntity
  8
image
100
AcDbVertex
100
AcDb2dVertex
 10
2.570408685105256
 20
5.71259172715142
 30
0.0
 70
     8
  0
VERTEX
  5
1676
330
148C
100
AcDbEntity
  8
image
100
AcDbVertex
100
AcDb2dVertex
 10
2.570179548976266
 20
5.706036050747199
 30
0.0
 70
     8
  0
VERTEX
  5
1677
330
148C
100
AcDbEntity
  8
image
100
AcDbVertex
100
AcDb2dVertex
 10
2.569933815138251
 20
5.699427652648201
 30
0.0
 70
     8
  0
VERTEX
  5
1678
330
148C
100
AcDbEntity
  8
image
100
AcDbVertex
100
AcDb2dVertex
 10
2.569666024269772
 20
5.692678694979044
 30
0.0
 70
     8
  0
VERTEX
  5
1679
330
148C
100
AcDbEntity
  8
image
100
AcDbVertex
100
AcDb2dVertex
 10
2.569370717049389
 20
5.685701339864349
 30
0.0
 70
     8
  0
VERTEX
  5
167A
330
148C
100
AcDbEntity
  8
image
100
AcDbVertex
100
AcDb2dVertex
 10
2.569042434155662
 20
5.678407749428732
 30
0.0
 70
     8
  0
VERTEX
  5
167B
330
148C
100
AcDbEntity
  8
image
100
AcDbVertex
100
AcDb2dVertex
 10
2.568675716267152
 20
5.670710085796814
 30
0.0
 70
     8
  0
VERTEX
  5
167C
330
148C
100
AcDbEntity
  8
image
100
AcDbVertex
100
AcDb2dVertex
 10
2.568265104062418
 20
5.662520511093213
 30
0.0
 70
     8
  0
VERTEX
  5
167D
330
148C
100
AcDbEntity
  8
image
100
AcDbVertex
100
AcDb2dVertex
 10
2.56780513822002
 20
5.653751187442549
 30
0.0
 70
     8
  0
VERTEX
  5
167E
330
148C
100
AcDbEntity
  8
image
100
AcDbVertex
100
AcDb2dVertex
 10
2.567292232268144
 20
5.6443476119213
 30
0.0
 70
     8
  0
VERTEX
  5
167F
330
148C
100
AcDbEntity
  8
image
100
AcDbVertex
100
AcDb2dVertex
 10
2.566730291133469
 20
5.634388621413389
 30
0.0
 70
     8
  0
VERTEX
  5
1680
330
148C
100
AcDbEntity
  8
image
100
AcDbVertex
100
AcDb2dVertex
 10
2.5661250925923
 20
5.623986387754598
 30
0.0
 70
     8
  0
VERTEX
  5
1681
330
148C
100
AcDbEntity
  8
image
100
AcDbVertex
100
AcDb2dVertex
 10
2.56548241442094
 20
5.613253082780709
 30
0.0
 70
     8
  0
VERTEX
  5
1682
330
148C
100
AcDbEntity
  8
image
100
AcDbVertex
100
AcDb2dVertex
 10
2.564808034395694
 20
5.602300878327506
 30
0.0
 70
     8
  0
VERTEX
  5
1683
330
148C
100
AcDbEntity
  8
image
100
AcDbVertex
100
AcDb2dVertex
 10
2.564107730292866
 20
5.591241946230769
 30
0.0
 70
     8
  0
VERTEX
  5
1684
330
148C
100
AcDbEntity
  8
image
100
AcDbVertex
100
AcDb2dVertex
 10
2.563387279888761
 20
5.580188458326282
 30
0.0
 70
     8
  0
VERTEX
  5
1685
330
148C
100
AcDbEntity
  8
image
100
AcDbVertex
100
AcDb2dVertex
 10
2.562652460959682
 20
5.569252586449827
 30
0.0
 70
     8
  0
VERTEX
  5
1686
330
148C
100
AcDbEntity
  8
image
100
AcDbVertex
100
AcDb2dVertex
 10
2.561907898983962
 20
5.558521306673634
 30
0.0
 70
     8
  0
VERTEX
  5
1687
330
148C
100
AcDbEntity
  8
image
100
AcDbVertex
100
AcDb2dVertex
 10
2.561153610248042
 20
5.547980812015733
 30
0.0
 70
     8
  0
VERTEX
  5
1688
330
148C
100
AcDbEntity
  8
image
100
AcDbVertex
100
AcDb2dVertex
 10
2.560388458740392
 20
5.537592099730597
 30
0.0
 70
     8
  0
VERTEX
  5
1689
330
148C
100
AcDbEntity
  8
image
100
AcDbVertex
100
AcDb2dVertex
 10
2.559611308449484
 20
5.527316167072703
 30
0.0
 70
     8
  0
VERTEX
  5
168A
330
148C
100
AcDbEntity
  8
image
100
AcDbVertex
100
AcDb2dVertex
 10
2.558821023363786
 20
5.517114011296525
 30
0.0
 70
     8
  0
VERTEX
  5
168B
330
148C
100
AcDbEntity
  8
image
100
AcDbVertex
100
AcDb2dVertex
 10
2.558016467471768
 20
5.506946629656541
 30
0.0
 70
     8
  0
VERTEX
  5
168C
330
148C
100
AcDbEntity
  8
image
100
AcDbVertex
100
AcDb2dVertex
 10
2.557196504761901
 20
5.496775019407225
 30
0.0
 70
     8
  0
VERTEX
  5
168D
330
148C
100
AcDbEntity
  8
image
100
AcDbVertex
100
AcDb2dVertex
 10
2.556359999222654
 20
5.486560177803053
 30
0.0
 70
     8
  0
VERTEX
  5
168E
330
148C
100
AcDbEntity
  8
image
100
AcDbVertex
100
AcDb2dVertex
 10
2.555505960408384
 20
5.47626758474754
 30
0.0
 70
     8
  0
VERTEX
  5
168F
330
148C
100
AcDbEntity
  8
image
100
AcDbVertex
100
AcDb2dVertex
 10
2.554633980136984
 20
5.465880650740355
 30
0.0
 70
     8
  0
VERTEX
  5
1690
330
148C
100
AcDbEntity
  8
image
100
AcDbVertex
100
AcDb2dVertex
 10
2.553743795792239
 20
5.455387268930209
 30
0.0
 70
     8
  0
VERTEX
  5
1691
330
148C
100
AcDbEntity
  8
image
100
AcDbVertex
100
AcDb2dVertex
 10
2.55283514475793
 20
5.444775332465809
 30
0.0
 70
     8
  0
VERTEX
  5
1692
330
148C
100
AcDbEntity
  8
image
100
AcDbVertex
100
AcDb2dVertex
 10
2.551907764417836
 20
5.434032734495866
 30
0.0
 70
     8
  0
VERTEX
  5
1693
330
148C
100
AcDbEntity
  8
image
100
AcDbVertex
100
AcDb2dVertex
 10
2.550961392155742
 20
5.423147368169088
 30
0.0
 70
     8
  0
VERTEX
  5
1694
330
148C
100
AcDbEntity
  8
image
100
AcDbVertex
100
AcDb2dVertex
 10
2.549995765355428
 20
5.412107126634184
 30
0.0
 70
     8
  0
VERTEX
  5
1695
330
148C
100
AcDbEntity
  8
image
100
AcDbVertex
100
AcDb2dVertex
 10
2.549010621400675
 20
5.400899903039864
 30
0.0
 70
     8
  0
VERTEX
  5
1696
330
148C
100
AcDbEntity
  8
image
100
AcDbVertex
100
AcDb2dVertex
 10
2.548007024588979
 20
5.389519665649919
 30
0.0
 70
     8
  0
VERTEX
  5
1697
330
148C
100
AcDbEntity
  8
image
100
AcDbVertex
100
AcDb2dVertex
 10
2.546991346872689
 20
5.377984683188475
 30
0.0
 70
     8
  0
VERTEX
  5
1698
330
148C
100
AcDbEntity
  8
image
100
AcDbVertex
100
AcDb2dVertex
 10
2.545971287117864
 20
5.366319299494741
 30
0.0
 70
     8
  0
VERTEX
  5
1699
330
148C
100
AcDbEntity
  8
image
100
AcDbVertex
100
AcDb2dVertex
 10
2.544954544190567
 20
5.354547858407927
 30
0.0
 70
     8
  0
VERTEX
  5
169A
330
148C
100
AcDbEntity
  8
image
100
AcDbVertex
100
AcDb2dVertex
 10
2.54394881695686
 20
5.34269470376724
 30
0.0
 70
     8
  0
VERTEX
  5
169B
330
148C
100
AcDbEntity
  8
image
100
AcDbVertex
100
AcDb2dVertex
 10
2.542961804282803
 20
5.33078417941189
 30
0.0
 70
     8
  0
VERTEX
  5
169C
330
148C
100
AcDbEntity
  8
image
100
AcDbVertex
100
AcDb2dVertex
 10
2.542001205034458
 20
5.318840629181086
 30
0.0
 70
     8
  0
VERTEX
  5
169D
330
148C
100
AcDbEntity
  8
image
100
AcDbVertex
100
AcDb2dVertex
 10
2.541074718077887
 20
5.306888396914037
 30
0.0
 70
     8
  0
VERTEX
  5
169E
330
148C
100
AcDbEntity
  8
image
100
AcDbVertex
100
AcDb2dVertex
 10
2.540189741570583
 20
5.294946244527159
 30
0.0
 70
     8
  0
VERTEX
  5
169F
330
148C
100
AcDbEntity
  8
image
100
AcDbVertex
100
AcDb2dVertex
 10
2.539352470835766
 20
5.283010606245704
 30
0.0
 70
     8
  0
VERTEX
  5
16A0
330
148C
100
AcDbEntity
  8
image
100
AcDbVertex
100
AcDb2dVertex
 10
2.538568800488087
 20
5.271072334372131
 30
0.0
 70
     8
  0
VERTEX
  5
16A1
330
148C
100
AcDbEntity
  8
image
100
AcDbVertex
100
AcDb2dVertex
 10
2.5378446251422
 20
5.259122281208897
 30
0.0
 70
     8
  0
VERTEX
  5
16A2
330
148C
100
AcDbEntity
  8
image
100
AcDbVertex
100
AcDb2dVertex
 10
2.537185839412756
 20
5.247151299058463
 30
0.0
 70
     8
  0
VERTEX
  5
16A3
330
148C
100
AcDbEntity
  8
image
100
AcDbVertex
100
AcDb2dVertex
 10
2.536598337914406
 20
5.235150240223285
 30
0.0
 70
     8
  0
VERTEX
  5
16A4
330
148C
100
AcDbEntity
  8
image
100
AcDbVertex
100
AcDb2dVertex
 10
2.536088015261803
 20
5.223109957005825
 30
0.0
 70
     8
  0
VERTEX
  5
16A5
330
148C
100
AcDbEntity
  8
image
100
AcDbVertex
100
AcDb2dVertex
 10
2.535660766069598
 20
5.211021301708541
 30
0.0
 70
     8
  0
VERTEX
  5
16A6
330
148C
100
AcDbEntity
  8
image
100
AcDbVertex
100
AcDb2dVertex
 10
2.535320748559347
 20
5.19889120444551
 30
0.0
 70
     8
  0
VERTEX
  5
16A7
330
148C
100
AcDbEntity
  8
image
100
AcDbVertex
100
AcDb2dVertex
 10
2.535065175380224
 20
5.186790906577291
 30
0.0
 70
     8
  0
VERTEX
  5
16A8
330
148C
100
AcDbEntity
  8
image
100
AcDbVertex
100
AcDb2dVertex
 10
2.534889522788302
 20
5.174807727276061
 30
0.0
 70
     8
  0
VERTEX
  5
16A9
330
148C
100
AcDbEntity
  8
image
100
AcDbVertex
100
AcDb2dVertex
 10
2.534789267039659
 20
5.163028985713998
 30
0.0
 70
     8
  0
VERTEX
  5
16AA
330
148C
100
AcDbEntity
  8
image
100
AcDbVertex
100
AcDb2dVertex
 10
2.53475988439037
 20
5.151542001063278
 30
0.0
 70
     8
  0
VERTEX
  5
16AB
330
148C
100
AcDbEntity
  8
image
100
AcDbVertex
100
AcDb2dVertex
 10
2.534796851096512
 20
5.140434092496079
 30
0.0
 70
     8
  0
VERTEX
  5
16AC
330
148C
100
AcDbEntity
  8
image
100
AcDbVertex
100
AcDb2dVertex
 10
2.534895643414161
 20
5.129792579184577
 30
0.0
 70
     8
  0
VERTEX
  5
16AD
330
148C
100
AcDbEntity
  8
image
100
AcDbVertex
100
AcDb2dVertex
 10
2.535051737599392
 20
5.119704780300952
 30
0.0
 70
     8
  0
VERTEX
  5
16AE
330
148C
100
AcDbEntity
  8
image
100
AcDbVertex
100
AcDb2dVertex
 10
2.535259660320549
 20
5.109508004041827
 30
0.0
 70
     8
  0
VERTEX
  5
16AF
330
148C
100
AcDbEntity
  8
image
100
AcDbVertex
100
AcDb2dVertex
 10
2.535510139895039
 20
5.095539514701615
 30
0.0
 70
     8
  0
VERTEX
  5
16B0
330
148C
100
AcDbEntity
  8
image
100
AcDbVertex
100
AcDb2dVertex
 10
2.535792955052539
 20
5.073386565599176
 30
0.0
 70
     8
  0
VERTEX
  5
16B1
330
148C
100
AcDbEntity
  8
image
100
AcDbVertex
100
AcDb2dVertex
 10
2.536097884522724
 20
5.038636410053372
 30
0.0
 70
     8
  0
VERTEX
  5
16B2
330
148C
100
AcDbEntity
  8
image
100
AcDbVertex
100
AcDb2dVertex
 10
2.536414707035269
 20
4.986876301383063
 30
0.0
 70
     8
  0
VERTEX
  5
16B3
330
148C
100
AcDbEntity
  8
image
100
AcDbVertex
100
AcDb2dVertex
 10
2.536733201319849
 20
4.913693492907109
 30
0.0
 70
     8
  0
VERTEX
  5
16B4
330
148C
100
AcDbEntity
  8
image
100
AcDbVertex
100
AcDb2dVertex
 10
2.53704314610614
 20
4.81467523794437
 30
0.0
 70
     8
  0
VERTEX
  5
16B5
330
148C
100
AcDbEntity
  8
image
100
AcDbVertex
100
AcDb2dVertex
 10
2.537334320123816
 20
4.685408789813707
 30
0.0
 70
     8
  0
VERTEX
  5
16B6
330
148C
100
AcDbEntity
  8
image
100
AcDbVertex
100
AcDb2dVertex
 10
2.537600990336898
 20
4.523651448630187
 30
0.0
 70
     8
  0
VERTEX
  5
16B7
330
148C
100
AcDbEntity
  8
image
100
AcDbVertex
100
AcDb2dVertex
 10
2.537855376646778
 20
4.335840701693702
 30
0.0
 70
     8
  0
VERTEX
  5
16B8
330
148C
100
AcDbEntity
  8
image
100
AcDbVertex
100
AcDb2dVertex
 10
2.538114187189192
 20
4.130584083100349
 30
0.0
 70
     8
  0
VERTEX
  5
16B9
330
148C
100
AcDbEntity
  8
image
100
AcDbVertex
100
AcDb2dVertex
 10
2.538394130099877
 20
3.916489126946229
 30
0.0
 70
     8
  0
VERTEX
  5
16BA
330
148C
100
AcDbEntity
  8
image
100
AcDbVertex
100
AcDb2dVertex
 10
2.538711913514569
 20
3.702163367327438
 30
0.0
 70
     8
  0
VERTEX
  5
16BB
330
148C
100
AcDbEntity
  8
image
100
AcDbVertex
100
AcDb2dVertex
 10
2.539084245569005
 20
3.496214338340075
 30
0.0
 70
     8
  0
VERTEX
  5
16BC
330
148C
100
AcDbEntity
  8
image
100
AcDbVertex
100
AcDb2dVertex
 10
2.539527834398922
 20
3.307249574080239
 30
0.0
 70
     8
  0
VERTEX
  5
16BD
330
148C
100
AcDbEntity
  8
image
100
AcDbVertex
100
AcDb2dVertex
 10
2.540059388140055
 20
3.143876608644027
 30
0.0
 70
     8
  0
VERTEX
  5
16BE
330
148C
100
AcDbEntity
  8
image
100
AcDbVertex
100
AcDb2dVertex
 10
2.540691071841281
 20
3.012556069468837
 30
0.0
 70
     8
  0
VERTEX
  5
16BF
330
148C
100
AcDbEntity
  8
image
100
AcDbVertex
100
AcDb2dVertex
 10
2.541416878204034
 20
2.911160957357258
 30
0.0
 70
     8
  0
VERTEX
  5
16C0
330
148C
100
AcDbEntity
  8
image
100
AcDbVertex
100
AcDb2dVertex
 10
2.542226256842889
 20
2.835417366453179
 30
0.0
 70
     8
  0
VERTEX
  5
16C1
330
148C
100
AcDbEntity
  8
image
100
AcDbVertex
100
AcDb2dVertex
 10
2.54310865737242
 20
2.781051390900488
 30
0.0
 70
     8
  0
VERTEX
  5
16C2
330
148C
100
AcDbEntity
  8
image
100
AcDbVertex
100
AcDb2dVertex
 10
2.544053529407201
 20
2.743789124843072
 30
0.0
 70
     8
  0
VERTEX
  5
16C3
330
148C
100
AcDbEntity
  8
image
100
AcDbVertex
100
AcDb2dVertex
 10
2.545050322561806
 20
2.719356662424822
 30
0.0
 70
     8
  0
VERTEX
  5
16C4
330
148C
100
AcDbEntity
  8
image
100
AcDbVertex
100
AcDb2dVertex
 10
2.54608848645081
 20
2.703480097789624
 30
0.0
 70
     8
  0
VERTEX
  5
16C5
330
148C
100
AcDbEntity
  8
image
100
AcDbVertex
100
AcDb2dVertex
 10
2.547157470688787
 20
2.691885525081367
 30
0.0
 70
     8
  0
VERTEX
  5
16C6
330
148C
100
AcDbEntity
  8
image
100
AcDbVertex
100
AcDb2dVertex
 10
2.548248764346975
 20
2.681007259653217
 30
0.0
 70
     8
  0
VERTEX
  5
16C7
330
148C
100
AcDbEntity
  8
image
100
AcDbVertex
100
AcDb2dVertex
 10
2.54936201432327
 20
2.670112501695447
 30
0.0
 70
     8
  0
VERTEX
  5
16C8
330
148C
100
AcDbEntity
  8
image
100
AcDbVertex
100
AcDb2dVertex
 10
2.550498906972233
 20
2.659176672607609
 30
0.0
 70
     8
  0
VERTEX
  5
16C9
330
148C
100
AcDbEntity
  8
image
100
AcDbVertex
100
AcDb2dVertex
 10
2.551661128648425
 20
2.648175193789255
 30
0.0
 70
     8
  0
VERTEX
  5
16CA
330
148C
100
AcDbEntity
  8
image
100
AcDbVertex
100
AcDb2dVertex
 10
2.552850365706406
 20
2.637083486639935
 30
0.0
 70
     8
  0
VERTEX
  5
16CB
330
148C
100
AcDbEntity
  8
image
100
AcDbVertex
100
AcDb2dVertex
 10
2.554068304500737
 20
2.6258769725592
 30
0.0
 70
     8
  0
VERTEX
  5
16CC
330
148C
100
AcDbEntity
  8
image
100
AcDbVertex
100
AcDb2dVertex
 10
2.555316631385978
 20
2.614531072946603
 30
0.0
 70
     8
  0
VERTEX
  5
16CD
330
148C
100
AcDbEntity
  8
image
100
AcDbVertex
100
AcDb2dVertex
 10
2.556597032716691
 20
2.603021209201694
 30
0.0
 70
     8
  0
VERTEX
  5
16CE
330
148C
100
AcDbEntity
  8
image
100
AcDbVertex
100
AcDb2dVertex
 10
2.557910132382609
 20
2.591332444162695
 30
0.0
 70
     8
  0
VERTEX
  5
16CF
330
148C
100
AcDbEntity
  8
image
100
AcDbVertex
100
AcDb2dVertex
 10
2.559252304414171
 20
2.579488406422502
 30
0.0
 70
     8
  0
VERTEX
  5
16D0
330
148C
100
AcDbEntity
  8
image
100
AcDbVertex
100
AcDb2dVertex
 10
2.560618860376985
 20
2.567522366012684
 30
0.0
 70
     8
  0
VERTEX
  5
16D1
330
148C
100
AcDbEntity
  8
image
100
AcDbVertex
100
AcDb2dVertex
 10
2.562005111836664
 20
2.555467592964807
 30
0.0
 70
     8
  0
VERTEX
  5
16D2
330
148C
100
AcDbEntity
  8
image
100
AcDbVertex
100
AcDb2dVertex
 10
2.563406370358817
 20
2.54335735731044
 30
0.0
 70
     8
  0
VERTEX
  5
16D3
330
148C
100
AcDbEntity
  8
image
100
AcDbVertex
100
AcDb2dVertex
 10
2.564817947509056
 20
2.531224929081149
 30
0.0
 70
     8
  0
VERTEX
  5
16D4
330
148C
100
AcDbEntity
  8
image
100
AcDbVertex
100
AcDb2dVertex
 10
2.566235154852992
 20
2.519103578308501
 30
0.0
 70
     8
  0
VERTEX
  5
16D5
330
148C
100
AcDbEntity
  8
image
100
AcDbVertex
100
AcDb2dVertex
 10
2.567653303956235
 20
2.507026575024065
 30
0.0
 70
     8
  0
VERTEX
  5
16D6
330
148C
100
AcDbEntity
  8
image
100
AcDbVertex
100
AcDb2dVertex
 10
2.569068421624503
 20
2.495020902155083
 30
0.0
 70
     8
  0
VERTEX
  5
16D7
330
148C
100
AcDbEntity
  8
image
100
AcDbVertex
100
AcDb2dVertex
 10
2.570479395623935
 20
2.483088394211502
 30
0.0
 70
     8
  0
VERTEX
  5
16D8
330
148C
100
AcDbEntity
  8
image
100
AcDbVertex
100
AcDb2dVertex
 10
2.571885828960777
 20
2.471224598598943
 30
0.0
 70
     8
  0
VERTEX
  5
16D9
330
148C
100
AcDbEntity
  8
image
100
AcDbVertex
100
AcDb2dVertex
 10
2.573287324641276
 20
2.459425062723029
 30
0.0
 70
     8
  0
VERTEX
  5
16DA
330
148C
100
AcDbEntity
  8
image
100
AcDbVertex
100
AcDb2dVertex
 10
2.574683485671676
 20
2.447685333989384
 30
0.0
 70
     8
  0
VERTEX
  5
16DB
330
148C
100
AcDbEntity
  8
image
100
AcDbVertex
100
AcDb2dVertex
 10
2.576073915058225
 20
2.436000959803627
 30
0.0
 70
     8
  0
VERTEX
  5
16DC
330
148C
100
AcDbEntity
  8
image
100
AcDbVertex
100
AcDb2dVertex
 10
2.577458215807167
 20
2.424367487571382
 30
0.0
 70
     8
  0
VERTEX
  5
16DD
330
148C
100
AcDbEntity
  8
image
100
AcDbVertex
100
AcDb2dVertex
 10
2.578835990924749
 20
2.412780464698272
 30
0.0
 70
     8
  0
VERTEX
  5
16DE
330
148C
100
AcDbEntity
  8
image
100
AcDbVertex
100
AcDb2dVertex
 10
2.580206256060276
 20
2.401235671020427
 30
0.0
 70
     8
  0
VERTEX
  5
16DF
330
148C
100
AcDbEntity
  8
image
100
AcDbVertex
100
AcDb2dVertex
 10
2.58156567743529
 20
2.389729816096013
 30
0.0
 70
     8
  0
VERTEX
  5
16E0
330
148C
100
AcDbEntity
  8
image
100
AcDbVertex
100
AcDb2dVertex
 10
2.582910333914392
 20
2.378259841913709
 30
0.0
 70
     8
  0
VERTEX
  5
16E1
330
148C
100
AcDbEntity
  8
image
100
AcDbVertex
100
AcDb2dVertex
 10
2.584236304362182
 20
2.366822690462189
 30
0.0
 70
     8
  0
VERTEX
  5
16E2
330
148C
100
AcDbEntity
  8
image
100
AcDbVertex
100
AcDb2dVertex
 10
2.585539667643264
 20
2.35541530373013
 30
0.0
 70
     8
  0
VERTEX
  5
16E3
330
148C
100
AcDbEntity
  8
image
100
AcDbVertex
100
AcDb2dVertex
 10
2.586816502622236
 20
2.344034623706207
 30
0.0
 70
     8
  0
VERTEX
  5
16E4
330
148C
100
AcDbEntity
  8
image
100
AcDbVertex
100
AcDb2dVertex
 10
2.588062888163701
 20
2.332677592379097
 30
0.0
 70
     8
  0
VERTEX
  5
16E5
330
148C
100
AcDbEntity
  8
image
100
AcDbVertex
100
AcDb2dVertex
 10
2.589274903132259
 20
2.321341151737476
 30
0.0
 70
     8
  0
VERTEX
  5
16E6
330
148C
100
AcDbEntity
  8
image
100
AcDbVertex
100
AcDb2dVertex
 10
2.590447029713082
 20
2.310019186202405
 30
0.0
 70
     8
  0
VERTEX
  5
16E7
330
148C
100
AcDbEntity
  8
image
100
AcDbVertex
100
AcDb2dVertex
 10
2.591567363373622
 20
2.29869334992449
 30
0.0
 70
     8
  0
VERTEX
  5
16E8
330
148C
100
AcDbEntity
  8
image
100
AcDbVertex
100
AcDb2dVertex
 10
2.592622402901899
 20
2.287342239486721
 30
0.0
 70
     8
  0
VERTEX
  5
16E9
330
148C
100
AcDbEntity
  8
image
100
AcDbVertex
100
AcDb2dVertex
 10
2.593598647085935
 20
2.275944451472089
 30
0.0
 70
     8
  0
VERTEX
  5
16EA
330
148C
100
AcDbEntity
  8
image
100
AcDbVertex
100
AcDb2dVertex
 10
2.59448259471375
 20
2.264478582463585
 30
0.0
 70
     8
  0
VERTEX
  5
16EB
330
148C
100
AcDbEntity
  8
image
100
AcDbVertex
100
AcDb2dVertex
 10
2.595260744573368
 20
2.2529232290442
 30
0.0
 70
     8
  0
VERTEX
  5
16EC
330
148C
100
AcDbEntity
  8
image
100
AcDbVertex
100
AcDb2dVertex
 10
2.595919595452809
 20
2.241256987796924
 30
0.0
 70
     8
  0
VERTEX
  5
16ED
330
148C
100
AcDbEntity
  8
image
100
AcDbVertex
100
AcDb2dVertex
 10
2.596445646140093
 20
2.229458455304749
 30
0.0
 70
     8
  0
VERTEX
  5
16EE
330
148C
100
AcDbEntity
  8
image
100
AcDbVertex
100
AcDb2dVertex
 10
2.596825700494974
 20
2.217514496897575
 30
0.0
 70
     8
  0
VERTEX
  5
16EF
330
148C
100
AcDbEntity
  8
image
100
AcDbVertex
100
AcDb2dVertex
 10
2.597047782664122
 20
2.205445052892948
 30
0.0
 70
     8
  0
VERTEX
  5
16F0
330
148C
100
AcDbEntity
  8
image
100
AcDbVertex
100
AcDb2dVertex
 10
2.59710022186594
 20
2.193278332355324
 30
0.0
 70
     8
  0
VERTEX
  5
16F1
330
148C
100
AcDbEntity
  8
image
100
AcDbVertex
100
AcDb2dVertex
 10
2.596971347318831
 20
2.181042544349161
 30
0.0
 70
     8
  0
VERTEX
  5
16F2
330
148C
100
AcDbEntity
  8
image
100
AcDbVertex
100
AcDb2dVertex
 10
2.596649488241196
 20
2.168765897938912
 30
0.0
 70
     8
  0
VERTEX
  5
16F3
330
148C
100
AcDbEntity
  8
image
100
AcDbVertex
100
AcDb2dVertex
 10
2.596122973851437
 20
2.156476602189035
 30
0.0
 70
     8
  0
VERTEX
  5
16F4
330
148C
100
AcDbEntity
  8
image
100
AcDbVertex
100
AcDb2dVertex
 10
2.595380133367957
 20
2.144202866163986
 30
0.0
 70
     8
  0
VERTEX
  5
16F5
330
148C
100
AcDbEntity
  8
image
100
AcDbVertex
100
AcDb2dVertex
 10
2.594409296009157
 20
2.131972898928221
 30
0.0
 70
     8
  0
VERTEX
  5
16F6
330
148C
100
AcDbEntity
  8
image
100
AcDbVertex
100
AcDb2dVertex
 10
2.593202223555995
 20
2.119809231198035
 30
0.0
 70
     8
  0
VERTEX
  5
16F7
330
148C
100
AcDbEntity
  8
image
100
AcDbVertex
100
AcDb2dVertex
 10
2.591764408039638
 20
2.107711680297075
 30
0.0
 70
     8
  0
VERTEX
  5
16F8
330
148C
100
AcDbEntity
  8
image
100
AcDbVertex
100
AcDb2dVertex
 10
2.590104774053809
 20
2.095674385200829
 30
0.0
 70
     8
  0
VERTEX
  5
16F9
330
148C
100
AcDbEntity
  8
image
100
AcDbVertex
100
AcDb2dVertex
 10
2.588232246192231
 20
2.083691484884782
 30
0.0
 70
     8
  0
VERTEX
  5
16FA
330
148C
100
AcDbEntity
  8
image
100
AcDbVertex
100
AcDb2dVertex
 10
2.586155749048626
 20
2.071757118324421
 30
0.0
 70
     8
  0
VERTEX
  5
16FB
330
148C
100
AcDbEntity
  8
image
100
AcDbVertex
100
AcDb2dVertex
 10
2.583884207216718
 20
2.059865424495232
 30
0.0
 70
     8
  0
VERTEX
  5
16FC
330
148C
100
AcDbEntity
  8
image
100
AcDbVertex
100
AcDb2dVertex
 10
2.581426545290229
 20
2.048010542372703
 30
0.0
 70
     8
  0
VERTEX
  5
16FD
330
148C
100
AcDbEntity
  8
image
100
AcDbVertex
100
AcDb2dVertex
 10
2.578791687862881
 20
2.036186610932319
 30
0.0
 70
     8
  0
VERTEX
  5
16FE
330
148C
100
AcDbEntity
  8
image
100
AcDbVertex
100
AcDb2dVertex
 10
2.575986647432709
 20
2.024391064916378
 30
0.0
 70
     8
  0
VERTEX
  5
16FF
330
148C
100
AcDbEntity
  8
image
100
AcDbVertex
100
AcDb2dVertex
 10
2.573010788114994
 20
2.012634522134422
 30
0.0
 70
     8
  0
VERTEX
  5
1700
330
148C
100
AcDbEntity
  8
image
100
AcDbVertex
100
AcDb2dVertex
 10
2.569861561929329
 20
2.000930896162807
 30
0.0
 70
     8
  0
VERTEX
  5
1701
330
148C
100
AcDbEntity
  8
image
100
AcDbVertex
100
AcDb2dVertex
 10
2.566536420895306
 20
1.989294100577886
 30
0.0
 70
     8
  0
VERTEX
  5
1702
330
148C
100
AcDbEntity
  8
image
100
AcDbVertex
100
AcDb2dVertex
 10
2.563032817032518
 20
1.977738048956013
 30
0.0
 70
     8
  0
VERTEX
  5
1703
330
148C
100
AcDbEntity
  8
image
100
AcDbVertex
100
AcDb2dVertex
 10
2.559348202360558
 20
1.966276654873543
 30
0.0
 70
     8
  0
VERTEX
  5
1704
330
148C
100
AcDbEntity
  8
image
100
AcDbVertex
100
AcDb2dVertex
 10
2.55548002889902
 20
1.954923831906829
 30
0.0
 70
     8
  0
VERTEX
  5
1705
330
148C
100
AcDbEntity
  8
image
100
AcDbVertex
100
AcDb2dVertex
 10
2.551425748667494
 20
1.943693493632226
 30
0.0
 70
     8
  0
VERTEX
  5
1706
330
148C
100
AcDbEntity
  8
image
100
AcDbVertex
100
AcDb2dVertex
 10
2.547175966854977
 20
1.932585412544037
 30
0.0
 70
     8
  0
VERTEX
  5
1707
330
148C
100
AcDbEntity
  8
image
100
AcDbVertex
100
AcDb2dVertex
 10
2.542693901328067
 20
1.921542796808368
 30
0.0
 70
     8
  0
VERTEX
  5
1708
330
148C
100
AcDbEntity
  8
image
100
AcDbVertex
100
AcDb2dVertex
 10
2.537935923122766
 20
1.910494713509271
 30
0.0
 70
     8
  0
VERTEX
  5
1709
330
148C
100
AcDbEntity
  8
image
100
AcDbVertex
100
AcDb2dVertex
 10
2.532858403275075
 20
1.899370229730803
 30
0.0
 70
     8
  0
VERTEX
  5
170A
330
148C
100
AcDbEntity
  8
image
100
AcDbVertex
100
AcDb2dVertex
 10
2.527417712820996
 20
1.888098412557016
 30
0.0
 70
     8
  0
VERTEX
  5
170B
330
148C
100
AcDbEntity
  8
image
100
AcDbVertex
100
AcDb2dVertex
 10
2.52157022279653
 20
1.876608329071966
 30
0.0
 70
     8
  0
VERTEX
  5
170C
330
148C
100
AcDbEntity
  8
image
100
AcDbVertex
100
AcDb2dVertex
 10
2.515272304237678
 20
1.864829046359707
 30
0.0
 70
     8
  0
VERTEX
  5
170D
330
148C
100
AcDbEntity
  8
image
100
AcDbVertex
100
AcDb2dVertex
 10
2.508480328180442
 20
1.852689631504292
 30
0.0
 70
     8
  0
VERTEX
  5
170E
330
148C
100
AcDbEntity
  8
image
100
AcDbVertex
100
AcDb2dVertex
 10
2.501192179838952
 20
1.840177975938859
 30
0.0
 70
     8
  0
VERTEX
  5
170F
330
148C
100
AcDbEntity
  8
image
100
AcDbVertex
100
AcDb2dVertex
 10
2.493571801139852
 20
1.827517268492867
 30
0.0
 70
     8
  0
VERTEX
  5
1710
330
148C
100
AcDbEntity
  8
image
100
AcDbVertex
100
AcDb2dVertex
 10
2.485824648187916
 20
1.814989522344861
 30
0.0
 70
     8
  0
VERTEX
  5
1711
330
148C
100
AcDbEntity
  8
image
100
AcDbVertex
100
AcDb2dVertex
 10
2.478156177087917
 20
1.802876750673383
 30
0.0
 70
     8
  0
VERTEX
  5
1712
330
148C
100
AcDbEntity
  8
image
100
AcDbVertex
100
AcDb2dVertex
 10
2.470771843944628
 20
1.791460966656975
 30
0.0
 70
     8
  0
VERTEX
  5
1713
330
148C
100
AcDbEntity
  8
image
100
AcDbVertex
100
AcDb2dVertex
 10
2.463877104862823
 20
1.781024183474182
 30
0.0
 70
     8
  0
VERTEX
  5
1714
330
148C
100
AcDbEntity
  8
image
100
AcDbVertex
100
AcDb2dVertex
 10
2.457677415947275
 20
1.771848414303545
 30
0.0
 70
     8
  0
VERTEX
  5
1715
330
148C
100
AcDbEntity
  8
image
100
AcDbVertex
100
AcDb2dVertex
 10
2.452378233302757
 20
1.764215672323607
 30
0.0
 70
     8
  0
VERTEX
  5
15D7
330
148C
100
AcDbEntity
  8
image
100
AcDbVertex
100
AcDb2dVertex
 10
3.303610449409327
 20
7.274051497038703
 30
0.0
 70
    16
  0
VERTEX
  5
15D8
330
148C
100
AcDbEntity
  8
image
100
AcDbVertex
100
AcDb2dVertex
 10
3.297888347974472
 20
7.270243428441273
 30
0.0
 70
    16
  0
VERTEX
  5
15D9
330
148C
100
AcDbEntity
  8
image
100
AcDbVertex
100
AcDb2dVertex
 10
3.291287424083833
 20
7.261370799937777
 30
0.0
 70
    16
  0
VERTEX
  5
15DA
330
148C
100
AcDbEntity
  8
image
100
AcDbVertex
100
AcDb2dVertex
 10
3.288236004131074
 20
7.259575839925734
 30
0.0
 70
    16
  0
VERTEX
  5
15DB
330
148C
100
AcDbEntity
  8
image
100
AcDbVertex
100
AcDb2dVertex
 10
3.283118413687976
 20
7.259470912702768
 30
0.0
 70
    16
  0
VERTEX
  5
15DC
330
148C
100
AcDbEntity
  8
image
100
AcDbVertex
100
AcDb2dVertex
 10
3.213112257973685
 20
7.280280055808798
 30
0.0
 70
    16
  0
VERTEX
  5
15DD
330
148C
100
AcDbEntity
  8
image
100
AcDbVertex
100
AcDb2dVertex
 10
3.169854768746821
 20
7.277029331172288
 30
0.0
 70
    16
  0
VERTEX
  5
15DE
330
148C
100
AcDbEntity
  8
image
100
AcDbVertex
100
AcDb2dVertex
 10
2.993015449787109
 20
7.274240538605385
 30
0.0
 70
    16
  0
VERTEX
  5
15DF
330
148C
100
AcDbEntity
  8
image
100
AcDbVertex
100
AcDb2dVertex
 10
2.911884703888507
 20
7.265009190221038
 30
0.0
 70
    16
  0
VERTEX
  5
15E0
330
148C
100
AcDbEntity
  8
image
100
AcDbVertex
100
AcDb2dVertex
 10
2.823543945134042
 20
7.248486485961585
 30
0.0
 70
    16
  0
VERTEX
  5
15E1
330
148C
100
AcDbEntity
  8
image
100
AcDbVertex
100
AcDb2dVertex
 10
2.734794432053011
 20
7.222049435123066
 30
0.0
 70
    16
  0
VERTEX
  5
15E2
330
148C
100
AcDbEntity
  8
image
100
AcDbVertex
100
AcDb2dVertex
 10
2.64935159533462
 20
7.181186998989001
 30
0.0
 70
    16
  0
VERTEX
  5
15E3
330
148C
100
AcDbEntity
  8
image
100
AcDbVertex
100
AcDb2dVertex
 10
2.587712385944441
 20
7.108373225036948
 30
0.0
 70
    16
  0
VERTEX
  5
15E4
330
148C
100
AcDbEntity
  8
image
100
AcDbVertex
100
AcDb2dVertex
 10
2.575758605864669
 20
7.059032058158363
 30
0.0
 70
    16
  0
VERTEX
  5
15E5
330
148C
100
AcDbEntity
  8
image
100
AcDbVertex
100
AcDb2dVertex
 10
2.571952322556439
 20
5.765809631126648
 30
0.0
 70
    16
  0
VERTEX
  5
15E6
330
148C
100
AcDbEntity
  8
image
100
AcDbVertex
100
AcDb2dVertex
 10
2.570527494572827
 20
5.712217154558311
 30
0.0
 70
    16
  0
VERTEX
  5
15E7
330
148C
100
AcDbEntity
  8
image
100
AcDbVertex
100
AcDb2dVertex
 10
2.568389809783785
 20
5.660872113548627
 30
0.0
 70
    16
  0
VERTEX
  5
15E8
330
148C
100
AcDbEntity
  8
image
100
AcDbVertex
100
AcDb2dVertex
 10
2.562744095612154
 20
5.566801515902472
 30
0.0
 70
    16
  0
VERTEX
  5
15E9
330
148C
100
AcDbEntity
  8
image
100
AcDbVertex
100
AcDb2dVertex
 10
2.55654857352569
 20
5.487437341540442
 30
0.0
 70
    16
  0
VERTEX
  5
15EA
330
148C
100
AcDbEntity
  8
image
100
AcDbVertex
100
AcDb2dVertex
 10
2.549221605621013
 20
5.402810184754079
 30
0.0
 70
    16
  0
VERTEX
  5
15EB
330
148C
100
AcDbEntity
  8
image
100
AcDbVertex
100
AcDb2dVertex
 10
2.540628732394313
 20
5.306721337682425
 30
0.0
 70
    16
  0
VERTEX
  5
15EC
330
148C
100
AcDbEntity
  8
image
100
AcDbVertex
100
AcDb2dVertex
 10
2.53471177326906
 20
5.211634846000441
 30
0.0
 70
    16
  0
VERTEX
  5
15ED
330
148C
100
AcDbEntity
  8
image
100
AcDbVertex
100
AcDb2dVertex
 10
2.534488770947033
 20
5.112867088567055
 30
0.0
 70
    16
  0
VERTEX
  5
15EE
330
148C
100
AcDbEntity
  8
image
100
AcDbVertex
100
AcDb2dVertex
 10
2.537643568539161
 20
5.055125481537051
 30
0.0
 70
    16
  0
VERTEX
  5
15EF
330
148C
100
AcDbEntity
  8
image
100
AcDbVertex
100
AcDb2dVertex
 10
2.538942875639221
 20
2.779083724166981
 30
0.0
 70
    16
  0
VERTEX
  5
15F0
330
148C
100
AcDbEntity
  8
image
100
AcDbVertex
100
AcDb2dVertex
 10
2.546941257744286
 20
2.691799273659188
 30
0.0
 70
    16
  0
VERTEX
  5
15F1
330
148C
100
AcDbEntity
  8
image
100
AcDbVertex
100
AcDb2dVertex
 10
2.556236917516355
 20
2.60503233168447
 30
0.0
 70
    16
  0
VERTEX
  5
15F2
330
148C
100
AcDbEntity
  8
image
100
AcDbVertex
100
AcDb2dVertex
 10
2.567693268490438
 20
2.506198654813096
 30
0.0
 70
    16
  0
VERTEX
  5
15F3
330
148C
100
AcDbEntity
  8
image
100
AcDbVertex
100
AcDb2dVertex
 10
2.578909832259302
 20
2.412332499207537
 30
0.0
 70
    16
  0
VERTEX
  5
15F4
330
148C
100
AcDbEntity
  8
image
100
AcDbVertex
100
AcDb2dVertex
 10
2.589683348020848
 20
2.321154136546385
 30
0.0
 70
    16
  0
VERTEX
  5
15F5
330
148C
100
AcDbEntity
  8
image
100
AcDbVertex
100
AcDb2dVertex
 10
2.59800619445086
 20
2.231097865031778
 30
0.0
 70
    16
  0
VERTEX
  5
15F6
330
148C
100
AcDbEntity
  8
image
100
AcDbVertex
100
AcDb2dVertex
 10
2.596965751016272
 20
2.131205135154993
 30
0.0
 70
    16
  0
VERTEX
  5
15F7
330
148C
100
AcDbEntity
  8
image
100
AcDbVertex
100
AcDb2dVertex
 10
2.580586577538997
 20
2.035918987917579
 30
0.0
 70
    16
  0
VERTEX
  5
15F8
330
148C
100
AcDbEntity
  8
image
100
AcDbVertex
100
AcDb2dVertex
 10
2.553438066005027
 20
1.942238578768603
 30
0.0
 70
    16
  0
VERTEX
  5
15F9
330
148C
100
AcDbEntity
  8
image
100
AcDbVertex
100
AcDb2dVertex
 10
2.51421565044586
 20
1.857287658801365
 30
0.0
 70
    16
  0
VERTEX
  5
15FA
330
148C
100
AcDbEntity
  8
image
100
AcDbVertex
100
AcDb2dVertex
 10
2.465126084344744
 20
1.782261602968248
 30
0.0
 70
    16
  0
VERTEX
  5
15FB
330
148C
100
AcDbEntity
  8
image
100
AcDbVertex
100
AcDb2dVertex
 10
2.452378233302757
 20
1.764215672323607
 30
0.0
 70
    16
  0
SEQEND
  5
15FC
330
148C
100
AcDbEntity
  8
image
  0
ENDSEC
  0
SECTION
  2
OBJECTS
  0
DICTIONARY
  5
10AF
330
0
100
AcDbDictionary
281
     1
  3
ACAD_COLOR
350
121C
  3
ACAD_GROUP
350
10B0
  3
ACAD_LAYOUT
350
10BC
  3
ACAD_MATERIAL
350
11F2
  3
ACAD_MLEADERSTYLE
350
1241
  3
ACAD_MLINESTYLE
350
10B9
  3
ACAD_PLOTSETTINGS
350
10BB
  3
ACAD_PLOTSTYLENAME
350
10B1
  3
ACAD_SCALELIST
350
121F
  3
ACAD_TABLESTYLE
350
121D
  3
ACAD_VISUALSTYLE
350
120B
  3
ACDB_RECOMPOSE_DATA
350
12BC
  3
AcDbVariableDictionary
350
10DD
  3
AEC_PROPERTY_SET_DEFS
350
1350
1001
BBSI_PltSel
1000
1
1000

1001
BBSI_Bookmarks
1000
1
1000
1
1000
0
1000
1
1000
0
1000
0
1000
0
1000
0
1000
0
1000
0
1000
0
1001
BBSI_BookmarksEx
1000
0
1000
0
1000

1000
0
1001
BBSI_Plots
1000

1000
ANSI_A_(11.00_x_8.50_Inches)
1000
279.399993896484
1000
215.899993896484
1000
0
1000
1
1000
1
1000
1.513528885555E-14
1000
17.9871359092673
1000
1
1000
0
1000
1
1000
1.56885758041751
1000
0
1000
1
1000
PDF BW Shaded.ctb
1000
0
1000
0
1000
1
1000
1
1000
0
1000
0
1000
0
1000
0
1000
0
1000
0
1000

1000

  0
DICTIONARY
  5
10EB
330
10A5
100
AcDbDictionary
280
     1
281
     1
  3
ACAD_LAYERFILTERS
360
1750
  3
ACAD_LAYERSTATES
360
10EC
  0
DICTIONARY
  5
12AB
330
10C1
100
AcDbDictionary
280
     1
281
     1
  0
DICTIONARY
  5
1316
330
1195
100
AcDbDictionary
280
     1
281
     1
  3
ACAD_SORTENTS
360
1344
  0
DICTIONARY
  5
177D
330
12DA
100
AcDbDictionary
280
     1
281
     1
  3
ACAD_MTEXT_2008_RT
360
177E
  0
DICTIONARY
  5
177F
330
1352
100
AcDbDictionary
280
     1
281
     1
  3
ACAD_MTEXT_2008_RT
360
1780
  0
DICTIONARY
  5
121C
102
{ACAD_REACTORS
330
10AF
102
}
330
10AF
100
AcDbDictionary
281
     1
  0
DICTIONARY
  5
10B0
102
{ACAD_REACTORS
330
10AF
102
}
330
10AF
100
AcDbDictionary
281
     1
  0
DICTIONARY
  5
10BC
102
{ACAD_REACTORS
330
10AF
102
}
330
10AF
100
AcDbDictionary
281
     1
  3
Layout1
350
10C0
  3
Model
350
10C4
  0
DICTIONARY
  5
11F2
102
{ACAD_REACTORS
330
10AF
102
}
330
10AF
100
AcDbDictionary
281
     1
  3
ByBlock
350
11FB
  3
ByLayer
350
11F3
  3
Global
350
1203
  0
DICTIONARY
  5
1241
102
{ACAD_REACTORS
330
10AF
102
}
330
10AF
100
AcDbDictionary
281
     1
  3
Standard
350
1242
  0
DICTIONARY
  5
10B9
102
{ACAD_REACTORS
330
10AF
102
}
330
10AF
100
AcDbDictionary
281
     1
  3
Standard
350
10BA
  0
DICTIONARY
  5
10BB
102
{ACAD_REACTORS
330
10AF
102
}
330
10AF
100
AcDbDictionary
281
     1
  3
1055 24x36 BW
350
1256
  3
1055 24x36 BW Final
350
1258
  3
1055 24x36 Color
350
1259
  3
1055 24x36 Color Shaded
350
125A
  3
1055 30x42 BW
350
125B
  3
1055 30x42 BW Final
350
125C
  3
1055 B&W Draft
350
125D
  3
1055 B&W Final
350
125E
  3
1055 BW Half
350
125F
  3
1055 Color Draft
350
1260
  3
1055 Color Final
350
1261
  3
1055+ 24x36 BW
350
1262
  3
1055+ 24x36 BW Final
350
1263
  3
1055+ 24x36 Color
350
1264
  3
1055+ 24x36 Color Shaded
350
1265
  3
1055+ 30x42 BW
350
1266
  3
1055+ 30x42 BW Final
350
1267
  3
1055+ B&W Draft
350
1268
  3
1055+ B&W Final
350
1269
  3
1055+ BW Half
350
126A
  3
1055+ Color Draft
350
126B
  3
1055+ Color Final
350
126C
  3
_1055 22x34 True Centered BW
350
126D
  3
_1055 24x36 True Centered BW
350
126E
  3
_1055 24x36 True Centered BW Final
350
126F
  3
_1055 24x36 True Centered Color
350
1270
  3
_1055 30x42 True Centered BW
350
1271
  3
_1055+ 22x34 True Centered BW
350
1272
  3
_1055+ 24x36 True Centered BW
350
1273
  3
_1055+ 24x36 True Centered BW Final
350
1274
  3
_1055+ 24x36 True Centered Color
350
1275
  3
DWF BW 11x17 Fit
350
1276
  3
DWF BW 11x17 Half
350
1277
  3
DWF BW 22x34
350
1278
  3
DWF BW 24x36
350
1279
  3
DWF BW 30x42
350
127A
  3
DWF BW 36x48
350
127B
  3
Laser5 11x17 Fit
350
127C
  3
Laser5 11x17 Full
350
127D
  3
Laser5 11x17 Half
350
127E
  3
Laser5 8x11 Fit
350
127F
  3
Laser5 8x11 Half
350
1280
  3
Laser5 8x11 Portrait Fit
350
1281
  3
LaserJet5 11x17
350
1282
  3
LaserJet5 8.5x11
350
1283
  3
Oki9500 11x17 BW Fit
350
1284
  3
Oki9500 11x17 BW Full
350
1285
  3
Oki9500 11x17 BW Half
350
1286
  3
Oki9500 11x17 Color Fit
350
1287
  3
Oki9500 11x17 Color Full
350
1288
  3
Oki9500 11x17 Color Half
350
1289
  3
Oki9500 8x11 BW Fit
350
128A
  3
Oki9500 8x11 BW Portrait Fit
350
128B
  3
Oki9500 8x11 Color Fit
350
128C
  3
Oki9500 8x11 Color Portrait Fit
350
128D
  3
OKI9500 B&W 11x17
350
128E
  3
OKI9500 B&W 8.5x11
350
128F
  3
OKI9500 Color 11x17
350
1290
  3
OKI9500 Color 8.5x11
350
1291
  3
Oki9600 11x17 BW Fit
350
1292
  3
Oki9600 11x17 BW Full
350
1293
  3
Oki9600 11x17 BW Half
350
1294
  3
Oki9600 11x17 Color Fit
350
1295
  3
Oki9600 11x17 Color Full
350
1296
  3
Oki9600 11x17 Color Half
350
1297
  3
Oki9600 8x11 BW Fit
350
1298
  3
Oki9600 8x11 BW Portrait Fit
350
1299
  3
Oki9600 8x11 Color Fit
350
129A
  3
Oki9600 8x11 Color Portrait Fit
350
129B
  3
OKI9600 B&W 11x17
350
129C
  3
OKI9600 B&W 8.5x11
350
129D
  3
OKI9600 Color 11x17
350
129E
  3
OKI9600 Color 8.5x11
350
129F
  3
PHX Kyocera 11x17 Fit
350
12A0
  3
PHX Oki9500 11x17 BW Fit
350
12A1
  3
PHX Oki9500 11x17 BW Half
350
12A2
  0
ACDBDICTIONARYWDFLT
  5
10B1
102
{ACAD_REACTORS
330
10AF
102
}
330
10AF
100
AcDbDictionary
281
     1
  3
Normal
350
10B2
100
AcDbDictionaryWithDefault
340
10B2
  0
DICTIONARY
  5
121F
102
{ACAD_REACTORS
330
10AF
102
}
330
10AF
100
AcDbDictionary
281
     1
  3
A0
350
1220
  3
A1
350
1221
  3
A2
350
1222
  3
A3
350
1223
  3
A4
350
1224
  3
A5
350
1225
  3
A6
350
1226
  3
A7
350
1227
  3
A8
350
1228
  3
A9
350
1229
  3
B0
350
122A
  3
B1
350
122B
  3
B2
350
122C
  3
B3
350
122D
  3
B4
350
122E
  3
B5
350
122F
  3
B6
350
1230
  3
B7
350
1231
  3
B8
350
1232
  3
B9
350
1233
  3
C0
350
1234
  3
C1
350
1235
  3
C2
350
1236
  3
C3
350
1237
  3
C4
350
1238
  3
C5
350
1239
  3
C6
350
123A
  3
C7
350
123B
  3
C8
350
123C
  3
C9
350
123D
  3
D0
350
123E
  3
D1
350
123F
  3
D2
350
1240
  0
DICTIONARY
  5
121D
102
{ACAD_REACTORS
330
10AF
102
}
330
10AF
100
AcDbDictionary
281
     1
  3
Standard
350
121E
  0
DICTIONARY
  5
120B
102
{ACAD_REACTORS
330
10AF
102
}
330
10AF
100
AcDbDictionary
281
     1
  3
2dWireframe
350
1211
  3
3D Hidden
350
1213
  3
3dWireframe
350
1212
  3
Basic
350
1210
  3
Brighten
350
1217
  3
ColorChange
350
121B
  3
Conceptual
350
1214
  3
Dim
350
1216
  3
Facepattern
350
121A
  3
Flat
350
120C
  3
FlatWithEdges
350
120D
  3
Gouraud
350
120E
  3
GouraudWithEdges
350
120F
  3
Linepattern
350
1219
  3
Realistic
350
1215
  3
Thicken
350
1218
  0
XRECORD
  5
12BC
102
{ACAD_REACTORS
330
10AF
102
}
330
10AF
100
AcDbXrecord
280
     1
 90
        1
330
121E
330
12DA
330
1352
  0
DICTIONARY
  5
10DD
102
{ACAD_REACTORS
330
10AF
102
}
330
10AF
100
AcDbDictionary
281
     1
  3
CANNOSCALE
350
12C0
  3
CMLEADERSTYLE
350
12BE
  3
CTABLESTYLE
350
12BD
  3
DIMASSOC
350
10E0
  3
HIDETEXT
350
10DF
  3
LAYEREVAL
350
1772
  3
LAYERNOTIFY
350
12C2
  3
LIGHTINGUNITS
350
12C1
  3
MSLTSCALE
350
12BF
  3
SORTENTS
350
10DE
  0
DICTIONARY
  5
1350
102
{ACAD_REACTORS
330
10AF
102
}
330
10AF
100
AcDbDictionary
281
     1
  0
DICTIONARY
  5
1750
102
{ACAD_REACTORS
330
10EB
102
}
330
10EB
100
AcDbDictionary
281
     1
  3
_0100-
350
1753
  3
_0280-
350
1752
  3
_Color 253
350
1756
  3
_Color 8
350
1754
  3
_Color 84
350
1755
  3
_Contours
350
175B
  3
_Existing
350
1757
  3
_Hardscape
350
175A
  3
_NoXref
350
1751
  3
_Row
350
1758
  3
_Utility
350
1759
  0
DICTIONARY
  5
10EC
102
{ACAD_REACTORS
330
10EB
102
}
330
10EB
100
AcDbDictionary
281
     1
  0
SORTENTSTABLE
  5
1344
102
{ACAD_REACTORS
330
1316
102
}
330
1316
100
AcDbSortentsTable
330
1195
  0
XRECORD
  5
177E
102
{ACAD_REACTORS
330
177D
102
}
330
177D
100
AcDbXrecord
280
     1
 40
10299720.0
  1
\A1;PLANT MATERIAL \P\PFINISH GRADE \P\P\pxi-2,l2;MICRO-SPRAY POP-UP:\P\pt2;^IRAIN BIRD XERI-POP XP-1200X\P\pi0,l0,tz;{\H0.7x;\S1#4;\H1.4286x;" BARB TRANSFER CONNECTOR:\P\pi-2,l2,t2;^IRAIN BIRD XBF1CONN} \P\pi0,l0,tz;{\Fromans|c0;\H0.7x;\S1#2;\H1.4286x
  1
;" POLYETHYLENE TUBING:\P\pi-2,l2;  RAIN BIRD XF SERIES TUBING OR\P\pi0,l0;  RAIN BIRD XT-700 XERI-TUBE OR\P  RAIN BIRD XBS BLACK STRIPE TUBING}   \P\pi-2,l2;{\Fromans|c0;\H0.7x;\S1#4;\H1.4286x;" DISTRIBUTION TUBING:  \P  RAIN BIRD XQ TUBING\P  (LENG
  1
TH AS REQUIRED)}
  0
XRECORD
  5
1780
102
{ACAD_REACTORS
330
177F
102
}
330
177F
100
AcDbXrecord
280
     1
 40
1868414.0
  1
NOTE:\P\pxi-3,l3;1. RAIN BIRD XERI-POP CAN UTILIZE THE FOLLOWING NOZZLES:\P\pi0,l0;^ISQ SQUARE NOZZLES (FORMERLY XPCN)\P^I5 SERIES MPR NOZZLES (ALL CONFIGURATIONS)\P^I5 SERIES PLASTIC BUBBLERS\P^I8 SERIES MPR NOZZLES (8H, 8T AND 8Q)
  0
LAYOUT
  5
10C0
102
{ACAD_REACTORS
330
10BC
102
}
330
10BC
100
AcDbPlotSettings
  1

  2
S:\AutoCAD 2002\Plotters\1055B&WDraftShaded.pc3
  4

  6

 40
0.0
 41
0.0
 42
0.0
 43
0.0
 44
0.0
 45
0.0
 46
0.0
 47
0.0
 48
0.0
 49
0.0
140
0.0
141
0.0
142
1.0
143
1.0
 70
   688
 72
     0
 73
     0
 74
     5
  7
TRexLJ5Shaded2.ctb
 75
    16
147
1.0
 76
     0
 77
     2
 78
   300
148
0.0
149
0.0
100
AcDbLayout
  1
Layout1
 70
     1
 71
     1
 10
0.0
 20
0.0
 11
12.0
 21
9.0
 12
0.0
 22
0.0
 32
0.0
 14
1.000000000000000E+20
 24
1.000000000000000E+20
 34
1.000000000000000E+20
 15
-1.000000000000000E+20
 25
-1.000000000000000E+20
 35
-1.000000000000000E+20
146
0.0
 13
0.0
 23
0.0
 33
0.0
 16
1.0
 26
0.0
 36
0.0
 17
0.0
 27
1.0
 37
0.0
 76
     0
330
10BD
  0
LAYOUT
  5
10C4
102
{ACAD_REACTORS
330
10BC
102
}
330
10BC
100
AcDbPlotSettings
  1
LaserJet5 8.5x11
  2
LaserJet5Shaded-8x11.pc3
  4
Letter
  6

 40
5.873749732971191
 41
5.873734951019287
 42
6.55108642578125
 43
5.027084350585937
 44
279.3999938964844
 45
215.8999938964844
 46
32.0229288755689
 47
-0.0000000000000076
 48
0.0
 49
0.0
140
0.0
141
0.0
142
1.0
143
1.293546671707545
 70
 11956
 72
     0
 73
     0
 74
     1
  7
laserjet5shaded.ctb
 75
     0
147
0.7730683568455638
 76
     0
 77
     2
 78
   300
148
12.66076841047503
149
32.36515640156503
100
AcDbLayout
  1
Model
 70
     1
 71
     0
 10
0.0
 20
0.0
 11
12.0
 21
9.0
 12
0.0
 22
0.0
 32
0.0
 14
0.0
 24
0.0
 34
0.0
 15
0.0
 25
0.0
 35
0.0
146
0.0
 13
0.0
 23
0.0
 33
0.0
 16
1.0
 26
0.0
 36
0.0
 17
0.0
 27
1.0
 37
0.0
 76
     0
330
10C1
331
11F0
1001
ACAD_PSEXT
1000
LaserJet5Shaded-8x11.pc3
1000
HP LaserJet 5Si
1000
CAD Area
1000

1070
     0
  0
MATERIAL
  5
11FB
102
{ACAD_XDICTIONARY
360
11FC
102
}
102
{ACAD_REACTORS
330
11F2
102
}
330
11F2
100
AcDbMaterial
  1
ByBlock
 72
     0
 43
0.0208333333333333
 43
0.0
 43
0.0
 43
0.0
 43
0.0
 43
0.0208333333333333
 43
0.0
 43
0.0
 43
0.0
 43
0.0
 43
1.0
 43
0.0
 43
0.0
 43
0.0
 43
0.0
 43
1.0
 77
     0
 47
0.0208333333333333
 47
0.0
 47
0.0
 47
0.0
 47
0.0
 47
0.0208333333333333
 47
0.0
 47
0.0
 47
0.0
 47
0.0
 47
1.0
 47
0.0
 47
0.0
 47
0.0
 47
0.0
 47
1.0
171
     0
 49
0.0208333333333333
 49
0.0
 49
0.0
 49
0.0
 49
0.0
 49
0.0208333333333333
 49
0.0
 49
0.0
 49
0.0
 49
0.0
 49
1.0
 49
0.0
 49
0.0
 49
0.0
 49
0.0
 49
1.0
175
     0
142
0.0208333333333333
142
0.0
142
0.0
142
0.0
142
0.0
142
0.0208333333333333
142
0.0
142
0.0
142
0.0
142
0.0
142
1.0
142
0.0
142
0.0
142
0.0
142
0.0
142
1.0
179
     0
144
0.0208333333333333
144
0.0
144
0.0
144
0.0
144
0.0
144
0.0208333333333333
144
0.0
144
0.0
144
0.0
144
0.0
144
1.0
144
0.0
144
0.0
144
0.0
144
0.0
144
1.0
147
0.0208333333333333
147
0.0
147
0.0
147
0.0
147
0.0
147
0.0208333333333333
147
0.0
147
0.0
147
0.0
147
0.0
147
1.0
147
0.0
147
0.0
147
0.0
147
0.0
147
1.0
  0
MATERIAL
  5
11F3
102
{ACAD_XDICTIONARY
360
11F4
102
}
102
{ACAD_REACTORS
330
11F2
102
}
330
11F2
100
AcDbMaterial
  1
ByLayer
 72
     0
 43
0.0208333333333333
 43
0.0
 43
0.0
 43
0.0
 43
0.0
 43
0.0208333333333333
 43
0.0
 43
0.0
 43
0.0
 43
0.0
 43
1.0
 43
0.0
 43
0.0
 43
0.0
 43
0.0
 43
1.0
 77
     0
 47
0.0208333333333333
 47
0.0
 47
0.0
 47
0.0
 47
0.0
 47
0.0208333333333333
 47
0.0
 47
0.0
 47
0.0
 47
0.0
 47
1.0
 47
0.0
 47
0.0
 47
0.0
 47
0.0
 47
1.0
171
     0
 49
0.0208333333333333
 49
0.0
 49
0.0
 49
0.0
 49
0.0
 49
0.0208333333333333
 49
0.0
 49
0.0
 49
0.0
 49
0.0
 49
1.0
 49
0.0
 49
0.0
 49
0.0
 49
0.0
 49
1.0
175
     0
142
0.0208333333333333
142
0.0
142
0.0
142
0.0
142
0.0
142
0.0208333333333333
142
0.0
142
0.0
142
0.0
142
0.0
142
1.0
142
0.0
142
0.0
142
0.0
142
0.0
142
1.0
179
     0
144
0.0208333333333333
144
0.0
144
0.0
144
0.0
144
0.0
144
0.0208333333333333
144
0.0
144
0.0
144
0.0
144
0.0
144
1.0
144
0.0
144
0.0
144
0.0
144
0.0
144
1.0
147
0.0208333333333333
147
0.0
147
0.0
147
0.0
147
0.0
147
0.0208333333333333
147
0.0
147
0.0
147
0.0
147
0.0
147
1.0
147
0.0
147
0.0
147
0.0
147
0.0
147
1.0
  0
MATERIAL
  5
1203
102
{ACAD_XDICTIONARY
360
1204
102
}
102
{ACAD_REACTORS
330
11F2
102
}
330
11F2
100
AcDbMaterial
  1
Global
 72
     0
 43
0.0208333333333333
 43
0.0
 43
0.0
 43
0.0
 43
0.0
 43
0.0208333333333333
 43
0.0
 43
0.0
 43
0.0
 43
0.0
 43
1.0
 43
0.0
 43
0.0
 43
0.0
 43
0.0
 43
1.0
 77
     0
 47
0.0208333333333333
 47
0.0
 47
0.0
 47
0.0
 47
0.0
 47
0.0208333333333333
 47
0.0
 47
0.0
 47
0.0
 47
0.0
 47
1.0
 47
0.0
 47
0.0
 47
0.0
 47
0.0
 47
1.0
171
     0
 49
0.0208333333333333
 49
0.0
 49
0.0
 49
0.0
 49
0.0
 49
0.0208333333333333
 49
0.0
 49
0.0
 49
0.0
 49
0.0
 49
1.0
 49
0.0
 49
0.0
 49
0.0
 49
0.0
 49
1.0
175
     0
142
0.0208333333333333
142
0.0
142
0.0
142
0.0
142
0.0
142
0.0208333333333333
142
0.0
142
0.0
142
0.0
142
0.0
142
1.0
142
0.0
142
0.0
142
0.0
142
0.0
142
1.0
179
     0
144
0.0208333333333333
144
0.0
144
0.0
144
0.0
144
0.0
144
0.0208333333333333
144
0.0
144
0.0
144
0.0
144
0.0
144
1.0
144
0.0
144
0.0
144
0.0
144
0.0
144
1.0
147
0.0208333333333333
147
0.0
147
0.0
147
0.0
147
0.0
147
0.0208333333333333
147
0.0
147
0.0
147
0.0
147
0.0
147
1.0
147
0.0
147
0.0
147
0.0
147
0.0
147
1.0
  0
MLEADERSTYLE
  5
1242
102
{ACAD_REACTORS
330
1241
102
}
330
1241
100
AcDbMLeaderStyle
170
     2
171
     1
172
     0
 90
        2
 40
0.0
 41
0.0
173
     1
 91
-1056964608
340
10B6
 92
       -2
290
     1
 42
0.09
291
     1
 43
0.36
  3
Standard
 44
0.18
300

342
10B4
174
     1
178
     6
175
     1
176
     0
 93
-1056964608
 45
0.18
292
     0
297
     0
 46
0.18
 94
-1056964608
 47
1.0
 49
1.0
140
1.0
293
     1
141
0.0
294
     1
177
     0
142
1.0
295
     0
296
     0
143
0.125
1001
ACAD_MLEADERVER
1070
     2
  0
MLINESTYLE
  5
10BA
102
{ACAD_REACTORS
330
10B9
102
}
330
10B9
100
AcDbMlineStyle
  2
STANDARD
 70
     0
  3

 62
   256
 51
90.0
 52
90.0
 71
     2
 49
0.5
 62
   256
  6
BYLAYER
 49
-0.5
 62
   256
  6
BYLAYER
  0
PLOTSETTINGS
  5
1256
102
{ACAD_REACTORS
330
10BB
102
}
330
10BB
100
AcDbPlotSettings
  1
1055 24x36 BW
  2
1055B&WDraftShaded.pc3
  4
User257
  6

 40
14.98600006103515
 41
8.297271728515625
 42
14.9859619140625
 43
8.29736328125
 44
914.3153076171875
 45
1269.915283203125
 46
0.0
 47
0.0
 48
0.0
 49
0.0
140
0.0
141
0.0
142
1.0
143
1.0
 70
  2800
 72
     0
 73
     2
 74
     1
  7
1055B&WFullDraftShaded.ctb
 75
    16
147
1.0
 76
     0
 77
     2
 78
   300
148
-75.74468520391772
149
-27.53050504688192
1001
ACAD_PSEXT
1000
1055B&WDraftShaded.pc3
1000
HP DesignJet 1055CM by HP
1000
FRONT
1000

1070
     0
  0
PLOTSETTINGS
  5
1258
102
{ACAD_REACTORS
330
10BB
102
}
330
10BB
100
AcDbPlotSettings
  1
1055 24x36 BW Final
  2
1055B&WFinalShaded.pc3
  4
User257
  6

 40
14.98600006103515
 41
8.297271728515625
 42
14.9859619140625
 43
8.29736328125
 44
914.357666015625
 45
1269.957641601562
 46
0.0
 47
0.0
 48
0.0
 49
0.0
140
0.0
141
0.0
142
1.0
143
1.0
 70
  2800
 72
     0
 73
     2
 74
     1
  7
1055B&WFullFinalShaded.ctb
 75
    16
147
1.0
 76
     0
 77
     2
 78
   300
148
-75.74468520391772
149
-27.53050504688192
1001
ACAD_PSEXT
1000
1055B&WFinalShaded.pc3
1000
HP DesignJet 1055CM by HP
1000
FRONT
1000

1070
     0
  0
PLOTSETTINGS
  5
1259
102
{ACAD_REACTORS
330
10BB
102
}
330
10BB
100
AcDbPlotSettings
  1
1055 24x36 Color
  2
1055ColorDraftShaded.pc3
  4
User257
  6

 40
14.98600006103515
 41
8.297271728515625
 42
14.9859619140625
 43
8.29736328125
 44
914.3153076171875
 45
1269.915283203125
 46
0.0
 47
0.0
 48
0.0
 49
0.0
140
0.0
141
0.0
142
1.0
143
1.0
 70
  2800
 72
     0
 73
     2
 74
     1
  7
Color.ctb
 75
    16
147
1.0
 76
     0
 77
     2
 78
   300
148
-75.74468520391772
149
-27.53050504688192
1001
ACAD_PSEXT
1000
1055ColorDraftShaded.pc3
1000
HP DesignJet 1055CM by HP
1000
FRONT
1000

1070
     0
  0
PLOTSETTINGS
  5
125A
102
{ACAD_REACTORS
330
10BB
102
}
330
10BB
100
AcDbPlotSettings
  1
1055 24x36 Color Shaded
  2
1055ColorDraftShaded.pc3
  4
User257
  6

 40
14.98600006103515
 41
8.297271728515625
 42
14.9859619140625
 43
8.29736328125
 44
914.3153076171875
 45
1269.915283203125
 46
0.0
 47
0.0
 48
0.0
 49
0.0
140
0.0
141
0.0
142
1.0
143
1.0
 70
  2800
 72
     0
 73
     2
 74
     1
  7
1055ColorFullDraftShaded.ctb
 75
    16
147
1.0
 76
     0
 77
     2
 78
   300
148
-75.74468520391772
149
-27.53050504688192
1001
ACAD_PSEXT
1000
1055ColorDraftShaded.pc3
1000
HP DesignJet 1055CM by HP
1000
FRONT
1000

1070
     0
  0
PLOTSETTINGS
  5
125B
102
{ACAD_REACTORS
330
10BB
102
}
330
10BB
100
AcDbPlotSettings
  1
1055 30x42 BW
  2
1055B&WDraftShaded.pc3
  4
User257
  6

 40
14.98600006103515
 41
8.297271728515625
 42
14.9859619140625
 43
8.29736328125
 44
914.3153076171875
 45
1269.915283203125
 46
0.0
 47
0.0
 48
0.0
 49
0.0
140
0.0
141
0.0
142
1.0
143
1.0
 70
  2800
 72
     0
 73
     1
 74
     1
  7
1055B&WFullDraftShaded.ctb
 75
    16
147
1.0
 76
     0
 77
     2
 78
   300
148
-75.74468520391772
149
-27.53050504688192
1001
ACAD_PSEXT
1000
1055B&WDraftShaded.pc3
1000
HP DesignJet 1055CM by HP
1000
FRONT
1000

1070
     0
  0
PLOTSETTINGS
  5
125C
102
{ACAD_REACTORS
330
10BB
102
}
330
10BB
100
AcDbPlotSettings
  1
1055 30x42 BW Final
  2
1055B&WFinalShaded.pc3
  4
User257
  6

 40
14.98600006103515
 41
8.297271728515625
 42
14.9859619140625
 43
8.29736328125
 44
914.357666015625
 45
1269.957641601562
 46
0.0
 47
0.0
 48
0.0
 49
0.0
140
0.0
141
0.0
142
1.0
143
1.0
 70
  2800
 72
     0
 73
     1
 74
     1
  7
1055B&WFullFinalShaded.ctb
 75
    16
147
1.0
 76
     0
 77
     2
 78
   300
148
-75.74468520391772
149
-27.53050504688192
1001
ACAD_PSEXT
1000
1055B&WFinalShaded.pc3
1000
HP DesignJet 1055CM by HP
1000
FRONT
1000

1070
     0
  0
PLOTSETTINGS
  5
125D
102
{ACAD_REACTORS
330
10BB
102
}
330
10BB
100
AcDbPlotSettings
  1
1055 B&W Draft
  2
1055B&WDraftShaded.pc3
  4
User257
  6

 40
4.995333194732666
 41
8.297271728515625
 42
4.99530029296875
 43
8.29736328125
 44
914.3153076171875
 45
1269.915283203125
 46
0.0
 47
0.0
 48
0.0
 49
0.0
140
0.0
141
0.0
142
1.0
143
30.0
 70
 11936
 72
     0
 73
     2
 74
     1
  7
1055B&WFullDraftShaded.ctb
 75
     0
147
3.484472351238056
 76
     0
 77
     2
 78
   300
148
-119.4582094169044
149
-58.17053554795709
1001
ACAD_PSEXT
1000
1055B&WDraftShaded.pc3
1000
HP DesignJet 1055CM by HP
1000
\\aqua-srv01
1000

1070
     0
  0
PLOTSETTINGS
  5
125E
102
{ACAD_REACTORS
330
10BB
102
}
330
10BB
100
AcDbPlotSettings
  1
1055 B&W Final
  2
1055B&WFinalShaded.pc3
  4
User257
  6

 40
4.995333194732666
 41
8.297271728515625
 42
4.99530029296875
 43
8.29736328125
 44
914.357666015625
 45
1269.957641601562
 46
0.0
 47
0.0
 48
0.0
 49
0.0
140
0.0
141
0.0
142
1.0
143
30.0
 70
 11936
 72
     0
 73
     2
 74
     1
  7
1055B&WFullFinalShaded.ctb
 75
     0
147
3.484472351238056
 76
     0
 77
     2
 78
   300
148
-119.4582094169044
149
-58.17053554795709
1001
ACAD_PSEXT
1000
1055B&WFinalShaded.pc3
1000
HP DesignJet 1055CM by HP
1000
\\aqua-srv01
1000

1070
     0
  0
PLOTSETTINGS
  5
125F
102
{ACAD_REACTORS
330
10BB
102
}
330
10BB
100
AcDbPlotSettings
  1
1055 BW Half
  2
1055B&WDraftShaded.pc3
  4
User257
  6

 40
14.98600006103515
 41
8.297271728515625
 42
14.9859619140625
 43
8.29736328125
 44
914.3153076171875
 45
1269.915283203125
 46
0.0
 47
0.0
 48
0.0
 49
0.0
140
0.0
141
0.0
142
1.0
143
2.0
 70
  2800
 72
     0
 73
     2
 74
     1
  7
1055B&WFullDraftShaded.ctb
 75
    17
147
0.5
 76
     0
 77
     2
 78
   300
148
-75.74468520391772
149
-27.53050504688192
1001
ACAD_PSEXT
1000
1055B&WDraftShaded.pc3
1000
HP DesignJet 1055CM by HP
1000
FRONT
1000

1070
     0
  0
PLOTSETTINGS
  5
1260
102
{ACAD_REACTORS
330
10BB
102
}
330
10BB
100
AcDbPlotSettings
  1
1055 Color Draft
  2
1055ColorDraftShaded.pc3
  4
User257
  6

 40
4.995333194732666
 41
8.297271728515625
 42
4.99530029296875
 43
8.29736328125
 44
914.3153076171875
 45
1269.915283203125
 46
0.0
 47
0.0
 48
0.0
 49
0.0
140
0.0
141
0.0
142
1.0
143
30.0
 70
 11936
 72
     0
 73
     2
 74
     1
  7
1055ColorFullDraftShaded.ctb
 75
     0
147
3.484472351238056
 76
     0
 77
     2
 78
   300
148
-119.4582094169044
149
-58.17053554795709
1001
ACAD_PSEXT
1000
1055ColorDraftShaded.pc3
1000
HP DesignJet 1055CM by HP
1000
\\aqua-srv01
1000

1070
     0
  0
PLOTSETTINGS
  5
1261
102
{ACAD_REACTORS
330
10BB
102
}
330
10BB
100
AcDbPlotSettings
  1
1055 Color Final
  2
1055ColorFinalShaded.pc3
  4
User257
  6

 40
4.995333194732666
 41
8.297271728515625
 42
4.99530029296875
 43
8.29736328125
 44
914.357666015625
 45
1269.957641601562
 46
0.0
 47
0.0
 48
0.0
 49
0.0
140
0.0
141
0.0
142
1.0
143
30.0
 70
 11936
 72
     0
 73
     2
 74
     1
  7
1055ColorFullFinalShaded.ctb
 75
     0
147
3.484472351238056
 76
     0
 77
     2
 78
   300
148
-119.4582094169044
149
-58.17053554795709
1001
ACAD_PSEXT
1000
1055ColorFinalShaded.pc3
1000
HP DesignJet 1055CM by HP
1000
\\aqua-srv01
1000

1070
     0
  0
PLOTSETTINGS
  5
1262
102
{ACAD_REACTORS
330
10BB
102
}
330
10BB
100
AcDbPlotSettings
  1
1055+ 24x36 BW
  2
1055_PLUS_B&WDraftShaded.pc3
  4
User257
  6

 40
14.98600006103515
 41
8.297271728515625
 42
14.9859619140625
 43
8.29736328125
 44
914.3153076171875
 45
1269.915283203125
 46
0.0
 47
0.0
 48
0.0
 49
0.0
140
0.0
141
0.0
142
1.0
143
1.0
 70
  2800
 72
     0
 73
     2
 74
     1
  7
1055B&WFullDraftShaded.ctb
 75
    16
147
1.0
 76
     0
 77
     2
 78
   300
148
-75.74468520391772
149
-27.53050504688192
1001
ACAD_PSEXT
1000
1055_PLUS_B&WDraftShaded.pc3
1000
HP DesignJet 1055CM by HP
1000
FRONT
1000

1070
     0
  0
PLOTSETTINGS
  5
1263
102
{ACAD_REACTORS
330
10BB
102
}
330
10BB
100
AcDbPlotSettings
  1
1055+ 24x36 BW Final
  2
1055_PLUS_B&WFinalShaded.pc3
  4
User257
  6

 40
14.98600006103515
 41
8.297271728515625
 42
14.9859619140625
 43
8.29736328125
 44
914.357666015625
 45
1269.957641601562
 46
0.0
 47
0.0
 48
0.0
 49
0.0
140
0.0
141
0.0
142
1.0
143
1.0
 70
  2800
 72
     0
 73
     2
 74
     1
  7
1055B&WFullFinalShaded.ctb
 75
    16
147
1.0
 76
     0
 77
     2
 78
   300
148
-75.74468520391772
149
-27.53050504688192
1001
ACAD_PSEXT
1000
1055_PLUS_B&WFinalShaded.pc3
1000
HP DesignJet 1055CM by HP
1000
FRONT
1000

1070
     0
  0
PLOTSETTINGS
  5
1264
102
{ACAD_REACTORS
330
10BB
102
}
330
10BB
100
AcDbPlotSettings
  1
1055+ 24x36 Color
  2
1055_PLUS_ColorDraftShaded.pc3
  4
User257
  6

 40
14.98600006103515
 41
8.297271728515625
 42
14.9859619140625
 43
8.29736328125
 44
914.3153076171875
 45
1269.915283203125
 46
0.0
 47
0.0
 48
0.0
 49
0.0
140
0.0
141
0.0
142
1.0
143
1.0
 70
  2800
 72
     0
 73
     2
 74
     1
  7
Color.ctb
 75
    16
147
1.0
 76
     0
 77
     2
 78
   300
148
-75.74468520391772
149
-27.53050504688192
1001
ACAD_PSEXT
1000
1055_PLUS_ColorDraftShaded.pc3
1000
HP DesignJet 1055CM by HP
1000
FRONT
1000

1070
     0
  0
PLOTSETTINGS
  5
1265
102
{ACAD_REACTORS
330
10BB
102
}
330
10BB
100
AcDbPlotSettings
  1
1055+ 24x36 Color Shaded
  2
1055_PLUS_ColorDraftShaded.pc3
  4
User257
  6

 40
14.98600006103515
 41
8.297271728515625
 42
14.9859619140625
 43
8.29736328125
 44
914.3153076171875
 45
1269.915283203125
 46
0.0
 47
0.0
 48
0.0
 49
0.0
140
0.0
141
0.0
142
1.0
143
1.0
 70
  2800
 72
     0
 73
     2
 74
     1
  7
1055ColorFullDraftShaded.ctb
 75
    16
147
1.0
 76
     0
 77
     2
 78
   300
148
-75.74468520391772
149
-27.53050504688192
1001
ACAD_PSEXT
1000
1055_PLUS_ColorDraftShaded.pc3
1000
HP DesignJet 1055CM by HP
1000
FRONT
1000

1070
     0
  0
PLOTSETTINGS
  5
1266
102
{ACAD_REACTORS
330
10BB
102
}
330
10BB
100
AcDbPlotSettings
  1
1055+ 30x42 BW
  2
1055_PLUS_B&WDraftShaded.pc3
  4
User257
  6

 40
14.98600006103515
 41
8.297271728515625
 42
14.9859619140625
 43
8.29736328125
 44
914.3153076171875
 45
1269.915283203125
 46
0.0
 47
0.0
 48
0.0
 49
0.0
140
0.0
141
0.0
142
1.0
143
1.0
 70
  2800
 72
     0
 73
     1
 74
     1
  7
1055B&WFullDraftShaded.ctb
 75
    16
147
1.0
 76
     0
 77
     2
 78
   300
148
-75.74468520391772
149
-27.53050504688192
1001
ACAD_PSEXT
1000
1055_PLUS_B&WDraftShaded.pc3
1000
HP DesignJet 1055CM by HP
1000
FRONT
1000

1070
     0
  0
PLOTSETTINGS
  5
1267
102
{ACAD_REACTORS
330
10BB
102
}
330
10BB
100
AcDbPlotSettings
  1
1055+ 30x42 BW Final
  2
1055_PLUS_B&WFinalShaded.pc3
  4
User257
  6

 40
14.98600006103515
 41
8.297271728515625
 42
14.9859619140625
 43
8.29736328125
 44
914.357666015625
 45
1269.957641601562
 46
0.0
 47
0.0
 48
0.0
 49
0.0
140
0.0
141
0.0
142
1.0
143
1.0
 70
  2800
 72
     0
 73
     1
 74
     1
  7
1055B&WFullFinalShaded.ctb
 75
    16
147
1.0
 76
     0
 77
     2
 78
   300
148
-75.74468520391772
149
-27.53050504688192
1001
ACAD_PSEXT
1000
1055_PLUS_B&WFinalShaded.pc3
1000
HP DesignJet 1055CM by HP
1000
FRONT
1000

1070
     0
  0
PLOTSETTINGS
  5
1268
102
{ACAD_REACTORS
330
10BB
102
}
330
10BB
100
AcDbPlotSettings
  1
1055+ B&W Draft
  2
1055_PLUS_B&WDraftShaded.pc3
  4
User257
  6

 40
4.995333194732666
 41
13.2926607131958
 42
4.99530029296875
 43
13.292724609375
 44
914.3153076171875
 45
1269.915283203125
 46
0.0
 47
0.0
 48
0.0
 49
0.0
140
0.0
141
0.0
142
1.0
143
30.0
 70
 11936
 72
     0
 73
     2
 74
     1
  7
1055B&WFullDraftShaded.ctb
 75
     0
147
3.484472351238056
 76
     0
 77
     2
 78
   300
148
-119.4582094169044
149
-58.17053554795709
1001
ACAD_PSEXT
1000
1055_PLUS_B&WDraftShaded.pc3
1000
HP DesignJet 1055CM by HP
1000
\\aqua-srv01
1000

1070
     0
  0
PLOTSETTINGS
  5
1269
102
{ACAD_REACTORS
330
10BB
102
}
330
10BB
100
AcDbPlotSettings
  1
1055+ B&W Final
  2
1055_PLUS_B&WFinalShaded.pc3
  4
User257
  6

 40
4.995333194732666
 41
13.2926607131958
 42
4.99530029296875
 43
13.292724609375
 44
914.357666015625
 45
1269.957641601562
 46
0.0
 47
0.0
 48
0.0
 49
0.0
140
0.0
141
0.0
142
1.0
143
30.0
 70
 11936
 72
     0
 73
     2
 74
     1
  7
1055B&WFullFinalShaded.ctb
 75
     0
147
3.484472351238056
 76
     0
 77
     2
 78
   300
148
-119.4582094169044
149
-58.17053554795709
1001
ACAD_PSEXT
1000
1055_PLUS_B&WFinalShaded.pc3
1000
HP DesignJet 1055CM by HP
1000
\\aqua-srv01
1000

1070
     0
  0
PLOTSETTINGS
  5
126A
102
{ACAD_REACTORS
330
10BB
102
}
330
10BB
100
AcDbPlotSettings
  1
1055+ BW Half
  2
1055_PLUS_B&WDraftShaded.pc3
  4
User257
  6

 40
14.98600006103515
 41
8.297271728515625
 42
14.9859619140625
 43
8.29736328125
 44
914.3153076171875
 45
1269.915283203125
 46
0.0
 47
0.0
 48
0.0
 49
0.0
140
0.0
141
0.0
142
1.0
143
2.0
 70
  2800
 72
     0
 73
     2
 74
     1
  7
1055B&WFullDraftShaded.ctb
 75
    17
147
0.5
 76
     0
 77
     2
 78
   300
148
-75.74468520391772
149
-27.53050504688192
1001
ACAD_PSEXT
1000
1055_PLUS_B&WDraftShaded.pc3
1000
HP DesignJet 1055CM by HP
1000
FRONT
1000

1070
     0
  0
PLOTSETTINGS
  5
126B
102
{ACAD_REACTORS
330
10BB
102
}
330
10BB
100
AcDbPlotSettings
  1
1055+ Color Draft
  2
1055_PLUS_ColorDraftShaded.pc3
  4
User257
  6

 40
4.995333194732666
 41
8.297271728515625
 42
4.99530029296875
 43
8.29736328125
 44
914.3153076171875
 45
1269.915283203125
 46
0.0
 47
0.0
 48
0.0
 49
0.0
140
0.0
141
0.0
142
1.0
143
30.0
 70
 11936
 72
     0
 73
     2
 74
     1
  7
1055ColorFullDraftShaded.ctb
 75
     0
147
3.484472351238056
 76
     0
 77
     2
 78
   300
148
-119.4582094169044
149
-58.17053554795709
1001
ACAD_PSEXT
1000
1055_PLUS_ColorDraftShaded.pc3
1000
HP DesignJet 1055CM by HP
1000
\\aqua-srv01
1000

1070
     0
  0
PLOTSETTINGS
  5
126C
102
{ACAD_REACTORS
330
10BB
102
}
330
10BB
100
AcDbPlotSettings
  1
1055+ Color Final
  2
1055_PLUS_ColorFinalShaded.pc3
  4
User257
  6

 40
4.995333194732666
 41
13.2926607131958
 42
4.99530029296875
 43
13.292724609375
 44
914.357666015625
 45
1269.957641601562
 46
0.0
 47
0.0
 48
0.0
 49
0.0
140
0.0
141
0.0
142
1.0
143
30.0
 70
 11936
 72
     0
 73
     2
 74
     1
  7
1055ColorFullFinalShaded.ctb
 75
     0
147
3.484472351238056
 76
     0
 77
     2
 78
   300
148
-119.4582094169044
149
-58.17053554795709
1001
ACAD_PSEXT
1000
1055_PLUS_ColorFinalShaded.pc3
1000
HP DesignJet 1055CM by HP
1000
\\aqua-srv01
1000

1070
     0
  0
PLOTSETTINGS
  5
126D
102
{ACAD_REACTORS
330
10BB
102
}
330
10BB
100
AcDbPlotSettings
  1
_1055 22x34 True Centered BW
  2
1055B&WDraftShaded 24x36 true.pc3
  4
User1639
  6

 40
0.0
 41
0.0
 42
0.0
 43
0.0
 44
863.6000366210938
 45
558.7999877929687
 46
379.1860116761152
 47
224.9166389522296
 48
0.0
 49
0.0
140
0.0
141
0.0
142
1.0
143
1.0
 70
  2804
 72
     0
 73
     0
 74
     1
  7
1055B&WFullDraftShaded.ctb
 75
    16
147
1.0
 76
     0
 77
     2
 78
   300
148
-75.74468520391772
149
-27.53050504688192
1001
ACAD_PSEXT
1000
1055B&WDraftShaded 24x36 true.pc3
1000
HP DesignJet 1055CM by HP
1000
FRONT
1000

1070
     0
  0
PLOTSETTINGS
  5
126E
102
{ACAD_REACTORS
330
10BB
102
}
330
10BB
100
AcDbPlotSettings
  1
_1055 24x36 True Centered BW
  2
1055B&WDraftShaded 24x36 true.pc3
  4
User1308
  6

 40
14.98600006103515
 41
8.297332763671875
 42
14.9859619140625
 43
8.29736328125
 44
914.3153076171875
 45
609.5153198242187
 46
389.5576661866133
 47
241.9769569453936
 48
0.0
 49
0.0
140
0.0
141
0.0
142
1.0
143
1.0
 70
  2804
 72
     0
 73
     0
 74
     1
  7
1055B&WFullDraftShaded.ctb
 75
    16
147
1.0
 76
     0
 77
     2
 78
   300
148
-75.74468520391772
149
-27.53050504688192
1001
ACAD_PSEXT
1000
1055B&WDraftShaded 24x36 true.pc3
1000
HP DesignJet 1055CM by HP
1000
FRONT
1000

1070
     0
  0
PLOTSETTINGS
  5
126F
102
{ACAD_REACTORS
330
10BB
102
}
330
10BB
100
AcDbPlotSettings
  1
_1055 24x36 True Centered BW Final
  2
1055B&WFinalShaded 24x36 true.pc3
  4
User1308
  6

 40
14.98600006103515
 41
8.297332763671875
 42
14.9859619140625
 43
8.29736328125
 44
914.357666015625
 45
609.5576782226562
 46
389.578845385832
 47
241.9981361446124
 48
0.0
 49
0.0
140
0.0
141
0.0
142
1.0
143
1.0
 70
  2804
 72
     0
 73
     0
 74
     1
  7
1055B&WFullFinalShaded.ctb
 75
    16
147
1.0
 76
     0
 77
     2
 78
   300
148
-75.74468520391772
149
-27.53050504688192
1001
ACAD_PSEXT
1000
1055B&WFinalShaded 24x36 true.pc3
1000
HP DesignJet 1055CM by HP
1000
FRONT
1000

1070
     0
  0
PLOTSETTINGS
  5
1270
102
{ACAD_REACTORS
330
10BB
102
}
330
10BB
100
AcDbPlotSettings
  1
_1055 24x36 True Centered Color
  2
1055ColorDraftShaded 24x36 true.pc3
  4
User1308
  6

 40
14.98600006103515
 41
8.297332763671875
 42
14.9859619140625
 43
8.29736328125
 44
914.3153076171875
 45
609.5153198242187
 46
389.5576661866133
 47
241.9769569453936
 48
0.0
 49
0.0
140
0.0
141
0.0
142
1.0
143
1.0
 70
  2804
 72
     0
 73
     0
 74
     1
  7
1055ColorFullDraftShaded.ctb
 75
    16
147
1.0
 76
     0
 77
     2
 78
   300
148
-75.74468520391772
149
-27.53050504688192
1001
ACAD_PSEXT
1000
1055ColorDraftShaded 24x36 true.pc3
1000
HP DesignJet 1055CM by HP
1000
FRONT
1000

1070
     0
  0
PLOTSETTINGS
  5
1271
102
{ACAD_REACTORS
330
10BB
102
}
330
10BB
100
AcDbPlotSettings
  1
_1055 30x42 True Centered BW
  2
1055B&WDraftShaded 30x42 true.pc3
  4
User286
  6

 40
0.0
 41
0.0
 42
-0.08465576171875
 43
-0.084716796875
 44
761.9153442382812
 45
1066.71533203125
 46
326.5166450557452
 47
480.7860177796309
 48
0.0
 49
0.0
140
0.0
141
0.0
142
1.0
143
1.0
 70
  2804
 72
     0
 73
     1
 74
     1
  7
1055B&WFullDraftShaded.ctb
 75
    16
147
1.0
 76
     0
 77
     2
 78
   300
148
-75.74468520391772
149
-27.53050504688192
1001
ACAD_PSEXT
1000
1055B&WDraftShaded 30x42 true.pc3
1000
HP DesignJet 1055CM by HP
1000
FRONT
1000

1070
     0
  0
PLOTSETTINGS
  5
1272
102
{ACAD_REACTORS
330
10BB
102
}
330
10BB
100
AcDbPlotSettings
  1
_1055+ 22x34 True Centered BW
  2
1055_PLUS_B&WDraftShaded 24x36 true.pc3
  4
User1639
  6

 40
0.0
 41
0.0
 42
0.0
 43
0.0
 44
863.6000366210938
 45
558.7999877929687
 46
379.1860116761152
 47
224.9166389522296
 48
0.0
 49
0.0
140
0.0
141
0.0
142
1.0
143
1.0
 70
  2804
 72
     0
 73
     0
 74
     1
  7
1055B&WFullDraftShaded.ctb
 75
    16
147
1.0
 76
     0
 77
     2
 78
   300
148
-75.74468520391772
149
-27.53050504688192
1001
ACAD_PSEXT
1000
1055_PLUS_B&WDraftShaded 24x36 true.pc3
1000
HP DesignJet 1055CM by HP
1000
FRONT
1000

1070
     0
  0
PLOTSETTINGS
  5
1273
102
{ACAD_REACTORS
330
10BB
102
}
330
10BB
100
AcDbPlotSettings
  1
_1055+ 24x36 True Centered BW
  2
1055_PLUS_B&WDraftShaded 24x36 true.pc3
  4
User1308
  6

 40
14.98600006103515
 41
8.297332763671875
 42
14.9859619140625
 43
8.29736328125
 44
914.3153076171875
 45
609.5153198242187
 46
389.5576661866133
 47
241.9769569453936
 48
0.0
 49
0.0
140
0.0
141
0.0
142
1.0
143
1.0
 70
  2804
 72
     0
 73
     0
 74
     1
  7
1055B&WFullDraftShaded.ctb
 75
    16
147
1.0
 76
     0
 77
     2
 78
   300
148
-75.74468520391772
149
-27.53050504688192
1001
ACAD_PSEXT
1000
1055_PLUS_B&WDraftShaded 24x36 true.pc3
1000
HP DesignJet 1055CM by HP
1000
FRONT
1000

1070
     0
  0
PLOTSETTINGS
  5
1274
102
{ACAD_REACTORS
330
10BB
102
}
330
10BB
100
AcDbPlotSettings
  1
_1055+ 24x36 True Centered BW Final
  2
1055_PLUS_B&WFinalShaded 24x36 true.pc3
  4
User1308
  6

 40
14.98600006103515
 41
8.297332763671875
 42
14.9859619140625
 43
8.29736328125
 44
914.357666015625
 45
609.5576782226562
 46
389.578845385832
 47
241.9981361446124
 48
0.0
 49
0.0
140
0.0
141
0.0
142
1.0
143
1.0
 70
  2804
 72
     0
 73
     0
 74
     1
  7
1055B&WFullFinalShaded.ctb
 75
    16
147
1.0
 76
     0
 77
     2
 78
   300
148
-75.74468520391772
149
-27.53050504688192
1001
ACAD_PSEXT
1000
1055_PLUS_B&WFinalShaded 24x36 true.pc3
1000
HP DesignJet 1055CM by HP
1000
FRONT
1000

1070
     0
  0
PLOTSETTINGS
  5
1275
102
{ACAD_REACTORS
330
10BB
102
}
330
10BB
100
AcDbPlotSettings
  1
_1055+ 24x36 True Centered Color
  2
1055_PLUS_ColorDraftShaded 24x36 true.pc3
  4
User1308
  6

 40
14.98600006103515
 41
8.297332763671875
 42
14.9859619140625
 43
8.29736328125
 44
914.3153076171875
 45
609.5153198242187
 46
389.5576661866133
 47
241.9769569453936
 48
0.0
 49
0.0
140
0.0
141
0.0
142
1.0
143
1.0
 70
  2804
 72
     0
 73
     0
 74
     1
  7
1055ColorFullDraftShaded.ctb
 75
    16
147
1.0
 76
     0
 77
     2
 78
   300
148
-75.74468520391772
149
-27.53050504688192
1001
ACAD_PSEXT
1000
1055_PLUS_ColorDraftShaded 24x36 true.pc3
1000
HP DesignJet 1055CM by HP
1000
FRONT
1000

1070
     0
  0
PLOTSETTINGS
  5
1276
102
{ACAD_REACTORS
330
10BB
102
}
330
10BB
100
AcDbPlotSettings
  1
DWF BW 11x17 Fit
  2
DWF-BW_11x17.pc3
  4
UserDefinedImperial (17.00 x 11.00Inches)
  6

 40
0.0
 41
0.0
 42
0.0
 43
0.0
 44
431.7999877929687
 45
279.3999938964844
 46
80.99316641155249
 47
0.000000000000005
 48
0.0
 49
0.0
140
0.0
141
0.0
142
1.0
143
0.3900025492802298
 70
  2740
 72
     0
 73
     0
 74
     1
  7
1055B&WFullFinalShaded.ctb
 75
     0
147
2.564085803658341
 76
     0
 77
     2
 78
   300
148
-75.74468520391772
149
-27.53050504688192
1001
ACAD_PSEXT
1000
DWF-BW_11x17.pc3
1000
DWF eView (optimized for viewing)
1000
File
1000

1070
     0
  0
PLOTSETTINGS
  5
1277
102
{ACAD_REACTORS
330
10BB
102
}
330
10BB
100
AcDbPlotSettings
  1
DWF BW 11x17 Half
  2
DWF-BW_11x17.pc3
  4
UserDefinedImperial (17.00 x 11.00Inches)
  6

 40
0.0
 41
0.0
 42
0.0
 43
0.0
 44
431.7999877929687
 45
279.3999938964844
 46
189.5929905792686
 47
112.4583194761148
 48
0.0
 49
0.0
140
0.0
141
0.0
142
1.0
143
2.0
 70
  2740
 72
     0
 73
     0
 74
     1
  7
1055B&WFullFinalShaded.ctb
 75
    17
147
0.5
 76
     0
 77
     2
 78
   300
148
-75.74468520391772
149
-27.53050504688192
1001
ACAD_PSEXT
1000
DWF-BW_11x17.pc3
1000
DWF eView (optimized for viewing)
1000
File
1000

1070
     0
  0
PLOTSETTINGS
  5
1278
102
{ACAD_REACTORS
330
10BB
102
}
330
10BB
100
AcDbPlotSettings
  1
DWF BW 22x34
  2
DWF-BW_22x34.pc3
  4
UserDefinedImperial (34.00 x 22.00Inches)
  6

 40
0.0
 41
0.0
 42
0.0
 43
0.0
 44
863.5999755859375
 45
558.7999877929687
 46
379.1859811585372
 47
224.9166389522296
 48
0.0
 49
0.0
140
0.0
141
0.0
142
1.0
143
1.0
 70
  2740
 72
     0
 73
     0
 74
     1
  7
1055B&WFullFinalShaded.ctb
 75
    16
147
1.0
 76
     0
 77
     2
 78
   300
148
-75.74468520391772
149
-27.53050504688192
1001
ACAD_PSEXT
1000
DWF-BW_22x34.pc3
1000
DWF eView (optimized for viewing)
1000
File
1000

1070
     0
  0
PLOTSETTINGS
  5
1279
102
{ACAD_REACTORS
330
10BB
102
}
330
10BB
100
AcDbPlotSettings
  1
DWF BW 24x36
  2
DWF-BW_24x36.pc3
  4
UserDefinedImperial (36.00 x 24.00Inches)
  6

 40
0.0
 41
0.0
 42
0.0
 43
0.0
 44
914.4000244140626
 45
609.5999755859375
 46
404.5860055725996
 47
250.3166328487139
 48
0.0
 49
0.0
140
0.0
141
0.0
142
1.0
143
1.0
 70
  2740
 72
     0
 73
     0
 74
     1
  7
1055B&WFullFinalShaded.ctb
 75
    16
147
1.0
 76
     0
 77
     2
 78
   300
148
-75.74468520391772
149
-27.53050504688192
1001
ACAD_PSEXT
1000
DWF-BW_24x36.pc3
1000
DWF eView (optimized for viewing)
1000
File
1000

1070
     0
  0
PLOTSETTINGS
  5
127A
102
{ACAD_REACTORS
330
10BB
102
}
330
10BB
100
AcDbPlotSettings
  1
DWF BW 30x42
  2
DWF-BW_30x42.pc3
  4
UserDefinedImperial (42.00 x 30.00Inches)
  6

 40
0.0
 41
0.0
 42
0.0
 43
0.0
 44
1066.800048828125
 45
762.0
 46
480.7860177796309
 47
326.5166450557452
 48
0.0
 49
0.0
140
0.0
141
0.0
142
1.0
143
1.0
 70
  2740
 72
     0
 73
     0
 74
     1
  7
1055B&WFullFinalShaded.ctb
 75
    16
147
1.0
 76
     0
 77
     2
 78
   300
148
-75.74468520391772
149
-27.53050504688192
1001
ACAD_PSEXT
1000
DWF-BW_30x42.pc3
1000
DWF eView (optimized for viewing)
1000
File
1000

1070
     0
  0
PLOTSETTINGS
  5
127B
102
{ACAD_REACTORS
330
10BB
102
}
330
10BB
100
AcDbPlotSettings
  1
DWF BW 36x48
  2
DWF-BW_36x48.pc3
  4
UserDefinedImperial (48.00 x 36.00Inches)
  6

 40
0.0
 41
0.0
 42
0.0
 43
0.0
 44
1219.199951171875
 45
914.4000244140626
 46
556.9859689515058
 47
402.7166572627765
 48
0.0
 49
0.0
140
0.0
141
0.0
142
1.0
143
1.0
 70
  2740
 72
     0
 73
     0
 74
     1
  7
1055B&WFullFinalShaded.ctb
 75
    16
147
1.0
 76
     0
 77
     2
 78
   300
148
-75.74468520391772
149
-27.53050504688192
1001
ACAD_PSEXT
1000
DWF-BW_36x48.pc3
1000
DWF eView (optimized for viewing)
1000
File
1000

1070
     0
  0
PLOTSETTINGS
  5
127C
102
{ACAD_REACTORS
330
10BB
102
}
330
10BB
100
AcDbPlotSettings
  1
Laser5 11x17 Fit
  2
LaserJet5Shaded.pc3
  4
11x17
  6

 40
5.873749732971191
 41
5.027085304260253
 42
5.873748779296875
 43
5.027069091796875
 44
431.7999877929687
 45
279.3999938964844
 46
79.97401308328474
 47
0.0
 48
0.0
 49
0.0
140
0.0
141
0.0
142
1.0
143
0.4045605831172927
 70
  2740
 72
     0
 73
     0
 74
     1
  7
LaserJet5Shaded.ctb
 75
     0
147
2.471817675104729
 76
     0
 77
     2
 78
   300
148
-75.74468520391772
149
-27.53050504688192
1001
ACAD_PSEXT
1000
LaserJet5Shaded.pc3
1000
HP LaserJet 5Si
1000
\\aqua-srv01
1000

1070
     0
  0
PLOTSETTINGS
  5
127D
102
{ACAD_REACTORS
330
10BB
102
}
330
10BB
100
AcDbPlotSettings
  1
Laser5 11x17 Full
  2
LaserJet5Shaded.pc3
  4
11x17
  6

 40
5.873749732971191
 41
5.027085304260253
 42
5.873748779296875
 43
5.027069091796875
 44
431.7999877929687
 45
279.3999938964844
 46
157.4122380059187
 47
80.18956480595884
 48
0.0
 49
0.0
140
0.0
141
0.0
142
1.0
143
1.0
 70
  2724
 72
     0
 73
     0
 74
     1
  7
LaserJet5Shaded.ctb
 75
     0
147
2.433550528115671
 76
     0
 77
     2
 78
   300
148
-75.74468520391772
149
-27.53050504688192
1001
ACAD_PSEXT
1000
LaserJet5Shaded.pc3
1000
HP LaserJet 5Si
1000
\\aqua-srv01
1000

1070
     0
  0
PLOTSETTINGS
  5
127E
102
{ACAD_REACTORS
330
10BB
102
}
330
10BB
100
AcDbPlotSettings
  1
Laser5 11x17 Half
  2
LaserJet5Shaded.pc3
  4
11x17
  6

 40
5.873749732971191
 41
5.027085304260253
 42
5.873748779296875
 43
5.027069091796875
 44
431.7999877929687
 45
279.3999938964844
 46
183.7192413231345
 47
107.4312422780862
 48
0.0
 49
0.0
140
0.0
141
0.0
142
1.0
143
2.0
 70
  2740
 72
     0
 73
     0
 74
     1
  7
LaserJet5Shaded.ctb
 75
    17
147
0.5
 76
     0
 77
     2
 78
   300
148
-75.74468520391772
149
-27.53050504688192
1001
ACAD_PSEXT
1000
LaserJet5Shaded.pc3
1000
HP LaserJet 5Si
1000
\\aqua-srv01
1000

1070
     0
  0
PLOTSETTINGS
  5
127F
102
{ACAD_REACTORS
330
10BB
102
}
330
10BB
100
AcDbPlotSettings
  1
Laser5 8x11 Fit
  2
LaserJet5Shaded-8x11.pc3
  4
Letter
  6

 40
5.873749732971191
 41
5.027085304260253
 42
5.873748779296875
 43
5.027084350585937
 44
279.3999938964844
 45
215.8999938964844
 46
34.4346667826652
 47
0.0
 48
0.0
 49
0.0
140
0.0
141
0.0
142
1.0
143
0.5293607985003172
 70
  2740
 72
     0
 73
     0
 74
     1
  7
LaserJet5Shaded.ctb
 75
     0
147
1.889070748784206
 76
     0
 77
     2
 78
   300
148
-75.74468520391772
149
-27.53050504688192
1001
ACAD_PSEXT
1000
LaserJet5Shaded-8x11.pc3
1000
HP LaserJet 5Si
1000
\\aqua-srv01
1000

1070
     0
  0
PLOTSETTINGS
  5
1280
102
{ACAD_REACTORS
330
10BB
102
}
330
10BB
100
AcDbPlotSettings
  1
Laser5 8x11 Half
  2
LaserJet5Shaded-8x11.pc3
  4
Letter
  6

 40
5.873749732971191
 41
5.027085304260253
 42
5.873748779296875
 43
5.027084350585937
 44
279.3999938964844
 45
215.8999938964844
 46
107.5192443748923
 47
75.68123464869171
 48
0.0
 49
0.0
140
0.0
141
0.0
142
1.0
143
2.0
 70
  2740
 72
     0
 73
     0
 74
     1
  7
LaserJet5Shaded.ctb
 75
    17
147
0.5
 76
     0
 77
     2
 78
   300
148
-75.74468520391772
149
-27.53050504688192
1001
ACAD_PSEXT
1000
LaserJet5Shaded-8x11.pc3
1000
HP LaserJet 5Si
1000
\\aqua-srv01
1000

1070
     0
  0
PLOTSETTINGS
  5
1281
102
{ACAD_REACTORS
330
10BB
102
}
330
10BB
100
AcDbPlotSettings
  1
Laser5 8x11 Portrait Fit
  2
LaserJet5Shaded-8x11.pc3
  4
Letter
  6

 40
5.873749732971191
 41
5.027085304260253
 42
5.873748779296875
 43
5.027084350585937
 44
279.3999938964844
 45
215.8999938964844
 46
27.24653799736659
 47
0.0000000000000029
 48
0.0
 49
0.0
140
0.0
141
0.0
142
1.0
143
0.5111981924167587
 70
  2740
 72
     0
 73
     1
 74
     1
  7
LaserJet5Shaded.ctb
 75
     0
147
1.956188450652308
 76
     0
 77
     2
 78
   300
148
-75.74468520391772
149
-27.53050504688192
1001
ACAD_PSEXT
1000
LaserJet5Shaded-8x11.pc3
1000
HP LaserJet 5Si
1000
\\aqua-srv01
1000

1070
     0
  0
PLOTSETTINGS
  5
1282
102
{ACAD_REACTORS
330
10BB
102
}
330
10BB
100
AcDbPlotSettings
  1
LaserJet5 11x17
  2
LaserJet5Shaded.pc3
  4
11x17
  6

 40
7.111999988555908
 41
5.079999923706054
 42
7.11199951171875
 43
5.079986572265625
 44
279.3999938964844
 45
431.7999877929687
 46
0.0
 47
74.88489939702606
 48
0.0
 49
0.0
140
0.0
141
0.0
142
1.0
143
0.3551636250563743
 70
 11956
 72
     0
 73
     1
 74
     1
  7
LaserJet5Shaded.ctb
 75
     0
147
2.815603652658045
 76
     0
 77
     2
 78
   300
148
-119.4582094169044
149
-58.17053554795709
1001
ACAD_PSEXT
1000
LaserJet5Shaded.pc3
1000
HP LaserJet 5Si
1000
\\aqua-srv01
1000

1070
     0
  0
PLOTSETTINGS
  5
1283
102
{ACAD_REACTORS
330
10BB
102
}
330
10BB
100
AcDbPlotSettings
  1
LaserJet5 8.5x11
  2
LaserJet5Shaded-8x11.pc3
  4
Letter
  6

 40
5.873749732971191
 41
5.873734951019287
 42
6.55108642578125
 43
5.027084350585937
 44
279.3999938964844
 45
215.8999938964844
 46
28.40045128601757
 47
0.0000000000000046
 48
0.0
 49
0.0
140
0.0
141
0.0
142
1.0
143
0.4594207153946231
 70
 11956
 72
     0
 73
     0
 74
     1
  7
LaserJet5Shaded.ctb
 75
     0
147
2.176654135286525
 76
     0
 77
     2
 78
   300
148
-119.4582094169044
149
-58.17053554795709
1001
ACAD_PSEXT
1000
LaserJet5Shaded-8x11.pc3
1000
HP LaserJet 5Si
1000
CAD Area
1000

1070
     0
  0
PLOTSETTINGS
  5
1284
102
{ACAD_REACTORS
330
10BB
102
}
330
10BB
100
AcDbPlotSettings
  1
Oki9500 11x17 BW Fit
  2
OKI DOKI Color Laser.pc3
  4
Tabloid
  6

 40
5.027083396911621
 41
5.027085304260253
 42
5.027099609375
 43
5.027069091796875
 44
431.7999877929687
 45
279.3999938964844
 46
80.82067083627547
 47
0.0
 48
0.0
 49
0.0
140
0.0
141
0.0
142
1.0
143
0.4045605831172927
 70
  2740
 72
     0
 73
     0
 74
     1
  7
OKIB&WShaded.ctb
 75
     0
147
2.471817675104729
 76
     0
 77
     2
 78
   300
148
-75.74468520391772
149
-27.53050504688192
1001
ACAD_PSEXT
1000
OKI DOKI Color Laser.pc3
1000
OKI C9500(PCL)
1000
FRONT
1000

1070
     0
  0
PLOTSETTINGS
  5
1285
102
{ACAD_REACTORS
330
10BB
102
}
330
10BB
100
AcDbPlotSettings
  1
Oki9500 11x17 BW Full
  2
OKI DOKI Color Laser.pc3
  4
Tabloid
  6

 40
5.027083396911621
 41
5.027085304260253
 42
5.027099609375
 43
5.027069091796875
 44
431.7999877929687
 45
279.3999938964844
 46
158.2588957589094
 47
80.18956480595884
 48
0.0
 49
0.0
140
0.0
141
0.0
142
1.0
143
1.0
 70
  2724
 72
     0
 73
     0
 74
     1
  7
OKIB&WShaded.ctb
 75
     0
147
2.471817675104729
 76
     0
 77
     2
 78
   300
148
-75.74468520391772
149
-27.53050504688192
1001
ACAD_PSEXT
1000
OKI DOKI Color Laser.pc3
1000
OKI C9500(PCL)
1000
FRONT
1000

1070
     0
  0
PLOTSETTINGS
  5
1286
102
{ACAD_REACTORS
330
10BB
102
}
330
10BB
100
AcDbPlotSettings
  1
Oki9500 11x17 BW Half
  2
OKI DOKI Color Laser.pc3
  4
Tabloid
  6

 40
5.027083396911621
 41
5.027085304260253
 42
5.027099609375
 43
5.027069091796875
 44
431.7999877929687
 45
279.3999938964844
 46
184.5658990761252
 47
107.4312422780862
 48
0.0
 49
0.0
140
0.0
141
0.0
142
1.0
143
2.0
 70
  2740
 72
     0
 73
     0
 74
     1
  7
OKIB&WShaded.ctb
 75
    17
147
0.5
 76
     0
 77
     2
 78
   300
148
-75.74468520391772
149
-27.53050504688192
1001
ACAD_PSEXT
1000
OKI DOKI Color Laser.pc3
1000
OKI C9500(PCL)
1000
FRONT
1000

1070
     0
  0
PLOTSETTINGS
  5
1287
102
{ACAD_REACTORS
330
10BB
102
}
330
10BB
100
AcDbPlotSettings
  1
Oki9500 11x17 Color Fit
  2
OKI DOKI Color Laser.pc3
  4
Tabloid
  6

 40
5.027083396911621
 41
5.027085304260253
 42
5.027099609375
 43
5.027069091796875
 44
431.7999877929687
 45
279.3999938964844
 46
80.82067083627547
 47
0.0
 48
0.0
 49
0.0
140
0.0
141
0.0
142
1.0
143
0.4045605831172927
 70
  2740
 72
     0
 73
     0
 74
     1
  7
OKIColorShaded.ctb
 75
     0
147
2.471817675104729
 76
     0
 77
     2
 78
   300
148
-75.74468520391772
149
-27.53050504688192
1001
ACAD_PSEXT
1000
OKI DOKI Color Laser.pc3
1000
OKI C9500(PCL)
1000
FRONT
1000

1070
     0
  0
PLOTSETTINGS
  5
1288
102
{ACAD_REACTORS
330
10BB
102
}
330
10BB
100
AcDbPlotSettings
  1
Oki9500 11x17 Color Full
  2
OKI DOKI Color Laser.pc3
  4
Tabloid
  6

 40
5.027082920074462
 41
5.027085781097412
 42
5.027099609375
 43
5.027069091796875
 44
431.7999877929687
 45
279.3999938964844
 46
158.258895997328
 47
80.18956456754025
 48
0.0
 49
0.0
140
0.0
141
0.0
142
1.0
143
1.0
 70
  2724
 72
     0
 73
     0
 74
     1
  7
OKIColorShaded.ctb
 75
     0
147
2.471817675104729
 76
     0
 77
     2
 78
   300
148
-75.74468520391772
149
-27.53050504688192
1001
ACAD_PSEXT
1000
OKI DOKI Color Laser.pc3
1000
OKI C9600(PCL)
1000
FRONT
1000

1070
     0
  0
PLOTSETTINGS
  5
1289
102
{ACAD_REACTORS
330
10BB
102
}
330
10BB
100
AcDbPlotSettings
  1
Oki9500 11x17 Color Half
  2
OKI DOKI Color Laser.pc3
  4
Tabloid
  6

 40
5.027083396911621
 41
5.027085304260253
 42
5.027099609375
 43
5.027069091796875
 44
431.7999877929687
 45
279.3999938964844
 46
184.5658990761252
 47
107.4312422780862
 48
0.0
 49
0.0
140
0.0
141
0.0
142
1.0
143
2.0
 70
  2740
 72
     0
 73
     0
 74
     1
  7
OKIColorShaded.ctb
 75
    17
147
0.5
 76
     0
 77
     2
 78
   300
148
-75.74468520391772
149
-27.53050504688192
1001
ACAD_PSEXT
1000
OKI DOKI Color Laser.pc3
1000
OKI C9500(PCL)
1000
FRONT
1000

1070
     0
  0
PLOTSETTINGS
  5
128A
102
{ACAD_REACTORS
330
10BB
102
}
330
10BB
100
AcDbPlotSettings
  1
Oki9500 8x11 BW Fit
  2
OKI DOKI Color Laser8x11.pc3
  4
Letter
  6

 40
5.027083396911621
 41
5.027085304260253
 42
5.027099609375
 43
5.027084350585937
 44
279.3999938964844
 45
215.8999938964844
 46
35.28132453565591
 47
0.0
 48
0.0
 49
0.0
140
0.0
141
0.0
142
1.0
143
0.5293607985003172
 70
  2740
 72
     0
 73
     0
 74
     1
  7
OKIB&WShaded.ctb
 75
     0
147
1.889070748784206
 76
     0
 77
     2
 78
   300
148
-75.74468520391772
149
-27.53050504688192
1001
ACAD_PSEXT
1000
OKI DOKI Color Laser8x11.pc3
1000
OKI C9500(PCL)
1000
FRONT
1000

1070
     0
  0
PLOTSETTINGS
  5
128B
102
{ACAD_REACTORS
330
10BB
102
}
330
10BB
100
AcDbPlotSettings
  1
Oki9500 8x11 BW Portrait Fit
  2
OKI DOKI Color Laser8x11.pc3
  4
Letter
  6

 40
5.027083396911621
 41
5.027085304260253
 42
5.027099609375
 43
5.027084350585937
 44
279.3999938964844
 45
215.8999938964844
 46
28.0931957503573
 47
0.0000000000000029
 48
0.0
 49
0.0
140
0.0
141
0.0
142
1.0
143
0.5111981924167587
 70
  2740
 72
     0
 73
     1
 74
     1
  7
OKIB&WShaded.ctb
 75
     0
147
1.956188450652308
 76
     0
 77
     2
 78
   300
148
-75.74468520391772
149
-27.53050504688192
1001
ACAD_PSEXT
1000
OKI DOKI Color Laser8x11.pc3
1000
OKI C9500(PCL)
1000
FRONT
1000

1070
     0
  0
PLOTSETTINGS
  5
128C
102
{ACAD_REACTORS
330
10BB
102
}
330
10BB
100
AcDbPlotSettings
  1
Oki9500 8x11 Color Fit
  2
OKI DOKI Color Laser8x11.pc3
  4
Letter
  6

 40
5.027083396911621
 41
5.027085304260253
 42
5.027099609375
 43
5.027084350585937
 44
279.3999938964844
 45
215.8999938964844
 46
35.28132453565591
 47
0.0
 48
0.0
 49
0.0
140
0.0
141
0.0
142
1.0
143
0.5293607985003172
 70
  2740
 72
     0
 73
     0
 74
     1
  7
OKIColorShaded.ctb
 75
     0
147
1.889070748784206
 76
     0
 77
     2
 78
   300
148
-75.74468520391772
149
-27.53050504688192
1001
ACAD_PSEXT
1000
OKI DOKI Color Laser8x11.pc3
1000
OKI C9500(PCL)
1000
FRONT
1000

1070
     0
  0
PLOTSETTINGS
  5
128D
102
{ACAD_REACTORS
330
10BB
102
}
330
10BB
100
AcDbPlotSettings
  1
Oki9500 8x11 Color Portrait Fit
  2
OKI DOKI Color Laser8x11.pc3
  4
Letter
  6

 40
5.027083396911621
 41
5.027085304260253
 42
5.027099609375
 43
5.027084350585937
 44
279.3999938964844
 45
215.8999938964844
 46
28.0931957503573
 47
0.0000000000000029
 48
0.0
 49
0.0
140
0.0
141
0.0
142
1.0
143
0.5111981924167587
 70
  2740
 72
     0
 73
     1
 74
     1
  7
OKIColorShaded.ctb
 75
     0
147
1.956188450652308
 76
     0
 77
     2
 78
   300
148
-75.74468520391772
149
-27.53050504688192
1001
ACAD_PSEXT
1000
OKI DOKI Color Laser8x11.pc3
1000
OKI C9500(PCL)
1000
FRONT
1000

1070
     0
  0
PLOTSETTINGS
  5
128E
102
{ACAD_REACTORS
330
10BB
102
}
330
10BB
100
AcDbPlotSettings
  1
OKI9500 B&W 11x17
  2
OKI DOKI Color Laser.pc3
  4
11x17
  6

 40
5.873749732971191
 41
5.873734951019287
 42
5.873748779296875
 43
5.027069091796875
 44
431.7999877929687
 45
279.3999938964844
 46
72.38759962724653
 47
0.0000000000000057
 48
0.0
 49
0.0
140
0.0
141
0.0
142
1.0
143
0.3507677900220671
 70
 11956
 72
     0
 73
     0
 74
     1
  7
OKIB&WShaded.ctb
 75
     0
147
2.850888902704233
 76
     0
 77
     2
 78
   300
148
-119.4582094169044
149
-58.17053554795709
1001
ACAD_PSEXT
1000
OKI DOKI Color Laser.pc3
1000
HP LaserJet 5Si
1000
CAD Area
1000

1070
     0
  0
PLOTSETTINGS
  5
128F
102
{ACAD_REACTORS
330
10BB
102
}
330
10BB
100
AcDbPlotSettings
  1
OKI9500 B&W 8.5x11
  2
OKI DOKI Color Laser8x11.pc3
  4
Letter
  6

 40
5.873749732971191
 41
5.873734951019287
 42
6.55108642578125
 43
5.027084350585937
 44
279.3999938964844
 45
215.8999938964844
 46
28.40045128601757
 47
0.0000000000000046
 48
0.0
 49
0.0
140
0.0
141
0.0
142
1.0
143
0.4594207153946231
 70
 11956
 72
     0
 73
     0
 74
     1
  7
OKIB&WShaded.ctb
 75
     0
147
2.176654135286525
 76
     0
 77
     2
 78
   300
148
-119.4582094169044
149
-58.17053554795709
1001
ACAD_PSEXT
1000
OKI DOKI Color Laser8x11.pc3
1000
HP LaserJet 5Si
1000
CAD Area
1000

1070
     0
  0
PLOTSETTINGS
  5
1290
102
{ACAD_REACTORS
330
10BB
102
}
330
10BB
100
AcDbPlotSettings
  1
OKI9500 Color 11x17
  2
OKI DOKI Color Laser.pc3
  4
Tabloid
  6

 40
5.027083396911621
 41
5.027085304260253
 42
5.027099609375
 43
5.027069091796875
 44
431.7999877929687
 45
279.3999938964844
 46
72.80024597690952
 47
0.0
 48
0.0
 49
0.0
140
0.0
141
0.0
142
1.0
143
0.349665202263268
 70
 11956
 72
     0
 73
     0
 74
     1
  7
OKIColorShaded.ctb
 75
     0
147
2.859878516727796
 76
     0
 77
     2
 78
   300
148
-119.4582094169044
149
-58.17053554795709
1001
ACAD_PSEXT
1000
OKI DOKI Color Laser.pc3
1000
OKI C9500(PCL)
1000
FRONT
1000

1070
     0
  0
PLOTSETTINGS
  5
1291
102
{ACAD_REACTORS
330
10BB
102
}
330
10BB
100
AcDbPlotSettings
  1
OKI9500 Color 8.5x11
  2
OKI DOKI Color Laser8x11.pc3
  4
Letter
  6

 40
5.873749732971191
 41
5.873734951019287
 42
6.55108642578125
 43
5.027084350585937
 44
279.3999938964844
 45
215.8999938964844
 46
28.40045128601757
 47
0.0000000000000046
 48
0.0
 49
0.0
140
0.0
141
0.0
142
1.0
143
0.4594207153946231
 70
 11956
 72
     0
 73
     0
 74
     1
  7
OKIColorShaded.ctb
 75
     0
147
2.176654135286525
 76
     0
 77
     2
 78
   300
148
-119.4582094169044
149
-58.17053554795709
1001
ACAD_PSEXT
1000
OKI DOKI Color Laser8x11.pc3
1000
HP LaserJet 5Si
1000
CAD Area
1000

1070
     0
  0
PLOTSETTINGS
  5
1292
102
{ACAD_REACTORS
330
10BB
102
}
330
10BB
100
AcDbPlotSettings
  1
Oki9600 11x17 BW Fit
  2
9600 BW 11x17.pc3
  4
Tabloid
  6

 40
5.027082920074462
 41
5.027085781097412
 42
5.027099609375
 43
5.027069091796875
 44
431.7999877929687
 45
279.3999938964844
 46
80.82067130493244
 47
0.000000000000007
 48
0.0
 49
0.0
140
0.0
141
0.0
142
1.0
143
0.4045605838335077
 70
  2804
 72
     0
 73
     0
 74
     1
  7
OKIB&WShaded.ctb
 75
     0
147
2.47181767072874
 76
     0
 77
     2
 78
   300
148
-75.74468520391772
149
-27.53050504688192
1001
ACAD_PSEXT
1000
9600 BW 11x17.pc3
1000
OKI C9600(PCL)
1000
Expansion Area
1000

1070
     0
  0
PLOTSETTINGS
  5
1293
102
{ACAD_REACTORS
330
10BB
102
}
330
10BB
100
AcDbPlotSettings
  1
Oki9600 11x17 BW Full
  2
9600 BW 11x17.pc3
  4
Tabloid
  6

 40
5.027082920074462
 41
5.027085781097412
 42
5.027099609375
 43
5.027069091796875
 44
431.7999877929687
 45
279.3999938964844
 46
158.258895997328
 47
80.18956456754025
 48
0.0
 49
0.0
140
0.0
141
0.0
142
1.0
143
1.0
 70
  2788
 72
     0
 73
     0
 74
     1
  7
OKIB&WShaded.ctb
 75
     0
147
2.47181767072874
 76
     0
 77
     2
 78
   300
148
-75.74468520391772
149
-27.53050504688192
1001
ACAD_PSEXT
1000
9600 BW 11x17.pc3
1000
OKI C9600(PCL)
1000
Expansion Area
1000

1070
     0
  0
PLOTSETTINGS
  5
1294
102
{ACAD_REACTORS
330
10BB
102
}
330
10BB
100
AcDbPlotSettings
  1
Oki9600 11x17 BW Half
  2
9600 BW 11x17.pc3
  4
Tabloid
  6

 40
5.027082920074462
 41
5.027085781097412
 42
5.027099609375
 43
5.027069091796875
 44
431.7999877929687
 45
279.3999938964844
 46
184.5658993145439
 47
107.4312420396676
 48
0.0
 49
0.0
140
0.0
141
0.0
142
1.0
143
2.0
 70
  2788
 72
     0
 73
     0
 74
     1
  7
OKIB&WShaded.ctb
 75
     0
147
2.47181767072874
 76
     0
 77
     2
 78
   300
148
-75.74468520391772
149
-27.53050504688192
1001
ACAD_PSEXT
1000
9600 BW 11x17.pc3
1000
OKI C9600(PCL)
1000
Expansion Area
1000

1070
     0
  0
PLOTSETTINGS
  5
1295
102
{ACAD_REACTORS
330
10BB
102
}
330
10BB
100
AcDbPlotSettings
  1
Oki9600 11x17 Color Fit
  2
9600 Color 11x17.pc3
  4
Tabloid
  6

 40
5.027082920074462
 41
5.027085781097412
 42
5.027099609375
 43
5.027069091796875
 44
431.7999877929687
 45
279.3999938964844
 46
80.82067130493244
 47
0.000000000000007
 48
0.0
 49
0.0
140
0.0
141
0.0
142
1.0
143
0.4045605838335077
 70
  2804
 72
     0
 73
     0
 74
     1
  7
OKIColorShaded.ctb
 75
     0
147
2.47181767072874
 76
     0
 77
     2
 78
   300
148
-75.74468520391772
149
-27.53050504688192
1001
ACAD_PSEXT
1000
9600 Color 11x17.pc3
1000
OKI C9600(PCL)
1000
Expansion Area
1000

1070
     0
  0
PLOTSETTINGS
  5
1296
102
{ACAD_REACTORS
330
10BB
102
}
330
10BB
100
AcDbPlotSettings
  1
Oki9600 11x17 Color Full
  2
9600 Color 11x17.pc3
  4
Tabloid
  6

 40
5.027082920074462
 41
5.027085781097412
 42
5.027099609375
 43
5.027069091796875
 44
431.7999877929687
 45
279.3999938964844
 46
158.258895997328
 47
80.18956456754025
 48
0.0
 49
0.0
140
0.0
141
0.0
142
1.0
143
1.0
 70
  2788
 72
     0
 73
     0
 74
     1
  7
OKIColorShaded.ctb
 75
     0
147
2.47181767072874
 76
     0
 77
     2
 78
   300
148
-75.74468520391772
149
-27.53050504688192
1001
ACAD_PSEXT
1000
9600 Color 11x17.pc3
1000
OKI C9600(PCL)
1000
Expansion Area
1000

1070
     0
  0
PLOTSETTINGS
  5
1297
102
{ACAD_REACTORS
330
10BB
102
}
330
10BB
100
AcDbPlotSettings
  1
Oki9600 11x17 Color Half
  2
9600 Color 11x17.pc3
  4
Tabloid
  6

 40
5.027082920074462
 41
5.027085781097412
 42
5.027099609375
 43
5.027069091796875
 44
431.7999877929687
 45
279.3999938964844
 46
184.5658993145439
 47
107.4312420396676
 48
0.0
 49
0.0
140
0.0
141
0.0
142
1.0
143
2.0
 70
  2788
 72
     0
 73
     0
 74
     1
  7
OKIColorShaded.ctb
 75
     0
147
2.47181767072874
 76
     0
 77
     2
 78
   300
148
-75.74468520391772
149
-27.53050504688192
1001
ACAD_PSEXT
1000
9600 Color 11x17.pc3
1000
OKI C9600(PCL)
1000
Expansion Area
1000

1070
     0
  0
PLOTSETTINGS
  5
1298
102
{ACAD_REACTORS
330
10BB
102
}
330
10BB
100
AcDbPlotSettings
  1
Oki9600 8x11 BW Fit
  2
9600 BW 8.5x11.pc3
  4
Letter
  6

 40
5.027082920074462
 41
5.027070522308349
 42
5.027099609375
 43
5.027084350585937
 44
279.3999938964844
 45
215.8999938964844
 46
35.28131763668624
 47
0.0000000000000033
 48
0.0
 49
0.0
140
0.0
141
0.0
142
1.0
143
0.5293607604865011
 70
  2804
 72
     0
 73
     0
 74
     1
  7
OKIB&WShaded.ctb
 75
     0
147
1.889070884439876
 76
     0
 77
     2
 78
   300
148
-75.74468520391772
149
-27.53050504688192
1001
ACAD_PSEXT
1000
9600 BW 8.5x11.pc3
1000
OKI C9600(PCL)
1000
Expansion Area
1000

1070
     0
  0
PLOTSETTINGS
  5
1299
102
{ACAD_REACTORS
330
10BB
102
}
330
10BB
100
AcDbPlotSettings
  1
Oki9600 8x11 BW Portrait Fit
  2
9600 BW 8.5x11.pc3
  4
Letter
  6

 40
5.027082920074462
 41
5.027070522308349
 42
5.027099609375
 43
5.027084350585937
 44
279.3999938964844
 45
215.8999938964844
 46
28.09318833520237
 47
-0.0000000000000029
 48
0.0
 49
0.0
140
0.0
141
0.0
142
1.0
143
0.5111981557072135
 70
  2804
 72
     0
 73
     1
 74
     1
  7
OKIB&WShaded.ctb
 75
     0
147
1.956188591127753
 76
     0
 77
     2
 78
   300
148
-75.74468520391772
149
-27.53050504688192
1001
ACAD_PSEXT
1000
9600 BW 8.5x11.pc3
1000
OKI C9600(PCL)
1000
Expansion Area
1000

1070
     0
  0
PLOTSETTINGS
  5
129A
102
{ACAD_REACTORS
330
10BB
102
}
330
10BB
100
AcDbPlotSettings
  1
Oki9600 8x11 Color Fit
  2
9600 Color 8.5x11.pc3
  4
Letter
  6

 40
5.027082920074462
 41
5.027070522308349
 42
5.027099609375
 43
5.027084350585937
 44
279.3999938964844
 45
215.8999938964844
 46
35.28131763668624
 47
0.0000000000000033
 48
0.0
 49
0.0
140
0.0
141
0.0
142
1.0
143
0.5293607604865011
 70
  2804
 72
     0
 73
     0
 74
     1
  7
OKIColorShaded.ctb
 75
     0
147
1.889070884439876
 76
     0
 77
     2
 78
   300
148
-75.74468520391772
149
-27.53050504688192
1001
ACAD_PSEXT
1000
9600 Color 8.5x11.pc3
1000
OKI C9600(PCL)
1000
Expansion Area
1000

1070
     0
  0
PLOTSETTINGS
  5
129B
102
{ACAD_REACTORS
330
10BB
102
}
330
10BB
100
AcDbPlotSettings
  1
Oki9600 8x11 Color Portrait Fit
  2
9600 Color 8.5x11.pc3
  4
Letter
  6

 40
5.027082920074462
 41
5.027070522308349
 42
5.027099609375
 43
5.027084350585937
 44
279.3999938964844
 45
215.8999938964844
 46
28.09318833520237
 47
-0.0000000000000029
 48
0.0
 49
0.0
140
0.0
141
0.0
142
1.0
143
0.5111981557072135
 70
  2804
 72
     0
 73
     1
 74
     1
  7
OKIColorShaded.ctb
 75
     0
147
1.956188591127753
 76
     0
 77
     2
 78
   300
148
-75.74468520391772
149
-27.53050504688192
1001
ACAD_PSEXT
1000
9600 Color 8.5x11.pc3
1000
OKI C9600(PCL)
1000
Expansion Area
1000

1070
     0
  0
PLOTSETTINGS
  5
129C
102
{ACAD_REACTORS
330
10BB
102
}
330
10BB
100
AcDbPlotSettings
  1
OKI9600 B&W 11x17
  2
9600 BW 11x17.pc3
  4
Tabloid
  6

 40
5.027082920074462
 41
5.027085781097412
 42
5.027099609375
 43
5.027069091796875
 44
431.7999877929687
 45
279.3999938964844
 46
72.80024645976547
 47
-0.0000000000000027
 48
0.0
 49
0.0
140
0.0
141
0.0
142
1.0
143
0.3496652028822988
 70
 11956
 72
     0
 73
     0
 74
     1
  7
OKIB&WShaded.ctb
 75
     0
147
2.859878511664802
 76
     0
 77
     2
 78
   300
148
-119.4582094169044
149
-58.17053554795709
1001
ACAD_PSEXT
1000
9600 BW 11x17.pc3
1000
OKI C9600(PCL)
1000
Expansion Area
1000

1070
     0
  0
PLOTSETTINGS
  5
129D
102
{ACAD_REACTORS
330
10BB
102
}
330
10BB
100
AcDbPlotSettings
  1
OKI9600 B&W 8.5x11
  2
9600 BW 8.5x11.pc3
  4
Letter
  6

 40
5.027082920074462
 41
5.027070522308349
 42
5.027099609375
 43
5.027084350585937
 44
279.3999938964844
 45
215.8999938964844
 46
29.15175911978468
 47
0.0000000000000065
 48
0.0
 49
0.0
140
0.0
141
0.0
142
1.0
143
0.4575310722549676
 70
 11956
 72
     0
 73
     0
 74
     1
  7
OKIB&WShaded.ctb
 75
     0
147
2.185643906262899
 76
     0
 77
     2
 78
   300
148
-119.4582094169044
149
-58.17053554795709
1001
ACAD_PSEXT
1000
9600 BW 8.5x11.pc3
1000
OKI C9600(PCL)
1000
Expansion Area
1000

1070
     0
  0
PLOTSETTINGS
  5
129E
102
{ACAD_REACTORS
330
10BB
102
}
330
10BB
100
AcDbPlotSettings
  1
OKI9600 Color 11x17
  2
9600 Color 11x17.pc3
  4
Tabloid
  6

 40
5.027082920074462
 41
5.027085781097412
 42
5.027099609375
 43
5.027069091796875
 44
431.7999877929687
 45
279.3999938964844
 46
72.80024645976547
 47
-0.0000000000000027
 48
0.0
 49
0.0
140
0.0
141
0.0
142
1.0
143
0.3496652028822988
 70
 11956
 72
     0
 73
     0
 74
     1
  7
OKIColorShaded.ctb
 75
     0
147
2.859878511664802
 76
     0
 77
     2
 78
   300
148
-119.4582094169044
149
-58.17053554795709
1001
ACAD_PSEXT
1000
9600 Color 11x17.pc3
1000
OKI C9600(PCL)
1000
Expansion Area
1000

1070
     0
  0
PLOTSETTINGS
  5
129F
102
{ACAD_REACTORS
330
10BB
102
}
330
10BB
100
AcDbPlotSettings
  1
OKI9600 Color 8.5x11
  2
9600 Color 8.5x11.pc3
  4
Letter
  6

 40
5.027082920074462
 41
5.027070522308349
 42
5.027099609375
 43
5.027084350585937
 44
279.3999938964844
 45
215.8999938964844
 46
29.15175911978468
 47
0.0000000000000065
 48
0.0
 49
0.0
140
0.0
141
0.0
142
1.0
143
0.4575310722549676
 70
 11956
 72
     0
 73
     0
 74
     1
  7
OKIColorShaded.ctb
 75
     0
147
2.185643906262899
 76
     0
 77
     2
 78
   300
148
-119.4582094169044
149
-58.17053554795709
1001
ACAD_PSEXT
1000
9600 Color 8.5x11.pc3
1000
OKI C9600(PCL)
1000
Expansion Area
1000

1070
     0
  0
PLOTSETTINGS
  5
12A0
102
{ACAD_REACTORS
330
10BB
102
}
330
10BB
100
AcDbPlotSettings
  1
PHX Kyocera 11x17 Fit
  2
PHX_Kyocera.pc3
  4
Tabloid
  6

 40
4.984749794006347
 41
5.069418907165527
 42
5.069427490234375
 43
4.9847412109375
 44
431.7999877929687
 45
279.3999938964844
 46
80.8206764601584
 47
-0.0000000000000226
 48
0.0
 49
0.0
140
0.0
141
0.0
142
1.0
143
0.4045605917118723
 70
  2740
 72
     0
 73
     0
 74
     1
  7
LaserJet5Shaded.ctb
 75
     0
147
2.471817622592858
 76
     0
 77
     2
 78
   300
148
-75.74468520391772
149
-27.53050504688192
1001
ACAD_PSEXT
1000
PHX_Kyocera.pc3
1000
Kyocera Mita KM-2050 KX
1000
Arizona
1000

1070
     0
  0
PLOTSETTINGS
  5
12A1
102
{ACAD_REACTORS
330
10BB
102
}
330
10BB
100
AcDbPlotSettings
  1
PHX Oki9500 11x17 BW Fit
  2
PHX OKI BW.pc3
  4
Tabloid
  6

 40
5.027082920074462
 41
5.027085781097412
 42
5.027099609375
 43
5.027069091796875
 44
431.7999877929687
 45
279.3999938964844
 46
80.82067130493246
 47
0.0
 48
0.0
 49
0.0
140
0.0
141
0.0
142
1.0
143
0.4045605838335077
 70
  2740
 72
     0
 73
     0
 74
     1
  7
OKIB&WShaded.ctb
 75
     0
147
2.47181767072874
 76
     0
 77
     2
 78
   300
148
-75.74468520391772
149
-27.53050504688192
1001
ACAD_PSEXT
1000
PHX OKI BW.pc3
1000
OKI C9500(PCL)
1000
Arizona
1000

1070
     0
  0
PLOTSETTINGS
  5
12A2
102
{ACAD_REACTORS
330
10BB
102
}
330
10BB
100
AcDbPlotSettings
  1
PHX Oki9500 11x17 BW Half
  2
PHX OKI BW.pc3
  4
Tabloid
  6

 40
5.027082920074462
 41
5.027085781097412
 42
5.027099609375
 43
5.027069091796875
 44
431.7999877929687
 45
279.3999938964844
 46
184.5658993145439
 47
107.4312420396676
 48
0.0
 49
0.0
140
0.0
141
0.0
142
1.0
143
2.0
 70
  2724
 72
     0
 73
     0
 74
     1
  7
OKIB&WShaded.ctb
 75
     0
147
2.47181767072874
 76
     0
 77
     2
 78
   300
148
-75.74468520391772
149
-27.53050504688192
1001
ACAD_PSEXT
1000
PHX OKI BW.pc3
1000
OKI C9500(PCL)
1000
Arizona
1000

1070
     0
  0
ACDBPLACEHOLDER
  5
10B2
102
{ACAD_REACTORS
330
10B1
102
}
330
10B1
  0
SCALE
  5
1220
102
{ACAD_REACTORS
330
121F
102
}
330
121F
100
AcDbScale
 70
     0
300
1:1
140
1.0
141
1.0
290
     1
  0
SCALE
  5
1221
102
{ACAD_REACTORS
330
121F
102
}
330
121F
100
AcDbScale
 70
     0
300
1:2
140
1.0
141
2.0
290
     0
  0
SCALE
  5
1222
102
{ACAD_REACTORS
330
121F
102
}
330
121F
100
AcDbScale
 70
     0
300
1:4
140
1.0
141
4.0
290
     0
  0
SCALE
  5
1223
102
{ACAD_REACTORS
330
121F
102
}
330
121F
100
AcDbScale
 70
     0
300
1:5
140
1.0
141
5.0
290
     0
  0
SCALE
  5
1224
102
{ACAD_REACTORS
330
121F
102
}
330
121F
100
AcDbScale
 70
     0
300
1:8
140
1.0
141
8.0
290
     0
  0
SCALE
  5
1225
102
{ACAD_REACTORS
330
121F
102
}
330
121F
100
AcDbScale
 70
     0
300
1:10
140
1.0
141
10.0
290
     0
  0
SCALE
  5
1226
102
{ACAD_REACTORS
330
121F
102
}
330
121F
100
AcDbScale
 70
     0
300
1:16
140
1.0
141
16.0
290
     0
  0
SCALE
  5
1227
102
{ACAD_REACTORS
330
121F
102
}
330
121F
100
AcDbScale
 70
     0
300
1:20
140
1.0
141
20.0
290
     0
  0
SCALE
  5
1228
102
{ACAD_REACTORS
330
121F
102
}
330
121F
100
AcDbScale
 70
     0
300
1:30
140
1.0
141
30.0
290
     0
  0
SCALE
  5
1229
102
{ACAD_REACTORS
330
121F
102
}
330
121F
100
AcDbScale
 70
     0
300
1:40
140
1.0
141
40.0
290
     0
  0
SCALE
  5
122A
102
{ACAD_REACTORS
330
121F
102
}
330
121F
100
AcDbScale
 70
     0
300
1:50
140
1.0
141
50.0
290
     0
  0
SCALE
  5
122B
102
{ACAD_REACTORS
330
121F
102
}
330
121F
100
AcDbScale
 70
     0
300
1:100
140
1.0
141
100.0
290
     0
  0
SCALE
  5
122C
102
{ACAD_REACTORS
330
121F
102
}
330
121F
100
AcDbScale
 70
     0
300
2:1
140
2.0
141
1.0
290
     0
  0
SCALE
  5
122D
102
{ACAD_REACTORS
330
121F
102
}
330
121F
100
AcDbScale
 70
     0
300
4:1
140
4.0
141
1.0
290
     0
  0
SCALE
  5
122E
102
{ACAD_REACTORS
330
121F
102
}
330
121F
100
AcDbScale
 70
     0
300
8:1
140
8.0
141
1.0
290
     0
  0
SCALE
  5
122F
102
{ACAD_REACTORS
330
121F
102
}
330
121F
100
AcDbScale
 70
     0
300
10:1
140
10.0
141
1.0
290
     0
  0
SCALE
  5
1230
102
{ACAD_REACTORS
330
121F
102
}
330
121F
100
AcDbScale
 70
     0
300
100:1
140
100.0
141
1.0
290
     0
  0
SCALE
  5
1231
102
{ACAD_REACTORS
330
121F
102
}
330
121F
100
AcDbScale
 70
     0
300
1/128" = 1'-0"
140
0.0078125
141
12.0
290
     0
  0
SCALE
  5
1232
102
{ACAD_REACTORS
330
121F
102
}
330
121F
100
AcDbScale
 70
     0
300
1/64" = 1'-0"
140
0.015625
141
12.0
290
     0
  0
SCALE
  5
1233
102
{ACAD_REACTORS
330
121F
102
}
330
121F
100
AcDbScale
 70
     0
300
1/32" = 1'-0"
140
0.03125
141
12.0
290
     0
  0
SCALE
  5
1234
102
{ACAD_REACTORS
330
121F
102
}
330
121F
100
AcDbScale
 70
     0
300
1/16" = 1'-0"
140
0.0625
141
12.0
290
     0
  0
SCALE
  5
1235
102
{ACAD_REACTORS
330
121F
102
}
330
121F
100
AcDbScale
 70
     0
300
3/32" = 1'-0"
140
0.09375
141
12.0
290
     0
  0
SCALE
  5
1236
102
{ACAD_REACTORS
330
121F
102
}
330
121F
100
AcDbScale
 70
     0
300
1/8" = 1'-0"
140
0.125
141
12.0
290
     0
  0
SCALE
  5
1237
102
{ACAD_REACTORS
330
121F
102
}
330
121F
100
AcDbScale
 70
     0
300
3/16" = 1'-0"
140
0.1875
141
12.0
290
     0
  0
SCALE
  5
1238
102
{ACAD_REACTORS
330
121F
102
}
330
121F
100
AcDbScale
 70
     0
300
1/4" = 1'-0"
140
0.25
141
12.0
290
     0
  0
SCALE
  5
1239
102
{ACAD_REACTORS
330
121F
102
}
330
121F
100
AcDbScale
 70
     0
300
3/8" = 1'-0"
140
0.375
141
12.0
290
     0
  0
SCALE
  5
123A
102
{ACAD_REACTORS
330
121F
102
}
330
121F
100
AcDbScale
 70
     0
300
1/2" = 1'-0"
140
0.5
141
12.0
290
     0
  0
SCALE
  5
123B
102
{ACAD_REACTORS
330
121F
102
}
330
121F
100
AcDbScale
 70
     0
300
3/4" = 1'-0"
140
0.75
141
12.0
290
     0
  0
SCALE
  5
123C
102
{ACAD_REACTORS
330
121F
102
}
330
121F
100
AcDbScale
 70
     0
300
1" = 1'-0"
140
1.0
141
12.0
290
     0
  0
SCALE
  5
123D
102
{ACAD_REACTORS
330
121F
102
}
330
121F
100
AcDbScale
 70
     0
300
1-1/2" = 1'-0"
140
1.5
141
12.0
290
     0
  0
SCALE
  5
123E
102
{ACAD_REACTORS
330
121F
102
}
330
121F
100
AcDbScale
 70
     0
300
3" = 1'-0"
140
3.0
141
12.0
290
     0
  0
SCALE
  5
123F
102
{ACAD_REACTORS
330
121F
102
}
330
121F
100
AcDbScale
 70
     0
300
6" = 1'-0"
140
6.0
141
12.0
290
     0
  0
SCALE
  5
1240
102
{ACAD_REACTORS
330
121F
102
}
330
121F
100
AcDbScale
 70
     0
300
1'-0" = 1'-0"
140
12.0
141
12.0
290
     0
  0
TABLESTYLE
  5
121E
102
{ACAD_XDICTIONARY
360
12BA
102
}
102
{ACAD_REACTORS
330
121D
102
}
330
121D
100
AcDbTableStyle
  3
Standard
 70
     0
 71
     0
 40
0.06
 41
0.06
280
     0
281
     0
  7
STANDARD
140
0.18
170
     2
 62
     0
 63
     7
283
     0
274
    -2
284
     1
 64
     0
275
    -2
285
     1
 65
     0
276
    -2
286
     1
 66
     0
277
    -2
287
     1
 67
     0
278
    -2
288
     1
 68
     0
279
    -2
289
     1
 69
     0
  7
STANDARD
140
0.25
170
     5
 62
     0
 63
     7
283
     0
274
    -2
284
     1
 64
     0
275
    -2
285
     1
 65
     0
276
    -2
286
     1
 66
     0
277
    -2
287
     1
 67
     0
278
    -2
288
     1
 68
     0
279
    -2
289
     1
 69
     0
  7
STANDARD
140
0.18
170
     5
 62
     0
 63
     7
283
     0
274
    -2
284
     1
 64
     0
275
    -2
285
     1
 65
     0
276
    -2
286
     1
 66
     0
277
    -2
287
     1
 67
     0
278
    -2
288
     1
 68
     0
279
    -2
289
     1
 69
     0
  0
VISUALSTYLE
  5
1211
102
{ACAD_REACTORS
330
120B
102
}
330
120B
100
AcDbVisualStyle
  2
2dWireframe
 70
     4
 71
     0
 72
     2
 73
     0
 90
        0
 40
-0.6
 41
-30.0
 62
     5
 63
     7
421
 16777215
 74
     1
 91
        4
 64
     7
 65
   257
 75
     1
175
     1
 42
1.0
 92
        0
 66
   257
 43
1.0
 76
     1
 77
     6
 78
     2
 67
     7
 79
     5
170
     0
171
     0
290
     0
174
     0
 93
        1
 44
0.0
173
     0
291
     0
 45
0.0
1001
ACAD
1000
AcDbSavedByObjectVersion
1070
     0
  0
VISUALSTYLE
  5
1213
102
{ACAD_REACTORS
330
120B
102
}
330
120B
100
AcDbVisualStyle
  2
3D Hidden
 70
     6
 71
     1
 72
     2
 73
     2
 90
        0
 40
-0.6
 41
-30.0
 62
     5
 63
     7
421
 16777215
 74
     2
 91
        2
 64
     7
 65
   257
 75
     2
175
     1
 42
40.0
 92
        0
 66
   257
 43
1.0
 76
     1
 77
     6
 78
     2
 67
     7
 79
     3
170
     0
171
     0
290
     0
174
     0
 93
        1
 44
0.0
173
     0
291
     0
 45
0.0
1001
ACAD
1000
AcDbSavedByObjectVersion
1070
     0
  0
VISUALSTYLE
  5
1212
102
{ACAD_REACTORS
330
120B
102
}
330
120B
100
AcDbVisualStyle
  2
3dWireframe
 70
     5
 71
     0
 72
     2
 73
     0
 90
        0
 40
-0.6
 41
-30.0
 62
     5
 63
     7
421
 16777215
 74
     1
 91
        4
 64
     7
 65
   257
 75
     1
175
     1
 42
1.0
 92
        0
 66
   257
 43
1.0
 76
     1
 77
     6
 78
     2
 67
     7
 79
     5
170
     0
171
     0
290
     0
174
     0
 93
        1
 44
0.0
173
     0
291
     0
 45
0.0
1001
ACAD
1000
AcDbSavedByObjectVersion
1070
     0
  0
VISUALSTYLE
  5
1210
102
{ACAD_REACTORS
330
120B
102
}
330
120B
100
AcDbVisualStyle
  2
Basic
 70
     7
 71
     1
 72
     0
 73
     1
 90
        0
 40
-0.6
 41
-30.0
 62
     5
 63
     7
421
 16777215
 74
     0
 91
        4
 64
     7
 65
   257
 75
     1
175
     1
 42
1.0
 92
        8
 66
     7
 43
1.0
 76
     1
 77
     6
 78
     2
 67
     7
 79
     5
170
     0
171
     0
290
     0
174
     0
 93
        1
 44
0.0
173
     0
291
     1
 45
0.0
1001
ACAD
1000
AcDbSavedByObjectVersion
1070
     0
  0
VISUALSTYLE
  5
1217
102
{ACAD_REACTORS
330
120B
102
}
330
120B
100
AcDbVisualStyle
  2
Brighten
 70
    12
 71
     2
 72
     2
 73
     0
 90
        0
 40
-0.6
 41
-30.0
 62
     5
 63
     7
421
 16777215
 74
     1
 91
        4
 64
     7
 65
   257
 75
     1
175
     1
 42
1.0
 92
        8
 66
     7
 43
1.0
 76
     1
 77
     6
 78
     2
 67
     7
 79
     5
170
     0
171
     0
290
     0
174
     0
 93
        1
 44
50.0
173
     0
291
     1
 45
0.0
1001
ACAD
1000
AcDbSavedByObjectVersion
1070
     0
  0
VISUALSTYLE
  5
121B
102
{ACAD_REACTORS
330
120B
102
}
330
120B
100
AcDbVisualStyle
  2
ColorChange
 70
    16
 71
     2
 72
     2
 73
     3
 90
        0
 40
-0.6
 41
-30.0
 62
     5
 63
     8
421
  8421504
 74
     1
 91
        4
 64
     7
 65
   257
 75
     1
175
     1
 42
1.0
 92
        8
 66
     8
424
  8421504
 43
1.0
 76
     1
 77
     6
 78
     2
 67
     7
 79
     5
170
     0
171
     0
290
     0
174
     0
 93
        1
 44
0.0
173
     0
291
     1
 45
0.0
1001
ACAD
1000
AcDbSavedByObjectVersion
1070
     0
  0
VISUALSTYLE
  5
1214
102
{ACAD_REACTORS
330
120B
102
}
330
120B
100
AcDbVisualStyle
  2
Conceptual
 70
     9
 71
     3
 72
     2
 73
     0
 90
        0
 40
-0.6
 41
-30.0
 62
     5
 63
     7
421
 16777215
 74
     2
 91
        2
 64
     7
 65
   257
 75
     1
175
     1
 42
40.0
 92
        8
 66
     7
 43
1.0
 76
     1
 77
     6
 78
     2
 67
     7
 79
     3
170
     0
171
     0
290
     0
174
     0
 93
        1
 44
0.0
173
     0
291
     0
 45
0.0
1001
ACAD
1000
AcDbSavedByObjectVersion
1070
     0
  0
VISUALSTYLE
  5
1216
102
{ACAD_REACTORS
330
120B
102
}
330
120B
100
AcDbVisualStyle
  2
Dim
 70
    11
 71
     2
 72
     2
 73
     0
 90
        0
 40
-0.6
 41
-30.0
 62
     5
 63
     7
421
 16777215
 74
     1
 91
        4
 64
     7
 65
   257
 75
     1
175
     1
 42
1.0
 92
        8
 66
     7
 43
1.0
 76
     1
 77
     6
 78
     2
 67
     7
 79
     5
170
     0
171
     0
290
     0
174
     0
 93
        1
 44
-50.0
173
     0
291
     1
 45
0.0
1001
ACAD
1000
AcDbSavedByObjectVersion
1070
     0
  0
VISUALSTYLE
  5
121A
102
{ACAD_REACTORS
330
120B
102
}
330
120B
100
AcDbVisualStyle
  2
Facepattern
 70
    15
 71
     2
 72
     2
 73
     0
 90
        0
 40
-0.6
 41
-30.0
 62
     5
 63
     7
421
 16777215
 74
     1
 91
        4
 64
     7
 65
   257
 75
     1
175
     1
 42
1.0
 92
        8
 66
     7
 43
1.0
 76
     1
 77
     6
 78
     2
 67
     7
 79
     5
170
     0
171
     0
290
     0
174
     0
 93
        1
 44
0.0
173
     0
291
     1
 45
0.0
1001
ACAD
1000
AcDbSavedByObjectVersion
1070
     0
  0
VISUALSTYLE
  5
120C
102
{ACAD_REACTORS
330
120B
102
}
330
120B
100
AcDbVisualStyle
  2
Flat
 70
     0
 71
     2
 72
     1
 73
     1
 90
        2
 40
-0.6
 41
30.0
 62
     5
 63
     7
421
 16777215
 74
     0
 91
        4
 64
     7
 65
   257
 75
     1
175
     1
 42
1.0
 92
        8
 66
     7
 43
1.0
 76
     1
 77
     6
 78
     2
 67
     7
 79
     5
170
     0
171
     0
290
     0
174
     0
 93
       13
 44
0.0
173
     0
291
     1
 45
0.0
1001
ACAD
1000
AcDbSavedByObjectVersion
1070
     0
  0
VISUALSTYLE
  5
120D
102
{ACAD_REACTORS
330
120B
102
}
330
120B
100
AcDbVisualStyle
  2
FlatWithEdges
 70
     1
 71
     2
 72
     1
 73
     1
 90
        2
 40
-0.6
 41
30.0
 62
     5
 63
     7
421
 16777215
 74
     1
 91
        4
 64
     7
 65
   257
 75
     1
175
     1
 42
1.0
 92
        0
 66
   257
 43
1.0
 76
     1
 77
     6
 78
     2
 67
     7
 79
     5
170
     0
171
     0
290
     0
174
     0
 93
       13
 44
0.0
173
     0
291
     1
 45
0.0
1001
ACAD
1000
AcDbSavedByObjectVersion
1070
     0
  0
VISUALSTYLE
  5
120E
102
{ACAD_REACTORS
330
120B
102
}
330
120B
100
AcDbVisualStyle
  2
Gouraud
 70
     2
 71
     2
 72
     2
 73
     1
 90
        2
 40
-0.6
 41
30.0
 62
     5
 63
     7
421
 16777215
 74
     0
 91
        4
 64
     7
 65
   257
 75
     1
175
     1
 42
1.0
 92
        0
 66
     7
 43
1.0
 76
     1
 77
     6
 78
     2
 67
     7
 79
     5
170
     0
171
     0
290
     0
174
     0
 93
       13
 44
0.0
173
     0
291
     1
 45
0.0
1001
ACAD
1000
AcDbSavedByObjectVersion
1070
     0
  0
VISUALSTYLE
  5
120F
102
{ACAD_REACTORS
330
120B
102
}
330
120B
100
AcDbVisualStyle
  2
GouraudWithEdges
 70
     3
 71
     2
 72
     2
 73
     1
 90
        2
 40
-0.6
 41
30.0
 62
     5
 63
     7
421
 16777215
 74
     1
 91
        4
 64
     7
 65
   257
 75
     1
175
     1
 42
1.0
 92
        0
 66
   257
 43
1.0
 76
     1
 77
     6
 78
     2
 67
     7
 79
     5
170
     0
171
     0
290
     0
174
     0
 93
       13
 44
0.0
173
     0
291
     1
 45
0.0
1001
ACAD
1000
AcDbSavedByObjectVersion
1070
     0
  0
VISUALSTYLE
  5
1219
102
{ACAD_REACTORS
330
120B
102
}
330
120B
100
AcDbVisualStyle
  2
Linepattern
 70
    14
 71
     2
 72
     2
 73
     0
 90
        0
 40
-0.6
 41
-30.0
 62
     5
 63
     7
421
 16777215
 74
     1
 91
        4
 64
     7
 65
   257
 75
     7
175
     7
 42
1.0
 92
        8
 66
     7
 43
1.0
 76
     1
 77
     6
 78
     2
 67
     7
 79
     5
170
     0
171
     0
290
     0
174
     0
 93
        1
 44
0.0
173
     0
291
     1
 45
0.0
1001
ACAD
1000
AcDbSavedByObjectVersion
1070
     0
  0
VISUALSTYLE
  5
1215
102
{ACAD_REACTORS
330
120B
102
}
330
120B
100
AcDbVisualStyle
  2
Realistic
 70
     8
 71
     2
 72
     2
 73
     0
 90
        0
 40
-0.6
 41
-30.0
 62
     5
 63
     7
421
 16777215
 74
     1
 91
        0
 64
     7
 65
   257
 75
     1
175
     1
 42
1.0
 92
        8
 66
     8
424
  7895160
 43
1.0
 76
     1
 77
     6
 78
     2
 67
     7
 79
     5
170
     0
171
     0
290
     0
174
     0
 93
       13
 44
0.0
173
     0
291
     0
 45
0.0
1001
ACAD
1000
AcDbSavedByObjectVersion
1070
     0
  0
VISUALSTYLE
  5
1218
102
{ACAD_REACTORS
330
120B
102
}
330
120B
100
AcDbVisualStyle
  2
Thicken
 70
    13
 71
     2
 72
     2
 73
     0
 90
        0
 40
-0.6
 41
-30.0
 62
     5
 63
     7
421
 16777215
 74
     1
 91
        4
 64
     7
 65
   257
 75
     1
175
     1
 42
1.0
 92
       12
 66
     7
 43
1.0
 76
     1
 77
     6
 78
     2
 67
     7
 79
     5
170
     0
171
     0
290
     0
174
     0
 93
        1
 44
0.0
173
     0
291
     1
 45
0.0
1001
ACAD
1000
AcDbSavedByObjectVersion
1070
     0
  0
DICTIONARYVAR
  5
12C0
102
{ACAD_REACTORS
330
10DD
102
}
330
10DD
100
DictionaryVariables
280
     0
  1
1:1
  0
DICTIONARYVAR
  5
12BE
102
{ACAD_REACTORS
330
10DD
102
}
330
10DD
100
DictionaryVariables
280
     0
  1
STANDARD
  0
DICTIONARYVAR
  5
12BD
102
{ACAD_REACTORS
330
10DD
102
}
330
10DD
100
DictionaryVariables
280
     0
  1
STANDARD
  0
DICTIONARYVAR
  5
10E0
102
{ACAD_REACTORS
330
10DD
102
}
330
10DD
100
DictionaryVariables
280
     0
  1
1
  0
DICTIONARYVAR
  5
10DF
102
{ACAD_REACTORS
330
10DD
102
}
330
10DD
100
DictionaryVariables
280
     0
  1
1
  0
DICTIONARYVAR
  5
1772
102
{ACAD_REACTORS
330
10DD
102
}
330
10DD
100
DictionaryVariables
280
     0
  1
0
  0
DICTIONARYVAR
  5
12C2
102
{ACAD_REACTORS
330
10DD
102
}
330
10DD
100
DictionaryVariables
280
     0
  1
15
  0
DICTIONARYVAR
  5
12C1
102
{ACAD_REACTORS
330
10DD
102
}
330
10DD
100
DictionaryVariables
280
     0
  1
0
  0
DICTIONARYVAR
  5
12BF
102
{ACAD_REACTORS
330
10DD
102
}
330
10DD
100
DictionaryVariables
280
     0
  1
0
  0
DICTIONARYVAR
  5
10DE
102
{ACAD_REACTORS
330
10DD
102
}
330
10DD
100
DictionaryVariables
280
     0
  1
1
  0
XRECORD
  5
1753
102
{ACAD_REACTORS
330
1750
102
}
330
1750
100
AcDbXrecord
280
     1
  1
_0100-
  1
*0100-*
  1
*
  1
*
 70
     0
  1
*
  1
*
  0
XRECORD
  5
1752
102
{ACAD_REACTORS
330
1750
102
}
330
1750
100
AcDbXrecord
280
     1
  1
_0280-
  1
*0280-*
  1
*
  1
*
 70
     0
  1
*
  1
*
  0
XRECORD
  5
1756
102
{ACAD_REACTORS
330
1750
102
}
330
1750
100
AcDbXrecord
280
     1
  1
_Color 253
  1
*
  1
253
  1
*
 70
     0
  1
*
  1
*
  0
XRECORD
  5
1754
102
{ACAD_REACTORS
330
1750
102
}
330
1750
100
AcDbXrecord
280
     1
  1
_Color 8
  1
*
  1
8
  1
*
 70
     0
  1
*
  1
*
  0
XRECORD
  5
1755
102
{ACAD_REACTORS
330
1750
102
}
330
1750
100
AcDbXrecord
280
     1
  1
_Color 84
  1
*
  1
84
  1
*
 70
     0
  1
*
  1
*
  0
XRECORD
  5
175B
102
{ACAD_REACTORS
330
1750
102
}
330
1750
100
AcDbXrecord
280
     1
  1
_Contours
  1
*contour*,*cont-*,*cp cont*,*p-cont*
  1
*
  1
*
 70
     0
  1
*
  1
*
  0
XRECORD
  5
1757
102
{ACAD_REACTORS
330
1750
102
}
330
1750
100
AcDbXrecord
280
     1
  1
_Existing
  1
*exist*
  1
*
  1
*
 70
     0
  1
*
  1
*
  0
XRECORD
  5
175A
102
{ACAD_REACTORS
330
1750
102
}
330
1750
100
AcDbXrecord
280
     1
  1
_Hardscape
  1
*sidewalk*,*sw*,*curb*,*walk*,*-lip*,*tbc*
  1
*
  1
*
 70
     0
  1
*
  1
*
  0
XRECORD
  5
1751
102
{ACAD_REACTORS
330
1750
102
}
330
1750
100
AcDbXrecord
280
     1
  1
_NoXref
  1
~*|*
  1
*
  1
*
 70
     0
  1
*
  1
*
  0
XRECORD
  5
1758
102
{ACAD_REACTORS
330
1750
102
}
330
1750
100
AcDbXrecord
280
     1
  1
_Row
  1
*row*
  1
*
  1
*
 70
     0
  1
*
  1
*
  0
XRECORD
  5
1759
102
{ACAD_REACTORS
330
1750
102
}
330
1750
100
AcDbXrecord
280
     1
  1
_Utility
  1
*ut-*,*utility*,*wat*
  1
*
  1
*
 70
     0
  1
*
  1
*
  0
DICTIONARY
  5
11FC
330
11FB
100
AcDbDictionary
280
     1
281
     1
  3
ACAD_XREC_ROUNDTRIP
360
1782
  3
BUMPTILE
360
11FE
  3
DIFFUSETILE
360
11FD
  3
OPACITYTILE
360
1201
  3
REFLECTIONTILE
360
1200
  3
REFRACTIONTILE
360
1202
  3
SPECULARTILE
360
11FF
  0
DICTIONARY
  5
11F4
330
11F3
100
AcDbDictionary
280
     1
281
     1
  3
ACAD_XREC_ROUNDTRIP
360
1781
  3
BUMPTILE
360
11F6
  3
DIFFUSETILE
360
11F5
  3
OPACITYTILE
360
11F9
  3
REFLECTIONTILE
360
11F8
  3
REFRACTIONTILE
360
11FA
  3
SPECULARTILE
360
11F7
  0
DICTIONARY
  5
1204
330
1203
100
AcDbDictionary
280
     1
281
     1
  3
ACAD_XREC_ROUNDTRIP
360
1783
  3
BUMPTILE
360
1206
  3
DIFFUSETILE
360
1205
  3
OPACITYTILE
360
1209
  3
REFLECTIONTILE
360
1208
  3
REFRACTIONTILE
360
120A
  3
SPECULARTILE
360
1207
  0
DICTIONARY
  5
12BA
330
121E
100
AcDbDictionary
280
     1
281
     1
  3
ACAD_ROUNDTRIP_2008_TABLESTYLE_CELLSTYLEMAP
360
177C
  3
ACAD_XREC_ROUNDTRIP
360
1784
  0
XRECORD
  5
1782
102
{ACAD_REACTORS
330
11FC
102
}
330
11FC
100
AcDbXrecord
280
     1
102
MATERIAL
148
0.0
149
0.0
149
0.0
 93
        0
 94
      127
282
     0
 72
     0
 77
     0
171
     0
175
     0
179
     0
273
     0
  0
XRECORD
  5
11FE
102
{ACAD_REACTORS
330
11FC
102
}
330
11FC
100
AcDbXrecord
280
     1
270
     1
271
     1
  0
XRECORD
  5
11FD
102
{ACAD_REACTORS
330
11FC
102
}
330
11FC
100
AcDbXrecord
280
     1
270
     1
271
     1
  0
XRECORD
  5
1201
102
{ACAD_REACTORS
330
11FC
102
}
330
11FC
100
AcDbXrecord
280
     1
270
     1
271
     1
  0
XRECORD
  5
1200
102
{ACAD_REACTORS
330
11FC
102
}
330
11FC
100
AcDbXrecord
280
     1
270
     1
271
     1
  0
XRECORD
  5
1202
102
{ACAD_REACTORS
330
11FC
102
}
330
11FC
100
AcDbXrecord
280
     1
270
     1
271
     1
  0
XRECORD
  5
11FF
102
{ACAD_REACTORS
330
11FC
102
}
330
11FC
100
AcDbXrecord
280
     1
270
     1
271
     1
  0
XRECORD
  5
1781
102
{ACAD_REACTORS
330
11F4
102
}
330
11F4
100
AcDbXrecord
280
     1
102
MATERIAL
148
0.0
149
0.0
149
0.0
 93
        0
 94
      127
282
     0
 72
     0
 77
     0
171
     0
175
     0
179
     0
273
     0
  0
XRECORD
  5
11F6
102
{ACAD_REACTORS
330
11F4
102
}
330
11F4
100
AcDbXrecord
280
     1
270
     1
271
     1
  0
XRECORD
  5
11F5
102
{ACAD_REACTORS
330
11F4
102
}
330
11F4
100
AcDbXrecord
280
     1
270
     1
271
     1
  0
XRECORD
  5
11F9
102
{ACAD_REACTORS
330
11F4
102
}
330
11F4
100
AcDbXrecord
280
     1
270
     1
271
     1
  0
XRECORD
  5
11F8
102
{ACAD_REACTORS
330
11F4
102
}
330
11F4
100
AcDbXrecord
280
     1
270
     1
271
     1
  0
XRECORD
  5
11FA
102
{ACAD_REACTORS
330
11F4
102
}
330
11F4
100
AcDbXrecord
280
     1
270
     1
271
     1
  0
XRECORD
  5
11F7
102
{ACAD_REACTORS
330
11F4
102
}
330
11F4
100
AcDbXrecord
280
     1
270
     1
271
     1
  0
XRECORD
  5
1783
102
{ACAD_REACTORS
330
1204
102
}
330
1204
100
AcDbXrecord
280
     1
102
MATERIAL
148
0.0
149
0.0
149
0.0
 93
        0
 94
      127
282
     0
 72
     0
 77
     0
171
     0
175
     0
179
     0
273
     0
  0
XRECORD
  5
1206
102
{ACAD_REACTORS
330
1204
102
}
330
1204
100
AcDbXrecord
280
     1
270
     1
271
     1
  0
XRECORD
  5
1205
102
{ACAD_REACTORS
330
1204
102
}
330
1204
100
AcDbXrecord
280
     1
270
     1
271
     1
  0
XRECORD
  5
1209
102
{ACAD_REACTORS
330
1204
102
}
330
1204
100
AcDbXrecord
280
     1
270
     1
271
     1
  0
XRECORD
  5
1208
102
{ACAD_REACTORS
330
1204
102
}
330
1204
100
AcDbXrecord
280
     1
270
     1
271
     1
  0
XRECORD
  5
120A
102
{ACAD_REACTORS
330
1204
102
}
330
1204
100
AcDbXrecord
280
     1
270
     1
271
     1
  0
XRECORD
  5
1207
102
{ACAD_REACTORS
330
1204
102
}
330
1204
100
AcDbXrecord
280
     1
270
     1
271
     1
  0
CELLSTYLEMAP
  5
177C
102
{ACAD_REACTORS
330
12BA
102
}
330
12BA
100
AcDbCellStyleMap
 90
        3
300
CELLSTYLE
  1
TABLEFORMAT_BEGIN
 90
        5
170
     1
 91
        0
 92
    32768
 62
   257
 93
        1
300
CONTENTFORMAT
  1
CONTENTFORMAT_BEGIN
 90
        0
 91
        0
 92
      512
 93
        0
300

 40
0.0
140
1.0
 94
        5
 62
     0
340
10B4
144
0.25
309
CONTENTFORMAT_END
171
     0
 94
        0
309
TABLEFORMAT_END
  1
CELLSTYLE_BEGIN
 90
        1
 91
        1
300
_TITLE
309
CELLSTYLE_END
300
CELLSTYLE
  1
TABLEFORMAT_BEGIN
 90
        5
170
     1
 91
        0
 92
        0
 62
   257
 93
        1
300
CONTENTFORMAT
  1
CONTENTFORMAT_BEGIN
 90
        0
 91
        0
 92
      512
 93
        0
300

 40
0.0
140
1.0
 94
        5
 62
     0
340
10B4
144
0.18
309
CONTENTFORMAT_END
171
     0
 94
        0
309
TABLEFORMAT_END
  1
CELLSTYLE_BEGIN
 90
        2
 91
        1
300
_HEADER
309
CELLSTYLE_END
300
CELLSTYLE
  1
TABLEFORMAT_BEGIN
 90
        5
170
     1
 91
        0
 92
        0
 62
   257
 93
        1
300
CONTENTFORMAT
  1
CONTENTFORMAT_BEGIN
 90
        0
 91
        0
 92
      512
 93
        0
300

 40
0.0
140
1.0
 94
        2
 62
     0
340
10B4
144
0.18
309
CONTENTFORMAT_END
171
     0
 94
        0
309
TABLEFORMAT_END
  1
CELLSTYLE_BEGIN
 90
        3
 91
        2
300
_DATA
309
CELLSTYLE_END
  0
XRECORD
  5
1784
102
{ACAD_REACTORS
330
12BA
102
}
330
12BA
100
AcDbXrecord
280
     1
102
ACAD_ROUNDTRIP_PRE2007_TABLESTYLE
 90
      512
 91
        0
  1

 92
      512
 93
        0
  2

 94
      512
 95
        0
  3

  0
ENDSEC
  0
EOF
