  0
SECTION
  2
HEADER
  9
$ACADVER
  1
AC1018
  9
$ACADMAINTVER
 70
   104
  9
$DWGCODEPAGE
  3
ANSI_1252
  9
$LASTSAVEDBY
  1
dweyer
  9
$INSBASE
 10
0.0
 20
0.0
 30
0.0
  9
$EXTMIN
 10
-0.4984554492313005
 20
-1.274218755967127
 30
0.0
  9
$EXTMAX
 10
9.836131975556137
 20
9.165781244032872
 30
0.03
  9
$LIMMIN
 10
0.0
 20
0.0
  9
$LIMMAX
 10
12.0
 20
9.0
  9
$ORTHOMODE
 70
     1
  9
$REGENMODE
 70
     1
  9
$FILLMODE
 70
     1
  9
$QTEXTMODE
 70
     0
  9
$MIRRTEXT
 70
     0
  9
$LTSCALE
 40
1.0
  9
$ATTMODE
 70
     1
  9
$TEXTSIZE
 40
0.125
  9
$TRACEWID
 40
0.05
  9
$TEXTSTYLE
  7
ROMANS
  9
$CLAYER
  8
0
  9
$CELTYPE
  6
ByLayer
  9
$CECOLOR
 62
   256
  9
$CELTSCALE
 40
1.0
  9
$DISPSILH
 70
     0
  9
$DIMSCALE
 40
1.0
  9
$DIMASZ
 40
0.18
  9
$DIMEXO
 40
0.0625
  9
$DIMDLI
 40
0.38
  9
$DIMRND
 40
0.0
  9
$DIMDLE
 40
0.0
  9
$DIMEXE
 40
0.125
  9
$DIMTP
 40
0.0
  9
$DIMTM
 40
0.0
  9
$DIMTXT
 40
0.125
  9
$DIMCEN
 40
0.09
  9
$DIMTSZ
 40
0.0
  9
$DIMTOL
 70
     0
  9
$DIMLIM
 70
     0
  9
$DIMTIH
 70
     1
  9
$DIMTOH
 70
     1
  9
$DIMSE1
 70
     0
  9
$DIMSE2
 70
     0
  9
$DIMTAD
 70
     0
  9
$DIMZIN
 70
     0
  9
$DIMBLK
  1

  9
$DIMASO
 70
     1
  9
$DIMSHO
 70
     1
  9
$DIMPOST
  1

  9
$DIMAPOST
  1

  9
$DIMALT
 70
     0
  9
$DIMALTD
 70
     2
  9
$DIMALTF
 40
25.4
  9
$DIMLFAC
 40
1.0
  9
$DIMTOFL
 70
     0
  9
$DIMTVP
 40
0.0
  9
$DIMTIX
 70
     0
  9
$DIMSOXD
 70
     0
  9
$DIMSAH
 70
     0
  9
$DIMBLK1
  1

  9
$DIMBLK2
  1

  9
$DIMSTYLE
  2
STANDARD
  9
$DIMCLRD
 70
   256
  9
$DIMCLRE
 70
   256
  9
$DIMCLRT
 70
   256
  9
$DIMTFAC
 40
1.0
  9
$DIMGAP
 40
0.09
  9
$DIMJUST
 70
     0
  9
$DIMSD1
 70
     0
  9
$DIMSD2
 70
     0
  9
$DIMTOLJ
 70
     1
  9
$DIMTZIN
 70
     0
  9
$DIMALTZ
 70
     0
  9
$DIMALTTZ
 70
     0
  9
$DIMUPT
 70
     0
  9
$DIMDEC
 70
     4
  9
$DIMTDEC
 70
     4
  9
$DIMALTU
 70
     2
  9
$DIMALTTD
 70
     2
  9
$DIMTXSTY
  7
Arial
  9
$DIMAUNIT
 70
     0
  9
$DIMADEC
 70
     0
  9
$DIMALTRND
 40
0.0
  9
$DIMAZIN
 70
     0
  9
$DIMDSEP
 70
    46
  9
$DIMATFIT
 70
     3
  9
$DIMFRAC
 70
     0
  9
$DIMLDRBLK
  1

  9
$DIMLUNIT
 70
     2
  9
$DIMLWD
 70
    -1
  9
$DIMLWE
 70
    -1
  9
$DIMTMOVE
 70
     2
  9
$LUNITS
 70
     2
  9
$LUPREC
 70
     3
  9
$SKETCHINC
 40
0.1
  9
$FILLETRAD
 40
0.0
  9
$AUNITS
 70
     0
  9
$AUPREC
 70
     0
  9
$MENU
  1
ACAD
  9
$ELEVATION
 40
0.0
  9
$PELEVATION
 40
0.0
  9
$THICKNESS
 40
0.0
  9
$LIMCHECK
 70
     0
  9
$CHAMFERA
 40
0.0
  9
$CHAMFERB
 40
0.0
  9
$CHAMFERC
 40
0.0
  9
$CHAMFERD
 40
0.0
  9
$SKPOLY
 70
     0
  9
$TDCREATE
 40
2451605.558833901
  9
$TDUCREATE
 40
2451605.850500568
  9
$TDUPDATE
 40
2455218.442432396
  9
$TDUUPDATE
 40
2455218.734099063
  9
$TDINDWG
 40
0.2383975116
  9
$TDUSRTIMER
 40
0.2383975116
  9
$USRTIMER
 70
     1
  9
$ANGBASE
 50
0.0
  9
$ANGDIR
 70
     0
  9
$PDMODE
 70
     0
  9
$PDSIZE
 40
0.0
  9
$PLINEWID
 40
0.0
  9
$SPLFRAME
 70
     0
  9
$SPLINETYPE
 70
     6
  9
$SPLINESEGS
 70
     8
  9
$HANDSEED
  5
1F99
  9
$SURFTAB1
 70
     6
  9
$SURFTAB2
 70
     6
  9
$SURFTYPE
 70
     6
  9
$SURFU
 70
     6
  9
$SURFV
 70
     6
  9
$UCSBASE
  2

  9
$UCSNAME
  2

  9
$UCSORG
 10
0.0
 20
0.0
 30
0.0
  9
$UCSXDIR
 10
1.0
 20
0.0
 30
0.0
  9
$UCSYDIR
 10
0.0
 20
1.0
 30
0.0
  9
$UCSORTHOREF
  2

  9
$UCSORTHOVIEW
 70
     0
  9
$UCSORGTOP
 10
0.0
 20
0.0
 30
0.0
  9
$UCSORGBOTTOM
 10
0.0
 20
0.0
 30
0.0
  9
$UCSORGLEFT
 10
0.0
 20
0.0
 30
0.0
  9
$UCSORGRIGHT
 10
0.0
 20
0.0
 30
0.0
  9
$UCSORGFRONT
 10
0.0
 20
0.0
 30
0.0
  9
$UCSORGBACK
 10
0.0
 20
0.0
 30
0.0
  9
$PUCSBASE
  2

  9
$PUCSNAME
  2

  9
$PUCSORG
 10
0.0
 20
0.0
 30
0.0
  9
$PUCSXDIR
 10
1.0
 20
0.0
 30
0.0
  9
$PUCSYDIR
 10
0.0
 20
1.0
 30
0.0
  9
$PUCSORTHOREF
  2

  9
$PUCSORTHOVIEW
 70
     0
  9
$PUCSORGTOP
 10
0.0
 20
0.0
 30
0.0
  9
$PUCSORGBOTTOM
 10
0.0
 20
0.0
 30
0.0
  9
$PUCSORGLEFT
 10
0.0
 20
0.0
 30
0.0
  9
$PUCSORGRIGHT
 10
0.0
 20
0.0
 30
0.0
  9
$PUCSORGFRONT
 10
0.0
 20
0.0
 30
0.0
  9
$PUCSORGBACK
 10
0.0
 20
0.0
 30
0.0
  9
$USERI1
 70
     0
  9
$USERI2
 70
     0
  9
$USERI3
 70
     0
  9
$USERI4
 70
     0
  9
$USERI5
 70
     0
  9
$USERR1
 40
0.0
  9
$USERR2
 40
0.0
  9
$USERR3
 40
0.0
  9
$USERR4
 40
0.0
  9
$USERR5
 40
0.0
  9
$WORLDVIEW
 70
     1
  9
$SHADEDGE
 70
     3
  9
$SHADEDIF
 70
    70
  9
$TILEMODE
 70
     1
  9
$MAXACTVP
 70
    16
  9
$PINSBASE
 10
0.0
 20
0.0
 30
0.0
  9
$PLIMCHECK
 70
     0
  9
$PEXTMIN
 10
1.000000000000000E+20
 20
1.000000000000000E+20
 30
1.000000000000000E+20
  9
$PEXTMAX
 10
-1.000000000000000E+20
 20
-1.000000000000000E+20
 30
-1.000000000000000E+20
  9
$PLIMMIN
 10
0.0
 20
0.0
  9
$PLIMMAX
 10
12.0
 20
9.0
  9
$UNITMODE
 70
     0
  9
$VISRETAIN
 70
     0
  9
$PLINEGEN
 70
     1
  9
$PSLTSCALE
 70
     1
  9
$TREEDEPTH
 70
  3020
  9
$CMLSTYLE
  2
Standard
  9
$CMLJUST
 70
     0
  9
$CMLSCALE
 40
1.0
  9
$PROXYGRAPHICS
 70
     1
  9
$MEASUREMENT
 70
     0
  9
$CELWEIGHT
370
    -1
  9
$ENDCAPS
280
     0
  9
$JOINSTYLE
280
     0
  9
$LWDISPLAY
290
     0
  9
$INSUNITS
 70
     0
  9
$HYPERLINKBASE
  1

  9
$STYLESHEET
  1
pdf bw shaded.ctb
  9
$XEDIT
290
     1
  9
$CEPSNTYPE
380
     0
  9
$PSTYLEMODE
290
     1
  9
$FINGERPRINTGUID
  2
{809E942E-D3FA-4AF4-BE5E-39ACFC237699}
  9
$VERSIONGUID
  2
{AEFD1C27-D9A5-4A8D-A9BB-2BCC8B7257C6}
  9
$EXTNAMES
290
     1
  9
$PSVPSCALE
 40
0.0
  9
$OLESTARTUP
290
     1
  9
$SORTENTS
280
    48
  9
$INDEXCTL
280
     0
  9
$HIDETEXT
280
     1
  9
$XCLIPFRAME
290
     0
  9
$HALOGAP
280
     0
  9
$OBSCOLOR
 70
   257
  9
$OBSLTYPE
280
     0
  9
$INTERSECTIONDISPLAY
280
     0
  9
$INTERSECTIONCOLOR
 70
   257
  9
$DIMASSOC
280
     1
  9
$PROJECTNAME
  1

  0
ENDSEC
  0
SECTION
  2
CLASSES
  0
CLASS
  1
ACDBDICTIONARYWDFLT
  2
AcDbDictionaryWithDefault
  3
ObjectDBX Classes
 90
        0
 91
        1
280
     0
281
     0
  0
CLASS
  1
DICTIONARYVAR
  2
AcDbDictionaryVar
  3
ObjectDBX Classes
 90
        0
 91
       11
280
     0
281
     0
  0
CLASS
  1
MATERIAL
  2
AcDbMaterial
  3
ObjectDBX Classes
 90
     1153
 91
        3
280
     0
281
     0
  0
CLASS
  1
VISUALSTYLE
  2
AcDbVisualStyle
  3
ObjectDBX Classes
 90
     4095
 91
       16
280
     0
281
     0
  0
CLASS
  1
TABLESTYLE
  2
AcDbTableStyle
  3
ObjectDBX Classes
 90
     4095
 91
        1
280
     0
281
     0
  0
CLASS
  1
SCALE
  2
AcDbScale
  3
ObjectDBX Classes
 90
     1153
 91
       33
280
     0
281
     0
  0
CLASS
  1
MLEADERSTYLE
  2
AcDbMLeaderStyle
  3
ACDB_MLEADERSTYLE_CLASS
 90
     4095
 91
        1
280
     0
281
     0
  0
CLASS
  1
EXACXREFPANELOBJECT
  2
ExAcXREFPanelObject
  3
EXAC_ESW
 90
     1025
 91
        0
280
     0
281
     0
  0
CLASS
  1
NPOCOLLECTION
  2
AcDbImpNonPersistentObjectsCollection
  3
ObjectDBX Classes
 90
     1153
 91
        0
280
     0
281
     0
  0
CLASS
  1
PLOTSETTINGS
  2
AcDbPlotSettings
  3
ObjectDBX Classes
 90
        0
 91
       76
280
     0
281
     0
  0
CLASS
  1
LAYER_INDEX
  2
AcDbLayerIndex
  3
ObjectDBX Classes
 90
        0
 91
        0
280
     0
281
     0
  0
CLASS
  1
SPATIAL_INDEX
  2
AcDbSpatialIndex
  3
ObjectDBX Classes
 90
        0
 91
        0
280
     0
281
     0
  0
CLASS
  1
IDBUFFER
  2
AcDbIdBuffer
  3
ObjectDBX Classes
 90
        0
 91
        0
280
     0
281
     0
  0
CLASS
  1
CELLSTYLEMAP
  2
AcDbCellStyleMap
  3
ObjectDBX Classes
 90
     1152
 91
        6
280
     0
281
     0
  0
CLASS
  1
AEC_REFEDIT_STATUS_TRACKER
  2
AecDbRefEditStatusTracker
  3
AecArchBase50|Product Desc: Autodesk Architectural Desktop 2007 |Company: Autodesk,Inc. |WEB Address: www.autodesk.com
 90
      129
 91
        0
280
     0
281
     0
  0
CLASS
  1
SORTENTSTABLE
  2
AcDbSortentsTable
  3
ObjectDBX Classes
 90
        0
 91
        2
280
     0
281
     0
  0
ENDSEC
  0
SECTION
  2
TABLES
  0
TABLE
  2
VPORT
  5
10AB
330
0
100
AcDbSymbolTable
 70
     1
  0
VPORT
  5
11F0
330
10AB
100
AcDbSymbolTableRecord
100
AcDbViewportTableRecord
  2
*Active
 70
     0
 10
0.0
 20
0.0
 11
1.0
 21
1.0
 12
4.668838263162419
 22
3.945781244032871
 13
0.0
 23
0.0
 14
0.14
 24
0.14
 15
0.14
 25
0.14
 16
0.0
 26
0.0
 36
1.0
 17
0.0
 27
0.0
 37
0.0
 40
10.53266272189349
 41
2.308148148148148
 42
50.0
 43
0.0
 44
0.0
 50
0.0
 51
0.0
 71
     0
 72
  4000
 73
     1
 74
     1
 75
     0
 76
     0
 77
     0
 78
     0
281
     0
 65
     1
110
0.0
120
0.0
130
0.0
111
1.0
121
0.0
131
0.0
112
0.0
122
1.0
132
0.0
 79
     0
146
0.0
  0
ENDTAB
  0
TABLE
  2
LTYPE
  5
10A8
330
0
100
AcDbSymbolTable
 70
     1
  0
LTYPE
  5
10B6
330
10A8
100
AcDbSymbolTableRecord
100
AcDbLinetypeTableRecord
  2
ByBlock
 70
     0
  3

 72
    65
 73
     0
 40
0.0
  0
LTYPE
  5
10B7
330
10A8
100
AcDbSymbolTableRecord
100
AcDbLinetypeTableRecord
  2
ByLayer
 70
     0
  3

 72
    65
 73
     0
 40
0.0
  0
LTYPE
  5
10B8
330
10A8
100
AcDbSymbolTableRecord
100
AcDbLinetypeTableRecord
  2
CONTINUOUS
 70
     0
  3
Solid line
 72
    65
 73
     0
 40
0.0
  0
ENDTAB
  0
TABLE
  2
LAYER
  5
10A5
102
{ACAD_XDICTIONARY
360
10EB
102
}
330
0
100
AcDbSymbolTable
 70
     4
  0
LAYER
  5
10B3
330
10A5
100
AcDbSymbolTableRecord
100
AcDbLayerTableRecord
  2
0
 70
     0
 62
     7
  6
CONTINUOUS
370
    -3
390
10B2
  0
LAYER
  5
10CC
330
10A5
100
AcDbSymbolTableRecord
100
AcDbLayerTableRecord
  2
text_bubbles
 70
     0
 62
     6
  6
CONTINUOUS
370
    -3
390
10B2
  0
LAYER
  5
10CD
330
10A5
100
AcDbSymbolTableRecord
100
AcDbLayerTableRecord
  2
image
 70
     0
 62
     7
  6
CONTINUOUS
370
    -3
390
10B2
  0
LAYER
  5
118F
330
10A5
100
AcDbSymbolTableRecord
100
AcDbLayerTableRecord
  2
title
 70
     0
 62
     4
  6
CONTINUOUS
370
    -3
390
10B2
  0
ENDTAB
  0
TABLE
  2
STYLE
  5
10A6
330
0
100
AcDbSymbolTable
 70
     7
  0
STYLE
  5
10B4
330
10A6
100
AcDbSymbolTableRecord
100
AcDbTextStyleTableRecord
  2
STANDARD
 70
     0
 40
0.0
 41
1.0
 50
0.0
 71
     0
 42
0.2
  3
txt
  4

  0
STYLE
  5
10C7
330
10A6
100
AcDbSymbolTableRecord
100
AcDbTextStyleTableRecord
  2
ROMANS
 70
     0
 40
0.0
 41
1.0
 50
0.0
 71
     0
 42
0.125
  3
ROMANS.SHX
  4

  0
STYLE
  5
10C8
330
10A6
100
AcDbSymbolTableRecord
100
AcDbTextStyleTableRecord
  2
SIMPLEX
 70
     0
 40
0.0
 41
1.0
 50
0.0
 71
     0
 42
0.125
  3
SIMPLEX
  4

  0
STYLE
  5
1190
330
10A6
100
AcDbSymbolTableRecord
100
AcDbTextStyleTableRecord
  2
L100
 70
     0
 40
0.1
 41
1.0
 50
0.0
 71
     0
 42
0.1
  3
romans.shx
  4

  0
STYLE
  5
1191
330
10A6
100
AcDbSymbolTableRecord
100
AcDbTextStyleTableRecord
  2
L200
 70
     0
 40
0.2
 41
1.0
 50
0.0
 71
     0
 42
0.081
  3
ARIAL.TTF
  4

1001
ACAD
1000
Arial
1071
       34
  0
STYLE
  5
1192
330
10A6
100
AcDbSymbolTableRecord
100
AcDbTextStyleTableRecord
  2
L80
 70
     0
 40
0.08
 41
1.0
 50
0.0
 71
     0
 42
0.08
  3
ROMANS
  4

  0
STYLE
  5
1345
330
10A6
100
AcDbSymbolTableRecord
100
AcDbTextStyleTableRecord
  2
Arial
 70
     0
 40
0.0
 41
1.0
 50
0.0
 71
     0
 42
0.125
  3
ARIAL.TTF
  4

1001
ACAD
1000
Arial
1071
       34
  0
ENDTAB
  0
TABLE
  2
VIEW
  5
10A9
330
0
100
AcDbSymbolTable
 70
     0
  0
ENDTAB
  0
TABLE
  2
UCS
  5
10AA
330
0
100
AcDbSymbolTable
 70
     0
  0
ENDTAB
  0
TABLE
  2
APPID
  5
10AC
330
0
100
AcDbSymbolTable
 70
    14
  0
APPID
  5
10B5
330
10AC
100
AcDbSymbolTableRecord
100
AcDbRegAppTableRecord
  2
ACAD
 70
     0
  0
APPID
  5
10CA
330
10AC
100
AcDbSymbolTableRecord
100
AcDbRegAppTableRecord
  2
ABNSLEADERTOOLS
 70
     0
  0
APPID
  5
1193
330
10AC
100
AcDbSymbolTableRecord
100
AcDbRegAppTableRecord
  2
RAK
 70
     0
  0
APPID
  5
1194
330
10AC
100
AcDbSymbolTableRecord
100
AcDbRegAppTableRecord
  2
DCO15
 70
     0
  0
APPID
  5
1243
330
10AC
100
AcDbSymbolTableRecord
100
AcDbRegAppTableRecord
  2
ACAD_MLEADERVER
 70
     0
  0
APPID
  5
1257
330
10AC
100
AcDbSymbolTableRecord
100
AcDbRegAppTableRecord
  2
ACAD_PSEXT
 70
     0
  0
APPID
  5
12D8
330
10AC
100
AcDbSymbolTableRecord
100
AcDbRegAppTableRecord
  2
ACAD_EXEMPT_FROM_CAD_STANDARDS
 70
     0
  0
APPID
  5
1346
330
10AC
100
AcDbSymbolTableRecord
100
AcDbRegAppTableRecord
  2
BBSI_PltSel
 70
     0
  0
APPID
  5
1347
330
10AC
100
AcDbSymbolTableRecord
100
AcDbRegAppTableRecord
  2
BBSI_Plots
 70
     0
  0
APPID
  5
1348
330
10AC
100
AcDbSymbolTableRecord
100
AcDbRegAppTableRecord
  2
BBSI_Bookmarks
 70
     0
  0
APPID
  5
1349
330
10AC
100
AcDbSymbolTableRecord
100
AcDbRegAppTableRecord
  2
BBSI_BookmarksEx
 70
     0
  0
APPID
  5
135A
330
10AC
100
AcDbSymbolTableRecord
100
AcDbRegAppTableRecord
  2
BBSI_StampsEx
 70
     0
  0
APPID
  5
135B
330
10AC
100
AcDbSymbolTableRecord
100
AcDbRegAppTableRecord
  2
BBSI_Attachs
 70
     0
  0
APPID
  5
135C
330
10AC
100
AcDbSymbolTableRecord
100
AcDbRegAppTableRecord
  2
BBSI_DigSigs
 70
     0
  0
ENDTAB
  0
TABLE
  2
DIMSTYLE
  5
10AD
330
0
100
AcDbSymbolTable
 70
     1
100
AcDbDimStyleTable
 71
     1
340
10CB
  0
DIMSTYLE
105
10CB
330
10AD
100
AcDbSymbolTableRecord
100
AcDbDimStyleTableRecord
  2
STANDARD
 70
     0
279
     2
340
10B4
  0
ENDTAB
  0
TABLE
  2
BLOCK_RECORD
  5
10A4
330
0
100
AcDbSymbolTable
 70
     2
  0
BLOCK_RECORD
  5
10C1
102
{ACAD_XDICTIONARY
360
12AB
102
}
330
10A4
100
AcDbSymbolTableRecord
100
AcDbBlockTableRecord
  2
*Model_Space
340
10C4
  0
BLOCK_RECORD
  5
10BD
330
10A4
100
AcDbSymbolTableRecord
100
AcDbBlockTableRecord
  2
*Paper_Space
340
10C0
  0
BLOCK_RECORD
  5
1195
102
{ACAD_XDICTIONARY
360
1316
102
}
330
10A4
100
AcDbSymbolTableRecord
100
AcDbBlockTableRecord
  2
titleblock
340
0
102
{BLKREFS
331
11A4
102
}
  0
BLOCK_RECORD
  5
153C
330
10A4
100
AcDbSymbolTableRecord
100
AcDbBlockTableRecord
  2
*U1
340
0
102
{BLKREFS
331
1941
102
}
  0
ENDTAB
  0
ENDSEC
  0
SECTION
  2
BLOCKS
  0
BLOCK
  5
10D6
330
10C1
100
AcDbEntity
  8
0
100
AcDbBlockBegin
  2
*Model_Space
 70
     0
 10
0.0
 20
0.0
 30
0.0
  3
*Model_Space
  1

  0
ENDBLK
  5
10D7
330
10C1
100
AcDbEntity
  8
0
100
AcDbBlockEnd
  0
BLOCK
  5
10D4
330
10BD
100
AcDbEntity
 67
     1
  8
0
100
AcDbBlockBegin
  2
*Paper_Space
 70
     0
 10
0.0
 20
0.0
 30
0.0
  3
*Paper_Space
  1

  0
ENDBLK
  5
10D5
330
10BD
100
AcDbEntity
 67
     1
  8
0
100
AcDbBlockEnd
  0
BLOCK
  5
11A1
330
1195
100
AcDbEntity
  8
0
100
AcDbBlockBegin
  2
titleblock
 70
     2
 10
0.0
 20
0.0
 30
0.0
  3
titleblock
  1

  0
LWPOLYLINE
  5
1196
330
1195
100
AcDbEntity
  8
0
100
AcDbPolyline
 90
        4
 70
     1
 43
0.0
 10
0.0
 20
0.0
 10
10.33458742478744
 20
0.0000000000000002
 10
10.33458742478744
 20
10.44
 10
0.0
 20
10.44
  0
ATTDEF
  5
1197
330
1195
100
AcDbEntity
  8
title
100
AcDbText
 10
0.5055556038023421
 20
0.7842270964783673
 30
0.0
 40
0.2
  1
D
  7
L200
 72
     4
 11
0.6064423705144839
 21
0.8842270964783672
 31
0.0
100
AcDbAttributeDefinition
  3
#
  2
D
 70
     0
  0
ATTDEF
  5
1198
330
1195
100
AcDbEntity
  8
title
100
AcDbText
 10
1.231442370514484
 20
1.34371230274675
 30
0.0
 40
0.2
  1

  7
L200
100
AcDbAttributeDefinition
  3
DETAIL TITLE TOP LINE
  2
TITLE1
 70
     0
  0
ATTDEF
  5
1199
330
1195
100
AcDbEntity
  8
title
100
AcDbText
 10
1.231442370514484
 20
0.9842270964783674
 30
0.0
 40
0.2
  1
TITLE
  7
L200
100
AcDbAttributeDefinition
  3
DETAIL TITLE TOP 2ND LINE
  2
TITLE2
 70
     0
  0
ATTDEF
  5
119A
330
1195
100
AcDbEntity
  8
title
100
AcDbText
 10
2.713645751168312
 20
0.5927927664583189
 30
0.0
 40
0.2
  1
TITLE2
  7
L200
100
AcDbAttributeDefinition
  3
DETAIL TITLE BOTTOM 1
  2
TITLE3
 70
     0
  0
ATTDEF
  5
119B
330
1195
100
AcDbEntity
  8
title
100
AcDbText
 10
2.713645751168312
 20
0.2692560808167741
 30
0.0
 40
0.2
  1

  7
L200
100
AcDbAttributeDefinition
  3
DETAIL TITLE BOTTOM 2
  2
TITLE4
 70
     0
  0
ATTDEF
  5
119C
330
1195
100
AcDbEntity
  8
title
 62
     7
100
AcDbText
 10
8.177214829966379
 20
0.9696027915446398
 30
0.0
 40
0.08
  1
-
  7
L80
 72
     2
 11
8.261024353775903
 21
0.9696027915446398
 31
0.0
100
AcDbAttributeDefinition
  3
REVISION DATE
  2
REVISED
 70
     0
  0
ATTDEF
  5
119D
330
1195
100
AcDbEntity
  8
title
 62
     7
100
AcDbText
 10
0.2639423705144838
 20
0.0847116480207213
 30
0.0
 40
0.08
  1
-
  7
L80
100
AcDbAttributeDefinition
  3
DWG-NAME
  2
DWG-NAME
 70
     0
  0
LWPOLYLINE
  5
119E
330
1195
100
AcDbEntity
  8
title
 62
     3
100
AcDbPolyline
 90
        2
 70
     1
 43
0.03
 10
0.6064423705144839
 20
0.5417270964783675
 42
0.9999999999999998
 10
0.6064423705144839
 20
1.226727096478367
 42
0.9999999999999998
  0
ATTDEF
  5
119F
330
1195
100
AcDbEntity
  8
title
 62
     7
100
AcDbText
 10
1.231442370514484
 20
0.7005637793954894
 30
0.0
 40
0.1
  1
N.T.S.
  7
L100
100
AcDbAttributeDefinition
  3
SCALE
  2
SCALE
 70
     0
  0
LWPOLYLINE
  5
11A0
330
1195
100
AcDbEntity
  8
title
 62
     3
100
AcDbPolyline
 90
        2
 70
     0
 43
0.04
 39
0.03
 10
0.9489423705144833
 20
0.8842270964783672
 10
8.261024353775903
 20
0.8842270964783672
  0
ENDBLK
  5
11A2
330
1195
100
AcDbEntity
  8
0
100
AcDbBlockEnd
  0
BLOCK
  5
153D
330
153C
100
AcDbEntity
  8
0
100
AcDbBlockBegin
  2
*U1
 70
     1
 10
0.0
 20
0.0
 30
0.0
  3
*U1
  1

  0
SOLID
  5
153E
330
153C
100
AcDbEntity
  8
0
  6
Continuous
100
AcDbTrace
 10
3.567182989901761
 20
5.541527675957381
 30
0.0
 11
3.575556278699087
 21
5.541181354170972
 31
0.0
 12
3.587347688324673
 22
5.54152444914982
 32
0.0
 13
3.587347688324673
 23
5.54152444914982
 33
0.0
  0
SOLID
  5
153F
330
153C
100
AcDbEntity
  8
0
  6
Continuous
100
AcDbTrace
 10
3.599099199552568
 20
5.542552573161558
 30
0.0
 11
3.567182989901761
 21
5.541527675957381
 31
0.0
 12
3.587347688324673
 22
5.54152444914982
 32
0.0
 13
3.587347688324673
 23
5.54152444914982
 33
0.0
  0
SOLID
  5
1540
330
153C
100
AcDbEntity
  8
0
  6
Continuous
100
AcDbTrace
 10
3.558866899157324
 20
5.542564275587641
 30
0.0
 11
3.567182989901761
 21
5.541527675957381
 31
0.0
 12
3.599099199552568
 22
5.542552573161558
 32
0.0
 13
3.599099199552568
 23
5.542552573161558
 33
0.0
  0
SOLID
  5
1541
330
153C
100
AcDbEntity
  8
0
  6
Continuous
100
AcDbTrace
 10
3.610771048988631
 20
5.544262247359977
 30
0.0
 11
3.558866899157324
 21
5.542564275587641
 31
0.0
 12
3.599099199552568
 22
5.542552573161558
 32
0.0
 13
3.599099199552568
 23
5.542552573161558
 33
0.0
  0
SOLID
  5
1542
330
153C
100
AcDbEntity
  8
0
  6
Continuous
100
AcDbTrace
 10
3.550664813797965
 20
5.544284072035178
 30
0.0
 11
3.558866899157324
 21
5.542564275587641
 31
0.0
 12
3.610771048988631
 22
5.544262247359977
 32
0.0
 13
3.610771048988631
 23
5.544262247359977
 33
0.0
  0
SOLID
  5
1543
330
153C
100
AcDbEntity
  8
0
  6
Continuous
100
AcDbTrace
 10
3.622323742789008
 20
5.546647686748773
 30
0.0
 11
3.550664813797965
 21
5.544284072035178
 31
0.0
 12
3.610771048988631
 22
5.544262247359977
 32
0.0
 13
3.610771048988631
 23
5.544262247359977
 33
0.0
  0
SOLID
  5
1544
330
153C
100
AcDbEntity
  8
0
  6
Continuous
100
AcDbTrace
 10
3.542632762383494
 20
5.546675317346405
 30
0.0
 11
3.550664813797965
 21
5.544284072035178
 31
0.0
 12
3.622323742789008
 22
5.546647686748773
 32
0.0
 13
3.622323742789008
 23
5.546647686748773
 33
0.0
  0
SOLID
  5
1545
330
153C
100
AcDbEntity
  8
0
  6
Continuous
100
AcDbTrace
 10
3.633718190294795
 20
5.549700819756147
 30
0.0
 11
3.542632762383494
 21
5.546675317346405
 31
0.0
 12
3.622323742789008
 22
5.546647686748773
 32
0.0
 13
3.622323742789008
 23
5.546647686748773
 33
0.0
  0
SOLID
  5
1546
330
153C
100
AcDbEntity
  8
0
  6
Continuous
100
AcDbTrace
 10
3.534825611969466
 20
5.549721676891156
 30
0.0
 11
3.542632762383494
 21
5.546675317346405
 31
0.0
 12
3.633718190294795
 22
5.549700819756147
 32
0.0
 13
3.633718190294795
 23
5.549700819756147
 33
0.0
  0
SOLID
  5
1547
330
153C
100
AcDbEntity
  8
0
  6
Continuous
100
AcDbTrace
 10
3.527296693309553
 20
5.553402340944773
 30
0.0
 11
3.534825611969466
 21
5.549721676891156
 31
0.0
 12
3.633718190294795
 22
5.549700819756147
 32
0.0
 13
3.633718190294795
 23
5.549700819756147
 33
0.0
  0
SOLID
  5
1548
330
153C
100
AcDbEntity
  8
0
  6
Continuous
100
AcDbTrace
 10
3.644915836302462
 20
5.55341131554645
 30
0.0
 11
3.527296693309553
 21
5.553402340944773
 31
0.0
 12
3.633718190294795
 22
5.549700819756147
 32
0.0
 13
3.633718190294795
 23
5.549700819756147
 33
0.0
  0
SOLID
  5
1549
330
153C
100
AcDbEntity
  8
0
  6
Continuous
100
AcDbTrace
 10
3.520097436552426
 20
5.557692166839624
 30
0.0
 11
3.527296693309553
 21
5.553402340944773
 31
0.0
 12
3.644915836302462
 22
5.55341131554645
 32
0.0
 13
3.644915836302462
 23
5.55341131554645
 33
0.0
  0
SOLID
  5
154A
330
153C
100
AcDbEntity
  8
0
  6
Continuous
100
AcDbTrace
 10
3.655878791522449
 20
5.557766618976456
 30
0.0
 11
3.520097436552426
 21
5.557692166839624
 31
0.0
 12
3.644915836302462
 22
5.55341131554645
 32
0.0
 13
3.644915836302462
 23
5.55341131554645
 33
0.0
  0
SOLID
  5
154B
330
153C
100
AcDbEntity
  8
0
  6
Continuous
100
AcDbTrace
 10
3.513277019921688
 20
5.562561850715021
 30
0.0
 11
3.520097436552426
 21
5.557692166839624
 31
0.0
 12
3.655878791522449
 22
5.557766618976456
 32
0.0
 13
3.655878791522449
 23
5.557766618976456
 33
0.0
  0
SOLID
  5
154C
330
153C
100
AcDbEntity
  8
0
  6
Continuous
100
AcDbTrace
 10
3.666569960784534
 20
5.562751993077998
 30
0.0
 11
3.513277019921688
 21
5.562561850715021
 31
0.0
 12
3.655878791522449
 22
5.557766618976456
 32
0.0
 13
3.655878791522449
 23
5.557766618976456
 33
0.0
  0
SOLID
  5
154D
330
153C
100
AcDbEntity
  8
0
  6
Continuous
100
AcDbTrace
 10
3.506882033778737
 20
5.567978127692303
 30
0.0
 11
3.513277019921688
 21
5.562561850715021
 31
0.0
 12
3.666569960784534
 22
5.562751993077998
 32
0.0
 13
3.666569960784534
 23
5.562751993077998
 33
0.0
  0
SOLID
  5
154E
330
153C
100
AcDbEntity
  8
0
  6
Continuous
100
AcDbTrace
 10
3.676953168556144
 20
5.568350568923198
 30
0.0
 11
3.506882033778737
 21
5.567978127692303
 31
0.0
 12
3.666569960784534
 22
5.562751993077998
 32
0.0
 13
3.666569960784534
 23
5.562751993077998
 33
0.0
  0
SOLID
  5
154F
330
153C
100
AcDbEntity
  8
0
  6
Continuous
100
AcDbTrace
 10
3.50095616236336
 20
5.57390399910768
 30
0.0
 11
3.506882033778737
 21
5.567978127692303
 31
0.0
 12
3.676953168556144
 22
5.568350568923198
 32
0.0
 13
3.676953168556144
 23
5.568350568923198
 33
0.0
  0
SOLID
  5
1550
330
153C
100
AcDbEntity
  8
0
  6
Continuous
100
AcDbTrace
 10
3.686993281348906
 20
5.574543402703584
 30
0.0
 11
3.50095616236336
 21
5.57390399910768
 31
0.0
 12
3.676953168556144
 22
5.568350568923198
 32
0.0
 13
3.676953168556144
 23
5.568350568923198
 33
0.0
  0
SOLID
  5
1551
330
153C
100
AcDbEntity
  8
0
  6
Continuous
100
AcDbTrace
 10
3.495539885386079
 20
5.580298985250631
 30
0.0
 11
3.50095616236336
 21
5.57390399910768
 31
0.0
 12
3.686993281348906
 22
5.574543402703584
 32
0.0
 13
3.686993281348906
 23
5.574543402703584
 33
0.0
  0
SOLID
  5
1552
330
153C
100
AcDbEntity
  8
0
  6
Continuous
100
AcDbTrace
 10
3.696656326599252
 20
5.581309539829938
 30
0.0
 11
3.495539885386079
 21
5.580298985250631
 31
0.0
 12
3.686993281348906
 22
5.574543402703584
 32
0.0
 13
3.686993281348906
 23
5.574543402703584
 33
0.0
  0
SOLID
  5
1553
330
153C
100
AcDbEntity
  8
0
  6
Continuous
100
AcDbTrace
 10
3.490670201510681
 20
5.58711940188137
 30
0.0
 11
3.495539885386079
 21
5.580298985250631
 31
0.0
 12
3.696656326599252
 22
5.581309539829938
 32
0.0
 13
3.696656326599252
 23
5.581309539829938
 33
0.0
  0
SOLID
  5
1554
330
153C
100
AcDbEntity
  8
0
  6
Continuous
100
AcDbTrace
 10
3.705909607620821
 20
5.588626085835995
 30
0.0
 11
3.490670201510681
 21
5.58711940188137
 31
0.0
 12
3.696656326599252
 22
5.581309539829938
 32
0.0
 13
3.696656326599252
 23
5.581309539829938
 33
0.0
  0
SOLID
  5
1555
330
153C
100
AcDbEntity
  8
0
  6
Continuous
100
AcDbTrace
 10
3.486380375615829
 20
5.594318658638496
 30
0.0
 11
3.490670201510681
 21
5.58711940188137
 31
0.0
 12
3.705909607620821
 22
5.588626085835995
 32
0.0
 13
3.705909607620821
 23
5.588626085835995
 33
0.0
  0
SOLID
  5
1556
330
153C
100
AcDbEntity
  8
0
  6
Continuous
100
AcDbTrace
 10
3.714721814239692
 20
5.596468283846069
 30
0.0
 11
3.486380375615829
 21
5.594318658638496
 31
0.0
 12
3.705909607620821
 22
5.588626085835995
 32
0.0
 13
3.705909607620821
 23
5.588626085835995
 33
0.0
  0
SOLID
  5
1557
330
153C
100
AcDbEntity
  8
0
  6
Continuous
100
AcDbTrace
 10
3.482699711562213
 20
5.601847577298409
 30
0.0
 11
3.486380375615829
 21
5.594318658638496
 31
0.0
 12
3.714721814239692
 22
5.596468283846069
 32
0.0
 13
3.714721814239692
 23
5.596468283846069
 33
0.0
  0
SOLID
  5
1558
330
153C
100
AcDbEntity
  8
0
  6
Continuous
100
AcDbTrace
 10
3.723063128738104
 20
5.604809598344481
 30
0.0
 11
3.482699711562213
 21
5.601847577298409
 31
0.0
 12
3.714721814239692
 22
5.596468283846069
 32
0.0
 13
3.714721814239692
 23
5.596468283846069
 33
0.0
  0
SOLID
  5
1559
330
153C
100
AcDbEntity
  8
0
  6
Continuous
100
AcDbTrace
 10
3.479653352017462
 20
5.609654727712437
 30
0.0
 11
3.482699711562213
 21
5.601847577298409
 31
0.0
 12
3.723063128738104
 22
5.604809598344481
 32
0.0
 13
3.723063128738104
 23
5.604809598344481
 33
0.0
  0
SOLID
  5
155A
330
153C
100
AcDbEntity
  8
0
  6
Continuous
100
AcDbTrace
 10
3.730905326748178
 20
5.613621804963353
 30
0.0
 11
3.479653352017462
 21
5.609654727712437
 31
0.0
 12
3.723063128738104
 22
5.604809598344481
 32
0.0
 13
3.723063128738104
 23
5.604809598344481
 33
0.0
  0
SOLID
  5
155B
330
153C
100
AcDbEntity
  8
0
  6
Continuous
100
AcDbTrace
 10
3.477262106706235
 20
5.617686779126908
 30
0.0
 11
3.479653352017462
 21
5.609654727712437
 31
0.0
 12
3.730905326748178
 22
5.613621804963353
 32
0.0
 13
3.730905326748178
 23
5.613621804963353
 33
0.0
  0
SOLID
  5
155C
330
153C
100
AcDbEntity
  8
0
  6
Continuous
100
AcDbTrace
 10
3.738221872754235
 20
5.622875085984921
 30
0.0
 11
3.477262106706235
 21
5.617686779126908
 31
0.0
 12
3.730905326748178
 22
5.613621804963353
 32
0.0
 13
3.730905326748178
 23
5.613621804963353
 33
0.0
  0
SOLID
  5
155D
330
153C
100
AcDbEntity
  8
0
  6
Continuous
100
AcDbTrace
 10
3.475542310258697
 20
5.625888864486267
 30
0.0
 11
3.477262106706235
 21
5.617686779126908
 31
0.0
 12
3.738221872754235
 22
5.622875085984921
 32
0.0
 13
3.738221872754235
 23
5.622875085984921
 33
0.0
  0
SOLID
  5
155E
330
153C
100
AcDbEntity
  8
0
  6
Continuous
100
AcDbTrace
 10
3.744988009880589
 20
5.632538131235267
 30
0.0
 11
3.475542310258697
 21
5.625888864486267
 31
0.0
 12
3.738221872754235
 22
5.622875085984921
 32
0.0
 13
3.738221872754235
 23
5.622875085984921
 33
0.0
  0
SOLID
  5
155F
330
153C
100
AcDbEntity
  8
0
  6
Continuous
100
AcDbTrace
 10
3.474505710628438
 20
5.634204955230703
 30
0.0
 11
3.475542310258697
 21
5.625888864486267
 31
0.0
 12
3.744988009880589
 22
5.632538131235267
 32
0.0
 13
3.744988009880589
 23
5.632538131235267
 33
0.0
  0
SOLID
  5
1560
330
153C
100
AcDbEntity
  8
0
  6
Continuous
100
AcDbTrace
 10
3.751180843660975
 20
5.64257824402803
 30
0.0
 11
3.474505710628438
 21
5.634204955230703
 31
0.0
 12
3.744988009880589
 22
5.632538131235267
 32
0.0
 13
3.744988009880589
 23
5.632538131235267
 33
0.0
  0
SOLID
  5
1561
330
153C
100
AcDbEntity
  8
0
  6
Continuous
100
AcDbTrace
 10
3.474159388842029
 20
5.64257824402803
 30
0.0
 11
3.474505710628438
 21
5.634204955230703
 31
0.0
 12
3.751180843660975
 22
5.64257824402803
 32
0.0
 13
3.751180843660975
 23
5.64257824402803
 33
0.0
  0
SOLID
  5
1562
330
153C
100
AcDbEntity
  8
0
  6
Continuous
100
AcDbTrace
 10
3.474505710628438
 20
5.650951532825356
 30
0.0
 11
3.474159388842029
 21
5.64257824402803
 31
0.0
 12
3.751180843660975
 22
5.64257824402803
 32
0.0
 13
3.751180843660975
 23
5.64257824402803
 33
0.0
  0
SOLID
  5
1563
330
153C
100
AcDbEntity
  8
0
  6
Continuous
100
AcDbTrace
 10
3.756779419506175
 20
5.652961451799638
 30
0.0
 11
3.474505710628438
 21
5.650951532825356
 31
0.0
 12
3.751180843660975
 22
5.64257824402803
 32
0.0
 13
3.751180843660975
 23
5.64257824402803
 33
0.0
  0
SOLID
  5
1564
330
153C
100
AcDbEntity
  8
0
  6
Continuous
100
AcDbTrace
 10
3.475542310258697
 20
5.659267623569792
 30
0.0
 11
3.474505710628438
 21
5.650951532825356
 31
0.0
 12
3.756779419506175
 22
5.652961451799638
 32
0.0
 13
3.756779419506175
 23
5.652961451799638
 33
0.0
  0
SOLID
  5
1565
330
153C
100
AcDbEntity
  8
0
  6
Continuous
100
AcDbTrace
 10
3.761764793607716
 20
5.663652621061723
 30
0.0
 11
3.475542310258697
 21
5.659267623569792
 31
0.0
 12
3.756779419506175
 22
5.652961451799638
 32
0.0
 13
3.756779419506175
 23
5.652961451799638
 33
0.0
  0
SOLID
  5
1566
330
153C
100
AcDbEntity
  8
0
  6
Continuous
100
AcDbTrace
 10
3.477262106706235
 20
5.667469708929151
 30
0.0
 11
3.475542310258697
 21
5.659267623569792
 31
0.0
 12
3.761764793607716
 22
5.663652621061723
 32
0.0
 13
3.761764793607716
 23
5.663652621061723
 33
0.0
  0
SOLID
  5
1567
330
153C
100
AcDbEntity
  8
0
  6
Continuous
100
AcDbTrace
 10
3.766120097037723
 20
5.674615576281711
 30
0.0
 11
3.477262106706235
 21
5.667469708929151
 31
0.0
 12
3.761764793607716
 22
5.663652621061723
 32
0.0
 13
3.761764793607716
 23
5.663652621061723
 33
0.0
  0
SOLID
  5
1568
330
153C
100
AcDbEntity
  8
0
  6
Continuous
100
AcDbTrace
 10
3.479653352017462
 20
5.675501760343622
 30
0.0
 11
3.477262106706235
 21
5.667469708929151
 31
0.0
 12
3.766120097037723
 22
5.674615576281711
 32
0.0
 13
3.766120097037723
 23
5.674615576281711
 33
0.0
  0
SOLID
  5
1569
330
153C
100
AcDbEntity
  8
0
  6
Continuous
100
AcDbTrace
 10
3.482699711562213
 20
5.68330891075765
 30
0.0
 11
3.479653352017462
 21
5.675501760343622
 31
0.0
 12
3.766120097037723
 22
5.674615576281711
 32
0.0
 13
3.766120097037723
 23
5.674615576281711
 33
0.0
  0
SOLID
  5
156A
330
153C
100
AcDbEntity
  8
0
  6
Continuous
100
AcDbTrace
 10
3.769830592828026
 20
5.685813222289378
 30
0.0
 11
3.482699711562213
 21
5.68330891075765
 31
0.0
 12
3.766120097037723
 22
5.674615576281711
 32
0.0
 13
3.766120097037723
 23
5.674615576281711
 33
0.0
  0
SOLID
  5
156B
330
153C
100
AcDbEntity
  8
0
  6
Continuous
100
AcDbTrace
 10
3.486380375615829
 20
5.690837829417564
 30
0.0
 11
3.482699711562213
 21
5.68330891075765
 31
0.0
 12
3.769830592828026
 22
5.685813222289378
 32
0.0
 13
3.769830592828026
 23
5.685813222289378
 33
0.0
  0
SOLID
  5
156C
330
153C
100
AcDbEntity
  8
0
  6
Continuous
100
AcDbTrace
 10
3.7728837258354
 20
5.697207669795165
 30
0.0
 11
3.486380375615829
 21
5.690837829417564
 31
0.0
 12
3.769830592828026
 22
5.685813222289378
 32
0.0
 13
3.769830592828026
 23
5.685813222289378
 33
0.0
  0
SOLID
  5
156D
330
153C
100
AcDbEntity
  8
0
  6
Continuous
100
AcDbTrace
 10
3.490670201510681
 20
5.698037086174689
 30
0.0
 11
3.486380375615829
 21
5.690837829417564
 31
0.0
 12
3.7728837258354
 22
5.697207669795165
 32
0.0
 13
3.7728837258354
 23
5.697207669795165
 33
0.0
  0
SOLID
  5
156E
330
153C
100
AcDbEntity
  8
0
  6
Continuous
100
AcDbTrace
 10
3.495539885386079
 20
5.704857502805428
 30
0.0
 11
3.490670201510681
 21
5.698037086174689
 31
0.0
 12
3.7728837258354
 22
5.697207669795165
 32
0.0
 13
3.7728837258354
 23
5.697207669795165
 33
0.0
  0
SOLID
  5
156F
330
153C
100
AcDbEntity
  8
0
  6
Continuous
100
AcDbTrace
 10
3.775269165224196
 20
5.708760363595541
 30
0.0
 11
3.495539885386079
 21
5.704857502805428
 31
0.0
 12
3.7728837258354
 22
5.697207669795165
 32
0.0
 13
3.7728837258354
 23
5.697207669795165
 33
0.0
  0
SOLID
  5
1570
330
153C
100
AcDbEntity
  8
0
  6
Continuous
100
AcDbTrace
 10
3.50095616236336
 20
5.71125248894838
 30
0.0
 11
3.495539885386079
 21
5.704857502805428
 31
0.0
 12
3.775269165224196
 22
5.708760363595541
 32
0.0
 13
3.775269165224196
 23
5.708760363595541
 33
0.0
  0
SOLID
  5
1571
330
153C
100
AcDbEntity
  8
0
  6
Continuous
100
AcDbTrace
 10
3.506882033778737
 20
5.717178360363757
 30
0.0
 11
3.50095616236336
 21
5.71125248894838
 31
0.0
 12
3.775269165224196
 22
5.708760363595541
 32
0.0
 13
3.775269165224196
 23
5.708760363595541
 33
0.0
  0
SOLID
  5
1572
330
153C
100
AcDbEntity
  8
0
  6
Continuous
100
AcDbTrace
 10
3.776978839422615
 20
5.720432213031605
 30
0.0
 11
3.506882033778737
 21
5.717178360363757
 31
0.0
 12
3.775269165224196
 22
5.708760363595541
 32
0.0
 13
3.775269165224196
 23
5.708760363595541
 33
0.0
  0
SOLID
  5
1573
330
153C
100
AcDbEntity
  8
0
  6
Continuous
100
AcDbTrace
 10
3.513277019921688
 20
5.722594637341038
 30
0.0
 11
3.506882033778737
 21
5.717178360363757
 31
0.0
 12
3.776978839422615
 22
5.720432213031605
 32
0.0
 13
3.776978839422615
 23
5.720432213031605
 33
0.0
  0
SOLID
  5
1574
330
153C
100
AcDbEntity
  8
0
  6
Continuous
100
AcDbTrace
 10
3.520097436552426
 20
5.727464321216436
 30
0.0
 11
3.513277019921688
 21
5.722594637341038
 31
0.0
 12
3.776978839422615
 22
5.720432213031605
 32
0.0
 13
3.776978839422615
 23
5.720432213031605
 33
0.0
  0
SOLID
  5
1575
330
153C
100
AcDbEntity
  8
0
  6
Continuous
100
AcDbTrace
 10
3.527296693309553
 20
5.731754147111287
 30
0.0
 11
3.520097436552426
 21
5.727464321216436
 31
0.0
 12
3.776978839422615
 22
5.720432213031605
 32
0.0
 13
3.776978839422615
 23
5.720432213031605
 33
0.0
  0
SOLID
  5
1576
330
153C
100
AcDbEntity
  8
0
  6
Continuous
100
AcDbTrace
 10
3.778006963434354
 20
5.732183724259501
 30
0.0
 11
3.527296693309553
 21
5.731754147111287
 31
0.0
 12
3.776978839422615
 22
5.720432213031605
 32
0.0
 13
3.776978839422615
 23
5.720432213031605
 33
0.0
  0
SOLID
  5
1577
330
153C
100
AcDbEntity
  8
0
  6
Continuous
100
AcDbTrace
 10
3.534825611969466
 20
5.735434811164903
 30
0.0
 11
3.527296693309553
 21
5.731754147111287
 31
0.0
 12
3.778006963434354
 22
5.732183724259501
 32
0.0
 13
3.778006963434354
 23
5.732183724259501
 33
0.0
  0
SOLID
  5
1578
330
153C
100
AcDbEntity
  8
0
  6
Continuous
100
AcDbTrace
 10
3.542632762383494
 20
5.738481170709655
 30
0.0
 11
3.534825611969466
 21
5.735434811164903
 31
0.0
 12
3.778006963434354
 22
5.732183724259501
 32
0.0
 13
3.778006963434354
 23
5.732183724259501
 33
0.0
  0
SOLID
  5
1579
330
153C
100
AcDbEntity
  8
0
  6
Continuous
100
AcDbTrace
 10
3.550664813797965
 20
5.740872416020882
 30
0.0
 11
3.542632762383494
 21
5.738481170709655
 31
0.0
 12
3.778006963434354
 22
5.732183724259501
 32
0.0
 13
3.778006963434354
 23
5.732183724259501
 33
0.0
  0
SOLID
  5
157A
330
153C
100
AcDbEntity
  8
0
  6
Continuous
100
AcDbTrace
 10
3.558866899157324
 20
5.742592212468418
 30
0.0
 11
3.550664813797965
 21
5.740872416020882
 31
0.0
 12
3.778006963434354
 22
5.732183724259501
 32
0.0
 13
3.778006963434354
 23
5.732183724259501
 33
0.0
  0
SOLID
  5
157B
330
153C
100
AcDbEntity
  8
0
  6
Continuous
100
AcDbTrace
 10
3.567182989901761
 20
5.743628812098678
 30
0.0
 11
3.558866899157324
 21
5.742592212468418
 31
0.0
 12
3.778006963434354
 22
5.732183724259501
 32
0.0
 13
3.778006963434354
 23
5.732183724259501
 33
0.0
  0
SOLID
  5
157C
330
153C
100
AcDbEntity
  8
0
  6
Continuous
100
AcDbTrace
 10
3.778350058413201
 20
5.743975133885086
 30
0.0
 11
3.567182989901761
 21
5.743628812098678
 31
0.0
 12
3.778006963434354
 22
5.732183724259501
 32
0.0
 13
3.778006963434354
 23
5.732183724259501
 33
0.0
  0
SOLID
  5
157D
330
153C
100
AcDbEntity
  8
0
  6
Continuous
100
AcDbTrace
 10
3.575556278699087
 20
5.743975133885087
 30
0.0
 11
3.567182989901761
 21
5.743628812098678
 31
0.0
 12
3.778350058413201
 22
5.743975133885086
 32
0.0
 13
3.778350058413201
 23
5.743975133885086
 33
0.0
  0
SOLID
  5
157E
330
153C
100
AcDbEntity
  8
0
  6
Continuous
100
AcDbTrace
 10
3.583929567496412
 20
5.744321455671497
 30
0.0
 11
3.575556278699087
 21
5.743975133885087
 31
0.0
 12
3.778350058413201
 22
5.743975133885086
 32
0.0
 13
3.778350058413201
 23
5.743975133885086
 33
0.0
  0
SOLID
  5
157F
330
153C
100
AcDbEntity
  8
0
  6
Continuous
100
AcDbTrace
 10
3.592245658240849
 20
5.745358055301756
 30
0.0
 11
3.583929567496412
 21
5.744321455671497
 31
0.0
 12
3.778350058413201
 22
5.743975133885086
 32
0.0
 13
3.778350058413201
 23
5.743975133885086
 33
0.0
  0
SOLID
  5
1580
330
153C
100
AcDbEntity
  8
0
  6
Continuous
100
AcDbTrace
 10
3.600447743600208
 20
5.747077851749293
 30
0.0
 11
3.592245658240849
 21
5.745358055301756
 31
0.0
 12
3.778350058413201
 22
5.743975133885086
 32
0.0
 13
3.778350058413201
 23
5.743975133885086
 33
0.0
  0
SOLID
  5
1581
330
153C
100
AcDbEntity
  8
0
  6
Continuous
100
AcDbTrace
 10
3.608479795014679
 20
5.74946909706052
 30
0.0
 11
3.600447743600208
 21
5.747077851749293
 31
0.0
 12
3.778350058413201
 22
5.743975133885086
 32
0.0
 13
3.778350058413201
 23
5.743975133885086
 33
0.0
  0
SOLID
  5
1582
330
153C
100
AcDbEntity
  8
0
  6
Continuous
100
AcDbTrace
 10
3.616286945428708
 20
5.752515456605271
 30
0.0
 11
3.608479795014679
 21
5.74946909706052
 31
0.0
 12
3.778350058413201
 22
5.743975133885086
 32
0.0
 13
3.778350058413201
 23
5.743975133885086
 33
0.0
  0
SOLID
  5
1583
330
153C
100
AcDbEntity
  8
0
  6
Continuous
100
AcDbTrace
 10
3.778006963434354
 20
5.755766543510672
 30
0.0
 11
3.616286945428708
 21
5.752515456605271
 31
0.0
 12
3.778350058413201
 22
5.743975133885086
 32
0.0
 13
3.778350058413201
 23
5.743975133885086
 33
0.0
  0
SOLID
  5
1584
330
153C
100
AcDbEntity
  8
0
  6
Continuous
100
AcDbTrace
 10
3.62381586408862
 20
5.756196120658888
 30
0.0
 11
3.616286945428708
 21
5.752515456605271
 31
0.0
 12
3.778006963434354
 22
5.755766543510672
 32
0.0
 13
3.778006963434354
 23
5.755766543510672
 33
0.0
  0
SOLID
  5
1585
330
153C
100
AcDbEntity
  8
0
  6
Continuous
100
AcDbTrace
 10
3.631015120845747
 20
5.760485946553739
 30
0.0
 11
3.62381586408862
 21
5.756196120658888
 31
0.0
 12
3.778006963434354
 22
5.755766543510672
 32
0.0
 13
3.778006963434354
 23
5.755766543510672
 33
0.0
  0
SOLID
  5
1586
330
153C
100
AcDbEntity
  8
0
  6
Continuous
100
AcDbTrace
 10
3.637835537476485
 20
5.765355630429136
 30
0.0
 11
3.631015120845747
 21
5.760485946553739
 31
0.0
 12
3.778006963434354
 22
5.755766543510672
 32
0.0
 13
3.778006963434354
 23
5.755766543510672
 33
0.0
  0
SOLID
  5
1587
330
153C
100
AcDbEntity
  8
0
  6
Continuous
100
AcDbTrace
 10
3.776978839422615
 20
5.767518054738568
 30
0.0
 11
3.637835537476485
 21
5.765355630429136
 31
0.0
 12
3.778006963434354
 22
5.755766543510672
 32
0.0
 13
3.778006963434354
 23
5.755766543510672
 33
0.0
  0
SOLID
  5
1588
330
153C
100
AcDbEntity
  8
0
  6
Continuous
100
AcDbTrace
 10
3.644230523619437
 20
5.770771907406418
 30
0.0
 11
3.637835537476485
 21
5.765355630429136
 31
0.0
 12
3.776978839422615
 22
5.767518054738568
 32
0.0
 13
3.776978839422615
 23
5.767518054738568
 33
0.0
  0
SOLID
  5
1589
330
153C
100
AcDbEntity
  8
0
  6
Continuous
100
AcDbTrace
 10
3.650156395034814
 20
5.776697778821795
 30
0.0
 11
3.644230523619437
 21
5.770771907406418
 31
0.0
 12
3.776978839422615
 22
5.767518054738568
 32
0.0
 13
3.776978839422615
 23
5.767518054738568
 33
0.0
  0
SOLID
  5
158A
330
153C
100
AcDbEntity
  8
0
  6
Continuous
100
AcDbTrace
 10
3.775269165224196
 20
5.779189904174631
 30
0.0
 11
3.650156395034814
 21
5.776697778821795
 31
0.0
 12
3.776978839422615
 22
5.767518054738568
 32
0.0
 13
3.776978839422615
 23
5.767518054738568
 33
0.0
  0
SOLID
  5
158B
330
153C
100
AcDbEntity
  8
0
  6
Continuous
100
AcDbTrace
 10
3.655572672012095
 20
5.783092764964746
 30
0.0
 11
3.650156395034814
 21
5.776697778821795
 31
0.0
 12
3.775269165224196
 22
5.779189904174631
 32
0.0
 13
3.775269165224196
 23
5.779189904174631
 33
0.0
  0
SOLID
  5
158C
330
153C
100
AcDbEntity
  8
0
  6
Continuous
100
AcDbTrace
 10
3.660442355887493
 20
5.789913181595485
 30
0.0
 11
3.655572672012095
 21
5.783092764964746
 31
0.0
 12
3.775269165224196
 22
5.779189904174631
 32
0.0
 13
3.775269165224196
 23
5.779189904174631
 33
0.0
  0
SOLID
  5
158D
330
153C
100
AcDbEntity
  8
0
  6
Continuous
100
AcDbTrace
 10
3.7728837258354
 20
5.790742597975008
 30
0.0
 11
3.660442355887493
 21
5.789913181595485
 31
0.0
 12
3.775269165224196
 22
5.779189904174631
 32
0.0
 13
3.775269165224196
 23
5.779189904174631
 33
0.0
  0
SOLID
  5
158E
330
153C
100
AcDbEntity
  8
0
  6
Continuous
100
AcDbTrace
 10
3.664732181782344
 20
5.797112438352611
 30
0.0
 11
3.660442355887493
 21
5.789913181595485
 31
0.0
 12
3.7728837258354
 22
5.790742597975008
 32
0.0
 13
3.7728837258354
 23
5.790742597975008
 33
0.0
  0
SOLID
  5
158F
330
153C
100
AcDbEntity
  8
0
  6
Continuous
100
AcDbTrace
 10
3.769830592828026
 20
5.802137045480795
 30
0.0
 11
3.664732181782344
 21
5.797112438352611
 31
0.0
 12
3.7728837258354
 22
5.790742597975008
 32
0.0
 13
3.7728837258354
 23
5.790742597975008
 33
0.0
  0
SOLID
  5
1590
330
153C
100
AcDbEntity
  8
0
  6
Continuous
100
AcDbTrace
 10
3.66841284583596
 20
5.804641357012524
 30
0.0
 11
3.664732181782344
 21
5.797112438352611
 31
0.0
 12
3.769830592828026
 22
5.802137045480795
 32
0.0
 13
3.769830592828026
 23
5.802137045480795
 33
0.0
  0
SOLID
  5
1591
330
153C
100
AcDbEntity
  8
0
  6
Continuous
100
AcDbTrace
 10
3.671459205380712
 20
5.812448507426553
 30
0.0
 11
3.66841284583596
 21
5.804641357012524
 31
0.0
 12
3.769830592828026
 22
5.802137045480795
 32
0.0
 13
3.769830592828026
 23
5.802137045480795
 33
0.0
  0
SOLID
  5
1592
330
153C
100
AcDbEntity
  8
0
  6
Continuous
100
AcDbTrace
 10
3.766120097037723
 20
5.813334691488462
 30
0.0
 11
3.671459205380712
 21
5.812448507426553
 31
0.0
 12
3.769830592828026
 22
5.802137045480795
 32
0.0
 13
3.769830592828026
 23
5.802137045480795
 33
0.0
  0
SOLID
  5
1593
330
153C
100
AcDbEntity
  8
0
  6
Continuous
100
AcDbTrace
 10
3.673850450691939
 20
5.820480558841023
 30
0.0
 11
3.671459205380712
 21
5.812448507426553
 31
0.0
 12
3.766120097037723
 22
5.813334691488462
 32
0.0
 13
3.766120097037723
 23
5.813334691488462
 33
0.0
  0
SOLID
  5
1594
330
153C
100
AcDbEntity
  8
0
  6
Continuous
100
AcDbTrace
 10
3.761764793607717
 20
5.824297646708449
 30
0.0
 11
3.673850450691939
 21
5.820480558841023
 31
0.0
 12
3.766120097037723
 22
5.813334691488462
 32
0.0
 13
3.766120097037723
 23
5.813334691488462
 33
0.0
  0
SOLID
  5
1595
330
153C
100
AcDbEntity
  8
0
  6
Continuous
100
AcDbTrace
 10
3.675570247139476
 20
5.828682644200382
 30
0.0
 11
3.673850450691939
 21
5.820480558841023
 31
0.0
 12
3.761764793607717
 22
5.824297646708449
 32
0.0
 13
3.761764793607717
 23
5.824297646708449
 33
0.0
  0
SOLID
  5
1596
330
153C
100
AcDbEntity
  8
0
  6
Continuous
100
AcDbTrace
 10
3.756779419506175
 20
5.834988815970534
 30
0.0
 11
3.675570247139476
 21
5.828682644200382
 31
0.0
 12
3.761764793607717
 22
5.824297646708449
 32
0.0
 13
3.761764793607717
 23
5.824297646708449
 33
0.0
  0
SOLID
  5
1597
330
153C
100
AcDbEntity
  8
0
  6
Continuous
100
AcDbTrace
 10
3.676606846769735
 20
5.836998734944819
 30
0.0
 11
3.675570247139476
 21
5.828682644200382
 31
0.0
 12
3.756779419506175
 22
5.834988815970534
 32
0.0
 13
3.756779419506175
 23
5.834988815970534
 33
0.0
  0
SOLID
  5
1598
330
153C
100
AcDbEntity
  8
0
  6
Continuous
100
AcDbTrace
 10
3.751180843660975
 20
5.845372023742143
 30
0.0
 11
3.676606846769735
 21
5.836998734944819
 31
0.0
 12
3.756779419506175
 22
5.834988815970534
 32
0.0
 13
3.756779419506175
 23
5.834988815970534
 33
0.0
  0
SOLID
  5
1599
330
153C
100
AcDbEntity
  8
0
  6
Continuous
100
AcDbTrace
 10
3.676953168556144
 20
5.845372023742145
 30
0.0
 11
3.676606846769735
 21
5.836998734944819
 31
0.0
 12
3.751180843660975
 22
5.845372023742143
 32
0.0
 13
3.751180843660975
 23
5.845372023742143
 33
0.0
  0
SOLID
  5
159A
330
153C
100
AcDbEntity
  8
0
  6
Continuous
100
AcDbTrace
 10
3.676606846769735
 20
5.853745312539471
 30
0.0
 11
3.676953168556144
 21
5.845372023742145
 31
0.0
 12
3.751180843660975
 22
5.845372023742143
 32
0.0
 13
3.751180843660975
 23
5.845372023742143
 33
0.0
  0
SOLID
  5
159B
330
153C
100
AcDbEntity
  8
0
  6
Continuous
100
AcDbTrace
 10
3.744988009880589
 20
5.855412136534906
 30
0.0
 11
3.676606846769735
 21
5.853745312539471
 31
0.0
 12
3.751180843660975
 22
5.845372023742143
 32
0.0
 13
3.751180843660975
 23
5.845372023742143
 33
0.0
  0
SOLID
  5
159C
330
153C
100
AcDbEntity
  8
0
  6
Continuous
100
AcDbTrace
 10
3.675570247139476
 20
5.862061403283908
 30
0.0
 11
3.676606846769735
 21
5.853745312539471
 31
0.0
 12
3.744988009880589
 22
5.855412136534906
 32
0.0
 13
3.744988009880589
 23
5.855412136534906
 33
0.0
  0
SOLID
  5
159D
330
153C
100
AcDbEntity
  8
0
  6
Continuous
100
AcDbTrace
 10
3.738221872754235
 20
5.865075181785252
 30
0.0
 11
3.675570247139476
 21
5.862061403283908
 31
0.0
 12
3.744988009880589
 22
5.855412136534906
 32
0.0
 13
3.744988009880589
 23
5.855412136534906
 33
0.0
  0
SOLID
  5
159E
330
153C
100
AcDbEntity
  8
0
  6
Continuous
100
AcDbTrace
 10
3.673850450691939
 20
5.870263488643266
 30
0.0
 11
3.675570247139476
 21
5.862061403283908
 31
0.0
 12
3.738221872754235
 22
5.865075181785252
 32
0.0
 13
3.738221872754235
 23
5.865075181785252
 33
0.0
  0
SOLID
  5
159F
330
153C
100
AcDbEntity
  8
0
  6
Continuous
100
AcDbTrace
 10
3.730905326748178
 20
5.87432846280682
 30
0.0
 11
3.673850450691939
 21
5.870263488643266
 31
0.0
 12
3.738221872754235
 22
5.865075181785252
 32
0.0
 13
3.738221872754235
 23
5.865075181785252
 33
0.0
  0
SOLID
  5
15A0
330
153C
100
AcDbEntity
  8
0
  6
Continuous
100
AcDbTrace
 10
3.671459205380712
 20
5.878295540057737
 30
0.0
 11
3.673850450691939
 21
5.870263488643266
 31
0.0
 12
3.730905326748178
 22
5.87432846280682
 32
0.0
 13
3.730905326748178
 23
5.87432846280682
 33
0.0
  0
SOLID
  5
15A1
330
153C
100
AcDbEntity
  8
0
  6
Continuous
100
AcDbTrace
 10
3.723063128738105
 20
5.883140669425691
 30
0.0
 11
3.671459205380712
 21
5.878295540057737
 31
0.0
 12
3.730905326748178
 22
5.87432846280682
 32
0.0
 13
3.730905326748178
 23
5.87432846280682
 33
0.0
  0
SOLID
  5
15A2
330
153C
100
AcDbEntity
  8
0
  6
Continuous
100
AcDbTrace
 10
3.66841284583596
 20
5.886102690471766
 30
0.0
 11
3.671459205380712
 21
5.878295540057737
 31
0.0
 12
3.723063128738105
 22
5.883140669425691
 32
0.0
 13
3.723063128738105
 23
5.883140669425691
 33
0.0
  0
SOLID
  5
15A3
330
153C
100
AcDbEntity
  8
0
  6
Continuous
100
AcDbTrace
 10
3.714721814239692
 20
5.891481983924104
 30
0.0
 11
3.66841284583596
 21
5.886102690471766
 31
0.0
 12
3.723063128738105
 22
5.883140669425691
 32
0.0
 13
3.723063128738105
 23
5.883140669425691
 33
0.0
  0
SOLID
  5
15A4
330
153C
100
AcDbEntity
  8
0
  6
Continuous
100
AcDbTrace
 10
3.664732181782344
 20
5.893631609131679
 30
0.0
 11
3.66841284583596
 21
5.886102690471766
 31
0.0
 12
3.714721814239692
 22
5.891481983924104
 32
0.0
 13
3.714721814239692
 23
5.891481983924104
 33
0.0
  0
SOLID
  5
15A5
330
153C
100
AcDbEntity
  8
0
  6
Continuous
100
AcDbTrace
 10
3.705909607620821
 20
5.899324181934177
 30
0.0
 11
3.664732181782344
 21
5.893631609131679
 31
0.0
 12
3.714721814239692
 22
5.891481983924104
 32
0.0
 13
3.714721814239692
 23
5.891481983924104
 33
0.0
  0
SOLID
  5
15A6
330
153C
100
AcDbEntity
  8
0
  6
Continuous
100
AcDbTrace
 10
3.660442355887493
 20
5.900830865888805
 30
0.0
 11
3.664732181782344
 21
5.893631609131679
 31
0.0
 12
3.705909607620821
 22
5.899324181934177
 32
0.0
 13
3.705909607620821
 23
5.899324181934177
 33
0.0
  0
SOLID
  5
15A7
330
153C
100
AcDbEntity
  8
0
  6
Continuous
100
AcDbTrace
 10
3.696656326599252
 20
5.906640727940235
 30
0.0
 11
3.660442355887493
 21
5.900830865888805
 31
0.0
 12
3.705909607620821
 22
5.899324181934177
 32
0.0
 13
3.705909607620821
 23
5.899324181934177
 33
0.0
  0
SOLID
  5
15A8
330
153C
100
AcDbEntity
  8
0
  6
Continuous
100
AcDbTrace
 10
3.655572672012095
 20
5.907651282519544
 30
0.0
 11
3.660442355887493
 21
5.900830865888805
 31
0.0
 12
3.696656326599252
 22
5.906640727940235
 32
0.0
 13
3.696656326599252
 23
5.906640727940235
 33
0.0
  0
SOLID
  5
15A9
330
153C
100
AcDbEntity
  8
0
  6
Continuous
100
AcDbTrace
 10
3.686993281348906
 20
5.913406865066589
 30
0.0
 11
3.655572672012095
 21
5.907651282519544
 31
0.0
 12
3.696656326599252
 22
5.906640727940235
 32
0.0
 13
3.696656326599252
 23
5.906640727940235
 33
0.0
  0
SOLID
  5
15AA
330
153C
100
AcDbEntity
  8
0
  6
Continuous
100
AcDbTrace
 10
3.650156395034814
 20
5.914046268662495
 30
0.0
 11
3.655572672012095
 21
5.907651282519544
 31
0.0
 12
3.686993281348906
 22
5.913406865066589
 32
0.0
 13
3.686993281348906
 23
5.913406865066589
 33
0.0
  0
SOLID
  5
15AB
330
153C
100
AcDbEntity
  8
0
  6
Continuous
100
AcDbTrace
 10
3.676953168556144
 20
5.919599698846974
 30
0.0
 11
3.650156395034814
 21
5.914046268662495
 31
0.0
 12
3.686993281348906
 22
5.913406865066589
 32
0.0
 13
3.686993281348906
 23
5.913406865066589
 33
0.0
  0
SOLID
  5
15AC
330
153C
100
AcDbEntity
  8
0
  6
Continuous
100
AcDbTrace
 10
3.644230523619437
 20
5.919972140077872
 30
0.0
 11
3.650156395034814
 21
5.914046268662495
 31
0.0
 12
3.676953168556144
 22
5.919599698846974
 32
0.0
 13
3.676953168556144
 23
5.919599698846974
 33
0.0
  0
SOLID
  5
15AD
330
153C
100
AcDbEntity
  8
0
  6
Continuous
100
AcDbTrace
 10
3.666569960784534
 20
5.925198274692174
 30
0.0
 11
3.644230523619437
 21
5.919972140077872
 31
0.0
 12
3.676953168556144
 22
5.919599698846974
 32
0.0
 13
3.676953168556144
 23
5.919599698846974
 33
0.0
  0
SOLID
  5
15AE
330
153C
100
AcDbEntity
  8
0
  6
Continuous
100
AcDbTrace
 10
3.637835537476485
 20
5.925388417055153
 30
0.0
 11
3.644230523619437
 21
5.919972140077872
 31
0.0
 12
3.666569960784534
 22
5.925198274692174
 32
0.0
 13
3.666569960784534
 23
5.925198274692174
 33
0.0
  0
SOLID
  5
15AF
330
153C
100
AcDbEntity
  8
0
  6
Continuous
100
AcDbTrace
 10
3.655878791522449
 20
5.930183648793716
 30
0.0
 11
3.637835537476485
 21
5.925388417055153
 31
0.0
 12
3.666569960784534
 22
5.925198274692174
 32
0.0
 13
3.666569960784534
 23
5.925198274692174
 33
0.0
  0
SOLID
  5
15B0
330
153C
100
AcDbEntity
  8
0
  6
Continuous
100
AcDbTrace
 10
3.631015120845747
 20
5.930258100930551
 30
0.0
 11
3.637835537476485
 21
5.925388417055153
 31
0.0
 12
3.655878791522449
 22
5.930183648793716
 32
0.0
 13
3.655878791522449
 23
5.930183648793716
 33
0.0
  0
SOLID
  5
15B1
330
153C
100
AcDbEntity
  8
0
  6
Continuous
100
AcDbTrace
 10
3.644915836302462
 20
5.934538952223722
 30
0.0
 11
3.631015120845747
 21
5.930258100930551
 31
0.0
 12
3.655878791522449
 22
5.930183648793716
 32
0.0
 13
3.655878791522449
 23
5.930183648793716
 33
0.0
  0
SOLID
  5
15B2
330
153C
100
AcDbEntity
  8
0
  6
Continuous
100
AcDbTrace
 10
3.62381586408862
 20
5.934547926825402
 30
0.0
 11
3.631015120845747
 21
5.930258100930551
 31
0.0
 12
3.644915836302462
 22
5.934538952223722
 32
0.0
 13
3.644915836302462
 23
5.934538952223722
 33
0.0
  0
SOLID
  5
15B3
330
153C
100
AcDbEntity
  8
0
  6
Continuous
100
AcDbTrace
 10
3.616286945428707
 20
5.938228590879019
 30
0.0
 11
3.62381586408862
 21
5.934547926825402
 31
0.0
 12
3.644915836302462
 22
5.934538952223722
 32
0.0
 13
3.644915836302462
 23
5.934538952223722
 33
0.0
  0
SOLID
  5
15B4
330
153C
100
AcDbEntity
  8
0
  6
Continuous
100
AcDbTrace
 10
3.633718190294795
 20
5.938249448014025
 30
0.0
 11
3.616286945428707
 21
5.938228590879019
 31
0.0
 12
3.644915836302462
 22
5.934538952223722
 32
0.0
 13
3.644915836302462
 23
5.934538952223722
 33
0.0
  0
SOLID
  5
15B5
330
153C
100
AcDbEntity
  8
0
  6
Continuous
100
AcDbTrace
 10
3.608479795014679
 20
5.94127495042377
 30
0.0
 11
3.616286945428707
 21
5.938228590879019
 31
0.0
 12
3.633718190294795
 22
5.938249448014025
 32
0.0
 13
3.633718190294795
 23
5.938249448014025
 33
0.0
  0
SOLID
  5
15B6
330
153C
100
AcDbEntity
  8
0
  6
Continuous
100
AcDbTrace
 10
3.622323742789008
 20
5.9413025810214
 30
0.0
 11
3.608479795014679
 21
5.94127495042377
 31
0.0
 12
3.633718190294795
 22
5.938249448014025
 32
0.0
 13
3.633718190294795
 23
5.938249448014025
 33
0.0
  0
SOLID
  5
15B7
330
153C
100
AcDbEntity
  8
0
  6
Continuous
100
AcDbTrace
 10
3.600447743600208
 20
5.943666195734997
 30
0.0
 11
3.608479795014679
 21
5.94127495042377
 31
0.0
 12
3.622323742789008
 22
5.9413025810214
 32
0.0
 13
3.622323742789008
 23
5.9413025810214
 33
0.0
  0
SOLID
  5
15B8
330
153C
100
AcDbEntity
  8
0
  6
Continuous
100
AcDbTrace
 10
3.610771048988631
 20
5.943688020410196
 30
0.0
 11
3.600447743600208
 21
5.943666195734997
 31
0.0
 12
3.622323742789008
 22
5.9413025810214
 32
0.0
 13
3.622323742789008
 23
5.9413025810214
 33
0.0
  0
SOLID
  5
15B9
330
153C
100
AcDbEntity
  8
0
  6
Continuous
100
AcDbTrace
 10
3.592245658240849
 20
5.945385992182534
 30
0.0
 11
3.600447743600208
 21
5.943666195734997
 31
0.0
 12
3.610771048988631
 22
5.943688020410196
 32
0.0
 13
3.610771048988631
 23
5.943688020410196
 33
0.0
  0
SOLID
  5
15BA
330
153C
100
AcDbEntity
  8
0
  6
Continuous
100
AcDbTrace
 10
3.599099199552568
 20
5.945397694608614
 30
0.0
 11
3.592245658240849
 21
5.945385992182534
 31
0.0
 12
3.610771048988631
 22
5.943688020410196
 32
0.0
 13
3.610771048988631
 23
5.943688020410196
 33
0.0
  0
SOLID
  5
15BB
330
153C
100
AcDbEntity
  8
0
  6
Continuous
100
AcDbTrace
 10
3.583929567496412
 20
5.946422591812793
 30
0.0
 11
3.592245658240849
 21
5.945385992182534
 31
0.0
 12
3.599099199552568
 22
5.945397694608614
 32
0.0
 13
3.599099199552568
 23
5.945397694608614
 33
0.0
  0
SOLID
  5
15BC
330
153C
100
AcDbEntity
  8
0
  6
Continuous
100
AcDbTrace
 10
3.587347688324673
 20
5.946425818620353
 30
0.0
 11
3.583929567496412
 21
5.946422591812793
 31
0.0
 12
3.599099199552568
 22
5.945397694608614
 32
0.0
 13
3.599099199552568
 23
5.945397694608614
 33
0.0
  0
SOLID
  5
15BD
330
153C
100
AcDbEntity
  8
0
  6
Continuous
100
AcDbTrace
 10
3.575556278699087
 20
5.946768913599203
 30
0.0
 11
3.583929567496412
 21
5.946422591812793
 31
0.0
 12
3.587347688324673
 22
5.946425818620353
 32
0.0
 13
3.587347688324673
 23
5.946425818620353
 33
0.0
  0
ENDBLK
  5
15BE
330
153C
100
AcDbEntity
  8
0
100
AcDbBlockEnd
  0
ENDSEC
  0
SECTION
  2
ENTITIES
  0
CIRCLE
  5
EA8
330
10C1
100
AcDbEntity
  8
text_bubbles
100
AcDbCircle
 10
0.239390207270354
 20
7.405907723680717
 30
0.0
 40
0.15625
  0
TEXT
  5
EAB
330
10C1
100
AcDbEntity
  8
text_bubbles
100
AcDbText
 10
4.947793607510662
 20
6.792789551894077
 30
0.0
 40
0.125
  1
3
  7
ROMANS
 72
     4
 11
5.007317417034472
 21
6.855289551894077
 31
0.0
100
AcDbText
  0
CIRCLE
  5
EAC
330
10C1
100
AcDbEntity
  8
text_bubbles
100
AcDbCircle
 10
5.007317417034472
 20
6.855289551894077
 30
0.0
 40
0.15625
  0
CIRCLE
  5
EBB
330
10C1
100
AcDbEntity
  8
text_bubbles
100
AcDbCircle
 10
0.2311814704258902
 20
5.950980551030913
 30
0.0
 40
0.15625
  0
TEXT
  5
EBC
330
10C1
100
AcDbEntity
  8
text_bubbles
100
AcDbText
 10
0.1716576609020807
 20
5.888480551030913
 30
0.0
 40
0.125
  1
3
  7
ROMANS
 72
     4
 11
0.2311814704258902
 21
5.950980551030913
 31
0.0
100
AcDbText
  0
TEXT
  5
EC2
330
10C1
100
AcDbEntity
  8
text_bubbles
100
AcDbText
 10
4.944817417034472
 20
5.061418713440027
 30
0.0
 40
0.125
  1
6
  7
ROMANS
 72
     4
 11
5.007317417034472
 21
5.123918713440027
 31
0.0
100
AcDbText
  0
CIRCLE
  5
EC3
330
10C1
100
AcDbEntity
  8
text_bubbles
100
AcDbCircle
 10
5.007317417034472
 20
5.123918713440027
 30
0.0
 40
0.15625
  0
CIRCLE
  5
ECE
330
10C1
100
AcDbEntity
  8
text_bubbles
100
AcDbCircle
 10
5.007317417034472
 20
6.414957924422395
 30
0.0
 40
0.15625
  0
CIRCLE
  5
ECF
330
10C1
100
AcDbEntity
  8
text_bubbles
100
AcDbCircle
 10
5.007317417034472
 20
5.552241097714995
 30
0.0
 40
0.15625
  0
CIRCLE
  5
ED1
330
10C1
100
AcDbEntity
  8
text_bubbles
100
AcDbCircle
 10
3.928517425934837
 20
5.743737080303025
 30
0.0
 40
0.15625
  0
TEXT
  5
ED2
330
10C1
100
AcDbEntity
  8
text_bubbles
100
AcDbText
 10
3.866017425934837
 20
5.681237080303025
 30
0.0
 40
0.125
  1
6
  7
ROMANS
 72
     4
 11
3.928517425934837
 21
5.743737080303025
 31
0.0
100
AcDbText
  0
CIRCLE
  5
ED4
330
10C1
100
AcDbEntity
  8
text_bubbles
100
AcDbCircle
 10
3.928469246388485
 20
8.02770313996206
 30
0.0
 40
0.15625
  0
TEXT
  5
ED5
330
10C1
100
AcDbEntity
  8
text_bubbles
100
AcDbText
 10
3.865969246388485
 20
7.96520313996206
 30
0.0
 40
0.125
  1
4
  7
ROMANS
 72
     4
 11
3.928469246388485
 21
8.02770313996206
 31
0.0
100
AcDbText
  0
TEXT
  5
ED6
330
10C1
100
AcDbEntity
  8
text_bubbles
100
AcDbText
 10
4.947793607510662
 20
5.489741097714995
 30
0.0
 40
0.125
  1
5
  7
ROMANS
 72
     4
 11
5.007317417034472
 21
5.552241097714995
 31
0.0
100
AcDbText
  0
TEXT
  5
ED7
330
10C1
100
AcDbEntity
  8
text_bubbles
100
AcDbText
 10
4.944817417034472
 20
6.352457924422395
 30
0.0
 40
0.125
  1
4
  7
ROMANS
 72
     4
 11
5.007317417034472
 21
6.414957924422395
 31
0.0
100
AcDbText
  0
CIRCLE
  5
EDC
330
10C1
100
AcDbEntity
  8
text_bubbles
100
AcDbCircle
 10
0.2309317540301676
 20
8.114315565028483
 30
0.0
 40
0.15625
  0
TEXT
  5
EDD
330
10C1
100
AcDbEntity
  8
text_bubbles
100
AcDbText
 10
0.1798663977465445
 20
7.343407723680717
 30
0.0
 40
0.125
  1
2
  7
ROMANS
 72
     4
 11
0.239390207270354
 21
7.405907723680717
 31
0.0
100
AcDbText
  0
TEXT
  5
EDE
330
10C1
100
AcDbEntity
  8
text_bubbles
100
AcDbText
 10
0.1803365159349295
 20
8.051815565028483
 30
0.0
 40
0.125
  1
1
  7
ROMANS
 72
     4
 11
0.2309317540301676
 21
8.114315565028483
 31
0.0
100
AcDbText
  0
CIRCLE
  5
EDF
330
10C1
100
AcDbEntity
  8
text_bubbles
100
AcDbCircle
 10
5.007317417034472
 20
7.341135120944254
 30
0.0
 40
0.15625
  0
CIRCLE
  5
EE0
330
10C1
100
AcDbEntity
  8
text_bubbles
100
AcDbCircle
 10
5.007317417034472
 20
7.691135120944252
 30
0.0
 40
0.15625
  0
TEXT
  5
EE1
330
10C1
100
AcDbEntity
  8
text_bubbles
100
AcDbText
 10
4.947793607510662
 20
7.278635120944254
 30
0.0
 40
0.125
  1
2
  7
ROMANS
 72
     4
 11
5.007317417034472
 21
7.341135120944254
 31
0.0
100
AcDbText
  0
TEXT
  5
EE2
330
10C1
100
AcDbEntity
  8
text_bubbles
100
AcDbText
 10
4.956722178939234
 20
7.628635120944252
 30
0.0
 40
0.125
  1
1
  7
ROMANS
 72
     4
 11
5.007317417034472
 21
7.691135120944252
 31
0.0
100
AcDbText
  0
LEADER
  5
1149
330
10C1
100
AcDbEntity
  8
text_bubbles
100
AcDbLeader
  3
STANDARD
 76
     2
 10
0.622248440693411
 20
7.880483221570487
 30
0.0
 10
0.3532467270836962
 20
7.512915926151341
 30
0.0
  0
LEADER
  5
114A
330
10C1
100
AcDbEntity
  8
text_bubbles
100
AcDbLeader
  3
STANDARD
 76
     2
 10
0.846635015515355
 20
8.248033881464959
 30
0.0
 10
0.3870805400444418
 20
8.139370734920236
 30
0.0
  0
LEADER
  5
114D
330
10C1
100
AcDbEntity
  8
text_bubbles
100
AcDbLeader
  3
STANDARD
 76
     2
 10
2.350890525556797
 20
6.059818871108247
 30
0.0
 10
3.772724311594312
 20
5.755677265564571
 30
0.0
  0
LEADER
  5
114E
330
10C1
100
AcDbEntity
  8
text_bubbles
100
AcDbLeader
  3
STANDARD
 76
     2
 10
1.509096356848669
 20
5.758337516865327
 30
0.0
 10
0.3860816744615513
 20
5.930486910804966
 30
0.0
  0
LEADER
  5
1150
330
10C1
100
AcDbEntity
  8
text_bubbles
100
AcDbLeader
  3
STANDARD
 76
     2
 10
3.025900927728385
 20
7.473484323020687
 30
0.0
 10
3.770810007164325
 20
7.056579180969064
 30
0.0
  0
LEADER
  5
1151
330
10C1
100
AcDbEntity
  8
text_bubbles
100
AcDbLeader
  3
STANDARD
 76
     2
 10
3.499410578353304
 20
7.678990308330439
 30
0.0
 10
3.825405590721883
 20
7.910264026457928
 30
0.0
  0
TEXT
  5
118C
330
10C1
100
AcDbEntity
  8
text_bubbles
100
AcDbText
 10
3.865296623028645
 20
6.967719147361967
 30
0.0
 40
0.125
  1
5
  7
ROMANS
 72
     4
 11
3.924820432552454
 21
7.030219147361967
 31
0.0
100
AcDbText
  0
CIRCLE
  5
118D
330
10C1
100
AcDbEntity
  8
text_bubbles
100
AcDbCircle
 10
3.924820432552454
 20
7.030219147361967
 30
0.0
 40
0.15625
  0
INSERT
  5
11A4
330
10C1
100
AcDbEntity
  8
title
100
AcDbBlockReference
 66
     1
  2
titleblock
 10
-0.4984554492313005
 20
-1.274218755967127
 30
0.0
  0
ATTRIB
  5
11A5
330
11A4
100
AcDbEntity
  8
title
100
AcDbText
 10
0.0071001545710415
 20
-0.48999165948876
 30
0.0
 40
0.2
  1
D
  7
L200
 72
     4
 11
0.1079869212831834
 21
-0.3899916594887599
 31
0.0
100
AcDbAttribute
  2
D
 70
     0
  0
ATTRIB
  5
11A6
330
11A4
100
AcDbEntity
  8
title
100
AcDbText
 10
0.7329869212831837
 20
0.0694935467796234
 30
0.0
 40
0.2
  1
XERI-POP MICRO-SPRAY 12" FROM
  7
L200
100
AcDbAttribute
  2
TITLE1
 70
     0
  0
ATTRIB
  5
11A7
330
11A4
100
AcDbEntity
  8
title
100
AcDbText
 10
0.7329869212831837
 20
-0.2899916594887597
 30
0.0
 40
0.2
  1
BARBED CONNECTOR INTO 1/2" 
  7
L200
100
AcDbAttribute
  2
TITLE2
 70
     0
  0
ATTRIB
  5
11A8
330
11A4
100
AcDbEntity
  8
title
100
AcDbText
 10
2.215190301937012
 20
-0.6814259895088083
 30
0.0
 40
0.2
  1
POLYETHYLENE TUBING - OPTION 1C
  7
L200
100
AcDbAttribute
  2
TITLE3
 70
     0
  0
ATTRIB
  5
11A9
330
11A4
100
AcDbEntity
  8
title
100
AcDbText
 10
2.215190301937012
 20
-1.004962675150353
 30
0.0
 40
0.2
  1

  7
L200
100
AcDbAttribute
  2
TITLE4
 70
     0
  0
ATTRIB
  5
11AA
330
11A4
100
AcDbEntity
  8
title
 62
     7
100
AcDbText
 10
7.194949856925554
 20
-0.3046159644224873
 30
0.0
 40
0.08
  1
1-21-10
  7
L80
 72
     2
 11
7.762568904544602
 21
-0.3046159644224873
 31
0.0
100
AcDbAttribute
  2
REVISED
 70
     0
  0
ATTRIB
  5
11AB
330
11A4
100
AcDbEntity
  8
title
 62
     7
100
AcDbText
 10
-0.2345130787168166
 20
-1.189507107946405
 30
0.0
 40
0.08
  1
Xeri-Pop 12 Option 1C.dwg
  7
L80
100
AcDbAttribute
  2
DWG-NAME
 70
     0
  0
ATTRIB
  5
11AC
330
11A4
100
AcDbEntity
  8
title
 62
     7
100
AcDbText
 10
0.7329869212831837
 20
-0.5736549765716378
 30
0.0
 40
0.1
  1
N.T.S.
  7
L100
100
AcDbAttribute
  2
SCALE
 70
     0
  0
SEQEND
  5
11AD
330
11A4
100
AcDbEntity
  8
title
  0
MTEXT
  5
12DA
102
{ACAD_XDICTIONARY
360
1F93
102
}
330
10C1
100
AcDbEntity
  8
text_bubbles
100
AcDbMText
 10
5.296680084347973
 20
7.749776651479268
 30
0.0
 40
0.125
 41
4.202295919515166
 71
     1
 72
     5
  3
\A1;PLANT MATERIAL \P\PFINISH GRADE \P\P\pi-0.25,l0.25;MICRO-SPRAY POP-UP:\P\pt0.25;^IRAIN BIRD XERI-POP XP-1200X \P\pi0,l0,tz;{\Fromans|c0;\H0.7x;\S1#2;\H1.4286x;" POLYETHYLENE TUBING:\P\pi-0.25,l0.25;  RAIN BIRD XF SERIES TUBING OR\P\pi0,l0;  RAIN B
  3
IRD XT-700 XERI-TUBE OR\P  RAIN BIRD XBS BLACK STRIPE TUBING \H0.99998x;\P\Fsimplex|c0;\H0.7x;\S1#4;}" SELF-PIERCING BARB CONNECTOR:\P\pt0.25;^IRAIN BIRD SPB-025   \P\pi-0.25,l0.25,tz;{\Fromans|c0;\H0.7x;\S1#4;\H1.4286x;" DISTRIBUTION TUBING:  \P  RAI
  1
N BIRD XQ TUBING\P  (LENGTH AS REQUIRED)}
  7
SIMPLEX
 73
     1
 44
1.0
  0
MTEXT
  5
1352
330
10C1
100
AcDbEntity
  8
image
100
AcDbMText
 10
3.45210730906961
 20
3.2447527796071
 30
0.0
 40
0.125
 41
6.253746649076679
 71
     1
 72
     5
  1
NOTE:\P1. RAIN BIRD XERI-POP CAN UTILIZE THE FOLLOWING NOZZLES:\P^ISQ SQUARE NOZZLES (FORMERLY XPCN)\P^I5 SERIES MPR NOZZLES (ALL CONFIGURATIONS)\P^I5 SERIES PLASTIC BUBBLERS\P^I8 SERIES MPR NOZZLES (8H, 8T AND 8Q)
  7
ROMANS
 73
     1
 44
1.0
  0
LWPOLYLINE
  5
183A
330
10C1
100
AcDbEntity
  8
image
100
AcDbPolyline
 90
        2
 70
     0
 43
0.0
 10
2.117740606349576
 20
1.668545077016589
 10
2.184212989189663
 20
1.630162722465997
  0
LWPOLYLINE
  5
193B
330
10C1
100
AcDbEntity
  8
image
100
AcDbPolyline
 90
        4
 70
     1
 43
0.0
 10
2.947395547689299
 20
7.823383039365795
 10
3.097962984134573
 20
7.823383039365795
 10
3.097962984134573
 20
7.48280060932538
 10
2.947395547689299
 20
7.48280060932538
  0
LWPOLYLINE
  5
193C
330
10C1
100
AcDbEntity
  8
image
100
AcDbPolyline
 90
        2
 70
     0
 43
0.0
 10
3.113318751383855
 20
7.691470799127644
 10
3.097962984134573
 20
7.691470799127644
  0
LWPOLYLINE
  5
193D
330
10C1
100
AcDbEntity
  8
image
100
AcDbPolyline
 90
        2
 70
     0
 43
0.0
 10
3.113318751383855
 20
7.614712849563533
 10
3.097962984134573
 20
7.614712849563533
  0
ARC
  5
193E
330
10C1
100
AcDbEntity
  8
image
100
AcDbCircle
 10
3.312447783384252
 20
7.653091824345588
 30
0.0
 40
0.2027937797141143
100
AcDbArc
 50
270.0
 51
90.0
  0
ARC
  5
193F
330
10C1
100
AcDbEntity
  8
image
100
AcDbCircle
 10
3.312447783384252
 20
7.653091824345588
 30
0.0
 40
0.2027937797141145
100
AcDbArc
 50
90.0
 51
270.0
  0
LWPOLYLINE
  5
1940
330
10C1
100
AcDbEntity
  8
image
100
AcDbPolyline
 90
        3
 70
     0
 43
0.0
 10
3.312447783384252
 20
7.855885604059702
 42
-1.0
 10
3.312447783384252
 20
7.653091824345588
 42
0.9999999999999998
 10
3.312447783384252
 20
7.450298044631475
 42
0.9999999999999998
  0
INSERT
  5
1941
330
10C1
100
AcDbEntity
  8
image
  6
Continuous
100
AcDbBlockReference
  2
*U1
 10
-0.2631084953148349
 20
1.9091166904605
 30
0.0
1001
ACAD
1002
{
1000
R14_HATCH_DATA
1000
9BB
1011
0.7368915046851651
1021
1.9091166904605
1031
0.0
1011
-0.2631084953148349
1021
2.9091166904605
1031
0.0
1011
-0.2631084953148349
1021
1.9091166904605
1031
1.0
1040
0.0
1010
0.0
1020
0.0
1030
1.0
1000
SOLID
1070
     1
1070
     0
1071
        1
1071
        1
1071
        3
1070
     2
1040
3.575556278699087
1040
5.743975133885086
1040
0.2027937797141143
1040
4.712388980384689
1040
7.853981633974482
1070
     1
1070
     2
1040
3.575556278699087
1040
5.845372023742145
1040
0.1013968898570573
1040
4.712388980384689
1040
7.853981633974482
1070
     0
1070
     2
1040
3.575556278699087
1040
5.64257824402803
1040
0.1013968898570573
1040
1.570796326794896
1040
4.712388980384689
1070
     1
1071
        0
1070
     0
1070
     1
1071
        1
1040
0.7257944738444284
1040
2.319832996340417
1040
0.0
1002
}
  0
LWPOLYLINE
  5
1942
330
10C1
100
AcDbEntity
  8
image
100
AcDbPolyline
 90
        2
 70
     0
 43
0.0
 10
2.155090379502038
 20
7.880498131019109
 10
3.608608778889144
 20
7.880498131019109
  0
LWPOLYLINE
  5
1943
330
10C1
100
AcDbEntity
  8
image
100
AcDbPolyline
 90
        2
 70
     0
 43
0.0
 10
1.53004105846538
 20
7.880498131019107
 10
0.5694220671441621
 20
7.880498131019107
  0
ARC
  5
1944
330
10C1
100
AcDbEntity
  8
image
100
AcDbCircle
 10
1.370765124883438
 20
8.119796750811248
 30
0.0
 40
0.0852652261114122
100
AcDbArc
 50
116.0563205359582
 51
205.254994024374
  0
ARC
  5
1945
330
10C1
100
AcDbEntity
  8
image
100
AcDbCircle
 10
1.256196594585053
 20
8.160017648034999
 30
0.0
 40
0.0852652261114122
100
AcDbArc
 50
296.0563205359582
 51
25.25499402437389
  0
ARC
  5
1946
330
10C1
100
AcDbEntity
  8
image
100
AcDbCircle
 10
1.002581784754644
 20
8.087953893367631
 30
0.0
 40
0.0852652261114122
100
AcDbArc
 50
116.0563205359582
 51
205.254994024374
  0
ARC
  5
1947
330
10C1
100
AcDbEntity
  8
image
100
AcDbCircle
 10
0.888013254456259
 20
8.128174790591382
 30
0.0
 40
0.0852652261114122
100
AcDbArc
 50
296.0563205359582
 51
25.25499402437389
  0
ARC
  5
1948
330
10C1
100
AcDbEntity
  8
image
100
AcDbCircle
 10
1.052336290177454
 20
8.326775324194763
 30
0.0
 40
0.0852652261114122
100
AcDbArc
 50
116.0563205359582
 51
205.254994024374
  0
ARC
  5
1949
330
10C1
100
AcDbEntity
  8
image
100
AcDbCircle
 10
0.9377677598790693
 20
8.366996221418514
 30
0.0
 40
0.0852652261114122
100
AcDbArc
 50
296.0563205359582
 51
25.25499402437389
  0
ARC
  5
194A
330
10C1
100
AcDbEntity
  8
image
100
AcDbCircle
 10
1.060297011045104
 20
8.412353003574484
 30
0.0
 40
0.0852652261114122
100
AcDbArc
 50
116.0563205359582
 51
205.254994024374
  0
ARC
  5
194B
330
10C1
100
AcDbEntity
  8
image
100
AcDbCircle
 10
0.9457284807467182
 20
8.452573900798235
 30
0.0
 40
0.0852652261114122
100
AcDbArc
 50
296.0563205359582
 51
25.25499402437389
  0
ARC
  5
194C
330
10C1
100
AcDbEntity
  8
image
100
AcDbCircle
 10
1.149855120806162
 20
8.310853895472954
 30
0.0
 40
0.0852652261114122
100
AcDbArc
 50
116.0563205359582
 51
205.254994024374
  0
ARC
  5
194D
330
10C1
100
AcDbEntity
  8
image
100
AcDbCircle
 10
1.035286590507776
 20
8.351074792696705
 30
0.0
 40
0.0852652261114122
100
AcDbArc
 50
296.0563205359582
 51
25.25499402437389
  0
ARC
  5
194E
330
10C1
100
AcDbEntity
  8
image
100
AcDbCircle
 10
1.295138276640768
 20
8.30289318111205
 30
0.0
 40
0.0852652261114122
100
AcDbArc
 50
116.0563205359582
 51
205.254994024374
  0
ARC
  5
194F
330
10C1
100
AcDbEntity
  8
image
100
AcDbCircle
 10
1.180569746342382
 20
8.343114078335801
 30
0.0
 40
0.0852652261114122
100
AcDbArc
 50
296.0563205359582
 51
25.25499402437389
  0
ARC
  5
1950
330
10C1
100
AcDbEntity
  8
image
100
AcDbCircle
 10
1.26329539317017
 20
8.197413715830066
 30
0.0
 40
0.0852652261114122
100
AcDbArc
 50
116.0563205359582
 51
205.254994024374
  0
ARC
  5
1951
330
10C1
100
AcDbEntity
  8
image
100
AcDbCircle
 10
1.148726862871784
 20
8.237634613053819
 30
0.0
 40
0.0852652261114122
100
AcDbArc
 50
296.0563205359582
 51
25.25499402437389
  0
ARC
  5
1952
330
10C1
100
AcDbEntity
  8
image
100
AcDbCircle
 10
1.438431252258461
 20
8.081983357596953
 30
0.0
 40
0.0852652261114122
100
AcDbArc
 50
116.0563205359582
 51
205.254994024374
  0
ARC
  5
1953
330
10C1
100
AcDbEntity
  8
image
100
AcDbCircle
 10
1.323862721960075
 20
8.122204254820704
 30
0.0
 40
0.0852652261114122
100
AcDbArc
 50
296.0563205359582
 51
25.25499402437389
  0
ARC
  5
1954
330
10C1
100
AcDbEntity
  8
image
100
AcDbCircle
 10
1.030444307791417
 20
8.207364608781196
 30
0.0
 40
0.0852652261114122
100
AcDbArc
 50
116.0563205359582
 51
205.254994024374
  0
ARC
  5
1955
330
10C1
100
AcDbEntity
  8
image
100
AcDbCircle
 10
0.9158757774930318
 20
8.247585506004947
 30
0.0
 40
0.0852652261114122
100
AcDbArc
 50
296.0563205359582
 51
25.25499402437389
  0
ARC
  5
1956
330
10C1
100
AcDbEntity
  8
image
100
AcDbCircle
 10
1.211550707530446
 20
8.030238714251074
 30
0.0
 40
0.0852652261114122
100
AcDbArc
 50
116.0563205359582
 51
205.254994024374
  0
ARC
  5
1957
330
10C1
100
AcDbEntity
  8
image
100
AcDbCircle
 10
1.096982177232061
 20
8.070459611474827
 30
0.0
 40
0.0852652261114122
100
AcDbArc
 50
296.0563205359582
 51
25.25499402437389
  0
ARC
  5
1958
330
10C1
100
AcDbEntity
  8
image
100
AcDbCircle
 10
1.223491788831921
 20
7.94665121346158
 30
0.0
 40
0.0852652261114122
100
AcDbArc
 50
116.0563205359582
 51
205.254994024374
  0
ARC
  5
1959
330
10C1
100
AcDbEntity
  8
image
100
AcDbCircle
 10
1.108923258533536
 20
7.986872110685331
 30
0.0
 40
0.0852652261114122
100
AcDbArc
 50
296.0563205359582
 51
25.25499402437389
  0
ARC
  5
195A
330
10C1
100
AcDbEntity
  8
image
100
AcDbCircle
 10
1.315040078809892
 20
8.034219071431527
 30
0.0
 40
0.0852652261114122
100
AcDbArc
 50
116.0563205359582
 51
205.254994024374
  0
ARC
  5
195B
330
10C1
100
AcDbEntity
  8
image
100
AcDbCircle
 10
1.200471548511506
 20
8.074439968655278
 30
0.0
 40
0.0852652261114122
100
AcDbArc
 50
296.0563205359582
 51
25.25499402437389
  0
ARC
  5
195C
330
10C1
100
AcDbEntity
  8
image
100
AcDbCircle
 10
1.459123307487257
 20
7.960364632139858
 30
0.0
 40
0.0852652261114122
100
AcDbArc
 50
143.5307656099477
 51
232.7294390983635
  0
ARC
  5
195D
330
10C1
100
AcDbEntity
  8
image
100
AcDbCircle
 10
1.338920165539754
 20
7.943192754718786
 30
0.0
 40
0.0852652261114122
100
AcDbArc
 50
323.5307656099477
 51
52.72943909836341
  0
ARC
  5
195E
330
10C1
100
AcDbEntity
  8
image
100
AcDbCircle
 10
1.195701748940523
 20
8.420154988875976
 30
0.0
 40
0.0852652261114122
100
AcDbArc
 50
143.5307656099477
 51
232.7294390983635
  0
ARC
  5
195F
330
10C1
100
AcDbEntity
  8
image
100
AcDbCircle
 10
1.075498606993021
 20
8.402983111454904
 30
0.0
 40
0.0852652261114122
100
AcDbArc
 50
323.5307656099477
 51
52.72943909836341
  0
ARC
  5
1960
330
10C1
100
AcDbEntity
  8
image
100
AcDbCircle
 10
1.090333125521829
 20
8.247733605099931
 30
0.0
 40
0.0852652261114122
100
AcDbArc
 50
143.5307656099477
 51
232.7294390983635
  0
ARC
  5
1961
330
10C1
100
AcDbEntity
  8
image
100
AcDbCircle
 10
0.9701299835743281
 20
8.23056172767886
 30
0.0
 40
0.0852652261114122
100
AcDbArc
 50
323.5307656099477
 51
52.72943909836341
  0
ARC
  5
1962
330
10C1
100
AcDbEntity
  8
image
100
AcDbCircle
 10
1.042438296695151
 20
8.032206875379877
 30
0.0
 40
0.0852652261114122
100
AcDbArc
 50
143.5307656099477
 51
232.7294390983635
  0
ARC
  5
1963
330
10C1
100
AcDbEntity
  8
image
100
AcDbCircle
 10
0.9222351547476485
 20
8.015034997958805
 30
0.0
 40
0.0852652261114122
100
AcDbArc
 50
323.5307656099477
 51
52.72943909836341
  0
ARC
  5
1964
330
10C1
100
AcDbEntity
  8
image
100
AcDbCircle
 10
1.018490882281811
 20
7.965154115022526
 30
0.0
 40
0.0852652261114122
100
AcDbArc
 50
143.5307656099477
 51
232.7294390983635
  0
ARC
  5
1965
330
10C1
100
AcDbEntity
  8
image
100
AcDbCircle
 10
0.8982877403343096
 20
7.947982237601454
 30
0.0
 40
0.0852652261114122
100
AcDbArc
 50
323.5307656099477
 51
52.72943909836341
  0
ARC
  5
1966
330
10C1
100
AcDbEntity
  8
image
100
AcDbCircle
 10
1.099912091287166
 20
7.955575149257191
 30
0.0
 40
0.0852652261114122
100
AcDbArc
 50
143.5307656099477
 51
232.7294390983635
  0
ARC
  5
1967
330
10C1
100
AcDbEntity
  8
image
100
AcDbCircle
 10
0.9797089493396645
 20
7.93840327183612
 30
0.0
 40
0.0852652261114122
100
AcDbArc
 50
323.5307656099477
 51
52.72943909836341
  0
ARC
  5
1968
330
10C1
100
AcDbEntity
  8
image
100
AcDbCircle
 10
1.143017437231176
 20
8.147154464563906
 30
0.0
 40
0.0852652261114122
100
AcDbArc
 50
143.5307656099477
 51
232.7294390983635
  0
ARC
  5
1969
330
10C1
100
AcDbEntity
  8
image
100
AcDbCircle
 10
1.022814295283674
 20
8.129982587142833
 30
0.0
 40
0.0852652261114122
100
AcDbArc
 50
323.5307656099477
 51
52.72943909836341
  0
ARC
  5
196A
330
10C1
100
AcDbEntity
  8
image
100
AcDbCircle
 10
1.219649163353862
 20
8.214207224921256
 30
0.0
 40
0.0852652261114122
100
AcDbArc
 50
143.5307656099477
 51
232.7294390983635
  0
ARC
  5
196B
330
10C1
100
AcDbEntity
  8
image
100
AcDbCircle
 10
1.099446021406361
 20
8.197035347500186
 30
0.0
 40
0.0852652261114122
100
AcDbArc
 50
323.5307656099477
 51
52.72943909836341
  0
ARC
  5
196C
330
10C1
100
AcDbEntity
  8
image
100
AcDbCircle
 10
1.392070547129906
 20
8.286049468161275
 30
0.0
 40
0.0852652261114122
100
AcDbArc
 50
143.5307656099477
 51
232.7294390983635
  0
ARC
  5
196D
330
10C1
100
AcDbEntity
  8
image
100
AcDbCircle
 10
1.271867405182404
 20
8.268877590740203
 30
0.0
 40
0.0852652261114122
100
AcDbArc
 50
323.5307656099477
 51
52.72943909836341
  0
ARC
  5
196E
330
10C1
100
AcDbEntity
  8
image
100
AcDbCircle
 10
1.368123132716567
 20
8.238154639334595
 30
0.0
 40
0.0852652261114122
100
AcDbArc
 50
143.5307656099477
 51
232.7294390983635
  0
ARC
  5
196F
330
10C1
100
AcDbEntity
  8
image
100
AcDbCircle
 10
1.247919990769065
 20
8.220982761913525
 30
0.0
 40
0.0852652261114122
100
AcDbArc
 50
323.5307656099477
 51
52.72943909836341
  0
ARC
  5
1970
330
10C1
100
AcDbEntity
  8
image
100
AcDbCircle
 10
1.329807269655223
 20
8.151943947446573
 30
0.0
 40
0.0852652261114122
100
AcDbArc
 50
143.5307656099477
 51
232.7294390983635
  0
ARC
  5
1971
330
10C1
100
AcDbEntity
  8
image
100
AcDbCircle
 10
1.209604127707722
 20
8.134772070025503
 30
0.0
 40
0.0852652261114122
100
AcDbArc
 50
323.5307656099477
 51
52.72943909836341
  0
ARC
  5
1972
330
10C1
100
AcDbEntity
  8
image
100
AcDbCircle
 10
1.262754509297873
 20
8.032206875379877
 30
0.0
 40
0.0852652261114122
100
AcDbArc
 50
143.5307656099477
 51
232.7294390983635
  0
ARC
  5
1973
330
10C1
100
AcDbEntity
  8
image
100
AcDbCircle
 10
1.142551367350371
 20
8.015034997958805
 30
0.0
 40
0.0852652261114122
100
AcDbArc
 50
323.5307656099477
 51
52.72943909836341
  0
ARC
  5
1974
330
10C1
100
AcDbEntity
  8
image
100
AcDbCircle
 10
1.162175368761847
 20
7.955575149257191
 30
0.0
 40
0.0852652261114122
100
AcDbArc
 50
143.5307656099477
 51
232.7294390983635
  0
ARC
  5
1975
330
10C1
100
AcDbEntity
  8
image
100
AcDbCircle
 10
1.041972226814346
 20
7.93840327183612
 30
0.0
 40
0.0852652261114122
100
AcDbArc
 50
323.5307656099477
 51
52.72943909836341
  0
ARC
  5
1976
330
10C1
100
AcDbEntity
  8
image
100
AcDbCircle
 10
1.320228303889888
 20
7.945996183491855
 30
0.0
 40
0.0852652261114122
100
AcDbArc
 50
143.5307656099477
 51
232.7294390983635
  0
ARC
  5
1977
330
10C1
100
AcDbEntity
  8
image
100
AcDbCircle
 10
1.200025161942386
 20
7.928824306070783
 30
0.0
 40
0.0852652261114122
100
AcDbArc
 50
323.5307656099477
 51
52.72943909836341
  0
ARC
  5
1978
330
10C1
100
AcDbEntity
  8
image
100
AcDbCircle
 10
1.406438995777909
 20
7.974733080787862
 30
0.0
 40
0.0852652261114122
100
AcDbArc
 50
143.5307656099477
 51
232.7294390983635
  0
ARC
  5
1979
330
10C1
100
AcDbEntity
  8
image
100
AcDbCircle
 10
1.286235853830409
 20
7.95756120336679
 30
0.0
 40
0.0852652261114122
100
AcDbArc
 50
323.5307656099477
 51
52.72943909836341
  0
ARC
  5
197A
330
10C1
100
AcDbEntity
  8
image
100
AcDbCircle
 10
1.483070721900596
 20
8.147154464563906
 30
0.0
 40
0.0852652261114122
100
AcDbArc
 50
143.5307656099477
 51
232.7294390983635
  0
ARC
  5
197B
330
10C1
100
AcDbEntity
  8
image
100
AcDbCircle
 10
1.362867579953095
 20
8.129982587142833
 30
0.0
 40
0.0852652261114122
100
AcDbArc
 50
323.5307656099477
 51
52.72943909836341
  0
ARC
  5
197C
330
10C1
100
AcDbEntity
  8
image
100
AcDbCircle
 10
1.27233347506321
 20
8.410576023110641
 30
0.0
 40
0.0852652261114122
100
AcDbArc
 50
143.5307656099477
 51
232.7294390983635
  0
ARC
  5
197D
330
10C1
100
AcDbEntity
  8
image
100
AcDbCircle
 10
1.152130333115707
 20
8.393404145689569
 30
0.0
 40
0.0852652261114122
100
AcDbArc
 50
323.5307656099477
 51
52.72943909836341
  0
ARC
  5
197E
330
10C1
100
AcDbEntity
  8
image
100
AcDbCircle
 10
1.339386235420561
 20
8.300417916809278
 30
0.0
 40
0.0852652261114122
100
AcDbArc
 50
143.5307656099477
 51
232.7294390983635
  0
ARC
  5
197F
330
10C1
100
AcDbEntity
  8
image
100
AcDbCircle
 10
1.219183093473058
 20
8.283246039388208
 30
0.0
 40
0.0852652261114122
100
AcDbArc
 50
323.5307656099477
 51
52.72943909836341
  0
ARC
  5
1980
330
10C1
100
AcDbEntity
  8
image
100
AcDbCircle
 10
1.090333125521829
 20
8.348312745635958
 30
0.0
 40
0.0852652261114122
100
AcDbArc
 50
143.5307656099477
 51
232.7294390983635
  0
ARC
  5
1981
330
10C1
100
AcDbEntity
  8
image
100
AcDbCircle
 10
0.9701299835743281
 20
8.331140868214886
 30
0.0
 40
0.0852652261114122
100
AcDbArc
 50
323.5307656099477
 51
52.72943909836341
  0
ARC
  5
1982
330
10C1
100
AcDbEntity
  8
image
100
AcDbCircle
 10
1.479425749485937
 20
8.060105475960462
 30
0.0
 40
0.0852652261114122
100
AcDbArc
 50
159.7199718669748
 51
248.9186453553905
  0
ARC
  5
1983
330
10C1
100
AcDbEntity
  8
image
100
AcDbCircle
 10
1.368776810162673
 20
8.010100666843218
 30
0.0
 40
0.0852652261114122
100
AcDbArc
 50
339.7199718669747
 51
68.91864535539045
  0
ARC
  5
1984
330
10C1
100
AcDbEntity
  8
image
100
AcDbCircle
 10
1.398004540480584
 20
8.184632030909826
 30
0.0
 40
0.0852652261114122
100
AcDbArc
 50
159.7199718669748
 51
248.9186453553905
  0
ARC
  5
1985
330
10C1
100
AcDbEntity
  8
image
100
AcDbCircle
 10
1.287355601157319
 20
8.134627221792582
 30
0.0
 40
0.0852652261114122
100
AcDbArc
 50
339.7199718669747
 51
68.91864535539045
  0
ARC
  5
1986
330
10C1
100
AcDbEntity
  8
image
100
AcDbCircle
 10
1.2016357422912
 20
8.155895133613819
 30
0.0
 40
0.0852652261114122
100
AcDbArc
 50
159.7199718669748
 51
248.9186453553905
  0
ARC
  5
1987
330
10C1
100
AcDbEntity
  8
image
100
AcDbCircle
 10
1.090986802967936
 20
8.105890324496574
 30
0.0
 40
0.0852652261114122
100
AcDbArc
 50
339.7199718669747
 51
68.91864535539045
  0
ARC
  5
1988
330
10C1
100
AcDbEntity
  8
image
100
AcDbCircle
 10
1.168109362112525
 20
8.074473924608465
 30
0.0
 40
0.0852652261114122
100
AcDbArc
 50
159.7199718669748
 51
248.9186453553905
  0
ARC
  5
1989
330
10C1
100
AcDbEntity
  8
image
100
AcDbCircle
 10
1.05746042278926
 20
8.024469115491219
 30
0.0
 40
0.0852652261114122
100
AcDbArc
 50
339.7199718669747
 51
68.91864535539045
  0
ARC
  5
198A
330
10C1
100
AcDbEntity
  8
image
100
AcDbCircle
 10
1.070909672156454
 20
8.140397172549246
 30
0.0
 40
0.0852652261114122
100
AcDbArc
 50
159.7199718669748
 51
248.9186453553905
  0
ARC
  5
198B
330
10C1
100
AcDbEntity
  8
image
100
AcDbCircle
 10
0.9602607328331899
 20
8.090392363432
 30
0.0
 40
0.0852652261114122
100
AcDbArc
 50
339.7199718669747
 51
68.91864535539045
  0
ARC
  5
198C
330
10C1
100
AcDbEntity
  8
image
100
AcDbCircle
 10
1.2016357422912
 20
8.299579620093854
 30
0.0
 40
0.0852652261114122
100
AcDbArc
 50
159.7199718669748
 51
248.9186453553905
  0
ARC
  5
198D
330
10C1
100
AcDbEntity
  8
image
100
AcDbCircle
 10
1.090986802967936
 20
8.249574810976611
 30
0.0
 40
0.0852652261114122
100
AcDbArc
 50
339.7199718669747
 51
68.91864535539045
  0
ARC
  5
198E
330
10C1
100
AcDbEntity
  8
image
100
AcDbCircle
 10
1.359688677419241
 20
8.409737726395217
 30
0.0
 40
0.0852652261114122
100
AcDbArc
 50
159.7199718669748
 51
248.9186453553905
  0
ARC
  5
198F
330
10C1
100
AcDbEntity
  8
image
100
AcDbCircle
 10
1.249039738095975
 20
8.359732917277973
 30
0.0
 40
0.0852652261114122
100
AcDbArc
 50
339.7199718669747
 51
68.91864535539045
  0
ARC
  5
1990
330
10C1
100
AcDbEntity
  8
image
100
AcDbCircle
 10
1.287846434179222
 20
8.270842722797848
 30
0.0
 40
0.0852652261114122
100
AcDbArc
 50
159.7199718669748
 51
248.9186453553905
  0
ARC
  5
1991
330
10C1
100
AcDbEntity
  8
image
100
AcDbCircle
 10
1.177197494855958
 20
8.220837913680604
 30
0.0
 40
0.0852652261114122
100
AcDbArc
 50
339.7199718669747
 51
68.91864535539045
  0
ARC
  5
1992
330
10C1
100
AcDbEntity
  8
image
100
AcDbCircle
 10
1.359688677419241
 20
8.040947544429789
 30
0.0
 40
0.0852652261114122
100
AcDbArc
 50
159.7199718669748
 51
248.9186453553905
  0
ARC
  5
1993
330
10C1
100
AcDbEntity
  8
image
100
AcDbCircle
 10
1.249039738095975
 20
7.990942735312545
 30
0.0
 40
0.0852652261114122
100
AcDbArc
 50
339.7199718669747
 51
68.91864535539045
  0
ARC
  5
1994
330
10C1
100
AcDbEntity
  8
image
100
AcDbCircle
 10
1.388425574715248
 20
8.079263407491133
 30
0.0
 40
0.0852652261114122
100
AcDbArc
 50
159.7199718669748
 51
248.9186453553905
  0
ARC
  5
1995
330
10C1
100
AcDbEntity
  8
image
100
AcDbCircle
 10
1.277776635391984
 20
8.029258598373889
 30
0.0
 40
0.0852652261114122
100
AcDbArc
 50
339.7199718669747
 51
68.91864535539045
  0
ARC
  5
1996
330
10C1
100
AcDbEntity
  8
image
100
AcDbCircle
 10
1.148951430581854
 20
8.419316692160553
 30
0.0
 40
0.0852652261114122
100
AcDbArc
 50
159.7199718669748
 51
248.9186453553905
  0
ARC
  5
1997
330
10C1
100
AcDbEntity
  8
image
100
AcDbCircle
 10
1.038302491258589
 20
8.369311883043309
 30
0.0
 40
0.0852652261114122
100
AcDbArc
 50
339.7199718669747
 51
68.91864535539045
  0
ARC
  5
1998
330
10C1
100
AcDbEntity
  8
image
100
AcDbCircle
 10
1.139372464816517
 20
8.26605323991518
 30
0.0
 40
0.0852652261114122
100
AcDbArc
 50
159.7199718669748
 51
248.9186453553905
  0
ARC
  5
1999
330
10C1
100
AcDbEntity
  8
image
100
AcDbCircle
 10
1.028723525493254
 20
8.216048430797936
 30
0.0
 40
0.0852652261114122
100
AcDbArc
 50
339.7199718669747
 51
68.91864535539045
  0
ARC
  5
199A
330
10C1
100
AcDbEntity
  8
image
100
AcDbCircle
 10
1.17254006244524
 20
7.980320118486774
 30
0.0
 40
0.0852652261114122
100
AcDbArc
 50
278.5307656099479
 51
7.729439098363579
  0
ARC
  5
199B
330
10C1
100
AcDbEntity
  8
image
100
AcDbCircle
 10
1.269678870206391
 20
7.90746601266591
 30
0.0
 40
0.0852652261114122
100
AcDbArc
 50
98.53076560994793
 51
187.7294390983636
  0
ARC
  5
199C
330
10C1
100
AcDbEntity
  8
image
100
AcDbCircle
 10
0.985750230021193
 20
8.047372878844125
 30
0.0
 40
0.0852652261114122
100
AcDbArc
 50
278.5307656099479
 51
7.729439098363579
  0
ARC
  5
199D
330
10C1
100
AcDbEntity
  8
image
100
AcDbCircle
 10
1.082889037782344
 20
7.974518773023261
 30
0.0
 40
0.0852652261114122
100
AcDbArc
 50
98.53076560994793
 51
187.7294390983636
  0
ARC
  5
199E
330
10C1
100
AcDbEntity
  8
image
100
AcDbCircle
 10
0.8839192916863053
 20
8.326351385332218
 30
0.0
 40
0.0852652261114122
100
AcDbArc
 50
323.5307656099477
 51
52.72943909836341
  0
ARC
  5
199F
330
10C1
100
AcDbEntity
  8
image
100
AcDbCircle
 10
1.004122433633807
 20
8.343523262753288
 30
0.0
 40
0.0852652261114122
100
AcDbArc
 50
143.5307656099477
 51
232.7294390983635
  0
ARC
  5
19A0
330
10C1
100
AcDbEntity
  8
image
100
AcDbCircle
 10
1.162829046207953
 20
8.101100841613908
 30
0.0
 40
0.0852652261114122
100
AcDbArc
 50
339.7199718669747
 51
68.91864535539045
  0
ARC
  5
19A1
330
10C1
100
AcDbEntity
  8
image
100
AcDbCircle
 10
1.273477985531218
 20
8.151105650731151
 30
0.0
 40
0.0852652261114122
100
AcDbArc
 50
159.7199718669748
 51
248.9186453553905
  0
ARC
  5
19A2
330
10C1
100
AcDbEntity
  8
image
100
AcDbCircle
 10
1.115066267853225
 20
8.349110300452201
 30
0.0
 40
0.0852652261114122
100
AcDbArc
 50
278.5307656099479
 51
7.729439098363579
  0
ARC
  5
19A3
330
10C1
100
AcDbEntity
  8
image
100
AcDbCircle
 10
1.212205075614376
 20
8.276256194631338
 30
0.0
 40
0.0852652261114122
100
AcDbArc
 50
98.53076560994793
 51
187.7294390983636
  0
ARC
  5
19A4
330
10C1
100
AcDbEntity
  8
image
100
AcDbCircle
 10
0.9022948287713917
 20
8.103540489946759
 30
0.0
 40
0.0852652261114122
100
AcDbArc
 50
116.0563205359582
 51
205.254994024374
  0
ARC
  5
19A5
330
10C1
100
AcDbEntity
  8
image
100
AcDbCircle
 10
0.787726298473006
 20
8.14376138717051
 30
0.0
 40
0.0852652261114122
100
AcDbArc
 50
296.0563205359582
 51
25.25499402437389
  0
ARC
  5
19A6
330
10C1
100
AcDbEntity
  8
image
100
AcDbCircle
 10
1.042730481247924
 20
8.162741061143032
 30
0.0
 40
0.0852652261114122
100
AcDbArc
 50
143.5307656099477
 51
232.7294390983635
  0
ARC
  5
19A7
330
10C1
100
AcDbEntity
  8
image
100
AcDbCircle
 10
0.9225273393004224
 20
8.145569183721962
 30
0.0
 40
0.0852652261114122
100
AcDbArc
 50
323.5307656099477
 51
52.72943909836341
  0
ARC
  5
19A8
330
10C1
100
AcDbEntity
  8
image
100
AcDbCircle
 10
0.9706227161732025
 20
8.155983769128372
 30
0.0
 40
0.0852652261114122
100
AcDbArc
 50
159.7199718669748
 51
248.9186453553905
  0
ARC
  5
19A9
330
10C1
100
AcDbEntity
  8
image
100
AcDbCircle
 10
0.8599737768499377
 20
8.105978960011128
 30
0.0
 40
0.0852652261114122
100
AcDbArc
 50
339.7199718669747
 51
68.91864535539045
  0
ARC
  5
19AA
330
10C1
100
AcDbEntity
  8
image
100
AcDbCircle
 10
0.942151340711899
 20
8.047793471959003
 30
0.0
 40
0.0852652261114122
100
AcDbArc
 50
143.5307656099477
 51
232.7294390983635
  0
ARC
  5
19AB
330
10C1
100
AcDbEntity
  8
image
100
AcDbCircle
 10
0.9182039262985583
 20
7.980740711601653
 30
0.0
 40
0.0852652261114122
100
AcDbArc
 50
143.5307656099477
 51
232.7294390983635
  0
ARC
  5
19AC
330
10C1
100
AcDbEntity
  8
image
100
AcDbCircle
 10
0.7980007843510574
 20
7.963568834180582
 30
0.0
 40
0.0852652261114122
100
AcDbArc
 50
323.5307656099477
 51
52.72943909836341
  0
ARC
  5
19AD
330
10C1
100
AcDbEntity
  8
image
100
AcDbCircle
 10
0.9996251353039124
 20
7.971161745836317
 30
0.0
 40
0.0852652261114122
100
AcDbArc
 50
143.5307656099477
 51
232.7294390983635
  0
ARC
  5
19AE
330
10C1
100
AcDbEntity
  8
image
100
AcDbCircle
 10
0.8794219933564114
 20
7.953989868415247
 30
0.0
 40
0.0852652261114122
100
AcDbArc
 50
323.5307656099477
 51
52.72943909836341
  0
ARC
  5
19AF
330
10C1
100
AcDbEntity
  8
image
100
AcDbCircle
 10
0.8854632740379399
 20
8.062959475423252
 30
0.0
 40
0.0852652261114122
100
AcDbArc
 50
278.5307656099479
 51
7.729439098363579
  0
ARC
  5
19B0
330
10C1
100
AcDbEntity
  8
image
100
AcDbCircle
 10
0.8219481987643963
 20
8.030621594537933
 30
0.0
 40
0.0852652261114122
100
AcDbArc
 50
323.5307656099477
 51
52.72943909836341
  0
ARC
  5
19B1
330
10C1
100
AcDbEntity
  8
image
100
AcDbCircle
 10
0.9826020817990913
 20
7.990105369602389
 30
0.0
 40
0.0852652261114122
100
AcDbArc
 50
98.53076560994793
 51
187.7294390983636
  0
ARC
  5
19B2
330
10C1
100
AcDbEntity
  8
image
100
AcDbCircle
 10
0.9301573518081646
 20
8.222951205360324
 30
0.0
 40
0.0852652261114122
100
AcDbArc
 50
116.0563205359582
 51
205.254994024374
  0
ARC
  5
19B3
330
10C1
100
AcDbEntity
  8
image
100
AcDbCircle
 10
0.8155888215097796
 20
8.263172102584075
 30
0.0
 40
0.0852652261114122
100
AcDbArc
 50
296.0563205359582
 51
25.25499402437389
  0
ARC
  5
19B4
330
10C1
100
AcDbEntity
  8
image
100
AcDbCircle
 10
0.8623551657104714
 20
8.221275478968495
 30
0.0
 40
0.0852652261114122
100
AcDbArc
 50
323.5307656099477
 51
52.72943909836341
  0
ARC
  5
19B5
330
10C1
100
AcDbEntity
  8
image
100
AcDbCircle
 10
0.9825583076579723
 20
8.238447356389565
 30
0.0
 40
0.0852652261114122
100
AcDbArc
 50
143.5307656099477
 51
232.7294390983635
  0
ARC
  5
19B6
330
10C1
100
AcDbEntity
  8
image
100
AcDbCircle
 10
2.825157661117482
 20
8.105978960011128
 30
0.0
 40
0.0852652261114122
100
AcDbArc
 50
111.0813546446095
 51
200.2800281330253
  0
ARC
  5
19B7
330
10C1
100
AcDbEntity
  8
image
100
AcDbCircle
 10
2.714508721794218
 20
8.155983769128372
 30
0.0
 40
0.0852652261114122
100
AcDbArc
 50
291.0813546446095
 51
20.28002813302522
  0
ARC
  5
19B8
330
10C1
100
AcDbEntity
  8
image
100
AcDbCircle
 10
2.762604098666998
 20
8.145569183721962
 30
0.0
 40
0.0852652261114122
100
AcDbArc
 50
127.2705609016366
 51
216.4692343900523
  0
ARC
  5
19B9
330
10C1
100
AcDbEntity
  8
image
100
AcDbCircle
 10
2.642400956719495
 20
8.162741061143032
 30
0.0
 40
0.0852652261114122
100
AcDbArc
 50
307.2705609016365
 51
36.46923439005223
  0
ARC
  5
19BA
330
10C1
100
AcDbEntity
  8
image
100
AcDbCircle
 10
2.897405139494414
 20
8.14376138717051
 30
0.0
 40
0.0852652261114122
100
AcDbArc
 50
154.7450059756261
 51
243.9436794640418
  0
ARC
  5
19BB
330
10C1
100
AcDbEntity
  8
image
100
AcDbCircle
 10
2.782836609196028
 20
8.103540489946759
 30
0.0
 40
0.0852652261114122
100
AcDbArc
 50
334.745005975626
 51
63.94367946404176
  0
ARC
  5
19BC
330
10C1
100
AcDbEntity
  8
image
100
AcDbCircle
 10
2.314366313083981
 20
8.119796750811248
 30
0.0
 40
0.0852652261114122
100
AcDbArc
 50
334.745005975626
 51
63.94367946404176
  0
ARC
  5
19BD
330
10C1
100
AcDbEntity
  8
image
100
AcDbCircle
 10
2.428934843382366
 20
8.160017648034999
 30
0.0
 40
0.0852652261114122
100
AcDbArc
 50
154.7450059756261
 51
243.9436794640418
  0
ARC
  5
19BE
330
10C1
100
AcDbEntity
  8
image
100
AcDbCircle
 10
2.682549653212776
 20
8.087953893367631
 30
0.0
 40
0.0852652261114122
100
AcDbArc
 50
334.745005975626
 51
63.94367946404176
  0
ARC
  5
19BF
330
10C1
100
AcDbEntity
  8
image
100
AcDbCircle
 10
2.797118183511161
 20
8.128174790591382
 30
0.0
 40
0.0852652261114122
100
AcDbArc
 50
154.7450059756261
 51
243.9436794640418
  0
ARC
  5
19C0
330
10C1
100
AcDbEntity
  8
image
100
AcDbCircle
 10
2.246700185708959
 20
8.081983357596953
 30
0.0
 40
0.0852652261114122
100
AcDbArc
 50
334.745005975626
 51
63.94367946404176
  0
ARC
  5
19C1
330
10C1
100
AcDbEntity
  8
image
100
AcDbCircle
 10
2.361268716007344
 20
8.122204254820704
 30
0.0
 40
0.0852652261114122
100
AcDbArc
 50
154.7450059756261
 51
243.9436794640418
  0
ARC
  5
19C2
330
10C1
100
AcDbEntity
  8
image
100
AcDbCircle
 10
2.542114000736244
 20
8.147154464563906
 30
0.0
 40
0.0852652261114122
100
AcDbArc
 50
307.2705609016365
 51
36.46923439005223
  0
ARC
  5
19C3
330
10C1
100
AcDbEntity
  8
image
100
AcDbCircle
 10
2.662317142683745
 20
8.129982587142833
 30
0.0
 40
0.0852652261114122
100
AcDbArc
 50
127.2705609016366
 51
216.4692343900523
  0
ARC
  5
19C4
330
10C1
100
AcDbEntity
  8
image
100
AcDbCircle
 10
2.465482274613557
 20
8.214207224921256
 30
0.0
 40
0.0852652261114122
100
AcDbArc
 50
307.2705609016365
 51
36.46923439005223
  0
ARC
  5
19C5
330
10C1
100
AcDbEntity
  8
image
100
AcDbCircle
 10
2.355324168312196
 20
8.151943947446573
 30
0.0
 40
0.0852652261114122
100
AcDbArc
 50
307.2705609016365
 51
36.46923439005223
  0
ARC
  5
19C6
330
10C1
100
AcDbEntity
  8
image
100
AcDbCircle
 10
2.475527310259697
 20
8.134772070025503
 30
0.0
 40
0.0852652261114122
100
AcDbArc
 50
127.2705609016366
 51
216.4692343900523
  0
ARC
  5
19C7
330
10C1
100
AcDbEntity
  8
image
100
AcDbCircle
 10
2.202060716066823
 20
8.147154464563906
 30
0.0
 40
0.0852652261114122
100
AcDbArc
 50
307.2705609016365
 51
36.46923439005223
  0
ARC
  5
19C8
330
10C1
100
AcDbEntity
  8
image
100
AcDbCircle
 10
2.322263858014324
 20
8.129982587142833
 30
0.0
 40
0.0852652261114122
100
AcDbArc
 50
127.2705609016366
 51
216.4692343900523
  0
ARC
  5
19C9
330
10C1
100
AcDbEntity
  8
image
100
AcDbCircle
 10
2.287126897486836
 20
8.184632030909826
 30
0.0
 40
0.0852652261114122
100
AcDbArc
 50
291.0813546446095
 51
20.28002813302522
  0
ARC
  5
19CA
330
10C1
100
AcDbEntity
  8
image
100
AcDbCircle
 10
2.3977758368101
 20
8.134627221792582
 30
0.0
 40
0.0852652261114122
100
AcDbArc
 50
111.0813546446095
 51
200.2800281330253
  0
ARC
  5
19CB
330
10C1
100
AcDbEntity
  8
image
100
AcDbCircle
 10
2.483495695676218
 20
8.155895133613819
 30
0.0
 40
0.0852652261114122
100
AcDbArc
 50
291.0813546446095
 51
20.28002813302522
  0
ARC
  5
19CC
330
10C1
100
AcDbEntity
  8
image
100
AcDbCircle
 10
2.594144634999484
 20
8.105890324496574
 30
0.0
 40
0.0852652261114122
100
AcDbArc
 50
111.0813546446095
 51
200.2800281330253
  0
ARC
  5
19CD
330
10C1
100
AcDbEntity
  8
image
100
AcDbCircle
 10
2.614221765810965
 20
8.140397172549246
 30
0.0
 40
0.0852652261114122
100
AcDbArc
 50
291.0813546446095
 51
20.28002813302522
  0
ARC
  5
19CE
330
10C1
100
AcDbEntity
  8
image
100
AcDbCircle
 10
2.724870705134229
 20
8.090392363432
 30
0.0
 40
0.0852652261114122
100
AcDbArc
 50
111.0813546446095
 51
200.2800281330253
  0
ARC
  5
19CF
330
10C1
100
AcDbEntity
  8
image
100
AcDbCircle
 10
2.522302391759466
 20
8.101100841613908
 30
0.0
 40
0.0852652261114122
100
AcDbArc
 50
111.0813546446095
 51
200.2800281330253
  0
ARC
  5
19D0
330
10C1
100
AcDbEntity
  8
image
100
AcDbCircle
 10
2.411653452436202
 20
8.151105650731151
 30
0.0
 40
0.0852652261114122
100
AcDbArc
 50
291.0813546446095
 51
20.28002813302522
  0
ARC
  5
19D1
330
10C1
100
AcDbEntity
  8
image
100
AcDbCircle
 10
2.370091359157528
 20
8.034219071431527
 30
0.0
 40
0.0852652261114122
100
AcDbArc
 50
334.745005975626
 51
63.94367946404176
  0
ARC
  5
19D2
330
10C1
100
AcDbEntity
  8
image
100
AcDbCircle
 10
2.542580070617047
 20
8.015034997958805
 30
0.0
 40
0.0852652261114122
100
AcDbArc
 50
127.2705609016366
 51
216.4692343900523
  0
ARC
  5
19D3
330
10C1
100
AcDbEntity
  8
image
100
AcDbCircle
 10
2.512591375522179
 20
7.980320118486774
 30
0.0
 40
0.0852652261114122
100
AcDbArc
 50
172.2705609016364
 51
261.4692343900521
  0
ARC
  5
19D4
330
10C1
100
AcDbEntity
  8
image
100
AcDbCircle
 10
2.415452567761028
 20
7.90746601266591
 30
0.0
 40
0.0852652261114122
100
AcDbArc
 50
352.2705609016364
 51
81.4692343900521
  0
ARC
  5
19D5
330
10C1
100
AcDbEntity
  8
image
100
AcDbCircle
 10
2.702529356168329
 20
7.990105369602389
 30
0.0
 40
0.0852652261114122
100
AcDbArc
 50
352.2705609016364
 51
81.4692343900521
  0
ARC
  5
19D6
330
10C1
100
AcDbEntity
  8
image
100
AcDbCircle
 10
2.79966816392948
 20
8.062959475423252
 30
0.0
 40
0.0852652261114122
100
AcDbArc
 50
172.2705609016364
 51
261.4692343900521
  0
ARC
  5
19D7
330
10C1
100
AcDbEntity
  8
image
100
AcDbCircle
 10
2.805709444611008
 20
7.953989868415247
 30
0.0
 40
0.0852652261114122
100
AcDbArc
 50
127.2705609016366
 51
216.4692343900523
  0
ARC
  5
19D8
330
10C1
100
AcDbEntity
  8
image
100
AcDbCircle
 10
2.642693141272268
 20
8.032206875379877
 30
0.0
 40
0.0852652261114122
100
AcDbArc
 50
307.2705609016365
 51
36.46923439005223
  0
ARC
  5
19D9
330
10C1
100
AcDbEntity
  8
image
100
AcDbCircle
 10
2.666640555685609
 20
7.965154115022526
 30
0.0
 40
0.0852652261114122
100
AcDbArc
 50
307.2705609016365
 51
36.46923439005223
  0
ARC
  5
19DA
330
10C1
100
AcDbEntity
  8
image
100
AcDbCircle
 10
2.78684369763311
 20
7.947982237601454
 30
0.0
 40
0.0852652261114122
100
AcDbArc
 50
127.2705609016366
 51
216.4692343900523
  0
ARC
  5
19DB
330
10C1
100
AcDbEntity
  8
image
100
AcDbCircle
 10
2.685506302663507
 20
7.971161745836317
 30
0.0
 40
0.0852652261114122
100
AcDbArc
 50
307.2705609016365
 51
36.46923439005223
  0
ARC
  5
19DC
330
10C1
100
AcDbEntity
  8
image
100
AcDbCircle
 10
2.887130653616363
 20
7.963568834180582
 30
0.0
 40
0.0852652261114122
100
AcDbArc
 50
127.2705609016366
 51
216.4692343900523
  0
ARC
  5
19DD
330
10C1
100
AcDbEntity
  8
image
100
AcDbCircle
 10
2.766927511668861
 20
7.980740711601653
 30
0.0
 40
0.0852652261114122
100
AcDbArc
 50
307.2705609016365
 51
36.46923439005223
  0
ARC
  5
19DE
330
10C1
100
AcDbEntity
  8
image
100
AcDbCircle
 10
2.863183239203023
 20
8.030621594537933
 30
0.0
 40
0.0852652261114122
100
AcDbArc
 50
127.2705609016366
 51
216.4692343900523
  0
ARC
  5
19DF
330
10C1
100
AcDbEntity
  8
image
100
AcDbCircle
 10
2.742980097255521
 20
8.047793471959003
 30
0.0
 40
0.0852652261114122
100
AcDbArc
 50
307.2705609016365
 51
36.46923439005223
  0
ARC
  5
19E0
330
10C1
100
AcDbEntity
  8
image
100
AcDbCircle
 10
2.461639649135498
 20
7.94665121346158
 30
0.0
 40
0.0852652261114122
100
AcDbArc
 50
334.745005975626
 51
63.94367946404176
  0
ARC
  5
19E1
330
10C1
100
AcDbEntity
  8
image
100
AcDbCircle
 10
2.576208179433884
 20
7.986872110685331
 30
0.0
 40
0.0852652261114122
100
AcDbArc
 50
154.7450059756261
 51
243.9436794640418
  0
ARC
  5
19E2
330
10C1
100
AcDbEntity
  8
image
100
AcDbCircle
 10
2.585219346680255
 20
7.955575149257191
 30
0.0
 40
0.0852652261114122
100
AcDbArc
 50
307.2705609016365
 51
36.46923439005223
  0
ARC
  5
19E3
330
10C1
100
AcDbEntity
  8
image
100
AcDbCircle
 10
2.705422488627756
 20
7.93840327183612
 30
0.0
 40
0.0852652261114122
100
AcDbArc
 50
127.2705609016366
 51
216.4692343900523
  0
ARC
  5
19E4
330
10C1
100
AcDbEntity
  8
image
100
AcDbCircle
 10
2.522956069205572
 20
7.955575149257191
 30
0.0
 40
0.0852652261114122
100
AcDbArc
 50
307.2705609016365
 51
36.46923439005223
  0
ARC
  5
19E5
330
10C1
100
AcDbEntity
  8
image
100
AcDbCircle
 10
2.643159211153073
 20
7.93840327183612
 30
0.0
 40
0.0852652261114122
100
AcDbArc
 50
127.2705609016366
 51
216.4692343900523
  0
ARC
  5
19E6
330
10C1
100
AcDbEntity
  8
image
100
AcDbCircle
 10
2.699381207946227
 20
8.047372878844125
 30
0.0
 40
0.0852652261114122
100
AcDbArc
 50
172.2705609016364
 51
261.4692343900521
  0
ARC
  5
19E7
330
10C1
100
AcDbEntity
  8
image
100
AcDbCircle
 10
2.517022075854895
 20
8.074473924608465
 30
0.0
 40
0.0852652261114122
100
AcDbArc
 50
291.0813546446095
 51
20.28002813302522
  0
ARC
  5
19E8
330
10C1
100
AcDbEntity
  8
image
100
AcDbCircle
 10
2.762896283219771
 20
8.015034997958805
 30
0.0
 40
0.0852652261114122
100
AcDbArc
 50
127.2705609016366
 51
216.4692343900523
  0
ARC
  5
19E9
330
10C1
100
AcDbEntity
  8
image
100
AcDbCircle
 10
2.602242400185076
 20
7.974518773023261
 30
0.0
 40
0.0852652261114122
100
AcDbArc
 50
352.2705609016364
 51
81.4692343900521
  0
ARC
  5
19EA
330
10C1
100
AcDbEntity
  8
image
100
AcDbCircle
 10
2.473580730436974
 20
8.030238714251074
 30
0.0
 40
0.0852652261114122
100
AcDbArc
 50
334.745005975626
 51
63.94367946404176
  0
ARC
  5
19EB
330
10C1
100
AcDbEntity
  8
image
100
AcDbCircle
 10
2.588149260735358
 20
8.070459611474827
 30
0.0
 40
0.0852652261114122
100
AcDbArc
 50
154.7450059756261
 51
243.9436794640418
  0
ARC
  5
19EC
330
10C1
100
AcDbEntity
  8
image
100
AcDbCircle
 10
2.422376928669546
 20
8.032206875379877
 30
0.0
 40
0.0852652261114122
100
AcDbArc
 50
307.2705609016365
 51
36.46923439005223
  0
ARC
  5
19ED
330
10C1
100
AcDbEntity
  8
image
100
AcDbCircle
 10
2.627671015178159
 20
8.024469115491219
 30
0.0
 40
0.0852652261114122
100
AcDbArc
 50
111.0813546446095
 51
200.2800281330253
  0
ARC
  5
19EE
330
10C1
100
AcDbEntity
  8
image
100
AcDbCircle
 10
2.226008130480162
 20
7.960364632139858
 30
0.0
 40
0.0852652261114122
100
AcDbArc
 50
307.2705609016365
 51
36.46923439005223
  0
ARC
  5
19EF
330
10C1
100
AcDbEntity
  8
image
100
AcDbCircle
 10
2.346211272427665
 20
7.943192754718786
 30
0.0
 40
0.0852652261114122
100
AcDbArc
 50
127.2705609016366
 51
216.4692343900523
  0
ARC
  5
19F0
330
10C1
100
AcDbEntity
  8
image
100
AcDbCircle
 10
2.364903134077531
 20
7.945996183491855
 30
0.0
 40
0.0852652261114122
100
AcDbArc
 50
307.2705609016365
 51
36.46923439005223
  0
ARC
  5
19F1
330
10C1
100
AcDbEntity
  8
image
100
AcDbCircle
 10
2.485106276025033
 20
7.928824306070783
 30
0.0
 40
0.0852652261114122
100
AcDbArc
 50
127.2705609016366
 51
216.4692343900523
  0
ARC
  5
19F2
330
10C1
100
AcDbEntity
  8
image
100
AcDbCircle
 10
2.27869244218951
 20
7.974733080787862
 30
0.0
 40
0.0852652261114122
100
AcDbArc
 50
307.2705609016365
 51
36.46923439005223
  0
ARC
  5
19F3
330
10C1
100
AcDbEntity
  8
image
100
AcDbCircle
 10
2.39889558413701
 20
7.95756120336679
 30
0.0
 40
0.0852652261114122
100
AcDbArc
 50
127.2705609016366
 51
216.4692343900523
  0
ARC
  5
19F4
330
10C1
100
AcDbEntity
  8
image
100
AcDbCircle
 10
2.436091699871444
 20
7.990942735312545
 30
0.0
 40
0.0852652261114122
100
AcDbArc
 50
111.0813546446095
 51
200.2800281330253
  0
ARC
  5
19F5
330
10C1
100
AcDbEntity
  8
image
100
AcDbCircle
 10
2.296705863252171
 20
8.079263407491133
 30
0.0
 40
0.0852652261114122
100
AcDbArc
 50
291.0813546446095
 51
20.28002813302522
  0
ARC
  5
19F6
330
10C1
100
AcDbEntity
  8
image
100
AcDbCircle
 10
2.407354802575436
 20
8.029258598373889
 30
0.0
 40
0.0852652261114122
100
AcDbArc
 50
111.0813546446095
 51
200.2800281330253
  0
ARC
  5
19F7
330
10C1
100
AcDbEntity
  8
image
100
AcDbCircle
 10
2.484659889455913
 20
8.074439968655278
 30
0.0
 40
0.0852652261114122
100
AcDbArc
 50
154.7450059756261
 51
243.9436794640418
  0
ARC
  5
19F8
330
10C1
100
AcDbEntity
  8
image
100
AcDbCircle
 10
2.325442760548178
 20
8.040947544429789
 30
0.0
 40
0.0852652261114122
100
AcDbArc
 50
291.0813546446095
 51
20.28002813302522
  0
ARC
  5
19F9
330
10C1
100
AcDbEntity
  8
image
100
AcDbCircle
 10
2.205705688481482
 20
8.060105475960462
 30
0.0
 40
0.0852652261114122
100
AcDbArc
 50
291.0813546446095
 51
20.28002813302522
  0
ARC
  5
19FA
330
10C1
100
AcDbEntity
  8
image
100
AcDbCircle
 10
2.316354627804746
 20
8.010100666843218
 30
0.0
 40
0.0852652261114122
100
AcDbArc
 50
111.0813546446095
 51
200.2800281330253
  0
ARC
  5
19FB
330
10C1
100
AcDbEntity
  8
image
100
AcDbCircle
 10
2.389993161326652
 20
8.30289318111205
 30
0.0
 40
0.0852652261114122
100
AcDbArc
 50
334.745005975626
 51
63.94367946404176
  0
ARC
  5
19FC
330
10C1
100
AcDbEntity
  8
image
100
AcDbCircle
 10
2.42183604479725
 20
8.197413715830066
 30
0.0
 40
0.0852652261114122
100
AcDbArc
 50
334.745005975626
 51
63.94367946404176
  0
ARC
  5
19FD
330
10C1
100
AcDbEntity
  8
image
100
AcDbCircle
 10
2.536404575095636
 20
8.237634613053819
 30
0.0
 40
0.0852652261114122
100
AcDbArc
 50
154.7450059756261
 51
243.9436794640418
  0
ARC
  5
19FE
330
10C1
100
AcDbEntity
  8
image
100
AcDbCircle
 10
2.41279796290421
 20
8.410576023110641
 30
0.0
 40
0.0852652261114122
100
AcDbArc
 50
307.2705609016365
 51
36.46923439005223
  0
ARC
  5
19FF
330
10C1
100
AcDbEntity
  8
image
100
AcDbCircle
 10
2.533001104851712
 20
8.393404145689569
 30
0.0
 40
0.0852652261114122
100
AcDbArc
 50
127.2705609016366
 51
216.4692343900523
  0
ARC
  5
1A00
330
10C1
100
AcDbEntity
  8
image
100
AcDbCircle
 10
2.397285003788197
 20
8.270842722797848
 30
0.0
 40
0.0852652261114122
100
AcDbArc
 50
291.0813546446095
 51
20.28002813302522
  0
ARC
  5
1A01
330
10C1
100
AcDbEntity
  8
image
100
AcDbCircle
 10
2.507933943111462
 20
8.220837913680604
 30
0.0
 40
0.0852652261114122
100
AcDbArc
 50
111.0813546446095
 51
200.2800281330253
  0
ARC
  5
1A02
330
10C1
100
AcDbEntity
  8
image
100
AcDbCircle
 10
2.570065170114194
 20
8.349110300452201
 30
0.0
 40
0.0852652261114122
100
AcDbArc
 50
172.2705609016364
 51
261.4692343900521
  0
ARC
  5
1A03
330
10C1
100
AcDbEntity
  8
image
100
AcDbCircle
 10
2.822776272256949
 20
8.221275478968495
 30
0.0
 40
0.0852652261114122
100
AcDbArc
 50
127.2705609016366
 51
216.4692343900523
  0
ARC
  5
1A04
330
10C1
100
AcDbEntity
  8
image
100
AcDbCircle
 10
2.632795147789965
 20
8.326775324194763
 30
0.0
 40
0.0852652261114122
100
AcDbArc
 50
334.745005975626
 51
63.94367946404176
  0
ARC
  5
1A05
330
10C1
100
AcDbEntity
  8
image
100
AcDbCircle
 10
2.654687130176002
 20
8.207364608781196
 30
0.0
 40
0.0852652261114122
100
AcDbArc
 50
334.745005975626
 51
63.94367946404176
  0
ARC
  5
1A06
330
10C1
100
AcDbEntity
  8
image
100
AcDbCircle
 10
2.769255660474387
 20
8.247585506004947
 30
0.0
 40
0.0852652261114122
100
AcDbArc
 50
154.7450059756261
 51
243.9436794640418
  0
ARC
  5
1A07
330
10C1
100
AcDbEntity
  8
image
100
AcDbCircle
 10
2.801212146281115
 20
8.326351385332218
 30
0.0
 40
0.0852652261114122
100
AcDbArc
 50
127.2705609016366
 51
216.4692343900523
  0
ARC
  5
1A08
330
10C1
100
AcDbEntity
  8
image
100
AcDbCircle
 10
2.681009004333612
 20
8.343523262753288
 30
0.0
 40
0.0852652261114122
100
AcDbArc
 50
307.2705609016365
 51
36.46923439005223
  0
ARC
  5
1A09
330
10C1
100
AcDbEntity
  8
image
100
AcDbCircle
 10
2.702573130309448
 20
8.238447356389565
 30
0.0
 40
0.0852652261114122
100
AcDbArc
 50
307.2705609016365
 51
36.46923439005223
  0
ARC
  5
1A0A
330
10C1
100
AcDbEntity
  8
image
100
AcDbCircle
 10
2.86954261645764
 20
8.263172102584075
 30
0.0
 40
0.0852652261114122
100
AcDbArc
 50
154.7450059756261
 51
243.9436794640418
  0
ARC
  5
1A0B
330
10C1
100
AcDbEntity
  8
image
100
AcDbCircle
 10
2.754974086159255
 20
8.222951205360324
 30
0.0
 40
0.0852652261114122
100
AcDbArc
 50
334.745005975626
 51
63.94367946404176
  0
ARC
  5
1A0C
330
10C1
100
AcDbEntity
  8
image
100
AcDbCircle
 10
2.747363678088351
 20
8.366996221418514
 30
0.0
 40
0.0852652261114122
100
AcDbArc
 50
154.7450059756261
 51
243.9436794640418
  0
ARC
  5
1A0D
330
10C1
100
AcDbEntity
  8
image
100
AcDbCircle
 10
2.535276317161258
 20
8.310853895472954
 30
0.0
 40
0.0852652261114122
100
AcDbArc
 50
334.745005975626
 51
63.94367946404176
  0
ARC
  5
1A0E
330
10C1
100
AcDbEntity
  8
image
100
AcDbCircle
 10
2.649844847459644
 20
8.351074792696705
 30
0.0
 40
0.0852652261114122
100
AcDbArc
 50
154.7450059756261
 51
243.9436794640418
  0
ARC
  5
1A0F
330
10C1
100
AcDbEntity
  8
image
100
AcDbCircle
 10
2.59479831244559
 20
8.348312745635958
 30
0.0
 40
0.0852652261114122
100
AcDbArc
 50
307.2705609016365
 51
36.46923439005223
  0
ARC
  5
1A10
330
10C1
100
AcDbEntity
  8
image
100
AcDbCircle
 10
2.715001454393092
 20
8.331140868214886
 30
0.0
 40
0.0852652261114122
100
AcDbArc
 50
127.2705609016366
 51
216.4692343900523
  0
ARC
  5
1A11
330
10C1
100
AcDbEntity
  8
image
100
AcDbCircle
 10
2.536180007385566
 20
8.419316692160553
 30
0.0
 40
0.0852652261114122
100
AcDbArc
 50
291.0813546446095
 51
20.28002813302522
  0
ARC
  5
1A12
330
10C1
100
AcDbEntity
  8
image
100
AcDbCircle
 10
2.472926362353043
 20
8.276256194631338
 30
0.0
 40
0.0852652261114122
100
AcDbArc
 50
352.2705609016364
 51
81.4692343900521
  0
ARC
  5
1A13
330
10C1
100
AcDbEntity
  8
image
100
AcDbCircle
 10
2.545758973150901
 20
8.26605323991518
 30
0.0
 40
0.0852652261114122
100
AcDbArc
 50
291.0813546446095
 51
20.28002813302522
  0
ARC
  5
1A14
330
10C1
100
AcDbEntity
  8
image
100
AcDbCircle
 10
2.656407912474165
 20
8.216048430797936
 30
0.0
 40
0.0852652261114122
100
AcDbArc
 50
111.0813546446095
 51
200.2800281330253
  0
ARC
  5
1A15
330
10C1
100
AcDbEntity
  8
image
100
AcDbCircle
 10
2.59479831244559
 20
8.247733605099931
 30
0.0
 40
0.0852652261114122
100
AcDbArc
 50
307.2705609016365
 51
36.46923439005223
  0
ARC
  5
1A16
330
10C1
100
AcDbEntity
  8
image
100
AcDbCircle
 10
2.715001454393092
 20
8.23056172767886
 30
0.0
 40
0.0852652261114122
100
AcDbArc
 50
127.2705609016366
 51
216.4692343900523
  0
ARC
  5
1A17
330
10C1
100
AcDbEntity
  8
image
100
AcDbCircle
 10
2.585685416561058
 20
8.197035347500186
 30
0.0
 40
0.0852652261114122
100
AcDbArc
 50
127.2705609016366
 51
216.4692343900523
  0
ARC
  5
1A18
330
10C1
100
AcDbEntity
  8
image
100
AcDbCircle
 10
2.483495695676218
 20
8.299579620093854
 30
0.0
 40
0.0852652261114122
100
AcDbArc
 50
291.0813546446095
 51
20.28002813302522
  0
ARC
  5
1A19
330
10C1
100
AcDbEntity
  8
image
100
AcDbCircle
 10
2.594144634999484
 20
8.249574810976611
 30
0.0
 40
0.0852652261114122
100
AcDbArc
 50
111.0813546446095
 51
200.2800281330253
  0
ARC
  5
1A1A
330
10C1
100
AcDbEntity
  8
image
100
AcDbCircle
 10
2.646828946708831
 20
8.369311883043309
 30
0.0
 40
0.0852652261114122
100
AcDbArc
 50
111.0813546446095
 51
200.2800281330253
  0
ARC
  5
1A1B
330
10C1
100
AcDbEntity
  8
image
100
AcDbCircle
 10
2.624834426922316
 20
8.412353003574484
 30
0.0
 40
0.0852652261114122
100
AcDbArc
 50
334.745005975626
 51
63.94367946404176
  0
ARC
  5
1A1C
330
10C1
100
AcDbEntity
  8
image
100
AcDbCircle
 10
2.739402957220701
 20
8.452573900798235
 30
0.0
 40
0.0852652261114122
100
AcDbArc
 50
154.7450059756261
 51
243.9436794640418
  0
ARC
  5
1A1D
330
10C1
100
AcDbEntity
  8
image
100
AcDbCircle
 10
2.489429689026896
 20
8.420154988875976
 30
0.0
 40
0.0852652261114122
100
AcDbArc
 50
307.2705609016365
 51
36.46923439005223
  0
ARC
  5
1A1E
330
10C1
100
AcDbEntity
  8
image
100
AcDbCircle
 10
2.609632830974398
 20
8.402983111454904
 30
0.0
 40
0.0852652261114122
100
AcDbArc
 50
127.2705609016366
 51
216.4692343900523
  0
ARC
  5
1A1F
330
10C1
100
AcDbEntity
  8
image
100
AcDbCircle
 10
2.504561691625037
 20
8.343114078335801
 30
0.0
 40
0.0852652261114122
100
AcDbArc
 50
154.7450059756261
 51
243.9436794640418
  0
ARC
  5
1A20
330
10C1
100
AcDbEntity
  8
image
100
AcDbCircle
 10
2.413264032785015
 20
8.268877590740203
 30
0.0
 40
0.0852652261114122
100
AcDbArc
 50
127.2705609016366
 51
216.4692343900523
  0
ARC
  5
1A21
330
10C1
100
AcDbEntity
  8
image
100
AcDbCircle
 10
2.345745202546859
 20
8.300417916809278
 30
0.0
 40
0.0852652261114122
100
AcDbArc
 50
307.2705609016365
 51
36.46923439005223
  0
ARC
  5
1A22
330
10C1
100
AcDbEntity
  8
image
100
AcDbCircle
 10
2.465948344494361
 20
8.283246039388208
 30
0.0
 40
0.0852652261114122
100
AcDbArc
 50
127.2705609016366
 51
216.4692343900523
  0
ARC
  5
1A23
330
10C1
100
AcDbEntity
  8
image
100
AcDbCircle
 10
2.325442760548178
 20
8.409737726395217
 30
0.0
 40
0.0852652261114122
100
AcDbArc
 50
291.0813546446095
 51
20.28002813302522
  0
ARC
  5
1A24
330
10C1
100
AcDbEntity
  8
image
100
AcDbCircle
 10
2.436091699871444
 20
8.359732917277973
 30
0.0
 40
0.0852652261114122
100
AcDbArc
 50
111.0813546446095
 51
200.2800281330253
  0
ARC
  5
1A25
330
10C1
100
AcDbEntity
  8
image
100
AcDbCircle
 10
2.293060890837513
 20
8.286049468161275
 30
0.0
 40
0.0852652261114122
100
AcDbArc
 50
307.2705609016365
 51
36.46923439005223
  0
ARC
  5
1A26
330
10C1
100
AcDbEntity
  8
image
100
AcDbCircle
 10
2.317008305250852
 20
8.238154639334595
 30
0.0
 40
0.0852652261114122
100
AcDbArc
 50
307.2705609016365
 51
36.46923439005223
  0
ARC
  5
1A27
330
10C1
100
AcDbEntity
  8
image
100
AcDbCircle
 10
2.437211447198355
 20
8.220982761913525
 30
0.0
 40
0.0852652261114122
100
AcDbArc
 50
127.2705609016366
 51
216.4692343900523
  0
ARC
  5
1A28
330
10C1
100
AcDbEntity
  8
image
100
AcDbCircle
 10
0.7664855085933255
 20
7.928824306070783
 30
0.0
 40
0.0852652261114122
100
AcDbArc
 50
323.5307656099477
 51
52.72943909836341
  0
ARC
  5
1A29
330
10C1
100
AcDbEntity
  8
image
100
AcDbCircle
 10
0.8866886505408272
 20
7.945996183491855
 30
0.0
 40
0.0852652261114122
100
AcDbArc
 50
143.5307656099477
 51
232.7294390983635
  0
ARC
  5
1A2A
330
10C1
100
AcDbEntity
  8
image
100
AcDbCircle
 10
0.8554465713172238
 20
7.961279501898754
 30
0.0
 40
0.0852652261114122
100
AcDbArc
 50
278.5307656099479
 51
7.729439098363579
  0
ARC
  5
1A2B
330
10C1
100
AcDbEntity
  8
image
100
AcDbCircle
 10
0.9525853790783752
 20
7.88842539607789
 30
0.0
 40
0.0852652261114122
100
AcDbArc
 50
98.53076560994793
 51
187.7294390983636
  0
ARC
  5
1A2C
330
10C1
100
AcDbEntity
  8
image
100
AcDbCircle
 10
2.752710664049391
 20
7.880870252664182
 30
0.0
 40
0.0852652261114122
100
AcDbArc
 50
352.2705609016364
 51
81.4692343900521
  0
ARC
  5
1A2D
330
10C1
100
AcDbEntity
  8
image
100
AcDbCircle
 10
2.849849471810542
 20
7.953724358485045
 30
0.0
 40
0.0852652261114122
100
AcDbArc
 50
172.2705609016364
 51
261.4692343900521
  0
LINE
  5
1A2E
330
10C1
100
AcDbEntity
  8
image
100
AcDbLine
 10
2.18343201866612
 20
2.219783781134482
 30
0.0
 11
2.195192106443339
 21
7.602982102900983
 31
0.0
  0
LINE
  5
1A2F
330
10C1
100
AcDbEntity
  8
image
100
AcDbLine
 10
1.515822705740449
 20
2.219783781134482
 30
0.0
 11
1.503387042765565
 21
7.602982102900983
 31
0.0
  0
LINE
  5
1A30
330
10C1
100
AcDbEntity
  8
image
100
AcDbLine
 10
1.52498597081982
 20
2.198839175238775
 30
0.0
 11
1.613812206970687
 21
2.198839175238775
 31
0.0
  0
LINE
  5
1A31
330
10C1
100
AcDbEntity
  8
image
100
AcDbLine
 10
1.515822705740449
 20
2.219783781134482
 30
0.0
 11
2.18343201866612
 21
2.219783781134482
 31
0.0
  0
ARC
  5
1A32
330
10C1
100
AcDbEntity
  8
image
100
AcDbCircle
 10
1.530731630498233
 20
2.213829668532045
 30
0.0
 40
0.0160538934316793
100
AcDbArc
 50
158.2299291778305
 51
249.0288262834868
  0
LINE
  5
1A33
330
10C1
100
AcDbEntity
  8
image
100
AcDbLine
 10
1.584154482475194
 20
1.93074821977372
 30
0.0
 11
2.115100241931378
 21
1.93074821977372
 31
0.0
  0
LINE
  5
1A34
330
10C1
100
AcDbEntity
  8
image
100
AcDbLine
 10
1.584154482475194
 20
1.93074821977372
 30
0.0
 11
1.584154482475194
 21
2.198839175238775
 31
0.0
  0
LINE
  5
1A35
330
10C1
100
AcDbEntity
  8
image
100
AcDbLine
 10
2.115100241931376
 20
1.93074821977372
 30
0.0
 11
2.115100241931376
 21
2.198839175238775
 31
0.0
  0
ARC
  5
1A36
330
10C1
100
AcDbEntity
  8
image
100
AcDbCircle
 10
2.168523093908337
 20
2.213829668532045
 30
0.0
 40
0.0160538934316793
100
AcDbArc
 50
290.9711737165133
 51
21.77007082216946
  0
LINE
  5
1A38
330
10C1
100
AcDbEntity
  8
image
100
AcDbLine
 10
1.596274534279853
 20
7.840482329491574
 30
0.0
 11
1.559319063014032
 21
7.84048232949157
 31
0.0
  0
LINE
  5
1A39
330
10C1
100
AcDbEntity
  8
image
100
AcDbLine
 10
1.849627362203285
 20
7.880498131019105
 30
0.0
 11
1.4621521531327
 21
7.88049813101911
 31
0.0
  0
LINE
  5
1A3A
330
10C1
100
AcDbEntity
  8
image
100
AcDbLine
 10
1.417644865604322
 20
7.642253238955434
 30
0.0
 11
2.281609858802248
 21
7.642253238955434
 31
0.0
  0
LINE
  5
1A3B
330
10C1
100
AcDbEntity
  8
image
100
AcDbLine
 10
1.417644865604322
 20
7.602982102900983
 30
0.0
 11
2.281609858802248
 21
7.602982102900983
 31
0.0
  0
LINE
  5
1A3C
330
10C1
100
AcDbEntity
  8
image
100
AcDbLine
 10
1.435880659245956
 20
7.840482329491568
 30
0.0
 11
1.435880659245958
 21
7.642253238955434
 31
0.0
  0
LINE
  5
1A3D
330
10C1
100
AcDbEntity
  8
image
100
AcDbLine
 10
1.455949694391345
 20
7.840482329491568
 30
0.0
 11
1.455949694391345
 21
7.642253238955434
 31
0.0
  0
LINE
  5
1A3E
330
10C1
100
AcDbEntity
  8
image
100
AcDbLine
 10
1.559319063014028
 20
7.642253238955439
 30
0.0
 11
1.559319063014032
 21
7.840482329491575
 31
0.0
  0
LINE
  5
1A3F
330
10C1
100
AcDbEntity
  8
image
100
AcDbLine
 10
1.511755929295876
 20
7.642253238955439
 30
0.0
 11
1.51175592929588
 21
7.840482329491575
 31
0.0
  0
LINE
  5
1A40
330
10C1
100
AcDbEntity
  8
image
100
AcDbLine
 10
1.484739914706951
 20
7.642253238955439
 30
0.0
 11
1.484739914706955
 21
7.840482329491575
 31
0.0
  0
LINE
  5
1A41
330
10C1
100
AcDbEntity
  8
image
100
AcDbLine
 10
1.417644865604322
 20
7.602982102900983
 30
0.0
 11
1.417644865604322
 21
7.828136616279837
 31
0.0
  0
LINE
  5
1A44
330
10C1
100
AcDbEntity
  8
image
100
AcDbLine
 10
1.4621521531327
 20
7.88049813101911
 30
0.0
 11
1.41764486560432
 21
7.828136616279835
 31
0.0
  0
LINE
  5
1A45
330
10C1
100
AcDbEntity
  8
image
100
AcDbLine
 10
1.455949694391345
 20
7.840482329491568
 30
0.0
 11
1.435880659245956
 21
7.840482329491568
 31
0.0
  0
LINE
  5
1A46
330
10C1
100
AcDbEntity
  8
image
100
AcDbLine
 10
1.435880659245955
 20
7.828136616279841
 30
0.0
 11
1.417644865604322
 21
7.828136616279839
 31
0.0
  0
LINE
  5
1A47
330
10C1
100
AcDbEntity
  8
image
100
AcDbLine
 10
1.511755929295877
 20
7.840482329491574
 30
0.0
 11
1.484739914706953
 21
7.840482329491572
 31
0.0
  0
LINE
  5
1A48
330
10C1
100
AcDbEntity
  8
image
100
AcDbLine
 10
1.484739914706953
 20
7.828136616279841
 30
0.0
 11
1.455949694391345
 21
7.828136616279841
 31
0.0
  0
LINE
  5
1A49
330
10C1
100
AcDbEntity
  8
image
100
AcDbLine
 10
1.55931906301403
 20
7.828136616279835
 30
0.0
 11
1.511755929295877
 21
7.828136616279837
 31
0.0
  0
LINE
  5
1A4F
330
10C1
100
AcDbEntity
  8
image
100
AcDbLine
 10
1.849627362203285
 20
7.880498131019105
 30
0.0
 11
2.237102571273869
 21
7.88049813101911
 31
0.0
  0
LINE
  5
1A50
330
10C1
100
AcDbEntity
  8
image
100
AcDbLine
 10
2.045716626801242
 20
7.828136616279839
 30
0.0
 11
2.102980190126717
 21
7.828136616279837
 31
0.0
  0
LINE
  5
1A51
330
10C1
100
AcDbEntity
  8
image
100
AcDbLine
 10
1.59627453427985
 20
7.642253238955437
 30
0.0
 11
1.596274534279853
 21
7.840482329491574
 31
0.0
  0
LINE
  5
1A52
330
10C1
100
AcDbEntity
  8
image
100
AcDbLine
 10
1.761921825015007
 20
7.642253238955436
 30
0.0
 11
1.76192182501501
 21
7.840482329491572
 31
0.0
  0
LINE
  5
1A53
330
10C1
100
AcDbEntity
  8
image
100
AcDbLine
 10
1.698180759560532
 20
7.642253238955436
 30
0.0
 11
1.698180759560535
 21
7.840482329491572
 31
0.0
  0
LINE
  5
1A54
330
10C1
100
AcDbEntity
  8
image
100
AcDbLine
 10
1.653538097605327
 20
7.642253238955437
 30
0.0
 11
1.65353809760533
 21
7.840482329491574
 31
0.0
  0
LINE
  5
1A55
330
10C1
100
AcDbEntity
  8
image
100
AcDbLine
 10
2.045716626801243
 20
7.642253238955437
 30
0.0
 11
2.04571662680124
 21
7.840482329491574
 31
0.0
  0
LINE
  5
1A56
330
10C1
100
AcDbEntity
  8
image
100
AcDbLine
 10
2.001073964846038
 20
7.642253238955436
 30
0.0
 11
2.001073964846034
 21
7.840482329491572
 31
0.0
  0
LINE
  5
1A57
330
10C1
100
AcDbEntity
  8
image
100
AcDbLine
 10
1.937332899391563
 20
7.642253238955436
 30
0.0
 11
1.93733289939156
 21
7.840482329491572
 31
0.0
  0
LINE
  5
1A58
330
10C1
100
AcDbEntity
  8
image
100
AcDbLine
 10
1.814283339754281
 20
7.642253238955434
 30
0.0
 11
1.814283339754281
 21
7.84048232949157
 31
0.0
  0
LINE
  5
1A59
330
10C1
100
AcDbEntity
  8
image
100
AcDbLine
 10
1.884971384652294
 20
7.642253238955434
 30
0.0
 11
1.884971384652291
 21
7.84048232949157
 31
0.0
  0
LINE
  5
1A5A
330
10C1
100
AcDbEntity
  8
image
100
AcDbLine
 10
1.814283339754279
 20
7.828136616279837
 30
0.0
 11
1.884971384652292
 21
7.828136616279837
 31
0.0
  0
LINE
  5
1A5E
330
10C1
100
AcDbEntity
  8
image
100
AcDbLine
 10
1.761921825015007
 20
7.828136616279837
 30
0.0
 11
1.698180759560537
 21
7.828136616279841
 31
0.0
  0
LINE
  5
1A5F
330
10C1
100
AcDbEntity
  8
image
100
AcDbLine
 10
1.653538097605328
 20
7.828136616279839
 30
0.0
 11
1.596274534279852
 21
7.828136616279837
 31
0.0
  0
LINE
  5
1A60
330
10C1
100
AcDbEntity
  8
image
100
AcDbLine
 10
1.698180759560535
 20
7.840482329491572
 30
0.0
 11
1.65353809760533
 21
7.840482329491568
 31
0.0
  0
LINE
  5
1A61
330
10C1
100
AcDbEntity
  8
image
100
AcDbLine
 10
1.814283339754279
 20
7.84048232949157
 30
0.0
 11
1.761921825015012
 21
7.84048232949157
 31
0.0
  0
LINE
  5
1A65
330
10C1
100
AcDbEntity
  8
image
100
AcDbLine
 10
1.937332899391563
 20
7.828136616279837
 30
0.0
 11
2.001073964846032
 21
7.828136616279841
 31
0.0
  0
LINE
  5
1A66
330
10C1
100
AcDbEntity
  8
image
100
AcDbLine
 10
1.884971384652291
 20
7.84048232949157
 30
0.0
 11
1.937332899391558
 21
7.84048232949157
 31
0.0
  0
LINE
  5
1A67
330
10C1
100
AcDbEntity
  8
image
100
AcDbLine
 10
2.001073964846034
 20
7.840482329491572
 30
0.0
 11
2.04571662680124
 21
7.840482329491568
 31
0.0
  0
LINE
  5
1A68
330
10C1
100
AcDbEntity
  8
image
100
AcDbLine
 10
2.214514809699619
 20
7.642253238955439
 30
0.0
 11
2.214514809699614
 21
7.840482329491575
 31
0.0
  0
LINE
  5
1A69
330
10C1
100
AcDbEntity
  8
image
100
AcDbLine
 10
2.187498795110693
 20
7.642253238955439
 30
0.0
 11
2.18749879511069
 21
7.840482329491575
 31
0.0
  0
LINE
  5
1A6A
330
10C1
100
AcDbEntity
  8
image
100
AcDbLine
 10
2.139935661392541
 20
7.642253238955439
 30
0.0
 11
2.139935661392537
 21
7.840482329491575
 31
0.0
  0
LINE
  5
1A6B
330
10C1
100
AcDbEntity
  8
image
100
AcDbLine
 10
2.10298019012672
 20
7.642253238955437
 30
0.0
 11
2.102980190126716
 21
7.840482329491574
 31
0.0
  0
LINE
  5
1A6C
330
10C1
100
AcDbEntity
  8
image
100
AcDbLine
 10
2.243305030015224
 20
7.840482329491568
 30
0.0
 11
2.243305030015224
 21
7.642253238955434
 31
0.0
  0
LINE
  5
1A6D
330
10C1
100
AcDbEntity
  8
image
100
AcDbLine
 10
2.263374065160613
 20
7.840482329491568
 30
0.0
 11
2.263374065160611
 21
7.642253238955434
 31
0.0
  0
LINE
  5
1A6E
330
10C1
100
AcDbEntity
  8
image
100
AcDbLine
 10
2.281609858802248
 20
7.602982102900983
 30
0.0
 11
2.281609858802248
 21
7.828136616279835
 31
0.0
  0
LINE
  5
1A71
330
10C1
100
AcDbEntity
  8
image
100
AcDbLine
 10
2.187498795110692
 20
7.840482329491574
 30
0.0
 11
2.214514809699617
 21
7.840482329491572
 31
0.0
  0
LINE
  5
1A72
330
10C1
100
AcDbEntity
  8
image
100
AcDbLine
 10
2.102980190126716
 20
7.840482329491574
 30
0.0
 11
2.139935661392537
 21
7.84048232949157
 31
0.0
  0
LINE
  5
1A73
330
10C1
100
AcDbEntity
  8
image
100
AcDbLine
 10
2.139935661392539
 20
7.828136616279835
 30
0.0
 11
2.187498795110692
 21
7.828136616279837
 31
0.0
  0
LINE
  5
1A74
330
10C1
100
AcDbEntity
  8
image
100
AcDbLine
 10
2.243305030015224
 20
7.840482329491568
 30
0.0
 11
2.263374065160613
 21
7.840482329491568
 31
0.0
  0
LINE
  5
1A75
330
10C1
100
AcDbEntity
  8
image
100
AcDbLine
 10
2.237102571273869
 20
7.88049813101911
 30
0.0
 11
2.28160985880225
 21
7.828136616279835
 31
0.0
  0
LINE
  5
1A76
330
10C1
100
AcDbEntity
  8
image
100
AcDbLine
 10
2.214514809699617
 20
7.828136616279841
 30
0.0
 11
2.243305030015224
 21
7.828136616279841
 31
0.0
  0
LINE
  5
1A77
330
10C1
100
AcDbEntity
  8
image
100
AcDbLine
 10
2.263374065160614
 20
7.828136616279841
 30
0.0
 11
2.281609858802248
 21
7.828136616279839
 31
0.0
  0
LINE
  5
1A7F
330
10C1
100
AcDbEntity
  8
image
100
AcDbLine
 10
2.085295892265664
 20
1.980183042250555
 30
0.0
 11
2.085295892265666
 21
2.219783781134482
 31
0.0
  0
LINE
  5
1A80
330
10C1
100
AcDbEntity
  8
image
100
AcDbLine
 10
2.024965123994724
 20
1.933057678985213
 30
0.0
 11
2.024965123994724
 21
2.198839175238775
 31
0.0
  0
LINE
  5
1A81
330
10C1
100
AcDbEntity
  8
image
100
AcDbLine
 10
2.085295892265664
 20
1.980183042250555
 30
0.0
 11
2.069472411523103
 21
1.980183042250555
 31
0.0
  0
LWPOLYLINE
  5
1A82
330
10C1
100
AcDbEntity
  8
image
100
AcDbPolyline
 90
        2
 70
     0
 43
0.0
 10
1.569493258348201
 20
1.878386705034452
 10
2.129761466058373
 20
1.878386705034452
  0
LWPOLYLINE
  5
1A83
330
10C1
100
AcDbEntity
  8
image
100
AcDbPolyline
 90
        2
 70
     0
 43
0.0
 10
1.569493258348201
 20
1.878386705034452
 10
1.584154482475193
 20
1.93074821977372
  0
LWPOLYLINE
  5
1A84
330
10C1
100
AcDbEntity
  8
image
100
AcDbPolyline
 90
        2
 70
     0
 43
0.0
 10
2.129761466058373
 20
1.878386705034452
 10
2.115100241931378
 20
1.93074821977372
  0
LWPOLYLINE
  5
1A85
330
10C1
100
AcDbEntity
  8
image
100
AcDbPolyline
 90
        2
 70
     0
 43
0.0
 10
1.871095583246387
 20
1.878386705034452
 10
1.871095583246387
 20
1.214442698140529
  0
LWPOLYLINE
  5
1A86
330
10C1
100
AcDbEntity
  8
image
100
AcDbPolyline
 90
        2
 70
     0
 43
0.0
 10
1.828159141160186
 20
1.878386705034452
 10
1.828159141160186
 20
1.214442698140529
  0
LWPOLYLINE
  5
1A87
330
10C1
100
AcDbEntity
  8
image
100
AcDbPolyline
 90
        2
 70
     0
 43
0.0
 10
1.658507833404956
 20
1.878386705034452
 10
2.040746891001615
 20
1.878386705034452
  0
LWPOLYLINE
  5
1A88
330
10C1
100
AcDbEntity
  8
image
100
AcDbPolyline
 90
        2
 70
     0
 43
0.0
 10
2.040746891001615
 20
1.878386705034452
 10
2.021629189950963
 20
1.505444475307864
  0
LWPOLYLINE
  5
1A89
330
10C1
100
AcDbEntity
  8
image
100
AcDbPolyline
 90
        2
 70
     0
 43
0.0
 10
1.658507833404956
 20
1.878386705034452
 10
1.67762553445561
 20
1.505444475307864
  0
LWPOLYLINE
  5
1A8A
330
10C1
100
AcDbEntity
  8
image
100
AcDbPolyline
 90
        2
 70
     0
 43
0.0
 10
1.642013956262088
 20
1.171506256054329
 10
2.057240768144485
 20
1.171506256054329
  0
LWPOLYLINE
  5
1A8B
330
10C1
100
AcDbEntity
  8
image
100
AcDbPolyline
 90
        2
 70
     0
 43
0.0
 10
1.630331453232709
 20
1.214442698140529
 10
2.083182837732669
 20
1.214442698140529
  0
LWPOLYLINE
  5
1A8C
330
10C1
100
AcDbEntity
  8
image
100
AcDbPolyline
 90
        3
 70
     0
 43
0.0
 10
2.031858878497796
 20
1.705002091883006
 10
2.031858878497796
 20
1.705002091883006
 10
2.129761466058373
 20
1.878386705034452
  0
LWPOLYLINE
  5
1A8D
330
10C1
100
AcDbEntity
  8
image
100
AcDbPolyline
 90
        2
 70
     0
 43
0.0
 10
2.387450120226975
 20
1.718032225149294
 10
2.057240768144485
 20
1.171506256054329
  0
LWPOLYLINE
  5
1A8E
330
10C1
100
AcDbEntity
  8
image
100
AcDbPolyline
 90
        2
 70
     0
 43
0.0
 10
2.233063169507049
 20
1.462508033221665
 10
1.871095583246387
 20
1.462508033221665
  0
LWPOLYLINE
  5
1A8F
330
10C1
100
AcDbEntity
  8
image
100
AcDbPolyline
 90
        2
 70
     0
 43
0.0
 10
1.642013956262088
 20
1.171506256054329
 10
1.551153277815034
 20
1.505444475307864
  0
LWPOLYLINE
  5
1A90
330
10C1
100
AcDbEntity
  8
image
100
AcDbPolyline
 90
        2
 70
     0
 43
0.0
 10
2.202722535944212
 20
1.505444475307864
 10
1.871095583246387
 20
1.505444475307864
  0
LWPOLYLINE
  5
1A91
330
10C1
100
AcDbEntity
  8
image
100
AcDbPolyline
 90
        2
 70
     0
 43
0.0
 10
1.828159141160186
 20
1.505444475307864
 10
1.551153277815034
 20
1.505444475307864
  0
LWPOLYLINE
  5
1A92
330
10C1
100
AcDbEntity
  8
image
100
AcDbPolyline
 90
        2
 70
     0
 43
0.0
 10
1.828159141160186
 20
1.462508033221665
 10
1.562835780844414
 20
1.462508033221665
  0
ARC
  5
1A93
330
10C1
100
AcDbEntity
  8
image
100
AcDbCircle
 10
2.146471706241348
 20
1.663090881976335
 30
0.0
 40
0.6158379825566595
100
AcDbArc
 50
159.5372614874052
 51
194.8320667203905
  0
LWPOLYLINE
  5
1A94
330
10C1
100
AcDbEntity
  8
image
100
AcDbPolyline
 90
        2
 70
     0
 43
0.0
 10
1.679826535035738
 20
1.462508033221665
 10
1.692542817985481
 20
1.214442698140529
  0
LWPOLYLINE
  5
1A95
330
10C1
100
AcDbEntity
  8
image
100
AcDbPolyline
 90
        2
 70
     0
 43
0.0
 10
2.014734522350544
 20
1.370945421195074
 10
2.006711906421092
 20
1.214442698140529
  0
LWPOLYLINE
  5
1A96
330
10C1
100
AcDbEntity
  8
image
100
AcDbPolyline
 90
        2
 70
     0
 43
0.0
 10
2.331167417075954
 20
1.718032225149294
 10
2.202722535944212
 20
1.505444475307864
  0
LWPOLYLINE
  5
1A97
330
10C1
100
AcDbEntity
  8
image
100
AcDbPolyline
 90
        2
 70
     0
 43
0.0
 10
2.331167417075954
 20
1.718032225149294
 10
2.387450120226975
 20
1.718032225149294
  0
LWPOLYLINE
  5
1A98
330
10C1
100
AcDbEntity
  8
image
100
AcDbPolyline
 90
        2
 70
     0
 43
0.0
 10
2.123000381255464
 20
1.665507987977976
 10
2.106574516302528
 20
1.638321714466911
  0
LWPOLYLINE
  5
1A99
330
10C1
100
AcDbEntity
  8
image
100
AcDbPolyline
 90
        2
 70
     0
 43
0.0
 10
2.174679001566471
 20
1.635667819133204
 10
2.157640598658388
 20
1.607467740599861
  0
LWPOLYLINE
  5
1A9A
330
10C1
100
AcDbEntity
  8
image
100
AcDbPolyline
 90
        2
 70
     0
 43
0.0
 10
2.024678743054741
 20
1.564934218932327
 10
2.106574516302528
 20
1.63832171446691
  0
LWPOLYLINE
  5
1A9B
330
10C1
100
AcDbEntity
  8
image
100
AcDbPolyline
 90
        2
 70
     0
 43
0.0
 10
2.140135629189371
 20
1.505444475307864
 10
2.157640598658388
 20
1.607467740599861
  0
LWPOLYLINE
  5
1A9C
330
10C1
100
AcDbEntity
  8
image
100
AcDbPolyline
 90
        2
 70
     0
 43
0.0
 10
2.070056378039031
 20
1.462508033221664
 10
2.014734522350544
 20
1.370945421195068
  0
ARC
  5
1A9D
330
10C1
100
AcDbEntity
  8
image
100
AcDbCircle
 10
2.344638482074201
 20
1.399935549602788
 30
0.0
 40
0.3311752559996663
100
AcDbArc
 50
169.1090290672645
 51
185.0219351923089
  0
LWPOLYLINE
  5
1A9E
330
10C1
100
AcDbEntity
  8
image
100
AcDbPolyline
 90
        2
 70
     0
 43
0.0
 10
2.085295892265664
 20
1.980183042250555
 10
2.040788604737286
 20
1.933057678985214
  0
LINE
  5
1A9F
330
10C1
100
AcDbEntity
  8
image
100
AcDbLine
 10
2.119782186213152
 20
2.198839175238775
 30
0.0
 11
2.174268753586749
 21
2.198839175238775
 31
0.0
  0
LINE
  5
1AA0
330
10C1
100
AcDbEntity
  8
image
100
AcDbLine
 10
1.674142975241625
 20
1.933057678985213
 30
0.0
 11
1.674142975241625
 21
2.198839175238775
 31
0.0
  0
LINE
  5
1AA1
330
10C1
100
AcDbEntity
  8
image
100
AcDbLine
 10
1.613812206970687
 20
1.980183042250555
 30
0.0
 11
1.613812206970687
 21
2.219783781134482
 31
0.0
  0
LWPOLYLINE
  5
1AA2
330
10C1
100
AcDbEntity
  8
image
100
AcDbPolyline
 90
        2
 70
     0
 43
0.0
 10
1.613812206970687
 20
1.980183042250555
 10
1.658319494499065
 20
1.933057678985214
  0
LINE
  5
1AA3
330
10C1
100
AcDbEntity
  8
image
100
AcDbLine
 10
1.613812206970687
 20
1.980183042250555
 30
0.0
 11
1.629635687713247
 21
1.980183042250555
 31
0.0
  0
LINE
  5
1AA4
330
10C1
100
AcDbEntity
  8
image
100
AcDbLine
 10
2.085295892265664
 20
2.198839175238775
 30
0.0
 11
2.119782186213152
 21
2.198839175238775
 31
0.0
  0
LINE
  5
1AA5
330
10C1
100
AcDbEntity
  8
image
100
AcDbLine
 10
2.069472411523103
 20
1.980183042250555
 30
0.0
 11
2.069472411523103
 21
2.210187208640777
 31
0.0
  0
LINE
  5
1AA6
330
10C1
100
AcDbEntity
  8
image
100
AcDbLine
 10
1.629635687713248
 20
1.980183042250555
 30
0.0
 11
1.629635687713248
 21
2.210187208640778
 31
0.0
  0
LWPOLYLINE
  5
1AA7
330
10C1
100
AcDbEntity
  8
image
100
AcDbPolyline
 90
        2
 70
     0
 43
0.0
 10
2.069472411523102
 20
1.980183042250555
 10
2.024965123994724
 20
1.933057678985213
  0
LWPOLYLINE
  5
1AA8
330
10C1
100
AcDbEntity
  8
image
100
AcDbPolyline
 90
        2
 70
     0
 43
0.0
 10
1.629635687713247
 20
1.980183042250555
 10
1.674142975241625
 20
1.933057678985213
  0
LINE
  5
1AA9
330
10C1
100
AcDbEntity
  8
image
100
AcDbLine
 10
2.040788604737285
 20
1.933057678985214
 30
0.0
 11
2.024965123994724
 21
1.933057678985213
 31
0.0
  0
LINE
  5
1AAA
330
10C1
100
AcDbEntity
  8
image
100
AcDbLine
 10
1.658319494499065
 20
1.933057678985214
 30
0.0
 11
1.674142975241625
 21
1.933057678985213
 31
0.0
  0
LINE
  5
1AAB
330
10C1
100
AcDbEntity
  8
image
100
AcDbLine
 10
1.674142975241627
 20
2.198839175238775
 30
0.0
 11
2.024965123994725
 21
2.198839175238775
 31
0.0
  0
ARC
  5
1AAC
330
10C1
100
AcDbEntity
  8
image
100
AcDbCircle
 10
1.678377161850065
 20
2.308399164128525
 30
0.0
 40
0.1096417780855325
100
AcDbArc
 50
233.9230091132946
 51
267.7867801058023
  0
ARC
  5
1AAD
330
10C1
100
AcDbEntity
  8
image
100
AcDbCircle
 10
2.020730937386288
 20
2.308399164128525
 30
0.0
 40
0.1096417780855325
100
AcDbArc
 50
272.2132198941957
 51
306.0769908867054
  0
POLYLINE
  5
1D5F
330
10C1
100
AcDbEntity
  8
image
100
AcDb2dPolyline
 66
     1
 10
0.0
 20
0.0
 30
0.0
 70
     4
 75
     6
  0
VERTEX
  5
1D61
330
1D5F
100
AcDbEntity
  8
image
100
AcDbVertex
100
AcDb2dVertex
 10
2.117740606349576
 20
1.668545077016589
 30
0.0
 70
    16
  0
VERTEX
  5
1D82
330
1D5F
100
AcDbEntity
  8
image
100
AcDbVertex
100
AcDb2dVertex
 10
2.117740606349576
 20
1.668545077016589
 30
0.0
 70
     8
  0
VERTEX
  5
1D83
330
1D5F
100
AcDbEntity
  8
image
100
AcDbVertex
100
AcDb2dVertex
 10
2.119812477540346
 20
1.67310862269928
 30
0.0
 70
     8
  0
VERTEX
  5
1D84
330
1D5F
100
AcDbEntity
  8
image
100
AcDbVertex
100
AcDb2dVertex
 10
2.121344916692926
 20
1.676857672660838
 30
0.0
 70
     8
  0
VERTEX
  5
1D85
330
1D5F
100
AcDbEntity
  8
image
100
AcDbVertex
100
AcDb2dVertex
 10
2.122406660855553
 20
1.679908367796375
 30
0.0
 70
     8
  0
VERTEX
  5
1D86
330
1D5F
100
AcDbEntity
  8
image
100
AcDbVertex
100
AcDb2dVertex
 10
2.123066447076463
 20
1.682376849001006
 30
0.0
 70
     8
  0
VERTEX
  5
1D87
330
1D5F
100
AcDbEntity
  8
image
100
AcDbVertex
100
AcDb2dVertex
 10
2.123393012403893
 20
1.684379257169847
 30
0.0
 70
     8
  0
VERTEX
  5
1D88
330
1D5F
100
AcDbEntity
  8
image
100
AcDbVertex
100
AcDb2dVertex
 10
2.123455093886079
 20
1.686031733198011
 30
0.0
 70
     8
  0
VERTEX
  5
1D89
330
1D5F
100
AcDbEntity
  8
image
100
AcDbVertex
100
AcDb2dVertex
 10
2.123321428571258
 20
1.687450417980613
 30
0.0
 70
     8
  0
VERTEX
  5
1D8A
330
1D5F
100
AcDbEntity
  8
image
100
AcDbVertex
100
AcDb2dVertex
 10
2.123060753507665
 20
1.688751452412768
 30
0.0
 70
     8
  0
VERTEX
  5
1D8B
330
1D5F
100
AcDbEntity
  8
image
100
AcDbVertex
100
AcDb2dVertex
 10
2.122732958073858
 20
1.69002948441399
 30
0.0
 70
     8
  0
VERTEX
  5
1D8C
330
1D5F
100
AcDbEntity
  8
image
100
AcDbVertex
100
AcDb2dVertex
 10
2.122362540969674
 20
1.691293190001399
 30
0.0
 70
     8
  0
VERTEX
  5
1D8D
330
1D5F
100
AcDbEntity
  8
image
100
AcDbVertex
100
AcDb2dVertex
 10
2.121965153225271
 20
1.692529752216517
 30
0.0
 70
     8
  0
VERTEX
  5
1D8E
330
1D5F
100
AcDbEntity
  8
image
100
AcDbVertex
100
AcDb2dVertex
 10
2.121556445870804
 20
1.693726354100861
 30
0.0
 70
     8
  0
VERTEX
  5
1D8F
330
1D5F
100
AcDbEntity
  8
image
100
AcDbVertex
100
AcDb2dVertex
 10
2.121152069936432
 20
1.694870178695955
 30
0.0
 70
     8
  0
VERTEX
  5
1D90
330
1D5F
100
AcDbEntity
  8
image
100
AcDbVertex
100
AcDb2dVertex
 10
2.120767676452312
 20
1.695948409043317
 30
0.0
 70
     8
  0
VERTEX
  5
1D91
330
1D5F
100
AcDbEntity
  8
image
100
AcDbVertex
100
AcDb2dVertex
 10
2.120418916448602
 20
1.696948228184467
 30
0.0
 70
     8
  0
VERTEX
  5
1D92
330
1D5F
100
AcDbEntity
  8
image
100
AcDbVertex
100
AcDb2dVertex
 10
2.120121440955459
 20
1.697856819160928
 30
0.0
 70
     8
  0
VERTEX
  5
1D93
330
1D5F
100
AcDbEntity
  8
image
100
AcDbVertex
100
AcDb2dVertex
 10
2.119887713968394
 20
1.698665967492716
 30
0.0
 70
     8
  0
VERTEX
  5
1D94
330
1D5F
100
AcDbEntity
  8
image
100
AcDbVertex
100
AcDb2dVertex
 10
2.119717451344337
 20
1.699385868613842
 30
0.0
 70
     8
  0
VERTEX
  5
1D95
330
1D5F
100
AcDbEntity
  8
image
100
AcDbVertex
100
AcDb2dVertex
 10
2.119607181905573
 20
1.700031320436818
 30
0.0
 70
     8
  0
VERTEX
  5
1D96
330
1D5F
100
AcDbEntity
  8
image
100
AcDbVertex
100
AcDb2dVertex
 10
2.119553434474384
 20
1.700617120874152
 30
0.0
 70
     8
  0
VERTEX
  5
1D97
330
1D5F
100
AcDbEntity
  8
image
100
AcDbVertex
100
AcDb2dVertex
 10
2.119552737873056
 20
1.701158067838353
 30
0.0
 70
     8
  0
VERTEX
  5
1D98
330
1D5F
100
AcDbEntity
  8
image
100
AcDbVertex
100
AcDb2dVertex
 10
2.119601620923872
 20
1.70166895924193
 30
0.0
 70
     8
  0
VERTEX
  5
1D99
330
1D5F
100
AcDbEntity
  8
image
100
AcDbVertex
100
AcDb2dVertex
 10
2.119696612449115
 20
1.702164592997394
 30
0.0
 70
     8
  0
VERTEX
  5
1D9A
330
1D5F
100
AcDbEntity
  8
image
100
AcDbVertex
100
AcDb2dVertex
 10
2.119834241271071
 20
1.702659767017254
 30
0.0
 70
     8
  0
VERTEX
  5
1D9B
330
1D5F
100
AcDbEntity
  8
image
100
AcDbVertex
100
AcDb2dVertex
 10
2.120039670360736
 20
1.703199077815932
 30
0.0
 70
     8
  0
VERTEX
  5
1D9C
330
1D5F
100
AcDbEntity
  8
image
100
AcDbVertex
100
AcDb2dVertex
 10
2.120452599283968
 20
1.703946316315506
 30
0.0
 70
     8
  0
VERTEX
  5
1D9D
330
1D5F
100
AcDbEntity
  8
image
100
AcDbVertex
100
AcDb2dVertex
 10
2.121241361755335
 20
1.705095072039968
 30
0.0
 70
     8
  0
VERTEX
  5
1D9E
330
1D5F
100
AcDbEntity
  8
image
100
AcDbVertex
100
AcDb2dVertex
 10
2.122574291489408
 20
1.706838934513308
 30
0.0
 70
     8
  0
VERTEX
  5
1D9F
330
1D5F
100
AcDbEntity
  8
image
100
AcDbVertex
100
AcDb2dVertex
 10
2.124619722200757
 20
1.709371493259517
 30
0.0
 70
     8
  0
VERTEX
  5
1DA0
330
1D5F
100
AcDbEntity
  8
image
100
AcDbVertex
100
AcDb2dVertex
 10
2.12754598760395
 20
1.712886337802588
 30
0.0
 70
     8
  0
VERTEX
  5
1DA1
330
1D5F
100
AcDbEntity
  8
image
100
AcDbVertex
100
AcDb2dVertex
 10
2.131521421413558
 20
1.71757705766651
 30
0.0
 70
     8
  0
VERTEX
  5
1DA2
330
1D5F
100
AcDbEntity
  8
image
100
AcDbVertex
100
AcDb2dVertex
 10
2.136714357344152
 20
1.723637242375276
 30
0.0
 70
     8
  0
VERTEX
  5
1DA3
330
1D5F
100
AcDbEntity
  8
image
100
AcDbVertex
100
AcDb2dVertex
 10
2.143228014517509
 20
1.731205239414597
 30
0.0
 70
     8
  0
VERTEX
  5
1DA4
330
1D5F
100
AcDbEntity
  8
image
100
AcDbVertex
100
AcDb2dVertex
 10
2.150905153684242
 20
1.740198428117068
 30
0.0
 70
     8
  0
VERTEX
  5
1DA5
330
1D5F
100
AcDbEntity
  8
image
100
AcDbVertex
100
AcDb2dVertex
 10
2.159523421002172
 20
1.750478945777004
 30
0.0
 70
     8
  0
VERTEX
  5
1DA6
330
1D5F
100
AcDbEntity
  8
image
100
AcDbVertex
100
AcDb2dVertex
 10
2.168860462629119
 20
1.761908929688723
 30
0.0
 70
     8
  0
VERTEX
  5
1DA7
330
1D5F
100
AcDbEntity
  8
image
100
AcDbVertex
100
AcDb2dVertex
 10
2.178693924722906
 20
1.774350517146539
 30
0.0
 70
     8
  0
VERTEX
  5
1DA8
330
1D5F
100
AcDbEntity
  8
image
100
AcDbVertex
100
AcDb2dVertex
 10
2.188801453441352
 20
1.787665845444768
 30
0.0
 70
     8
  0
VERTEX
  5
1DA9
330
1D5F
100
AcDbEntity
  8
image
100
AcDbVertex
100
AcDb2dVertex
 10
2.198960694942279
 20
1.801717051877727
 30
0.0
 70
     8
  0
VERTEX
  5
1DAA
330
1D5F
100
AcDbEntity
  8
image
100
AcDbVertex
100
AcDb2dVertex
 10
2.208949295383508
 20
1.81636627373973
 30
0.0
 70
     8
  0
VERTEX
  5
1DAB
330
1D5F
100
AcDbEntity
  8
image
100
AcDbVertex
100
AcDb2dVertex
 10
2.218578948102543
 20
1.831492597847149
 30
0.0
 70
     8
  0
VERTEX
  5
1DAC
330
1D5F
100
AcDbEntity
  8
image
100
AcDbVertex
100
AcDb2dVertex
 10
2.227797535155626
 20
1.847042909104573
 30
0.0
 70
     8
  0
VERTEX
  5
1DAD
330
1D5F
100
AcDbEntity
  8
image
100
AcDbVertex
100
AcDb2dVertex
 10
2.236586985778682
 20
1.862981041938649
 30
0.0
 70
     8
  0
VERTEX
  5
1DAE
330
1D5F
100
AcDbEntity
  8
image
100
AcDbVertex
100
AcDb2dVertex
 10
2.244929229207635
 20
1.879270830776021
 30
0.0
 70
     8
  0
VERTEX
  5
1DAF
330
1D5F
100
AcDbEntity
  8
image
100
AcDbVertex
100
AcDb2dVertex
 10
2.252806194678409
 20
1.895876110043334
 30
0.0
 70
     8
  0
VERTEX
  5
1DB0
330
1D5F
100
AcDbEntity
  8
image
100
AcDbVertex
100
AcDb2dVertex
 10
2.260199811426931
 20
1.912760714167233
 30
0.0
 70
     8
  0
VERTEX
  5
1DB1
330
1D5F
100
AcDbEntity
  8
image
100
AcDbVertex
100
AcDb2dVertex
 10
2.267092008689124
 20
1.929888477574364
 30
0.0
 70
     8
  0
VERTEX
  5
1DB2
330
1D5F
100
AcDbEntity
  8
image
100
AcDbVertex
100
AcDb2dVertex
 10
2.273464715700914
 20
1.947223234691372
 30
0.0
 70
     8
  0
VERTEX
  5
1DB3
330
1D5F
100
AcDbEntity
  8
image
100
AcDbVertex
100
AcDb2dVertex
 10
2.279303168686254
 20
1.964729444310229
 30
0.0
 70
     8
  0
VERTEX
  5
1DB4
330
1D5F
100
AcDbEntity
  8
image
100
AcDbVertex
100
AcDb2dVertex
 10
2.284605831821217
 20
1.982374062684219
 30
0.0
 70
     8
  0
VERTEX
  5
1DB5
330
1D5F
100
AcDbEntity
  8
image
100
AcDbVertex
100
AcDb2dVertex
 10
2.289374476269903
 20
2.000124670431952
 30
0.0
 70
     8
  0
VERTEX
  5
1DB6
330
1D5F
100
AcDbEntity
  8
image
100
AcDbVertex
100
AcDb2dVertex
 10
2.293610873196414
 20
2.017948848172041
 30
0.0
 70
     8
  0
VERTEX
  5
1DB7
330
1D5F
100
AcDbEntity
  8
image
100
AcDbVertex
100
AcDb2dVertex
 10
2.297316793764852
 20
2.035814176523096
 30
0.0
 70
     8
  0
VERTEX
  5
1DB8
330
1D5F
100
AcDbEntity
  8
image
100
AcDbVertex
100
AcDb2dVertex
 10
2.300494009139316
 20
2.053688236103728
 30
0.0
 70
     8
  0
VERTEX
  5
1DB9
330
1D5F
100
AcDbEntity
  8
image
100
AcDbVertex
100
AcDb2dVertex
 10
2.303144290483909
 20
2.071538607532549
 30
0.0
 70
     8
  0
VERTEX
  5
1DBA
330
1D5F
100
AcDbEntity
  8
image
100
AcDbVertex
100
AcDb2dVertex
 10
2.305269408962732
 20
2.089332871428169
 30
0.0
 70
     8
  0
VERTEX
  5
1DBB
330
1D5F
100
AcDbEntity
  8
image
100
AcDbVertex
100
AcDb2dVertex
 10
2.306877329849641
 20
2.107044327099634
 30
0.0
 70
     8
  0
VERTEX
  5
1DBC
330
1D5F
100
AcDbEntity
  8
image
100
AcDbVertex
100
AcDb2dVertex
 10
2.308000794857511
 20
2.124669148617729
 30
0.0
 70
     8
  0
VERTEX
  5
1DBD
330
1D5F
100
AcDbEntity
  8
image
100
AcDbVertex
100
AcDb2dVertex
 10
2.308678739808975
 20
2.142209228743671
 30
0.0
 70
     8
  0
VERTEX
  5
1DBE
330
1D5F
100
AcDbEntity
  8
image
100
AcDbVertex
100
AcDb2dVertex
 10
2.308950100526663
 20
2.159666460238679
 30
0.0
 70
     8
  0
VERTEX
  5
1DBF
330
1D5F
100
AcDbEntity
  8
image
100
AcDbVertex
100
AcDb2dVertex
 10
2.308853812833208
 20
2.177042735863973
 30
0.0
 70
     8
  0
VERTEX
  5
1DC0
330
1D5F
100
AcDbEntity
  8
image
100
AcDbVertex
100
AcDb2dVertex
 10
2.30842881255124
 20
2.19433994838077
 30
0.0
 70
     8
  0
VERTEX
  5
1DC1
330
1D5F
100
AcDbEntity
  8
image
100
AcDbVertex
100
AcDb2dVertex
 10
2.30771403550339
 20
2.21155999055029
 30
0.0
 70
     8
  0
VERTEX
  5
1DC2
330
1D5F
100
AcDbEntity
  8
image
100
AcDbVertex
100
AcDb2dVertex
 10
2.30674841751229
 20
2.22870475513375
 30
0.0
 70
     8
  0
VERTEX
  5
1DC3
330
1D5F
100
AcDbEntity
  8
image
100
AcDbVertex
100
AcDb2dVertex
 10
2.305568900566346
 20
2.245775012188691
 30
0.0
 70
     8
  0
VERTEX
  5
1DC4
330
1D5F
100
AcDbEntity
  8
image
100
AcDbVertex
100
AcDb2dVertex
 10
2.304204451317062
 20
2.262767040957944
 30
0.0
 70
     8
  0
VERTEX
  5
1DC5
330
1D5F
100
AcDbEntity
  8
image
100
AcDbVertex
100
AcDb2dVertex
 10
2.302682042581716
 20
2.279675997980657
 30
0.0
 70
     8
  0
VERTEX
  5
1DC6
330
1D5F
100
AcDbEntity
  8
image
100
AcDbVertex
100
AcDb2dVertex
 10
2.301028647177588
 20
2.296497039795983
 30
0.0
 70
     8
  0
VERTEX
  5
1DC7
330
1D5F
100
AcDbEntity
  8
image
100
AcDbVertex
100
AcDb2dVertex
 10
2.299271237921956
 20
2.313225322943073
 30
0.0
 70
     8
  0
VERTEX
  5
1DC8
330
1D5F
100
AcDbEntity
  8
image
100
AcDbVertex
100
AcDb2dVertex
 10
2.297436787632099
 20
2.329856003961077
 30
0.0
 70
     8
  0
VERTEX
  5
1DC9
330
1D5F
100
AcDbEntity
  8
image
100
AcDbVertex
100
AcDb2dVertex
 10
2.295552269125295
 20
2.346384239389146
 30
0.0
 70
     8
  0
VERTEX
  5
1DCA
330
1D5F
100
AcDbEntity
  8
image
100
AcDbVertex
100
AcDb2dVertex
 10
2.293644655218824
 20
2.362805185766431
 30
0.0
 70
     8
  0
VERTEX
  5
1DCB
330
1D5F
100
AcDbEntity
  8
image
100
AcDbVertex
100
AcDb2dVertex
 10
2.291736669205723
 20
2.379116773886337
 30
0.0
 70
     8
  0
VERTEX
  5
1DCC
330
1D5F
100
AcDbEntity
  8
image
100
AcDbVertex
100
AcDb2dVertex
 10
2.289834036282073
 20
2.39532803155927
 30
0.0
 70
     8
  0
VERTEX
  5
1DCD
330
1D5F
100
AcDbEntity
  8
image
100
AcDbVertex
100
AcDb2dVertex
 10
2.287938232119709
 20
2.411450760849894
 30
0.0
 70
     8
  0
VERTEX
  5
1DCE
330
1D5F
100
AcDbEntity
  8
image
100
AcDbVertex
100
AcDb2dVertex
 10
2.286050732390471
 20
2.42749676382287
 30
0.0
 70
     8
  0
VERTEX
  5
1DCF
330
1D5F
100
AcDbEntity
  8
image
100
AcDbVertex
100
AcDb2dVertex
 10
2.284173012766196
 20
2.443477842542858
 30
0.0
 70
     8
  0
VERTEX
  5
1DD0
330
1D5F
100
AcDbEntity
  8
image
100
AcDbVertex
100
AcDb2dVertex
 10
2.282306548918722
 20
2.459405799074521
 30
0.0
 70
     8
  0
VERTEX
  5
1DD1
330
1D5F
100
AcDbEntity
  8
image
100
AcDbVertex
100
AcDb2dVertex
 10
2.280452816519888
 20
2.475292435482518
 30
0.0
 70
     8
  0
VERTEX
  5
1DD2
330
1D5F
100
AcDbEntity
  8
image
100
AcDbVertex
100
AcDb2dVertex
 10
2.27861329124153
 20
2.491149553831514
 30
0.0
 70
     8
  0
VERTEX
  5
1DD3
330
1D5F
100
AcDbEntity
  8
image
100
AcDbVertex
100
AcDb2dVertex
 10
2.276789146701851
 20
2.506994550848492
 30
0.0
 70
     8
  0
VERTEX
  5
1DD4
330
1D5F
100
AcDbEntity
  8
image
100
AcDbVertex
100
AcDb2dVertex
 10
2.274980348304501
 20
2.522867201909746
 30
0.0
 70
     8
  0
VERTEX
  5
1DD5
330
1D5F
100
AcDbEntity
  8
image
100
AcDbVertex
100
AcDb2dVertex
 10
2.27318655939949
 20
2.53881287705389
 30
0.0
 70
     8
  0
VERTEX
  5
1DD6
330
1D5F
100
AcDbEntity
  8
image
100
AcDbVertex
100
AcDb2dVertex
 10
2.271407443336832
 20
2.554876946319543
 30
0.0
 70
     8
  0
VERTEX
  5
1DD7
330
1D5F
100
AcDbEntity
  8
image
100
AcDbVertex
100
AcDb2dVertex
 10
2.26964266346654
 20
2.571104779745321
 30
0.0
 70
     8
  0
VERTEX
  5
1DD8
330
1D5F
100
AcDbEntity
  8
image
100
AcDbVertex
100
AcDb2dVertex
 10
2.267891883138626
 20
2.58754174736984
 30
0.0
 70
     8
  0
VERTEX
  5
1DD9
330
1D5F
100
AcDbEntity
  8
image
100
AcDbVertex
100
AcDb2dVertex
 10
2.266154765703103
 20
2.604233219231717
 30
0.0
 70
     8
  0
VERTEX
  5
1DDA
330
1D5F
100
AcDbEntity
  8
image
100
AcDbVertex
100
AcDb2dVertex
 10
2.264430974509982
 20
2.621224565369567
 30
0.0
 70
     8
  0
VERTEX
  5
1DDB
330
1D5F
100
AcDbEntity
  8
image
100
AcDbVertex
100
AcDb2dVertex
 10
2.262723639628944
 20
2.638546159778368
 30
0.0
 70
     8
  0
VERTEX
  5
1DDC
330
1D5F
100
AcDbEntity
  8
image
100
AcDbVertex
100
AcDb2dVertex
 10
2.261049758008331
 20
2.656168392278528
 30
0.0
 70
     8
  0
VERTEX
  5
1DDD
330
1D5F
100
AcDbEntity
  8
image
100
AcDbVertex
100
AcDb2dVertex
 10
2.259429793316151
 20
2.674046656646816
 30
0.0
 70
     8
  0
VERTEX
  5
1DDE
330
1D5F
100
AcDbEntity
  8
image
100
AcDbVertex
100
AcDb2dVertex
 10
2.257884209220415
 20
2.692136346659999
 30
0.0
 70
     8
  0
VERTEX
  5
1DDF
330
1D5F
100
AcDbEntity
  8
image
100
AcDbVertex
100
AcDb2dVertex
 10
2.256433469389132
 20
2.710392856094845
 30
0.0
 70
     8
  0
VERTEX
  5
1DE0
330
1D5F
100
AcDbEntity
  8
image
100
AcDbVertex
100
AcDb2dVertex
 10
2.255098037490311
 20
2.728771578728122
 30
0.0
 70
     8
  0
VERTEX
  5
1DE1
330
1D5F
100
AcDbEntity
  8
image
100
AcDbVertex
100
AcDb2dVertex
 10
2.25389837719196
 20
2.747227908336599
 30
0.0
 70
     8
  0
VERTEX
  5
1DE2
330
1D5F
100
AcDbEntity
  8
image
100
AcDbVertex
100
AcDb2dVertex
 10
2.252854952162091
 20
2.765717238697044
 30
0.0
 70
     8
  0
VERTEX
  5
1DE3
330
1D5F
100
AcDbEntity
  8
image
100
AcDbVertex
100
AcDb2dVertex
 10
2.251985117592089
 20
2.784201576783155
 30
0.0
 70
     8
  0
VERTEX
  5
1DE4
330
1D5F
100
AcDbEntity
  8
image
100
AcDbVertex
100
AcDb2dVertex
 10
2.251293794766859
 20
2.802669382356355
 30
0.0
 70
     8
  0
VERTEX
  5
1DE5
330
1D5F
100
AcDbEntity
  8
image
100
AcDbVertex
100
AcDb2dVertex
 10
2.250782796494681
 20
2.821115728374997
 30
0.0
 70
     8
  0
VERTEX
  5
1DE6
330
1D5F
100
AcDbEntity
  8
image
100
AcDbVertex
100
AcDb2dVertex
 10
2.250453935583838
 20
2.839535687797433
 30
0.0
 70
     8
  0
VERTEX
  5
1DE7
330
1D5F
100
AcDbEntity
  8
image
100
AcDbVertex
100
AcDb2dVertex
 10
2.250309024842611
 20
2.857924333582018
 30
0.0
 70
     8
  0
VERTEX
  5
1DE8
330
1D5F
100
AcDbEntity
  8
image
100
AcDbVertex
100
AcDb2dVertex
 10
2.25034987707928
 20
2.876276738687105
 30
0.0
 70
     8
  0
VERTEX
  5
1DE9
330
1D5F
100
AcDbEntity
  8
image
100
AcDbVertex
100
AcDb2dVertex
 10
2.250578305102129
 20
2.894587976071045
 30
0.0
 70
     8
  0
VERTEX
  5
1DEA
330
1D5F
100
AcDbEntity
  8
image
100
AcDbVertex
100
AcDb2dVertex
 10
2.250996121719438
 20
2.912853118692194
 30
0.0
 70
     8
  0
VERTEX
  5
1DEB
330
1D5F
100
AcDbEntity
  8
image
100
AcDbVertex
100
AcDb2dVertex
 10
2.251601377494654
 20
2.931067036476072
 30
0.0
 70
     8
  0
VERTEX
  5
1DEC
330
1D5F
100
AcDbEntity
  8
image
100
AcDbVertex
100
AcDb2dVertex
 10
2.252377074011886
 20
2.949223787216875
 30
0.0
 70
     8
  0
VERTEX
  5
1DED
330
1D5F
100
AcDbEntity
  8
image
100
AcDbVertex
100
AcDb2dVertex
 10
2.253302450610407
 20
2.967317225675966
 30
0.0
 70
     8
  0
VERTEX
  5
1DEE
330
1D5F
100
AcDbEntity
  8
image
100
AcDbVertex
100
AcDb2dVertex
 10
2.254356746629493
 20
2.98534120661471
 30
0.0
 70
     8
  0
VERTEX
  5
1DEF
330
1D5F
100
AcDbEntity
  8
image
100
AcDbVertex
100
AcDb2dVertex
 10
2.255519201408417
 20
3.003289584794471
 30
0.0
 70
     8
  0
VERTEX
  5
1DF0
330
1D5F
100
AcDbEntity
  8
image
100
AcDbVertex
100
AcDb2dVertex
 10
2.256769054286452
 20
3.021156214976611
 30
0.0
 70
     8
  0
VERTEX
  5
1DF1
330
1D5F
100
AcDbEntity
  8
image
100
AcDbVertex
100
AcDb2dVertex
 10
2.258085544602873
 20
3.038934951922496
 30
0.0
 70
     8
  0
VERTEX
  5
1DF2
330
1D5F
100
AcDbEntity
  8
image
100
AcDbVertex
100
AcDb2dVertex
 10
2.259447911696955
 20
3.056619650393489
 30
0.0
 70
     8
  0
VERTEX
  5
1DF3
330
1D5F
100
AcDbEntity
  8
image
100
AcDbVertex
100
AcDb2dVertex
 10
2.260836528852867
 20
3.074208461138364
 30
0.0
 70
     8
  0
VERTEX
  5
1DF4
330
1D5F
100
AcDbEntity
  8
image
100
AcDbVertex
100
AcDb2dVertex
 10
2.262236305134368
 20
3.091716718855539
 30
0.0
 70
     8
  0
VERTEX
  5
1DF5
330
1D5F
100
AcDbEntity
  8
image
100
AcDbVertex
100
AcDb2dVertex
 10
2.263633283550112
 20
3.10916405423084
 30
0.0
 70
     8
  0
VERTEX
  5
1DF6
330
1D5F
100
AcDbEntity
  8
image
100
AcDbVertex
100
AcDb2dVertex
 10
2.265013507108756
 20
3.126570097950097
 30
0.0
 70
     8
  0
VERTEX
  5
1DF7
330
1D5F
100
AcDbEntity
  8
image
100
AcDbVertex
100
AcDb2dVertex
 10
2.266363018818954
 20
3.143954480699137
 30
0.0
 70
     8
  0
VERTEX
  5
1DF8
330
1D5F
100
AcDbEntity
  8
image
100
AcDbVertex
100
AcDb2dVertex
 10
2.26766786168936
 20
3.161336833163786
 30
0.0
 70
     8
  0
VERTEX
  5
1DF9
330
1D5F
100
AcDbEntity
  8
image
100
AcDbVertex
100
AcDb2dVertex
 10
2.268914078728629
 20
3.178736786029873
 30
0.0
 70
     8
  0
VERTEX
  5
1DFA
330
1D5F
100
AcDbEntity
  8
image
100
AcDbVertex
100
AcDb2dVertex
 10
2.270087712945418
 20
3.196173969983225
 30
0.0
 70
     8
  0
VERTEX
  5
1DFB
330
1D5F
100
AcDbEntity
  8
image
100
AcDbVertex
100
AcDb2dVertex
 10
2.271177922775626
 20
3.213661267132492
 30
0.0
 70
     8
  0
VERTEX
  5
1DFC
330
1D5F
100
AcDbEntity
  8
image
100
AcDbVertex
100
AcDb2dVertex
 10
2.272186328364139
 20
3.23118456527761
 30
0.0
 70
     8
  0
VERTEX
  5
1DFD
330
1D5F
100
AcDbEntity
  8
image
100
AcDbVertex
100
AcDb2dVertex
 10
2.273117665283086
 20
3.248723003641337
 30
0.0
 70
     8
  0
VERTEX
  5
1DFE
330
1D5F
100
AcDbEntity
  8
image
100
AcDbVertex
100
AcDb2dVertex
 10
2.2739766691046
 20
3.266255721446431
 30
0.0
 70
     8
  0
VERTEX
  5
1DFF
330
1D5F
100
AcDbEntity
  8
image
100
AcDbVertex
100
AcDb2dVertex
 10
2.27476807540081
 20
3.283761857915649
 30
0.0
 70
     8
  0
VERTEX
  5
1E00
330
1D5F
100
AcDbEntity
  8
image
100
AcDbVertex
100
AcDb2dVertex
 10
2.275496619743847
 20
3.30122055227175
 30
0.0
 70
     8
  0
VERTEX
  5
1E01
330
1D5F
100
AcDbEntity
  8
image
100
AcDbVertex
100
AcDb2dVertex
 10
2.276167037705842
 20
3.318610943737492
 30
0.0
 70
     8
  0
VERTEX
  5
1E02
330
1D5F
100
AcDbEntity
  8
image
100
AcDbVertex
100
AcDb2dVertex
 10
2.276784064858927
 20
3.335912171535632
 30
0.0
 70
     8
  0
VERTEX
  5
1E03
330
1D5F
100
AcDbEntity
  8
image
100
AcDbVertex
100
AcDb2dVertex
 10
2.277352603502129
 20
3.353658005307778
 30
0.0
 70
     8
  0
VERTEX
  5
1E04
330
1D5F
100
AcDbEntity
  8
image
100
AcDbVertex
100
AcDb2dVertex
 10
2.277878222842072
 20
3.374600736370943
 30
0.0
 70
     8
  0
VERTEX
  5
1E05
330
1D5F
100
AcDbEntity
  8
image
100
AcDbVertex
100
AcDb2dVertex
 10
2.278366658812275
 20
3.402047286460987
 30
0.0
 70
     8
  0
VERTEX
  5
1E06
330
1D5F
100
AcDbEntity
  8
image
100
AcDbVertex
100
AcDb2dVertex
 10
2.278823647346261
 20
3.439304577313772
 30
0.0
 70
     8
  0
VERTEX
  5
1E07
330
1D5F
100
AcDbEntity
  8
image
100
AcDbVertex
100
AcDb2dVertex
 10
2.27925492437755
 20
3.48967953066516
 30
0.0
 70
     8
  0
VERTEX
  5
1E08
330
1D5F
100
AcDbEntity
  8
image
100
AcDbVertex
100
AcDb2dVertex
 10
2.279666225839663
 20
3.556479068251013
 30
0.0
 70
     8
  0
VERTEX
  5
1E09
330
1D5F
100
AcDbEntity
  8
image
100
AcDbVertex
100
AcDb2dVertex
 10
2.28006328766612
 20
3.643010111807191
 30
0.0
 70
     8
  0
VERTEX
  5
1E0A
330
1D5F
100
AcDbEntity
  8
image
100
AcDbVertex
100
AcDb2dVertex
 10
2.280451845790444
 20
3.752579583069557
 30
0.0
 70
     8
  0
VERTEX
  5
1E0B
330
1D5F
100
AcDbEntity
  8
image
100
AcDbVertex
100
AcDb2dVertex
 10
2.280836631671636
 20
3.886889975497278
 30
0.0
 70
     8
  0
VERTEX
  5
1E0C
330
1D5F
100
AcDbEntity
  8
image
100
AcDbVertex
100
AcDb2dVertex
 10
2.281218358870628
 20
4.041226069442735
 30
0.0
 70
     8
  0
VERTEX
  5
1E0D
330
1D5F
100
AcDbEntity
  8
image
100
AcDbVertex
100
AcDb2dVertex
 10
2.281596736473836
 20
4.209268216981621
 30
0.0
 70
     8
  0
VERTEX
  5
1E0E
330
1D5F
100
AcDbEntity
  8
image
100
AcDbVertex
100
AcDb2dVertex
 10
2.281971473567671
 20
4.384696770189624
 30
0.0
 70
     8
  0
VERTEX
  5
1E0F
330
1D5F
100
AcDbEntity
  8
image
100
AcDbVertex
100
AcDb2dVertex
 10
2.282342279238549
 20
4.56119208114243
 30
0.0
 70
     8
  0
VERTEX
  5
1E10
330
1D5F
100
AcDbEntity
  8
image
100
AcDbVertex
100
AcDb2dVertex
 10
2.282708862572883
 20
4.732434501915732
 30
0.0
 70
     8
  0
VERTEX
  5
1E11
330
1D5F
100
AcDbEntity
  8
image
100
AcDbVertex
100
AcDb2dVertex
 10
2.283070932657087
 20
4.892104384585216
 30
0.0
 70
     8
  0
VERTEX
  5
1E12
330
1D5F
100
AcDbEntity
  8
image
100
AcDbVertex
100
AcDb2dVertex
 10
2.283428198577576
 20
5.033882081226572
 30
0.0
 70
     8
  0
VERTEX
  5
1E13
330
1D5F
100
AcDbEntity
  8
image
100
AcDbVertex
100
AcDb2dVertex
 10
2.283780369420763
 20
5.153034725773586
 30
0.0
 70
     8
  0
VERTEX
  5
1E14
330
1D5F
100
AcDbEntity
  8
image
100
AcDbVertex
100
AcDb2dVertex
 10
2.284127154273062
 20
5.251176579592424
 30
0.0
 70
     8
  0
VERTEX
  5
1E15
330
1D5F
100
AcDbEntity
  8
image
100
AcDbVertex
100
AcDb2dVertex
 10
2.284468262220887
 20
5.331508685907352
 30
0.0
 70
     8
  0
VERTEX
  5
1E16
330
1D5F
100
AcDbEntity
  8
image
100
AcDbVertex
100
AcDb2dVertex
 10
2.284803402350652
 20
5.397232087942635
 30
0.0
 70
     8
  0
VERTEX
  5
1E17
330
1D5F
100
AcDbEntity
  8
image
100
AcDbVertex
100
AcDb2dVertex
 10
2.285132283748771
 20
5.451547828922535
 30
0.0
 70
     8
  0
VERTEX
  5
1E18
330
1D5F
100
AcDbEntity
  8
image
100
AcDbVertex
100
AcDb2dVertex
 10
2.285454615501659
 20
5.497656952071317
 30
0.0
 70
     8
  0
VERTEX
  5
1E19
330
1D5F
100
AcDbEntity
  8
image
100
AcDbVertex
100
AcDb2dVertex
 10
2.285770106695727
 20
5.538760500613247
 30
0.0
 70
     8
  0
VERTEX
  5
1E1A
330
1D5F
100
AcDbEntity
  8
image
100
AcDbVertex
100
AcDb2dVertex
 10
2.286078466417392
 20
5.578059517772589
 30
0.0
 70
     8
  0
VERTEX
  5
1E1B
330
1D5F
100
AcDbEntity
  8
image
100
AcDbVertex
100
AcDb2dVertex
 10
2.286378874706579
 20
5.618555192766639
 30
0.0
 70
     8
  0
VERTEX
  5
1E1C
330
1D5F
100
AcDbEntity
  8
image
100
AcDbVertex
100
AcDb2dVertex
 10
2.286668395417267
 20
5.662449298784832
 30
0.0
 70
     8
  0
VERTEX
  5
1E1D
330
1D5F
100
AcDbEntity
  8
image
100
AcDbVertex
100
AcDb2dVertex
 10
2.286943563356945
 20
5.711743755009636
 30
0.0
 70
     8
  0
VERTEX
  5
1E1E
330
1D5F
100
AcDbEntity
  8
image
100
AcDbVertex
100
AcDb2dVertex
 10
2.287200913333104
 20
5.768440480623518
 30
0.0
 70
     8
  0
VERTEX
  5
1E1F
330
1D5F
100
AcDbEntity
  8
image
100
AcDbVertex
100
AcDb2dVertex
 10
2.287436980153234
 20
5.834541394808947
 30
0.0
 70
     8
  0
VERTEX
  5
1E20
330
1D5F
100
AcDbEntity
  8
image
100
AcDbVertex
100
AcDb2dVertex
 10
2.287648298624826
 20
5.912048416748389
 30
0.0
 70
     8
  0
VERTEX
  5
1E21
330
1D5F
100
AcDbEntity
  8
image
100
AcDbVertex
100
AcDb2dVertex
 10
2.28783140355537
 20
6.002963465624314
 30
0.0
 70
     8
  0
VERTEX
  5
1E22
330
1D5F
100
AcDbEntity
  8
image
100
AcDbVertex
100
AcDb2dVertex
 10
2.287982829752356
 20
6.109288460619187
 30
0.0
 70
     8
  0
VERTEX
  5
1E23
330
1D5F
100
AcDbEntity
  8
image
100
AcDbVertex
100
AcDb2dVertex
 10
2.288110344620736
 20
6.231881044557476
 30
0.0
 70
     8
  0
VERTEX
  5
1E24
330
1D5F
100
AcDbEntity
  8
image
100
AcDbVertex
100
AcDb2dVertex
 10
2.288266645955301
 20
6.367021754831633
 30
0.0
 70
     8
  0
VERTEX
  5
1E25
330
1D5F
100
AcDbEntity
  8
image
100
AcDbVertex
100
AcDb2dVertex
 10
2.288515664148305
 20
6.509846852476111
 30
0.0
 70
     8
  0
VERTEX
  5
1E26
330
1D5F
100
AcDbEntity
  8
image
100
AcDbVertex
100
AcDb2dVertex
 10
2.288921329592
 20
6.655492598525361
 30
0.0
 70
     8
  0
VERTEX
  5
1E27
330
1D5F
100
AcDbEntity
  8
image
100
AcDbVertex
100
AcDb2dVertex
 10
2.289547572678638
 20
6.799095254013836
 30
0.0
 70
     8
  0
VERTEX
  5
1E28
330
1D5F
100
AcDbEntity
  8
image
100
AcDbVertex
100
AcDb2dVertex
 10
2.290458323800474
 20
6.935791079975986
 30
0.0
 70
     8
  0
VERTEX
  5
1E29
330
1D5F
100
AcDbEntity
  8
image
100
AcDbVertex
100
AcDb2dVertex
 10
2.291717513349759
 20
7.060716337446264
 30
0.0
 70
     8
  0
VERTEX
  5
1E2A
330
1D5F
100
AcDbEntity
  8
image
100
AcDbVertex
100
AcDb2dVertex
 10
2.293389071718747
 20
7.169007287459121
 30
0.0
 70
     8
  0
VERTEX
  5
1E2B
330
1D5F
100
AcDbEntity
  8
image
100
AcDbVertex
100
AcDb2dVertex
 10
2.295537899083188
 20
7.257056740989921
 30
0.0
 70
     8
  0
VERTEX
  5
1E2C
330
1D5F
100
AcDbEntity
  8
image
100
AcDbVertex
100
AcDb2dVertex
 10
2.298232774752825
 20
7.326283708777675
 30
0.0
 70
     8
  0
VERTEX
  5
1E2D
330
1D5F
100
AcDbEntity
  8
image
100
AcDbVertex
100
AcDb2dVertex
 10
2.301543447820901
 20
7.379363751502308
 30
0.0
 70
     8
  0
VERTEX
  5
1E2E
330
1D5F
100
AcDbEntity
  8
image
100
AcDbVertex
100
AcDb2dVertex
 10
2.305539667380656
 20
7.418972429843743
 30
0.0
 70
     8
  0
VERTEX
  5
1E2F
330
1D5F
100
AcDbEntity
  8
image
100
AcDbVertex
100
AcDb2dVertex
 10
2.310291182525333
 20
7.447785304481905
 30
0.0
 70
     8
  0
VERTEX
  5
1E30
330
1D5F
100
AcDbEntity
  8
image
100
AcDbVertex
100
AcDb2dVertex
 10
2.315867742348172
 20
7.468477936096714
 30
0.0
 70
     8
  0
VERTEX
  5
1E31
330
1D5F
100
AcDbEntity
  8
image
100
AcDbVertex
100
AcDb2dVertex
 10
2.322339095942416
 20
7.483725885368097
 30
0.0
 70
     8
  0
VERTEX
  5
1E32
330
1D5F
100
AcDbEntity
  8
image
100
AcDbVertex
100
AcDb2dVertex
 10
2.329774992401305
 20
7.496204712975977
 30
0.0
 70
     8
  0
VERTEX
  5
1E33
330
1D5F
100
AcDbEntity
  8
image
100
AcDbVertex
100
AcDb2dVertex
 10
2.338222809588872
 20
7.508132157875205
 30
0.0
 70
     8
  0
VERTEX
  5
1E34
330
1D5F
100
AcDbEntity
  8
image
100
AcDbVertex
100
AcDb2dVertex
 10
2.347640440452315
 20
7.519894672120348
 30
0.0
 70
     8
  0
VERTEX
  5
1E35
330
1D5F
100
AcDbEntity
  8
image
100
AcDbVertex
100
AcDb2dVertex
 10
2.357963406709621
 20
7.531420886040901
 30
0.0
 70
     8
  0
VERTEX
  5
1E36
330
1D5F
100
AcDbEntity
  8
image
100
AcDbVertex
100
AcDb2dVertex
 10
2.369127230078781
 20
7.54263942996636
 30
0.0
 70
     8
  0
VERTEX
  5
1E37
330
1D5F
100
AcDbEntity
  8
image
100
AcDbVertex
100
AcDb2dVertex
 10
2.38106743227778
 20
7.553478934226218
 30
0.0
 70
     8
  0
VERTEX
  5
1E38
330
1D5F
100
AcDbEntity
  8
image
100
AcDbVertex
100
AcDb2dVertex
 10
2.393719535024609
 20
7.563868029149971
 30
0.0
 70
     8
  0
VERTEX
  5
1E39
330
1D5F
100
AcDbEntity
  8
image
100
AcDbVertex
100
AcDb2dVertex
 10
2.407019060037256
 20
7.573735345067114
 30
0.0
 70
     8
  0
VERTEX
  5
1E3A
330
1D5F
100
AcDbEntity
  8
image
100
AcDbVertex
100
AcDb2dVertex
 10
2.420901529033708
 20
7.58300951230714
 30
0.0
 70
     8
  0
VERTEX
  5
1E3B
330
1D5F
100
AcDbEntity
  8
image
100
AcDbVertex
100
AcDb2dVertex
 10
2.435304446208324
 20
7.591637847881792
 30
0.0
 70
     8
  0
VERTEX
  5
1E3C
330
1D5F
100
AcDbEntity
  8
image
100
AcDbVertex
100
AcDb2dVertex
 10
2.45017324566094
 20
7.599642415531786
 30
0.0
 70
     8
  0
VERTEX
  5
1E3D
330
1D5F
100
AcDbEntity
  8
image
100
AcDbVertex
100
AcDb2dVertex
 10
2.46545534396776
 20
7.607063965680088
 30
0.0
 70
     8
  0
VERTEX
  5
1E3E
330
1D5F
100
AcDbEntity
  8
image
100
AcDbVertex
100
AcDb2dVertex
 10
2.48109815770499
 20
7.613943248749657
 30
0.0
 70
     8
  0
VERTEX
  5
1E3F
330
1D5F
100
AcDbEntity
  8
image
100
AcDbVertex
100
AcDb2dVertex
 10
2.497049103448834
 20
7.620321015163459
 30
0.0
 70
     8
  0
VERTEX
  5
1E40
330
1D5F
100
AcDbEntity
  8
image
100
AcDbVertex
100
AcDb2dVertex
 10
2.513255597775497
 20
7.626238015344457
 30
0.0
 70
     8
  0
VERTEX
  5
1E41
330
1D5F
100
AcDbEntity
  8
image
100
AcDbVertex
100
AcDb2dVertex
 10
2.529665057261184
 20
7.631734999715614
 30
0.0
 70
     8
  0
VERTEX
  5
1E42
330
1D5F
100
AcDbEntity
  8
image
100
AcDbVertex
100
AcDb2dVertex
 10
2.546224898482101
 20
7.636852718699892
 30
0.0
 70
     8
  0
VERTEX
  5
1E43
330
1D5F
100
AcDbEntity
  8
image
100
AcDbVertex
100
AcDb2dVertex
 10
2.562882651027468
 20
7.64162688139454
 30
0.0
 70
     8
  0
VERTEX
  5
1E44
330
1D5F
100
AcDbEntity
  8
image
100
AcDbVertex
100
AcDb2dVertex
 10
2.579586296538569
 20
7.646073031593941
 30
0.0
 70
     8
  0
VERTEX
  5
1E45
330
1D5F
100
AcDbEntity
  8
image
100
AcDbVertex
100
AcDb2dVertex
 10
2.596283929669704
 20
7.650201671766763
 30
0.0
 70
     8
  0
VERTEX
  5
1E46
330
1D5F
100
AcDbEntity
  8
image
100
AcDbVertex
100
AcDb2dVertex
 10
2.612923645075173
 20
7.654023304381674
 30
0.0
 70
     8
  0
VERTEX
  5
1E47
330
1D5F
100
AcDbEntity
  8
image
100
AcDbVertex
100
AcDb2dVertex
 10
2.629453537409274
 20
7.657548431907343
 30
0.0
 70
     8
  0
VERTEX
  5
1E48
330
1D5F
100
AcDbEntity
  8
image
100
AcDbVertex
100
AcDb2dVertex
 10
2.645821701326309
 20
7.660787556812436
 30
0.0
 70
     8
  0
VERTEX
  5
1E49
330
1D5F
100
AcDbEntity
  8
image
100
AcDbVertex
100
AcDb2dVertex
 10
2.661976231480576
 20
7.663751181565623
 30
0.0
 70
     8
  0
VERTEX
  5
1E4A
330
1D5F
100
AcDbEntity
  8
image
100
AcDbVertex
100
AcDb2dVertex
 10
2.677865222526376
 20
7.66644980863557
 30
0.0
 70
     8
  0
VERTEX
  5
1E4B
330
1D5F
100
AcDbEntity
  8
image
100
AcDbVertex
100
AcDb2dVertex
 10
2.693452881155327
 20
7.668901613015327
 30
0.0
 70
     8
  0
VERTEX
  5
1E4C
330
1D5F
100
AcDbEntity
  8
image
100
AcDbVertex
100
AcDb2dVertex
 10
2.708767862208335
 20
7.671155459795457
 30
0.0
 70
     8
  0
VERTEX
  5
1E4D
330
1D5F
100
AcDbEntity
  8
image
100
AcDbVertex
100
AcDb2dVertex
 10
2.723854932563622
 20
7.673267886590907
 30
0.0
 70
     8
  0
VERTEX
  5
1E4E
330
1D5F
100
AcDbEntity
  8
image
100
AcDbVertex
100
AcDb2dVertex
 10
2.73875885909941
 20
7.675295431016619
 30
0.0
 70
     8
  0
VERTEX
  5
1E4F
330
1D5F
100
AcDbEntity
  8
image
100
AcDbVertex
100
AcDb2dVertex
 10
2.753524408693925
 20
7.677294630687542
 30
0.0
 70
     8
  0
VERTEX
  5
1E50
330
1D5F
100
AcDbEntity
  8
image
100
AcDbVertex
100
AcDb2dVertex
 10
2.768196348225388
 20
7.679322023218616
 30
0.0
 70
     8
  0
VERTEX
  5
1E51
330
1D5F
100
AcDbEntity
  8
image
100
AcDbVertex
100
AcDb2dVertex
 10
2.782819444572023
 20
7.681434146224788
 30
0.0
 70
     8
  0
VERTEX
  5
1E52
330
1D5F
100
AcDbEntity
  8
image
100
AcDbVertex
100
AcDb2dVertex
 10
2.797438464612053
 20
7.683687537321003
 30
0.0
 70
     8
  0
VERTEX
  5
1E53
330
1D5F
100
AcDbEntity
  8
image
100
AcDbVertex
100
AcDb2dVertex
 10
2.812052464555637
 20
7.686116722010032
 30
0.0
 70
     8
  0
VERTEX
  5
1E54
330
1D5F
100
AcDbEntity
  8
image
100
AcDbVertex
100
AcDb2dVertex
 10
2.82647765794066
 20
7.688668177345951
 30
0.0
 70
     8
  0
VERTEX
  5
1E55
330
1D5F
100
AcDbEntity
  8
image
100
AcDbVertex
100
AcDb2dVertex
 10
2.840484547636946
 20
7.691266368270664
 30
0.0
 70
     8
  0
VERTEX
  5
1E56
330
1D5F
100
AcDbEntity
  8
image
100
AcDbVertex
100
AcDb2dVertex
 10
2.853843636514314
 20
7.693835759726074
 30
0.0
 70
     8
  0
VERTEX
  5
1E57
330
1D5F
100
AcDbEntity
  8
image
100
AcDbVertex
100
AcDb2dVertex
 10
2.866325427442588
 20
7.696300816654083
 30
0.0
 70
     8
  0
VERTEX
  5
1E58
330
1D5F
100
AcDbEntity
  8
image
100
AcDbVertex
100
AcDb2dVertex
 10
2.877700423291589
 20
7.698586003996596
 30
0.0
 70
     8
  0
VERTEX
  5
1E59
330
1D5F
100
AcDbEntity
  8
image
100
AcDbVertex
100
AcDb2dVertex
 10
2.887739126931137
 20
7.700615786695515
 30
0.0
 70
     8
  0
VERTEX
  5
1E5A
330
1D5F
100
AcDbEntity
  8
image
100
AcDbVertex
100
AcDb2dVertex
 10
2.896212041231054
 20
7.702314629692744
 30
0.0
 70
     8
  0
VERTEX
  5
1E5B
330
1D5F
100
AcDbEntity
  8
image
100
AcDbVertex
100
AcDb2dVertex
 10
2.902969671958593
 20
7.703622610213983
 30
0.0
 70
     8
  0
VERTEX
  5
1E5C
330
1D5F
100
AcDbEntity
  8
image
100
AcDbVertex
100
AcDb2dVertex
 10
2.908182536470722
 20
7.704542254620119
 30
0.0
 70
     8
  0
VERTEX
  5
1E5D
330
1D5F
100
AcDbEntity
  8
image
100
AcDbVertex
100
AcDb2dVertex
 10
2.912101155021841
 20
7.705091701555838
 30
0.0
 70
     8
  0
VERTEX
  5
1E5E
330
1D5F
100
AcDbEntity
  8
image
100
AcDbVertex
100
AcDb2dVertex
 10
2.914976047866351
 20
7.705289089665823
 30
0.0
 70
     8
  0
VERTEX
  5
1E5F
330
1D5F
100
AcDbEntity
  8
image
100
AcDbVertex
100
AcDb2dVertex
 10
2.91705773525865
 20
7.705152557594759
 30
0.0
 70
     8
  0
VERTEX
  5
1E60
330
1D5F
100
AcDbEntity
  8
image
100
AcDbVertex
100
AcDb2dVertex
 10
2.918596737453139
 20
7.704700243987332
 30
0.0
 70
     8
  0
VERTEX
  5
1E61
330
1D5F
100
AcDbEntity
  8
image
100
AcDbVertex
100
AcDb2dVertex
 10
2.919843574704218
 20
7.703950287488225
 30
0.0
 70
     8
  0
VERTEX
  5
1E62
330
1D5F
100
AcDbEntity
  8
image
100
AcDbVertex
100
AcDb2dVertex
 10
2.921048767266287
 20
7.702920826742122
 30
0.0
 70
     8
  0
VERTEX
  5
1E63
330
1D5F
100
AcDbEntity
  8
image
100
AcDbVertex
100
AcDb2dVertex
 10
2.922439675273047
 20
7.701639057981711
 30
0.0
 70
     8
  0
VERTEX
  5
1E64
330
1D5F
100
AcDbEntity
  8
image
100
AcDbVertex
100
AcDb2dVertex
 10
2.924151018375411
 20
7.700168407791688
 30
0.0
 70
     8
  0
VERTEX
  5
1E65
330
1D5F
100
AcDbEntity
  8
image
100
AcDbVertex
100
AcDb2dVertex
 10
2.926294356103593
 20
7.698581360344748
 30
0.0
 70
     8
  0
VERTEX
  5
1E66
330
1D5F
100
AcDbEntity
  8
image
100
AcDbVertex
100
AcDb2dVertex
 10
2.928981247987808
 20
7.696950399813589
 30
0.0
 70
     8
  0
VERTEX
  5
1E67
330
1D5F
100
AcDbEntity
  8
image
100
AcDbVertex
100
AcDb2dVertex
 10
2.932323253558272
 20
7.695348010370906
 30
0.0
 70
     8
  0
VERTEX
  5
1E68
330
1D5F
100
AcDbEntity
  8
image
100
AcDbVertex
100
AcDb2dVertex
 10
2.936431932345199
 20
7.693846676189398
 30
0.0
 70
     8
  0
VERTEX
  5
1E69
330
1D5F
100
AcDbEntity
  8
image
100
AcDbVertex
100
AcDb2dVertex
 10
2.941418843878803
 20
7.692518881441761
 30
0.0
 70
     8
  0
VERTEX
  5
1E6A
330
1D5F
100
AcDbEntity
  8
image
100
AcDbVertex
100
AcDb2dVertex
 10
2.947395547689299
 20
7.691437110300691
 30
0.0
 70
     8
  0
VERTEX
  5
1D62
330
1D5F
100
AcDbEntity
  8
image
100
AcDbVertex
100
AcDb2dVertex
 10
2.124045938507646
 20
1.681903762816492
 30
0.0
 70
    16
  0
VERTEX
  5
1D63
330
1D5F
100
AcDbEntity
  8
image
100
AcDbVertex
100
AcDb2dVertex
 10
2.123682328980035
 20
1.688767553269654
 30
0.0
 70
    16
  0
VERTEX
  5
1D64
330
1D5F
100
AcDbEntity
  8
image
100
AcDbVertex
100
AcDb2dVertex
 10
2.119407461854401
 20
1.698966633808077
 30
0.0
 70
    16
  0
VERTEX
  5
1D65
330
1D5F
100
AcDbEntity
  8
image
100
AcDbVertex
100
AcDb2dVertex
 10
2.119416469335114
 20
1.7025068264636
 30
0.0
 70
    16
  0
VERTEX
  5
1D66
330
1D5F
100
AcDbEntity
  8
image
100
AcDbVertex
100
AcDb2dVertex
 10
2.121932108431567
 20
1.706964662441043
 30
0.0
 70
    16
  0
VERTEX
  5
1D67
330
1D5F
100
AcDbEntity
  8
image
100
AcDbVertex
100
AcDb2dVertex
 10
2.213141241003532
 20
1.811457978023882
 30
0.0
 70
    16
  0
VERTEX
  5
1D68
330
1D5F
100
AcDbEntity
  8
image
100
AcDbVertex
100
AcDb2dVertex
 10
2.279198699855353
 20
1.945401067901806
 30
0.0
 70
    16
  0
VERTEX
  5
1D69
330
1D5F
100
AcDbEntity
  8
image
100
AcDbVertex
100
AcDb2dVertex
 10
2.310852253780537
 20
2.090277158517123
 30
0.0
 70
    16
  0
VERTEX
  5
1D6A
330
1D5F
100
AcDbEntity
  8
image
100
AcDbVertex
100
AcDb2dVertex
 10
2.309008738798892
 20
2.229487526598716
 30
0.0
 70
    16
  0
VERTEX
  5
1D6B
330
1D5F
100
AcDbEntity
  8
image
100
AcDbVertex
100
AcDb2dVertex
 10
2.293603296097638
 20
2.364001265890512
 30
0.0
 70
    16
  0
VERTEX
  5
1D6C
330
1D5F
100
AcDbEntity
  8
image
100
AcDbVertex
100
AcDb2dVertex
 10
2.278446008123499
 20
2.491338524437827
 30
0.0
 70
    16
  0
VERTEX
  5
1D6D
330
1D5F
100
AcDbEntity
  8
image
100
AcDbVertex
100
AcDb2dVertex
 10
2.264292418857549
 20
2.617541959347262
 30
0.0
 70
    16
  0
VERTEX
  5
1D6E
330
1D5F
100
AcDbEntity
  8
image
100
AcDbVertex
100
AcDb2dVertex
 10
2.250970163506201
 20
2.765841030390531
 30
0.0
 70
    16
  0
VERTEX
  5
1D6F
330
1D5F
100
AcDbEntity
  8
image
100
AcDbVertex
100
AcDb2dVertex
 10
2.248956640090191
 20
2.913397351272878
 30
0.0
 70
    16
  0
VERTEX
  5
1D70
330
1D5F
100
AcDbEntity
  8
image
100
AcDbVertex
100
AcDb2dVertex
 10
2.259180006449659
 20
3.057688276671122
 30
0.0
 70
    16
  0
VERTEX
  5
1D71
330
1D5F
100
AcDbEntity
  8
image
100
AcDbVertex
100
AcDb2dVertex
 10
2.271010804292899
 20
3.195567444403566
 30
0.0
 70
    16
  0
VERTEX
  5
1D72
330
1D5F
100
AcDbEntity
  8
image
100
AcDbVertex
100
AcDb2dVertex
 10
2.277303054051252
 20
3.337085765613965
 30
0.0
 70
    16
  0
VERTEX
  5
1D73
330
1D5F
100
AcDbEntity
  8
image
100
AcDbVertex
100
AcDb2dVertex
 10
2.280481368655653
 20
3.471562522354364
 30
0.0
 70
    16
  0
VERTEX
  5
1D74
330
1D5F
100
AcDbEntity
  8
image
100
AcDbVertex
100
AcDb2dVertex
 10
2.283482546068796
 20
5.292141643385921
 30
0.0
 70
    16
  0
VERTEX
  5
1D75
330
1D5F
100
AcDbEntity
  8
image
100
AcDbVertex
100
AcDb2dVertex
 10
2.286157638534621
 20
5.563163391461385
 30
0.0
 70
    16
  0
VERTEX
  5
1D76
330
1D5F
100
AcDbEntity
  8
image
100
AcDbVertex
100
AcDb2dVertex
 10
2.288357698297073
 20
5.923561897404071
 30
0.0
 70
    16
  0
VERTEX
  5
1D77
330
1D5F
100
AcDbEntity
  8
image
100
AcDbVertex
100
AcDb2dVertex
 10
2.288308546791224
 20
7.398319782637457
 30
0.0
 70
    16
  0
VERTEX
  5
1D78
330
1D5F
100
AcDbEntity
  8
image
100
AcDbVertex
100
AcDb2dVertex
 10
2.318742544850509
 20
7.497202696800828
 30
0.0
 70
    16
  0
VERTEX
  5
1D79
330
1D5F
100
AcDbEntity
  8
image
100
AcDbVertex
100
AcDb2dVertex
 10
2.415371228214568
 20
7.590097708015091
 30
0.0
 70
    16
  0
VERTEX
  5
1D7A
330
1D5F
100
AcDbEntity
  8
image
100
AcDbVertex
100
AcDb2dVertex
 10
2.545181716493468
 20
7.640463544981651
 30
0.0
 70
    16
  0
VERTEX
  5
1D7B
330
1D5F
100
AcDbEntity
  8
image
100
AcDbVertex
100
AcDb2dVertex
 10
2.681251296704167
 20
7.669164424257658
 30
0.0
 70
    16
  0
VERTEX
  5
1D7C
330
1D5F
100
AcDbEntity
  8
image
100
AcDbVertex
100
AcDb2dVertex
 10
2.797004431848117
 20
7.681577609801138
 30
0.0
 70
    16
  0
VERTEX
  5
1D7D
330
1D5F
100
AcDbEntity
  8
image
100
AcDbVertex
100
AcDb2dVertex
 10
2.915361763575685
 20
7.706650360463807
 30
0.0
 70
    16
  0
VERTEX
  5
1D7E
330
1D5F
100
AcDbEntity
  8
image
100
AcDbVertex
100
AcDb2dVertex
 10
2.918820761235469
 20
7.705708726500098
 30
0.0
 70
    16
  0
VERTEX
  5
1D7F
330
1D5F
100
AcDbEntity
  8
image
100
AcDbVertex
100
AcDb2dVertex
 10
2.930038783798595
 20
7.693929371492389
 30
0.0
 70
    16
  0
VERTEX
  5
1D80
330
1D5F
100
AcDbEntity
  8
image
100
AcDbVertex
100
AcDb2dVertex
 10
2.947395547689299
 20
7.691437110300692
 30
0.0
 70
    16
  0
SEQEND
  5
1D81
330
1D5F
100
AcDbEntity
  8
image
  0
POLYLINE
  5
1D60
330
10C1
100
AcDbEntity
  8
image
100
AcDb2dPolyline
 66
     1
 10
0.0
 20
0.0
 30
0.0
 70
     4
 75
     6
  0
VERTEX
  5
1E6B
330
1D60
100
AcDbEntity
  8
image
100
AcDbVertex
100
AcDb2dVertex
 10
2.947395547689299
 20
7.614677866638387
 30
0.0
 70
    16
  0
VERTEX
  5
1E8A
330
1D60
100
AcDbEntity
  8
image
100
AcDbVertex
100
AcDb2dVertex
 10
2.947395547689299
 20
7.614677866638387
 30
0.0
 70
     8
  0
VERTEX
  5
1E8B
330
1D60
100
AcDbEntity
  8
image
100
AcDbVertex
100
AcDb2dVertex
 10
2.942060909626613
 20
7.613764856689326
 30
0.0
 70
     8
  0
VERTEX
  5
1E8C
330
1D60
100
AcDbEntity
  8
image
100
AcDbVertex
100
AcDb2dVertex
 10
2.937500204164246
 20
7.612523657521867
 30
0.0
 70
     8
  0
VERTEX
  5
1E8D
330
1D60
100
AcDbEntity
  8
image
100
AcDbVertex
100
AcDb2dVertex
 10
2.933637069478682
 20
7.611041468611518
 30
0.0
 70
     8
  0
VERTEX
  5
1E8E
330
1D60
100
AcDbEntity
  8
image
100
AcDbVertex
100
AcDb2dVertex
 10
2.930395143746407
 20
7.609405489433787
 30
0.0
 70
     8
  0
VERTEX
  5
1E8F
330
1D60
100
AcDbEntity
  8
image
100
AcDbVertex
100
AcDb2dVertex
 10
2.927698065143905
 20
7.607702919464181
 30
0.0
 70
     8
  0
VERTEX
  5
1E90
330
1D60
100
AcDbEntity
  8
image
100
AcDbVertex
100
AcDb2dVertex
 10
2.925469471847662
 20
7.60602095817821
 30
0.0
 70
     8
  0
VERTEX
  5
1E91
330
1D60
100
AcDbEntity
  8
image
100
AcDbVertex
100
AcDb2dVertex
 10
2.923633002034164
 20
7.604446805051381
 30
0.0
 70
     8
  0
VERTEX
  5
1E92
330
1D60
100
AcDbEntity
  8
image
100
AcDbVertex
100
AcDb2dVertex
 10
2.922112293879896
 20
7.603067659559203
 30
0.0
 70
     8
  0
VERTEX
  5
1E93
330
1D60
100
AcDbEntity
  8
image
100
AcDbVertex
100
AcDb2dVertex
 10
2.920815915590312
 20
7.601957304149603
 30
0.0
 70
     8
  0
VERTEX
  5
1E94
330
1D60
100
AcDbEntity
  8
image
100
AcDbVertex
100
AcDb2dVertex
 10
2.919592155486753
 20
7.601135853160185
 30
0.0
 70
     8
  0
VERTEX
  5
1E95
330
1D60
100
AcDbEntity
  8
image
100
AcDbVertex
100
AcDb2dVertex
 10
2.918274231919526
 20
7.60061000390097
 30
0.0
 70
     8
  0
VERTEX
  5
1E96
330
1D60
100
AcDbEntity
  8
image
100
AcDbVertex
100
AcDb2dVertex
 10
2.916695363238941
 20
7.600386453681983
 30
0.0
 70
     8
  0
VERTEX
  5
1E97
330
1D60
100
AcDbEntity
  8
image
100
AcDbVertex
100
AcDb2dVertex
 10
2.914688767795308
 20
7.600471899813246
 30
0.0
 70
     8
  0
VERTEX
  5
1E98
330
1D60
100
AcDbEntity
  8
image
100
AcDbVertex
100
AcDb2dVertex
 10
2.912087663938934
 20
7.600873039604782
 30
0.0
 70
     8
  0
VERTEX
  5
1E99
330
1D60
100
AcDbEntity
  8
image
100
AcDbVertex
100
AcDb2dVertex
 10
2.908725270020129
 20
7.601596570366613
 30
0.0
 70
     8
  0
VERTEX
  5
1E9A
330
1D60
100
AcDbEntity
  8
image
100
AcDbVertex
100
AcDb2dVertex
 10
2.904434804389202
 20
7.602649189408762
 30
0.0
 70
     8
  0
VERTEX
  5
1E9B
330
1D60
100
AcDbEntity
  8
image
100
AcDbVertex
100
AcDb2dVertex
 10
2.89908267558872
 20
7.60401890682736
 30
0.0
 70
     8
  0
VERTEX
  5
1E9C
330
1D60
100
AcDbEntity
  8
image
100
AcDbVertex
100
AcDb2dVertex
 10
2.892668052930283
 20
7.605618983862965
 30
0.0
 70
     8
  0
VERTEX
  5
1E9D
330
1D60
100
AcDbEntity
  8
image
100
AcDbVertex
100
AcDb2dVertex
 10
2.885223295917747
 20
7.607343994542246
 30
0.0
 70
     8
  0
VERTEX
  5
1E9E
330
1D60
100
AcDbEntity
  8
image
100
AcDbVertex
100
AcDb2dVertex
 10
2.87678076405497
 20
7.609088512891868
 30
0.0
 70
     8
  0
VERTEX
  5
1E9F
330
1D60
100
AcDbEntity
  8
image
100
AcDbVertex
100
AcDb2dVertex
 10
2.867372816845809
 20
7.610747112938499
 30
0.0
 70
     8
  0
VERTEX
  5
1EA0
330
1D60
100
AcDbEntity
  8
image
100
AcDbVertex
100
AcDb2dVertex
 10
2.857031813794121
 20
7.612214368708806
 30
0.0
 70
     8
  0
VERTEX
  5
1EA1
330
1D60
100
AcDbEntity
  8
image
100
AcDbVertex
100
AcDb2dVertex
 10
2.845790114403764
 20
7.613384854229457
 30
0.0
 70
     8
  0
VERTEX
  5
1EA2
330
1D60
100
AcDbEntity
  8
image
100
AcDbVertex
100
AcDb2dVertex
 10
2.833680078178595
 20
7.614153143527118
 30
0.0
 70
     8
  0
VERTEX
  5
1EA3
330
1D60
100
AcDbEntity
  8
image
100
AcDbVertex
100
AcDb2dVertex
 10
2.820744026188903
 20
7.614437782511863
 30
0.0
 70
     8
  0
VERTEX
  5
1EA4
330
1D60
100
AcDbEntity
  8
image
100
AcDbVertex
100
AcDb2dVertex
 10
2.807064125770708
 20
7.6142532046274
 30
0.0
 70
     8
  0
VERTEX
  5
1EA5
330
1D60
100
AcDbEntity
  8
image
100
AcDbVertex
100
AcDb2dVertex
 10
2.79273250582646
 20
7.613637815200839
 30
0.0
 70
     8
  0
VERTEX
  5
1EA6
330
1D60
100
AcDbEntity
  8
image
100
AcDbVertex
100
AcDb2dVertex
 10
2.777841295258612
 20
7.612630019559294
 30
0.0
 70
     8
  0
VERTEX
  5
1EA7
330
1D60
100
AcDbEntity
  8
image
100
AcDbVertex
100
AcDb2dVertex
 10
2.762482622969615
 20
7.611268223029879
 30
0.0
 70
     8
  0
VERTEX
  5
1EA8
330
1D60
100
AcDbEntity
  8
image
100
AcDbVertex
100
AcDb2dVertex
 10
2.74674861786192
 20
7.609590830939707
 30
0.0
 70
     8
  0
VERTEX
  5
1EA9
330
1D60
100
AcDbEntity
  8
image
100
AcDbVertex
100
AcDb2dVertex
 10
2.730731408837979
 20
7.607636248615889
 30
0.0
 70
     8
  0
VERTEX
  5
1EAA
330
1D60
100
AcDbEntity
  8
image
100
AcDbVertex
100
AcDb2dVertex
 10
2.714523124800242
 20
7.605442881385538
 30
0.0
 70
     8
  0
VERTEX
  5
1EAB
330
1D60
100
AcDbEntity
  8
image
100
AcDbVertex
100
AcDb2dVertex
 10
2.698202083144423
 20
7.603038746645634
 30
0.0
 70
     8
  0
VERTEX
  5
1EAC
330
1D60
100
AcDbEntity
  8
image
100
AcDbVertex
100
AcDb2dVertex
 10
2.681791355239275
 20
7.600410310072615
 30
0.0
 70
     8
  0
VERTEX
  5
1EAD
330
1D60
100
AcDbEntity
  8
image
100
AcDbVertex
100
AcDb2dVertex
 10
2.665300200946812
 20
7.597533649412785
 30
0.0
 70
     8
  0
VERTEX
  5
1EAE
330
1D60
100
AcDbEntity
  8
image
100
AcDbVertex
100
AcDb2dVertex
 10
2.648737880129049
 20
7.594384842412448
 30
0.0
 70
     8
  0
VERTEX
  5
1EAF
330
1D60
100
AcDbEntity
  8
image
100
AcDbVertex
100
AcDb2dVertex
 10
2.632113652648
 20
7.590939966817907
 30
0.0
 70
     8
  0
VERTEX
  5
1EB0
330
1D60
100
AcDbEntity
  8
image
100
AcDbVertex
100
AcDb2dVertex
 10
2.61543677836568
 20
7.587175100375468
 30
0.0
 70
     8
  0
VERTEX
  5
1EB1
330
1D60
100
AcDbEntity
  8
image
100
AcDbVertex
100
AcDb2dVertex
 10
2.598716517144103
 20
7.583066320831433
 30
0.0
 70
     8
  0
VERTEX
  5
1EB2
330
1D60
100
AcDbEntity
  8
image
100
AcDbVertex
100
AcDb2dVertex
 10
2.581962128845283
 20
7.578589705932106
 30
0.0
 70
     8
  0
VERTEX
  5
1EB3
330
1D60
100
AcDbEntity
  8
image
100
AcDbVertex
100
AcDb2dVertex
 10
2.565202037513949
 20
7.573726838804298
 30
0.0
 70
     8
  0
VERTEX
  5
1EB4
330
1D60
100
AcDbEntity
  8
image
100
AcDbVertex
100
AcDb2dVertex
 10
2.548541323925684
 20
7.568481324096842
 30
0.0
 70
     8
  0
VERTEX
  5
1EB5
330
1D60
100
AcDbEntity
  8
image
100
AcDbVertex
100
AcDb2dVertex
 10
2.532104233038786
 20
7.562862271839073
 30
0.0
 70
     8
  0
VERTEX
  5
1EB6
330
1D60
100
AcDbEntity
  8
image
100
AcDbVertex
100
AcDb2dVertex
 10
2.516015009811552
 20
7.556878792060333
 30
0.0
 70
     8
  0
VERTEX
  5
1EB7
330
1D60
100
AcDbEntity
  8
image
100
AcDbVertex
100
AcDb2dVertex
 10
2.500397899202281
 20
7.550539994789957
 30
0.0
 70
     8
  0
VERTEX
  5
1EB8
330
1D60
100
AcDbEntity
  8
image
100
AcDbVertex
100
AcDb2dVertex
 10
2.48537714616927
 20
7.543854990057285
 30
0.0
 70
     8
  0
VERTEX
  5
1EB9
330
1D60
100
AcDbEntity
  8
image
100
AcDbVertex
100
AcDb2dVertex
 10
2.471076995670816
 20
7.536832887891654
 30
0.0
 70
     8
  0
VERTEX
  5
1EBA
330
1D60
100
AcDbEntity
  8
image
100
AcDbVertex
100
AcDb2dVertex
 10
2.457621692665217
 20
7.529482798322404
 30
0.0
 70
     8
  0
VERTEX
  5
1EBB
330
1D60
100
AcDbEntity
  8
image
100
AcDbVertex
100
AcDb2dVertex
 10
2.445111684948884
 20
7.521820916124982
 30
0.0
 70
     8
  0
VERTEX
  5
1EBC
330
1D60
100
AcDbEntity
  8
image
100
AcDbVertex
100
AcDb2dVertex
 10
2.433552231670685
 20
7.51389177505929
 30
0.0
 70
     8
  0
VERTEX
  5
1EBD
330
1D60
100
AcDbEntity
  8
image
100
AcDbVertex
100
AcDb2dVertex
 10
2.422924794817599
 20
7.50574699363134
 30
0.0
 70
     8
  0
VERTEX
  5
1EBE
330
1D60
100
AcDbEntity
  8
image
100
AcDbVertex
100
AcDb2dVertex
 10
2.413210836376608
 20
7.497438190347142
 30
0.0
 70
     8
  0
VERTEX
  5
1EBF
330
1D60
100
AcDbEntity
  8
image
100
AcDbVertex
100
AcDb2dVertex
 10
2.404391818334692
 20
7.489016983712709
 30
0.0
 70
     8
  0
VERTEX
  5
1EC0
330
1D60
100
AcDbEntity
  8
image
100
AcDbVertex
100
AcDb2dVertex
 10
2.396449202678832
 20
7.480534992234053
 30
0.0
 70
     8
  0
VERTEX
  5
1EC1
330
1D60
100
AcDbEntity
  8
image
100
AcDbVertex
100
AcDb2dVertex
 10
2.389364451396009
 20
7.472043834417185
 30
0.0
 70
     8
  0
VERTEX
  5
1EC2
330
1D60
100
AcDbEntity
  8
image
100
AcDbVertex
100
AcDb2dVertex
 10
2.383119026473202
 20
7.463595128768116
 30
0.0
 70
     8
  0
VERTEX
  5
1EC3
330
1D60
100
AcDbEntity
  8
image
100
AcDbVertex
100
AcDb2dVertex
 10
2.377685209760117
 20
7.45397143451527
 30
0.0
 70
     8
  0
VERTEX
  5
1EC4
330
1D60
100
AcDbEntity
  8
image
100
AcDbVertex
100
AcDb2dVertex
 10
2.372998562557356
 20
7.43687907377671
 30
0.0
 70
     8
  0
VERTEX
  5
1EC5
330
1D60
100
AcDbEntity
  8
image
100
AcDbVertex
100
AcDb2dVertex
 10
2.368985466028244
 20
7.404755309392907
 30
0.0
 70
     8
  0
VERTEX
  5
1EC6
330
1D60
100
AcDbEntity
  8
image
100
AcDbVertex
100
AcDb2dVertex
 10
2.365572301336106
 20
7.350037404204336
 30
0.0
 70
     8
  0
VERTEX
  5
1EC7
330
1D60
100
AcDbEntity
  8
image
100
AcDbVertex
100
AcDb2dVertex
 10
2.362685449644268
 20
7.265162621051469
 30
0.0
 70
     8
  0
VERTEX
  5
1EC8
330
1D60
100
AcDbEntity
  8
image
100
AcDbVertex
100
AcDb2dVertex
 10
2.360251292116056
 20
7.142568222774778
 30
0.0
 70
     8
  0
VERTEX
  5
1EC9
330
1D60
100
AcDbEntity
  8
image
100
AcDbVertex
100
AcDb2dVertex
 10
2.358196209914794
 20
6.97469147221474
 30
0.0
 70
     8
  0
VERTEX
  5
1ECA
330
1D60
100
AcDbEntity
  8
image
100
AcDbVertex
100
AcDb2dVertex
 10
2.35644658420381
 20
6.753969632211824
 30
0.0
 70
     8
  0
VERTEX
  5
1ECB
330
1D60
100
AcDbEntity
  8
image
100
AcDbVertex
100
AcDb2dVertex
 10
2.354936883846129
 20
6.476604177077476
 30
0.0
 70
     8
  0
VERTEX
  5
1ECC
330
1D60
100
AcDbEntity
  8
image
100
AcDbVertex
100
AcDb2dVertex
 10
2.353633928503585
 20
6.153853427007011
 30
0.0
 70
     8
  0
VERTEX
  5
1ECD
330
1D60
100
AcDbEntity
  8
image
100
AcDbVertex
100
AcDb2dVertex
 10
2.352512625537714
 20
5.800739913666721
 30
0.0
 70
     8
  0
VERTEX
  5
1ECE
330
1D60
100
AcDbEntity
  8
image
100
AcDbVertex
100
AcDb2dVertex
 10
2.351547882310052
 20
5.432286168722892
 30
0.0
 70
     8
  0
VERTEX
  5
1ECF
330
1D60
100
AcDbEntity
  8
image
100
AcDbVertex
100
AcDb2dVertex
 10
2.350714606182133
 20
5.063514723841811
 30
0.0
 70
     8
  0
VERTEX
  5
1ED0
330
1D60
100
AcDbEntity
  8
image
100
AcDbVertex
100
AcDb2dVertex
 10
2.349987704515494
 20
4.709448110689771
 30
0.0
 70
     8
  0
VERTEX
  5
1ED1
330
1D60
100
AcDbEntity
  8
image
100
AcDbVertex
100
AcDb2dVertex
 10
2.349342084671668
 20
4.385108860933056
 30
0.0
 70
     8
  0
VERTEX
  5
1ED2
330
1D60
100
AcDbEntity
  8
image
100
AcDbVertex
100
AcDb2dVertex
 10
2.348752654012193
 20
4.105519506237954
 30
0.0
 70
     8
  0
VERTEX
  5
1ED3
330
1D60
100
AcDbEntity
  8
image
100
AcDbVertex
100
AcDb2dVertex
 10
2.348196158771964
 20
3.881943505225941
 30
0.0
 70
     8
  0
VERTEX
  5
1ED4
330
1D60
100
AcDbEntity
  8
image
100
AcDbVertex
100
AcDb2dVertex
 10
2.347656700679321
 20
3.710608024339226
 30
0.0
 70
     8
  0
VERTEX
  5
1ED5
330
1D60
100
AcDbEntity
  8
image
100
AcDbVertex
100
AcDb2dVertex
 10
2.347120220335966
 20
3.583981156975205
 30
0.0
 70
     8
  0
VERTEX
  5
1ED6
330
1D60
100
AcDbEntity
  8
image
100
AcDbVertex
100
AcDb2dVertex
 10
2.346572658343601
 20
3.494530996531274
 30
0.0
 70
     8
  0
VERTEX
  5
1ED7
330
1D60
100
AcDbEntity
  8
image
100
AcDbVertex
100
AcDb2dVertex
 10
2.345999955303926
 20
3.434725636404826
 30
0.0
 70
     8
  0
VERTEX
  5
1ED8
330
1D60
100
AcDbEntity
  8
image
100
AcDbVertex
100
AcDb2dVertex
 10
2.345388051818644
 20
3.39703316999326
 30
0.0
 70
     8
  0
VERTEX
  5
1ED9
330
1D60
100
AcDbEntity
  8
image
100
AcDbVertex
100
AcDb2dVertex
 10
2.344722888489456
 20
3.373921690693969
 30
0.0
 70
     8
  0
VERTEX
  5
1EDA
330
1D60
100
AcDbEntity
  8
image
100
AcDbVertex
100
AcDb2dVertex
 10
2.343990405918063
 20
3.357859291904349
 30
0.0
 70
     8
  0
VERTEX
  5
1EDB
330
1D60
100
AcDbEntity
  8
image
100
AcDbVertex
100
AcDb2dVertex
 10
2.343179482836644
 20
3.342577378784048
 30
0.0
 70
     8
  0
VERTEX
  5
1EDC
330
1D60
100
AcDbEntity
  8
image
100
AcDbVertex
100
AcDb2dVertex
 10
2.342290750499282
 20
3.326860603541715
 30
0.0
 70
     8
  0
VERTEX
  5
1EDD
330
1D60
100
AcDbEntity
  8
image
100
AcDbVertex
100
AcDb2dVertex
 10
2.341327778290538
 20
3.310756930148253
 30
0.0
 70
     8
  0
VERTEX
  5
1EDE
330
1D60
100
AcDbEntity
  8
image
100
AcDbVertex
100
AcDb2dVertex
 10
2.340294135594972
 20
3.294314322574563
 30
0.0
 70
     8
  0
VERTEX
  5
1EDF
330
1D60
100
AcDbEntity
  8
image
100
AcDbVertex
100
AcDb2dVertex
 10
2.339193391797146
 20
3.277580744791547
 30
0.0
 70
     8
  0
VERTEX
  5
1EE0
330
1D60
100
AcDbEntity
  8
image
100
AcDbVertex
100
AcDb2dVertex
 10
2.338029116281618
 20
3.260604160770107
 30
0.0
 70
     8
  0
VERTEX
  5
1EE1
330
1D60
100
AcDbEntity
  8
image
100
AcDbVertex
100
AcDb2dVertex
 10
2.336804878432951
 20
3.243432534481145
 30
0.0
 70
     8
  0
VERTEX
  5
1EE2
330
1D60
100
AcDbEntity
  8
image
100
AcDbVertex
100
AcDb2dVertex
 10
2.335524247635705
 20
3.226113829895563
 30
0.0
 70
     8
  0
VERTEX
  5
1EE3
330
1D60
100
AcDbEntity
  8
image
100
AcDbVertex
100
AcDb2dVertex
 10
2.334191329560237
 20
3.208687808559558
 30
0.0
 70
     8
  0
VERTEX
  5
1EE4
330
1D60
100
AcDbEntity
  8
image
100
AcDbVertex
100
AcDb2dVertex
 10
2.332812375020099
 20
3.191161422320507
 30
0.0
 70
     8
  0
VERTEX
  5
1EE5
330
1D60
100
AcDbEntity
  8
image
100
AcDbVertex
100
AcDb2dVertex
 10
2.33139417111464
 20
3.173533420601085
 30
0.0
 70
     8
  0
VERTEX
  5
1EE6
330
1D60
100
AcDbEntity
  8
image
100
AcDbVertex
100
AcDb2dVertex
 10
2.329943504943205
 20
3.155802552823964
 30
0.0
 70
     8
  0
VERTEX
  5
1EE7
330
1D60
100
AcDbEntity
  8
image
100
AcDbVertex
100
AcDb2dVertex
 10
2.328467163605145
 20
3.137967568411818
 30
0.0
 70
     8
  0
VERTEX
  5
1EE8
330
1D60
100
AcDbEntity
  8
image
100
AcDbVertex
100
AcDb2dVertex
 10
2.326971934199808
 20
3.120027216787321
 30
0.0
 70
     8
  0
VERTEX
  5
1EE9
330
1D60
100
AcDbEntity
  8
image
100
AcDbVertex
100
AcDb2dVertex
 10
2.32546460382654
 20
3.101980247373145
 30
0.0
 70
     8
  0
VERTEX
  5
1EEA
330
1D60
100
AcDbEntity
  8
image
100
AcDbVertex
100
AcDb2dVertex
 10
2.323951959584692
 20
3.083825409591964
 30
0.0
 70
     8
  0
VERTEX
  5
1EEB
330
1D60
100
AcDbEntity
  8
image
100
AcDbVertex
100
AcDb2dVertex
 10
2.322443480632297
 20
3.065567033777477
 30
0.0
 70
     8
  0
VERTEX
  5
1EEC
330
1D60
100
AcDbEntity
  8
image
100
AcDbVertex
100
AcDb2dVertex
 10
2.320959414362132
 20
3.047231773907478
 30
0.0
 70
     8
  0
VERTEX
  5
1EED
330
1D60
100
AcDbEntity
  8
image
100
AcDbVertex
100
AcDb2dVertex
 10
2.319522700225661
 20
3.028851864870789
 30
0.0
 70
     8
  0
VERTEX
  5
1EEE
330
1D60
100
AcDbEntity
  8
image
100
AcDbVertex
100
AcDb2dVertex
 10
2.318156277674348
 20
3.01045954155623
 30
0.0
 70
     8
  0
VERTEX
  5
1EEF
330
1D60
100
AcDbEntity
  8
image
100
AcDbVertex
100
AcDb2dVertex
 10
2.316883086159656
 20
2.992087038852622
 30
0.0
 70
     8
  0
VERTEX
  5
1EF0
330
1D60
100
AcDbEntity
  8
image
100
AcDbVertex
100
AcDb2dVertex
 10
2.315726065133048
 20
2.973766591648785
 30
0.0
 70
     8
  0
VERTEX
  5
1EF1
330
1D60
100
AcDbEntity
  8
image
100
AcDbVertex
100
AcDb2dVertex
 10
2.314708154045988
 20
2.95553043483354
 30
0.0
 70
     8
  0
VERTEX
  5
1EF2
330
1D60
100
AcDbEntity
  8
image
100
AcDbVertex
100
AcDb2dVertex
 10
2.313852292349939
 20
2.937410803295708
 30
0.0
 70
     8
  0
VERTEX
  5
1EF3
330
1D60
100
AcDbEntity
  8
image
100
AcDbVertex
100
AcDb2dVertex
 10
2.313177637690363
 20
2.919430362258288
 30
0.0
 70
     8
  0
VERTEX
  5
1EF4
330
1D60
100
AcDbEntity
  8
image
100
AcDbVertex
100
AcDb2dVertex
 10
2.312688220488714
 20
2.901573498281004
 30
0.0
 70
     8
  0
VERTEX
  5
1EF5
330
1D60
100
AcDbEntity
  8
image
100
AcDbVertex
100
AcDb2dVertex
 10
2.312384289360442
 20
2.883815028257758
 30
0.0
 70
     8
  0
VERTEX
  5
1EF6
330
1D60
100
AcDbEntity
  8
image
100
AcDbVertex
100
AcDb2dVertex
 10
2.312266092920999
 20
2.866129769082451
 30
0.0
 70
     8
  0
VERTEX
  5
1EF7
330
1D60
100
AcDbEntity
  8
image
100
AcDbVertex
100
AcDb2dVertex
 10
2.312333879785837
 20
2.848492537648987
 30
0.0
 70
     8
  0
VERTEX
  5
1EF8
330
1D60
100
AcDbEntity
  8
image
100
AcDbVertex
100
AcDb2dVertex
 10
2.312587898570408
 20
2.830878150851268
 30
0.0
 70
     8
  0
VERTEX
  5
1EF9
330
1D60
100
AcDbEntity
  8
image
100
AcDbVertex
100
AcDb2dVertex
 10
2.313028397890162
 20
2.813261425583196
 30
0.0
 70
     8
  0
VERTEX
  5
1EFA
330
1D60
100
AcDbEntity
  8
image
100
AcDbVertex
100
AcDb2dVertex
 10
2.313655626360551
 20
2.795617178738674
 30
0.0
 70
     8
  0
VERTEX
  5
1EFB
330
1D60
100
AcDbEntity
  8
image
100
AcDbVertex
100
AcDb2dVertex
 10
2.314466297775769
 20
2.777933290800793
 30
0.0
 70
     8
  0
VERTEX
  5
1EFC
330
1D60
100
AcDbEntity
  8
image
100
AcDbVertex
100
AcDb2dVertex
 10
2.315442986644974
 20
2.760249896609407
 30
0.0
 70
     8
  0
VERTEX
  5
1EFD
330
1D60
100
AcDbEntity
  8
image
100
AcDbVertex
100
AcDb2dVertex
 10
2.316564732656065
 20
2.742620194593556
 30
0.0
 70
     8
  0
VERTEX
  5
1EFE
330
1D60
100
AcDbEntity
  8
image
100
AcDbVertex
100
AcDb2dVertex
 10
2.317810575496943
 20
2.725097383182285
 30
0.0
 70
     8
  0
VERTEX
  5
1EFF
330
1D60
100
AcDbEntity
  8
image
100
AcDbVertex
100
AcDb2dVertex
 10
2.319159554855507
 20
2.707734660804634
 30
0.0
 70
     8
  0
VERTEX
  5
1F00
330
1D60
100
AcDbEntity
  8
image
100
AcDbVertex
100
AcDb2dVertex
 10
2.320590710419658
 20
2.690585225889647
 30
0.0
 70
     8
  0
VERTEX
  5
1F01
330
1D60
100
AcDbEntity
  8
image
100
AcDbVertex
100
AcDb2dVertex
 10
2.322083081877296
 20
2.673702276866365
 30
0.0
 70
     8
  0
VERTEX
  5
1F02
330
1D60
100
AcDbEntity
  8
image
100
AcDbVertex
100
AcDb2dVertex
 10
2.323615708916319
 20
2.657139012163831
 30
0.0
 70
     8
  0
VERTEX
  5
1F03
330
1D60
100
AcDbEntity
  8
image
100
AcDbVertex
100
AcDb2dVertex
 10
2.325171518861838
 20
2.640928242998902
 30
0.0
 70
     8
  0
VERTEX
  5
1F04
330
1D60
100
AcDbEntity
  8
image
100
AcDbVertex
100
AcDb2dVertex
 10
2.326748989587794
 20
2.625021231739698
 30
0.0
 70
     8
  0
VERTEX
  5
1F05
330
1D60
100
AcDbEntity
  8
image
100
AcDbVertex
100
AcDb2dVertex
 10
2.328350486605338
 20
2.609348853542154
 30
0.0
 70
     8
  0
VERTEX
  5
1F06
330
1D60
100
AcDbEntity
  8
image
100
AcDbVertex
100
AcDb2dVertex
 10
2.329978375425621
 20
2.593841983562202
 30
0.0
 70
     8
  0
VERTEX
  5
1F07
330
1D60
100
AcDbEntity
  8
image
100
AcDbVertex
100
AcDb2dVertex
 10
2.331635021559795
 20
2.578431496955779
 30
0.0
 70
     8
  0
VERTEX
  5
1F08
330
1D60
100
AcDbEntity
  8
image
100
AcDbVertex
100
AcDb2dVertex
 10
2.333322790519009
 20
2.563048268878818
 30
0.0
 70
     8
  0
VERTEX
  5
1F09
330
1D60
100
AcDbEntity
  8
image
100
AcDbVertex
100
AcDb2dVertex
 10
2.335044047814416
 20
2.547623174487255
 30
0.0
 70
     8
  0
VERTEX
  5
1F0A
330
1D60
100
AcDbEntity
  8
image
100
AcDbVertex
100
AcDb2dVertex
 10
2.336801158957166
 20
2.532087088937023
 30
0.0
 70
     8
  0
VERTEX
  5
1F0B
330
1D60
100
AcDbEntity
  8
image
100
AcDbVertex
100
AcDb2dVertex
 10
2.338595545652463
 20
2.516383965335494
 30
0.0
 70
     8
  0
VERTEX
  5
1F0C
330
1D60
100
AcDbEntity
  8
image
100
AcDbVertex
100
AcDb2dVertex
 10
2.340424854381724
 20
2.500510068595791
 30
0.0
 70
     8
  0
VERTEX
  5
1F0D
330
1D60
100
AcDbEntity
  8
image
100
AcDbVertex
100
AcDb2dVertex
 10
2.342285787820419
 20
2.48447474158247
 30
0.0
 70
     8
  0
VERTEX
  5
1F0E
330
1D60
100
AcDbEntity
  8
image
100
AcDbVertex
100
AcDb2dVertex
 10
2.344175048644019
 20
2.46828732716009
 30
0.0
 70
     8
  0
VERTEX
  5
1F0F
330
1D60
100
AcDbEntity
  8
image
100
AcDbVertex
100
AcDb2dVertex
 10
2.346089339527993
 20
2.45195716819321
 30
0.0
 70
     8
  0
VERTEX
  5
1F10
330
1D60
100
AcDbEntity
  8
image
100
AcDbVertex
100
AcDb2dVertex
 10
2.348025363147811
 20
2.435493607546389
 30
0.0
 70
     8
  0
VERTEX
  5
1F11
330
1D60
100
AcDbEntity
  8
image
100
AcDbVertex
100
AcDb2dVertex
 10
2.349979822178944
 20
2.418905988084183
 30
0.0
 70
     8
  0
VERTEX
  5
1F12
330
1D60
100
AcDbEntity
  8
image
100
AcDbVertex
100
AcDb2dVertex
 10
2.351949419296862
 20
2.402203652671153
 30
0.0
 70
     8
  0
VERTEX
  5
1F13
330
1D60
100
AcDbEntity
  8
image
100
AcDbVertex
100
AcDb2dVertex
 10
2.353928258692932
 20
2.385394533749474
 30
0.0
 70
     8
  0
VERTEX
  5
1F14
330
1D60
100
AcDbEntity
  8
image
100
AcDbVertex
100
AcDb2dVertex
 10
2.355900050622112
 20
2.368480922071792
 30
0.0
 70
     8
  0
VERTEX
  5
1F15
330
1D60
100
AcDbEntity
  8
image
100
AcDbVertex
100
AcDb2dVertex
 10
2.357845906855256
 20
2.351463697968374
 30
0.0
 70
     8
  0
VERTEX
  5
1F16
330
1D60
100
AcDbEntity
  8
image
100
AcDbVertex
100
AcDb2dVertex
 10
2.35974693916322
 20
2.334343741769482
 30
0.0
 70
     8
  0
VERTEX
  5
1F17
330
1D60
100
AcDbEntity
  8
image
100
AcDbVertex
100
AcDb2dVertex
 10
2.361584259316859
 20
2.317121933805382
 30
0.0
 70
     8
  0
VERTEX
  5
1F18
330
1D60
100
AcDbEntity
  8
image
100
AcDbVertex
100
AcDb2dVertex
 10
2.363338979087028
 20
2.299799154406338
 30
0.0
 70
     8
  0
VERTEX
  5
1F19
330
1D60
100
AcDbEntity
  8
image
100
AcDbVertex
100
AcDb2dVertex
 10
2.364992210244582
 20
2.282376283902616
 30
0.0
 70
     8
  0
VERTEX
  5
1F1A
330
1D60
100
AcDbEntity
  8
image
100
AcDbVertex
100
AcDb2dVertex
 10
2.366525064560375
 20
2.264854202624479
 30
0.0
 70
     8
  0
VERTEX
  5
1F1B
330
1D60
100
AcDbEntity
  8
image
100
AcDbVertex
100
AcDb2dVertex
 10
2.367914635657259
 20
2.247234663098617
 30
0.0
 70
     8
  0
VERTEX
  5
1F1C
330
1D60
100
AcDbEntity
  8
image
100
AcDbVertex
100
AcDb2dVertex
 10
2.369121944566067
 20
2.229522906637415
 30
0.0
 70
     8
  0
VERTEX
  5
1F1D
330
1D60
100
AcDbEntity
  8
image
100
AcDbVertex
100
AcDb2dVertex
 10
2.370103994169628
 20
2.211725046749681
 30
0.0
 70
     8
  0
VERTEX
  5
1F1E
330
1D60
100
AcDbEntity
  8
image
100
AcDbVertex
100
AcDb2dVertex
 10
2.37081778735077
 20
2.193847196944227
 30
0.0
 70
     8
  0
VERTEX
  5
1F1F
330
1D60
100
AcDbEntity
  8
image
100
AcDbVertex
100
AcDb2dVertex
 10
2.371220326992324
 20
2.175895470729861
 30
0.0
 70
     8
  0
VERTEX
  5
1F20
330
1D60
100
AcDbEntity
  8
image
100
AcDbVertex
100
AcDb2dVertex
 10
2.371268615977118
 20
2.157875981615391
 30
0.0
 70
     8
  0
VERTEX
  5
1F21
330
1D60
100
AcDbEntity
  8
image
100
AcDbVertex
100
AcDb2dVertex
 10
2.370919657187981
 20
2.139794843109629
 30
0.0
 70
     8
  0
VERTEX
  5
1F22
330
1D60
100
AcDbEntity
  8
image
100
AcDbVertex
100
AcDb2dVertex
 10
2.370130453507742
 20
2.121658168721384
 30
0.0
 70
     8
  0
VERTEX
  5
1F23
330
1D60
100
AcDbEntity
  8
image
100
AcDbVertex
100
AcDb2dVertex
 10
2.368866583360185
 20
2.103475372140009
 30
0.0
 70
     8
  0
VERTEX
  5
1F24
330
1D60
100
AcDbEntity
  8
image
100
AcDbVertex
100
AcDb2dVertex
 10
2.367127927332911
 20
2.085269067777034
 30
0.0
 70
     8
  0
VERTEX
  5
1F25
330
1D60
100
AcDbEntity
  8
image
100
AcDbVertex
100
AcDb2dVertex
 10
2.364922941554474
 20
2.067065170224534
 30
0.0
 70
     8
  0
VERTEX
  5
1F26
330
1D60
100
AcDbEntity
  8
image
100
AcDbVertex
100
AcDb2dVertex
 10
2.362260082153432
 20
2.048889594074585
 30
0.0
 70
     8
  0
VERTEX
  5
1F27
330
1D60
100
AcDbEntity
  8
image
100
AcDbVertex
100
AcDb2dVertex
 10
2.359147805258338
 20
2.030768253919262
 30
0.0
 70
     8
  0
VERTEX
  5
1F28
330
1D60
100
AcDbEntity
  8
image
100
AcDbVertex
100
AcDb2dVertex
 10
2.355594566997749
 20
2.012727064350638
 30
0.0
 70
     8
  0
VERTEX
  5
1F29
330
1D60
100
AcDbEntity
  8
image
100
AcDbVertex
100
AcDb2dVertex
 10
2.35160882350022
 20
1.994791939960791
 30
0.0
 70
     8
  0
VERTEX
  5
1F2A
330
1D60
100
AcDbEntity
  8
image
100
AcDbVertex
100
AcDb2dVertex
 10
2.347199030894306
 20
1.976988795341793
 30
0.0
 70
     8
  0
VERTEX
  5
1F2B
330
1D60
100
AcDbEntity
  8
image
100
AcDbVertex
100
AcDb2dVertex
 10
2.342373640485776
 20
1.959343691869903
 30
0.0
 70
     8
  0
VERTEX
  5
1F2C
330
1D60
100
AcDbEntity
  8
image
100
AcDbVertex
100
AcDb2dVertex
 10
2.337141084289248
 20
1.94188327805811
 30
0.0
 70
     8
  0
VERTEX
  5
1F2D
330
1D60
100
AcDbEntity
  8
image
100
AcDbVertex
100
AcDb2dVertex
 10
2.331509789496552
 20
1.924634349203583
 30
0.0
 70
     8
  0
VERTEX
  5
1F2E
330
1D60
100
AcDbEntity
  8
image
100
AcDbVertex
100
AcDb2dVertex
 10
2.32548818329952
 20
1.907623700603495
 30
0.0
 70
     8
  0
VERTEX
  5
1F2F
330
1D60
100
AcDbEntity
  8
image
100
AcDbVertex
100
AcDb2dVertex
 10
2.319084692889984
 20
1.890878127555016
 30
0.0
 70
     8
  0
VERTEX
  5
1F30
330
1D60
100
AcDbEntity
  8
image
100
AcDbVertex
100
AcDb2dVertex
 10
2.312307745459772
 20
1.874424425355317
 30
0.0
 70
     8
  0
VERTEX
  5
1F31
330
1D60
100
AcDbEntity
  8
image
100
AcDbVertex
100
AcDb2dVertex
 10
2.305165768200717
 20
1.85828938930157
 30
0.0
 70
     8
  0
VERTEX
  5
1F32
330
1D60
100
AcDbEntity
  8
image
100
AcDbVertex
100
AcDb2dVertex
 10
2.29766718830465
 20
1.842499814690946
 30
0.0
 70
     8
  0
VERTEX
  5
1F33
330
1D60
100
AcDbEntity
  8
image
100
AcDbVertex
100
AcDb2dVertex
 10
2.289845515079853
 20
1.827083268968561
 30
0.0
 70
     8
  0
VERTEX
  5
1F34
330
1D60
100
AcDbEntity
  8
image
100
AcDbVertex
100
AcDb2dVertex
 10
2.281834586300417
 20
1.812070408171321
 30
0.0
 70
     8
  0
VERTEX
  5
1F35
330
1D60
100
AcDbEntity
  8
image
100
AcDbVertex
100
AcDb2dVertex
 10
2.273793321856885
 20
1.797492660484075
 30
0.0
 70
     8
  0
VERTEX
  5
1F36
330
1D60
100
AcDbEntity
  8
image
100
AcDbVertex
100
AcDb2dVertex
 10
2.265880641639799
 20
1.783381454091675
 30
0.0
 70
     8
  0
VERTEX
  5
1F37
330
1D60
100
AcDbEntity
  8
image
100
AcDbVertex
100
AcDb2dVertex
 10
2.258255465539703
 20
1.769768217178969
 30
0.0
 70
     8
  0
VERTEX
  5
1F38
330
1D60
100
AcDbEntity
  8
image
100
AcDbVertex
100
AcDb2dVertex
 10
2.251076713447138
 20
1.756684377930811
 30
0.0
 70
     8
  0
VERTEX
  5
1F39
330
1D60
100
AcDbEntity
  8
image
100
AcDbVertex
100
AcDb2dVertex
 10
2.244503305252649
 20
1.744161364532049
 30
0.0
 70
     8
  0
VERTEX
  5
1F3A
330
1D60
100
AcDbEntity
  8
image
100
AcDbVertex
100
AcDb2dVertex
 10
2.238694160846777
 20
1.732230605167534
 30
0.0
 70
     8
  0
VERTEX
  5
1F3B
330
1D60
100
AcDbEntity
  8
image
100
AcDbVertex
100
AcDb2dVertex
 10
2.233766001060225
 20
1.720927642707348
 30
0.0
 70
     8
  0
VERTEX
  5
1F3C
330
1D60
100
AcDbEntity
  8
image
100
AcDbVertex
100
AcDb2dVertex
 10
2.229666750484335
 20
1.7103044787625
 30
0.0
 70
     8
  0
VERTEX
  5
1F3D
330
1D60
100
AcDbEntity
  8
image
100
AcDbVertex
100
AcDb2dVertex
 10
2.226302134650609
 20
1.700417229629227
 30
0.0
 70
     8
  0
VERTEX
  5
1F3E
330
1D60
100
AcDbEntity
  8
image
100
AcDbVertex
100
AcDb2dVertex
 10
2.22357787909055
 20
1.691322011603768
 30
0.0
 70
     8
  0
VERTEX
  5
1F3F
330
1D60
100
AcDbEntity
  8
image
100
AcDbVertex
100
AcDb2dVertex
 10
2.221399709335659
 20
1.683074940982363
 30
0.0
 70
     8
  0
VERTEX
  5
1F40
330
1D60
100
AcDbEntity
  8
image
100
AcDbVertex
100
AcDb2dVertex
 10
2.219673350917438
 20
1.675732134061251
 30
0.0
 70
     8
  0
VERTEX
  5
1F41
330
1D60
100
AcDbEntity
  8
image
100
AcDbVertex
100
AcDb2dVertex
 10
2.218304529367389
 20
1.66934970713667
 30
0.0
 70
     8
  0
VERTEX
  5
1F42
330
1D60
100
AcDbEntity
  8
image
100
AcDbVertex
100
AcDb2dVertex
 10
2.217198970217014
 20
1.663983776504859
 30
0.0
 70
     8
  0
VERTEX
  5
1F43
330
1D60
100
AcDbEntity
  8
image
100
AcDbVertex
100
AcDb2dVertex
 10
2.216274447855007
 20
1.659659616726741
 30
0.0
 70
     8
  0
VERTEX
  5
1F44
330
1D60
100
AcDbEntity
  8
image
100
AcDbVertex
100
AcDb2dVertex
 10
2.215496932098822
 20
1.656279135421972
 30
0.0
 70
     8
  0
VERTEX
  5
1F45
330
1D60
100
AcDbEntity
  8
image
100
AcDbVertex
100
AcDb2dVertex
 10
2.214844441623103
 20
1.653713398474893
 30
0.0
 70
     8
  0
VERTEX
  5
1F46
330
1D60
100
AcDbEntity
  8
image
100
AcDbVertex
100
AcDb2dVertex
 10
2.214294995102497
 20
1.651833471769843
 30
0.0
 70
     8
  0
VERTEX
  5
1F47
330
1D60
100
AcDbEntity
  8
image
100
AcDbVertex
100
AcDb2dVertex
 10
2.213826611211648
 20
1.650510421191163
 30
0.0
 70
     8
  0
VERTEX
  5
1F48
330
1D60
100
AcDbEntity
  8
image
100
AcDbVertex
100
AcDb2dVertex
 10
2.213417308625203
 20
1.649615312623193
 30
0.0
 70
     8
  0
VERTEX
  5
1F49
330
1D60
100
AcDbEntity
  8
image
100
AcDbVertex
100
AcDb2dVertex
 10
2.213045106017806
 20
1.649019211950273
 30
0.0
 70
     8
  0
VERTEX
  5
1F4A
330
1D60
100
AcDbEntity
  8
image
100
AcDbVertex
100
AcDb2dVertex
 10
2.212688022064103
 20
1.648593185056743
 30
0.0
 70
     8
  0
VERTEX
  5
1F4B
330
1D60
100
AcDbEntity
  8
image
100
AcDbVertex
100
AcDb2dVertex
 10
2.212324164740988
 20
1.648228644075541
 30
0.0
 70
     8
  0
VERTEX
  5
1F4C
330
1D60
100
AcDbEntity
  8
image
100
AcDbVertex
100
AcDb2dVertex
 10
2.211931999234352
 20
1.647898386133995
 30
0.0
 70
     8
  0
VERTEX
  5
1F4D
330
1D60
100
AcDbEntity
  8
image
100
AcDbVertex
100
AcDb2dVertex
 10
2.211490080032337
 20
1.64759555460803
 30
0.0
 70
     8
  0
VERTEX
  5
1F4E
330
1D60
100
AcDbEntity
  8
image
100
AcDbVertex
100
AcDb2dVertex
 10
2.210976961623081
 20
1.647313292873573
 30
0.0
 70
     8
  0
VERTEX
  5
1F4F
330
1D60
100
AcDbEntity
  8
image
100
AcDbVertex
100
AcDb2dVertex
 10
2.210371198494727
 20
1.647044744306548
 30
0.0
 70
     8
  0
VERTEX
  5
1F50
330
1D60
100
AcDbEntity
  8
image
100
AcDbVertex
100
AcDb2dVertex
 10
2.209651345135414
 20
1.646783052282881
 30
0.0
 70
     8
  0
VERTEX
  5
1F51
330
1D60
100
AcDbEntity
  8
image
100
AcDbVertex
100
AcDb2dVertex
 10
2.208795956033284
 20
1.646521360178499
 30
0.0
 70
     8
  0
VERTEX
  5
1F52
330
1D60
100
AcDbEntity
  8
image
100
AcDbVertex
100
AcDb2dVertex
 10
2.207783585676476
 20
1.646252811369326
 30
0.0
 70
     8
  0
VERTEX
  5
1F53
330
1D60
100
AcDbEntity
  8
image
100
AcDbVertex
100
AcDb2dVertex
 10
2.206603511318424
 20
1.645971977696318
 30
0.0
 70
     8
  0
VERTEX
  5
1F54
330
1D60
100
AcDbEntity
  8
image
100
AcDbVertex
100
AcDb2dVertex
 10
2.205287901273734
 20
1.645679144860554
 30
0.0
 70
     8
  0
VERTEX
  5
1F55
330
1D60
100
AcDbEntity
  8
image
100
AcDbVertex
100
AcDb2dVertex
 10
2.203879646622306
 20
1.645376027028142
 30
0.0
 70
     8
  0
VERTEX
  5
1F56
330
1D60
100
AcDbEntity
  8
image
100
AcDbVertex
100
AcDb2dVertex
 10
2.202421638444039
 20
1.645064338365188
 30
0.0
 70
     8
  0
VERTEX
  5
1F57
330
1D60
100
AcDbEntity
  8
image
100
AcDbVertex
100
AcDb2dVertex
 10
2.200956767818831
 20
1.644745793037803
 30
0.0
 70
     8
  0
VERTEX
  5
1F58
330
1D60
100
AcDbEntity
  8
image
100
AcDbVertex
100
AcDb2dVertex
 10
2.199527925826582
 20
1.644422105212093
 30
0.0
 70
     8
  0
VERTEX
  5
1F59
330
1D60
100
AcDbEntity
  8
image
100
AcDbVertex
100
AcDb2dVertex
 10
2.198178003547191
 20
1.644094989054167
 30
0.0
 70
     8
  0
VERTEX
  5
1F5A
330
1D60
100
AcDbEntity
  8
image
100
AcDbVertex
100
AcDb2dVertex
 10
2.196949892060557
 20
1.643766158730133
 30
0.0
 70
     8
  0
VERTEX
  5
1F5B
330
1D60
100
AcDbEntity
  8
image
100
AcDbVertex
100
AcDb2dVertex
 10
2.195862177506922
 20
1.643415615938081
 30
0.0
 70
     8
  0
VERTEX
  5
1F5C
330
1D60
100
AcDbEntity
  8
image
100
AcDbVertex
100
AcDb2dVertex
 10
2.194836226267893
 20
1.642936512504033
 30
0.0
 70
     8
  0
VERTEX
  5
1F5D
330
1D60
100
AcDbEntity
  8
image
100
AcDbVertex
100
AcDb2dVertex
 10
2.193769099785421
 20
1.642200287785992
 30
0.0
 70
     8
  0
VERTEX
  5
1F5E
330
1D60
100
AcDbEntity
  8
image
100
AcDbVertex
100
AcDb2dVertex
 10
2.192557859501455
 20
1.64107838114196
 30
0.0
 70
     8
  0
VERTEX
  5
1F5F
330
1D60
100
AcDbEntity
  8
image
100
AcDbVertex
100
AcDb2dVertex
 10
2.191099566857947
 20
1.639442231929941
 30
0.0
 70
     8
  0
VERTEX
  5
1F60
330
1D60
100
AcDbEntity
  8
image
100
AcDbVertex
100
AcDb2dVertex
 10
2.189291283296845
 20
1.637163279507939
 30
0.0
 70
     8
  0
VERTEX
  5
1F61
330
1D60
100
AcDbEntity
  8
image
100
AcDbVertex
100
AcDb2dVertex
 10
2.1870300702601
 20
1.634112963233956
 30
0.0
 70
     8
  0
VERTEX
  5
1F62
330
1D60
100
AcDbEntity
  8
image
100
AcDbVertex
100
AcDb2dVertex
 10
2.184212989189662
 20
1.630162722465997
 30
0.0
 70
     8
  0
VERTEX
  5
1E6C
330
1D60
100
AcDbEntity
  8
image
100
AcDbVertex
100
AcDb2dVertex
 10
2.932070058878589
 20
7.612758269710321
 30
0.0
 70
    16
  0
VERTEX
  5
1E6D
330
1D60
100
AcDbEntity
  8
image
100
AcDbVertex
100
AcDb2dVertex
 10
2.919558695632271
 20
7.600057450384175
 30
0.0
 70
    16
  0
VERTEX
  5
1E6E
330
1D60
100
AcDbEntity
  8
image
100
AcDbVertex
100
AcDb2dVertex
 10
2.91611324024854
 20
7.599067476445126
 30
0.0
 70
    16
  0
VERTEX
  5
1E6F
330
1D60
100
AcDbEntity
  8
image
100
AcDbVertex
100
AcDb2dVertex
 10
2.842597169708781
 20
7.619567780287892
 30
0.0
 70
    16
  0
VERTEX
  5
1E70
330
1D60
100
AcDbEntity
  8
image
100
AcDbVertex
100
AcDb2dVertex
 10
2.715578549987906
 20
7.607580263566008
 30
0.0
 70
    16
  0
VERTEX
  5
1E71
330
1D60
100
AcDbEntity
  8
image
100
AcDbVertex
100
AcDb2dVertex
 10
2.582227379141051
 20
7.582768453761303
 30
0.0
 70
    16
  0
VERTEX
  5
1E72
330
1D60
100
AcDbEntity
  8
image
100
AcDbVertex
100
AcDb2dVertex
 10
2.447284706519589
 20
7.532884156981415
 30
0.0
 70
    16
  0
VERTEX
  5
1E73
330
1D60
100
AcDbEntity
  8
image
100
AcDbVertex
100
AcDb2dVertex
 10
2.374363950771892
 20
7.462591708247456
 30
0.0
 70
    16
  0
VERTEX
  5
1E74
330
1D60
100
AcDbEntity
  8
image
100
AcDbVertex
100
AcDb2dVertex
 10
2.353973649232054
 20
7.398319782637457
 30
0.0
 70
    16
  0
VERTEX
  5
1E75
330
1D60
100
AcDbEntity
  8
image
100
AcDbVertex
100
AcDb2dVertex
 10
2.348420957522752
 20
3.467946954473658
 30
0.0
 70
    16
  0
VERTEX
  5
1E76
330
1D60
100
AcDbEntity
  8
image
100
AcDbVertex
100
AcDb2dVertex
 10
2.344858444750097
 20
3.363009436895636
 30
0.0
 70
    16
  0
VERTEX
  5
1E77
330
1D60
100
AcDbEntity
  8
image
100
AcDbVertex
100
AcDb2dVertex
 10
2.336087698985239
 20
3.227171049369894
 30
0.0
 70
    16
  0
VERTEX
  5
1E78
330
1D60
100
AcDbEntity
  8
image
100
AcDbVertex
100
AcDb2dVertex
 10
2.323936245123177
 20
3.084989344998168
 30
0.0
 70
    16
  0
VERTEX
  5
1E79
330
1D60
100
AcDbEntity
  8
image
100
AcDbVertex
100
AcDb2dVertex
 10
2.311879078030208
 20
2.935824028189223
 30
0.0
 70
    16
  0
VERTEX
  5
1E7A
330
1D60
100
AcDbEntity
  8
image
100
AcDbVertex
100
AcDb2dVertex
 10
2.311661196855625
 20
2.796179362019187
 30
0.0
 70
    16
  0
VERTEX
  5
1E7B
330
1D60
100
AcDbEntity
  8
image
100
AcDbVertex
100
AcDb2dVertex
 10
2.323409892710599
 20
2.653161596166071
 30
0.0
 70
    16
  0
VERTEX
  5
1E7C
330
1D60
100
AcDbEntity
  8
image
100
AcDbVertex
100
AcDb2dVertex
 10
2.336393485799896
 20
2.534008326299517
 30
0.0
 70
    16
  0
VERTEX
  5
1E7D
330
1D60
100
AcDbEntity
  8
image
100
AcDbVertex
100
AcDb2dVertex
 10
2.351823117832811
 20
2.403327632257998
 30
0.0
 70
    16
  0
VERTEX
  5
1E7E
330
1D60
100
AcDbEntity
  8
image
100
AcDbVertex
100
AcDb2dVertex
 10
2.36801055865003
 20
2.265903060695408
 30
0.0
 70
    16
  0
VERTEX
  5
1E7F
330
1D60
100
AcDbEntity
  8
image
100
AcDbVertex
100
AcDb2dVertex
 10
2.375285034929319
 20
2.122185340707242
 30
0.0
 70
    16
  0
VERTEX
  5
1E80
330
1D60
100
AcDbEntity
  8
image
100
AcDbVertex
100
AcDb2dVertex
 10
2.35163202267915
 20
1.975304588803926
 30
0.0
 70
    16
  0
VERTEX
  5
1E81
330
1D60
100
AcDbEntity
  8
image
100
AcDbVertex
100
AcDb2dVertex
 10
2.30138105971992
 20
1.838529076127815
 30
0.0
 70
    16
  0
VERTEX
  5
1E82
330
1D60
100
AcDbEntity
  8
image
100
AcDbVertex
100
AcDb2dVertex
 10
2.228846868269069
 20
1.725577994830491
 30
0.0
 70
    16
  0
VERTEX
  5
1E83
330
1D60
100
AcDbEntity
  8
image
100
AcDbVertex
100
AcDb2dVertex
 10
2.215396432284466
 20
1.652542575555427
 30
0.0
 70
    16
  0
VERTEX
  5
1E84
330
1D60
100
AcDbEntity
  8
image
100
AcDbVertex
100
AcDb2dVertex
 10
2.212761223895153
 20
1.648154361976954
 30
0.0
 70
    16
  0
VERTEX
  5
1E85
330
1D60
100
AcDbEntity
  8
image
100
AcDbVertex
100
AcDb2dVertex
 10
2.209686804519537
 20
1.646399086877217
 30
0.0
 70
    16
  0
VERTEX
  5
1E86
330
1D60
100
AcDbEntity
  8
image
100
AcDbVertex
100
AcDb2dVertex
 10
2.195193072085555
 20
1.643766158730132
 30
0.0
 70
    16
  0
VERTEX
  5
1E87
330
1D60
100
AcDbEntity
  8
image
100
AcDbVertex
100
AcDb2dVertex
 10
2.192557863696242
 20
1.642010873298744
 30
0.0
 70
    16
  0
VERTEX
  5
1E88
330
1D60
100
AcDbEntity
  8
image
100
AcDbVertex
100
AcDb2dVertex
 10
2.184212989189662
 20
1.630162722465997
 30
0.0
 70
    16
  0
SEQEND
  5
1E89
330
1D60
100
AcDbEntity
  8
image
  0
ENDSEC
  0
SECTION
  2
OBJECTS
  0
DICTIONARY
  5
10AF
330
0
100
AcDbDictionary
281
     1
  3
ACAD_COLOR
350
121C
  3
ACAD_GROUP
350
10B0
  3
ACAD_LAYOUT
350
10BC
  3
ACAD_MATERIAL
350
11F2
  3
ACAD_MLEADERSTYLE
350
1241
  3
ACAD_MLINESTYLE
350
10B9
  3
ACAD_PLOTSETTINGS
350
10BB
  3
ACAD_PLOTSTYLENAME
350
10B1
  3
ACAD_SCALELIST
350
121F
  3
ACAD_TABLESTYLE
350
121D
  3
ACAD_VISUALSTYLE
350
120B
  3
ACDB_RECOMPOSE_DATA
350
12BC
  3
AcDbVariableDictionary
350
10DD
  3
AEC_PROPERTY_SET_DEFS
350
1350
1001
BBSI_PltSel
1000
1
1000

1001
BBSI_Bookmarks
1000
1
1000
1
1000
0
1000
1
1000
0
1000
0
1000
0
1000
0
1000
0
1000
0
1000
0
1001
BBSI_BookmarksEx
1000
0
1000
0
1000

1000
0
1001
BBSI_Plots
1000

1000
ANSI_A_(11.00_x_8.50_Inches)
1000
279.399993896484
1000
215.899993896484
1000
0
1000
1
1000
1
1000
1.513528885555E-14
1000
17.9871359092673
1000
1
1000
0
1000
1
1000
1.56885758041751
1000
0
1000
1
1000
PDF BW Shaded.ctb
1000
0
1000
0
1000
1
1000
1
1000
0
1000
0
1000
0
1000
0
1000
0
1000
0
1000

1000

  0
DICTIONARY
  5
10EB
330
10A5
100
AcDbDictionary
280
     1
281
     1
  3
ACAD_LAYERFILTERS
360
1F72
  3
ACAD_LAYERSTATES
360
10EC
  0
DICTIONARY
  5
12AB
330
10C1
100
AcDbDictionary
280
     1
281
     1
  3
ACAD_SORTENTS
360
1B48
  0
DICTIONARY
  5
1316
330
1195
100
AcDbDictionary
280
     1
281
     1
  3
ACAD_SORTENTS
360
1344
  0
DICTIONARY
  5
1F93
330
12DA
100
AcDbDictionary
280
     1
281
     1
  3
ACAD_MTEXT_2008_RT
360
1F94
  0
DICTIONARY
  5
121C
102
{ACAD_REACTORS
330
10AF
102
}
330
10AF
100
AcDbDictionary
281
     1
  0
DICTIONARY
  5
10B0
102
{ACAD_REACTORS
330
10AF
102
}
330
10AF
100
AcDbDictionary
281
     1
  0
DICTIONARY
  5
10BC
102
{ACAD_REACTORS
330
10AF
102
}
330
10AF
100
AcDbDictionary
281
     1
  3
Layout1
350
10C0
  3
Model
350
10C4
  0
DICTIONARY
  5
11F2
102
{ACAD_REACTORS
330
10AF
102
}
330
10AF
100
AcDbDictionary
281
     1
  3
ByBlock
350
11FB
  3
ByLayer
350
11F3
  3
Global
350
1203
  0
DICTIONARY
  5
1241
102
{ACAD_REACTORS
330
10AF
102
}
330
10AF
100
AcDbDictionary
281
     1
  3
Standard
350
1242
  0
DICTIONARY
  5
10B9
102
{ACAD_REACTORS
330
10AF
102
}
330
10AF
100
AcDbDictionary
281
     1
  3
Standard
350
10BA
  0
DICTIONARY
  5
10BB
102
{ACAD_REACTORS
330
10AF
102
}
330
10AF
100
AcDbDictionary
281
     1
  3
1055 24x36 BW
350
1256
  3
1055 24x36 BW Final
350
1258
  3
1055 24x36 Color
350
1259
  3
1055 24x36 Color Shaded
350
125A
  3
1055 30x42 BW
350
125B
  3
1055 30x42 BW Final
350
125C
  3
1055 B&W Draft
350
125D
  3
1055 B&W Final
350
125E
  3
1055 BW Half
350
125F
  3
1055 Color Draft
350
1260
  3
1055 Color Final
350
1261
  3
1055+ 24x36 BW
350
1262
  3
1055+ 24x36 BW Final
350
1263
  3
1055+ 24x36 Color
350
1264
  3
1055+ 24x36 Color Shaded
350
1265
  3
1055+ 30x42 BW
350
1266
  3
1055+ 30x42 BW Final
350
1267
  3
1055+ B&W Draft
350
1268
  3
1055+ B&W Final
350
1269
  3
1055+ BW Half
350
126A
  3
1055+ Color Draft
350
126B
  3
1055+ Color Final
350
126C
  3
_1055 22x34 True Centered BW
350
126D
  3
_1055 24x36 True Centered BW
350
126E
  3
_1055 24x36 True Centered BW Final
350
126F
  3
_1055 24x36 True Centered Color
350
1270
  3
_1055 30x42 True Centered BW
350
1271
  3
_1055+ 22x34 True Centered BW
350
1272
  3
_1055+ 24x36 True Centered BW
350
1273
  3
_1055+ 24x36 True Centered BW Final
350
1274
  3
_1055+ 24x36 True Centered Color
350
1275
  3
DWF BW 11x17 Fit
350
1276
  3
DWF BW 11x17 Half
350
1277
  3
DWF BW 22x34
350
1278
  3
DWF BW 24x36
350
1279
  3
DWF BW 30x42
350
127A
  3
DWF BW 36x48
350
127B
  3
Laser5 11x17 Fit
350
127C
  3
Laser5 11x17 Full
350
127D
  3
Laser5 11x17 Half
350
127E
  3
Laser5 8x11 Fit
350
127F
  3
Laser5 8x11 Half
350
1280
  3
Laser5 8x11 Portrait Fit
350
1281
  3
LaserJet5 11x17
350
1282
  3
LaserJet5 8.5x11
350
1283
  3
Oki9500 11x17 BW Fit
350
1284
  3
Oki9500 11x17 BW Full
350
1285
  3
Oki9500 11x17 BW Half
350
1286
  3
Oki9500 11x17 Color Fit
350
1287
  3
Oki9500 11x17 Color Full
350
1288
  3
Oki9500 11x17 Color Half
350
1289
  3
Oki9500 8x11 BW Fit
350
128A
  3
Oki9500 8x11 BW Portrait Fit
350
128B
  3
Oki9500 8x11 Color Fit
350
128C
  3
Oki9500 8x11 Color Portrait Fit
350
128D
  3
OKI9500 B&W 11x17
350
128E
  3
OKI9500 B&W 8.5x11
350
128F
  3
OKI9500 Color 11x17
350
1290
  3
OKI9500 Color 8.5x11
350
1291
  3
Oki9600 11x17 BW Fit
350
1292
  3
Oki9600 11x17 BW Full
350
1293
  3
Oki9600 11x17 BW Half
350
1294
  3
Oki9600 11x17 Color Fit
350
1295
  3
Oki9600 11x17 Color Full
350
1296
  3
Oki9600 11x17 Color Half
350
1297
  3
Oki9600 8x11 BW Fit
350
1298
  3
Oki9600 8x11 BW Portrait Fit
350
1299
  3
Oki9600 8x11 Color Fit
350
129A
  3
Oki9600 8x11 Color Portrait Fit
350
129B
  3
OKI9600 B&W 11x17
350
129C
  3
OKI9600 B&W 8.5x11
350
129D
  3
OKI9600 Color 11x17
350
129E
  3
OKI9600 Color 8.5x11
350
129F
  3
PHX Kyocera 11x17 Fit
350
12A0
  3
PHX Oki9500 11x17 BW Fit
350
12A1
  3
PHX Oki9500 11x17 BW Half
350
12A2
  0
ACDBDICTIONARYWDFLT
  5
10B1
102
{ACAD_REACTORS
330
10AF
102
}
330
10AF
100
AcDbDictionary
281
     1
  3
Normal
350
10B2
100
AcDbDictionaryWithDefault
340
10B2
  0
DICTIONARY
  5
121F
102
{ACAD_REACTORS
330
10AF
102
}
330
10AF
100
AcDbDictionary
281
     1
  3
A0
350
1220
  3
A1
350
1221
  3
A2
350
1222
  3
A3
350
1223
  3
A4
350
1224
  3
A5
350
1225
  3
A6
350
1226
  3
A7
350
1227
  3
A8
350
1228
  3
A9
350
1229
  3
B0
350
122A
  3
B1
350
122B
  3
B2
350
122C
  3
B3
350
122D
  3
B4
350
122E
  3
B5
350
122F
  3
B6
350
1230
  3
B7
350
1231
  3
B8
350
1232
  3
B9
350
1233
  3
C0
350
1234
  3
C1
350
1235
  3
C2
350
1236
  3
C3
350
1237
  3
C4
350
1238
  3
C5
350
1239
  3
C6
350
123A
  3
C7
350
123B
  3
C8
350
123C
  3
C9
350
123D
  3
D0
350
123E
  3
D1
350
123F
  3
D2
350
1240
  0
DICTIONARY
  5
121D
102
{ACAD_REACTORS
330
10AF
102
}
330
10AF
100
AcDbDictionary
281
     1
  3
Standard
350
121E
  0
DICTIONARY
  5
120B
102
{ACAD_REACTORS
330
10AF
102
}
330
10AF
100
AcDbDictionary
281
     1
  3
2dWireframe
350
1211
  3
3D Hidden
350
1213
  3
3dWireframe
350
1212
  3
Basic
350
1210
  3
Brighten
350
1217
  3
ColorChange
350
121B
  3
Conceptual
350
1214
  3
Dim
350
1216
  3
Facepattern
350
121A
  3
Flat
350
120C
  3
FlatWithEdges
350
120D
  3
Gouraud
350
120E
  3
GouraudWithEdges
350
120F
  3
Linepattern
350
1219
  3
Realistic
350
1215
  3
Thicken
350
1218
  0
XRECORD
  5
12BC
102
{ACAD_REACTORS
330
10AF
102
}
330
10AF
100
AcDbXrecord
280
     1
 90
        1
330
121E
330
12DA
  0
DICTIONARY
  5
10DD
102
{ACAD_REACTORS
330
10AF
102
}
330
10AF
100
AcDbDictionary
281
     1
  3
CANNOSCALE
350
12C0
  3
CMLEADERSTYLE
350
12BE
  3
CTABLESTYLE
350
12BD
  3
DIMASSOC
350
10E0
  3
HIDETEXT
350
10DF
  3
LAYEREVAL
350
1F91
  3
LAYERNOTIFY
350
12C2
  3
LIGHTINGUNITS
350
12C1
  3
MSLTSCALE
350
12BF
  3
SORTENTS
350
10DE
  0
DICTIONARY
  5
1350
102
{ACAD_REACTORS
330
10AF
102
}
330
10AF
100
AcDbDictionary
281
     1
  0
DICTIONARY
  5
1F72
102
{ACAD_REACTORS
330
10EB
102
}
330
10EB
100
AcDbDictionary
281
     1
  3
_0100-
350
1F75
  3
_0280-
350
1F74
  3
_Color 253
350
1F78
  3
_Color 8
350
1F76
  3
_Color 84
350
1F77
  3
_Contours
350
1F7D
  3
_Existing
350
1F79
  3
_Hardscape
350
1F7C
  3
_NoXref
350
1F73
  3
_Row
350
1F7A
  3
_Utility
350
1F7B
  0
DICTIONARY
  5
10EC
102
{ACAD_REACTORS
330
10EB
102
}
330
10EB
100
AcDbDictionary
281
     1
  0
SORTENTSTABLE
  5
1B48
102
{ACAD_REACTORS
330
12AB
102
}
330
12AB
100
AcDbSortentsTable
330
10C1
331
1A39
  5
1A3A
331
198C
  5
198D
331
19C3
  5
19C4
331
194D
  5
194E
331
1A02
  5
1A03
331
1A80
  5
1A81
331
1A0A
  5
1A0B
331
1955
  5
1956
331
1994
  5
1995
331
19CB
  5
19CC
331
1A41
  5
1A44
331
1A88
  5
1A89
331
1A12
  5
1A13
331
195D
  5
195E
331
199C
  5
199D
331
19D3
  5
19D4
331
1A49
  5
1A4F
331
1A51
  5
1A52
331
19DB
  5
19DC
331
1A1A
  5
1A1B
331
1A90
  5
1A91
331
1965
  5
1966
331
19A4
  5
19A5
331
ED5
  5
ED5
331
EDD
  5
EDD
331
1A59
  5
1A5A
331
19AC
  5
19AD
331
19E3
  5
19E4
331
196D
  5
196E
331
1A22
  5
1A23
331
1A98
  5
1A99
331
1AA0
  5
1AA1
331
1A2A
  5
1A2B
331
19B4
  5
19B5
331
19EB
  5
19EC
331
1A61
  5
1A65
331
1975
  5
1976
331
1AA8
  5
1AA9
331
1A32
  5
1A33
331
197D
  5
197E
331
19BC
  5
19BD
331
19F3
  5
19F4
331
1A69
  5
1A6A
331
19FB
  5
19FC
331
1A71
  5
1A72
331
1985
  5
1986
331
193C
  5
193D
331
1944
  5
1945
331
ECE
  5
ECE
331
1A3A
  5
1A3B
331
19C4
  5
19C5
331
1A03
  5
1A04
331
194E
  5
194F
331
198D
  5
198E
331
19CC
  5
19CD
331
1A0B
  5
1A0C
331
1A81
  5
1A82
331
1956
  5
1957
331
1995
  5
1996
331
199D
  5
199E
331
19D4
  5
19D5
331
195E
  5
195F
331
1A13
  5
1A14
331
1A89
  5
1A8A
331
1A91
  5
1A92
331
1A1B
  5
1A1C
331
1966
  5
1967
331
19A5
  5
19A6
331
19DC
  5
19DD
331
1A52
  5
1A53
331
ED6
  5
ED6
331
EDE
  5
EDE
331
1A99
  5
1A9A
331
1A23
  5
1A24
331
196E
  5
196F
331
19AD
  5
19AE
331
19E4
  5
19E5
331
1A5A
  5
1A5E
331
19EC
  5
19ED
331
1A2B
  5
1A2C
331
1AA1
  5
1AA2
331
1976
  5
1977
331
19B5
  5
19B6
331
1AA9
  5
1AAA
331
1A33
  5
1A34
331
19BD
  5
19BE
331
19F4
  5
19F5
331
1A6A
  5
1A6B
331
197E
  5
197F
331
19FC
  5
19FD
331
1A72
  5
1A73
331
1986
  5
1987
331
118C
  5
118C
331
193D
  5
193E
331
11A4
  5
11A4
331
1945
  5
1946
331
ECF
  5
ECF
331
1A3B
  5
1A3C
331
198E
  5
198F
331
19C5
  5
19C6
331
194F
  5
1950
331
1A04
  5
1A05
331
1A0C
  5
1A0D
331
1A82
  5
1A83
331
1957
  5
1958
331
1996
  5
1997
331
19CD
  5
19CE
331
19D5
  5
19D6
331
1A14
  5
1A15
331
1A8A
  5
1A8B
331
195F
  5
1960
331
199E
  5
199F
331
1A53
  5
1A54
331
19DD
  5
19DE
331
1A1C
  5
1A1D
331
1A92
  5
1A93
331
1967
  5
1968
331
19A6
  5
19A7
331
114D
  5
114D
331
ED7
  5
ED7
331
EDF
  5
EDF
331
19AE
  5
19AF
331
19E5
  5
19E6
331
196F
  5
1970
331
1A24
  5
1A25
331
1A9A
  5
1A9B
331
1A2C
  5
1A2D
331
1AA2
  5
1AA3
331
1977
  5
1978
331
19B6
  5
19B7
331
19ED
  5
19EE
331
1AAA
  5
1AAB
331
1A34
  5
1A35
331
197F
  5
1980
331
19BE
  5
19BF
331
19F5
  5
19F6
331
1A6B
  5
1A6C
331
19FD
  5
19FE
331
1A73
  5
1A74
331
1987
  5
1988
331
118D
  5
118D
331
193E
  5
193F
331
1946
  5
1947
331
EA8
  5
EA8
331
1948
  5
1949
331
1A3C
  5
1A3D
331
19C6
  5
19C7
331
1A05
  5
1A06
331
1950
  5
1951
331
198F
  5
1990
331
1A44
  5
1A45
331
19CE
  5
19CF
331
1A0D
  5
1A0E
331
1A83
  5
1A84
331
1958
  5
1959
331
1997
  5
1998
331
199F
  5
19A0
331
19D6
  5
19D7
331
1960
  5
1961
331
1A15
  5
1A16
331
1A8B
  5
1A8C
331
1A93
  5
1A94
331
1A1D
  5
1A1E
331
19A7
  5
19A8
331
19DE
  5
19DF
331
1A54
  5
1A55
331
114E
  5
114E
331
EE0
  5
EE0
331
1968
  5
1969
331
19E6
  5
19E7
331
1A25
  5
1A26
331
1A9B
  5
1A9C
331
1970
  5
1971
331
19AF
  5
19B0
331
19EE
  5
19EF
331
1A2D
  5
1A2E
331
1AA3
  5
1AA4
331
1978
  5
1979
331
19B7
  5
19B8
331
1AAB
  5
1AAC
331
1A35
  5
1A36
331
19BF
  5
19C0
331
19F6
  5
19F7
331
1A6C
  5
1A6D
331
1980
  5
1981
331
19FE
  5
19FF
331
1A74
  5
1A75
331
12DA
  5
12DA
331
193F
  5
1940
331
1947
  5
1948
331
1988
  5
1989
331
1949
  5
194A
331
1A3D
  5
1A3E
331
1990
  5
1991
331
19C7
  5
19C8
331
1951
  5
1952
331
1A06
  5
1A07
331
1A84
  5
1A85
331
1A0E
  5
1A0F
331
1959
  5
195A
331
1998
  5
1999
331
19CF
  5
19D0
331
1A45
  5
1A46
331
19D7
  5
19D8
331
1A16
  5
1A17
331
1A8C
  5
1A8D
331
1961
  5
1962
331
19A0
  5
19A1
331
1A55
  5
1A56
331
19DF
  5
19E0
331
1A1E
  5
1A1F
331
1A94
  5
1A95
331
1352
  5
1352
331
ED1
  5
ED1
331
EE1
  5
EE1
331
1969
  5
196A
331
19A8
  5
19A9
331
19B0
  5
19B1
331
19E7
  5
19E8
331
1971
  5
1972
331
1A26
  5
1A27
331
1A9C
  5
1A9D
331
1AA4
  5
1AA5
331
1A2E
  5
1A2F
331
1979
  5
197A
331
19B8
  5
19B9
331
19EF
  5
19F0
331
1A65
  5
1A66
331
1A6D
  5
1A6E
331
1AAC
  5
1AAD
331
19F7
  5
19F8
331
1981
  5
1982
331
1A36
  5
1A38
331
19FF
  5
1A00
331
1A75
  5
1A76
331
1940
  5
1941
331
EC2
  5
EC2
331
194A
  5
194B
331
1989
  5
198A
331
19C0
  5
19C1
331
1A3E
  5
1A3F
331
19C8
  5
19C9
331
1A07
  5
1A08
331
1952
  5
1953
331
1991
  5
1992
331
1A46
  5
1A47
331
1999
  5
199A
331
19D0
  5
19D1
331
195A
  5
195B
331
1A0F
  5
1A10
331
1A85
  5
1A86
331
19A1
  5
19A2
331
19D8
  5
19D9
331
1962
  5
1963
331
1A17
  5
1A18
331
1A8D
  5
1A8E
331
1A95
  5
1A96
331
1A1F
  5
1A20
331
1A56
  5
1A57
331
1150
  5
1150
331
ED2
  5
ED2
331
EE2
  5
EE2
331
196A
  5
196B
331
19A9
  5
19AA
331
19E0
  5
19E1
331
1A5E
  5
1A5F
331
19E8
  5
19E9
331
1A27
  5
1A28
331
1A9D
  5
1A9E
331
1972
  5
1973
331
19B1
  5
19B2
331
1A66
  5
1A67
331
19B9
  5
19BA
331
19F0
  5
19F1
331
197A
  5
197B
331
1A2F
  5
1A30
331
1AA5
  5
1AA6
331
1AAD
  5
1AAE
331
1A6E
  5
1A71
331
19F8
  5
19F9
331
1982
  5
1983
331
1A76
  5
1A77
331
1941
  5
1942
331
EAB
  5
EAB
331
EBB
  5
EBB
331
EC3
  5
EC3
331
198A
  5
198B
331
19C1
  5
19C2
331
194B
  5
194C
331
1A00
  5
1A01
331
1A08
  5
1A09
331
1992
  5
1993
331
19C9
  5
19CA
331
1A3F
  5
1A40
331
1953
  5
1954
331
1A86
  5
1A87
331
1A10
  5
1A11
331
195B
  5
195C
331
199A
  5
199B
331
19D1
  5
19D2
331
1A47
  5
1A48
331
1A4F
  5
1A50
331
1A8E
  5
1A8F
331
19D9
  5
19DA
331
1A18
  5
1A19
331
1963
  5
1964
331
19A2
  5
19A3
331
1A57
  5
1A58
331
1A96
  5
1A97
331
1149
  5
1149
331
1151
  5
1151
331
19AA
  5
19AB
331
19E1
  5
19E2
331
196B
  5
196C
331
1A20
  5
1A21
331
1A5F
  5
1A60
331
19B2
  5
19B3
331
19E9
  5
19EA
331
1973
  5
1974
331
1A28
  5
1A29
331
1A9E
  5
1A9F
331
1AA6
  5
1AA7
331
1A30
  5
1A31
331
197B
  5
197C
331
19BA
  5
19BB
331
19F1
  5
19F2
331
1A67
  5
1A68
331
19F9
  5
19FA
331
1983
  5
1984
331
1A77
  5
1A7F
331
183A
  5
183A
331
1942
  5
1943
331
EAC
  5
EAC
331
EBC
  5
EBC
331
1A01
  5
1A02
331
194C
  5
194D
331
198B
  5
198C
331
19C2
  5
19C3
331
1A38
  5
1A39
331
1A40
  5
1A41
331
19CA
  5
19CB
331
1A09
  5
1A0A
331
1A7F
  5
1A80
331
1954
  5
1955
331
1993
  5
1994
331
1A48
  5
1A49
331
199B
  5
199C
331
19D2
  5
19D3
331
195C
  5
195D
331
1A11
  5
1A12
331
1A87
  5
1A88
331
1A8F
  5
1A90
331
1A19
  5
1A1A
331
19A3
  5
19A4
331
19DA
  5
19DB
331
1A50
  5
1A51
331
1964
  5
1965
331
1A97
  5
1A98
331
114A
  5
114A
331
ED4
  5
ED4
331
EDC
  5
EDC
331
1A21
  5
1A22
331
196C
  5
196D
331
19AB
  5
19AC
331
19E2
  5
19E3
331
1A58
  5
1A59
331
1A60
  5
1A61
331
19EA
  5
19EB
331
1A29
  5
1A2A
331
1A9F
  5
1AA0
331
1974
  5
1975
331
19B3
  5
19B4
331
1A31
  5
1A32
331
19BB
  5
19BC
331
19F2
  5
19F3
331
1A68
  5
1A69
331
197C
  5
197D
331
1AA7
  5
1AA8
331
19FA
  5
19FB
331
1984
  5
1985
331
193B
  5
193C
331
1943
  5
1944
  0
SORTENTSTABLE
  5
1344
102
{ACAD_REACTORS
330
1316
102
}
330
1316
100
AcDbSortentsTable
330
1195
  0
XRECORD
  5
1F94
102
{ACAD_REACTORS
330
1F93
102
}
330
1F93
100
AcDbXrecord
280
     1
 40
10204542.0
  1
\A1;PLANT MATERIAL \P\PFINISH GRADE \P\P\pxi-2,l2;MICRO-SPRAY POP-UP:\P\pt2;^IRAIN BIRD XERI-POP XP-1200X \P\pi0,l0,tz;{\Fromans|c0;\H0.7x;\S1#2;\H1.4286x;" POLYETHYLENE TUBING:\P\pi-2,l2;  RAIN BIRD XF SERIES TUBING OR\P\pi0,l0;  RAIN BIRD XT-700 XER
  1
I-TUBE OR\P  RAIN BIRD XBS BLACK STRIPE TUBING \H0.99998x;\P\Fsimplex|c0;\H0.7x;\S1#4;}" SELF-PIERCING BARB CONNECTOR:\P\pt2;^IRAIN BIRD SPB-025   \P\pi-2,l2,tz;{\Fromans|c0;\H0.7x;\S1#4;\H1.4286x;" DISTRIBUTION TUBING:  \P  RAIN BIRD XQ TUBING\P  (LE
  1
NGTH AS REQUIRED)}
  0
LAYOUT
  5
10C0
102
{ACAD_REACTORS
330
10BC
102
}
330
10BC
100
AcDbPlotSettings
  1

  2
S:\AutoCAD 2002\Plotters\1055B&WDraftShaded.pc3
  4

  6

 40
0.0
 41
0.0
 42
0.0
 43
0.0
 44
0.0
 45
0.0
 46
0.0
 47
0.0
 48
0.0
 49
0.0
140
0.0
141
0.0
142
1.0
143
1.0
 70
   688
 72
     0
 73
     0
 74
     5
  7
TRexLJ5Shaded2.ctb
 75
    16
147
1.0
 76
     0
 77
     2
 78
   300
148
0.0
149
0.0
100
AcDbLayout
  1
Layout1
 70
     1
 71
     1
 10
0.0
 20
0.0
 11
12.0
 21
9.0
 12
0.0
 22
0.0
 32
0.0
 14
1.000000000000000E+20
 24
1.000000000000000E+20
 34
1.000000000000000E+20
 15
-1.000000000000000E+20
 25
-1.000000000000000E+20
 35
-1.000000000000000E+20
146
0.0
 13
0.0
 23
0.0
 33
0.0
 16
1.0
 26
0.0
 36
0.0
 17
0.0
 27
1.0
 37
0.0
 76
     0
330
10BD
  0
LAYOUT
  5
10C4
102
{ACAD_REACTORS
330
10BC
102
}
330
10BC
100
AcDbPlotSettings
  1
LaserJet5 8.5x11
  2
LaserJet5Shaded-8x11.pc3
  4
Letter
  6

 40
5.873749732971191
 41
5.873734951019287
 42
6.55108642578125
 43
5.027084350585937
 44
279.3999938964844
 45
215.8999938964844
 46
32.0229288755689
 47
-0.0000000000000076
 48
0.0
 49
0.0
140
0.0
141
0.0
142
1.0
143
1.293546671707545
 70
 11956
 72
     0
 73
     0
 74
     1
  7
laserjet5shaded.ctb
 75
     0
147
0.7730683568455638
 76
     0
 77
     2
 78
   300
148
12.66076841047503
149
32.36515640156503
100
AcDbLayout
  1
Model
 70
     1
 71
     0
 10
0.0
 20
0.0
 11
12.0
 21
9.0
 12
0.0
 22
0.0
 32
0.0
 14
0.0
 24
0.0
 34
0.0
 15
0.0
 25
0.0
 35
0.0
146
0.0
 13
0.0
 23
0.0
 33
0.0
 16
1.0
 26
0.0
 36
0.0
 17
0.0
 27
1.0
 37
0.0
 76
     0
330
10C1
331
11F0
1001
ACAD_PSEXT
1000
LaserJet5Shaded-8x11.pc3
1000
HP LaserJet 5Si
1000
CAD Area
1000

1070
     0
  0
MATERIAL
  5
11FB
102
{ACAD_XDICTIONARY
360
11FC
102
}
102
{ACAD_REACTORS
330
11F2
102
}
330
11F2
100
AcDbMaterial
  1
ByBlock
 72
     0
 43
0.0208333333333333
 43
0.0
 43
0.0
 43
0.0
 43
0.0
 43
0.0208333333333333
 43
0.0
 43
0.0
 43
0.0
 43
0.0
 43
1.0
 43
0.0
 43
0.0
 43
0.0
 43
0.0
 43
1.0
 77
     0
 47
0.0208333333333333
 47
0.0
 47
0.0
 47
0.0
 47
0.0
 47
0.0208333333333333
 47
0.0
 47
0.0
 47
0.0
 47
0.0
 47
1.0
 47
0.0
 47
0.0
 47
0.0
 47
0.0
 47
1.0
171
     0
 49
0.0208333333333333
 49
0.0
 49
0.0
 49
0.0
 49
0.0
 49
0.0208333333333333
 49
0.0
 49
0.0
 49
0.0
 49
0.0
 49
1.0
 49
0.0
 49
0.0
 49
0.0
 49
0.0
 49
1.0
175
     0
142
0.0208333333333333
142
0.0
142
0.0
142
0.0
142
0.0
142
0.0208333333333333
142
0.0
142
0.0
142
0.0
142
0.0
142
1.0
142
0.0
142
0.0
142
0.0
142
0.0
142
1.0
179
     0
144
0.0208333333333333
144
0.0
144
0.0
144
0.0
144
0.0
144
0.0208333333333333
144
0.0
144
0.0
144
0.0
144
0.0
144
1.0
144
0.0
144
0.0
144
0.0
144
0.0
144
1.0
147
0.0208333333333333
147
0.0
147
0.0
147
0.0
147
0.0
147
0.0208333333333333
147
0.0
147
0.0
147
0.0
147
0.0
147
1.0
147
0.0
147
0.0
147
0.0
147
0.0
147
1.0
  0
MATERIAL
  5
11F3
102
{ACAD_XDICTIONARY
360
11F4
102
}
102
{ACAD_REACTORS
330
11F2
102
}
330
11F2
100
AcDbMaterial
  1
ByLayer
 72
     0
 43
0.0208333333333333
 43
0.0
 43
0.0
 43
0.0
 43
0.0
 43
0.0208333333333333
 43
0.0
 43
0.0
 43
0.0
 43
0.0
 43
1.0
 43
0.0
 43
0.0
 43
0.0
 43
0.0
 43
1.0
 77
     0
 47
0.0208333333333333
 47
0.0
 47
0.0
 47
0.0
 47
0.0
 47
0.0208333333333333
 47
0.0
 47
0.0
 47
0.0
 47
0.0
 47
1.0
 47
0.0
 47
0.0
 47
0.0
 47
0.0
 47
1.0
171
     0
 49
0.0208333333333333
 49
0.0
 49
0.0
 49
0.0
 49
0.0
 49
0.0208333333333333
 49
0.0
 49
0.0
 49
0.0
 49
0.0
 49
1.0
 49
0.0
 49
0.0
 49
0.0
 49
0.0
 49
1.0
175
     0
142
0.0208333333333333
142
0.0
142
0.0
142
0.0
142
0.0
142
0.0208333333333333
142
0.0
142
0.0
142
0.0
142
0.0
142
1.0
142
0.0
142
0.0
142
0.0
142
0.0
142
1.0
179
     0
144
0.0208333333333333
144
0.0
144
0.0
144
0.0
144
0.0
144
0.0208333333333333
144
0.0
144
0.0
144
0.0
144
0.0
144
1.0
144
0.0
144
0.0
144
0.0
144
0.0
144
1.0
147
0.0208333333333333
147
0.0
147
0.0
147
0.0
147
0.0
147
0.0208333333333333
147
0.0
147
0.0
147
0.0
147
0.0
147
1.0
147
0.0
147
0.0
147
0.0
147
0.0
147
1.0
  0
MATERIAL
  5
1203
102
{ACAD_XDICTIONARY
360
1204
102
}
102
{ACAD_REACTORS
330
11F2
102
}
330
11F2
100
AcDbMaterial
  1
Global
 72
     0
 43
0.0208333333333333
 43
0.0
 43
0.0
 43
0.0
 43
0.0
 43
0.0208333333333333
 43
0.0
 43
0.0
 43
0.0
 43
0.0
 43
1.0
 43
0.0
 43
0.0
 43
0.0
 43
0.0
 43
1.0
 77
     0
 47
0.0208333333333333
 47
0.0
 47
0.0
 47
0.0
 47
0.0
 47
0.0208333333333333
 47
0.0
 47
0.0
 47
0.0
 47
0.0
 47
1.0
 47
0.0
 47
0.0
 47
0.0
 47
0.0
 47
1.0
171
     0
 49
0.0208333333333333
 49
0.0
 49
0.0
 49
0.0
 49
0.0
 49
0.0208333333333333
 49
0.0
 49
0.0
 49
0.0
 49
0.0
 49
1.0
 49
0.0
 49
0.0
 49
0.0
 49
0.0
 49
1.0
175
     0
142
0.0208333333333333
142
0.0
142
0.0
142
0.0
142
0.0
142
0.0208333333333333
142
0.0
142
0.0
142
0.0
142
0.0
142
1.0
142
0.0
142
0.0
142
0.0
142
0.0
142
1.0
179
     0
144
0.0208333333333333
144
0.0
144
0.0
144
0.0
144
0.0
144
0.0208333333333333
144
0.0
144
0.0
144
0.0
144
0.0
144
1.0
144
0.0
144
0.0
144
0.0
144
0.0
144
1.0
147
0.0208333333333333
147
0.0
147
0.0
147
0.0
147
0.0
147
0.0208333333333333
147
0.0
147
0.0
147
0.0
147
0.0
147
1.0
147
0.0
147
0.0
147
0.0
147
0.0
147
1.0
  0
MLEADERSTYLE
  5
1242
102
{ACAD_REACTORS
330
1241
102
}
330
1241
100
AcDbMLeaderStyle
170
     2
171
     1
172
     0
 90
        2
 40
0.0
 41
0.0
173
     1
 91
-1056964608
340
10B6
 92
       -2
290
     1
 42
0.09
291
     1
 43
0.36
  3
Standard
 44
0.18
300

342
10B4
174
     1
178
     6
175
     1
176
     0
 93
-1056964608
 45
0.18
292
     0
297
     0
 46
0.18
 94
-1056964608
 47
1.0
 49
1.0
140
1.0
293
     1
141
0.0
294
     1
177
     0
142
1.0
295
     0
296
     0
143
0.125
1001
ACAD_MLEADERVER
1070
     2
  0
MLINESTYLE
  5
10BA
102
{ACAD_REACTORS
330
10B9
102
}
330
10B9
100
AcDbMlineStyle
  2
STANDARD
 70
     0
  3

 62
   256
 51
90.0
 52
90.0
 71
     2
 49
0.5
 62
   256
  6
BYLAYER
 49
-0.5
 62
   256
  6
BYLAYER
  0
PLOTSETTINGS
  5
1256
102
{ACAD_REACTORS
330
10BB
102
}
330
10BB
100
AcDbPlotSettings
  1
1055 24x36 BW
  2
1055B&WDraftShaded.pc3
  4
User257
  6

 40
14.98600006103515
 41
8.297271728515625
 42
14.9859619140625
 43
8.29736328125
 44
914.3153076171875
 45
1269.915283203125
 46
0.0
 47
0.0
 48
0.0
 49
0.0
140
0.0
141
0.0
142
1.0
143
1.0
 70
  2800
 72
     0
 73
     2
 74
     1
  7
1055B&WFullDraftShaded.ctb
 75
    16
147
1.0
 76
     0
 77
     2
 78
   300
148
-75.74468520391772
149
-27.53050504688192
1001
ACAD_PSEXT
1000
1055B&WDraftShaded.pc3
1000
HP DesignJet 1055CM by HP
1000
FRONT
1000

1070
     0
  0
PLOTSETTINGS
  5
1258
102
{ACAD_REACTORS
330
10BB
102
}
330
10BB
100
AcDbPlotSettings
  1
1055 24x36 BW Final
  2
1055B&WFinalShaded.pc3
  4
User257
  6

 40
14.98600006103515
 41
8.297271728515625
 42
14.9859619140625
 43
8.29736328125
 44
914.357666015625
 45
1269.957641601562
 46
0.0
 47
0.0
 48
0.0
 49
0.0
140
0.0
141
0.0
142
1.0
143
1.0
 70
  2800
 72
     0
 73
     2
 74
     1
  7
1055B&WFullFinalShaded.ctb
 75
    16
147
1.0
 76
     0
 77
     2
 78
   300
148
-75.74468520391772
149
-27.53050504688192
1001
ACAD_PSEXT
1000
1055B&WFinalShaded.pc3
1000
HP DesignJet 1055CM by HP
1000
FRONT
1000

1070
     0
  0
PLOTSETTINGS
  5
1259
102
{ACAD_REACTORS
330
10BB
102
}
330
10BB
100
AcDbPlotSettings
  1
1055 24x36 Color
  2
1055ColorDraftShaded.pc3
  4
User257
  6

 40
14.98600006103515
 41
8.297271728515625
 42
14.9859619140625
 43
8.29736328125
 44
914.3153076171875
 45
1269.915283203125
 46
0.0
 47
0.0
 48
0.0
 49
0.0
140
0.0
141
0.0
142
1.0
143
1.0
 70
  2800
 72
     0
 73
     2
 74
     1
  7
Color.ctb
 75
    16
147
1.0
 76
     0
 77
     2
 78
   300
148
-75.74468520391772
149
-27.53050504688192
1001
ACAD_PSEXT
1000
1055ColorDraftShaded.pc3
1000
HP DesignJet 1055CM by HP
1000
FRONT
1000

1070
     0
  0
PLOTSETTINGS
  5
125A
102
{ACAD_REACTORS
330
10BB
102
}
330
10BB
100
AcDbPlotSettings
  1
1055 24x36 Color Shaded
  2
1055ColorDraftShaded.pc3
  4
User257
  6

 40
14.98600006103515
 41
8.297271728515625
 42
14.9859619140625
 43
8.29736328125
 44
914.3153076171875
 45
1269.915283203125
 46
0.0
 47
0.0
 48
0.0
 49
0.0
140
0.0
141
0.0
142
1.0
143
1.0
 70
  2800
 72
     0
 73
     2
 74
     1
  7
1055ColorFullDraftShaded.ctb
 75
    16
147
1.0
 76
     0
 77
     2
 78
   300
148
-75.74468520391772
149
-27.53050504688192
1001
ACAD_PSEXT
1000
1055ColorDraftShaded.pc3
1000
HP DesignJet 1055CM by HP
1000
FRONT
1000

1070
     0
  0
PLOTSETTINGS
  5
125B
102
{ACAD_REACTORS
330
10BB
102
}
330
10BB
100
AcDbPlotSettings
  1
1055 30x42 BW
  2
1055B&WDraftShaded.pc3
  4
User257
  6

 40
14.98600006103515
 41
8.297271728515625
 42
14.9859619140625
 43
8.29736328125
 44
914.3153076171875
 45
1269.915283203125
 46
0.0
 47
0.0
 48
0.0
 49
0.0
140
0.0
141
0.0
142
1.0
143
1.0
 70
  2800
 72
     0
 73
     1
 74
     1
  7
1055B&WFullDraftShaded.ctb
 75
    16
147
1.0
 76
     0
 77
     2
 78
   300
148
-75.74468520391772
149
-27.53050504688192
1001
ACAD_PSEXT
1000
1055B&WDraftShaded.pc3
1000
HP DesignJet 1055CM by HP
1000
FRONT
1000

1070
     0
  0
PLOTSETTINGS
  5
125C
102
{ACAD_REACTORS
330
10BB
102
}
330
10BB
100
AcDbPlotSettings
  1
1055 30x42 BW Final
  2
1055B&WFinalShaded.pc3
  4
User257
  6

 40
14.98600006103515
 41
8.297271728515625
 42
14.9859619140625
 43
8.29736328125
 44
914.357666015625
 45
1269.957641601562
 46
0.0
 47
0.0
 48
0.0
 49
0.0
140
0.0
141
0.0
142
1.0
143
1.0
 70
  2800
 72
     0
 73
     1
 74
     1
  7
1055B&WFullFinalShaded.ctb
 75
    16
147
1.0
 76
     0
 77
     2
 78
   300
148
-75.74468520391772
149
-27.53050504688192
1001
ACAD_PSEXT
1000
1055B&WFinalShaded.pc3
1000
HP DesignJet 1055CM by HP
1000
FRONT
1000

1070
     0
  0
PLOTSETTINGS
  5
125D
102
{ACAD_REACTORS
330
10BB
102
}
330
10BB
100
AcDbPlotSettings
  1
1055 B&W Draft
  2
1055B&WDraftShaded.pc3
  4
User257
  6

 40
4.995333194732666
 41
8.297271728515625
 42
4.99530029296875
 43
8.29736328125
 44
914.3153076171875
 45
1269.915283203125
 46
0.0
 47
0.0
 48
0.0
 49
0.0
140
0.0
141
0.0
142
1.0
143
30.0
 70
 11936
 72
     0
 73
     2
 74
     1
  7
1055B&WFullDraftShaded.ctb
 75
     0
147
3.484472351238056
 76
     0
 77
     2
 78
   300
148
-119.4582094169044
149
-58.17053554795709
1001
ACAD_PSEXT
1000
1055B&WDraftShaded.pc3
1000
HP DesignJet 1055CM by HP
1000
\\aqua-srv01
1000

1070
     0
  0
PLOTSETTINGS
  5
125E
102
{ACAD_REACTORS
330
10BB
102
}
330
10BB
100
AcDbPlotSettings
  1
1055 B&W Final
  2
1055B&WFinalShaded.pc3
  4
User257
  6

 40
4.995333194732666
 41
8.297271728515625
 42
4.99530029296875
 43
8.29736328125
 44
914.357666015625
 45
1269.957641601562
 46
0.0
 47
0.0
 48
0.0
 49
0.0
140
0.0
141
0.0
142
1.0
143
30.0
 70
 11936
 72
     0
 73
     2
 74
     1
  7
1055B&WFullFinalShaded.ctb
 75
     0
147
3.484472351238056
 76
     0
 77
     2
 78
   300
148
-119.4582094169044
149
-58.17053554795709
1001
ACAD_PSEXT
1000
1055B&WFinalShaded.pc3
1000
HP DesignJet 1055CM by HP
1000
\\aqua-srv01
1000

1070
     0
  0
PLOTSETTINGS
  5
125F
102
{ACAD_REACTORS
330
10BB
102
}
330
10BB
100
AcDbPlotSettings
  1
1055 BW Half
  2
1055B&WDraftShaded.pc3
  4
User257
  6

 40
14.98600006103515
 41
8.297271728515625
 42
14.9859619140625
 43
8.29736328125
 44
914.3153076171875
 45
1269.915283203125
 46
0.0
 47
0.0
 48
0.0
 49
0.0
140
0.0
141
0.0
142
1.0
143
2.0
 70
  2800
 72
     0
 73
     2
 74
     1
  7
1055B&WFullDraftShaded.ctb
 75
    17
147
0.5
 76
     0
 77
     2
 78
   300
148
-75.74468520391772
149
-27.53050504688192
1001
ACAD_PSEXT
1000
1055B&WDraftShaded.pc3
1000
HP DesignJet 1055CM by HP
1000
FRONT
1000

1070
     0
  0
PLOTSETTINGS
  5
1260
102
{ACAD_REACTORS
330
10BB
102
}
330
10BB
100
AcDbPlotSettings
  1
1055 Color Draft
  2
1055ColorDraftShaded.pc3
  4
User257
  6

 40
4.995333194732666
 41
8.297271728515625
 42
4.99530029296875
 43
8.29736328125
 44
914.3153076171875
 45
1269.915283203125
 46
0.0
 47
0.0
 48
0.0
 49
0.0
140
0.0
141
0.0
142
1.0
143
30.0
 70
 11936
 72
     0
 73
     2
 74
     1
  7
1055ColorFullDraftShaded.ctb
 75
     0
147
3.484472351238056
 76
     0
 77
     2
 78
   300
148
-119.4582094169044
149
-58.17053554795709
1001
ACAD_PSEXT
1000
1055ColorDraftShaded.pc3
1000
HP DesignJet 1055CM by HP
1000
\\aqua-srv01
1000

1070
     0
  0
PLOTSETTINGS
  5
1261
102
{ACAD_REACTORS
330
10BB
102
}
330
10BB
100
AcDbPlotSettings
  1
1055 Color Final
  2
1055ColorFinalShaded.pc3
  4
User257
  6

 40
4.995333194732666
 41
8.297271728515625
 42
4.99530029296875
 43
8.29736328125
 44
914.357666015625
 45
1269.957641601562
 46
0.0
 47
0.0
 48
0.0
 49
0.0
140
0.0
141
0.0
142
1.0
143
30.0
 70
 11936
 72
     0
 73
     2
 74
     1
  7
1055ColorFullFinalShaded.ctb
 75
     0
147
3.484472351238056
 76
     0
 77
     2
 78
   300
148
-119.4582094169044
149
-58.17053554795709
1001
ACAD_PSEXT
1000
1055ColorFinalShaded.pc3
1000
HP DesignJet 1055CM by HP
1000
\\aqua-srv01
1000

1070
     0
  0
PLOTSETTINGS
  5
1262
102
{ACAD_REACTORS
330
10BB
102
}
330
10BB
100
AcDbPlotSettings
  1
1055+ 24x36 BW
  2
1055_PLUS_B&WDraftShaded.pc3
  4
User257
  6

 40
14.98600006103515
 41
8.297271728515625
 42
14.9859619140625
 43
8.29736328125
 44
914.3153076171875
 45
1269.915283203125
 46
0.0
 47
0.0
 48
0.0
 49
0.0
140
0.0
141
0.0
142
1.0
143
1.0
 70
  2800
 72
     0
 73
     2
 74
     1
  7
1055B&WFullDraftShaded.ctb
 75
    16
147
1.0
 76
     0
 77
     2
 78
   300
148
-75.74468520391772
149
-27.53050504688192
1001
ACAD_PSEXT
1000
1055_PLUS_B&WDraftShaded.pc3
1000
HP DesignJet 1055CM by HP
1000
FRONT
1000

1070
     0
  0
PLOTSETTINGS
  5
1263
102
{ACAD_REACTORS
330
10BB
102
}
330
10BB
100
AcDbPlotSettings
  1
1055+ 24x36 BW Final
  2
1055_PLUS_B&WFinalShaded.pc3
  4
User257
  6

 40
14.98600006103515
 41
8.297271728515625
 42
14.9859619140625
 43
8.29736328125
 44
914.357666015625
 45
1269.957641601562
 46
0.0
 47
0.0
 48
0.0
 49
0.0
140
0.0
141
0.0
142
1.0
143
1.0
 70
  2800
 72
     0
 73
     2
 74
     1
  7
1055B&WFullFinalShaded.ctb
 75
    16
147
1.0
 76
     0
 77
     2
 78
   300
148
-75.74468520391772
149
-27.53050504688192
1001
ACAD_PSEXT
1000
1055_PLUS_B&WFinalShaded.pc3
1000
HP DesignJet 1055CM by HP
1000
FRONT
1000

1070
     0
  0
PLOTSETTINGS
  5
1264
102
{ACAD_REACTORS
330
10BB
102
}
330
10BB
100
AcDbPlotSettings
  1
1055+ 24x36 Color
  2
1055_PLUS_ColorDraftShaded.pc3
  4
User257
  6

 40
14.98600006103515
 41
8.297271728515625
 42
14.9859619140625
 43
8.29736328125
 44
914.3153076171875
 45
1269.915283203125
 46
0.0
 47
0.0
 48
0.0
 49
0.0
140
0.0
141
0.0
142
1.0
143
1.0
 70
  2800
 72
     0
 73
     2
 74
     1
  7
Color.ctb
 75
    16
147
1.0
 76
     0
 77
     2
 78
   300
148
-75.74468520391772
149
-27.53050504688192
1001
ACAD_PSEXT
1000
1055_PLUS_ColorDraftShaded.pc3
1000
HP DesignJet 1055CM by HP
1000
FRONT
1000

1070
     0
  0
PLOTSETTINGS
  5
1265
102
{ACAD_REACTORS
330
10BB
102
}
330
10BB
100
AcDbPlotSettings
  1
1055+ 24x36 Color Shaded
  2
1055_PLUS_ColorDraftShaded.pc3
  4
User257
  6

 40
14.98600006103515
 41
8.297271728515625
 42
14.9859619140625
 43
8.29736328125
 44
914.3153076171875
 45
1269.915283203125
 46
0.0
 47
0.0
 48
0.0
 49
0.0
140
0.0
141
0.0
142
1.0
143
1.0
 70
  2800
 72
     0
 73
     2
 74
     1
  7
1055ColorFullDraftShaded.ctb
 75
    16
147
1.0
 76
     0
 77
     2
 78
   300
148
-75.74468520391772
149
-27.53050504688192
1001
ACAD_PSEXT
1000
1055_PLUS_ColorDraftShaded.pc3
1000
HP DesignJet 1055CM by HP
1000
FRONT
1000

1070
     0
  0
PLOTSETTINGS
  5
1266
102
{ACAD_REACTORS
330
10BB
102
}
330
10BB
100
AcDbPlotSettings
  1
1055+ 30x42 BW
  2
1055_PLUS_B&WDraftShaded.pc3
  4
User257
  6

 40
14.98600006103515
 41
8.297271728515625
 42
14.9859619140625
 43
8.29736328125
 44
914.3153076171875
 45
1269.915283203125
 46
0.0
 47
0.0
 48
0.0
 49
0.0
140
0.0
141
0.0
142
1.0
143
1.0
 70
  2800
 72
     0
 73
     1
 74
     1
  7
1055B&WFullDraftShaded.ctb
 75
    16
147
1.0
 76
     0
 77
     2
 78
   300
148
-75.74468520391772
149
-27.53050504688192
1001
ACAD_PSEXT
1000
1055_PLUS_B&WDraftShaded.pc3
1000
HP DesignJet 1055CM by HP
1000
FRONT
1000

1070
     0
  0
PLOTSETTINGS
  5
1267
102
{ACAD_REACTORS
330
10BB
102
}
330
10BB
100
AcDbPlotSettings
  1
1055+ 30x42 BW Final
  2
1055_PLUS_B&WFinalShaded.pc3
  4
User257
  6

 40
14.98600006103515
 41
8.297271728515625
 42
14.9859619140625
 43
8.29736328125
 44
914.357666015625
 45
1269.957641601562
 46
0.0
 47
0.0
 48
0.0
 49
0.0
140
0.0
141
0.0
142
1.0
143
1.0
 70
  2800
 72
     0
 73
     1
 74
     1
  7
1055B&WFullFinalShaded.ctb
 75
    16
147
1.0
 76
     0
 77
     2
 78
   300
148
-75.74468520391772
149
-27.53050504688192
1001
ACAD_PSEXT
1000
1055_PLUS_B&WFinalShaded.pc3
1000
HP DesignJet 1055CM by HP
1000
FRONT
1000

1070
     0
  0
PLOTSETTINGS
  5
1268
102
{ACAD_REACTORS
330
10BB
102
}
330
10BB
100
AcDbPlotSettings
  1
1055+ B&W Draft
  2
1055_PLUS_B&WDraftShaded.pc3
  4
User257
  6

 40
4.995333194732666
 41
13.2926607131958
 42
4.99530029296875
 43
13.292724609375
 44
914.3153076171875
 45
1269.915283203125
 46
0.0
 47
0.0
 48
0.0
 49
0.0
140
0.0
141
0.0
142
1.0
143
30.0
 70
 11936
 72
     0
 73
     2
 74
     1
  7
1055B&WFullDraftShaded.ctb
 75
     0
147
3.484472351238056
 76
     0
 77
     2
 78
   300
148
-119.4582094169044
149
-58.17053554795709
1001
ACAD_PSEXT
1000
1055_PLUS_B&WDraftShaded.pc3
1000
HP DesignJet 1055CM by HP
1000
\\aqua-srv01
1000

1070
     0
  0
PLOTSETTINGS
  5
1269
102
{ACAD_REACTORS
330
10BB
102
}
330
10BB
100
AcDbPlotSettings
  1
1055+ B&W Final
  2
1055_PLUS_B&WFinalShaded.pc3
  4
User257
  6

 40
4.995333194732666
 41
13.2926607131958
 42
4.99530029296875
 43
13.292724609375
 44
914.357666015625
 45
1269.957641601562
 46
0.0
 47
0.0
 48
0.0
 49
0.0
140
0.0
141
0.0
142
1.0
143
30.0
 70
 11936
 72
     0
 73
     2
 74
     1
  7
1055B&WFullFinalShaded.ctb
 75
     0
147
3.484472351238056
 76
     0
 77
     2
 78
   300
148
-119.4582094169044
149
-58.17053554795709
1001
ACAD_PSEXT
1000
1055_PLUS_B&WFinalShaded.pc3
1000
HP DesignJet 1055CM by HP
1000
\\aqua-srv01
1000

1070
     0
  0
PLOTSETTINGS
  5
126A
102
{ACAD_REACTORS
330
10BB
102
}
330
10BB
100
AcDbPlotSettings
  1
1055+ BW Half
  2
1055_PLUS_B&WDraftShaded.pc3
  4
User257
  6

 40
14.98600006103515
 41
8.297271728515625
 42
14.9859619140625
 43
8.29736328125
 44
914.3153076171875
 45
1269.915283203125
 46
0.0
 47
0.0
 48
0.0
 49
0.0
140
0.0
141
0.0
142
1.0
143
2.0
 70
  2800
 72
     0
 73
     2
 74
     1
  7
1055B&WFullDraftShaded.ctb
 75
    17
147
0.5
 76
     0
 77
     2
 78
   300
148
-75.74468520391772
149
-27.53050504688192
1001
ACAD_PSEXT
1000
1055_PLUS_B&WDraftShaded.pc3
1000
HP DesignJet 1055CM by HP
1000
FRONT
1000

1070
     0
  0
PLOTSETTINGS
  5
126B
102
{ACAD_REACTORS
330
10BB
102
}
330
10BB
100
AcDbPlotSettings
  1
1055+ Color Draft
  2
1055_PLUS_ColorDraftShaded.pc3
  4
User257
  6

 40
4.995333194732666
 41
8.297271728515625
 42
4.99530029296875
 43
8.29736328125
 44
914.3153076171875
 45
1269.915283203125
 46
0.0
 47
0.0
 48
0.0
 49
0.0
140
0.0
141
0.0
142
1.0
143
30.0
 70
 11936
 72
     0
 73
     2
 74
     1
  7
1055ColorFullDraftShaded.ctb
 75
     0
147
3.484472351238056
 76
     0
 77
     2
 78
   300
148
-119.4582094169044
149
-58.17053554795709
1001
ACAD_PSEXT
1000
1055_PLUS_ColorDraftShaded.pc3
1000
HP DesignJet 1055CM by HP
1000
\\aqua-srv01
1000

1070
     0
  0
PLOTSETTINGS
  5
126C
102
{ACAD_REACTORS
330
10BB
102
}
330
10BB
100
AcDbPlotSettings
  1
1055+ Color Final
  2
1055_PLUS_ColorFinalShaded.pc3
  4
User257
  6

 40
4.995333194732666
 41
13.2926607131958
 42
4.99530029296875
 43
13.292724609375
 44
914.357666015625
 45
1269.957641601562
 46
0.0
 47
0.0
 48
0.0
 49
0.0
140
0.0
141
0.0
142
1.0
143
30.0
 70
 11936
 72
     0
 73
     2
 74
     1
  7
1055ColorFullFinalShaded.ctb
 75
     0
147
3.484472351238056
 76
     0
 77
     2
 78
   300
148
-119.4582094169044
149
-58.17053554795709
1001
ACAD_PSEXT
1000
1055_PLUS_ColorFinalShaded.pc3
1000
HP DesignJet 1055CM by HP
1000
\\aqua-srv01
1000

1070
     0
  0
PLOTSETTINGS
  5
126D
102
{ACAD_REACTORS
330
10BB
102
}
330
10BB
100
AcDbPlotSettings
  1
_1055 22x34 True Centered BW
  2
1055B&WDraftShaded 24x36 true.pc3
  4
User1639
  6

 40
0.0
 41
0.0
 42
0.0
 43
0.0
 44
863.6000366210938
 45
558.7999877929687
 46
379.1860116761152
 47
224.9166389522296
 48
0.0
 49
0.0
140
0.0
141
0.0
142
1.0
143
1.0
 70
  2804
 72
     0
 73
     0
 74
     1
  7
1055B&WFullDraftShaded.ctb
 75
    16
147
1.0
 76
     0
 77
     2
 78
   300
148
-75.74468520391772
149
-27.53050504688192
1001
ACAD_PSEXT
1000
1055B&WDraftShaded 24x36 true.pc3
1000
HP DesignJet 1055CM by HP
1000
FRONT
1000

1070
     0
  0
PLOTSETTINGS
  5
126E
102
{ACAD_REACTORS
330
10BB
102
}
330
10BB
100
AcDbPlotSettings
  1
_1055 24x36 True Centered BW
  2
1055B&WDraftShaded 24x36 true.pc3
  4
User1308
  6

 40
14.98600006103515
 41
8.297332763671875
 42
14.9859619140625
 43
8.29736328125
 44
914.3153076171875
 45
609.5153198242187
 46
389.5576661866133
 47
241.9769569453936
 48
0.0
 49
0.0
140
0.0
141
0.0
142
1.0
143
1.0
 70
  2804
 72
     0
 73
     0
 74
     1
  7
1055B&WFullDraftShaded.ctb
 75
    16
147
1.0
 76
     0
 77
     2
 78
   300
148
-75.74468520391772
149
-27.53050504688192
1001
ACAD_PSEXT
1000
1055B&WDraftShaded 24x36 true.pc3
1000
HP DesignJet 1055CM by HP
1000
FRONT
1000

1070
     0
  0
PLOTSETTINGS
  5
126F
102
{ACAD_REACTORS
330
10BB
102
}
330
10BB
100
AcDbPlotSettings
  1
_1055 24x36 True Centered BW Final
  2
1055B&WFinalShaded 24x36 true.pc3
  4
User1308
  6

 40
14.98600006103515
 41
8.297332763671875
 42
14.9859619140625
 43
8.29736328125
 44
914.357666015625
 45
609.5576782226562
 46
389.578845385832
 47
241.9981361446124
 48
0.0
 49
0.0
140
0.0
141
0.0
142
1.0
143
1.0
 70
  2804
 72
     0
 73
     0
 74
     1
  7
1055B&WFullFinalShaded.ctb
 75
    16
147
1.0
 76
     0
 77
     2
 78
   300
148
-75.74468520391772
149
-27.53050504688192
1001
ACAD_PSEXT
1000
1055B&WFinalShaded 24x36 true.pc3
1000
HP DesignJet 1055CM by HP
1000
FRONT
1000

1070
     0
  0
PLOTSETTINGS
  5
1270
102
{ACAD_REACTORS
330
10BB
102
}
330
10BB
100
AcDbPlotSettings
  1
_1055 24x36 True Centered Color
  2
1055ColorDraftShaded 24x36 true.pc3
  4
User1308
  6

 40
14.98600006103515
 41
8.297332763671875
 42
14.9859619140625
 43
8.29736328125
 44
914.3153076171875
 45
609.5153198242187
 46
389.5576661866133
 47
241.9769569453936
 48
0.0
 49
0.0
140
0.0
141
0.0
142
1.0
143
1.0
 70
  2804
 72
     0
 73
     0
 74
     1
  7
1055ColorFullDraftShaded.ctb
 75
    16
147
1.0
 76
     0
 77
     2
 78
   300
148
-75.74468520391772
149
-27.53050504688192
1001
ACAD_PSEXT
1000
1055ColorDraftShaded 24x36 true.pc3
1000
HP DesignJet 1055CM by HP
1000
FRONT
1000

1070
     0
  0
PLOTSETTINGS
  5
1271
102
{ACAD_REACTORS
330
10BB
102
}
330
10BB
100
AcDbPlotSettings
  1
_1055 30x42 True Centered BW
  2
1055B&WDraftShaded 30x42 true.pc3
  4
User286
  6

 40
0.0
 41
0.0
 42
-0.08465576171875
 43
-0.084716796875
 44
761.9153442382812
 45
1066.71533203125
 46
326.5166450557452
 47
480.7860177796309
 48
0.0
 49
0.0
140
0.0
141
0.0
142
1.0
143
1.0
 70
  2804
 72
     0
 73
     1
 74
     1
  7
1055B&WFullDraftShaded.ctb
 75
    16
147
1.0
 76
     0
 77
     2
 78
   300
148
-75.74468520391772
149
-27.53050504688192
1001
ACAD_PSEXT
1000
1055B&WDraftShaded 30x42 true.pc3
1000
HP DesignJet 1055CM by HP
1000
FRONT
1000

1070
     0
  0
PLOTSETTINGS
  5
1272
102
{ACAD_REACTORS
330
10BB
102
}
330
10BB
100
AcDbPlotSettings
  1
_1055+ 22x34 True Centered BW
  2
1055_PLUS_B&WDraftShaded 24x36 true.pc3
  4
User1639
  6

 40
0.0
 41
0.0
 42
0.0
 43
0.0
 44
863.6000366210938
 45
558.7999877929687
 46
379.1860116761152
 47
224.9166389522296
 48
0.0
 49
0.0
140
0.0
141
0.0
142
1.0
143
1.0
 70
  2804
 72
     0
 73
     0
 74
     1
  7
1055B&WFullDraftShaded.ctb
 75
    16
147
1.0
 76
     0
 77
     2
 78
   300
148
-75.74468520391772
149
-27.53050504688192
1001
ACAD_PSEXT
1000
1055_PLUS_B&WDraftShaded 24x36 true.pc3
1000
HP DesignJet 1055CM by HP
1000
FRONT
1000

1070
     0
  0
PLOTSETTINGS
  5
1273
102
{ACAD_REACTORS
330
10BB
102
}
330
10BB
100
AcDbPlotSettings
  1
_1055+ 24x36 True Centered BW
  2
1055_PLUS_B&WDraftShaded 24x36 true.pc3
  4
User1308
  6

 40
14.98600006103515
 41
8.297332763671875
 42
14.9859619140625
 43
8.29736328125
 44
914.3153076171875
 45
609.5153198242187
 46
389.5576661866133
 47
241.9769569453936
 48
0.0
 49
0.0
140
0.0
141
0.0
142
1.0
143
1.0
 70
  2804
 72
     0
 73
     0
 74
     1
  7
1055B&WFullDraftShaded.ctb
 75
    16
147
1.0
 76
     0
 77
     2
 78
   300
148
-75.74468520391772
149
-27.53050504688192
1001
ACAD_PSEXT
1000
1055_PLUS_B&WDraftShaded 24x36 true.pc3
1000
HP DesignJet 1055CM by HP
1000
FRONT
1000

1070
     0
  0
PLOTSETTINGS
  5
1274
102
{ACAD_REACTORS
330
10BB
102
}
330
10BB
100
AcDbPlotSettings
  1
_1055+ 24x36 True Centered BW Final
  2
1055_PLUS_B&WFinalShaded 24x36 true.pc3
  4
User1308
  6

 40
14.98600006103515
 41
8.297332763671875
 42
14.9859619140625
 43
8.29736328125
 44
914.357666015625
 45
609.5576782226562
 46
389.578845385832
 47
241.9981361446124
 48
0.0
 49
0.0
140
0.0
141
0.0
142
1.0
143
1.0
 70
  2804
 72
     0
 73
     0
 74
     1
  7
1055B&WFullFinalShaded.ctb
 75
    16
147
1.0
 76
     0
 77
     2
 78
   300
148
-75.74468520391772
149
-27.53050504688192
1001
ACAD_PSEXT
1000
1055_PLUS_B&WFinalShaded 24x36 true.pc3
1000
HP DesignJet 1055CM by HP
1000
FRONT
1000

1070
     0
  0
PLOTSETTINGS
  5
1275
102
{ACAD_REACTORS
330
10BB
102
}
330
10BB
100
AcDbPlotSettings
  1
_1055+ 24x36 True Centered Color
  2
1055_PLUS_ColorDraftShaded 24x36 true.pc3
  4
User1308
  6

 40
14.98600006103515
 41
8.297332763671875
 42
14.9859619140625
 43
8.29736328125
 44
914.3153076171875
 45
609.5153198242187
 46
389.5576661866133
 47
241.9769569453936
 48
0.0
 49
0.0
140
0.0
141
0.0
142
1.0
143
1.0
 70
  2804
 72
     0
 73
     0
 74
     1
  7
1055ColorFullDraftShaded.ctb
 75
    16
147
1.0
 76
     0
 77
     2
 78
   300
148
-75.74468520391772
149
-27.53050504688192
1001
ACAD_PSEXT
1000
1055_PLUS_ColorDraftShaded 24x36 true.pc3
1000
HP DesignJet 1055CM by HP
1000
FRONT
1000

1070
     0
  0
PLOTSETTINGS
  5
1276
102
{ACAD_REACTORS
330
10BB
102
}
330
10BB
100
AcDbPlotSettings
  1
DWF BW 11x17 Fit
  2
DWF-BW_11x17.pc3
  4
UserDefinedImperial (17.00 x 11.00Inches)
  6

 40
0.0
 41
0.0
 42
0.0
 43
0.0
 44
431.7999877929687
 45
279.3999938964844
 46
80.99316641155249
 47
0.000000000000005
 48
0.0
 49
0.0
140
0.0
141
0.0
142
1.0
143
0.3900025492802298
 70
  2740
 72
     0
 73
     0
 74
     1
  7
1055B&WFullFinalShaded.ctb
 75
     0
147
2.564085803658341
 76
     0
 77
     2
 78
   300
148
-75.74468520391772
149
-27.53050504688192
1001
ACAD_PSEXT
1000
DWF-BW_11x17.pc3
1000
DWF eView (optimized for viewing)
1000
File
1000

1070
     0
  0
PLOTSETTINGS
  5
1277
102
{ACAD_REACTORS
330
10BB
102
}
330
10BB
100
AcDbPlotSettings
  1
DWF BW 11x17 Half
  2
DWF-BW_11x17.pc3
  4
UserDefinedImperial (17.00 x 11.00Inches)
  6

 40
0.0
 41
0.0
 42
0.0
 43
0.0
 44
431.7999877929687
 45
279.3999938964844
 46
189.5929905792686
 47
112.4583194761148
 48
0.0
 49
0.0
140
0.0
141
0.0
142
1.0
143
2.0
 70
  2740
 72
     0
 73
     0
 74
     1
  7
1055B&WFullFinalShaded.ctb
 75
    17
147
0.5
 76
     0
 77
     2
 78
   300
148
-75.74468520391772
149
-27.53050504688192
1001
ACAD_PSEXT
1000
DWF-BW_11x17.pc3
1000
DWF eView (optimized for viewing)
1000
File
1000

1070
     0
  0
PLOTSETTINGS
  5
1278
102
{ACAD_REACTORS
330
10BB
102
}
330
10BB
100
AcDbPlotSettings
  1
DWF BW 22x34
  2
DWF-BW_22x34.pc3
  4
UserDefinedImperial (34.00 x 22.00Inches)
  6

 40
0.0
 41
0.0
 42
0.0
 43
0.0
 44
863.5999755859375
 45
558.7999877929687
 46
379.1859811585372
 47
224.9166389522296
 48
0.0
 49
0.0
140
0.0
141
0.0
142
1.0
143
1.0
 70
  2740
 72
     0
 73
     0
 74
     1
  7
1055B&WFullFinalShaded.ctb
 75
    16
147
1.0
 76
     0
 77
     2
 78
   300
148
-75.74468520391772
149
-27.53050504688192
1001
ACAD_PSEXT
1000
DWF-BW_22x34.pc3
1000
DWF eView (optimized for viewing)
1000
File
1000

1070
     0
  0
PLOTSETTINGS
  5
1279
102
{ACAD_REACTORS
330
10BB
102
}
330
10BB
100
AcDbPlotSettings
  1
DWF BW 24x36
  2
DWF-BW_24x36.pc3
  4
UserDefinedImperial (36.00 x 24.00Inches)
  6

 40
0.0
 41
0.0
 42
0.0
 43
0.0
 44
914.4000244140626
 45
609.5999755859375
 46
404.5860055725996
 47
250.3166328487139
 48
0.0
 49
0.0
140
0.0
141
0.0
142
1.0
143
1.0
 70
  2740
 72
     0
 73
     0
 74
     1
  7
1055B&WFullFinalShaded.ctb
 75
    16
147
1.0
 76
     0
 77
     2
 78
   300
148
-75.74468520391772
149
-27.53050504688192
1001
ACAD_PSEXT
1000
DWF-BW_24x36.pc3
1000
DWF eView (optimized for viewing)
1000
File
1000

1070
     0
  0
PLOTSETTINGS
  5
127A
102
{ACAD_REACTORS
330
10BB
102
}
330
10BB
100
AcDbPlotSettings
  1
DWF BW 30x42
  2
DWF-BW_30x42.pc3
  4
UserDefinedImperial (42.00 x 30.00Inches)
  6

 40
0.0
 41
0.0
 42
0.0
 43
0.0
 44
1066.800048828125
 45
762.0
 46
480.7860177796309
 47
326.5166450557452
 48
0.0
 49
0.0
140
0.0
141
0.0
142
1.0
143
1.0
 70
  2740
 72
     0
 73
     0
 74
     1
  7
1055B&WFullFinalShaded.ctb
 75
    16
147
1.0
 76
     0
 77
     2
 78
   300
148
-75.74468520391772
149
-27.53050504688192
1001
ACAD_PSEXT
1000
DWF-BW_30x42.pc3
1000
DWF eView (optimized for viewing)
1000
File
1000

1070
     0
  0
PLOTSETTINGS
  5
127B
102
{ACAD_REACTORS
330
10BB
102
}
330
10BB
100
AcDbPlotSettings
  1
DWF BW 36x48
  2
DWF-BW_36x48.pc3
  4
UserDefinedImperial (48.00 x 36.00Inches)
  6

 40
0.0
 41
0.0
 42
0.0
 43
0.0
 44
1219.199951171875
 45
914.4000244140626
 46
556.9859689515058
 47
402.7166572627765
 48
0.0
 49
0.0
140
0.0
141
0.0
142
1.0
143
1.0
 70
  2740
 72
     0
 73
     0
 74
     1
  7
1055B&WFullFinalShaded.ctb
 75
    16
147
1.0
 76
     0
 77
     2
 78
   300
148
-75.74468520391772
149
-27.53050504688192
1001
ACAD_PSEXT
1000
DWF-BW_36x48.pc3
1000
DWF eView (optimized for viewing)
1000
File
1000

1070
     0
  0
PLOTSETTINGS
  5
127C
102
{ACAD_REACTORS
330
10BB
102
}
330
10BB
100
AcDbPlotSettings
  1
Laser5 11x17 Fit
  2
LaserJet5Shaded.pc3
  4
11x17
  6

 40
5.873749732971191
 41
5.027085304260253
 42
5.873748779296875
 43
5.027069091796875
 44
431.7999877929687
 45
279.3999938964844
 46
79.97401308328474
 47
0.0
 48
0.0
 49
0.0
140
0.0
141
0.0
142
1.0
143
0.4045605831172927
 70
  2740
 72
     0
 73
     0
 74
     1
  7
LaserJet5Shaded.ctb
 75
     0
147
2.471817675104729
 76
     0
 77
     2
 78
   300
148
-75.74468520391772
149
-27.53050504688192
1001
ACAD_PSEXT
1000
LaserJet5Shaded.pc3
1000
HP LaserJet 5Si
1000
\\aqua-srv01
1000

1070
     0
  0
PLOTSETTINGS
  5
127D
102
{ACAD_REACTORS
330
10BB
102
}
330
10BB
100
AcDbPlotSettings
  1
Laser5 11x17 Full
  2
LaserJet5Shaded.pc3
  4
11x17
  6

 40
5.873749732971191
 41
5.027085304260253
 42
5.873748779296875
 43
5.027069091796875
 44
431.7999877929687
 45
279.3999938964844
 46
157.4122380059187
 47
80.18956480595884
 48
0.0
 49
0.0
140
0.0
141
0.0
142
1.0
143
1.0
 70
  2724
 72
     0
 73
     0
 74
     1
  7
LaserJet5Shaded.ctb
 75
     0
147
2.433550528115671
 76
     0
 77
     2
 78
   300
148
-75.74468520391772
149
-27.53050504688192
1001
ACAD_PSEXT
1000
LaserJet5Shaded.pc3
1000
HP LaserJet 5Si
1000
\\aqua-srv01
1000

1070
     0
  0
PLOTSETTINGS
  5
127E
102
{ACAD_REACTORS
330
10BB
102
}
330
10BB
100
AcDbPlotSettings
  1
Laser5 11x17 Half
  2
LaserJet5Shaded.pc3
  4
11x17
  6

 40
5.873749732971191
 41
5.027085304260253
 42
5.873748779296875
 43
5.027069091796875
 44
431.7999877929687
 45
279.3999938964844
 46
183.7192413231345
 47
107.4312422780862
 48
0.0
 49
0.0
140
0.0
141
0.0
142
1.0
143
2.0
 70
  2740
 72
     0
 73
     0
 74
     1
  7
LaserJet5Shaded.ctb
 75
    17
147
0.5
 76
     0
 77
     2
 78
   300
148
-75.74468520391772
149
-27.53050504688192
1001
ACAD_PSEXT
1000
LaserJet5Shaded.pc3
1000
HP LaserJet 5Si
1000
\\aqua-srv01
1000

1070
     0
  0
PLOTSETTINGS
  5
127F
102
{ACAD_REACTORS
330
10BB
102
}
330
10BB
100
AcDbPlotSettings
  1
Laser5 8x11 Fit
  2
LaserJet5Shaded-8x11.pc3
  4
Letter
  6

 40
5.873749732971191
 41
5.027085304260253
 42
5.873748779296875
 43
5.027084350585937
 44
279.3999938964844
 45
215.8999938964844
 46
34.4346667826652
 47
0.0
 48
0.0
 49
0.0
140
0.0
141
0.0
142
1.0
143
0.5293607985003172
 70
  2740
 72
     0
 73
     0
 74
     1
  7
LaserJet5Shaded.ctb
 75
     0
147
1.889070748784206
 76
     0
 77
     2
 78
   300
148
-75.74468520391772
149
-27.53050504688192
1001
ACAD_PSEXT
1000
LaserJet5Shaded-8x11.pc3
1000
HP LaserJet 5Si
1000
\\aqua-srv01
1000

1070
     0
  0
PLOTSETTINGS
  5
1280
102
{ACAD_REACTORS
330
10BB
102
}
330
10BB
100
AcDbPlotSettings
  1
Laser5 8x11 Half
  2
LaserJet5Shaded-8x11.pc3
  4
Letter
  6

 40
5.873749732971191
 41
5.027085304260253
 42
5.873748779296875
 43
5.027084350585937
 44
279.3999938964844
 45
215.8999938964844
 46
107.5192443748923
 47
75.68123464869171
 48
0.0
 49
0.0
140
0.0
141
0.0
142
1.0
143
2.0
 70
  2740
 72
     0
 73
     0
 74
     1
  7
LaserJet5Shaded.ctb
 75
    17
147
0.5
 76
     0
 77
     2
 78
   300
148
-75.74468520391772
149
-27.53050504688192
1001
ACAD_PSEXT
1000
LaserJet5Shaded-8x11.pc3
1000
HP LaserJet 5Si
1000
\\aqua-srv01
1000

1070
     0
  0
PLOTSETTINGS
  5
1281
102
{ACAD_REACTORS
330
10BB
102
}
330
10BB
100
AcDbPlotSettings
  1
Laser5 8x11 Portrait Fit
  2
LaserJet5Shaded-8x11.pc3
  4
Letter
  6

 40
5.873749732971191
 41
5.027085304260253
 42
5.873748779296875
 43
5.027084350585937
 44
279.3999938964844
 45
215.8999938964844
 46
27.24653799736659
 47
0.0000000000000029
 48
0.0
 49
0.0
140
0.0
141
0.0
142
1.0
143
0.5111981924167587
 70
  2740
 72
     0
 73
     1
 74
     1
  7
LaserJet5Shaded.ctb
 75
     0
147
1.956188450652308
 76
     0
 77
     2
 78
   300
148
-75.74468520391772
149
-27.53050504688192
1001
ACAD_PSEXT
1000
LaserJet5Shaded-8x11.pc3
1000
HP LaserJet 5Si
1000
\\aqua-srv01
1000

1070
     0
  0
PLOTSETTINGS
  5
1282
102
{ACAD_REACTORS
330
10BB
102
}
330
10BB
100
AcDbPlotSettings
  1
LaserJet5 11x17
  2
LaserJet5Shaded.pc3
  4
11x17
  6

 40
7.111999988555908
 41
5.079999923706054
 42
7.11199951171875
 43
5.079986572265625
 44
279.3999938964844
 45
431.7999877929687
 46
0.0
 47
74.88489939702606
 48
0.0
 49
0.0
140
0.0
141
0.0
142
1.0
143
0.3551636250563743
 70
 11956
 72
     0
 73
     1
 74
     1
  7
LaserJet5Shaded.ctb
 75
     0
147
2.815603652658045
 76
     0
 77
     2
 78
   300
148
-119.4582094169044
149
-58.17053554795709
1001
ACAD_PSEXT
1000
LaserJet5Shaded.pc3
1000
HP LaserJet 5Si
1000
\\aqua-srv01
1000

1070
     0
  0
PLOTSETTINGS
  5
1283
102
{ACAD_REACTORS
330
10BB
102
}
330
10BB
100
AcDbPlotSettings
  1
LaserJet5 8.5x11
  2
LaserJet5Shaded-8x11.pc3
  4
Letter
  6

 40
5.873749732971191
 41
5.873734951019287
 42
6.55108642578125
 43
5.027084350585937
 44
279.3999938964844
 45
215.8999938964844
 46
28.40045128601757
 47
0.0000000000000046
 48
0.0
 49
0.0
140
0.0
141
0.0
142
1.0
143
0.4594207153946231
 70
 11956
 72
     0
 73
     0
 74
     1
  7
LaserJet5Shaded.ctb
 75
     0
147
2.176654135286525
 76
     0
 77
     2
 78
   300
148
-119.4582094169044
149
-58.17053554795709
1001
ACAD_PSEXT
1000
LaserJet5Shaded-8x11.pc3
1000
HP LaserJet 5Si
1000
CAD Area
1000

1070
     0
  0
PLOTSETTINGS
  5
1284
102
{ACAD_REACTORS
330
10BB
102
}
330
10BB
100
AcDbPlotSettings
  1
Oki9500 11x17 BW Fit
  2
OKI DOKI Color Laser.pc3
  4
Tabloid
  6

 40
5.027083396911621
 41
5.027085304260253
 42
5.027099609375
 43
5.027069091796875
 44
431.7999877929687
 45
279.3999938964844
 46
80.82067083627547
 47
0.0
 48
0.0
 49
0.0
140
0.0
141
0.0
142
1.0
143
0.4045605831172927
 70
  2740
 72
     0
 73
     0
 74
     1
  7
OKIB&WShaded.ctb
 75
     0
147
2.471817675104729
 76
     0
 77
     2
 78
   300
148
-75.74468520391772
149
-27.53050504688192
1001
ACAD_PSEXT
1000
OKI DOKI Color Laser.pc3
1000
OKI C9500(PCL)
1000
FRONT
1000

1070
     0
  0
PLOTSETTINGS
  5
1285
102
{ACAD_REACTORS
330
10BB
102
}
330
10BB
100
AcDbPlotSettings
  1
Oki9500 11x17 BW Full
  2
OKI DOKI Color Laser.pc3
  4
Tabloid
  6

 40
5.027083396911621
 41
5.027085304260253
 42
5.027099609375
 43
5.027069091796875
 44
431.7999877929687
 45
279.3999938964844
 46
158.2588957589094
 47
80.18956480595884
 48
0.0
 49
0.0
140
0.0
141
0.0
142
1.0
143
1.0
 70
  2724
 72
     0
 73
     0
 74
     1
  7
OKIB&WShaded.ctb
 75
     0
147
2.471817675104729
 76
     0
 77
     2
 78
   300
148
-75.74468520391772
149
-27.53050504688192
1001
ACAD_PSEXT
1000
OKI DOKI Color Laser.pc3
1000
OKI C9500(PCL)
1000
FRONT
1000

1070
     0
  0
PLOTSETTINGS
  5
1286
102
{ACAD_REACTORS
330
10BB
102
}
330
10BB
100
AcDbPlotSettings
  1
Oki9500 11x17 BW Half
  2
OKI DOKI Color Laser.pc3
  4
Tabloid
  6

 40
5.027083396911621
 41
5.027085304260253
 42
5.027099609375
 43
5.027069091796875
 44
431.7999877929687
 45
279.3999938964844
 46
184.5658990761252
 47
107.4312422780862
 48
0.0
 49
0.0
140
0.0
141
0.0
142
1.0
143
2.0
 70
  2740
 72
     0
 73
     0
 74
     1
  7
OKIB&WShaded.ctb
 75
    17
147
0.5
 76
     0
 77
     2
 78
   300
148
-75.74468520391772
149
-27.53050504688192
1001
ACAD_PSEXT
1000
OKI DOKI Color Laser.pc3
1000
OKI C9500(PCL)
1000
FRONT
1000

1070
     0
  0
PLOTSETTINGS
  5
1287
102
{ACAD_REACTORS
330
10BB
102
}
330
10BB
100
AcDbPlotSettings
  1
Oki9500 11x17 Color Fit
  2
OKI DOKI Color Laser.pc3
  4
Tabloid
  6

 40
5.027083396911621
 41
5.027085304260253
 42
5.027099609375
 43
5.027069091796875
 44
431.7999877929687
 45
279.3999938964844
 46
80.82067083627547
 47
0.0
 48
0.0
 49
0.0
140
0.0
141
0.0
142
1.0
143
0.4045605831172927
 70
  2740
 72
     0
 73
     0
 74
     1
  7
OKIColorShaded.ctb
 75
     0
147
2.471817675104729
 76
     0
 77
     2
 78
   300
148
-75.74468520391772
149
-27.53050504688192
1001
ACAD_PSEXT
1000
OKI DOKI Color Laser.pc3
1000
OKI C9500(PCL)
1000
FRONT
1000

1070
     0
  0
PLOTSETTINGS
  5
1288
102
{ACAD_REACTORS
330
10BB
102
}
330
10BB
100
AcDbPlotSettings
  1
Oki9500 11x17 Color Full
  2
OKI DOKI Color Laser.pc3
  4
Tabloid
  6

 40
5.027082920074462
 41
5.027085781097412
 42
5.027099609375
 43
5.027069091796875
 44
431.7999877929687
 45
279.3999938964844
 46
158.258895997328
 47
80.18956456754025
 48
0.0
 49
0.0
140
0.0
141
0.0
142
1.0
143
1.0
 70
  2724
 72
     0
 73
     0
 74
     1
  7
OKIColorShaded.ctb
 75
     0
147
2.471817675104729
 76
     0
 77
     2
 78
   300
148
-75.74468520391772
149
-27.53050504688192
1001
ACAD_PSEXT
1000
OKI DOKI Color Laser.pc3
1000
OKI C9600(PCL)
1000
FRONT
1000

1070
     0
  0
PLOTSETTINGS
  5
1289
102
{ACAD_REACTORS
330
10BB
102
}
330
10BB
100
AcDbPlotSettings
  1
Oki9500 11x17 Color Half
  2
OKI DOKI Color Laser.pc3
  4
Tabloid
  6

 40
5.027083396911621
 41
5.027085304260253
 42
5.027099609375
 43
5.027069091796875
 44
431.7999877929687
 45
279.3999938964844
 46
184.5658990761252
 47
107.4312422780862
 48
0.0
 49
0.0
140
0.0
141
0.0
142
1.0
143
2.0
 70
  2740
 72
     0
 73
     0
 74
     1
  7
OKIColorShaded.ctb
 75
    17
147
0.5
 76
     0
 77
     2
 78
   300
148
-75.74468520391772
149
-27.53050504688192
1001
ACAD_PSEXT
1000
OKI DOKI Color Laser.pc3
1000
OKI C9500(PCL)
1000
FRONT
1000

1070
     0
  0
PLOTSETTINGS
  5
128A
102
{ACAD_REACTORS
330
10BB
102
}
330
10BB
100
AcDbPlotSettings
  1
Oki9500 8x11 BW Fit
  2
OKI DOKI Color Laser8x11.pc3
  4
Letter
  6

 40
5.027083396911621
 41
5.027085304260253
 42
5.027099609375
 43
5.027084350585937
 44
279.3999938964844
 45
215.8999938964844
 46
35.28132453565591
 47
0.0
 48
0.0
 49
0.0
140
0.0
141
0.0
142
1.0
143
0.5293607985003172
 70
  2740
 72
     0
 73
     0
 74
     1
  7
OKIB&WShaded.ctb
 75
     0
147
1.889070748784206
 76
     0
 77
     2
 78
   300
148
-75.74468520391772
149
-27.53050504688192
1001
ACAD_PSEXT
1000
OKI DOKI Color Laser8x11.pc3
1000
OKI C9500(PCL)
1000
FRONT
1000

1070
     0
  0
PLOTSETTINGS
  5
128B
102
{ACAD_REACTORS
330
10BB
102
}
330
10BB
100
AcDbPlotSettings
  1
Oki9500 8x11 BW Portrait Fit
  2
OKI DOKI Color Laser8x11.pc3
  4
Letter
  6

 40
5.027083396911621
 41
5.027085304260253
 42
5.027099609375
 43
5.027084350585937
 44
279.3999938964844
 45
215.8999938964844
 46
28.0931957503573
 47
0.0000000000000029
 48
0.0
 49
0.0
140
0.0
141
0.0
142
1.0
143
0.5111981924167587
 70
  2740
 72
     0
 73
     1
 74
     1
  7
OKIB&WShaded.ctb
 75
     0
147
1.956188450652308
 76
     0
 77
     2
 78
   300
148
-75.74468520391772
149
-27.53050504688192
1001
ACAD_PSEXT
1000
OKI DOKI Color Laser8x11.pc3
1000
OKI C9500(PCL)
1000
FRONT
1000

1070
     0
  0
PLOTSETTINGS
  5
128C
102
{ACAD_REACTORS
330
10BB
102
}
330
10BB
100
AcDbPlotSettings
  1
Oki9500 8x11 Color Fit
  2
OKI DOKI Color Laser8x11.pc3
  4
Letter
  6

 40
5.027083396911621
 41
5.027085304260253
 42
5.027099609375
 43
5.027084350585937
 44
279.3999938964844
 45
215.8999938964844
 46
35.28132453565591
 47
0.0
 48
0.0
 49
0.0
140
0.0
141
0.0
142
1.0
143
0.5293607985003172
 70
  2740
 72
     0
 73
     0
 74
     1
  7
OKIColorShaded.ctb
 75
     0
147
1.889070748784206
 76
     0
 77
     2
 78
   300
148
-75.74468520391772
149
-27.53050504688192
1001
ACAD_PSEXT
1000
OKI DOKI Color Laser8x11.pc3
1000
OKI C9500(PCL)
1000
FRONT
1000

1070
     0
  0
PLOTSETTINGS
  5
128D
102
{ACAD_REACTORS
330
10BB
102
}
330
10BB
100
AcDbPlotSettings
  1
Oki9500 8x11 Color Portrait Fit
  2
OKI DOKI Color Laser8x11.pc3
  4
Letter
  6

 40
5.027083396911621
 41
5.027085304260253
 42
5.027099609375
 43
5.027084350585937
 44
279.3999938964844
 45
215.8999938964844
 46
28.0931957503573
 47
0.0000000000000029
 48
0.0
 49
0.0
140
0.0
141
0.0
142
1.0
143
0.5111981924167587
 70
  2740
 72
     0
 73
     1
 74
     1
  7
OKIColorShaded.ctb
 75
     0
147
1.956188450652308
 76
     0
 77
     2
 78
   300
148
-75.74468520391772
149
-27.53050504688192
1001
ACAD_PSEXT
1000
OKI DOKI Color Laser8x11.pc3
1000
OKI C9500(PCL)
1000
FRONT
1000

1070
     0
  0
PLOTSETTINGS
  5
128E
102
{ACAD_REACTORS
330
10BB
102
}
330
10BB
100
AcDbPlotSettings
  1
OKI9500 B&W 11x17
  2
OKI DOKI Color Laser.pc3
  4
11x17
  6

 40
5.873749732971191
 41
5.873734951019287
 42
5.873748779296875
 43
5.027069091796875
 44
431.7999877929687
 45
279.3999938964844
 46
72.38759962724653
 47
0.0000000000000057
 48
0.0
 49
0.0
140
0.0
141
0.0
142
1.0
143
0.3507677900220671
 70
 11956
 72
     0
 73
     0
 74
     1
  7
OKIB&WShaded.ctb
 75
     0
147
2.850888902704233
 76
     0
 77
     2
 78
   300
148
-119.4582094169044
149
-58.17053554795709
1001
ACAD_PSEXT
1000
OKI DOKI Color Laser.pc3
1000
HP LaserJet 5Si
1000
CAD Area
1000

1070
     0
  0
PLOTSETTINGS
  5
128F
102
{ACAD_REACTORS
330
10BB
102
}
330
10BB
100
AcDbPlotSettings
  1
OKI9500 B&W 8.5x11
  2
OKI DOKI Color Laser8x11.pc3
  4
Letter
  6

 40
5.873749732971191
 41
5.873734951019287
 42
6.55108642578125
 43
5.027084350585937
 44
279.3999938964844
 45
215.8999938964844
 46
28.40045128601757
 47
0.0000000000000046
 48
0.0
 49
0.0
140
0.0
141
0.0
142
1.0
143
0.4594207153946231
 70
 11956
 72
     0
 73
     0
 74
     1
  7
OKIB&WShaded.ctb
 75
     0
147
2.176654135286525
 76
     0
 77
     2
 78
   300
148
-119.4582094169044
149
-58.17053554795709
1001
ACAD_PSEXT
1000
OKI DOKI Color Laser8x11.pc3
1000
HP LaserJet 5Si
1000
CAD Area
1000

1070
     0
  0
PLOTSETTINGS
  5
1290
102
{ACAD_REACTORS
330
10BB
102
}
330
10BB
100
AcDbPlotSettings
  1
OKI9500 Color 11x17
  2
OKI DOKI Color Laser.pc3
  4
Tabloid
  6

 40
5.027083396911621
 41
5.027085304260253
 42
5.027099609375
 43
5.027069091796875
 44
431.7999877929687
 45
279.3999938964844
 46
72.80024597690952
 47
0.0
 48
0.0
 49
0.0
140
0.0
141
0.0
142
1.0
143
0.349665202263268
 70
 11956
 72
     0
 73
     0
 74
     1
  7
OKIColorShaded.ctb
 75
     0
147
2.859878516727796
 76
     0
 77
     2
 78
   300
148
-119.4582094169044
149
-58.17053554795709
1001
ACAD_PSEXT
1000
OKI DOKI Color Laser.pc3
1000
OKI C9500(PCL)
1000
FRONT
1000

1070
     0
  0
PLOTSETTINGS
  5
1291
102
{ACAD_REACTORS
330
10BB
102
}
330
10BB
100
AcDbPlotSettings
  1
OKI9500 Color 8.5x11
  2
OKI DOKI Color Laser8x11.pc3
  4
Letter
  6

 40
5.873749732971191
 41
5.873734951019287
 42
6.55108642578125
 43
5.027084350585937
 44
279.3999938964844
 45
215.8999938964844
 46
28.40045128601757
 47
0.0000000000000046
 48
0.0
 49
0.0
140
0.0
141
0.0
142
1.0
143
0.4594207153946231
 70
 11956
 72
     0
 73
     0
 74
     1
  7
OKIColorShaded.ctb
 75
     0
147
2.176654135286525
 76
     0
 77
     2
 78
   300
148
-119.4582094169044
149
-58.17053554795709
1001
ACAD_PSEXT
1000
OKI DOKI Color Laser8x11.pc3
1000
HP LaserJet 5Si
1000
CAD Area
1000

1070
     0
  0
PLOTSETTINGS
  5
1292
102
{ACAD_REACTORS
330
10BB
102
}
330
10BB
100
AcDbPlotSettings
  1
Oki9600 11x17 BW Fit
  2
9600 BW 11x17.pc3
  4
Tabloid
  6

 40
5.027082920074462
 41
5.027085781097412
 42
5.027099609375
 43
5.027069091796875
 44
431.7999877929687
 45
279.3999938964844
 46
80.82067130493244
 47
0.000000000000007
 48
0.0
 49
0.0
140
0.0
141
0.0
142
1.0
143
0.4045605838335077
 70
  2804
 72
     0
 73
     0
 74
     1
  7
OKIB&WShaded.ctb
 75
     0
147
2.47181767072874
 76
     0
 77
     2
 78
   300
148
-75.74468520391772
149
-27.53050504688192
1001
ACAD_PSEXT
1000
9600 BW 11x17.pc3
1000
OKI C9600(PCL)
1000
Expansion Area
1000

1070
     0
  0
PLOTSETTINGS
  5
1293
102
{ACAD_REACTORS
330
10BB
102
}
330
10BB
100
AcDbPlotSettings
  1
Oki9600 11x17 BW Full
  2
9600 BW 11x17.pc3
  4
Tabloid
  6

 40
5.027082920074462
 41
5.027085781097412
 42
5.027099609375
 43
5.027069091796875
 44
431.7999877929687
 45
279.3999938964844
 46
158.258895997328
 47
80.18956456754025
 48
0.0
 49
0.0
140
0.0
141
0.0
142
1.0
143
1.0
 70
  2788
 72
     0
 73
     0
 74
     1
  7
OKIB&WShaded.ctb
 75
     0
147
2.47181767072874
 76
     0
 77
     2
 78
   300
148
-75.74468520391772
149
-27.53050504688192
1001
ACAD_PSEXT
1000
9600 BW 11x17.pc3
1000
OKI C9600(PCL)
1000
Expansion Area
1000

1070
     0
  0
PLOTSETTINGS
  5
1294
102
{ACAD_REACTORS
330
10BB
102
}
330
10BB
100
AcDbPlotSettings
  1
Oki9600 11x17 BW Half
  2
9600 BW 11x17.pc3
  4
Tabloid
  6

 40
5.027082920074462
 41
5.027085781097412
 42
5.027099609375
 43
5.027069091796875
 44
431.7999877929687
 45
279.3999938964844
 46
184.5658993145439
 47
107.4312420396676
 48
0.0
 49
0.0
140
0.0
141
0.0
142
1.0
143
2.0
 70
  2788
 72
     0
 73
     0
 74
     1
  7
OKIB&WShaded.ctb
 75
     0
147
2.47181767072874
 76
     0
 77
     2
 78
   300
148
-75.74468520391772
149
-27.53050504688192
1001
ACAD_PSEXT
1000
9600 BW 11x17.pc3
1000
OKI C9600(PCL)
1000
Expansion Area
1000

1070
     0
  0
PLOTSETTINGS
  5
1295
102
{ACAD_REACTORS
330
10BB
102
}
330
10BB
100
AcDbPlotSettings
  1
Oki9600 11x17 Color Fit
  2
9600 Color 11x17.pc3
  4
Tabloid
  6

 40
5.027082920074462
 41
5.027085781097412
 42
5.027099609375
 43
5.027069091796875
 44
431.7999877929687
 45
279.3999938964844
 46
80.82067130493244
 47
0.000000000000007
 48
0.0
 49
0.0
140
0.0
141
0.0
142
1.0
143
0.4045605838335077
 70
  2804
 72
     0
 73
     0
 74
     1
  7
OKIColorShaded.ctb
 75
     0
147
2.47181767072874
 76
     0
 77
     2
 78
   300
148
-75.74468520391772
149
-27.53050504688192
1001
ACAD_PSEXT
1000
9600 Color 11x17.pc3
1000
OKI C9600(PCL)
1000
Expansion Area
1000

1070
     0
  0
PLOTSETTINGS
  5
1296
102
{ACAD_REACTORS
330
10BB
102
}
330
10BB
100
AcDbPlotSettings
  1
Oki9600 11x17 Color Full
  2
9600 Color 11x17.pc3
  4
Tabloid
  6

 40
5.027082920074462
 41
5.027085781097412
 42
5.027099609375
 43
5.027069091796875
 44
431.7999877929687
 45
279.3999938964844
 46
158.258895997328
 47
80.18956456754025
 48
0.0
 49
0.0
140
0.0
141
0.0
142
1.0
143
1.0
 70
  2788
 72
     0
 73
     0
 74
     1
  7
OKIColorShaded.ctb
 75
     0
147
2.47181767072874
 76
     0
 77
     2
 78
   300
148
-75.74468520391772
149
-27.53050504688192
1001
ACAD_PSEXT
1000
9600 Color 11x17.pc3
1000
OKI C9600(PCL)
1000
Expansion Area
1000

1070
     0
  0
PLOTSETTINGS
  5
1297
102
{ACAD_REACTORS
330
10BB
102
}
330
10BB
100
AcDbPlotSettings
  1
Oki9600 11x17 Color Half
  2
9600 Color 11x17.pc3
  4
Tabloid
  6

 40
5.027082920074462
 41
5.027085781097412
 42
5.027099609375
 43
5.027069091796875
 44
431.7999877929687
 45
279.3999938964844
 46
184.5658993145439
 47
107.4312420396676
 48
0.0
 49
0.0
140
0.0
141
0.0
142
1.0
143
2.0
 70
  2788
 72
     0
 73
     0
 74
     1
  7
OKIColorShaded.ctb
 75
     0
147
2.47181767072874
 76
     0
 77
     2
 78
   300
148
-75.74468520391772
149
-27.53050504688192
1001
ACAD_PSEXT
1000
9600 Color 11x17.pc3
1000
OKI C9600(PCL)
1000
Expansion Area
1000

1070
     0
  0
PLOTSETTINGS
  5
1298
102
{ACAD_REACTORS
330
10BB
102
}
330
10BB
100
AcDbPlotSettings
  1
Oki9600 8x11 BW Fit
  2
9600 BW 8.5x11.pc3
  4
Letter
  6

 40
5.027082920074462
 41
5.027070522308349
 42
5.027099609375
 43
5.027084350585937
 44
279.3999938964844
 45
215.8999938964844
 46
35.28131763668624
 47
0.0000000000000033
 48
0.0
 49
0.0
140
0.0
141
0.0
142
1.0
143
0.5293607604865011
 70
  2804
 72
     0
 73
     0
 74
     1
  7
OKIB&WShaded.ctb
 75
     0
147
1.889070884439876
 76
     0
 77
     2
 78
   300
148
-75.74468520391772
149
-27.53050504688192
1001
ACAD_PSEXT
1000
9600 BW 8.5x11.pc3
1000
OKI C9600(PCL)
1000
Expansion Area
1000

1070
     0
  0
PLOTSETTINGS
  5
1299
102
{ACAD_REACTORS
330
10BB
102
}
330
10BB
100
AcDbPlotSettings
  1
Oki9600 8x11 BW Portrait Fit
  2
9600 BW 8.5x11.pc3
  4
Letter
  6

 40
5.027082920074462
 41
5.027070522308349
 42
5.027099609375
 43
5.027084350585937
 44
279.3999938964844
 45
215.8999938964844
 46
28.09318833520237
 47
-0.0000000000000029
 48
0.0
 49
0.0
140
0.0
141
0.0
142
1.0
143
0.5111981557072135
 70
  2804
 72
     0
 73
     1
 74
     1
  7
OKIB&WShaded.ctb
 75
     0
147
1.956188591127753
 76
     0
 77
     2
 78
   300
148
-75.74468520391772
149
-27.53050504688192
1001
ACAD_PSEXT
1000
9600 BW 8.5x11.pc3
1000
OKI C9600(PCL)
1000
Expansion Area
1000

1070
     0
  0
PLOTSETTINGS
  5
129A
102
{ACAD_REACTORS
330
10BB
102
}
330
10BB
100
AcDbPlotSettings
  1
Oki9600 8x11 Color Fit
  2
9600 Color 8.5x11.pc3
  4
Letter
  6

 40
5.027082920074462
 41
5.027070522308349
 42
5.027099609375
 43
5.027084350585937
 44
279.3999938964844
 45
215.8999938964844
 46
35.28131763668624
 47
0.0000000000000033
 48
0.0
 49
0.0
140
0.0
141
0.0
142
1.0
143
0.5293607604865011
 70
  2804
 72
     0
 73
     0
 74
     1
  7
OKIColorShaded.ctb
 75
     0
147
1.889070884439876
 76
     0
 77
     2
 78
   300
148
-75.74468520391772
149
-27.53050504688192
1001
ACAD_PSEXT
1000
9600 Color 8.5x11.pc3
1000
OKI C9600(PCL)
1000
Expansion Area
1000

1070
     0
  0
PLOTSETTINGS
  5
129B
102
{ACAD_REACTORS
330
10BB
102
}
330
10BB
100
AcDbPlotSettings
  1
Oki9600 8x11 Color Portrait Fit
  2
9600 Color 8.5x11.pc3
  4
Letter
  6

 40
5.027082920074462
 41
5.027070522308349
 42
5.027099609375
 43
5.027084350585937
 44
279.3999938964844
 45
215.8999938964844
 46
28.09318833520237
 47
-0.0000000000000029
 48
0.0
 49
0.0
140
0.0
141
0.0
142
1.0
143
0.5111981557072135
 70
  2804
 72
     0
 73
     1
 74
     1
  7
OKIColorShaded.ctb
 75
     0
147
1.956188591127753
 76
     0
 77
     2
 78
   300
148
-75.74468520391772
149
-27.53050504688192
1001
ACAD_PSEXT
1000
9600 Color 8.5x11.pc3
1000
OKI C9600(PCL)
1000
Expansion Area
1000

1070
     0
  0
PLOTSETTINGS
  5
129C
102
{ACAD_REACTORS
330
10BB
102
}
330
10BB
100
AcDbPlotSettings
  1
OKI9600 B&W 11x17
  2
9600 BW 11x17.pc3
  4
Tabloid
  6

 40
5.027082920074462
 41
5.027085781097412
 42
5.027099609375
 43
5.027069091796875
 44
431.7999877929687
 45
279.3999938964844
 46
72.80024645976547
 47
-0.0000000000000027
 48
0.0
 49
0.0
140
0.0
141
0.0
142
1.0
143
0.3496652028822988
 70
 11956
 72
     0
 73
     0
 74
     1
  7
OKIB&WShaded.ctb
 75
     0
147
2.859878511664802
 76
     0
 77
     2
 78
   300
148
-119.4582094169044
149
-58.17053554795709
1001
ACAD_PSEXT
1000
9600 BW 11x17.pc3
1000
OKI C9600(PCL)
1000
Expansion Area
1000

1070
     0
  0
PLOTSETTINGS
  5
129D
102
{ACAD_REACTORS
330
10BB
102
}
330
10BB
100
AcDbPlotSettings
  1
OKI9600 B&W 8.5x11
  2
9600 BW 8.5x11.pc3
  4
Letter
  6

 40
5.027082920074462
 41
5.027070522308349
 42
5.027099609375
 43
5.027084350585937
 44
279.3999938964844
 45
215.8999938964844
 46
29.15175911978468
 47
0.0000000000000065
 48
0.0
 49
0.0
140
0.0
141
0.0
142
1.0
143
0.4575310722549676
 70
 11956
 72
     0
 73
     0
 74
     1
  7
OKIB&WShaded.ctb
 75
     0
147
2.185643906262899
 76
     0
 77
     2
 78
   300
148
-119.4582094169044
149
-58.17053554795709
1001
ACAD_PSEXT
1000
9600 BW 8.5x11.pc3
1000
OKI C9600(PCL)
1000
Expansion Area
1000

1070
     0
  0
PLOTSETTINGS
  5
129E
102
{ACAD_REACTORS
330
10BB
102
}
330
10BB
100
AcDbPlotSettings
  1
OKI9600 Color 11x17
  2
9600 Color 11x17.pc3
  4
Tabloid
  6

 40
5.027082920074462
 41
5.027085781097412
 42
5.027099609375
 43
5.027069091796875
 44
431.7999877929687
 45
279.3999938964844
 46
72.80024645976547
 47
-0.0000000000000027
 48
0.0
 49
0.0
140
0.0
141
0.0
142
1.0
143
0.3496652028822988
 70
 11956
 72
     0
 73
     0
 74
     1
  7
OKIColorShaded.ctb
 75
     0
147
2.859878511664802
 76
     0
 77
     2
 78
   300
148
-119.4582094169044
149
-58.17053554795709
1001
ACAD_PSEXT
1000
9600 Color 11x17.pc3
1000
OKI C9600(PCL)
1000
Expansion Area
1000

1070
     0
  0
PLOTSETTINGS
  5
129F
102
{ACAD_REACTORS
330
10BB
102
}
330
10BB
100
AcDbPlotSettings
  1
OKI9600 Color 8.5x11
  2
9600 Color 8.5x11.pc3
  4
Letter
  6

 40
5.027082920074462
 41
5.027070522308349
 42
5.027099609375
 43
5.027084350585937
 44
279.3999938964844
 45
215.8999938964844
 46
29.15175911978468
 47
0.0000000000000065
 48
0.0
 49
0.0
140
0.0
141
0.0
142
1.0
143
0.4575310722549676
 70
 11956
 72
     0
 73
     0
 74
     1
  7
OKIColorShaded.ctb
 75
     0
147
2.185643906262899
 76
     0
 77
     2
 78
   300
148
-119.4582094169044
149
-58.17053554795709
1001
ACAD_PSEXT
1000
9600 Color 8.5x11.pc3
1000
OKI C9600(PCL)
1000
Expansion Area
1000

1070
     0
  0
PLOTSETTINGS
  5
12A0
102
{ACAD_REACTORS
330
10BB
102
}
330
10BB
100
AcDbPlotSettings
  1
PHX Kyocera 11x17 Fit
  2
PHX_Kyocera.pc3
  4
Tabloid
  6

 40
4.984749794006347
 41
5.069418907165527
 42
5.069427490234375
 43
4.9847412109375
 44
431.7999877929687
 45
279.3999938964844
 46
80.8206764601584
 47
-0.0000000000000226
 48
0.0
 49
0.0
140
0.0
141
0.0
142
1.0
143
0.4045605917118723
 70
  2740
 72
     0
 73
     0
 74
     1
  7
LaserJet5Shaded.ctb
 75
     0
147
2.471817622592858
 76
     0
 77
     2
 78
   300
148
-75.74468520391772
149
-27.53050504688192
1001
ACAD_PSEXT
1000
PHX_Kyocera.pc3
1000
Kyocera Mita KM-2050 KX
1000
Arizona
1000

1070
     0
  0
PLOTSETTINGS
  5
12A1
102
{ACAD_REACTORS
330
10BB
102
}
330
10BB
100
AcDbPlotSettings
  1
PHX Oki9500 11x17 BW Fit
  2
PHX OKI BW.pc3
  4
Tabloid
  6

 40
5.027082920074462
 41
5.027085781097412
 42
5.027099609375
 43
5.027069091796875
 44
431.7999877929687
 45
279.3999938964844
 46
80.82067130493246
 47
0.0
 48
0.0
 49
0.0
140
0.0
141
0.0
142
1.0
143
0.4045605838335077
 70
  2740
 72
     0
 73
     0
 74
     1
  7
OKIB&WShaded.ctb
 75
     0
147
2.47181767072874
 76
     0
 77
     2
 78
   300
148
-75.74468520391772
149
-27.53050504688192
1001
ACAD_PSEXT
1000
PHX OKI BW.pc3
1000
OKI C9500(PCL)
1000
Arizona
1000

1070
     0
  0
PLOTSETTINGS
  5
12A2
102
{ACAD_REACTORS
330
10BB
102
}
330
10BB
100
AcDbPlotSettings
  1
PHX Oki9500 11x17 BW Half
  2
PHX OKI BW.pc3
  4
Tabloid
  6

 40
5.027082920074462
 41
5.027085781097412
 42
5.027099609375
 43
5.027069091796875
 44
431.7999877929687
 45
279.3999938964844
 46
184.5658993145439
 47
107.4312420396676
 48
0.0
 49
0.0
140
0.0
141
0.0
142
1.0
143
2.0
 70
  2724
 72
     0
 73
     0
 74
     1
  7
OKIB&WShaded.ctb
 75
     0
147
2.47181767072874
 76
     0
 77
     2
 78
   300
148
-75.74468520391772
149
-27.53050504688192
1001
ACAD_PSEXT
1000
PHX OKI BW.pc3
1000
OKI C9500(PCL)
1000
Arizona
1000

1070
     0
  0
ACDBPLACEHOLDER
  5
10B2
102
{ACAD_REACTORS
330
10B1
102
}
330
10B1
  0
SCALE
  5
1220
102
{ACAD_REACTORS
330
121F
102
}
330
121F
100
AcDbScale
 70
     0
300
1:1
140
1.0
141
1.0
290
     1
  0
SCALE
  5
1221
102
{ACAD_REACTORS
330
121F
102
}
330
121F
100
AcDbScale
 70
     0
300
1:2
140
1.0
141
2.0
290
     0
  0
SCALE
  5
1222
102
{ACAD_REACTORS
330
121F
102
}
330
121F
100
AcDbScale
 70
     0
300
1:4
140
1.0
141
4.0
290
     0
  0
SCALE
  5
1223
102
{ACAD_REACTORS
330
121F
102
}
330
121F
100
AcDbScale
 70
     0
300
1:5
140
1.0
141
5.0
290
     0
  0
SCALE
  5
1224
102
{ACAD_REACTORS
330
121F
102
}
330
121F
100
AcDbScale
 70
     0
300
1:8
140
1.0
141
8.0
290
     0
  0
SCALE
  5
1225
102
{ACAD_REACTORS
330
121F
102
}
330
121F
100
AcDbScale
 70
     0
300
1:10
140
1.0
141
10.0
290
     0
  0
SCALE
  5
1226
102
{ACAD_REACTORS
330
121F
102
}
330
121F
100
AcDbScale
 70
     0
300
1:16
140
1.0
141
16.0
290
     0
  0
SCALE
  5
1227
102
{ACAD_REACTORS
330
121F
102
}
330
121F
100
AcDbScale
 70
     0
300
1:20
140
1.0
141
20.0
290
     0
  0
SCALE
  5
1228
102
{ACAD_REACTORS
330
121F
102
}
330
121F
100
AcDbScale
 70
     0
300
1:30
140
1.0
141
30.0
290
     0
  0
SCALE
  5
1229
102
{ACAD_REACTORS
330
121F
102
}
330
121F
100
AcDbScale
 70
     0
300
1:40
140
1.0
141
40.0
290
     0
  0
SCALE
  5
122A
102
{ACAD_REACTORS
330
121F
102
}
330
121F
100
AcDbScale
 70
     0
300
1:50
140
1.0
141
50.0
290
     0
  0
SCALE
  5
122B
102
{ACAD_REACTORS
330
121F
102
}
330
121F
100
AcDbScale
 70
     0
300
1:100
140
1.0
141
100.0
290
     0
  0
SCALE
  5
122C
102
{ACAD_REACTORS
330
121F
102
}
330
121F
100
AcDbScale
 70
     0
300
2:1
140
2.0
141
1.0
290
     0
  0
SCALE
  5
122D
102
{ACAD_REACTORS
330
121F
102
}
330
121F
100
AcDbScale
 70
     0
300
4:1
140
4.0
141
1.0
290
     0
  0
SCALE
  5
122E
102
{ACAD_REACTORS
330
121F
102
}
330
121F
100
AcDbScale
 70
     0
300
8:1
140
8.0
141
1.0
290
     0
  0
SCALE
  5
122F
102
{ACAD_REACTORS
330
121F
102
}
330
121F
100
AcDbScale
 70
     0
300
10:1
140
10.0
141
1.0
290
     0
  0
SCALE
  5
1230
102
{ACAD_REACTORS
330
121F
102
}
330
121F
100
AcDbScale
 70
     0
300
100:1
140
100.0
141
1.0
290
     0
  0
SCALE
  5
1231
102
{ACAD_REACTORS
330
121F
102
}
330
121F
100
AcDbScale
 70
     0
300
1/128" = 1'-0"
140
0.0078125
141
12.0
290
     0
  0
SCALE
  5
1232
102
{ACAD_REACTORS
330
121F
102
}
330
121F
100
AcDbScale
 70
     0
300
1/64" = 1'-0"
140
0.015625
141
12.0
290
     0
  0
SCALE
  5
1233
102
{ACAD_REACTORS
330
121F
102
}
330
121F
100
AcDbScale
 70
     0
300
1/32" = 1'-0"
140
0.03125
141
12.0
290
     0
  0
SCALE
  5
1234
102
{ACAD_REACTORS
330
121F
102
}
330
121F
100
AcDbScale
 70
     0
300
1/16" = 1'-0"
140
0.0625
141
12.0
290
     0
  0
SCALE
  5
1235
102
{ACAD_REACTORS
330
121F
102
}
330
121F
100
AcDbScale
 70
     0
300
3/32" = 1'-0"
140
0.09375
141
12.0
290
     0
  0
SCALE
  5
1236
102
{ACAD_REACTORS
330
121F
102
}
330
121F
100
AcDbScale
 70
     0
300
1/8" = 1'-0"
140
0.125
141
12.0
290
     0
  0
SCALE
  5
1237
102
{ACAD_REACTORS
330
121F
102
}
330
121F
100
AcDbScale
 70
     0
300
3/16" = 1'-0"
140
0.1875
141
12.0
290
     0
  0
SCALE
  5
1238
102
{ACAD_REACTORS
330
121F
102
}
330
121F
100
AcDbScale
 70
     0
300
1/4" = 1'-0"
140
0.25
141
12.0
290
     0
  0
SCALE
  5
1239
102
{ACAD_REACTORS
330
121F
102
}
330
121F
100
AcDbScale
 70
     0
300
3/8" = 1'-0"
140
0.375
141
12.0
290
     0
  0
SCALE
  5
123A
102
{ACAD_REACTORS
330
121F
102
}
330
121F
100
AcDbScale
 70
     0
300
1/2" = 1'-0"
140
0.5
141
12.0
290
     0
  0
SCALE
  5
123B
102
{ACAD_REACTORS
330
121F
102
}
330
121F
100
AcDbScale
 70
     0
300
3/4" = 1'-0"
140
0.75
141
12.0
290
     0
  0
SCALE
  5
123C
102
{ACAD_REACTORS
330
121F
102
}
330
121F
100
AcDbScale
 70
     0
300
1" = 1'-0"
140
1.0
141
12.0
290
     0
  0
SCALE
  5
123D
102
{ACAD_REACTORS
330
121F
102
}
330
121F
100
AcDbScale
 70
     0
300
1-1/2" = 1'-0"
140
1.5
141
12.0
290
     0
  0
SCALE
  5
123E
102
{ACAD_REACTORS
330
121F
102
}
330
121F
100
AcDbScale
 70
     0
300
3" = 1'-0"
140
3.0
141
12.0
290
     0
  0
SCALE
  5
123F
102
{ACAD_REACTORS
330
121F
102
}
330
121F
100
AcDbScale
 70
     0
300
6" = 1'-0"
140
6.0
141
12.0
290
     0
  0
SCALE
  5
1240
102
{ACAD_REACTORS
330
121F
102
}
330
121F
100
AcDbScale
 70
     0
300
1'-0" = 1'-0"
140
12.0
141
12.0
290
     0
  0
TABLESTYLE
  5
121E
102
{ACAD_XDICTIONARY
360
12BA
102
}
102
{ACAD_REACTORS
330
121D
102
}
330
121D
100
AcDbTableStyle
  3
Standard
 70
     0
 71
     0
 40
0.06
 41
0.06
280
     0
281
     0
  7
STANDARD
140
0.18
170
     2
 62
     0
 63
     7
283
     0
274
    -2
284
     1
 64
     0
275
    -2
285
     1
 65
     0
276
    -2
286
     1
 66
     0
277
    -2
287
     1
 67
     0
278
    -2
288
     1
 68
     0
279
    -2
289
     1
 69
     0
  7
STANDARD
140
0.25
170
     5
 62
     0
 63
     7
283
     0
274
    -2
284
     1
 64
     0
275
    -2
285
     1
 65
     0
276
    -2
286
     1
 66
     0
277
    -2
287
     1
 67
     0
278
    -2
288
     1
 68
     0
279
    -2
289
     1
 69
     0
  7
STANDARD
140
0.18
170
     5
 62
     0
 63
     7
283
     0
274
    -2
284
     1
 64
     0
275
    -2
285
     1
 65
     0
276
    -2
286
     1
 66
     0
277
    -2
287
     1
 67
     0
278
    -2
288
     1
 68
     0
279
    -2
289
     1
 69
     0
  0
VISUALSTYLE
  5
1211
102
{ACAD_REACTORS
330
120B
102
}
330
120B
100
AcDbVisualStyle
  2
2dWireframe
 70
     4
 71
     0
 72
     2
 73
     0
 90
        0
 40
-0.6
 41
-30.0
 62
     5
 63
     7
421
 16777215
 74
     1
 91
        4
 64
     7
 65
   257
 75
     1
175
     1
 42
1.0
 92
        0
 66
   257
 43
1.0
 76
     1
 77
     6
 78
     2
 67
     7
 79
     5
170
     0
171
     0
290
     0
174
     0
 93
        1
 44
0.0
173
     0
291
     0
 45
0.0
1001
ACAD
1000
AcDbSavedByObjectVersion
1070
     0
  0
VISUALSTYLE
  5
1213
102
{ACAD_REACTORS
330
120B
102
}
330
120B
100
AcDbVisualStyle
  2
3D Hidden
 70
     6
 71
     1
 72
     2
 73
     2
 90
        0
 40
-0.6
 41
-30.0
 62
     5
 63
     7
421
 16777215
 74
     2
 91
        2
 64
     7
 65
   257
 75
     2
175
     1
 42
40.0
 92
        0
 66
   257
 43
1.0
 76
     1
 77
     6
 78
     2
 67
     7
 79
     3
170
     0
171
     0
290
     0
174
     0
 93
        1
 44
0.0
173
     0
291
     0
 45
0.0
1001
ACAD
1000
AcDbSavedByObjectVersion
1070
     0
  0
VISUALSTYLE
  5
1212
102
{ACAD_REACTORS
330
120B
102
}
330
120B
100
AcDbVisualStyle
  2
3dWireframe
 70
     5
 71
     0
 72
     2
 73
     0
 90
        0
 40
-0.6
 41
-30.0
 62
     5
 63
     7
421
 16777215
 74
     1
 91
        4
 64
     7
 65
   257
 75
     1
175
     1
 42
1.0
 92
        0
 66
   257
 43
1.0
 76
     1
 77
     6
 78
     2
 67
     7
 79
     5
170
     0
171
     0
290
     0
174
     0
 93
        1
 44
0.0
173
     0
291
     0
 45
0.0
1001
ACAD
1000
AcDbSavedByObjectVersion
1070
     0
  0
VISUALSTYLE
  5
1210
102
{ACAD_REACTORS
330
120B
102
}
330
120B
100
AcDbVisualStyle
  2
Basic
 70
     7
 71
     1
 72
     0
 73
     1
 90
        0
 40
-0.6
 41
-30.0
 62
     5
 63
     7
421
 16777215
 74
     0
 91
        4
 64
     7
 65
   257
 75
     1
175
     1
 42
1.0
 92
        8
 66
     7
 43
1.0
 76
     1
 77
     6
 78
     2
 67
     7
 79
     5
170
     0
171
     0
290
     0
174
     0
 93
        1
 44
0.0
173
     0
291
     1
 45
0.0
1001
ACAD
1000
AcDbSavedByObjectVersion
1070
     0
  0
VISUALSTYLE
  5
1217
102
{ACAD_REACTORS
330
120B
102
}
330
120B
100
AcDbVisualStyle
  2
Brighten
 70
    12
 71
     2
 72
     2
 73
     0
 90
        0
 40
-0.6
 41
-30.0
 62
     5
 63
     7
421
 16777215
 74
     1
 91
        4
 64
     7
 65
   257
 75
     1
175
     1
 42
1.0
 92
        8
 66
     7
 43
1.0
 76
     1
 77
     6
 78
     2
 67
     7
 79
     5
170
     0
171
     0
290
     0
174
     0
 93
        1
 44
50.0
173
     0
291
     1
 45
0.0
1001
ACAD
1000
AcDbSavedByObjectVersion
1070
     0
  0
VISUALSTYLE
  5
121B
102
{ACAD_REACTORS
330
120B
102
}
330
120B
100
AcDbVisualStyle
  2
ColorChange
 70
    16
 71
     2
 72
     2
 73
     3
 90
        0
 40
-0.6
 41
-30.0
 62
     5
 63
     8
421
  8421504
 74
     1
 91
        4
 64
     7
 65
   257
 75
     1
175
     1
 42
1.0
 92
        8
 66
     8
424
  8421504
 43
1.0
 76
     1
 77
     6
 78
     2
 67
     7
 79
     5
170
     0
171
     0
290
     0
174
     0
 93
        1
 44
0.0
173
     0
291
     1
 45
0.0
1001
ACAD
1000
AcDbSavedByObjectVersion
1070
     0
  0
VISUALSTYLE
  5
1214
102
{ACAD_REACTORS
330
120B
102
}
330
120B
100
AcDbVisualStyle
  2
Conceptual
 70
     9
 71
     3
 72
     2
 73
     0
 90
        0
 40
-0.6
 41
-30.0
 62
     5
 63
     7
421
 16777215
 74
     2
 91
        2
 64
     7
 65
   257
 75
     1
175
     1
 42
40.0
 92
        8
 66
     7
 43
1.0
 76
     1
 77
     6
 78
     2
 67
     7
 79
     3
170
     0
171
     0
290
     0
174
     0
 93
        1
 44
0.0
173
     0
291
     0
 45
0.0
1001
ACAD
1000
AcDbSavedByObjectVersion
1070
     0
  0
VISUALSTYLE
  5
1216
102
{ACAD_REACTORS
330
120B
102
}
330
120B
100
AcDbVisualStyle
  2
Dim
 70
    11
 71
     2
 72
     2
 73
     0
 90
        0
 40
-0.6
 41
-30.0
 62
     5
 63
     7
421
 16777215
 74
     1
 91
        4
 64
     7
 65
   257
 75
     1
175
     1
 42
1.0
 92
        8
 66
     7
 43
1.0
 76
     1
 77
     6
 78
     2
 67
     7
 79
     5
170
     0
171
     0
290
     0
174
     0
 93
        1
 44
-50.0
173
     0
291
     1
 45
0.0
1001
ACAD
1000
AcDbSavedByObjectVersion
1070
     0
  0
VISUALSTYLE
  5
121A
102
{ACAD_REACTORS
330
120B
102
}
330
120B
100
AcDbVisualStyle
  2
Facepattern
 70
    15
 71
     2
 72
     2
 73
     0
 90
        0
 40
-0.6
 41
-30.0
 62
     5
 63
     7
421
 16777215
 74
     1
 91
        4
 64
     7
 65
   257
 75
     1
175
     1
 42
1.0
 92
        8
 66
     7
 43
1.0
 76
     1
 77
     6
 78
     2
 67
     7
 79
     5
170
     0
171
     0
290
     0
174
     0
 93
        1
 44
0.0
173
     0
291
     1
 45
0.0
1001
ACAD
1000
AcDbSavedByObjectVersion
1070
     0
  0
VISUALSTYLE
  5
120C
102
{ACAD_REACTORS
330
120B
102
}
330
120B
100
AcDbVisualStyle
  2
Flat
 70
     0
 71
     2
 72
     1
 73
     1
 90
        2
 40
-0.6
 41
30.0
 62
     5
 63
     7
421
 16777215
 74
     0
 91
        4
 64
     7
 65
   257
 75
     1
175
     1
 42
1.0
 92
        8
 66
     7
 43
1.0
 76
     1
 77
     6
 78
     2
 67
     7
 79
     5
170
     0
171
     0
290
     0
174
     0
 93
       13
 44
0.0
173
     0
291
     1
 45
0.0
1001
ACAD
1000
AcDbSavedByObjectVersion
1070
     0
  0
VISUALSTYLE
  5
120D
102
{ACAD_REACTORS
330
120B
102
}
330
120B
100
AcDbVisualStyle
  2
FlatWithEdges
 70
     1
 71
     2
 72
     1
 73
     1
 90
        2
 40
-0.6
 41
30.0
 62
     5
 63
     7
421
 16777215
 74
     1
 91
        4
 64
     7
 65
   257
 75
     1
175
     1
 42
1.0
 92
        0
 66
   257
 43
1.0
 76
     1
 77
     6
 78
     2
 67
     7
 79
     5
170
     0
171
     0
290
     0
174
     0
 93
       13
 44
0.0
173
     0
291
     1
 45
0.0
1001
ACAD
1000
AcDbSavedByObjectVersion
1070
     0
  0
VISUALSTYLE
  5
120E
102
{ACAD_REACTORS
330
120B
102
}
330
120B
100
AcDbVisualStyle
  2
Gouraud
 70
     2
 71
     2
 72
     2
 73
     1
 90
        2
 40
-0.6
 41
30.0
 62
     5
 63
     7
421
 16777215
 74
     0
 91
        4
 64
     7
 65
   257
 75
     1
175
     1
 42
1.0
 92
        0
 66
     7
 43
1.0
 76
     1
 77
     6
 78
     2
 67
     7
 79
     5
170
     0
171
     0
290
     0
174
     0
 93
       13
 44
0.0
173
     0
291
     1
 45
0.0
1001
ACAD
1000
AcDbSavedByObjectVersion
1070
     0
  0
VISUALSTYLE
  5
120F
102
{ACAD_REACTORS
330
120B
102
}
330
120B
100
AcDbVisualStyle
  2
GouraudWithEdges
 70
     3
 71
     2
 72
     2
 73
     1
 90
        2
 40
-0.6
 41
30.0
 62
     5
 63
     7
421
 16777215
 74
     1
 91
        4
 64
     7
 65
   257
 75
     1
175
     1
 42
1.0
 92
        0
 66
   257
 43
1.0
 76
     1
 77
     6
 78
     2
 67
     7
 79
     5
170
     0
171
     0
290
     0
174
     0
 93
       13
 44
0.0
173
     0
291
     1
 45
0.0
1001
ACAD
1000
AcDbSavedByObjectVersion
1070
     0
  0
VISUALSTYLE
  5
1219
102
{ACAD_REACTORS
330
120B
102
}
330
120B
100
AcDbVisualStyle
  2
Linepattern
 70
    14
 71
     2
 72
     2
 73
     0
 90
        0
 40
-0.6
 41
-30.0
 62
     5
 63
     7
421
 16777215
 74
     1
 91
        4
 64
     7
 65
   257
 75
     7
175
     7
 42
1.0
 92
        8
 66
     7
 43
1.0
 76
     1
 77
     6
 78
     2
 67
     7
 79
     5
170
     0
171
     0
290
     0
174
     0
 93
        1
 44
0.0
173
     0
291
     1
 45
0.0
1001
ACAD
1000
AcDbSavedByObjectVersion
1070
     0
  0
VISUALSTYLE
  5
1215
102
{ACAD_REACTORS
330
120B
102
}
330
120B
100
AcDbVisualStyle
  2
Realistic
 70
     8
 71
     2
 72
     2
 73
     0
 90
        0
 40
-0.6
 41
-30.0
 62
     5
 63
     7
421
 16777215
 74
     1
 91
        0
 64
     7
 65
   257
 75
     1
175
     1
 42
1.0
 92
        8
 66
     8
424
  7895160
 43
1.0
 76
     1
 77
     6
 78
     2
 67
     7
 79
     5
170
     0
171
     0
290
     0
174
     0
 93
       13
 44
0.0
173
     0
291
     0
 45
0.0
1001
ACAD
1000
AcDbSavedByObjectVersion
1070
     0
  0
VISUALSTYLE
  5
1218
102
{ACAD_REACTORS
330
120B
102
}
330
120B
100
AcDbVisualStyle
  2
Thicken
 70
    13
 71
     2
 72
     2
 73
     0
 90
        0
 40
-0.6
 41
-30.0
 62
     5
 63
     7
421
 16777215
 74
     1
 91
        4
 64
     7
 65
   257
 75
     1
175
     1
 42
1.0
 92
       12
 66
     7
 43
1.0
 76
     1
 77
     6
 78
     2
 67
     7
 79
     5
170
     0
171
     0
290
     0
174
     0
 93
        1
 44
0.0
173
     0
291
     1
 45
0.0
1001
ACAD
1000
AcDbSavedByObjectVersion
1070
     0
  0
DICTIONARYVAR
  5
12C0
102
{ACAD_REACTORS
330
10DD
102
}
330
10DD
100
DictionaryVariables
280
     0
  1
1:1
  0
DICTIONARYVAR
  5
12BE
102
{ACAD_REACTORS
330
10DD
102
}
330
10DD
100
DictionaryVariables
280
     0
  1
STANDARD
  0
DICTIONARYVAR
  5
12BD
102
{ACAD_REACTORS
330
10DD
102
}
330
10DD
100
DictionaryVariables
280
     0
  1
STANDARD
  0
DICTIONARYVAR
  5
10E0
102
{ACAD_REACTORS
330
10DD
102
}
330
10DD
100
DictionaryVariables
280
     0
  1
1
  0
DICTIONARYVAR
  5
10DF
102
{ACAD_REACTORS
330
10DD
102
}
330
10DD
100
DictionaryVariables
280
     0
  1
1
  0
DICTIONARYVAR
  5
1F91
102
{ACAD_REACTORS
330
10DD
102
}
330
10DD
100
DictionaryVariables
280
     0
  1
0
  0
DICTIONARYVAR
  5
12C2
102
{ACAD_REACTORS
330
10DD
102
}
330
10DD
100
DictionaryVariables
280
     0
  1
15
  0
DICTIONARYVAR
  5
12C1
102
{ACAD_REACTORS
330
10DD
102
}
330
10DD
100
DictionaryVariables
280
     0
  1
0
  0
DICTIONARYVAR
  5
12BF
102
{ACAD_REACTORS
330
10DD
102
}
330
10DD
100
DictionaryVariables
280
     0
  1
0
  0
DICTIONARYVAR
  5
10DE
102
{ACAD_REACTORS
330
10DD
102
}
330
10DD
100
DictionaryVariables
280
     0
  1
1
  0
XRECORD
  5
1F75
102
{ACAD_REACTORS
330
1F72
102
}
330
1F72
100
AcDbXrecord
280
     1
  1
_0100-
  1
*0100-*
  1
*
  1
*
 70
     0
  1
*
  1
*
  0
XRECORD
  5
1F74
102
{ACAD_REACTORS
330
1F72
102
}
330
1F72
100
AcDbXrecord
280
     1
  1
_0280-
  1
*0280-*
  1
*
  1
*
 70
     0
  1
*
  1
*
  0
XRECORD
  5
1F78
102
{ACAD_REACTORS
330
1F72
102
}
330
1F72
100
AcDbXrecord
280
     1
  1
_Color 253
  1
*
  1
253
  1
*
 70
     0
  1
*
  1
*
  0
XRECORD
  5
1F76
102
{ACAD_REACTORS
330
1F72
102
}
330
1F72
100
AcDbXrecord
280
     1
  1
_Color 8
  1
*
  1
8
  1
*
 70
     0
  1
*
  1
*
  0
XRECORD
  5
1F77
102
{ACAD_REACTORS
330
1F72
102
}
330
1F72
100
AcDbXrecord
280
     1
  1
_Color 84
  1
*
  1
84
  1
*
 70
     0
  1
*
  1
*
  0
XRECORD
  5
1F7D
102
{ACAD_REACTORS
330
1F72
102
}
330
1F72
100
AcDbXrecord
280
     1
  1
_Contours
  1
*contour*,*cont-*,*cp cont*,*p-cont*
  1
*
  1
*
 70
     0
  1
*
  1
*
  0
XRECORD
  5
1F79
102
{ACAD_REACTORS
330
1F72
102
}
330
1F72
100
AcDbXrecord
280
     1
  1
_Existing
  1
*exist*
  1
*
  1
*
 70
     0
  1
*
  1
*
  0
XRECORD
  5
1F7C
102
{ACAD_REACTORS
330
1F72
102
}
330
1F72
100
AcDbXrecord
280
     1
  1
_Hardscape
  1
*sidewalk*,*sw*,*curb*,*walk*,*-lip*,*tbc*
  1
*
  1
*
 70
     0
  1
*
  1
*
  0
XRECORD
  5
1F73
102
{ACAD_REACTORS
330
1F72
102
}
330
1F72
100
AcDbXrecord
280
     1
  1
_NoXref
  1
~*|*
  1
*
  1
*
 70
     0
  1
*
  1
*
  0
XRECORD
  5
1F7A
102
{ACAD_REACTORS
330
1F72
102
}
330
1F72
100
AcDbXrecord
280
     1
  1
_Row
  1
*row*
  1
*
  1
*
 70
     0
  1
*
  1
*
  0
XRECORD
  5
1F7B
102
{ACAD_REACTORS
330
1F72
102
}
330
1F72
100
AcDbXrecord
280
     1
  1
_Utility
  1
*ut-*,*utility*,*wat*
  1
*
  1
*
 70
     0
  1
*
  1
*
  0
DICTIONARY
  5
11FC
330
11FB
100
AcDbDictionary
280
     1
281
     1
  3
ACAD_XREC_ROUNDTRIP
360
1F96
  3
BUMPTILE
360
11FE
  3
DIFFUSETILE
360
11FD
  3
OPACITYTILE
360
1201
  3
REFLECTIONTILE
360
1200
  3
REFRACTIONTILE
360
1202
  3
SPECULARTILE
360
11FF
  0
DICTIONARY
  5
11F4
330
11F3
100
AcDbDictionary
280
     1
281
     1
  3
ACAD_XREC_ROUNDTRIP
360
1F95
  3
BUMPTILE
360
11F6
  3
DIFFUSETILE
360
11F5
  3
OPACITYTILE
360
11F9
  3
REFLECTIONTILE
360
11F8
  3
REFRACTIONTILE
360
11FA
  3
SPECULARTILE
360
11F7
  0
DICTIONARY
  5
1204
330
1203
100
AcDbDictionary
280
     1
281
     1
  3
ACAD_XREC_ROUNDTRIP
360
1F97
  3
BUMPTILE
360
1206
  3
DIFFUSETILE
360
1205
  3
OPACITYTILE
360
1209
  3
REFLECTIONTILE
360
1208
  3
REFRACTIONTILE
360
120A
  3
SPECULARTILE
360
1207
  0
DICTIONARY
  5
12BA
330
121E
100
AcDbDictionary
280
     1
281
     1
  3
ACAD_ROUNDTRIP_2008_TABLESTYLE_CELLSTYLEMAP
360
1F92
  3
ACAD_XREC_ROUNDTRIP
360
1F98
  0
XRECORD
  5
1F96
102
{ACAD_REACTORS
330
11FC
102
}
330
11FC
100
AcDbXrecord
280
     1
102
MATERIAL
148
0.0
149
0.0
149
0.0
 93
        0
 94
      127
282
     0
 72
     0
 77
     0
171
     0
175
     0
179
     0
273
     0
  0
XRECORD
  5
11FE
102
{ACAD_REACTORS
330
11FC
102
}
330
11FC
100
AcDbXrecord
280
     1
270
     1
271
     1
  0
XRECORD
  5
11FD
102
{ACAD_REACTORS
330
11FC
102
}
330
11FC
100
AcDbXrecord
280
     1
270
     1
271
     1
  0
XRECORD
  5
1201
102
{ACAD_REACTORS
330
11FC
102
}
330
11FC
100
AcDbXrecord
280
     1
270
     1
271
     1
  0
XRECORD
  5
1200
102
{ACAD_REACTORS
330
11FC
102
}
330
11FC
100
AcDbXrecord
280
     1
270
     1
271
     1
  0
XRECORD
  5
1202
102
{ACAD_REACTORS
330
11FC
102
}
330
11FC
100
AcDbXrecord
280
     1
270
     1
271
     1
  0
XRECORD
  5
11FF
102
{ACAD_REACTORS
330
11FC
102
}
330
11FC
100
AcDbXrecord
280
     1
270
     1
271
     1
  0
XRECORD
  5
1F95
102
{ACAD_REACTORS
330
11F4
102
}
330
11F4
100
AcDbXrecord
280
     1
102
MATERIAL
148
0.0
149
0.0
149
0.0
 93
        0
 94
      127
282
     0
 72
     0
 77
     0
171
     0
175
     0
179
     0
273
     0
  0
XRECORD
  5
11F6
102
{ACAD_REACTORS
330
11F4
102
}
330
11F4
100
AcDbXrecord
280
     1
270
     1
271
     1
  0
XRECORD
  5
11F5
102
{ACAD_REACTORS
330
11F4
102
}
330
11F4
100
AcDbXrecord
280
     1
270
     1
271
     1
  0
XRECORD
  5
11F9
102
{ACAD_REACTORS
330
11F4
102
}
330
11F4
100
AcDbXrecord
280
     1
270
     1
271
     1
  0
XRECORD
  5
11F8
102
{ACAD_REACTORS
330
11F4
102
}
330
11F4
100
AcDbXrecord
280
     1
270
     1
271
     1
  0
XRECORD
  5
11FA
102
{ACAD_REACTORS
330
11F4
102
}
330
11F4
100
AcDbXrecord
280
     1
270
     1
271
     1
  0
XRECORD
  5
11F7
102
{ACAD_REACTORS
330
11F4
102
}
330
11F4
100
AcDbXrecord
280
     1
270
     1
271
     1
  0
XRECORD
  5
1F97
102
{ACAD_REACTORS
330
1204
102
}
330
1204
100
AcDbXrecord
280
     1
102
MATERIAL
148
0.0
149
0.0
149
0.0
 93
        0
 94
      127
282
     0
 72
     0
 77
     0
171
     0
175
     0
179
     0
273
     0
  0
XRECORD
  5
1206
102
{ACAD_REACTORS
330
1204
102
}
330
1204
100
AcDbXrecord
280
     1
270
     1
271
     1
  0
XRECORD
  5
1205
102
{ACAD_REACTORS
330
1204
102
}
330
1204
100
AcDbXrecord
280
     1
270
     1
271
     1
  0
XRECORD
  5
1209
102
{ACAD_REACTORS
330
1204
102
}
330
1204
100
AcDbXrecord
280
     1
270
     1
271
     1
  0
XRECORD
  5
1208
102
{ACAD_REACTORS
330
1204
102
}
330
1204
100
AcDbXrecord
280
     1
270
     1
271
     1
  0
XRECORD
  5
120A
102
{ACAD_REACTORS
330
1204
102
}
330
1204
100
AcDbXrecord
280
     1
270
     1
271
     1
  0
XRECORD
  5
1207
102
{ACAD_REACTORS
330
1204
102
}
330
1204
100
AcDbXrecord
280
     1
270
     1
271
     1
  0
CELLSTYLEMAP
  5
1F92
102
{ACAD_REACTORS
330
12BA
102
}
330
12BA
100
AcDbCellStyleMap
 90
        3
300
CELLSTYLE
  1
TABLEFORMAT_BEGIN
 90
        5
170
     1
 91
        0
 92
    32768
 62
   257
 93
        1
300
CONTENTFORMAT
  1
CONTENTFORMAT_BEGIN
 90
        0
 91
        0
 92
      512
 93
        0
300

 40
0.0
140
1.0
 94
        5
 62
     0
340
10B4
144
0.25
309
CONTENTFORMAT_END
171
     0
 94
        0
309
TABLEFORMAT_END
  1
CELLSTYLE_BEGIN
 90
        1
 91
        1
300
_TITLE
309
CELLSTYLE_END
300
CELLSTYLE
  1
TABLEFORMAT_BEGIN
 90
        5
170
     1
 91
        0
 92
        0
 62
   257
 93
        1
300
CONTENTFORMAT
  1
CONTENTFORMAT_BEGIN
 90
        0
 91
        0
 92
      512
 93
        0
300

 40
0.0
140
1.0
 94
        5
 62
     0
340
10B4
144
0.18
309
CONTENTFORMAT_END
171
     0
 94
        0
309
TABLEFORMAT_END
  1
CELLSTYLE_BEGIN
 90
        2
 91
        1
300
_HEADER
309
CELLSTYLE_END
300
CELLSTYLE
  1
TABLEFORMAT_BEGIN
 90
        5
170
     1
 91
        0
 92
        0
 62
   257
 93
        1
300
CONTENTFORMAT
  1
CONTENTFORMAT_BEGIN
 90
        0
 91
        0
 92
      512
 93
        0
300

 40
0.0
140
1.0
 94
        2
 62
     0
340
10B4
144
0.18
309
CONTENTFORMAT_END
171
     0
 94
        0
309
TABLEFORMAT_END
  1
CELLSTYLE_BEGIN
 90
        3
 91
        2
300
_DATA
309
CELLSTYLE_END
  0
XRECORD
  5
1F98
102
{ACAD_REACTORS
330
12BA
102
}
330
12BA
100
AcDbXrecord
280
     1
102
ACAD_ROUNDTRIP_PRE2007_TABLESTYLE
 90
      512
 91
        0
  1

 92
      512
 93
        0
  2

 94
      512
 95
        0
  3

  0
ENDSEC
  0
EOF
