  0
SECTION
  2
HEADER
  9
$ACADVER
  1
AC1018
  9
$ACADMAINTVER
 70
   104
  9
$DWGCODEPAGE
  3
ANSI_1252
  9
$LASTSAVEDBY
  1
dweyer
  9
$INSBASE
 10
0.0
 20
0.0
 30
0.0
  9
$EXTMIN
 10
-0.7519890073956717
 20
-2.989134051908644
 30
0.0
  9
$EXTMAX
 10
9.291535972612974
 20
7.450865948091355
 30
0.03
  9
$LIMMIN
 10
0.0
 20
0.0
  9
$LIMMAX
 10
12.0
 20
9.0
  9
$ORTHOMODE
 70
     1
  9
$REGENMODE
 70
     1
  9
$FILLMODE
 70
     1
  9
$QTEXTMODE
 70
     0
  9
$MIRRTEXT
 70
     0
  9
$LTSCALE
 40
1.0
  9
$ATTMODE
 70
     1
  9
$TEXTSIZE
 40
0.125
  9
$TRACEWID
 40
0.05
  9
$TEXTSTYLE
  7
ROMANS
  9
$CLAYER
  8
0
  9
$CELTYPE
  6
ByLayer
  9
$CECOLOR
 62
   256
  9
$CELTSCALE
 40
1.0
  9
$DISPSILH
 70
     0
  9
$DIMSCALE
 40
1.0
  9
$DIMASZ
 40
0.18
  9
$DIMEXO
 40
0.0625
  9
$DIMDLI
 40
0.38
  9
$DIMRND
 40
0.0
  9
$DIMDLE
 40
0.0
  9
$DIMEXE
 40
0.125
  9
$DIMTP
 40
0.0
  9
$DIMTM
 40
0.0
  9
$DIMTXT
 40
0.125
  9
$DIMCEN
 40
0.09
  9
$DIMTSZ
 40
0.0
  9
$DIMTOL
 70
     0
  9
$DIMLIM
 70
     0
  9
$DIMTIH
 70
     1
  9
$DIMTOH
 70
     1
  9
$DIMSE1
 70
     0
  9
$DIMSE2
 70
     0
  9
$DIMTAD
 70
     0
  9
$DIMZIN
 70
     0
  9
$DIMBLK
  1

  9
$DIMASO
 70
     1
  9
$DIMSHO
 70
     1
  9
$DIMPOST
  1

  9
$DIMAPOST
  1

  9
$DIMALT
 70
     0
  9
$DIMALTD
 70
     2
  9
$DIMALTF
 40
25.4
  9
$DIMLFAC
 40
1.0
  9
$DIMTOFL
 70
     0
  9
$DIMTVP
 40
0.0
  9
$DIMTIX
 70
     0
  9
$DIMSOXD
 70
     0
  9
$DIMSAH
 70
     0
  9
$DIMBLK1
  1

  9
$DIMBLK2
  1

  9
$DIMSTYLE
  2
STANDARD
  9
$DIMCLRD
 70
   256
  9
$DIMCLRE
 70
   256
  9
$DIMCLRT
 70
   256
  9
$DIMTFAC
 40
1.0
  9
$DIMGAP
 40
0.09
  9
$DIMJUST
 70
     0
  9
$DIMSD1
 70
     0
  9
$DIMSD2
 70
     0
  9
$DIMTOLJ
 70
     1
  9
$DIMTZIN
 70
     0
  9
$DIMALTZ
 70
     0
  9
$DIMALTTZ
 70
     0
  9
$DIMUPT
 70
     0
  9
$DIMDEC
 70
     4
  9
$DIMTDEC
 70
     4
  9
$DIMALTU
 70
     2
  9
$DIMALTTD
 70
     2
  9
$DIMTXSTY
  7
STANDARD
  9
$DIMAUNIT
 70
     0
  9
$DIMADEC
 70
     0
  9
$DIMALTRND
 40
0.0
  9
$DIMAZIN
 70
     0
  9
$DIMDSEP
 70
    46
  9
$DIMATFIT
 70
     3
  9
$DIMFRAC
 70
     0
  9
$DIMLDRBLK
  1

  9
$DIMLUNIT
 70
     2
  9
$DIMLWD
 70
    -1
  9
$DIMLWE
 70
    -1
  9
$DIMTMOVE
 70
     2
  9
$LUNITS
 70
     2
  9
$LUPREC
 70
     3
  9
$SKETCHINC
 40
0.1
  9
$FILLETRAD
 40
0.0
  9
$AUNITS
 70
     0
  9
$AUPREC
 70
     0
  9
$MENU
  1
ACAD
  9
$ELEVATION
 40
0.0
  9
$PELEVATION
 40
0.0
  9
$THICKNESS
 40
0.0
  9
$LIMCHECK
 70
     0
  9
$CHAMFERA
 40
0.0
  9
$CHAMFERB
 40
0.0
  9
$CHAMFERC
 40
0.0
  9
$CHAMFERD
 40
0.0
  9
$SKPOLY
 70
     0
  9
$TDCREATE
 40
2451486.468820486
  9
$TDUCREATE
 40
2451486.718820486
  9
$TDUPDATE
 40
2455344.574945648
  9
$TDUUPDATE
 40
2455344.824945648
  9
$TDINDWG
 40
0.6613791782
  9
$TDUSRTIMER
 40
0.6613791782
  9
$USRTIMER
 70
     1
  9
$ANGBASE
 50
0.0
  9
$ANGDIR
 70
     0
  9
$PDMODE
 70
     0
  9
$PDSIZE
 40
0.0
  9
$PLINEWID
 40
0.0
  9
$SPLFRAME
 70
     0
  9
$SPLINETYPE
 70
     6
  9
$SPLINESEGS
 70
     8
  9
$HANDSEED
  5
1477
  9
$SURFTAB1
 70
     6
  9
$SURFTAB2
 70
     6
  9
$SURFTYPE
 70
     6
  9
$SURFU
 70
     6
  9
$SURFV
 70
     6
  9
$UCSBASE
  2

  9
$UCSNAME
  2

  9
$UCSORG
 10
0.0
 20
0.0
 30
0.0
  9
$UCSXDIR
 10
1.0
 20
0.0
 30
0.0
  9
$UCSYDIR
 10
0.0
 20
1.0
 30
0.0
  9
$UCSORTHOREF
  2

  9
$UCSORTHOVIEW
 70
     0
  9
$UCSORGTOP
 10
0.0
 20
0.0
 30
0.0
  9
$UCSORGBOTTOM
 10
0.0
 20
0.0
 30
0.0
  9
$UCSORGLEFT
 10
0.0
 20
0.0
 30
0.0
  9
$UCSORGRIGHT
 10
0.0
 20
0.0
 30
0.0
  9
$UCSORGFRONT
 10
0.0
 20
0.0
 30
0.0
  9
$UCSORGBACK
 10
0.0
 20
0.0
 30
0.0
  9
$PUCSBASE
  2

  9
$PUCSNAME
  2

  9
$PUCSORG
 10
0.0
 20
0.0
 30
0.0
  9
$PUCSXDIR
 10
1.0
 20
0.0
 30
0.0
  9
$PUCSYDIR
 10
0.0
 20
1.0
 30
0.0
  9
$PUCSORTHOREF
  2

  9
$PUCSORTHOVIEW
 70
     0
  9
$PUCSORGTOP
 10
0.0
 20
0.0
 30
0.0
  9
$PUCSORGBOTTOM
 10
0.0
 20
0.0
 30
0.0
  9
$PUCSORGLEFT
 10
0.0
 20
0.0
 30
0.0
  9
$PUCSORGRIGHT
 10
0.0
 20
0.0
 30
0.0
  9
$PUCSORGFRONT
 10
0.0
 20
0.0
 30
0.0
  9
$PUCSORGBACK
 10
0.0
 20
0.0
 30
0.0
  9
$USERI1
 70
     0
  9
$USERI2
 70
     0
  9
$USERI3
 70
     0
  9
$USERI4
 70
     0
  9
$USERI5
 70
     0
  9
$USERR1
 40
0.0
  9
$USERR2
 40
0.0
  9
$USERR3
 40
0.0
  9
$USERR4
 40
0.0
  9
$USERR5
 40
0.0
  9
$WORLDVIEW
 70
     1
  9
$SHADEDGE
 70
     3
  9
$SHADEDIF
 70
    70
  9
$TILEMODE
 70
     1
  9
$MAXACTVP
 70
    16
  9
$PINSBASE
 10
0.0
 20
0.0
 30
0.0
  9
$PLIMCHECK
 70
     0
  9
$PEXTMIN
 10
1.000000000000000E+20
 20
1.000000000000000E+20
 30
1.000000000000000E+20
  9
$PEXTMAX
 10
-1.000000000000000E+20
 20
-1.000000000000000E+20
 30
-1.000000000000000E+20
  9
$PLIMMIN
 10
0.0
 20
0.0
  9
$PLIMMAX
 10
12.0
 20
9.0
  9
$UNITMODE
 70
     0
  9
$VISRETAIN
 70
     0
  9
$PLINEGEN
 70
     1
  9
$PSLTSCALE
 70
     1
  9
$TREEDEPTH
 70
  3020
  9
$CMLSTYLE
  2
Standard
  9
$CMLJUST
 70
     0
  9
$CMLSCALE
 40
1.0
  9
$PROXYGRAPHICS
 70
     1
  9
$MEASUREMENT
 70
     0
  9
$CELWEIGHT
370
    -1
  9
$ENDCAPS
280
     0
  9
$JOINSTYLE
280
     0
  9
$LWDISPLAY
290
     0
  9
$INSUNITS
 70
     0
  9
$HYPERLINKBASE
  1

  9
$STYLESHEET
  1
full_b&w.ctb
  9
$XEDIT
290
     1
  9
$CEPSNTYPE
380
     0
  9
$PSTYLEMODE
290
     1
  9
$FINGERPRINTGUID
  2
{C63F5BF2-C945-4744-A941-73581E41F46B}
  9
$VERSIONGUID
  2
{44E71AF6-3DFD-4624-847E-5F3FAA2849F5}
  9
$EXTNAMES
290
     1
  9
$PSVPSCALE
 40
0.0
  9
$OLESTARTUP
290
     1
  9
$SORTENTS
280
    48
  9
$INDEXCTL
280
     0
  9
$HIDETEXT
280
     1
  9
$XCLIPFRAME
290
     0
  9
$HALOGAP
280
     0
  9
$OBSCOLOR
 70
   257
  9
$OBSLTYPE
280
     0
  9
$INTERSECTIONDISPLAY
280
     0
  9
$INTERSECTIONCOLOR
 70
   257
  9
$DIMASSOC
280
     1
  9
$PROJECTNAME
  1

  0
ENDSEC
  0
SECTION
  2
CLASSES
  0
CLASS
  1
ACDBDICTIONARYWDFLT
  2
AcDbDictionaryWithDefault
  3
ObjectDBX Classes
 90
        0
 91
        1
280
     0
281
     0
  0
CLASS
  1
DICTIONARYVAR
  2
AcDbDictionaryVar
  3
ObjectDBX Classes
 90
        0
 91
       11
280
     0
281
     0
  0
CLASS
  1
PLOTSETTINGS
  2
AcDbPlotSettings
  3
ObjectDBX Classes
 90
        0
 91
       41
280
     0
281
     0
  0
CLASS
  1
MATERIAL
  2
AcDbMaterial
  3
ObjectDBX Classes
 90
     1153
 91
        3
280
     0
281
     0
  0
CLASS
  1
VISUALSTYLE
  2
AcDbVisualStyle
  3
ObjectDBX Classes
 90
     4095
 91
       16
280
     0
281
     0
  0
CLASS
  1
TABLESTYLE
  2
AcDbTableStyle
  3
ObjectDBX Classes
 90
     4095
 91
        1
280
     0
281
     0
  0
CLASS
  1
SCALE
  2
AcDbScale
  3
ObjectDBX Classes
 90
     1153
 91
       33
280
     0
281
     0
  0
CLASS
  1
MLEADERSTYLE
  2
AcDbMLeaderStyle
  3
ACDB_MLEADERSTYLE_CLASS
 90
     4095
 91
        1
280
     0
281
     0
  0
CLASS
  1
SORTENTSTABLE
  2
AcDbSortentsTable
  3
ObjectDBX Classes
 90
        0
 91
        1
280
     0
281
     0
  0
CLASS
  1
CELLSTYLEMAP
  2
AcDbCellStyleMap
  3
ObjectDBX Classes
 90
     1152
 91
        2
280
     0
281
     0
  0
CLASS
  1
EXACXREFPANELOBJECT
  2
ExAcXREFPanelObject
  3
EXAC_ESW
 90
     1025
 91
        1
280
     0
281
     0
  0
CLASS
  1
NPOCOLLECTION
  2
AcDbImpNonPersistentObjectsCollection
  3
ObjectDBX Classes
 90
     1153
 91
        1
280
     0
281
     0
  0
ENDSEC
  0
SECTION
  2
TABLES
  0
TABLE
  2
VPORT
  5
9A9
102
{ACAD_XDICTIONARY
360
1450
102
}
330
0
100
AcDbSymbolTable
 70
     1
  0
VPORT
  5
1131
330
9A9
100
AcDbSymbolTableRecord
100
AcDbViewportTableRecord
  2
*Active
 70
     0
 10
0.0
 20
0.0
 11
1.0
 21
1.0
 12
4.269773482608651
 22
2.230865948091355
 13
0.0
 23
0.0
 14
0.14
 24
0.14
 15
0.14
 25
0.14
 16
0.0
 26
0.0
 36
1.0
 17
0.0
 27
0.0
 37
0.0
 40
10.53225331369661
 41
2.297935103244837
 42
50.0
 43
0.0
 44
0.0
 50
0.0
 51
0.0
 71
     0
 72
  1000
 73
     1
 74
     1
 75
     0
 76
     0
 77
     0
 78
     0
281
     0
 65
     1
110
0.0
120
0.0
130
0.0
111
1.0
121
0.0
131
0.0
112
0.0
122
1.0
132
0.0
 79
     0
146
0.0
  0
ENDTAB
  0
TABLE
  2
LTYPE
  5
9A6
330
0
100
AcDbSymbolTable
 70
     1
  0
LTYPE
  5
9B4
330
9A6
100
AcDbSymbolTableRecord
100
AcDbLinetypeTableRecord
  2
ByBlock
 70
     0
  3

 72
    65
 73
     0
 40
0.0
  0
LTYPE
  5
9B5
330
9A6
100
AcDbSymbolTableRecord
100
AcDbLinetypeTableRecord
  2
ByLayer
 70
     0
  3

 72
    65
 73
     0
 40
0.0
  0
LTYPE
  5
9B6
330
9A6
100
AcDbSymbolTableRecord
100
AcDbLinetypeTableRecord
  2
CONTINUOUS
 70
     0
  3
Solid line
 72
    65
 73
     0
 40
0.0
  0
ENDTAB
  0
TABLE
  2
LAYER
  5
9A3
102
{ACAD_XDICTIONARY
360
9F3
102
}
330
0
100
AcDbSymbolTable
 70
     5
  0
LAYER
  5
9B1
330
9A3
100
AcDbSymbolTableRecord
100
AcDbLayerTableRecord
  2
0
 70
     0
 62
     7
  6
CONTINUOUS
370
    -3
390
9B0
  0
LAYER
  5
A53
330
9A3
100
AcDbSymbolTableRecord
100
AcDbLayerTableRecord
  2
title
 70
     0
 62
     4
  6
CONTINUOUS
370
    -3
390
9B0
  0
LAYER
  5
ABF
330
9A3
100
AcDbSymbolTableRecord
100
AcDbLayerTableRecord
  2
image
 70
     0
 62
     7
  6
CONTINUOUS
370
    -3
390
9B0
  0
LAYER
  5
AC0
330
9A3
100
AcDbSymbolTableRecord
100
AcDbLayerTableRecord
  2
text-bubbles
 70
     0
 62
     6
  6
CONTINUOUS
370
    -3
390
9B0
  0
LAYER
  5
AC1
330
9A3
100
AcDbSymbolTableRecord
100
AcDbLayerTableRecord
  2
text-leaders
 70
     1
 62
    -5
  6
CONTINUOUS
370
    -3
390
9B0
  0
ENDTAB
  0
TABLE
  2
STYLE
  5
9A4
330
0
100
AcDbSymbolTable
 70
     6
  0
STYLE
  5
9B2
330
9A4
100
AcDbSymbolTableRecord
100
AcDbTextStyleTableRecord
  2
STANDARD
 70
     0
 40
0.0
 41
1.0
 50
0.0
 71
     0
 42
0.2
  3
txt
  4

  0
STYLE
  5
9C7
330
9A4
100
AcDbSymbolTableRecord
100
AcDbTextStyleTableRecord
  2
ROMANS
 70
     0
 40
0.0
 41
1.0
 50
0.0
 71
     0
 42
0.125
  3
ROMANS.SHX
  4

  0
STYLE
  5
A54
330
9A4
100
AcDbSymbolTableRecord
100
AcDbTextStyleTableRecord
  2
L100
 70
     0
 40
0.1
 41
1.0
 50
0.0
 71
     0
 42
0.1
  3
romans.shx
  4

  0
STYLE
  5
A55
330
9A4
100
AcDbSymbolTableRecord
100
AcDbTextStyleTableRecord
  2
L200
 70
     0
 40
0.2
 41
1.0
 50
0.0
 71
     0
 42
0.081
  3
ARIAL.TTF
  4

1001
ACAD
1000
Arial
1071
       34
  0
STYLE
  5
A56
330
9A4
100
AcDbSymbolTableRecord
100
AcDbTextStyleTableRecord
  2
L80
 70
     0
 40
0.08
 41
1.0
 50
0.0
 71
     0
 42
0.08
  3
ROMANS
  4

  0
STYLE
  5
13F1
330
9A4
100
AcDbSymbolTableRecord
100
AcDbTextStyleTableRecord
  2
SIMPLEX
 70
     0
 40
0.0
 41
1.0
 50
0.0
 71
     0
 42
0.0182739740693734
  3
SIMPLEX
  4

  0
ENDTAB
  0
TABLE
  2
VIEW
  5
9A7
330
0
100
AcDbSymbolTable
 70
     0
  0
ENDTAB
  0
TABLE
  2
UCS
  5
9A8
330
0
100
AcDbSymbolTable
 70
     0
  0
ENDTAB
  0
TABLE
  2
APPID
  5
9AA
330
0
100
AcDbSymbolTable
 70
    14
  0
APPID
  5
9B3
330
9AA
100
AcDbSymbolTableRecord
100
AcDbRegAppTableRecord
  2
ACAD
 70
     0
  0
APPID
  5
9CA
330
9AA
100
AcDbSymbolTableRecord
100
AcDbRegAppTableRecord
  2
RAK
 70
     0
  0
APPID
  5
9CB
330
9AA
100
AcDbSymbolTableRecord
100
AcDbRegAppTableRecord
  2
ABNSLEADERTOOLS
 70
     0
  0
APPID
  5
A57
330
9AA
100
AcDbSymbolTableRecord
100
AcDbRegAppTableRecord
  2
DCO15
 70
     0
  0
APPID
  5
1184
330
9AA
100
AcDbSymbolTableRecord
100
AcDbRegAppTableRecord
  2
ACAD_MLEADERVER
 70
     0
  0
APPID
  5
11A5
330
9AA
100
AcDbSymbolTableRecord
100
AcDbRegAppTableRecord
  2
ACAD_EXEMPT_FROM_CAD_STANDARDS
 70
     0
  0
APPID
  5
11BA
330
9AA
100
AcDbSymbolTableRecord
100
AcDbRegAppTableRecord
  2
ACAD_PSEXT
 70
     0
  0
APPID
  5
11BB
330
9AA
100
AcDbSymbolTableRecord
100
AcDbRegAppTableRecord
  2
BBSI_PltSel
 70
     0
  0
APPID
  5
11BC
330
9AA
100
AcDbSymbolTableRecord
100
AcDbRegAppTableRecord
  2
BBSI_Plots
 70
     0
  0
APPID
  5
11BD
330
9AA
100
AcDbSymbolTableRecord
100
AcDbRegAppTableRecord
  2
BBSI_Bookmarks
 70
     0
  0
APPID
  5
11BE
330
9AA
100
AcDbSymbolTableRecord
100
AcDbRegAppTableRecord
  2
BBSI_BookmarksEx
 70
     0
  0
APPID
  5
134E
330
9AA
100
AcDbSymbolTableRecord
100
AcDbRegAppTableRecord
  2
BBSI_StampsEx
 70
     0
  0
APPID
  5
134F
330
9AA
100
AcDbSymbolTableRecord
100
AcDbRegAppTableRecord
  2
BBSI_Attachs
 70
     0
  0
APPID
  5
1350
330
9AA
100
AcDbSymbolTableRecord
100
AcDbRegAppTableRecord
  2
BBSI_DigSigs
 70
     0
  0
ENDTAB
  0
TABLE
  2
DIMSTYLE
  5
9AB
330
0
100
AcDbSymbolTable
 70
     1
100
AcDbDimStyleTable
 71
     1
340
9CC
  0
DIMSTYLE
105
9CC
330
9AB
100
AcDbSymbolTableRecord
100
AcDbDimStyleTableRecord
  2
STANDARD
 70
     0
279
     2
340
9B2
  0
ENDTAB
  0
TABLE
  2
BLOCK_RECORD
  5
9A2
330
0
100
AcDbSymbolTable
 70
     2
  0
BLOCK_RECORD
  5
9BF
102
{ACAD_XDICTIONARY
360
11A1
102
}
330
9A2
100
AcDbSymbolTableRecord
100
AcDbBlockTableRecord
  2
*Model_Space
340
9C2
  0
BLOCK_RECORD
  5
9BB
330
9A2
100
AcDbSymbolTableRecord
100
AcDbBlockTableRecord
  2
*Paper_Space
340
9BE
  0
BLOCK_RECORD
  5
A58
102
{ACAD_XDICTIONARY
360
11B6
102
}
330
9A2
100
AcDbSymbolTableRecord
100
AcDbBlockTableRecord
  2
titleblock
340
0
102
{BLKREFS
331
A67
102
}
  0
BLOCK_RECORD
  5
ABB
330
9A2
100
AcDbSymbolTableRecord
100
AcDbBlockTableRecord
  2
*T1
340
0
102
{BLKREFS
331
C96
102
}
  0
ENDTAB
  0
ENDSEC
  0
SECTION
  2
BLOCKS
  0
BLOCK
  5
9E3
330
9BF
100
AcDbEntity
  8
0
100
AcDbBlockBegin
  2
*Model_Space
 70
     0
 10
0.0
 20
0.0
 30
0.0
  3
*Model_Space
  1

  0
ENDBLK
  5
9E4
330
9BF
100
AcDbEntity
  8
0
100
AcDbBlockEnd
  0
BLOCK
  5
9E1
330
9BB
100
AcDbEntity
 67
     1
  8
0
100
AcDbBlockBegin
  2
*Paper_Space
 70
     0
 10
0.0
 20
0.0
 30
0.0
  3
*Paper_Space
  1

  0
ENDBLK
  5
9E2
330
9BB
100
AcDbEntity
 67
     1
  8
0
100
AcDbBlockEnd
  0
BLOCK
  5
A64
330
A58
100
AcDbEntity
  8
0
100
AcDbBlockBegin
  2
titleblock
 70
     2
 10
0.0
 20
0.0
 30
0.0
  3
titleblock
  1

  0
LWPOLYLINE
  5
A59
330
A58
100
AcDbEntity
  8
title
100
AcDbPolyline
 90
        4
 70
     1
 43
0.0
 10
0.0
 20
0.0
 10
10.04352498000864
 20
0.0
 10
10.04352498000864
 20
10.44
 10
0.0
 20
10.44
  0
ATTDEF
  5
A5A
330
A58
100
AcDbEntity
  8
title
100
AcDbText
 10
0.5055556038023421
 20
0.7842270964783673
 30
0.0
 40
0.2
  1
D
  7
L200
 72
     4
 11
0.6064423705144839
 21
0.8842270964783672
 31
0.0
100
AcDbAttributeDefinition
  3
#
  2
D
 70
     0
  0
ATTDEF
  5
A5B
330
A58
100
AcDbEntity
  8
title
100
AcDbText
 10
1.231442370514484
 20
1.34371230274675
 30
0.0
 40
0.2
  1

  7
L200
100
AcDbAttributeDefinition
  3
DETAIL TITLE TOP LINE
  2
TITLE1
 70
     0
  0
ATTDEF
  5
A5C
330
A58
100
AcDbEntity
  8
title
100
AcDbText
 10
1.231442370514484
 20
0.9842270964783674
 30
0.0
 40
0.2
  1
TITLE
  7
L200
100
AcDbAttributeDefinition
  3
DETAIL TITLE TOP 2ND LINE
  2
TITLE2
 70
     0
  0
ATTDEF
  5
A5D
330
A58
100
AcDbEntity
  8
title
100
AcDbText
 10
2.713645751168312
 20
0.5927927664583189
 30
0.0
 40
0.2
  1
TITLE2
  7
L200
100
AcDbAttributeDefinition
  3
DETAIL TITLE BOTTOM 1
  2
TITLE3
 70
     0
  0
ATTDEF
  5
A5E
330
A58
100
AcDbEntity
  8
title
100
AcDbText
 10
2.713645751168312
 20
0.2692560808167741
 30
0.0
 40
0.2
  1

  7
L200
100
AcDbAttributeDefinition
  3
DETAIL TITLE BOTTOM 2
  2
TITLE4
 70
     0
  0
ATTDEF
  5
A5F
330
A58
100
AcDbEntity
  8
title
 62
     7
100
AcDbText
 10
8.177214829966379
 20
0.9696027915446398
 30
0.0
 40
0.08
  1
-
  7
L80
 72
     2
 11
8.261024353775903
 21
0.9696027915446398
 31
0.0
100
AcDbAttributeDefinition
  3
REVISION DATE
  2
REVISED
 70
     0
  0
ATTDEF
  5
A60
330
A58
100
AcDbEntity
  8
title
 62
     7
100
AcDbText
 10
0.2639423705144838
 20
0.0847116480207213
 30
0.0
 40
0.08
  1
-
  7
L80
100
AcDbAttributeDefinition
  3
DWG-NAME
  2
DWG-NAME
 70
     0
  0
LWPOLYLINE
  5
A61
330
A58
100
AcDbEntity
  8
title
 62
     3
100
AcDbPolyline
 90
        2
 70
     1
 43
0.03
 10
0.6064423705144839
 20
0.5417270964783675
 42
0.9999999999999998
 10
0.6064423705144839
 20
1.226727096478367
 42
0.9999999999999998
  0
ATTDEF
  5
A62
330
A58
100
AcDbEntity
  8
title
 62
     7
100
AcDbText
 10
1.231442370514484
 20
0.7005637793954894
 30
0.0
 40
0.1
  1
N.T.S.
  7
L100
100
AcDbAttributeDefinition
  3
SCALE
  2
SCALE
 70
     0
  0
LWPOLYLINE
  5
A63
330
A58
100
AcDbEntity
  8
title
 62
     3
100
AcDbPolyline
 90
        2
 70
     0
 43
0.04
 39
0.03
 10
0.9489423705144833
 20
0.8842270964783672
 10
8.261024353775903
 20
0.8842270964783672
  0
ENDBLK
  5
A65
330
A58
100
AcDbEntity
  8
0
100
AcDbBlockEnd
  0
BLOCK
  5
ABD
330
ABB
100
AcDbEntity
  8
0
  6
ByBlock
100
AcDbBlockBegin
  2
*T1
 70
     1
 10
0.0
 20
0.0
 30
0.0
  3
*T1
  1

  0
TEXT
  5
ABC
330
ABB
100
AcDbEntity
  8
0
  6
ByBlock
100
AcDbText
 10
21.8765755703
 20
13.7308425587
 30
0.0
 40
0.078389
  1
R
 50
45.00000000000191
 41
1.437499999751965
 72
     5
 11
21.9296954057
 21
13.7839623941
 31
0.0
100
AcDbText
  0
ENDBLK
  5
ABE
330
ABB
100
AcDbEntity
  8
0
100
AcDbBlockEnd
  0
ENDSEC
  0
SECTION
  2
ENTITIES
  0
LINE
  5
2F0
330
9BF
100
AcDbEntity
  8
image
100
AcDbLine
 10
1.712523621389024
 20
4.023928783003783
 30
0.0
 11
1.352874330128069
 21
4.023928783003783
 31
0.0
  0
INSERT
  5
A67
330
9BF
100
AcDbEntity
  8
title
100
AcDbBlockReference
 66
     1
  2
titleblock
 10
-0.7519890073956717
 20
-2.989134051908644
 30
0.0
  0
ATTRIB
  5
A68
330
A67
100
AcDbEntity
  8
title
100
AcDbText
 10
-0.2464334035933296
 20
-2.204906955430277
 30
0.0
 40
0.2
  1
D
  7
L200
 72
     4
 11
-0.1455466368811877
 21
-2.104906955430277
 31
0.0
100
AcDbAttribute
  2
D
 70
     0
  0
ATTRIB
  5
A69
330
A67
100
AcDbEntity
  8
title
100
AcDbText
 10
0.4794533631188126
 20
-1.645421749161893
 30
0.0
 40
0.2
  1

  7
L200
100
AcDbAttribute
  2
TITLE1
 70
     0
  0
ATTRIB
  5
A6A
330
A67
100
AcDbEntity
  8
title
100
AcDbText
 10
0.4794533631188126
 20
-2.004906955430277
 30
0.0
 40
0.2
  1
PRE-FABRICATED SWING JOINT
  7
L200
100
AcDbAttribute
  2
TITLE2
 70
     0
  0
ATTRIB
  5
A6B
330
A67
100
AcDbEntity
  8
title
100
AcDbText
 10
1.96165674377264
 20
-2.396341285450325
 30
0.0
 40
0.2
  1
RAIN BIRD TSJ-12075
  7
L200
100
AcDbAttribute
  2
TITLE3
 70
     0
  0
ATTRIB
  5
A6C
330
A67
100
AcDbEntity
  8
title
100
AcDbText
 10
1.96165674377264
 20
-2.71987797109187
 30
0.0
 40
0.2
  1

  7
L200
100
AcDbAttribute
  2
TITLE4
 70
     0
  0
ATTRIB
  5
A6D
330
A67
100
AcDbEntity
  8
title
 62
     7
100
AcDbText
 10
6.941416298761184
 20
-2.019531260364004
 30
0.0
 40
0.08
  1
5-27-10
  7
L80
 72
     2
 11
7.509035346380231
 21
-2.019531260364004
 31
0.0
100
AcDbAttribute
  2
REVISED
 70
     0
  0
ATTRIB
  5
A6E
330
A67
100
AcDbEntity
  8
title
 62
     7
100
AcDbText
 10
-0.4880466368811879
 20
-2.904422403887923
 30
0.0
 40
0.08
  1
TSJ-12075.dwg
  7
L80
100
AcDbAttribute
  2
DWG-NAME
 70
     0
  0
ATTRIB
  5
A6F
330
A67
100
AcDbEntity
  8
title
 62
     7
100
AcDbText
 10
0.4794533631188126
 20
-2.288570272513155
 30
0.0
 40
0.1
  1
N.T.S.
  7
L100
100
AcDbAttribute
  2
SCALE
 70
     0
  0
SEQEND
  5
A70
330
A67
100
AcDbEntity
  8
title
  0
LEADER
  5
BF0
330
9BF
100
AcDbEntity
  8
text-leaders
100
AcDbLeader
  3
STANDARD
 76
     3
 10
2.034975838720366
 20
3.654017574240644
 30
0.0
 10
4.881322984214095
 20
4.478923858467187
 30
0.0
 10
5.128366024539777
 20
4.478923858467187
 30
0.0
1001
ACAD
1000
DSTYLE
1002
{
1070
   340
1005
9C7
1070
   287
1070
     5
1002
}
  0
LEADER
  5
BF1
330
9BF
100
AcDbEntity
  8
text-leaders
100
AcDbLeader
  3
STANDARD
 76
     3
 10
3.110061111727683
 20
3.042148725584544
 30
0.0
 10
4.881251030781447
 20
2.091687949007883
 30
0.0
 10
5.126036090695285
 20
2.091687949007883
 30
0.0
1001
ACAD
1000
DSTYLE
1002
{
1070
   340
1005
9C7
1070
   287
1070
     5
1002
}
  0
LEADER
  5
BF2
330
9BF
100
AcDbEntity
  8
text-leaders
100
AcDbLeader
  3
STANDARD
 76
     3
 10
4.595012467452593
 20
3.004302339660927
 30
0.0
 10
4.984065840695706
 20
2.457560816460252
 30
0.0
 10
5.123027179629241
 20
2.457560816460252
 30
0.0
1001
ACAD
1000
DSTYLE
1002
{
1070
   340
1005
9C7
1070
   287
1070
     5
1002
}
  0
TEXT
  5
BF3
330
9BF
100
AcDbEntity
  8
text-leaders
100
AcDbText
 10
5.174619624707112
 20
2.396234916011724
 30
0.0
 40
0.125
  1
PVC SCH 40 TEE OR ELL
  7
ROMANS
100
AcDbText
  0
TEXT
  5
BF4
330
9BF
100
AcDbEntity
  8
text-leaders
100
AcDbText
 10
5.174619624707112
 20
2.046234915086122
 30
0.0
 40
0.125
  1
LATERAL PIPE
  7
ROMANS
100
AcDbText
  0
CIRCLE
  5
BF8
330
9BF
100
AcDbEntity
  8
text-bubbles
100
AcDbCircle
 10
4.709169468490874
 20
5.300495133565838
 30
0.0
 40
0.15625
  0
CIRCLE
  5
BF9
330
9BF
100
AcDbEntity
  8
text-bubbles
100
AcDbCircle
 10
4.709169468490874
 20
4.43149887172997
 30
0.0
 40
0.15625
  0
TEXT
  5
BFA
330
9BF
100
AcDbEntity
  8
text-bubbles
100
AcDbText
 10
4.649645658967065
 20
4.36899887172997
 30
0.0
 40
0.125
  1
2
  7
ROMANS
 72
     4
 11
4.709169468490874
 21
4.43149887172997
 31
0.0
100
AcDbText
  0
TEXT
  5
BFB
330
9BF
100
AcDbEntity
  8
text-bubbles
100
AcDbText
 10
4.658574230395636
 20
5.237995133565838
 30
0.0
 40
0.125
  1
1
  7
ROMANS
 72
     4
 11
4.709169468490874
 21
5.300495133565838
 31
0.0
100
AcDbText
  0
CIRCLE
  5
BFC
330
9BF
100
AcDbEntity
  8
text-bubbles
100
AcDbCircle
 10
4.709169468490874
 20
4.019665782682079
 30
0.0
 40
0.15625
  0
TEXT
  5
BFD
330
9BF
100
AcDbEntity
  8
text-bubbles
100
AcDbText
 10
4.649645658967065
 20
3.957165782682079
 30
0.0
 40
0.125
  1
3
  7
ROMANS
 72
     4
 11
4.709169468490874
 21
4.019665782682079
 31
0.0
100
AcDbText
  0
LWPOLYLINE
  5
BFF
330
9BF
100
AcDbEntity
  8
image
100
AcDbPolyline
 90
       26
 70
     0
 43
0.0
 10
5.409322102418436
 20
3.043724444888707
 10
5.415820741490993
 20
3.04432224908347
 10
5.422214103151796
 20
3.04607508924992
 10
5.428401359961183
 20
3.048955321911233
 10
5.434284934929874
 20
3.052917524026608
 10
5.439772040365655
 20
3.057899209106278
 10
5.44477614106425
 20
3.063821812794421
 10
5.44921831917918
 20
3.070591931835493
 10
5.453028518721734
 20
3.078102797162078
 10
5.456146650403002
 20
3.086235957587716
 10
5.458523539317165
 20
3.094863148022283
 10
5.460121700364822
 20
3.103848312119984
 10
5.460915929564269
 20
3.11304974810557
 10
5.460893701412894
 20
3.122322343485306
 10
5.460055366430661
 20
3.131519863479645
 10
5.458414145724974
 20
3.140497257321958
 10
5.455995922394295
 20
3.149112945785856
 10
5.45283883335107
 20
3.157231053966297
 10
5.448992667916365
 20
3.164723554090549
 10
5.444518082555751
 20
3.171472284652642
 10
5.439485644368581
 20
3.177370813863911
 10
5.433974718123469
 20
3.182326118145264
 10
5.428072214601828
 20
3.186260049167275
 10
5.421871220100057
 20
3.189110566376036
 10
5.415469528263323
 20
3.190832715237669
 10
5.408968097824303
 20
3.191399336377653
  0
LWPOLYLINE
  5
C00
330
9BF
100
AcDbEntity
  8
image
100
AcDbPolyline
 90
       29
 70
     0
 43
0.0
 10
5.408968299442565
 20
3.191399321664731
 10
5.420323151954907
 20
3.19324720652503
 10
5.431311324943525
 20
3.198785074369356
 10
5.44097020616317
 20
3.207527747797091
 10
5.449181831480296
 20
3.219368379557677
 10
5.455226649957923
 20
3.233269570382635
 10
5.459030746118319
 20
3.249061305718515
 10
5.460260787116745
 20
3.265360019541927
 10
5.458952514196344
 20
3.281652803614502
 10
5.455072947925906
 20
3.297426130964173
 10
5.448961592117486
 20
3.311298198810609
 10
5.440693327387041
 20
3.323099349166361
 10
5.430992667048157
 20
3.33179564228864
 10
5.41997808583242
 20
3.337280797371451
 10
5.408614509633407
 20
3.339074254949814
 10
5.397259808470974
 20
3.337226370429563
 10
5.386271484132454
 20
3.331688502245187
 10
5.37661260289026
 20
3.322945828817402
 10
5.368400977595741
 20
3.311105197034321
 10
5.362356159118056
 20
3.297204006231912
 10
5.358552214330118
 20
3.281412271236131
 10
5.357322022299396
 20
3.265113405677614
 10
5.358630294879693
 20
3.248820772977496
 10
5.36250986115008
 20
3.23304744565037
 10
5.368621216958553
 20
3.219175377781389
 10
5.376889481666388
 20
3.207374227448132
 10
5.386590142027827
 20
3.198677934325904
 10
5.397604874593465
 20
3.193192779583143
 10
5.408968299442565
 20
3.191399321664731
  0
CIRCLE
  5
C01
330
9BF
100
AcDbEntity
  8
text-bubbles
100
AcDbCircle
 10
4.973058394945114
 20
2.408688963966298
 30
0.0
 40
0.15625
  0
LEADER
  5
C02
330
9BF
100
AcDbEntity
  8
text-bubbles
100
AcDbLeader
  3
STANDARD
 76
     2
 10
4.70076391948854
 20
3.042910353352378
 30
0.0
 10
4.902358572714282
 20
2.548028827740196
 30
0.0
1001
ACAD
1000
DSTYLE
1002
{
1070
   340
1005
0
1070
   287
1070
     5
1002
}
  0
TEXT
  5
C03
330
9BF
100
AcDbEntity
  8
text-bubbles
100
AcDbText
 10
4.913534585421305
 20
2.346188963966298
 30
0.0
 40
0.125
  1
2
  7
ROMANS
 72
     4
 11
4.973058394945114
 21
2.408688963966298
 31
0.0
100
AcDbText
  0
LINE
  5
C04
330
9BF
100
AcDbEntity
  8
image
100
AcDbLine
 10
4.717682482937199
 20
3.043250453504365
 30
0.0
 11
5.409322102418436
 21
3.043724444888707
 31
0.0
  0
LINE
  5
C05
330
9BF
100
AcDbEntity
  8
image
100
AcDbLine
 10
4.716974865307244
 20
3.338616186463287
 30
0.0
 11
5.40861452299792
 21
3.339074228896207
 31
0.0
  0
LWPOLYLINE
  5
C06
330
9BF
100
AcDbEntity
  8
image
100
AcDbPolyline
 90
        6
 70
     0
 43
0.0
 10
4.319812953361978
 20
3.366280490801993
 10
4.337695368431221
 20
3.363985755806613
 10
4.354971681933481
 20
3.360027945130556
 10
4.371226171771586
 20
3.354635766841705
 10
4.386935051525667
 20
3.347735729768694
 10
4.402797740353021
 20
3.338856340520114
  0
LINE
  5
C07
330
9BF
100
AcDbEntity
  8
image
100
AcDbLine
 10
4.356864339717887
 20
3.391295969017388
 30
0.0
 11
4.423367191089229
 21
3.340801304666439
 31
0.0
  0
LINE
  5
C08
330
9BF
100
AcDbEntity
  8
image
100
AcDbLine
 10
4.354291023913449
 20
3.390822594831747
 30
0.0
 11
4.420793875284792
 21
3.340327930480797
 31
0.0
  0
LWPOLYLINE
  5
C09
330
9BF
100
AcDbEntity
  8
image
100
AcDbPolyline
 90
       10
 70
     0
 43
0.0
 10
4.385977674895532
 20
3.02533023057618
 10
4.385985389309317
 20
3.025735506921324
 10
4.385866076104877
 20
3.026063577426933
 10
4.385570786801619
 20
3.02623660239278
 10
4.385092144641152
 20
3.026198834364255
 10
4.384448286767142
 20
3.025941741063947
 10
4.383635637639277
 20
3.025460866835923
 10
4.382667267506439
 20
3.024760748378508
 10
4.38163845277164
 20
3.023913971477317
 10
4.38065993456456
 20
3.023030703651648
  0
LINE
  5
C0A
330
9BF
100
AcDbEntity
  8
image
100
AcDbLine
 10
4.382643731036639
 20
3.010603264633906
 30
0.0
 11
4.380941545519635
 21
3.010047260801867
 31
0.0
  0
ARC
  5
C0B
330
9BF
100
AcDbEntity
  8
image
100
AcDbCircle
 10
4.379456826724483
 20
3.013518984288578
 30
0.0
 40
0.0049871441284355
100
AcDbArc
 50
292.7911169583367
 51
352.791116958337
  0
ARC
  5
C0D
330
9BF
100
AcDbEntity
  8
image
100
AcDbCircle
 10
4.305897370755879
 20
3.187064791356198
 30
0.0
 40
0.2164420552239743
100
AcDbArc
 50
228.4309445955367
 51
117.2311848542372
  0
ARC
  5
C0E
330
9BF
100
AcDbEntity
  8
image
100
AcDbCircle
 10
4.305897370755879
 20
3.187064791356198
 30
0.0
 40
0.1782904025915708
100
AcDbArc
 50
262.787858879937
 51
82.79111695833721
  0
ARC
  5
C0F
330
9BF
100
AcDbEntity
  8
image
100
AcDbCircle
 10
4.305897370755879
 20
3.187064791356198
 30
0.0
 40
0.1944986137526916
100
AcDbArc
 50
288.4492627736368
 51
57.71710095323706
  0
LINE
  5
C10
330
9BF
100
AcDbEntity
  8
image
100
AcDbLine
 10
4.37901430374876
 20
3.010020416482338
 30
0.0
 11
4.38065993456456
 21
3.023030703651648
 31
0.0
  0
LWPOLYLINE
  5
C11
330
9BF
100
AcDbEntity
  8
image
100
AcDbPolyline
 90
        4
 70
     0
 43
0.0
 10
4.37901430374876
 20
3.010020416482338
 10
4.379868441214335
 20
3.009251321592684
 10
4.380684852490347
 20
3.008873376094085
 10
4.381388709996197
 20
3.008921220319103
  0
LWPOLYLINE
  5
C12
330
9BF
100
AcDbEntity
  8
image
100
AcDbPolyline
 90
        4
 70
     0
 43
0.0
 10
4.380659934542435
 20
3.023030703476719
 10
4.379770102042525
 20
3.023793699282761
 10
4.378922067496328
 20
3.024158456406879
 10
4.378195079443051
 20
3.024090888392228
  0
LINE
  5
C13
330
9BF
100
AcDbEntity
  8
image
100
AcDbLine
 10
4.380941545519635
 20
3.010047260801867
 30
0.0
 11
4.37901430374876
 21
3.010020416482338
 31
0.0
  0
LINE
  5
C14
330
9BF
100
AcDbEntity
  8
image
100
AcDbLine
 10
4.381388709996197
 20
3.008921220319103
 30
0.0
 11
4.304407622205181
 21
2.976575393772709
 31
0.0
  0
LINE
  5
C15
330
9BF
100
AcDbEntity
  8
image
100
AcDbLine
 10
4.37901430374876
 20
3.010020416482338
 30
0.0
 11
4.302033215957746
 21
2.977674589935946
 31
0.0
  0
LWPOLYLINE
  5
C16
330
9BF
100
AcDbEntity
  8
image
100
AcDbPolyline
 90
        6
 70
     0
 43
0.0
 10
4.38065993456456
 20
3.023030703651648
 10
4.361853022105657
 20
3.015895240840807
 10
4.344162850977619
 20
3.011231058275588
 10
4.327072828658311
 20
3.008462286052763
 10
4.309769419818377
 20
3.007317910854753
 10
4.291885303637121
 20
3.007856698901972
  0
LINE
  5
C17
330
9BF
100
AcDbEntity
  8
image
100
AcDbLine
 10
4.717775792244722
 20
3.004302339660927
 30
0.0
 11
4.716895368996302
 21
3.371798635792397
 31
0.0
  0
ARC
  5
C18
330
9BF
100
AcDbEntity
  8
image
100
AcDbCircle
 10
4.305897370755879
 20
3.187064791356198
 30
0.0
 40
0.1870179048163331
100
AcDbArc
 50
295.1108233003369
 51
50.46739261653719
  0
ARC
  5
C19
330
9BF
100
AcDbEntity
  8
image
100
AcDbCircle
 10
4.305897370755879
 20
3.187064791356198
 30
0.0
 40
0.1845243327521153
100
AcDbArc
 50
295.5306107216368
 51
50.05156391983715
  0
ARC
  5
C1A
330
9BF
100
AcDbEntity
  8
image
100
AcDbCircle
 10
4.305897370755879
 20
3.187064791356198
 30
0.0
 40
0.1820307599896973
100
AcDbArc
 50
296.0217626079369
 51
49.56042180523715
  0
LINE
  5
C1B
330
9BF
100
AcDbEntity
  8
image
100
AcDbLine
 10
4.421269237258584
 20
3.004302339660927
 30
0.0
 11
4.717775792244722
 21
3.004302339660927
 31
0.0
  0
LWPOLYLINE
  5
C1C
330
9BF
100
AcDbEntity
  8
image
100
AcDbPolyline
 90
        3
 70
     0
 43
0.0
 10
4.38440454875664
 20
3.012893162295705
 10
4.383860014112341
 20
3.011603824744477
 10
4.382643731036639
 20
3.010603264633906
  0
LINE
  5
C1D
330
9BF
100
AcDbEntity
  8
image
100
AcDbLine
 10
4.38440454875664
 20
3.012893162295705
 30
0.0
 11
4.385977674895532
 21
3.02533023057618
 31
0.0
  0
ARC
  5
C1E
330
9BF
100
AcDbEntity
  8
image
100
AcDbCircle
 10
4.390925428738279
 20
3.024704423878624
 30
0.0
 40
0.0049871441533713
100
AcDbArc
 50
117.6414266247372
 51
172.7913370363374
  0
LINE
  5
C1F
330
9BF
100
AcDbEntity
  8
image
100
AcDbLine
 10
4.420389658892354
 20
3.371088287080817
 30
0.0
 11
4.716895368996302
 21
3.371798635792397
 31
0.0
  0
LINE
  5
C20
330
9BF
100
AcDbEntity
  8
image
100
AcDbLine
 10
4.423725948217628
 20
3.323766472381503
 30
0.0
 11
4.425299074376225
 21
3.336203540677261
 31
0.0
  0
LINE
  5
C21
330
9BF
100
AcDbEntity
  8
image
100
AcDbLine
 10
4.41914824448427
 20
3.327317643291783
 30
0.0
 11
4.420793875284792
 21
3.340327930480797
 31
0.0
  0
LWPOLYLINE
  5
C22
330
9BF
100
AcDbEntity
  8
image
100
AcDbPolyline
 90
        4
 70
     0
 43
0.0
 10
4.425299074376228
 20
3.336203540677263
 10
4.425091828248761
 20
3.337589951082076
 10
4.424161474564797
 20
3.338861944154448
 10
4.422649885133763
 20
3.339823736654549
  0
LWPOLYLINE
  5
C23
330
9BF
100
AcDbEntity
  8
image
100
AcDbPolyline
 90
        4
 70
     0
 43
0.0
 10
4.419148245643686
 20
3.32731765245803
 10
4.418096467768319
 20
3.326800258816225
 10
4.41718432973167
 20
3.326658151136637
 10
4.416497070236898
 20
3.326904608671761
  0
LWPOLYLINE
  5
C24
330
9BF
100
AcDbEntity
  8
image
100
AcDbPolyline
 90
        4
 70
     0
 43
0.0
 10
4.420793875284792
 20
3.340327930480797
 10
4.421808867962369
 20
3.340858773782036
 10
4.422696587286123
 20
3.341022924628437
 10
4.423367191089229
 20
3.340801304666437
  0
LWPOLYLINE
  5
C25
330
9BF
100
AcDbEntity
  8
image
100
AcDbPolyline
 90
       10
 70
     0
 43
0.0
 10
4.419148244484274
 20
3.327317643291781
 10
4.419929770412584
 20
3.326141378686589
 10
4.420707986206474
 20
3.325082318997196
 10
4.421443235364465
 20
3.324202727718517
 10
4.422091199211853
 20
3.32355659846205
 10
4.422633714772806
 20
3.323155795920329
 10
4.423083044794732
 20
3.322991990559836
 10
4.423421196949077
 20
3.323073601150146
 10
4.423627991835
 20
3.323360745368772
 10
4.423725948217628
 20
3.323766472381501
  0
LINE
  5
C26
330
9BF
100
AcDbEntity
  8
image
100
AcDbLine
 10
4.402797740353021
 20
3.338856340520114
 30
0.0
 11
4.41914824448427
 21
3.327317643291783
 31
0.0
  0
LINE
  5
C27
330
9BF
100
AcDbEntity
  8
image
100
AcDbLine
 10
4.422649885133763
 20
3.339823736654549
 30
0.0
 11
4.420793875284792
 21
3.340327930480797
 31
0.0
  0
ARC
  5
C28
330
9BF
100
AcDbEntity
  8
image
100
AcDbCircle
 10
4.428673231107371
 20
3.323141101874729
 30
0.0
 40
0.004987145250543
100
AcDbArc
 50
172.7956303121367
 51
227.9412123793368
  0
ARC
  5
C29
330
9BF
100
AcDbEntity
  8
image
100
AcDbCircle
 10
4.420351352309077
 20
3.336829362674555
 30
0.0
 40
0.0049871441284355
100
AcDbArc
 50
352.791116958337
 51
52.79111695833716
  0
LINE
  5
C2C
330
9BF
100
AcDbEntity
  8
image
100
AcDbLine
 10
4.122633320166617
 20
3.43205638607548
 30
0.0
 11
3.686597109447882
 21
3.487209252097955
 31
0.0
  0
LEADER
  5
C2D
330
9BF
100
AcDbEntity
  8
text-bubbles
100
AcDbLeader
  3
STANDARD
 76
     2
 10
3.27409868924952
 20
3.464556047697246
 30
0.0
 10
3.865442361496083
 20
3.932369390137336
 30
0.0
1001
ACAD
1000
DSTYLE
1002
{
1070
   340
1005
0
1070
   287
1070
     5
1002
}
  0
LEADER
  5
C2E
330
9BF
100
AcDbEntity
  8
text-bubbles
100
AcDbLeader
  3
STANDARD
 76
     2
 10
3.262888253577842
 20
3.064391743189807
 30
0.0
 10
3.622348226070486
 20
2.531033264680798
 30
0.0
1001
ACAD
1000
DSTYLE
1002
{
1070
   340
1005
0
1070
   287
1070
     5
1002
}
  0
LINE
  5
C2F
330
9BF
100
AcDbEntity
  8
image
100
AcDbLine
 10
1.688325151243935
 20
3.041174387826705
 30
0.0
 11
3.694800388485702
 21
3.042549456502008
 31
0.0
  0
LINE
  5
C36
330
9BF
100
AcDbEntity
  8
image
100
AcDbLine
 10
1.698521709345611
 20
3.696574612086027
 30
0.0
 11
3.543989284070732
 21
3.463147150321913
 31
0.0
  0
LINE
  5
C37
330
9BF
100
AcDbEntity
  8
image
100
AcDbLine
 10
1.637857648566165
 20
3.344825877766565
 30
0.0
 11
3.49924300578721
 21
3.109385025168484
 31
0.0
  0
CIRCLE
  5
C44
330
9BF
100
AcDbEntity
  8
text-bubbles
100
AcDbCircle
 10
3.720114841203208
 20
2.409149092347021
 30
0.0
 40
0.15625
  0
TEXT
  5
C45
330
9BF
100
AcDbEntity
  8
text-bubbles
100
AcDbText
 10
3.660591031679398
 20
2.346649092347021
 30
0.0
 40
0.125
  1
3
  7
ROMANS
 72
     4
 11
3.720114841203208
 21
2.409149092347021
 31
0.0
100
AcDbText
  0
INSERT
  5
C96
330
9BF
100
AcDbEntity
  8
image
100
AcDbBlockReference
  2
*T1
 10
2.829570953721756
 20
5.512151672260119
 30
0.0
 41
-0.2493572064217782
 42
0.2493572064217774
 43
-0.2493572064217774
 50
52.640650847635
210
0.0
220
0.0
230
-1.0
  0
CIRCLE
  5
C97
330
9BF
100
AcDbEntity
  8
image
100
AcDbCircle
 10
3.210179605082922
 20
3.262345156488536
 30
0.0
 40
0.0168794218127647
  0
LINE
  5
C98
330
9BF
100
AcDbEntity
  8
image
100
AcDbLine
 10
3.583577154435199
 20
3.489106663355115
 30
0.0
 11
3.536917790774483
 21
3.452925536098786
 31
0.0
  0
LINE
  5
C99
330
9BF
100
AcDbEntity
  8
image
100
AcDbLine
 10
3.586684701007734
 20
3.493962608824292
 30
0.0
 11
3.518663850194779
 21
3.441217117538914
 31
0.0
  0
LWPOLYLINE
  5
C9A
330
9BF
100
AcDbEntity
  8
image
100
AcDbPolyline
 90
        4
 70
     0
 43
0.0
 10
3.636428805088932
 20
3.478068216177387
 10
3.636036991024211
 20
3.480294354051014
 10
3.634424419557435
 20
3.482091845693493
 10
3.632023060768156
 20
3.482978891023063
  0
LINE
  5
C9B
330
9BF
100
AcDbEntity
  8
image
100
AcDbLine
 10
3.637182947971745
 20
3.484030437842883
 30
0.0
 11
3.630429102000457
 21
3.430634819129264
 31
0.0
  0
LINE
  5
C9C
330
9BF
100
AcDbEntity
  8
image
100
AcDbLine
 10
3.632861503270895
 20
3.489607581754247
 30
0.0
 11
3.624155107996815
 21
3.420776391477815
 31
0.0
  0
LINE
  5
C9D
330
9BF
100
AcDbEntity
  8
image
100
AcDbLine
 10
3.631368318484001
 20
3.050572782024826
 30
0.0
 11
3.686597109447882
 21
3.487209252097955
 31
0.0
  0
LINE
  5
C9E
330
9BF
100
AcDbEntity
  8
image
100
AcDbLine
 10
3.628126893443676
 20
3.054752940098294
 30
0.0
 11
3.682416951429104
 21
3.483967827068486
 31
0.0
  0
LINE
  5
C9F
330
9BF
100
AcDbEntity
  8
image
100
AcDbLine
 10
3.587434147323862
 20
3.130460839642147
 30
0.0
 11
3.485130927221136
 21
3.143400856212542
 31
0.0
  0
LINE
  5
CA0
330
9BF
100
AcDbEntity
  8
image
100
AcDbLine
 10
3.586920565371673
 20
3.126400482593168
 30
0.0
 11
3.48461734526895
 21
3.139340499163563
 31
0.0
  0
LINE
  5
CA1
330
9BF
100
AcDbEntity
  8
image
100
AcDbLine
 10
3.584805461488415
 20
3.109678561339654
 30
0.0
 11
3.494939309681445
 21
3.121045451751447
 31
0.0
  0
LWPOLYLINE
  5
CA2
330
9BF
100
AcDbEntity
  8
image
100
AcDbPolyline
 90
        3
 70
     0
 43
0.0
 10
3.495481287410533
 20
3.125330304744196
 10
3.589916889672463
 20
3.113386916714682
 10
3.590295161264946
 20
3.113337592319819
  0
LINE
  5
CA3
330
9BF
100
AcDbEntity
  8
image
100
AcDbLine
 10
3.494939309681445
 20
3.121045451751447
 30
0.0
 11
3.531120436922495
 21
3.074386088110437
 31
0.0
  0
LINE
  5
CA4
330
9BF
100
AcDbEntity
  8
image
100
AcDbLine
 10
3.532921031560438
 20
3.068909327085822
 30
0.0
 11
3.480175540275066
 21
3.13693017789878
 31
0.0
  0
LINE
  5
CA5
330
9BF
100
AcDbEntity
  8
image
100
AcDbLine
 10
3.495481287410533
 20
3.125330304744194
 30
0.0
 11
3.491836353232886
 21
3.122506673581607
 31
0.0
  0
LINE
  5
CA6
330
9BF
100
AcDbEntity
  8
image
100
AcDbLine
 10
3.491836353232886
 20
3.122506673581607
 30
0.0
 11
3.491540196628574
 21
3.122274259913673
 31
0.0
  0
LINE
  5
CA7
330
9BF
100
AcDbEntity
  8
image
100
AcDbLine
 10
3.495481287410533
 20
3.125330304744194
 30
0.0
 11
3.494939309681445
 21
3.121045451751447
 31
0.0
  0
LINE
  5
CA8
330
9BF
100
AcDbEntity
  8
image
100
AcDbLine
 10
3.484617323297942
 20
3.139340501942608
 30
0.0
 11
3.4851309523963
 21
3.143400852068485
 31
0.0
  0
LINE
  5
CA9
330
9BF
100
AcDbEntity
  8
image
100
AcDbLine
 10
3.495481287410533
 20
3.125330304744194
 30
0.0
 11
3.48461734526895
 21
3.139340499163563
 31
0.0
  0
LWPOLYLINE
  5
CAA
330
9BF
100
AcDbEntity
  8
image
100
AcDbPolyline
 90
        3
 70
     0
 43
0.0
 10
3.476770141411016
 20
3.138109290564923
 10
3.499303675424723
 20
3.109863148831218
 10
3.499743411993057
 20
3.1093217303417
  0
LWPOLYLINE
  5
CAB
330
9BF
100
AcDbEntity
  8
image
100
AcDbPolyline
 90
        4
 70
     0
 43
0.0
 10
3.491540196628574
 20
3.122274259913673
 10
3.49242517848154
 20
3.121503094735135
 10
3.493596609007415
 20
3.121078488419707
 10
3.494939309681448
 20
3.121045451751447
  0
LWPOLYLINE
  5
CAC
330
9BF
100
AcDbEntity
  8
image
100
AcDbPolyline
 90
        4
 70
     0
 43
0.0
 10
3.480175539979485
 20
3.136930177669576
 10
3.479289459898592
 20
3.137692828495682
 10
3.478117843265867
 20
3.138098626178836
 10
3.476770186309399
 20
3.138109645529613
  0
LWPOLYLINE
  5
CAD
330
9BF
100
AcDbEntity
  8
image
100
AcDbPolyline
 90
       10
 70
     0
 43
0.0
 10
3.48461734526895
 20
3.139340499163563
 10
3.483283758168405
 20
3.139933852203651
 10
3.481948069415467
 20
3.140411127939374
 10
3.480687159764533
 20
3.140693381325907
 10
3.479664695144346
 20
3.140687536649002
 10
3.47901706211154
 20
3.140341542470217
 10
3.478816129884795
 20
3.139671568462124
 10
3.479025079326798
 20
3.138803592393977
 10
3.479511247995874
 20
3.137874583955247
 10
3.480175540275066
 20
3.13693017789878
  0
LWPOLYLINE
  5
CAE
330
9BF
100
AcDbEntity
  8
image
100
AcDbPolyline
 90
       10
 70
     0
 43
0.0
 10
3.485130927221136
 20
3.143400856212542
 10
3.483252484220244
 20
3.143573023475115
 10
3.481313804012049
 20
3.143589031591688
 10
3.479402095784249
 20
3.143380002820172
 10
3.477742488139768
 20
3.142893391216361
 10
3.47652931622877
 20
3.142129913351334
 10
3.475878717704347
 20
3.141143235613256
 10
3.475801985394734
 20
3.140077759670476
 10
3.476145435153309
 20
3.139062227724955
 10
3.476770141411016
 20
3.138109290564923
  0
ARC
  5
CAF
330
9BF
100
AcDbEntity
  8
image
100
AcDbCircle
 10
3.499107652541238
 20
3.104376735390536
 30
0.0
 40
0.0049871044307683
100
AcDbArc
 50
37.77330382563711
 51
82.7911169566372
  0
LINE
  5
CB0
330
9BF
100
AcDbEntity
  8
image
100
AcDbLine
 10
3.579566343268731
 20
3.068258315883342
 30
0.0
 11
3.531120436922495
 21
3.074386088110437
 31
0.0
  0
LINE
  5
CB1
330
9BF
100
AcDbEntity
  8
image
100
AcDbLine
 10
3.5361957638535
 20
3.067009383157607
 30
0.0
 11
3.578727900779262
 21
3.06162962525711
 31
0.0
  0
LINE
  5
CB2
330
9BF
100
AcDbEntity
  8
image
100
AcDbLine
 10
3.536236353222426
 20
3.067019173710786
 30
0.0
 11
3.536244645110996
 21
3.067003224649999
 31
0.0
  0
LINE
  5
CB3
330
9BF
100
AcDbEntity
  8
image
100
AcDbLine
 10
3.531120436922495
 20
3.074386088110437
 30
0.0
 11
3.536236353222426
 21
3.067019173710786
 31
0.0
  0
LWPOLYLINE
  5
CB4
330
9BF
100
AcDbEntity
  8
image
100
AcDbPolyline
 90
        4
 70
     0
 43
0.0
 10
3.527721323884907
 20
3.075614896252956
 10
3.528610331934507
 20
3.074841390762525
 10
3.529779076393256
 20
3.074418879680626
 10
3.531120436922495
 20
3.074386088110437
  0
LWPOLYLINE
  5
CB5
330
9BF
100
AcDbEntity
  8
image
100
AcDbPolyline
 90
        3
 70
     0
 43
0.0
 10
3.536247749052333
 20
3.067002895508434
 10
3.534678219193472
 20
3.067472674184214
 10
3.532934152226153
 20
3.068892464880971
  0
LWPOLYLINE
  5
CB6
330
9BF
100
AcDbEntity
  8
image
100
AcDbPolyline
 90
        4
 70
     0
 43
0.0
 10
3.591055746129308
 20
3.119350743876647
 10
3.591986454146484
 20
3.121384472206236
 10
3.593993518570738
 20
3.122705584958587
 10
3.596539160079383
 20
3.122960079380439
  0
LWPOLYLINE
  5
CB7
330
9BF
100
AcDbEntity
  8
image
100
AcDbPolyline
 90
        4
 70
     0
 43
0.0
 10
3.585056043056112
 20
3.071917346808819
 10
3.584122185131441
 20
3.069858764623281
 10
3.582112815549803
 20
3.068519466316116
 10
3.579566343268731
 20
3.068258315883342
  0
LWPOLYLINE
  5
CB8
330
9BF
100
AcDbEntity
  8
image
100
AcDbPolyline
 90
        5
 70
     0
 43
0.0
 10
3.590295161264946
 20
3.113337592319819
 10
3.589708723762597
 20
3.111741165893661
 10
3.588443955594823
 20
3.110479313229445
 10
3.586721763884928
 20
3.10976050416868
 10
3.584805461488415
 20
3.109678561339654
  0
LINE
  5
CB9
330
9BF
100
AcDbEntity
  8
image
100
AcDbLine
 10
3.593317009827531
 20
3.097485896667817
 30
0.0
 11
3.596539160079383
 21
3.122960079380439
 31
0.0
  0
LINE
  5
CBA
330
9BF
100
AcDbEntity
  8
image
100
AcDbLine
 10
3.591055746129308
 20
3.119350743876647
 30
0.0
 11
3.584301900177722
 21
3.065955125178308
 31
0.0
  0
LINE
  5
CBB
330
9BF
100
AcDbEntity
  8
image
100
AcDbLine
 10
3.587434147323862
 20
3.130460839642147
 30
0.0
 11
3.578727900779262
 21
3.06162962525711
 31
0.0
  0
LINE
  5
CBC
330
9BF
100
AcDbEntity
  8
image
100
AcDbLine
 10
3.591054780676182
 20
3.119343878512343
 30
0.0
 11
3.591054451105784
 21
3.119341146483574
 31
0.0
  0
LWPOLYLINE
  5
CBD
330
9BF
100
AcDbEntity
  8
image
100
AcDbPolyline
 90
        7
 70
     0
 43
0.0
 10
3.591055746129308
 20
3.119350743876647
 10
3.591093376189923
 20
3.120860914095261
 10
3.590802477674583
 20
3.122471869632071
 10
3.590151902497642
 20
3.124009491046118
 10
3.589204493613249
 20
3.125246959792651
 10
3.588088178870508
 20
3.12604716218256
 10
3.586920565371676
 20
3.126400482593168
  0
LWPOLYLINE
  5
CBE
330
9BF
100
AcDbEntity
  8
image
100
AcDbPolyline
 90
        7
 70
     0
 43
0.0
 10
3.596539160079383
 20
3.122960079380439
 10
3.596420949715874
 20
3.124448352551246
 10
3.595638509211926
 20
3.126078599811799
 10
3.594153164432679
 20
3.12768205374538
 10
3.59211577871152
 20
3.129026336418803
 10
3.589796815481565
 20
3.129961195544036
 10
3.587434147323862
 20
3.130460839642147
  0
LINE
  5
CBF
330
9BF
100
AcDbEntity
  8
image
100
AcDbLine
 10
3.593317009814259
 20
3.097485896562861
 30
0.0
 11
3.632898786141534
 21
3.092479320611033
 31
0.0
  0
ARC
  5
CC0
330
9BF
100
AcDbEntity
  8
image
100
AcDbCircle
 10
3.631837684978649
 20
3.054283573548947
 30
0.0
 40
0.0037403580963267
100
AcDbArc
 50
172.7911169583366
 51
262.7911169583368
  0
ARC
  5
CC1
330
9BF
100
AcDbEntity
  8
image
100
AcDbCircle
 10
3.592691187821388
 20
3.092538174530699
 30
0.0
 40
0.0049871441284355
100
AcDbArc
 50
82.79111695833732
 51
172.7911029399374
  0
ARC
  5
CC2
330
9BF
100
AcDbEntity
  8
image
100
AcDbCircle
 10
3.579353722772132
 20
3.066577347289275
 30
0.0
 40
0.0049871441284355
100
AcDbArc
 50
262.7911169583368
 51
352.791116958337
  0
LWPOLYLINE
  5
CC3
330
9BF
100
AcDbEntity
  8
image
100
AcDbPolyline
 90
       10
 70
     0
 43
0.0
 10
3.518663850194779
 20
3.441217117538914
 10
3.51777477847689
 20
3.440457783814352
 10
3.51706606778881
 20
3.439665866771465
 10
3.516655254016638
 20
3.438865762411848
 10
3.51670976877102
 20
3.438166522404047
 10
3.517279888548233
 20
3.437683884621741
 10
3.518276617222192
 20
3.437438445660913
 10
3.519555080473317
 20
3.437406175164878
 10
3.520946063588572
 20
3.437536805457251
 10
3.522365618591041
 20
3.437776740968884
  0
LWPOLYLINE
  5
CC4
330
9BF
100
AcDbEntity
  8
image
100
AcDbPolyline
 90
       10
 70
     0
 43
0.0
 10
3.51507211343107
 20
3.440923050843914
 10
3.514220237824093
 20
3.440144775259541
 10
3.513632062814223
 20
3.439228828944193
 10
3.513457433929788
 20
3.438155615688035
 10
3.513879087694268
 20
3.437025690227776
 10
3.514896540935807
 20
3.435991217417728
 10
3.516387119396821
 20
3.43512676025757
 10
3.518164465369565
 20
3.43446763324827
 10
3.520015786989964
 20
3.434012189860578
 10
3.52185203662357
 20
3.433716383939613
  0
LWPOLYLINE
  5
CC5
330
9BF
100
AcDbEntity
  8
image
100
AcDbPolyline
 90
        3
 70
     0
 43
0.0
 10
3.544489691046265
 20
3.463083855397775
 10
3.543928438487248
 20
3.462668564270122
 10
3.51507211343107
 20
3.440923050843914
  0
LWPOLYLINE
  5
CC6
330
9BF
100
AcDbEntity
  8
image
100
AcDbPolyline
 90
        4
 70
     0
 43
0.0
 10
3.518663851982566
 20
3.441217115233378
 10
3.517615754157104
 20
3.440699266883747
 10
3.516380016532989
 20
3.440598094842964
 10
3.515072113632211
 20
3.440923052293606
  0
LINE
  5
CC7
330
9BF
100
AcDbEntity
  8
image
100
AcDbLine
 10
3.522365618591041
 20
3.437776740968884
 30
0.0
 11
3.536375813030113
 21
3.448640683125747
 31
0.0
  0
LWPOLYLINE
  5
CC8
330
9BF
100
AcDbEntity
  8
image
100
AcDbPolyline
 90
        4
 70
     0
 43
0.0
 10
3.533319768199592
 20
3.452581773907705
 10
3.534373373239621
 20
3.453109564373025
 10
3.535610510376546
 20
3.453227762893146
 10
3.536917790774483
 20
3.452925536098786
  0
LINE
  5
CC9
330
9BF
100
AcDbEntity
  8
image
100
AcDbLine
 10
3.536375813030113
 20
3.448640683125747
 30
0.0
 11
3.536917790774483
 21
3.452925536098786
 31
0.0
  0
LINE
  5
CCA
330
9BF
100
AcDbEntity
  8
image
100
AcDbLine
 10
3.522365618591041
 20
3.437776740968884
 30
0.0
 11
3.52185203662357
 21
3.433716383939613
 31
0.0
  0
LINE
  5
CCB
330
9BF
100
AcDbEntity
  8
image
100
AcDbLine
 10
3.536375813030113
 20
3.448640683125747
 30
0.0
 11
3.533319768199592
 21
3.452581773907705
 31
0.0
  0
ARC
  5
CCC
330
9BF
100
AcDbEntity
  8
image
100
AcDbCircle
 10
3.545105203160213
 20
3.468031411460689
 30
0.0
 40
0.004987104455704
100
AcDbArc
 50
262.7911169603369
 51
307.8089292404369
  0
LWPOLYLINE
  5
CCD
330
9BF
100
AcDbEntity
  8
image
100
AcDbPolyline
 90
        7
 70
     0
 43
0.0
 10
3.624155256726295
 20
3.420776367369219
 10
3.626553705424415
 20
3.420671422166769
 10
3.629009573884386
 20
3.420991517022239
 10
3.631310294651916
 20
3.421773663101243
 10
3.633164665457644
 20
3.42295385205253
 10
3.634347717698516
 20
3.42434730667263
 10
3.634841132134417
 20
3.425773839655007
  0
LWPOLYLINE
  5
CCE
330
9BF
100
AcDbEntity
  8
image
100
AcDbPolyline
 90
        7
 70
     0
 43
0.0
 10
3.624668838693766
 20
3.42483672439849
 10
3.62588051805048
 20
3.424886747511179
 10
3.627148701104246
 20
3.425374127621147
 10
3.628369755240157
 20
3.426323391895016
 10
3.629390972779896
 20
3.427648782531806
 10
3.630084306495788
 20
3.429147410865536
 10
3.630428806217838
 20
3.43063248349466
  0
LINE
  5
CCF
330
9BF
100
AcDbEntity
  8
image
100
AcDbLine
 10
3.634841132134417
 20
3.425773839655007
 30
0.0
 11
3.638063282386268
 21
3.451248022367633
 31
0.0
  0
LWPOLYLINE
  5
CD0
330
9BF
100
AcDbEntity
  8
image
100
AcDbPolyline
 90
        5
 70
     0
 43
0.0
 10
3.631189686884521
 20
3.436647970701369
 10
3.631020469864248
 20
3.438335350805943
 10
3.630123768780378
 20
3.43986111832206
 10
3.628636098215713
 20
3.440992988958867
 10
3.626783942561746
 20
3.441558645671711
  0
LWPOLYLINE
  5
CD1
330
9BF
100
AcDbEntity
  8
image
100
AcDbPolyline
 90
        4
 70
     0
 43
0.0
 10
3.630428696605799
 20
3.430631602574501
 10
3.63082414787362
 20
3.428433351077312
 10
3.632439078484349
 20
3.42665412881962
 10
3.634841132114715
 20
3.425773839639728
  0
LINE
  5
CD2
330
9BF
100
AcDbEntity
  8
image
100
AcDbLine
 10
3.638063282379836
 20
3.451248022457307
 30
0.0
 11
3.677645058707111
 21
3.446241446505479
 31
0.0
  0
LINE
  5
CD3
330
9BF
100
AcDbEntity
  8
image
100
AcDbLine
 10
3.536917790774483
 20
3.452925536098786
 30
0.0
 11
3.626783942561746
 21
3.441558645671711
 31
0.0
  0
LINE
  5
CD4
330
9BF
100
AcDbEntity
  8
image
100
AcDbLine
 10
3.522365618591041
 20
3.437776740968884
 30
0.0
 11
3.624668838693766
 21
3.424836724398488
 31
0.0
  0
LINE
  5
CD5
330
9BF
100
AcDbEntity
  8
image
100
AcDbLine
 10
3.52185203662357
 20
3.433716383939613
 30
0.0
 11
3.624155256726295
 21
3.420776367369217
 31
0.0
  0
LWPOLYLINE
  5
CD6
330
9BF
100
AcDbEntity
  8
image
100
AcDbPolyline
 90
        5
 70
     0
 43
0.0
 10
3.536375813030113
 20
3.448640683125745
 10
3.628141138940159
 20
3.437036568540668
 10
3.629752623552269
 20
3.436825569338154
 10
3.63082184167616
 20
3.436699078378907
 10
3.631189686884521
 20
3.436647970701369
  0
ARC
  5
CD7
330
9BF
100
AcDbEntity
  8
image
100
AcDbCircle
 10
3.63868910439241
 20
3.456195744504747
 30
0.0
 40
0.0049871441284355
100
AcDbArc
 50
172.7911310205367
 51
262.7911169583368
  0
LINE
  5
CD8
330
9BF
100
AcDbEntity
  8
image
100
AcDbLine
 10
3.590148408527221
 20
3.49477973742447
 30
0.0
 11
3.583577154435199
 21
3.489106663355115
 31
0.0
  0
LINE
  5
CD9
330
9BF
100
AcDbEntity
  8
image
100
AcDbLine
 10
3.59037825969602
 20
3.494981155215556
 30
0.0
 11
3.590148408527221
 21
3.49477973742447
 31
0.0
  0
LWPOLYLINE
  5
CDA
330
9BF
100
AcDbEntity
  8
image
100
AcDbPolyline
 90
        3
 70
     0
 43
0.0
 10
3.586701606959871
 20
3.493975673073284
 10
3.588744260269049
 20
3.494916493283322
 10
3.590381329648346
 20
3.494980679180743
  0
LWPOLYLINE
  5
CDB
330
9BF
100
AcDbEntity
  8
image
100
AcDbPolyline
 90
        4
 70
     0
 43
0.0
 10
3.579979131840603
 20
3.488762901148755
 10
3.581032736880628
 20
3.489290691614074
 10
3.582269874037266
 20
3.489408890149476
 10
3.583577154435199
 20
3.489106663355117
  0
LINE
  5
CDC
330
9BF
100
AcDbEntity
  8
image
100
AcDbLine
 10
3.590329366310152
 20
3.494987339659168
 30
0.0
 11
3.632861503270895
 21
3.489607581754247
 31
0.0
  0
LINE
  5
CDD
330
9BF
100
AcDbEntity
  8
image
100
AcDbLine
 10
3.632023060781436
 20
3.482978891128021
 30
0.0
 11
3.583577154435199
 21
3.489106663355115
 31
0.0
  0
ARC
  5
CDE
330
9BF
100
AcDbEntity
  8
image
100
AcDbCircle
 10
3.632235681278028
 20
3.484659859722086
 30
0.0
 40
0.0049871441284355
100
AcDbArc
 50
352.791116958337
 51
82.79111695833732
  0
ARC
  5
CDF
330
9BF
100
AcDbEntity
  8
image
100
AcDbCircle
 10
3.686127742953228
 20
3.483498460573832
 30
0.0
 40
0.0037403580963267
100
AcDbArc
 50
82.79111695833732
 51
172.7911169583374
  0
CIRCLE
  5
CE0
330
9BF
100
AcDbEntity
  8
text-bubbles
100
AcDbCircle
 10
3.965275177705802
 20
4.052567024505221
 30
0.0
 40
0.15625
  0
TEXT
  5
CE1
330
9BF
100
AcDbEntity
  8
text-bubbles
100
AcDbText
 10
3.914679939610564
 20
3.990067024505221
 30
0.0
 40
0.125
  1
1
  7
ROMANS
 72
     4
 11
3.965275177705802
 21
4.052567024505221
 31
0.0
100
AcDbText
  0
LINE
  5
CE2
330
9BF
100
AcDbEntity
  8
image
100
AcDbLine
 10
4.122280614797212
 20
3.030578933077989
 30
0.0
 11
4.16702688734308
 21
3.384341058957157
 31
0.0
  0
LINE
  5
CE3
330
9BF
100
AcDbEntity
  8
image
100
AcDbLine
 10
4.113075947734302
 20
3.028062354917489
 30
0.0
 11
4.158738715390071
 21
3.389070251976539
 31
0.0
  0
LINE
  5
CE4
330
9BF
100
AcDbEntity
  8
image
100
AcDbLine
 10
4.127606223365527
 20
3.429218870253313
 30
0.0
 11
4.072927329457533
 21
2.996929862892942
 31
0.0
  0
LINE
  5
CE5
330
9BF
100
AcDbEntity
  8
image
100
AcDbLine
 10
4.067404529202735
 20
2.995419916002353
 30
0.0
 11
4.122633320166617
 21
3.43205638607548
 31
0.0
  0
LINE
  5
CE6
330
9BF
100
AcDbEntity
  8
image
100
AcDbLine
 10
4.254930401813575
 20
2.98283361371028
 30
0.0
 11
4.20599405855728
 21
3.019990279579765
 31
0.0
  0
LINE
  5
CE7
330
9BF
100
AcDbEntity
  8
image
100
AcDbLine
 10
4.283524234475301
 20
3.010183728426465
 30
0.0
 11
4.122280614797212
 21
3.030578933077989
 31
0.0
  0
LINE
  5
CE8
330
9BF
100
AcDbEntity
  8
image
100
AcDbLine
 10
4.073859851145964
 20
3.004302339660927
 30
0.0
 11
4.183104124345805
 21
3.004302339660927
 31
0.0
  0
LINE
  5
CE9
330
9BF
100
AcDbEntity
  8
image
100
AcDbLine
 10
4.113075947734302
 20
3.028062354917489
 30
0.0
 11
4.072927329457533
 21
2.996929862892942
 31
0.0
  0
ARC
  5
CEA
330
9BF
100
AcDbEntity
  8
image
100
AcDbCircle
 10
4.068343262211754
 20
3.002841499065878
 30
0.0
 40
0.0074807161926533
100
AcDbArc
 50
262.7911169583368
 51
307.7911169583375
  0
ARC
  5
CEB
330
9BF
100
AcDbEntity
  8
image
100
AcDbCircle
 10
4.120716059810604
 20
3.018209627962594
 30
0.0
 40
0.0124678603210889
100
AcDbArc
 50
82.79111695833732
 51
127.7911169583375
  0
LWPOLYLINE
  5
CEC
330
9BF
100
AcDbEntity
  8
image
100
AcDbPolyline
 90
        3
 70
     0
 43
0.0
 10
4.291885303637121
 20
3.007856698901972
 10
4.274012948980693
 20
3.010159292736636
 10
4.262100450293613
 20
3.012893556330363
  0
LWPOLYLINE
  5
CED
330
9BF
100
AcDbEntity
  8
image
100
AcDbPolyline
 90
        4
 70
     0
 43
0.0
 10
4.257503717598309
 20
2.983306987880648
 10
4.25648498322314
 20
2.982774786751006
 10
4.255600179273366
 20
2.98261202268257
 10
4.254930401813575
 20
2.982833613710279
  0
LWPOLYLINE
  5
CEE
330
9BF
100
AcDbEntity
  8
image
100
AcDbPolyline
 90
        4
 70
     0
 43
0.0
 10
4.302033215957746
 20
2.977674589935946
 10
4.302887353231106
 20
2.97690549521279
 10
4.303703764528833
 20
2.97652754960481
 10
4.304407622205181
 20
2.976575393772709
  0
LINE
  5
CEF
330
9BF
100
AcDbEntity
  8
image
100
AcDbLine
 10
4.257503717598309
 20
2.983306987880648
 30
0.0
 11
4.209829805434259
 21
3.019505107852855
 31
0.0
  0
LWPOLYLINE
  5
CF0
330
9BF
100
AcDbEntity
  8
image
100
AcDbPolyline
 90
       10
 70
     0
 43
0.0
 10
4.302033215957746
 20
2.977674589935946
 10
4.299030871135462
 20
2.976537608817844
 10
4.295569662133454
 20
2.975519673599364
 10
4.291602821315982
 20
2.974712571445291
 10
4.287085401714781
 20
2.974236548997895
 10
4.28197904843052
 20
2.974249547542817
 10
4.27628931129096
 20
2.974955069614927
 10
4.270144579484359
 20
2.976577396393823
 10
4.263783811215144
 20
2.979313341703965
 10
4.257503717598309
 20
2.983306987880648
  0
ARC
  5
CF1
330
9BF
100
AcDbEntity
  8
image
100
AcDbCircle
 10
4.28508878945748
 20
3.022553033506873
 30
0.0
 40
0.0498714412843555
100
AcDbArc
 50
232.7911169583367
 51
292.7911169583369
  0
LINE
  5
CF2
330
9BF
100
AcDbEntity
  8
image
100
AcDbLine
 10
4.157028287991954
 20
3.391276027750709
 30
0.0
 11
4.22288007259579
 21
3.391276027750709
 31
0.0
  0
LINE
  5
CF3
330
9BF
100
AcDbEntity
  8
image
100
AcDbLine
 10
4.328270507040878
 20
3.363945854320913
 30
0.0
 11
4.16702688734308
 21
3.384341058957157
 31
0.0
  0
ARC
  5
CF4
330
9BF
100
AcDbEntity
  8
image
100
AcDbCircle
 10
4.121694587192592
 20
3.424634803007533
 30
0.0
 40
0.0074807161926533
100
AcDbArc
 50
37.79111695833716
 51
82.79111695833721
  0
ARC
  5
CF5
330
9BF
100
AcDbEntity
  8
image
100
AcDbCircle
 10
4.168591442344968
 20
3.396710364052844
 30
0.0
 40
0.0124678603210889
100
AcDbArc
 50
217.7911169583366
 51
262.7911169583368
  0
LINE
  5
CF6
330
9BF
100
AcDbEntity
  8
image
100
AcDbLine
 10
4.158738715390071
 20
3.389070251976539
 30
0.0
 11
4.127606223365527
 21
3.429218870253313
 31
0.0
  0
LWPOLYLINE
  5
CF7
330
9BF
100
AcDbEntity
  8
image
100
AcDbPolyline
 90
       10
 70
     0
 43
0.0
 10
4.309761525554003
 20
3.396454992776444
 10
4.316837639984848
 20
3.398759045756925
 10
4.323678997768602
 20
3.399825123316436
 10
4.330034091596385
 20
3.39986650759228
 10
4.335720486673173
 20
3.399133207530769
 10
4.340669647747876
 20
3.397874333477006
 10
4.3449267553712
 20
3.396288342852506
 10
4.348568067773761
 20
3.394518744487847
 10
4.351666830047974
 20
3.392670997543445
 10
4.354291023913449
 20
3.390822594831747
  0
ARC
  5
CF8
330
9BF
100
AcDbEntity
  8
image
100
AcDbCircle
 10
4.326705952054277
 20
3.351576549205518
 30
0.0
 40
0.0498714412843555
100
AcDbArc
 50
52.79111695833716
 51
112.7911169583373
  0
LINE
  5
CF9
330
9BF
100
AcDbEntity
  8
image
100
AcDbLine
 10
4.254576077999824
 20
3.373267233747297
 30
0.0
 11
4.309761525554003
 21
3.396454992776444
 31
0.0
  0
LINE
  5
CFA
330
9BF
100
AcDbEntity
  8
image
100
AcDbLine
 10
4.250740331122861
 20
3.373752405474211
 30
0.0
 11
4.307387119271587
 21
3.397554188944107
 31
0.0
  0
LWPOLYLINE
  5
CFB
330
9BF
100
AcDbEntity
  8
image
100
AcDbPolyline
 90
        4
 70
     0
 43
0.0
 10
4.309761525554003
 20
3.396454992776444
 10
4.308907401789922
 20
3.397224077117779
 10
4.308090988771019
 20
3.397602030194727
 10
4.307387119271584
 20
3.397554188944107
  0
LINE
  5
CFC
330
9BF
100
AcDbEntity
  8
image
100
AcDbLine
 10
4.306754745721479
 20
3.366667316127295
 30
0.0
 11
4.319812953361978
 21
3.366280490801993
 31
0.0
  0
LWPOLYLINE
  5
CFD
330
9BF
100
AcDbEntity
  8
image
100
AcDbPolyline
 90
        4
 70
     0
 43
0.0
 10
4.354291023913449
 20
3.390822594831747
 10
4.355309758293041
 20
3.391354795996374
 10
4.356194562223111
 20
3.39151756004953
 10
4.356864339717887
 20
3.391295969017388
  0
LINE
  5
CFE
330
9BF
100
AcDbEntity
  8
image
100
AcDbLine
 10
4.067404529202735
 20
2.995419916002353
 30
0.0
 11
3.631368318484001
 21
3.050572782024826
 31
0.0
  0
LINE
  5
CFF
330
9BF
100
AcDbEntity
  8
image
100
AcDbLine
 10
0.7013878642021874
 20
3.040498024359711
 30
0.0
 11
1.688325151243935
 21
3.040824123634823
 31
0.0
  0
LINE
  5
D00
330
9BF
100
AcDbEntity
  8
image
100
AcDbLine
 10
0.7018596045329515
 20
3.335957152756856
 30
0.0
 11
1.444668725745503
 21
3.336154980529863
 31
0.0
  0
LWPOLYLINE
  5
D01
330
9BF
100
AcDbEntity
  8
image
100
AcDbPolyline
 90
       26
 70
     0
 43
0.0
 10
0.701033826195169
 20
3.188172972246124
 10
0.6945816058984623
 20
3.188739749586011
 10
0.6882283514941391
 20
3.190462052052323
 10
0.6820742578425323
 20
3.193312717854317
 10
0.6762163789304838
 20
3.197246790167527
 10
0.6707470972214248
 20
3.202202226188203
 10
0.6657526667843764
 20
3.208100875495055
 10
0.6613118529641925
 20
3.214849712644562
 10
0.6574946902620882
 20
3.222342304188812
 10
0.6543613777130305
 20
3.230460487165222
 10
0.6519613296796953
 20
3.239076232677292
 10
0.6503323964280174
 20
3.248053664885254
 10
0.6495002673207223
 20
3.257251204008392
 10
0.6494780655265118
 20
3.26652379897781
 10
0.6502661411819927
 20
3.275725215035585
 10
0.6518520658439553
 20
3.284710340010692
 10
0.6542108284545489
 20
3.293337472770442
 10
0.6573052298394086
 20
3.301470557902055
 10
0.6610864693295708
 20
3.308981331482519
 10
0.6654949143450582
 20
3.315751343847904
 10
0.670461040886694
 20
3.32167382754349
 10
0.6759065300129948
 20
3.326655381267104
 10
0.6817455028488972
 20
3.330617442708777
 10
0.6878858751066727
 20
3.333497527672652
 10
0.6942308091849708
 20
3.335250215340221
 10
0.7018596045329483
 20
3.335957152756856
  0
LWPOLYLINE
  5
D02
330
9BF
100
AcDbEntity
  8
image
100
AcDbPolyline
 90
       29
 70
     0
 43
0.0
 10
0.7013878642021858
 20
3.040498024359709
 10
0.6899375533085332
 20
3.042291274122299
 10
0.6788386593565185
 20
3.04777622721425
 10
0.6690641307289318
 20
3.056472343390332
 10
0.6607335018094562
 20
3.068273344315547
 10
0.654575826970741
 20
3.082145301216469
 10
0.6506665922959869
 20
3.097918557465999
 10
0.6493487830947151
 20
3.114211318692184
 10
0.650588511746412
 20
3.130510055724634
 10
0.6544221245761248
 20
3.146302013147864
 10
0.6605132624466502
 20
3.160203163568482
 10
0.6687872519528068
 20
3.172043944759601
 10
0.6785200014610905
 20
3.18078679515608
 10
0.6895924871860451
 20
3.186324864968721
 10
0.7010340743930311
 20
3.188172957644793
 10
0.7124837797745894
 20
3.186379706409013
 10
0.7235826737491501
 20
3.180894753317117
 10
0.7333572023766756
 20
3.172198637163583
 10
0.7416884367632629
 20
3.160397637666358
 10
0.7478461112393383
 20
3.146525832137835
 10
0.7517547408096782
 20
3.130752423065369
 10
0.753072549648304
 20
3.114459813211583
 10
0.7518328213592501
 20
3.098160924806731
 10
0.7479998136339514
 20
3.082369120206443
 10
0.7419086761260721
 20
3.068467818413425
 10
0.7336340811528006
 20
3.056627035794313
 10
0.7239013316445778
 20
3.047884185375287
 10
0.7128288458970774
 20
3.04234611556259
 10
0.7013878642021858
 20
3.040498024359709
  0
ARC
  5
D03
330
9BF
100
AcDbEntity
  8
image
100
AcDbCircle
 10
1.532699167075134
 20
3.537838018949504
 30
0.0
 40
0.165822542270482
100
AcDbArc
 50
179.9999999999992
 51
359.9999999999996
  0
ARC
  5
D04
330
9BF
100
AcDbEntity
  8
image
100
AcDbCircle
 10
1.532699167075134
 20
3.537838018949504
 30
0.0
 40
0.2200577346672185
100
AcDbArc
 50
138.8980550269985
 51
40.89396143539959
  0
ARC
  5
D05
330
9BF
100
AcDbEntity
  8
image
100
AcDbCircle
 10
1.532699167075134
 20
3.537838018949504
 30
0.0
 40
0.2178666813195599
100
AcDbArc
 50
139.5629750600571
 51
40.23037778769978
  0
ARC
  5
D06
330
9BF
100
AcDbEntity
  8
image
100
AcDbCircle
 10
1.532699167075134
 20
3.537838018949504
 30
0.0
 40
0.1731260457574542
100
AcDbArc
 50
163.2982969753234
 51
16.51342197939965
  0
LWPOLYLINE
  5
D07
330
9BF
100
AcDbEntity
  8
image
100
AcDbPolyline
 90
        8
 70
     0
 43
0.0
 10
1.701558632632807
 20
3.368978553416768
 10
1.692761148582354
 20
3.362218314351526
 10
1.683307809546387
 20
3.356554284051813
 10
1.67294138416649
 20
3.35167339641515
 10
1.661328322842589
 20
3.347138451082622
 10
1.648396295651917
 20
3.342925412338553
 10
1.634294802787547
 20
3.339236543662679
 10
1.620040238909976
 20
3.336562686014054
  0
LINE
  5
D08
330
9BF
100
AcDbEntity
  8
image
100
AcDbLine
 10
1.620837021909476
 20
3.336201898345907
 30
0.0
 11
1.705859444190386
 21
3.336224541843375
 31
0.0
  0
LWPOLYLINE
  5
D09
330
9BF
100
AcDbEntity
  8
image
100
AcDbPolyline
 90
        8
 70
     0
 43
0.0
 10
1.733978427785554
 20
3.450503233584383
 10
1.731283850971844
 20
3.436168582406046
 10
1.727596018774132
 20
3.422087619444639
 10
1.72338454442237
 20
3.40916919865436
 10
1.718846874263905
 20
3.397556226650209
 10
1.713963316709763
 20
3.387192042193656
 10
1.708302419708025
 20
3.377752308859877
 10
1.701558632657741
 20
3.368978553391833
  0
LINE
  5
D0A
330
9BF
100
AcDbEntity
  8
image
100
AcDbLine
 10
1.698521709345615
 20
3.537838018949504
 30
0.0
 11
1.366876624804651
 21
3.537838018949504
 31
0.0
  0
LINE
  5
D0B
330
9BF
100
AcDbEntity
  8
image
100
AcDbLine
 10
1.366876624804651
 20
3.537838018949504
 30
0.0
 11
1.366876624804651
 21
3.929328833031694
 31
0.0
  0
LINE
  5
D0C
330
9BF
100
AcDbEntity
  8
image
100
AcDbLine
 10
1.698521709345615
 20
3.537838018949504
 30
0.0
 11
1.698521709345615
 21
3.929328833031694
 31
0.0
  0
LINE
  5
D0D
330
9BF
100
AcDbEntity
  8
image
100
AcDbLine
 10
1.698521709345615
 20
3.929328833031694
 30
0.0
 11
1.698521518029028
 21
4.023928783003783
 31
0.0
  0
LINE
  5
D0E
330
9BF
100
AcDbEntity
  8
image
100
AcDbLine
 10
1.366876624804651
 20
3.929328833031694
 30
0.0
 11
1.366876433488065
 21
4.023928783003783
 31
0.0
  0
LWPOLYLINE
  5
D0F
330
9BF
100
AcDbEntity
  8
image
100
AcDbPolyline
 90
        4
 70
     0
 43
0.0
 10
1.698521709345615
 20
3.929328833031694
 10
1.697504867462944
 20
3.930914352800201
 10
1.696061000616214
 20
3.932407656234187
 10
1.694202715831989
 20
3.933647826545318
  0
LWPOLYLINE
  5
D10
330
9BF
100
AcDbEntity
  8
image
100
AcDbPolyline
 90
        4
 70
     0
 43
0.0
 10
1.694202715831989
 20
3.933647826545318
 10
1.693307031653717
 20
3.934010763341014
 10
1.692335422270612
 20
3.93423835896948
 10
1.691323386822909
 20
3.934315977160129
  0
LINE
  5
D11
330
9BF
100
AcDbEntity
  8
image
100
AcDbLine
 10
1.691323386822909
 20
3.934315977160129
 30
0.0
 11
1.374074947327357
 21
3.934315977160129
 31
0.0
  0
LWPOLYLINE
  5
D12
330
9BF
100
AcDbEntity
  8
image
100
AcDbPolyline
 90
        4
 70
     0
 43
0.0
 10
1.371195618318277
 20
3.933647826545318
 10
1.372091302496549
 20
3.934010763341014
 10
1.373062911879655
 20
3.93423835896948
 10
1.374074947327357
 20
3.934315977160129
  0
LWPOLYLINE
  5
D13
330
9BF
100
AcDbEntity
  8
image
100
AcDbPolyline
 90
        4
 70
     0
 43
0.0
 10
1.366876624804651
 20
3.929328833031694
 10
1.367893466687322
 20
3.930914352800201
 10
1.369337333534052
 20
3.932407656234187
 10
1.371195618318277
 20
3.933647826545318
  0
LINE
  5
D15
330
9BF
100
AcDbEntity
  8
image
100
AcDbLine
 10
1.403794747815456
 20
3.98337830852104
 30
0.0
 11
1.651568890917439
 21
3.98337830852104
 31
0.0
  0
LINE
  5
DA2
330
9BF
100
AcDbEntity
  8
image
100
AcDbLine
 10
2.613346046231467
 20
3.344284213786989
 30
0.0
 11
2.673216535359416
 21
3.437548087869514
 31
0.0
  0
LINE
  5
DA3
330
9BF
100
AcDbEntity
  8
image
100
AcDbLine
 10
2.650128515644133
 20
3.38802442763997
 30
0.0
 11
2.688029927989125
 21
3.376362277874731
 31
0.0
  0
LINE
  5
DA4
330
9BF
100
AcDbEntity
  8
image
100
AcDbLine
 10
2.650128515644133
 20
3.38802442763997
 30
0.0
 11
2.724698672223578
 21
3.338785950244573
 31
0.0
  0
LINE
  5
DA5
330
9BF
100
AcDbEntity
  8
image
100
AcDbLine
 10
2.640909746312841
 20
3.441882460205253
 30
0.0
 11
2.6732165873866
 21
3.43754847556333
 31
0.0
  0
LINE
  5
DA6
330
9BF
100
AcDbEntity
  8
image
100
AcDbLine
 10
2.642091658242015
 20
3.465403312951579
 30
0.0
 11
2.675170565554247
 21
3.457019165323091
 31
0.0
  0
LINE
  5
DA7
330
9BF
100
AcDbEntity
  8
image
100
AcDbLine
 10
2.707288203736808
 20
3.431662083655476
 30
0.0
 11
2.642091529027438
 21
3.465403330285803
 31
0.0
  0
LINE
  5
DA8
330
9BF
100
AcDbEntity
  8
image
100
AcDbLine
 10
2.321693265586948
 20
3.462341558953319
 30
0.0
 11
2.341411492151497
 21
3.492584461945556
 31
0.0
  0
LWPOLYLINE
  5
DA9
330
9BF
100
AcDbEntity
  8
image
100
AcDbPolyline
 90
       94
 70
     0
 43
0.0
 10
2.340739811021678
 20
3.459786320407303
 10
2.341458751838574
 20
3.459849257834398
 10
2.342178097559612
 20
3.459929465437693
 10
2.342897188606247
 20
3.460026977351347
 10
2.343615365434855
 20
3.460141827704841
 10
2.3443319684575
 20
3.460274050562434
 10
2.345046338150399
 20
3.460423680068739
 10
2.345757814934976
 20
3.460590750357924
 10
2.346465739243134
 20
3.460775295509369
 10
2.34716945154638
 20
3.460977349632748
 10
2.347868292266141
 20
3.461196946862219
 10
2.348561601819185
 20
3.461434121297002
 10
2.349174581047059
 20
3.461660445639402
 10
2.349782171040846
 20
3.461900795442706
 10
2.350383904263529
 20
3.462155194876173
 10
2.350979313158287
 20
3.462423668093951
 10
2.3515679301975
 20
3.462706239335198
 10
2.35214928785459
 20
3.463002932714414
 10
2.352722918582112
 20
3.46331377245564
 10
2.353288354847747
 20
3.46363878276309
 10
2.353845129105107
 20
3.463977987736129
 10
2.354392773831253
 20
3.464331411648882
 10
2.354930821464679
 20
3.464699078620526
 10
2.355458804488179
 20
3.465081012835466
 10
2.355976255334493
 20
3.465477238502606
 10
2.356482706536519
 20
3.465887779781833
 10
2.356977690472206
 20
3.466312660871616
 10
2.357460739639513
 20
3.466751905936528
 10
2.357854635430837
 20
3.467129737779012
 10
2.358239398969792
 20
3.467517468174283
 10
2.358614548273819
 20
3.467914960432318
 10
2.358979601210098
 20
3.468322077936616
 10
2.359334075776259
 20
3.468738683982024
 10
2.359677489884874
 20
3.469164641892565
 10
2.360009361453228
 20
3.46959981502724
 10
2.360329208448668
 20
3.470044066720527
 10
2.360636548798913
 20
3.470497260276645
 10
2.360930900441053
 20
3.47095925906972
 10
2.361211781302813
 20
3.471429926403954
 10
2.361478709371353
 20
3.471909125628978
 10
2.361731202539444
 20
3.472396720053693
 10
2.361968778759321
 20
3.472892573032393
 10
2.36219095594355
 20
3.473396547889127
 10
2.362397252079317
 20
3.473908507973504
 10
2.362587185079211
 20
3.474428316609554
 10
2.362760272875628
 20
3.47495583713646
 10
2.362916033416111
 20
3.475490932873564
 10
2.363053984667998
 20
3.476033467155342
 10
2.363173644493818
 20
3.476583303330357
 10
2.363274530910985
 20
3.477140304708565
 10
2.363338231443921
 20
3.477567194557605
 10
2.363390775893877
 20
3.477997489488732
 10
2.363432076268025
 20
3.478430554529504
 10
2.363462044598078
 20
3.478865754757534
 10
2.363480592841105
 20
3.479302455224869
 10
2.363487633028802
 20
3.47974002100913
 10
2.363483077183478
 20
3.480177817118039
 10
2.363466837251786
 20
3.480615208658413
 10
2.3634388253108
 20
3.481051560648406
 10
2.3633989533025
 20
3.481486238159892
 10
2.363347133253879
 20
3.481918606235544
 10
2.363283277176793
 20
3.48234802993784
 10
2.36320729706799
 20
3.482773874349099
 10
2.363119104899691
 20
3.483195504501551
 10
2.363018612733844
 20
3.483612285433162
 10
2.36290573253224
 20
3.484023582230942
 10
2.362780376321883
 20
3.484428759937558
 10
2.362642456094806
 20
3.48482718360037
 10
2.362491883847744
 20
3.485218218301687
 10
2.362328571607703
 20
3.485601229084168
 10
2.362152431346913
 20
3.485975580980064
 10
2.361963375081921
 20
3.486340639086794
 10
2.361761314835044
 20
3.486695768412081
 10
2.361546162568065
 20
3.487040334042928
 10
2.361317830312665
 20
3.487373701056956
 10
2.361076230091164
 20
3.487695234461876
 10
2.360821273865331
 20
3.4880042993447
 10
2.360552873677311
 20
3.488300260728263
 10
2.360309874985678
 20
3.488545132203383
 10
2.360056700875824
 20
3.488779320267981
 10
2.359793294488878
 20
3.489002414340113
 10
2.359519598925299
 20
3.489214003932244
 10
2.359235557271454
 20
3.489413678452
 10
2.358941112638226
 20
3.489601027357078
 10
2.358636208116673
 20
3.489775640090035
 10
2.358320786837494
 20
3.489937106123713
 10
2.357994791867253
 20
3.490085014850595
 10
2.357658166326204
 20
3.490218955798283
 10
2.357310853335671
 20
3.490338518369702
 10
2.356952795951759
 20
3.490443292012109
 10
2.356583937305186
 20
3.490532866198331
 10
2.35620422050213
 20
3.490606830351123
 10
2.355813588618532
 20
3.49066477393287
 10
2.355411984780397
 20
3.490706286381451
  0
LWPOLYLINE
  5
DAA
330
9BF
100
AcDbEntity
  8
image
100
AcDbPolyline
 90
       92
 70
     0
 43
0.0
 10
2.338252294188481
 20
3.431178364201683
 10
2.339991298544721
 20
3.431108567822497
 10
2.341734596324978
 20
3.431085053026939
 10
2.343480490590367
 20
3.43110813600183
 10
2.345227284351947
 20
3.431178132958484
 10
2.34697328059623
 20
3.431295360058153
 10
2.348716782369226
 20
3.431460133507456
 10
2.350456092677276
 20
3.43167276948277
 10
2.351994427406228
 20
3.431901758856278
 10
2.353526941320732
 20
3.432168896411503
 10
2.355052449151768
 20
3.432474402920303
 10
2.356569765614127
 20
3.43281849929903
 10
2.358077705443492
 20
3.433201406354494
 10
2.359575083349947
 20
3.4336233449681
 10
2.3610607140144
 20
3.434084535936205
 10
2.362533412186601
 20
3.43458520017048
 10
2.363991992582402
 20
3.435125558462605
 10
2.365435269876944
 20
3.435705831698657
 10
2.366862058840865
 20
3.436326240680775
 10
2.368271174169124
 20
3.43698700631016
 10
2.369661430547314
 20
3.437688349418141
 10
2.370958252565129
 20
3.438389245037314
 10
2.372236343955906
 20
3.439125978841697
 10
2.373494912944237
 20
3.439897876027672
 10
2.374733167750051
 20
3.440704261756677
 10
2.375950316578116
 20
3.441544461209947
 10
2.377145567668168
 20
3.442417799564035
 10
2.378318129220307
 20
3.443323601965254
 10
2.379467209459133
 20
3.444261193609968
 10
2.380592016624366
 20
3.445229899674742
 10
2.381691758900978
 20
3.446229045325689
 10
2.382765644533397
 20
3.447257955774315
 10
2.383812881736834
 20
3.448315956147105
 10
2.384832678700957
 20
3.449402371645113
 10
2.385824243680611
 20
3.450516527425086
 10
2.386786784885272
 20
3.451657748703224
 10
2.387719510530177
 20
3.452825360605995
 10
2.388621628839908
 20
3.454018688329788
 10
2.389492348019269
 20
3.455237057055835
 10
2.39033087628815
 20
3.456479791945573
 10
2.391136421886303
 20
3.45774621817556
 10
2.391908193018493
 20
3.459035660927041
 10
2.39264539790933
 20
3.46034744539639
 10
2.39334724477405
 20
3.46168089671009
 10
2.394012941841922
 20
3.463035340099462
 10
2.394573635453392
 20
3.464256307325424
 10
2.395104110958459
 20
3.465492099540632
 10
2.395603341832906
 20
3.466741486893691
 10
2.39607030150714
 20
3.468003239592667
 10
2.396503963432454
 20
3.469276127736069
 10
2.39690330107418
 20
3.470558921527273
 10
2.397267287888324
 20
3.471850391099736
 10
2.39759489731569
 20
3.47314930660676
 10
2.397885102801836
 20
3.474454438236572
 10
2.398136877817857
 20
3.475764556102828
 10
2.398349195824415
 20
3.477078430373945
 10
2.398521030267045
 20
3.478394831238162
 10
2.398651354581905
 20
3.479712528813816
 10
2.39873914223433
 20
3.481030293304279
 10
2.398783366695453
 20
3.482346894823191
 10
2.398783001390957
 20
3.483661103543669
 10
2.398737019796649
 20
3.484971689614315
 10
2.398644395338245
 20
3.486277423208222
 10
2.398504101511347
 20
3.487577074489129
 10
2.398315111717161
 20
3.488869413580068
 10
2.398076399455993
 20
3.490153210679714
 10
2.397786938148868
 20
3.49142723592622
 10
2.397475365439128
 20
3.492589042746721
 10
2.397120911470525
 20
3.493740104808953
 10
2.396724477888397
 20
3.494878980668857
 10
2.396286966268182
 20
3.49600422889175
 10
2.395809278309986
 20
3.497114408044016
 10
2.395292315574104
 20
3.498208076710804
 10
2.394736979760669
 20
3.4992837934585
 10
2.394144172445104
 20
3.500340116852412
 10
2.39351479527275
 20
3.501375605448496
 10
2.392849749893634
 20
3.502388817837642
 10
2.392149937903012
 20
3.503378312600294
 10
2.391416260981167
 20
3.50434264828772
 10
2.390649620688418
 20
3.505280383485053
 10
2.389850918705049
 20
3.506190076743548
 10
2.389045415150753
 20
3.507045330401443
 10
2.38821134858031
 20
3.507871456308523
 10
2.387349544859606
 20
3.508667134143415
 10
2.386460829809101
 20
3.509431043644229
 10
2.385546029329607
 20
3.510161864484928
 10
2.38460596924158
 20
3.510858276403603
 10
2.383641475430713
 20
3.511518959094041
 10
2.382653373747742
 20
3.512142592254706
 10
2.381642490028248
 20
3.512727855603877
 10
2.380609650162615
 20
3.513273428870291
 10
2.379555679996865
 20
3.513777991717458
  0
LINE
  5
DAB
330
9BF
100
AcDbEntity
  8
image
100
AcDbLine
 10
2.312246563439096
 20
3.384677045162079
 30
0.0
 11
2.345879664931081
 21
3.380165141785525
 31
0.0
  0
LINE
  5
DAC
330
9BF
100
AcDbEntity
  8
image
100
AcDbLine
 10
2.304562680963896
 20
3.436067249457711
 30
0.0
 11
2.312246434224523
 21
3.384677062496301
 31
0.0
  0
LINE
  5
DAD
330
9BF
100
AcDbEntity
  8
image
100
AcDbLine
 10
2.274369635310145
 20
3.389758260760327
 30
0.0
 11
2.304562680963896
 21
3.436067249457711
 31
0.0
  0
LINE
  5
DAE
330
9BF
100
AcDbEntity
  8
image
100
AcDbLine
 10
2.4647347239808
 20
3.36422065500143
 30
0.0
 11
2.497041565039424
 21
3.35988667037933
 31
0.0
  0
LINE
  5
DAF
330
9BF
100
AcDbEntity
  8
image
100
AcDbLine
 10
2.4647347239808
 20
3.36422065500143
 30
0.0
 11
2.524605101198134
 21
3.457484675672399
 31
0.0
  0
LINE
  5
DB0
330
9BF
100
AcDbEntity
  8
image
100
AcDbLine
 10
2.321693377482427
 20
3.462341412384698
 30
0.0
 11
2.340739811021678
 21
3.459786320407303
 31
0.0
  0
LINE
  5
DB1
330
9BF
100
AcDbEntity
  8
image
100
AcDbLine
 10
2.438669309030593
 20
3.469013152034756
 30
0.0
 11
2.483252620469834
 21
3.463032270566881
 31
0.0
  0
LINE
  5
DB2
330
9BF
100
AcDbEntity
  8
image
100
AcDbLine
 10
2.4467508436231
 20
3.436199874087907
 30
0.0
 11
2.43719856113404
 21
3.407380284453762
 31
0.0
  0
LINE
  5
DB3
330
9BF
100
AcDbEntity
  8
image
100
AcDbLine
 10
2.420703334241206
 20
3.409593130329197
 30
0.0
 11
2.446750714388705
 21
3.436199891407003
 31
0.0
  0
LINE
  5
DB4
330
9BF
100
AcDbEntity
  8
image
100
AcDbLine
 10
2.338252294188481
 20
3.431178364201683
 30
0.0
 11
2.345879664931081
 21
3.380165141785525
 31
0.0
  0
LINE
  5
DB5
330
9BF
100
AcDbEntity
  8
image
100
AcDbLine
 10
2.429684103382049
 20
3.384708815484588
 30
0.0
 11
2.424674482193206
 21
3.369594632067827
 31
0.0
  0
LINE
  5
DB6
330
9BF
100
AcDbEntity
  8
image
100
AcDbLine
 10
2.386552409754139
 20
3.374708733941542
 30
0.0
 11
2.400212769141649
 21
3.388662414943862
 31
0.0
  0
LINE
  5
DB7
330
9BF
100
AcDbEntity
  8
image
100
AcDbLine
 10
2.420703351580126
 20
3.409593259578724
 30
0.0
 11
2.437198578488088
 21
3.407380413683467
 31
0.0
  0
LINE
  5
DB8
330
9BF
100
AcDbEntity
  8
image
100
AcDbLine
 10
2.429684008820787
 20
3.384709091267782
 30
0.0
 11
2.400212803814791
 21
3.388662673407968
 31
0.0
  0
LINE
  5
DB9
330
9BF
100
AcDbEntity
  8
image
100
AcDbLine
 10
2.45698134056623
 20
3.365260776645171
 30
0.0
 11
2.424674499527431
 21
3.369594761282402
 31
0.0
  0
LINE
  5
DBA
330
9BF
100
AcDbEntity
  8
image
100
AcDbLine
 10
2.386552297858651
 20
3.374708880510167
 30
0.0
 11
2.351014772712468
 21
3.379476263611587
 31
0.0
  0
LINE
  5
DBB
330
9BF
100
AcDbEntity
  8
image
100
AcDbLine
 10
2.48325271501128
 20
3.463031994768552
 30
0.0
 11
2.456981305893102
 21
3.365260518181067
 31
0.0
  0
LINE
  5
DBC
330
9BF
100
AcDbEntity
  8
image
100
AcDbLine
 10
2.351014884607951
 20
3.37947611704297
 30
0.0
 11
2.438669127808657
 21
3.4690127816903
 31
0.0
  0
LINE
  5
DBD
330
9BF
100
AcDbEntity
  8
image
100
AcDbLine
 10
2.576296193449809
 20
3.450550412145497
 30
0.0
 11
2.608603034523569
 21
3.446216427503573
 31
0.0
  0
LINE
  5
DBE
330
9BF
100
AcDbEntity
  8
image
100
AcDbLine
 10
2.524605377016286
 20
3.457484770228968
 30
0.0
 11
2.556912218055088
 21
3.453150785591737
 31
0.0
  0
LINE
  5
DBF
330
9BF
100
AcDbEntity
  8
image
100
AcDbLine
 10
2.581039351761289
 20
3.348618310319708
 30
0.0
 11
2.613346192815215
 21
3.344284325662659
 31
0.0
  0
LINE
  5
DC0
330
9BF
100
AcDbEntity
  8
image
100
AcDbLine
 10
2.608602776059465
 20
3.446216462176707
 30
0.0
 11
2.61214077766474
 21
3.397067098231842
 31
0.0
  0
LINE
  5
DC1
330
9BF
100
AcDbEntity
  8
image
100
AcDbLine
 10
2.61214077766474
 20
3.397067098231842
 30
0.0
 11
2.640909711639713
 21
3.441882201741146
 31
0.0
  0
LINE
  5
DC2
330
9BF
100
AcDbEntity
  8
image
100
AcDbLine
 10
2.579834083174736
 20
3.401401194749428
 30
0.0
 11
2.581039334442186
 21
3.348618181085313
 31
0.0
  0
LINE
  5
DC3
330
9BF
100
AcDbEntity
  8
image
100
AcDbLine
 10
2.548732364138726
 20
3.352952183081275
 30
0.0
 11
2.579833936625933
 21
3.401401082869072
 31
0.0
  0
LINE
  5
DC4
330
9BF
100
AcDbEntity
  8
image
100
AcDbLine
 10
2.516425669663854
 20
3.357286279579044
 30
0.0
 11
2.548732510722479
 21
3.352952294956945
 31
0.0
  0
LINE
  5
DC5
330
9BF
100
AcDbEntity
  8
image
100
AcDbLine
 10
2.497041565039424
 20
3.35988667037933
 30
0.0
 11
2.556912088840506
 21
3.453150802925963
 31
0.0
  0
LINE
  5
DC6
330
9BF
100
AcDbEntity
  8
image
100
AcDbLine
 10
2.516425523080103
 20
3.357286167703379
 30
0.0
 11
2.576296046881188
 21
3.450550300250013
 31
0.0
  0
LINE
  5
DC7
330
9BF
100
AcDbEntity
  8
image
100
AcDbLine
 10
2.321403236884477
 20
3.52157918140245
 30
0.0
 11
2.379555679996865
 21
3.513777991717457
 31
0.0
  0
LINE
  5
DC8
330
9BF
100
AcDbEntity
  8
image
100
AcDbLine
 10
2.341411621366074
 20
3.492584444611334
 30
0.0
 11
2.355411984780393
 21
3.490706286381451
 31
0.0
  0
LINE
  5
DC9
330
9BF
100
AcDbEntity
  8
image
100
AcDbLine
 10
2.763060870156564
 20
3.464961438623747
 30
0.0
 11
2.750595314781347
 21
3.499522080924942
 31
0.0
  0
LINE
  5
DCA
330
9BF
100
AcDbEntity
  8
image
100
AcDbLine
 10
2.750595426657009
 20
3.499521934341191
 30
0.0
 11
2.801646323325776
 21
3.443181380777023
 31
0.0
  0
LINE
  5
DCB
330
9BF
100
AcDbEntity
  8
image
100
AcDbLine
 10
2.682609029091665
 20
3.492855996631107
 30
0.0
 11
2.719958564350465
 21
3.437855525704048
 31
0.0
  0
LINE
  5
DCC
330
9BF
100
AcDbEntity
  8
image
100
AcDbLine
 10
2.69258480250208
 20
3.469153862772321
 30
0.0
 11
2.682609158306239
 21
3.492855979296885
 31
0.0
  0
LINE
  5
DCD
330
9BF
100
AcDbEntity
  8
image
100
AcDbLine
 10
2.803071221218806
 20
3.42009952577994
 30
0.0
 11
2.78208300848151
 21
3.390253023674894
 31
0.0
  0
LINE
  5
DCE
330
9BF
100
AcDbEntity
  8
image
100
AcDbLine
 10
2.750390397627593
 20
3.458768143128663
 30
0.0
 11
2.761327293638705
 21
3.452038831443774
 31
0.0
  0
LINE
  5
DCF
330
9BF
100
AcDbEntity
  8
image
100
AcDbLine
 10
2.688786610293933
 20
3.460454683371197
 30
0.0
 11
2.686076004362472
 21
3.464764902772381
 31
0.0
  0
LINE
  5
DD0
330
9BF
100
AcDbEntity
  8
image
100
AcDbLine
 10
2.759924428473524
 20
3.421969706980002
 30
0.0
 11
2.749602082829174
 21
3.443087405481024
 31
0.0
  0
LINE
  5
DD1
330
9BF
100
AcDbEntity
  8
image
100
AcDbLine
 10
2.76165802233029
 20
3.434892443409501
 30
0.0
 11
2.750390139163489
 21
3.458768177801795
 31
0.0
  0
LINE
  5
DD2
330
9BF
100
AcDbEntity
  8
image
100
AcDbLine
 10
2.731462867930233
 20
3.386322078578312
 30
0.0
 11
2.728452843936757
 21
3.393303524949156
 31
0.0
  0
LINE
  5
DD3
330
9BF
100
AcDbEntity
  8
image
100
AcDbLine
 10
2.757765521823706
 20
3.415681939294067
 30
0.0
 11
2.752864370743008
 21
3.428179069773454
 31
0.0
  0
LINE
  5
DD4
330
9BF
100
AcDbEntity
  8
image
100
AcDbLine
 10
2.683097566801588
 20
3.457271282655006
 30
0.0
 11
2.681206457053285
 21
3.462787096013077
 31
0.0
  0
LINE
  5
DD5
330
9BF
100
AcDbEntity
  8
image
100
AcDbLine
 10
2.816894471435503
 20
3.336711003304629
 30
0.0
 11
2.815176703751903
 21
3.343518961057275
 31
0.0
  0
LINE
  5
DD6
330
9BF
100
AcDbEntity
  8
image
100
AcDbLine
 10
2.826633971071482
 20
3.340666694065401
 30
0.0
 11
2.814766755284396
 21
3.350141576899475
 31
0.0
  0
LINE
  5
DD7
330
9BF
100
AcDbEntity
  8
image
100
AcDbLine
 10
2.752864370743008
 20
3.428179069773454
 30
0.0
 11
2.759924575061966
 21
3.42196981889062
 31
0.0
  0
LINE
  5
DD8
330
9BF
100
AcDbEntity
  8
image
100
AcDbLine
 10
2.688029798774548
 20
3.376362295208956
 30
0.0
 11
2.675201793015129
 21
3.388607420251917
 31
0.0
  0
LINE
  5
DD9
330
9BF
100
AcDbEntity
  8
image
100
AcDbLine
 10
2.720604600637532
 20
3.383832132740927
 30
0.0
 11
2.711306550474195
 21
3.392972520419595
 31
0.0
  0
LINE
  5
DDA
330
9BF
100
AcDbEntity
  8
image
100
AcDbLine
 10
2.705522793650671
 20
3.379277717766745
 30
0.0
 11
2.69286801806048
 21
3.392815133772898
 31
0.0
  0
LINE
  5
DDB
330
9BF
100
AcDbEntity
  8
image
100
AcDbLine
 10
2.741761678100352
 20
3.389544840922075
 30
0.0
 11
2.707288074502404
 21
3.431662100974567
 31
0.0
  0
LINE
  5
DDC
330
9BF
100
AcDbEntity
  8
image
100
AcDbLine
 10
2.758496817951289
 20
3.356800421701582
 30
0.0
 11
2.745720463971691
 21
3.341775444553028
 31
0.0
  0
LINE
  5
DDD
330
9BF
100
AcDbEntity
  8
image
100
AcDbLine
 10
2.801423730825
 20
3.373068820441135
 30
0.0
 11
2.789069713803049
 21
3.374560560439507
 31
0.0
  0
LINE
  5
DDE
330
9BF
100
AcDbEntity
  8
image
100
AcDbLine
 10
2.81517673842504
 20
3.343519219521379
 30
0.0
 11
2.826633841821951
 21
3.340666711404318
 31
0.0
  0
LINE
  5
DDF
330
9BF
100
AcDbEntity
  8
image
100
AcDbLine
 10
2.728452843936757
 20
3.393303524949156
 30
0.0
 11
2.74176180731493
 21
3.389544823587854
 31
0.0
  0
LINE
  5
DE0
330
9BF
100
AcDbEntity
  8
image
100
AcDbLine
 10
2.779454680924281
 20
3.363018367345473
 30
0.0
 11
2.787302043397986
 21
3.360682822292484
 31
0.0
  0
LINE
  5
DE1
330
9BF
100
AcDbEntity
  8
image
100
AcDbLine
 10
2.681206457053285
 20
3.462787096013077
 30
0.0
 11
2.688786739528328
 21
3.460454666052103
 31
0.0
  0
LINE
  5
DE2
330
9BF
100
AcDbEntity
  8
image
100
AcDbLine
 10
2.67520166378073
 20
3.388607437571005
 30
0.0
 11
2.705522793650671
 21
3.379277717766745
 31
0.0
  0
LINE
  5
DE3
330
9BF
100
AcDbEntity
  8
image
100
AcDbLine
 10
2.69286801806048
 20
3.392815133772898
 30
0.0
 11
2.720604600637532
 21
3.383832132740927
 31
0.0
  0
LINE
  5
DE4
330
9BF
100
AcDbEntity
  8
image
100
AcDbLine
 10
2.711306550474195
 20
3.392972520419595
 30
0.0
 11
2.7314629798059
 21
3.386321931994556
 31
0.0
  0
LINE
  5
DE5
330
9BF
100
AcDbEntity
  8
image
100
AcDbLine
 10
2.686076004362472
 20
3.464764902772381
 30
0.0
 11
2.691717876359119
 21
3.462692511891796
 31
0.0
  0
LINE
  5
DE6
330
9BF
100
AcDbEntity
  8
image
100
AcDbLine
 10
2.719958805475667
 20
3.437855361781384
 30
0.0
 11
2.75776548715057
 21
3.415681680829958
 31
0.0
  0
LINE
  5
DE7
330
9BF
100
AcDbEntity
  8
image
100
AcDbLine
 10
2.749602212078705
 20
3.443087388142113
 30
0.0
 11
2.76165815157982
 21
3.43489242607059
 31
0.0
  0
ARC
  5
DE8
330
9BF
100
AcDbEntity
  8
image
100
AcDbCircle
 10
2.733521869006704
 20
3.352148409874842
 30
0.0
 40
0.0160126240440367
100
AcDbArc
 50
236.5633226578656
 51
319.6241228802657
  0
ARC
  5
DE9
330
9BF
100
AcDbEntity
  8
image
100
AcDbCircle
 10
2.790269445769596
 20
3.384496279156024
 30
0.0
 40
0.0100078900212891
100
AcDbArc
 50
144.8849175260654
 51
263.1149030813656
  0
ARC
  5
DEA
330
9BF
100
AcDbEntity
  8
image
100
AcDbCircle
 10
2.799431261663829
 20
3.35656795700907
 30
0.0
 40
0.0166275592212085
100
AcDbArc
 50
337.263747176565
 51
83.11490308136525
  0
ARC
  5
DEB
330
9BF
100
AcDbEntity
  8
image
100
AcDbCircle
 10
2.773745061656355
 20
3.343834215040573
 30
0.0
 40
0.0200157800675137
100
AcDbArc
 50
73.42585473396524
 51
139.6241228802652
  0
ARC
  5
DEC
330
9BF
100
AcDbEntity
  8
image
100
AcDbCircle
 10
2.776035422458862
 20
3.31652319376179
 30
0.0
 40
0.045574220121674
100
AcDbArc
 50
26.29324862376515
 51
75.68724158406531
  0
LINE
  5
DED
330
9BF
100
AcDbEntity
  8
image
100
AcDbLine
 10
2.761327164389178
 20
3.452038848782688
 30
0.0
 11
2.752297092388934
 21
3.472983187880082
 31
0.0
  0
LINE
  5
DEE
330
9BF
100
AcDbEntity
  8
image
100
AcDbLine
 10
2.752297204299549
 20
3.472983041291643
 30
0.0
 11
2.763060982052047
 21
3.464961292055127
 31
0.0
  0
ARC
  5
DEF
330
9BF
100
AcDbEntity
  8
image
100
AcDbCircle
 10
2.787926312233972
 20
3.43074950312586
 30
0.0
 40
0.0185145965680607
100
AcDbArc
 50
324.884917526065
 51
42.18012680566529
  0
LINE
  5
DF0
330
9BF
100
AcDbEntity
  8
image
100
AcDbLine
 10
2.691717876359119
 20
3.462692511891796
 30
0.0
 11
2.686296793690951
 21
3.471312933344804
 31
0.0
  0
LINE
  5
DF1
330
9BF
100
AcDbEntity
  8
image
100
AcDbLine
 10
2.675170418985626
 20
3.457019053427603
 30
0.0
 11
2.668283591409199
 21
3.464520707204068
 31
0.0
  0
LINE
  5
DF2
330
9BF
100
AcDbEntity
  8
image
100
AcDbLine
 10
2.68629677635204
 20
3.471312804095274
 30
0.0
 11
2.692584785163165
 21
3.469153733522793
 31
0.0
  0
LINE
  5
DF3
330
9BF
100
AcDbEntity
  8
image
100
AcDbLine
 10
2.66828370328487
 20
3.464520560620318
 30
0.0
 11
2.683097437571878
 21
3.45727130000905
 31
0.0
  0
LINE
  5
DF4
330
9BF
100
AcDbEntity
  8
image
100
AcDbLine
 10
2.238586836639269
 20
3.394558547471446
 30
0.0
 11
2.321403236884477
 21
3.52157918140245
 31
0.0
  0
LINE
  5
DF5
330
9BF
100
AcDbEntity
  8
image
100
AcDbLine
 10
2.238586836639269
 20
3.394558547471446
 30
0.0
 11
2.274369635310145
 21
3.389758260760327
 31
0.0
  0
LINE
  5
DF6
330
9BF
100
AcDbEntity
  8
image
100
AcDbLine
 10
2.96872131513234
 20
3.296610511973244
 30
0.0
 11
3.028591692369491
 21
3.389874532659338
 31
0.0
  0
LINE
  5
DF7
330
9BF
100
AcDbEntity
  8
image
100
AcDbLine
 10
2.985521001718101
 20
3.294356822641292
 30
0.0
 11
3.015220680676027
 21
3.290372590565495
 31
0.0
  0
LINE
  5
DF8
330
9BF
100
AcDbEntity
  8
image
100
AcDbLine
 10
2.996284997879492
 20
3.39420862917693
 30
0.0
 11
3.028591838918295
 21
3.389874644539697
 31
0.0
  0
LINE
  5
DF9
330
9BF
100
AcDbEntity
  8
image
100
AcDbLine
 10
2.820109975547444
 20
3.316546823973109
 30
0.0
 11
2.89764626480503
 21
3.306145278180783
 31
0.0
  0
LINE
  5
DFA
330
9BF
100
AcDbEntity
  8
image
100
AcDbLine
 10
2.820109846297921
 20
3.316546841312018
 30
0.0
 11
2.902926117328552
 21
3.443567492577249
 31
0.0
  0
LINE
  5
DFB
330
9BF
100
AcDbEntity
  8
image
100
AcDbLine
 10
2.90292637579266
 20
3.443567457904117
 30
0.0
 11
2.955903586888956
 21
3.436460529104139
 31
0.0
  0
LINE
  5
DFC
330
9BF
100
AcDbEntity
  8
image
100
AcDbLine
 10
2.905187978936682
 20
3.387354040653971
 30
0.0
 11
2.922934355241529
 21
3.414572643890645
 31
0.0
  0
LINE
  5
DFD
330
9BF
100
AcDbEntity
  8
image
100
AcDbLine
 10
2.92293463105968
 20
3.414572738447225
 30
0.0
 11
2.936934994454177
 21
3.412694580202204
 31
0.0
  0
LINE
  5
DFE
330
9BF
100
AcDbEntity
  8
image
100
AcDbLine
 10
2.936414344844007
 20
3.30094451394939
 30
0.0
 11
2.99628486866491
 21
3.394208646511153
 31
0.0
  0
LINE
  5
DFF
330
9BF
100
AcDbEntity
  8
image
100
AcDbLine
 10
2.889413693981798
 20
3.363159573254881
 30
0.0
 11
2.903414057376303
 21
3.361281415009868
 31
0.0
  0
LINE
  5
E00
330
9BF
100
AcDbEntity
  8
image
100
AcDbLine
 10
2.936414603327933
 20
3.300944479291385
 30
0.0
 11
2.96872144436674
 21
3.296610494654156
 31
0.0
  0
LWPOLYLINE
  5
E01
330
9BF
100
AcDbEntity
  8
image
100
AcDbPolyline
 90
      102
 70
     0
 43
0.0
 10
2.889175299416009
 20
3.333592262357671
 10
2.889713609080035
 20
3.333500700362662
 10
2.890246065197351
 20
3.333425273632018
 10
2.890772740413311
 20
3.333365801742118
 10
2.891293707412897
 20
3.333322104299623
 10
2.891809038791336
 20
3.333294000905435
 10
2.892318807263896
 20
3.333281311126561
 10
2.892823085430506
 20
3.333283854598854
 10
2.893321945986591
 20
3.333301450874192
 10
2.893815461547219
 20
3.333333919568613
 10
2.894303704792681
 20
3.333381080253807
 10
2.894786748338058
 20
3.333442752545814
 10
2.895264664883457
 20
3.333518756031461
 10
2.895737527059069
 20
3.333608910306968
 10
2.896205407545206
 20
3.333713034944023
 10
2.896668378941801
 20
3.333830949578486
 10
2.89712651394426
 20
3.333962473762228
 10
2.897579885167679
 20
3.334107427111296
 10
2.898028565312158
 20
3.334265629212504
 10
2.898472626988086
 20
3.334436899646946
 10
2.898912142880431
 20
3.334621058021272
 10
2.899412065450902
 20
3.334848540961995
 10
2.899906182662577
 20
3.335092555506023
 10
2.900394605018536
 20
3.335352827342918
 10
2.900877443042739
 20
3.335629082052742
 10
2.901354807228888
 20
3.335921045255167
 10
2.901826808035708
 20
3.33622844257457
 10
2.902293555991859
 20
3.33655099962595
 10
2.902755161586347
 20
3.336888441994035
 10
2.903211735337374
 20
3.33724049534859
 10
2.903663387749086
 20
3.337606885254532
 10
2.904110229284898
 20
3.337987337371178
 10
2.904464256586516
 20
3.338301642296059
 10
2.904814816227315
 20
3.338624489096132
 10
2.905161449256106
 20
3.338955593963077
 10
2.905503696736846
 20
3.339294673068742
 10
2.905841099723018
 20
3.339641442639764
 10
2.906173199263437
 20
3.339995618867809
 10
2.906499536457002
 20
3.340356917920048
 10
2.906819652322249
 20
3.340725056027787
 10
2.907133087958087
 20
3.341099749358201
 10
2.90743938439819
 20
3.341480714122782
 10
2.907738082741444
 20
3.341867666488693
 10
2.908028723986598
 20
3.342260322672113
 10
2.908310849237209
 20
3.342658398875172
 10
2.908583999557238
 20
3.343061611269713
 10
2.908847715980348
 20
3.343469676067238
 10
2.909101539590326
 20
3.343882309454728
 10
2.909345011455778
 20
3.344299227638987
 10
2.909577672605705
 20
3.344720146796564
 10
2.90979906412388
 20
3.345144783114439
 10
2.910008727043961
 20
3.345572852804111
 10
2.910206202469549
 20
3.3460040720677
 10
2.910391031444765
 20
3.34643815706192
 10
2.910562755007958
 20
3.34687482403322
 10
2.910720914238225
 20
3.347313789133639
 10
2.910865050204191
 20
3.347754768569977
 10
2.910994703974481
 20
3.348197478549045
 10
2.911109416578084
 20
3.348641635247388
 10
2.911208729083643
 20
3.3490869548718
 10
2.91129218257492
 20
3.349533153609273
 10
2.91135931808558
 20
3.349979947671313
 10
2.911409676714526
 20
3.350427053225063
 10
2.911442799475613
 20
3.350874186466907
 10
2.911458227457298
 20
3.351321063618767
 10
2.91145550172353
 20
3.351767400852506
 10
2.911434163307982
 20
3.352212914379619
 10
2.911393753309536
 20
3.352657320367261
 10
2.911333812761881
 20
3.353100335026945
 10
2.911253882728962
 20
3.35354167453051
 10
2.911171149317592
 20
3.353910399530313
 10
2.911074275364151
 20
3.354277133521144
 10
2.91096351555088
 20
3.354641264621606
 10
2.910839124535486
 20
3.355002180900225
 10
2.910701356975705
 20
3.355359270425513
 10
2.910550467584004
 20
3.355711921276445
 10
2.910386711022816
 20
3.356059521556484
 10
2.910210341945151
 20
3.356401459299209
 10
2.91002161502855
 20
3.356737122588266
 10
2.909820784970389
 20
3.35706589952244
 10
2.909608106423681
 20
3.357387178135306
 10
2.909383834055526
 20
3.357700346565281
 10
2.909148222588863
 20
3.358004792836563
 10
2.908901526631316
 20
3.358299905042174
 10
2.908644000875572
 20
3.35858507124595
 10
2.908375900018977
 20
3.358859679546684
 10
2.908122079002193
 20
3.359100681612637
 10
2.907859847330898
 20
3.359331905114331
 10
2.90758939887113
 20
3.359552884237725
 10
2.907310927538991
 20
3.359763153144279
 10
2.907024627195818
 20
3.359962245985014
 10
2.906730691718077
 20
3.360149696891133
 10
2.906429314971801
 20
3.360325040048595
 10
2.906120690853278
 20
3.360487809603741
 10
2.905805013223843
 20
3.360637539707564
 10
2.905482475964665
 20
3.36077376452624
 10
2.905153272952184
 20
3.360896018190954
 10
2.904817598087409
 20
3.361003834882986
 10
2.904475645216529
 20
3.361096748773174
 10
2.904127608231155
 20
3.361174293972899
 10
2.903773680997292
 20
3.361236004668125
 10
2.903414057376303
 20
3.361281415009868
  0
LINE
  5
E02
330
9BF
100
AcDbEntity
  8
image
100
AcDbLine
 10
2.871667041838991
 20
3.335940875446504
 30
0.0
 11
2.889413418178782
 21
3.363159478678489
 31
0.0
  0
LWPOLYLINE
  5
E03
330
9BF
100
AcDbEntity
  8
image
100
AcDbPolyline
 90
       81
 70
     0
 43
0.0
 10
2.89764626480503
 20
3.306145278180782
 10
2.898862851173618
 20
3.306144793861974
 10
2.900071863094539
 20
3.306177708653394
 10
2.901273126516168
 20
3.306243498253849
 10
2.902466467297162
 20
3.306341638356383
 10
2.903651711390572
 20
3.306471604694762
 10
2.904828684655063
 20
3.306632872962028
 10
2.905997213039002
 20
3.306824918856992
 10
2.907157122405731
 20
3.307047218107655
 10
2.908308238663998
 20
3.307299246382551
 10
2.909450387751717
 20
3.307580479435268
 10
2.910583395542678
 20
3.307890392939026
 10
2.911707087954999
 20
3.308228462632278
 10
2.912821290877586
 20
3.308594164168435
 10
2.913925830213431
 20
3.308986973305747
 10
2.915020531910898
 20
3.309406365743029
 10
2.916207826290855
 20
3.309895508109809
 10
2.91738288594761
 20
3.31041521194139
 10
2.918545482235474
 20
3.310964788657144
 10
2.919695386537937
 20
3.311543549761462
 10
2.920832370258318
 20
3.31215080677387
 10
2.921956204700834
 20
3.312785871138242
 10
2.923066661308441
 20
3.313448054404375
 10
2.924163511400486
 20
3.314136667996309
 10
2.925246526395416
 20
3.314851023413766
 10
2.926315477661593
 20
3.315590432180951
 10
2.927370136523066
 20
3.316354205756879
 10
2.928410274413408
 20
3.317141655621425
 10
2.929435662681156
 20
3.31795209328368
 10
2.930446072724949
 20
3.318784830228223
 10
2.931441275853685
 20
3.319639177933874
 10
2.932421043520772
 20
3.320514447895662
 10
2.933385147050246
 20
3.321409951572573
 10
2.934179300149122
 20
3.322174300798975
 10
2.934960704025581
 20
3.322952494646995
 10
2.935727733662883
 20
3.323744696907312
 10
2.936478764083939
 20
3.324551071400851
 10
2.937212170287127
 20
3.325371781898484
 10
2.937926327310482
 20
3.326206992201313
 10
2.938619610117445
 20
3.327056866084884
 10
2.93929039375074
 20
3.327921567385262
 10
2.939937053243712
 20
3.32880125986861
 10
2.940557963529527
 20
3.329696107350113
 10
2.941151499696311
 20
3.330606273606377
 10
2.941716036707501
 20
3.331531922412942
 10
2.942249949590678
 20
3.332473217625687
 10
2.942751613359373
 20
3.333430322995663
 10
2.943219403016678
 20
3.334403402328657
 10
2.943651693580779
 20
3.335392619410664
 10
2.94404686005478
 20
3.336398138047486
 10
2.944403277421927
 20
3.33742012202979
 10
2.944671708805266
 20
3.338291540565867
 10
2.944911103739408
 20
3.339173333763603
 10
2.945120936610163
 20
3.340064133413787
 10
2.945300681708957
 20
3.340962571266514
 10
2.945449813467003
 20
3.341867279053111
 10
2.945567806210674
 20
3.342776888518976
 10
2.945654134305972
 20
3.343690031439775
 10
2.945708272114213
 20
3.344605339556209
 10
2.94572969399671
 20
3.345521444608993
 10
2.94571787429966
 20
3.346436978358652
 10
2.945672287399502
 20
3.347350572526075
 10
2.945592407647117
 20
3.348260858906748
 10
2.945477709418951
 20
3.349166469221554
 10
2.945353746120018
 20
3.349924362360207
 10
2.945204411298522
 20
3.350677153500436
 10
2.945029391158081
 20
3.351424025903533
 10
2.944828371912788
 20
3.352164162776007
 10
2.944601039796537
 20
3.352896747339497
 10
2.944347081008276
 20
3.353620962820344
 10
2.944066181816848
 20
3.354335992435498
 10
2.943758028371141
 20
3.355041019435794
 10
2.94342230695511
 20
3.355735227018376
 10
2.943058703767705
 20
3.356417798409573
 10
2.942666904992759
 20
3.35708791685553
 10
2.942246596894418
 20
3.35774476553826
 10
2.941797465676327
 20
3.358387527719044
 10
2.94131919755725
 20
3.359015386639341
 10
2.940811478766396
 20
3.359627525485844
 10
2.940273995517853
 20
3.360223127465066
 10
2.939706434019925
 20
3.360801375873242
  0
LINE
  5
E04
330
9BF
100
AcDbEntity
  8
image
100
AcDbLine
 10
2.871667188422743
 20
3.335940987322167
 30
0.0
 11
2.889175299416009
 21
3.333592262357671
 31
0.0
  0
LWPOLYLINE
  5
E05
330
9BF
100
AcDbEntity
  8
image
100
AcDbPolyline
 90
       90
 70
     0
 43
0.0
 10
2.939706434019925
 20
3.360801375873242
 10
2.940853760258359
 20
3.360896287556701
 10
2.941988311130309
 20
3.361027424713416
 10
2.943109969153799
 20
3.361194121920871
 10
2.944218616811907
 20
3.361395713761227
 10
2.945314136617957
 20
3.361631534777027
 10
2.946396411070164
 20
3.361900919530605
 10
2.9474653226761
 20
3.362203202654228
 10
2.948520753944421
 20
3.362537718655469
 10
2.949562587393146
 20
3.362903802111806
 10
2.950590705470406
 20
3.363300787610103
 10
2.951604990748983
 20
3.363728009738282
 10
2.952605325687446
 20
3.364184803028431
 10
2.953591592803821
 20
3.364670502058028
 10
2.954738972836159
 20
3.365280916528105
 10
2.955866338900561
 20
3.365929679817083
 10
2.956973492722585
 20
3.366615691343091
 10
2.958060235977753
 20
3.367337850548745
 10
2.959126370381192
 20
3.368095056906943
 10
2.960171697682982
 20
3.36888620988588
 10
2.961196019558629
 20
3.369710208928173
 10
2.962199137758207
 20
3.370565953502025
 10
2.96318085395723
 20
3.371452343050072
 10
2.964140969901083
 20
3.372368277005542
 10
2.965079287254821
 20
3.373312654865858
 10
2.965995607798799
 20
3.374284376059552
 10
2.966889733193382
 20
3.375282340049078
 10
2.96776146518865
 20
3.376305446302646
 10
2.968610605460105
 20
3.37735259426287
 10
2.969316194521933
 20
3.378263293458731
 10
2.970003920139375
 20
3.379189996639426
 10
2.970672476015314
 20
3.380132040829612
 10
2.971320555887575
 20
3.38108876304925
 10
2.971946853434516
 20
3.382059500272916
 10
2.972550062409117
 20
3.383043589500755
 10
2.973128876509533
 20
3.384040367722476
 10
2.973681989458476
 20
3.385049171977859
 10
2.974208094989098
 20
3.386069339251924
 10
2.974705886784431
 20
3.387100206554194
 10
2.975174058592756
 20
3.38814111084987
 10
2.975611304136769
 20
3.389191389178727
 10
2.976016317099512
 20
3.390250378550299
 10
2.976387791229282
 20
3.391317415929784
 10
2.976724420244063
 20
3.392391838322003
 10
2.977024897831607
 20
3.393472982771442
 10
2.977287917740185
 20
3.394560186243302
 10
2.977512173667973
 20
3.395652785727273
 10
2.977696359337683
 20
3.396750118263151
 10
2.977839168482445
 20
3.397851520835946
 10
2.977939294785317
 20
3.398956330455195
 10
2.977995432014384
 20
3.400063884101209
 10
2.978006149805484
 20
3.401239899601552
 10
2.977968586054916
 20
3.40241727529802
 10
2.977885334345797
 20
3.403595033970609
 10
2.977758988176222
 20
3.404772198428471
 10
2.977592141168949
 20
3.405947791481848
 10
2.9773873868325
 20
3.407120835885137
 10
2.977147318704621
 20
3.408290354477767
 10
2.976874530353293
 20
3.409455370059532
 10
2.976571615341818
 20
3.410614905395269
 10
2.976241167203232
 20
3.411767983289466
 10
2.975885779470591
 20
3.412913626546597
 10
2.975452463042556
 20
3.41421003613881
 10
2.974989115740396
 20
3.415493627651842
 10
2.974494781958504
 20
3.416762527983899
 10
2.973968506146052
 20
3.418014864043626
 10
2.973409332677615
 20
3.419248762714086
 10
2.972816305967421
 20
3.420462350908622
 10
2.972188470409882
 20
3.421653755525434
 10
2.971524870434341
 20
3.422821103458031
 10
2.970824550395572
 20
3.423962521574353
 10
2.970263378833903
 20
3.424817097526426
 10
2.969679727385143
 20
3.425654561383946
 10
2.969073168177192
 20
3.426474074352332
 10
2.968443273272693
 20
3.427274797681332
 10
2.967789614749467
 20
3.428055892600875
 10
2.967111764740061
 20
3.428816520351336
 10
2.966409295267519
 20
3.429555842152204
 10
2.965681778484241
 20
3.430273019258967
 10
2.964928786448195
 20
3.430967212886431
 10
2.964149891272135
 20
3.431637584259835
 10
2.96334466498378
 20
3.432283294633618
 10
2.962512679730822
 20
3.43290350522833
 10
2.961653507591087
 20
3.433497377273892
 10
2.960766720642344
 20
3.43406407200024
 10
2.959851890982245
 20
3.434602750652437
 10
2.958908590668746
 20
3.435112574445271
 10
2.957936391839117
 20
3.435592704654064
 10
2.956934866546651
 20
3.436042302458671
 10
2.955903586888956
 20
3.436460529104139
  0
LINE
  5
E06
330
9BF
100
AcDbEntity
  8
image
100
AcDbLine
 10
2.905188108151264
 20
3.387354023319746
 30
0.0
 11
2.922696219144525
 21
3.385005298355254
 31
0.0
  0
LWPOLYLINE
  5
E07
330
9BF
100
AcDbEntity
  8
image
100
AcDbPolyline
 90
      102
 70
     0
 43
0.0
 10
2.922696219144525
 20
3.385005298355253
 10
2.923201421215829
 20
3.384905423458813
 10
2.92370250576139
 20
3.38482212523638
 10
2.924199467016134
 20
3.384755136862707
 10
2.924692299179996
 20
3.384704191517254
 10
2.925180996437785
 20
3.384669022399273
 10
2.925665552989451
 20
3.38464936268821
 10
2.926145963030242
 20
3.384644945528567
 10
2.926622220749675
 20
3.384655504154553
 10
2.927094320362817
 20
3.384680771725806
 10
2.927562256049784
 20
3.384720481406629
 10
2.928026022050177
 20
3.384774366406724
 10
2.928485612528984
 20
3.384842159910246
 10
2.928941021666321
 20
3.384923595081489
 10
2.929392243697098
 20
3.385018405095228
 10
2.929839272825943
 20
3.385126323165847
 10
2.930282103198021
 20
3.385247082462351
 10
2.930720729083195
 20
3.385380416154814
 10
2.931155144631321
 20
3.38552605744718
 10
2.931585344037642
 20
3.385683739483953
 10
2.932011321526634
 20
3.385853195494658
 10
2.932433071293539
 20
3.386034158623795
 10
2.932936691805059
 20
3.38626762812333
 10
2.933434129323043
 20
3.386517016920365
 10
2.933925373716677
 20
3.386781855238828
 10
2.93441041471532
 20
3.387061673321394
 10
2.934889242118267
 20
3.387356001401366
 10
2.935361845709645
 20
3.387664369731869
 10
2.93582821526892
 20
3.387986308531065
 10
2.936288340600054
 20
3.388321348067213
 10
2.936742211482506
 20
3.388669018558476
 10
2.937189817680594
 20
3.389028850242844
 10
2.937631149028554
 20
3.389400373348942
 10
2.938004095494515
 20
3.389727564268999
 10
2.938371946512027
 20
3.390062823682935
 10
2.938734217868141
 20
3.390405987002639
 10
2.939090425365033
 20
3.390756889620172
 10
2.939440084780369
 20
3.3911153668775
 10
2.939782711940841
 20
3.391481254216761
 10
2.940117822604307
 20
3.391854386964806
 10
2.940444932612571
 20
3.392234600543951
 10
2.94076355773287
 20
3.392621730350944
 10
2.941073213758001
 20
3.393015611707935
 10
2.941373416484402
 20
3.39341608009671
 10
2.94166368171998
 20
3.393822970819603
 10
2.941943525271629
 20
3.394236119303613
 10
2.94221246290188
 20
3.394655360910554
 10
2.942470010432718
 20
3.395080531047595
 10
2.942715683661655
 20
3.395511465071852
 10
2.942948998360597
 20
3.39594799841502
 10
2.94316947034216
 20
3.39638996641439
 10
2.943376615413219
 20
3.396837204496957
 10
2.943569949351444
 20
3.397289548004712
 10
2.94374898794388
 20
3.397746832349525
 10
2.943913247027666
 20
3.398208892918765
 10
2.944062242365331
 20
3.398675565074226
 10
2.944195489743922
 20
3.399146684227782
 10
2.944312505000574
 20
3.399622085766813
 10
2.944412803897828
 20
3.400101605053099
 10
2.944495902237855
 20
3.400585077478708
 10
2.944561315822847
 20
3.401072338435693
 10
2.944608560435148
 20
3.40156322330098
 10
2.944637151896767
 20
3.402057567481761
 10
2.944646370239165
 20
3.402463451453371
 10
2.944642837909181
 20
3.40287084115452
 10
2.944626556385022
 20
3.403279046878346
 10
2.944597527114664
 20
3.403687378957604
 10
2.944555751591469
 20
3.404095147665601
 10
2.944501231248252
 20
3.40450166335491
 10
2.94443396763316
 20
3.404906236309294
 10
2.944353962179023
 20
3.405308176881331
 10
2.94426121635937
 20
3.405706795329199
 10
2.944155731657114
 20
3.406101401980959
 10
2.944037509555179
 20
3.406491307164695
 10
2.943906551531795
 20
3.406875821173533
 10
2.943762859034911
 20
3.40725425434024
 10
2.943606433577712
 20
3.407625916953239
 10
2.943437276623296
 20
3.407990119325489
 10
2.943255389619626
 20
3.408346171789741
 10
2.943060774060049
 20
3.408693384619308
 10
2.942853431447309
 20
3.409031068157395
 10
2.942633363244504
 20
3.409358532716948
 10
2.94240057091003
 20
3.409675088575951
 10
2.942155055911682
 20
3.409980046082305
 10
2.941896819762634
 20
3.410272715524445
 10
2.941674179023693
 20
3.410504448635263
 10
2.941442880208055
 20
3.410726959776106
 10
2.941202924190823
 20
3.410939861610335
 10
2.940954311757386
 20
3.41114276679555
 10
2.940697043733855
 20
3.411335287894946
 10
2.940431120995332
 20
3.411517037571873
 10
2.940156544302695
 20
3.411687628433862
 10
2.939873314546209
 20
3.411846673124446
 10
2.939581432521689
 20
3.411993784246436
 10
2.939280899064617
 20
3.412128574432959
 10
2.938971715010471
 20
3.412250656317094
 10
2.93865388119472
 20
3.412359642531928
 10
2.938327398413193
 20
3.412455145680302
 10
2.937992267521193
 20
3.412536778410435
 10
2.937648489349511
 20
3.412604153320479
 10
2.937296064713786
 20
3.41265688302838
 10
2.936934994454177
 20
3.412694580202204
  0
LINE
  5
E08
330
9BF
100
AcDbEntity
  8
image
100
AcDbLine
 10
3.015220534127236
 20
3.29037247868514
 30
0.0
 11
3.039617162347797
 21
3.323862138065384
 31
0.0
  0
LINE
  5
E09
330
9BF
100
AcDbEntity
  8
image
100
AcDbLine
 10
2.985520743253994
 20
3.29435685731443
 30
0.0
 11
3.052438061608442
 21
3.38621495900188
 31
0.0
  0
LINE
  5
E0A
330
9BF
100
AcDbEntity
  8
image
100
AcDbLine
 10
3.152219393764488
 20
3.373289924207596
 30
0.0
 11
3.195295138733051
 21
3.367511283804254
 31
0.0
  0
LINE
  5
E0B
330
9BF
100
AcDbEntity
  8
image
100
AcDbLine
 10
3.17222751980179
 20
3.344295222104749
 30
0.0
 11
3.179181244279742
 21
3.343362375249717
 31
0.0
  0
LWPOLYLINE
  5
E0C
330
9BF
100
AcDbEntity
  8
image
100
AcDbPolyline
 90
       95
 70
     0
 43
0.0
 10
3.153106812719103
 20
3.298185670856244
 10
3.153954432926523
 20
3.298145704401107
 10
3.154790712989759
 20
3.298133656997943
 10
3.15561589417696
 20
3.298148901379637
 10
3.156430217815716
 20
3.298190810324456
 10
3.157233925253445
 20
3.298258756625807
 10
3.158027257793244
 20
3.298352113011865
 10
3.158810456782537
 20
3.298470252276055
 10
3.159583763509266
 20
3.298612547166376
 10
3.160347419285919
 20
3.298778370480925
 10
3.161101665490176
 20
3.298967094973467
 10
3.161846743409999
 20
3.299178093392004
 10
3.162582894338026
 20
3.299410738519513
 10
3.16331035965664
 20
3.299664403144692
 10
3.164029380633971
 20
3.299938460000432
 10
3.16498622536578
 20
3.300339291335228
 10
3.165928739492457
 20
3.300774539756222
 10
3.166857515137568
 20
3.301242666276718
 10
3.167773144419947
 20
3.301742131875085
 10
3.168676219443332
 20
3.30227139754951
 10
3.169567332361538
 20
3.302828924273659
 10
3.170447075278267
 20
3.303413173045729
 10
3.171316040312415
 20
3.304022604844073
 10
3.172174819567669
 20
3.304655680666873
 10
3.173024005202557
 20
3.305310861522768
 10
3.173864189281151
 20
3.305986608379663
 10
3.174695963977083
 20
3.306681382226378
 10
3.17551992137895
 20
3.307393644080906
 10
3.176336653635868
 20
3.30812185488198
 10
3.177146752841119
 20
3.308864475682552
 10
3.177950811108885
 20
3.309619967426028
 10
3.17874942059765
 20
3.310386791121044
 10
3.179543173391329
 20
3.311163407750643
 10
3.180332661608781
 20
3.311948278293195
 10
3.180916023263502
 20
3.312535596837213
 10
3.181495509362544
 20
3.31312718298702
 10
3.182069268525053
 20
3.313723603389234
 10
3.182635449325863
 20
3.31432542462526
 10
3.183192200364291
 20
3.314933213326588
 10
3.183737670215169
 20
3.315547536074618
 10
3.184270007442883
 20
3.316168959505523
 10
3.184787360642075
 20
3.316798050215842
 10
3.185287878427205
 20
3.317435374817244
 10
3.185769709342844
 20
3.318081499930766
 10
3.186231001983632
 20
3.318736992152944
 10
3.18666990496404
 20
3.31940241809545
 10
3.187084566828627
 20
3.320078344379326
 10
3.187473136191841
 20
3.320765337616235
 10
3.187833761613392
 20
3.3214639644074
 10
3.188164591687928
 20
3.322174791349366
 10
3.188463775014772
 20
3.322898385073613
 10
3.188729460173446
 20
3.323635312196495
 10
3.188959795723639
 20
3.324386139319236
 10
3.189152930275125
 20
3.325151433018552
 10
3.189307012396983
 20
3.325931759965571
 10
3.189391153122371
 20
3.326489929941098
 10
3.189455185563654
 20
3.327054807771351
 10
3.189499252359433
 20
3.327625378022485
 10
3.189523496098269
 20
3.32820062528513
 10
3.189528059413021
 20
3.328779534215156
 10
3.189513084917821
 20
3.329361089328634
 10
3.18947871521057
 20
3.329944275286104
 10
3.189425092910101
 20
3.330528076638586
 10
3.18935236060963
 20
3.331111478011679
 10
3.189260660967605
 20
3.331693463986648
 10
3.189150136537622
 20
3.332273019158844
 10
3.189020929978114
 20
3.332849128109535
 10
3.188873183882325
 20
3.333420775464323
 10
3.188707040873759
 20
3.33398694580917
 10
3.188522643540941
 20
3.334546623734727
 10
3.188320134527194
 20
3.335098793842083
 10
3.188099656421069
 20
3.335642440721895
 10
3.187861351830917
 20
3.336176548979943
 10
3.187605363395376
 20
3.336700103182364
 10
3.187331833692532
 20
3.337212087974588
 10
3.187040905376154
 20
3.337711487902927
 10
3.186732721039474
 20
3.33819728759299
 10
3.186407423271032
 20
3.338668471635428
 10
3.186065154694323
 20
3.3391240246162
 10
3.185706057937534
 20
3.339562931156213
 10
3.185330275619478
 20
3.339984175806489
 10
3.184937950298424
 20
3.340386743197312
 10
3.184529224667763
 20
3.340769617905272
 10
3.184151936614814
 20
3.341092863430187
 10
3.183761881658245
 20
3.34139900441808
 10
3.183359160220533
 20
3.341687325933691
 10
3.182943872739261
 20
3.341957113021946
 10
3.182516119597229
 20
3.342207650717321
 10
3.182076001232058
 20
3.342438224064749
 10
3.181623618026544
 20
3.342648118098703
 10
3.181159070422977
 20
3.342836617899051
 10
3.180682458834437
 20
3.34300300846065
 10
3.18019388368337
 20
3.34314657484823
 10
3.179693445352615
 20
3.343266602096277
 10
3.179181244279742
 20
3.343362375249716
  0
LWPOLYLINE
  5
E0D
330
9BF
100
AcDbEntity
  8
image
100
AcDbPolyline
 90
       97
 70
     0
 43
0.0
 10
3.156100993220317
 20
3.271473401068844
 10
3.157251250445985
 20
3.271277528143968
 10
3.158391668961673
 20
3.271139191243016
 10
3.159522315589431
 20
3.271056294836903
 10
3.1606432572108
 20
3.271026743441925
 10
3.161754560697922
 20
3.271048441504479
 10
3.162856292897351
 20
3.271119293545546
 10
3.163948520676561
 20
3.271237203976583
 10
3.165031310901949
 20
3.271400077333701
 10
3.166104730450333
 20
3.27160581809824
 10
3.167168846158915
 20
3.271852330721297
 10
3.168223724889394
 20
3.272137519704029
 10
3.169796674079176
 20
3.272635921146605
 10
3.171349011972074
 20
3.273210278343911
 10
3.172880967648068
 20
3.273853411881165
 10
3.174392770191831
 20
3.274558142378544
 10
3.175884648698447
 20
3.275317290401461
 10
3.177356832212954
 20
3.276123676539835
 10
3.178809549835141
 20
3.276970121394021
 10
3.180243030629855
 20
3.277849445569071
 10
3.181657503707339
 20
3.278754469610563
 10
3.183623373204401
 20
3.280066023768557
 10
3.185553015263495
 20
3.281415230507426
 10
3.187447659893027
 20
3.282802799844401
 10
3.189308537245877
 20
3.284229441812922
 10
3.191136877365418
 20
3.285695866425534
 10
3.192933910314832
 20
3.287202783709919
 10
3.19470086618755
 20
3.28875090365412
 10
3.196438975051448
 20
3.290340936320762
 10
3.198149467034904
 20
3.291973591693208
 10
3.199833572151021
 20
3.29364957982364
 10
3.20107051833585
 20
3.294925791085063
 10
3.202291306443077
 20
3.296226039809854
 10
3.203493722038694
 20
3.297549951809906
 10
3.204675550687604
 20
3.298897153021788
 10
3.205834577925528
 20
3.300267269297031
 10
3.206968589308
 20
3.301659926502303
 10
3.208075370390565
 20
3.303074750504273
 10
3.209152706753257
 20
3.304511367219677
 10
3.210198383946936
 20
3.305969402480246
 10
3.21121018749686
 20
3.307448482192268
 10
3.212185902988839
 20
3.308948232182783
 10
3.213123315967957
 20
3.310468278373225
 10
3.214020212004899
 20
3.31200824661043
 10
3.214874376624921
 20
3.31356776280071
 10
3.215683595433644
 20
3.315146452786225
 10
3.216445653936534
 20
3.316743942458148
 10
3.217158337704254
 20
3.318359857663317
 10
3.217819432316839
 20
3.319993824318489
 10
3.218426723329835
 20
3.321645468290323
 10
3.21897799625913
 20
3.323314415415227
 10
3.219471036699909
 20
3.325000291590132
 10
3.219903630192583
 20
3.326702722701514
 10
3.220273562297357
 20
3.328421334650991
 10
3.220578618560396
 20
3.330155753235338
 10
3.220765614546651
 20
3.331484045259702
 10
3.220912248969554
 20
3.332819354382666
 10
3.221016916438719
 20
3.334159782825165
 10
3.221078011449508
 20
3.335503432752281
 10
3.221093928561457
 20
3.33684840640948
 10
3.221063062335138
 20
3.338192805917523
 10
3.220983807310264
 20
3.339534733506722
 10
3.220854558017147
 20
3.340872291337491
 10
3.220673709030444
 20
3.342203581635449
 10
3.220439654915431
 20
3.343526706556325
 10
3.220150790137213
 20
3.344839768304851
 10
3.219805509320524
 20
3.346140869082152
 10
3.219402206980567
 20
3.347428111068444
 10
3.218939277687288
 20
3.348699596454411
 10
3.218509516949976
 20
3.349740268645286
 10
3.218038907286287
 20
3.350767232651385
 10
3.217528680853112
 20
3.351778913010428
 10
3.216980069807379
 20
3.352773734260137
 10
3.216394306286165
 20
3.353750120923078
 10
3.215772622411441
 20
3.354706497541665
 10
3.215116250355228
 20
3.355641288633788
 10
3.214426422229055
 20
3.356552918796632
 10
3.213704370235208
 20
3.357439812508431
 10
3.212951326445582
 20
3.358300394336107
 10
3.212168523052017
 20
3.359133088812692
 10
3.211357192156662
 20
3.359936320465443
 10
3.210518565951376
 20
3.360708513827394
 10
3.209653876542974
 20
3.36144809346077
 10
3.208764356088381
 20
3.362153483903278
 10
3.207851236719994
 20
3.362823109642552
 10
3.206915750619208
 20
3.363455395266392
 10
3.205959129888177
 20
3.364048765302068
 10
3.204982606664001
 20
3.364601644272166
 10
3.20398741312339
 20
3.365112456729516
 10
3.202974781388297
 20
3.365579627216545
 10
3.201945943610963
 20
3.366001580235988
 10
3.200869398647356
 20
3.366387655130799
 10
3.199778283508275
 20
3.366722250023008
 10
3.198673949063904
 20
3.367003637608521
 10
3.197557746189142
 20
3.367230090618195
 10
3.196431025793835
 20
3.367399881778201
 10
3.195295138733051
 20
3.367511283804254
  0
LINE
  5
E0E
330
9BF
100
AcDbEntity
  8
image
100
AcDbLine
 10
3.039617179686709
 20
3.323862267314916
 30
0.0
 11
3.046658338484951
 21
3.286155207448068
 31
0.0
  0
LINE
  5
E0F
330
9BF
100
AcDbEntity
  8
image
100
AcDbLine
 10
3.046658338484951
 20
3.286155207448068
 30
0.0
 11
3.074573904478923
 21
3.282410315336447
 31
0.0
  0
LINE
  5
E10
330
9BF
100
AcDbEntity
  8
image
100
AcDbLine
 10
3.067584418125373
 20
3.319840628116996
 30
0.0
 11
3.074573904478923
 21
3.282410315336447
 31
0.0
  0
LINE
  5
E11
330
9BF
100
AcDbEntity
  8
image
100
AcDbLine
 10
3.053459040032945
 20
3.342862967721166
 30
0.0
 11
3.069391675446481
 21
3.364734014924448
 31
0.0
  0
LWPOLYLINE
  5
E12
330
9BF
100
AcDbEntity
  8
image
100
AcDbPolyline
 90
       99
 70
     0
 43
0.0
 10
3.069267699298249
 20
3.340742356898595
 10
3.069742952143187
 20
3.340732325524675
 10
3.070217439321937
 20
3.340734275597645
 10
3.070690929985945
 20
3.340748106830666
 10
3.071163193198035
 20
3.340773718806467
 10
3.071633998074732
 20
3.340811011242883
 10
3.072103113738285
 20
3.340859883768043
 10
3.072570309230638
 20
3.340920236074206
 10
3.073035353693875
 20
3.340991967804625
 10
3.073498016200188
 20
3.341074978611931
 10
3.07395806584158
 20
3.341169168163879
 10
3.074415271779987
 20
3.341274436118851
 10
3.074869403037489
 20
3.341390682153993
 10
3.075320228756172
 20
3.341517805912545
 10
3.075767518028073
 20
3.341655707062269
 10
3.076211039940495
 20
3.341804285235973
 10
3.076650563609947
 20
3.3419634401515
 10
3.077085858119081
 20
3.342133071406707
 10
3.077516692584402
 20
3.342313078719433
 10
3.07794283607341
 20
3.342503361707358
 10
3.078364057732901
 20
3.342703820048689
 10
3.078780126600091
 20
3.342914353400728
 10
3.0791908118369
 20
3.343134861421872
 10
3.07959588250039
 20
3.34336524378456
 10
3.079996138177173
 20
3.343606037385317
 10
3.080390285262437
 20
3.343856554774805
 10
3.080778091014738
 20
3.344116694817116
 10
3.081159322727582
 20
3.344386356371666
 10
3.081533747718981
 20
3.344665438347956
 10
3.081901133262647
 20
3.344953839590258
 10
3.082261246656762
 20
3.345251458992946
 10
3.082613855175005
 20
3.345558195400297
 10
3.082958726155243
 20
3.345873947736937
 10
3.083295626836197
 20
3.346198614851847
 10
3.083624324531194
 20
3.346532095619562
 10
3.083944586538429
 20
3.346874288934448
 10
3.084256180166564
 20
3.347225093636097
 10
3.084558872678824
 20
3.347584408623567
 10
3.084852431373417
 20
3.347952132791224
 10
3.085136623558984
 20
3.34832816497866
 10
3.085411216513913
 20
3.348712404065098
 10
3.085675977536375
 20
3.349104748944921
 10
3.085876169483684
 20
3.349417487629677
 10
3.086069608969641
 20
3.349734949062538
 10
3.086255712538064
 20
3.350056949484229
 10
3.086433896791211
 20
3.350383305305509
 10
3.086603578288035
 20
3.350713832747254
 10
3.086764173626071
 20
3.351048348185305
 10
3.086915099338727
 20
3.351386667915126
 10
3.087055772018857
 20
3.351728608277585
 10
3.087185608269745
 20
3.352073985558789
 10
3.087304024664434
 20
3.352422616084471
 10
3.087410437721173
 20
3.352774316169928
 10
3.087504264067779
 20
3.353128902151332
 10
3.0875849202726
 20
3.353486190319487
 10
3.087651822908658
 20
3.353845997000117
 10
3.087704388529179
 20
3.354208138503839
 10
3.08774203372232
 20
3.354572431136563
 10
3.087764175065791
 20
3.354938691258988
 10
3.087770229158223
 20
3.355306735122256
 10
3.087762841204678
 20
3.355610016132704
 10
3.087744353179567
 20
3.355913892486404
 10
3.08771489999639
 20
3.356217881158224
 10
3.087674616568599
 20
3.356521499123045
 10
3.087623637779433
 20
3.356824263395379
 10
3.087562098577308
 20
3.357125690945416
 10
3.087490133805804
 20
3.357425298757407
 10
3.087407878448312
 20
3.357722603796855
 10
3.087315467368211
 20
3.358017123063141
 10
3.087213035478993
 20
3.358308373531143
 10
3.08710071767899
 20
3.358595872195555
 10
3.086978648916644
 20
3.358879136026571
 10
3.086846964035537
 20
3.359157682008442
 10
3.086705798023724
 20
3.359431027141611
 10
3.086555285704966
 20
3.359698688395208
 10
3.086395562047514
 20
3.35996018275455
 10
3.086226761945025
 20
3.360215027179383
 10
3.086049020300535
 20
3.360462738699351
 10
3.085862472007701
 20
3.3607028342742
 10
3.08566725199983
 20
3.360934830893941
 10
3.085463495170576
 20
3.361158245518315
 10
3.085251336453223
 20
3.361372595137331
 10
3.085051620889814
 20
3.361558886505388
 10
3.084845196345676
 20
3.361736951657062
 10
3.084632163676553
 20
3.361906429515158
 10
3.084412623733487
 20
3.362066958967536
 10
3.084186677377983
 20
3.362218178847264
 10
3.083954425470477
 20
3.362359728112109
 10
3.083715968867761
 20
3.36249124556019
 10
3.083471408430271
 20
3.362612370149268
 10
3.083220845039323
 20
3.36272274072755
 10
3.082964379545965
 20
3.36282199618289
 10
3.082702112781442
 20
3.36290977538802
 10
3.082434145636428
 20
3.362985717261038
 10
3.082160578992252
 20
3.363049460650166
 10
3.081881513649885
 20
3.363100644467761
 10
3.081597050510449
 20
3.363138907577163
 10
3.081307290440135
 20
3.363163888846417
 10
3.081012334279564
 20
3.363175227218131
  0
LWPOLYLINE
  5
E13
330
9BF
100
AcDbEntity
  8
image
100
AcDbPolyline
 90
       92
 70
     0
 43
0.0
 10
3.067584418125373
 20
3.319840628116995
 10
3.069012934799452
 20
3.319778298065193
 10
3.070446506150454
 20
3.319743801277016
 10
3.07188365341368
 20
3.319738438297416
 10
3.073322897769649
 20
3.319763509660884
 10
3.074762760429147
 20
3.319820315862287
 10
3.076201762617019
 20
3.319910157501346
 10
3.077638425539371
 20
3.320034335037963
 10
3.07889115017359
 20
3.320172024610426
 10
3.080139969888065
 20
3.320337811435221
 10
3.081383897067154
 20
3.320532564138065
 10
3.08262194400552
 20
3.320757151338923
 10
3.083853123082851
 20
3.321012441628565
 10
3.085076446639186
 20
3.321299303567498
 10
3.086290927008811
 20
3.321618605805947
 10
3.087495576551591
 20
3.32197121691956
 10
3.088790134286433
 20
3.322391843251613
 10
3.090071944902004
 20
3.322850802115885
 10
3.091340988641172
 20
3.323346218026721
 10
3.092597245796886
 20
3.323876215473946
 10
3.093840696581759
 20
3.324438919011539
 10
3.095071321323683
 20
3.325032453124631
 10
3.096289100195619
 20
3.325654942336943
 10
3.097333418312276
 20
3.326216560816233
 10
3.098366303112082
 20
3.326799505988601
 10
3.099385977555387
 20
3.32740477997398
 10
3.100390664552441
 20
3.328033384916812
 10
3.10137858703329
 20
3.328686322976659
 10
3.10234796793847
 20
3.329364596258328
 10
3.103297030163078
 20
3.330069206926084
 10
3.104223996687274
 20
3.330801157114981
 10
3.105127090366533
 20
3.331561448959019
 10
3.106004534200831
 20
3.332351084608393
 10
3.106789796141327
 20
3.333106087505117
 10
3.107551256128867
 20
3.333886090070268
 10
3.108288449448986
 20
3.334690271153816
 10
3.109000911333521
 20
3.33551780947063
 10
3.109688177083144
 20
3.336367883850854
 10
3.110349781914545
 20
3.337239673029167
 10
3.110985261108584
 20
3.338132355820596
 10
3.1115941499216
 20
3.339045110990087
 10
3.112175983629748
 20
3.339977117317692
 10
3.112730297454422
 20
3.34092755357306
 10
3.113256626706736
 20
3.341895598531567
 10
3.113754506592945
 20
3.342880430982655
 10
3.114223472409035
 20
3.34388122972154
 10
3.114663059406649
 20
3.344897173478209
 10
3.115072802851515
 20
3.345927441087495
 10
3.115405213565804
 20
3.346836804296016
 10
3.115713266060418
 20
3.347755363263424
 10
3.115995648407416
 20
3.348682046366268
 10
3.116251048758156
 20
3.349615782041611
 10
3.116478155199841
 20
3.350555498646155
 10
3.116675655918761
 20
3.351500124612284
 10
3.116842238971872
 20
3.352448588336341
 10
3.116976592501128
 20
3.353399818185493
 10
3.117077404642768
 20
3.354352742616611
 10
3.117143363499112
 20
3.355306289966601
 10
3.117173157186568
 20
3.356259388677194
 10
3.117165473866916
 20
3.357210967130696
 10
3.117119001616925
 20
3.358159953738588
 10
3.117032428563442
 20
3.35910527688784
 10
3.116904442853122
 20
3.360045864980566
 10
3.116745002451283
 20
3.360927452021213
 10
3.116548591947536
 20
3.361802918953835
 10
3.116316227430449
 20
3.362671308367548
 10
3.116048924948914
 20
3.3635316628212
 10
3.11574770054718
 20
3.364383024838689
 10
3.115413570263712
 20
3.365224437033647
 10
3.115047550167242
 20
3.366054941980054
 10
3.11465065631714
 20
3.366873582181984
 10
3.114223904732059
 20
3.367679400237937
 10
3.113768311515671
 20
3.368471438717199
 10
3.113284892662135
 20
3.36924874016819
 10
3.112774664260019
 20
3.370010347180016
 10
3.112238642373343
 20
3.370755302291718
 10
3.111677843016078
 20
3.371482648066825
 10
3.111093282276804
 20
3.372191427094455
 10
3.110485976164777
 20
3.372880681903202
 10
3.109856940788381
 20
3.37354945509731
 10
3.109207192156884
 20
3.374196789205366
 10
3.108516665219569
 20
3.374840753709393
 10
3.10780631308021
 20
3.375459860554157
 10
3.107077249381556
 20
3.376053060378306
 10
3.106330587741868
 20
3.376619303770413
 10
3.105567441773663
 20
3.377157541408757
 10
3.104788925110322
 20
3.377666723862104
 10
3.103996151359656
 20
3.378145801773788
 10
3.103190234144619
 20
3.378593725767324
 10
3.102372287092849
 20
3.37900944650119
 10
3.10154342381791
 20
3.379391914529006
 10
3.100704757967257
 20
3.379740080524365
  0
LINE
  5
E14
330
9BF
100
AcDbEntity
  8
image
100
AcDbLine
 10
3.052438337426589
 20
3.386215053558454
 30
0.0
 11
3.100704757967257
 21
3.379740080524365
 31
0.0
  0
LINE
  5
E15
330
9BF
100
AcDbEntity
  8
image
100
AcDbLine
 10
3.069391822015106
 20
3.364734126819936
 30
0.0
 11
3.081012334279564
 21
3.363175227218131
 31
0.0
  0
LINE
  5
E16
330
9BF
100
AcDbEntity
  8
image
100
AcDbLine
 10
3.053459057367171
 20
3.342863096935749
 30
0.0
 11
3.069267699298244
 21
3.340742356898595
 31
0.0
  0
LINE
  5
E17
330
9BF
100
AcDbEntity
  8
image
100
AcDbLine
 10
3.143044394788294
 20
3.29953555104642
 30
0.0
 11
3.172227390587211
 21
3.344295239438974
 31
0.0
  0
LINE
  5
E18
330
9BF
100
AcDbEntity
  8
image
100
AcDbLine
 10
3.143044653252398
 20
3.299535516373285
 30
0.0
 11
3.153106812719102
 21
3.298185670856244
 31
0.0
  0
LINE
  5
E19
330
9BF
100
AcDbEntity
  8
image
100
AcDbLine
 10
3.091487311107759
 20
3.280141370348006
 30
0.0
 11
3.156100993220317
 21
3.271473401068844
 31
0.0
  0
LINE
  5
E1A
330
9BF
100
AcDbEntity
  8
image
100
AcDbLine
 10
3.0914870526786
 20
3.280141405016456
 30
0.0
 11
3.152219135300383
 21
3.373289958880731
 31
0.0
  0
ARC
  5
E33
330
9BF
100
AcDbEntity
  8
image
100
AcDbCircle
 10
4.305897370755879
 20
3.187064791356198
 30
0.0
 40
0.2204406969313424
100
AcDbArc
 50
226.7690717223572
 51
118.8131621849512
  0
MTEXT
  5
13FA
102
{ACAD_XDICTIONARY
360
146F
102
}
330
9BF
100
AcDbEntity
  8
text-bubbles
100
AcDbMText
 10
5.002857717892203
 20
5.353019727800786
 30
0.0
 40
0.125
 41
3.946652039663629
 71
     1
 72
     5
  1
\pi-0.25,l0.25;PRE-FABRICATED PVC SWING JOINT, 3/4" MALE NPT X 3/4" MALE NPT, 12" LONG: RAIN BIRD TSJ-12075\P\P\pi0,l0;PVC SCH 40 TEE OR ELL \P\PLATERAL PIPE
  7
ROMANS
 73
     1
 44
1.0
  0
MTEXT
  5
143B
102
{ACAD_XDICTIONARY
360
1471
102
}
330
9BF
100
AcDbEntity
  8
text-leaders
100
AcDbMText
 10
5.174691578139761
 20
4.551865442971378
 30
0.0
 40
0.125
 41
3.543592318744739
 71
     1
 72
     5
  1
\pi-0.25,l0.25;PRE-FABRICATED PVC SWING JOINT, 3/4" MALE NPT X 3/4" MALE NPT, 12" LONG: \P  RAIN BIRD TSJ-12075
  7
ROMANS
 73
     1
 44
1.0
  0
ENDSEC
  0
SECTION
  2
OBJECTS
  0
DICTIONARY
  5
9AD
330
0
100
AcDbDictionary
281
     1
  3
ACAD_COLOR
350
115D
  3
ACAD_GROUP
350
9AE
  3
ACAD_LAYOUT
350
9BA
  3
ACAD_MATERIAL
350
1133
  3
ACAD_MLEADERSTYLE
350
1182
  3
ACAD_MLINESTYLE
350
9B7
  3
ACAD_PLOTSETTINGS
350
9B9
  3
ACAD_PLOTSTYLENAME
350
9AF
  3
ACAD_SCALELIST
350
1160
  3
ACAD_TABLESTYLE
350
115E
  3
ACAD_VISUALSTYLE
350
114C
  3
AcadDim
350
A29
  3
ACDB_RECOMPOSE_DATA
350
136D
  3
AcDbVariableDictionary
350
9EA
1001
BBSI_PltSel
1000
1
1000

1001
BBSI_Bookmarks
1000
1
1000
1
1000
0
1000
1
1000
0
1000
0
1000
0
1000
0
1000
0
1000
0
1000
0
1001
BBSI_BookmarksEx
1000
0
1000
0
1000

1000
0
1001
BBSI_Plots
1000

1000
ANSI_A_(8.50_x_11.00_Inches)
1000
215.899993896484
1000
279.399993896484
1000
0
1000
1
1000
1
1000
0
1000
1.778
1000
1
1000
0
1000
1
1000
0.984507577748317
1000
0
1000
1
1000
Full_B&W.ctb
1000
0
1000
0
1000
1
1000
1
1000
0
1000
0
1000
180360.052434
1000
80033.779362
1000
180369.157473
1000
80037.61796
1000

1000

  0
DICTIONARY
  5
1450
330
9A9
100
AcDbDictionary
280
     1
281
     1
  0
DICTIONARY
  5
9F3
330
9A3
100
AcDbDictionary
280
     1
281
     1
  3
ACAD_LAYERFILTERS
360
145F
  3
ACAD_LAYERSTATES
360
9F4
  0
DICTIONARY
  5
11A1
330
9BF
100
AcDbDictionary
280
     1
281
     1
  0
DICTIONARY
  5
11B6
330
A58
100
AcDbDictionary
280
     1
281
     1
  3
ACAD_SORTENTS
360
11B7
  0
DICTIONARY
  5
146F
330
13FA
100
AcDbDictionary
280
     1
281
     1
  3
ACAD_MTEXT_2008_RT
360
1470
  0
DICTIONARY
  5
1471
330
143B
100
AcDbDictionary
280
     1
281
     1
  3
ACAD_MTEXT_2008_RT
360
1472
  0
DICTIONARY
  5
115D
102
{ACAD_REACTORS
330
9AD
102
}
330
9AD
100
AcDbDictionary
281
     1
  0
DICTIONARY
  5
9AE
102
{ACAD_REACTORS
330
9AD
102
}
330
9AD
100
AcDbDictionary
281
     1
  0
DICTIONARY
  5
9BA
102
{ACAD_REACTORS
330
9AD
102
}
330
9AD
100
AcDbDictionary
281
     1
  3
Layout1
350
9BE
  3
Model
350
9C2
  0
DICTIONARY
  5
1133
102
{ACAD_REACTORS
330
9AD
102
}
330
9AD
100
AcDbDictionary
281
     1
  3
ByBlock
350
113C
  3
ByLayer
350
1134
  3
Global
350
1144
  0
DICTIONARY
  5
1182
102
{ACAD_REACTORS
330
9AD
102
}
330
9AD
100
AcDbDictionary
281
     1
  3
Standard
350
1183
  0
DICTIONARY
  5
9B7
102
{ACAD_REACTORS
330
9AD
102
}
330
9AD
100
AcDbDictionary
281
     1
  3
Standard
350
9B8
  0
DICTIONARY
  5
9B9
102
{ACAD_REACTORS
330
9AD
102
}
330
9AD
100
AcDbDictionary
281
     1
  3
1055 B&W Full Shaded Draft
350
A76
  3
1055 B&W Full Shaded Final
350
A77
  3
1055 Color Full Shaded Draft
350
A78
  3
1055 Color Full Shaded Final
350
A79
  3
1055 PLUS B&W Full Shaded Draft
350
A7A
  3
1055 PLUS B&W Full Shaded Final
350
A7B
  3
1055 PLUS Color Full Shaded Draft
350
A7C
  3
1055 PLUS Color Full Shaded Final
350
A7D
  3
1055-B&W-Shaded-Draft
350
A7E
  3
1055-B&W-Shaded-Final
350
A7F
  3
1055-Color-Shaded-Draft
350
A80
  3
1055-Color-Shaded-Final
350
A81
  3
1055-PLUS-B&W-Shaded-Draft
350
A82
  3
1055-PLUS-B&W-Shaded-Final
350
A83
  3
1055-PLUS-Color-Shaded-Draft
350
A84
  3
1055-PLUS-Color-Shaded-Final
350
A85
  3
2200 Color Inkjet
350
A86
  3
2200-Color-Inkjet
350
A87
  3
24x36 PDF
350
A88
  3
8500 B&W Shaded 11x17
350
A89
  3
8500 B&W Shaded 8.5x11
350
A8A
  3
8500 Color Shaded 11x17
350
A8B
  3
8500 Color Shaded 8.5x11
350
A8C
  3
8500-B&W-Shaded-11x17
350
A8D
  3
8500-B&W-Shaded-8.5x11
350
A8E
  3
8500-Color-Shaded-11x17
350
A8F
  3
8500-Color-Shaded-8.5x11
350
A90
  3
Laser Jet 5 Shaded 11x17
350
A91
  3
Laser Jet 5 Shaded 8.5x11
350
A92
  3
LaserJet5-Shaded-11x17
350
A93
  3
LaserJet5-Shaded-8.5x11
350
A94
  3
Oki Doki B&W Shaded 11x17
350
A95
  3
Oki Doki B&W Shaded 8.5x11
350
A96
  3
Oki Doki Color Laser
350
A97
  3
Oki Doki Color Shaded 11x17
350
A98
  3
Oki Doki Color Shaded 8.5x11
350
A99
  3
Oki-Doki-B&W-Shaded-11x17
350
A9A
  3
Oki-Doki-B&W-Shaded-8.5x11
350
A9B
  3
Oki-Doki-Color-Laser
350
A9C
  3
Oki-Doki-Color-Shaded-11x17
350
A9D
  3
Oki-Doki-Color-Shaded-8.5x11
350
A9E
  0
ACDBDICTIONARYWDFLT
  5
9AF
102
{ACAD_REACTORS
330
9AD
102
}
330
9AD
100
AcDbDictionary
281
     1
  3
Normal
350
9B0
100
AcDbDictionaryWithDefault
340
9B0
  0
DICTIONARY
  5
1160
102
{ACAD_REACTORS
330
9AD
102
}
330
9AD
100
AcDbDictionary
281
     1
  3
A0
350
1161
  3
A1
350
1162
  3
A2
350
1163
  3
A3
350
1164
  3
A4
350
1165
  3
A5
350
1166
  3
A6
350
1167
  3
A7
350
1168
  3
A8
350
1169
  3
A9
350
116A
  3
B0
350
116B
  3
B1
350
116C
  3
B2
350
116D
  3
B3
350
116E
  3
B4
350
116F
  3
B5
350
1170
  3
B6
350
1171
  3
B7
350
1172
  3
B8
350
1173
  3
B9
350
1174
  3
C0
350
1175
  3
C1
350
1176
  3
C2
350
1177
  3
C3
350
1178
  3
C4
350
1179
  3
C5
350
117A
  3
C6
350
117B
  3
C7
350
117C
  3
C8
350
117D
  3
C9
350
117E
  3
D0
350
117F
  3
D1
350
1180
  3
D2
350
1181
  0
DICTIONARY
  5
115E
102
{ACAD_REACTORS
330
9AD
102
}
330
9AD
100
AcDbDictionary
281
     1
  3
Standard
350
115F
  0
DICTIONARY
  5
114C
102
{ACAD_REACTORS
330
9AD
102
}
330
9AD
100
AcDbDictionary
281
     1
  3
2dWireframe
350
1152
  3
3D Hidden
350
1154
  3
3dWireframe
350
1153
  3
Basic
350
1151
  3
Brighten
350
1158
  3
ColorChange
350
115C
  3
Conceptual
350
1155
  3
Dim
350
1157
  3
Facepattern
350
115B
  3
Flat
350
114D
  3
FlatWithEdges
350
114E
  3
Gouraud
350
114F
  3
GouraudWithEdges
350
1150
  3
Linepattern
350
115A
  3
Realistic
350
1156
  3
Thicken
350
1159
  0
XRECORD
  5
A29
102
{ACAD_REACTORS
330
9AD
102
}
330
9AD
100
AcDbXrecord
280
     1
 90
   990106
  3

 60
     4
 61
     0
 62
     1
 63
     3
 64
     0
 65
     0
 66
     0
 67
     3
 68
     1
 69
     0
 70
     0
 71
     0
 72
     0
 40
0.0
170
     0
  0
XRECORD
  5
136D
102
{ACAD_REACTORS
330
9AD
102
}
330
9AD
100
AcDbXrecord
280
     1
 90
        1
330
115F
330
13FA
330
143B
  0
DICTIONARY
  5
9EA
102
{ACAD_REACTORS
330
9AD
102
}
330
9AD
100
AcDbDictionary
281
     1
  3
CANNOSCALE
350
1372
  3
CMLEADERSTYLE
350
136F
  3
CTABLESTYLE
350
136E
  3
DIMASSOC
350
9ED
  3
HIDETEXT
350
9EC
  3
LAYEREVAL
350
1456
  3
LAYERNOTIFY
350
1374
  3
LIGHTINGUNITS
350
1373
  3
MSLTSCALE
350
1371
  3
SORTENTS
350
9EB
  3
UPDATETHUMBNAIL
350
1370
  0
DICTIONARY
  5
145F
102
{ACAD_REACTORS
330
9F3
102
}
330
9F3
100
AcDbDictionary
281
     1
  3
_0100-
350
1462
  3
_0280-
350
1461
  3
_Add Alternate
350
1464
  3
_Bid Alternate
350
1465
  3
_Color 253
350
1467
  3
_Color 8
350
1463
  3
_Color 84
350
1466
  3
_Contours
350
146D
  3
_Demo
350
1468
  3
_Existing
350
1469
  3
_Hardscape
350
146C
  3
_NoXref
350
1460
  3
_Row
350
146A
  3
_Utility
350
146B
  0
DICTIONARY
  5
9F4
102
{ACAD_REACTORS
330
9F3
102
}
330
9F3
100
AcDbDictionary
281
     1
  0
SORTENTSTABLE
  5
11B7
102
{ACAD_REACTORS
330
11B6
102
}
330
11B6
100
AcDbSortentsTable
330
A58
  0
XRECORD
  5
1470
102
{ACAD_REACTORS
330
146F
102
}
330
146F
100
AcDbXrecord
280
     1
 40
812940.0
  1
\pxi-2,l2;PRE-FABRICATED PVC SWING JOINT, 3/4" MALE NPT X 3/4" MALE NPT, 12" LONG: RAIN BIRD TSJ-12075\P\P\pi0,l0;PVC SCH 40 TEE OR ELL \P\PLATERAL PIPE
  0
XRECORD
  5
1472
102
{ACAD_REACTORS
330
1471
102
}
330
1471
100
AcDbXrecord
280
     1
 40
376251.0
  1
\pxi-2,l2;PRE-FABRICATED PVC SWING JOINT, 3/4" MALE NPT X 3/4" MALE NPT, 12" LONG: \P  RAIN BIRD TSJ-12075
  0
LAYOUT
  5
9BE
102
{ACAD_REACTORS
330
9BA
102
}
330
9BA
100
AcDbPlotSettings
  1

  2
S:\AutoCAD 2002\Plotters\1055B&WDraftShaded.pc3
  4

  6

 40
0.0
 41
0.0
 42
0.0
 43
0.0
 44
0.0
 45
0.0
 46
0.0
 47
0.0
 48
0.0
 49
0.0
140
0.0
141
0.0
142
1.0
143
1.0
 70
   688
 72
     0
 73
     0
 74
     5
  7
TRexLJ5Shaded2.ctb
 75
    16
147
1.0
 76
     0
 77
     2
 78
   300
148
0.0
149
0.0
100
AcDbLayout
  1
Layout1
 70
     1
 71
     1
 10
0.0
 20
0.0
 11
12.0
 21
9.0
 12
0.0
 22
0.0
 32
0.0
 14
1.000000000000000E+20
 24
1.000000000000000E+20
 34
1.000000000000000E+20
 15
-1.000000000000000E+20
 25
-1.000000000000000E+20
 35
-1.000000000000000E+20
146
0.0
 13
0.0
 23
0.0
 33
0.0
 16
1.0
 26
0.0
 36
0.0
 17
0.0
 27
1.0
 37
0.0
 76
     0
330
9BB
  0
LAYOUT
  5
9C2
102
{ACAD_REACTORS
330
9BA
102
}
330
9BA
100
AcDbPlotSettings
  1

  2
Bluebeam PS9 HighRes.pc3
  4
ANSI_A_(8.50_x_11.00_Inches)
  6

 40
5.842000007629394
 41
5.842000007629394
 42
5.841995239257812
 43
5.84197998046875
 44
215.8999938964844
 45
279.3999938964844
 46
-0.0000000000000025
 47
27.71922449756011
 48
180360.052434
 49
80033.77936199999
140
180369.157473
141
80037.61796
142
1.0
143
1.249194657515256
 70
 28340
 72
     0
 73
     0
 74
     1
  7
full_b&w.ctb
 75
     0
147
0.8005157514754957
 76
     0
 77
     2
 78
   300
148
19.10052078785006
149
75.92400491847957
100
AcDbLayout
  1
Model
 70
     1
 71
     0
 10
0.0
 20
0.0
 11
12.0
 21
9.0
 12
0.0
 22
0.0
 32
0.0
 14
0.0
 24
0.0
 34
0.0
 15
0.0
 25
0.0
 35
0.0
146
0.0
 13
0.0
 23
0.0
 33
0.0
 16
1.0
 26
0.0
 36
0.0
 17
0.0
 27
1.0
 37
0.0
 76
     0
330
9BF
331
1131
1001
ACAD_PSEXT
1000
Bluebeam PS9 HighRes.pc3
1000
PostScript Level 2
1000
File
1000

1070
     0
  0
MATERIAL
  5
113C
102
{ACAD_XDICTIONARY
360
113D
102
}
102
{ACAD_REACTORS
330
1133
102
}
330
1133
100
AcDbMaterial
  1
ByBlock
 72
     0
 43
0.0208333333333333
 43
0.0
 43
0.0
 43
0.0
 43
0.0
 43
0.0208333333333333
 43
0.0
 43
0.0
 43
0.0
 43
0.0
 43
1.0
 43
0.0
 43
0.0
 43
0.0
 43
0.0
 43
1.0
 77
     0
 47
0.0208333333333333
 47
0.0
 47
0.0
 47
0.0
 47
0.0
 47
0.0208333333333333
 47
0.0
 47
0.0
 47
0.0
 47
0.0
 47
1.0
 47
0.0
 47
0.0
 47
0.0
 47
0.0
 47
1.0
171
     0
 49
0.0208333333333333
 49
0.0
 49
0.0
 49
0.0
 49
0.0
 49
0.0208333333333333
 49
0.0
 49
0.0
 49
0.0
 49
0.0
 49
1.0
 49
0.0
 49
0.0
 49
0.0
 49
0.0
 49
1.0
175
     0
142
0.0208333333333333
142
0.0
142
0.0
142
0.0
142
0.0
142
0.0208333333333333
142
0.0
142
0.0
142
0.0
142
0.0
142
1.0
142
0.0
142
0.0
142
0.0
142
0.0
142
1.0
179
     0
144
0.0208333333333333
144
0.0
144
0.0
144
0.0
144
0.0
144
0.0208333333333333
144
0.0
144
0.0
144
0.0
144
0.0
144
1.0
144
0.0
144
0.0
144
0.0
144
0.0
144
1.0
147
0.0208333333333333
147
0.0
147
0.0
147
0.0
147
0.0
147
0.0208333333333333
147
0.0
147
0.0
147
0.0
147
0.0
147
1.0
147
0.0
147
0.0
147
0.0
147
0.0
147
1.0
  0
MATERIAL
  5
1134
102
{ACAD_XDICTIONARY
360
1135
102
}
102
{ACAD_REACTORS
330
1133
102
}
330
1133
100
AcDbMaterial
  1
ByLayer
 72
     0
 43
0.0208333333333333
 43
0.0
 43
0.0
 43
0.0
 43
0.0
 43
0.0208333333333333
 43
0.0
 43
0.0
 43
0.0
 43
0.0
 43
1.0
 43
0.0
 43
0.0
 43
0.0
 43
0.0
 43
1.0
 77
     0
 47
0.0208333333333333
 47
0.0
 47
0.0
 47
0.0
 47
0.0
 47
0.0208333333333333
 47
0.0
 47
0.0
 47
0.0
 47
0.0
 47
1.0
 47
0.0
 47
0.0
 47
0.0
 47
0.0
 47
1.0
171
     0
 49
0.0208333333333333
 49
0.0
 49
0.0
 49
0.0
 49
0.0
 49
0.0208333333333333
 49
0.0
 49
0.0
 49
0.0
 49
0.0
 49
1.0
 49
0.0
 49
0.0
 49
0.0
 49
0.0
 49
1.0
175
     0
142
0.0208333333333333
142
0.0
142
0.0
142
0.0
142
0.0
142
0.0208333333333333
142
0.0
142
0.0
142
0.0
142
0.0
142
1.0
142
0.0
142
0.0
142
0.0
142
0.0
142
1.0
179
     0
144
0.0208333333333333
144
0.0
144
0.0
144
0.0
144
0.0
144
0.0208333333333333
144
0.0
144
0.0
144
0.0
144
0.0
144
1.0
144
0.0
144
0.0
144
0.0
144
0.0
144
1.0
147
0.0208333333333333
147
0.0
147
0.0
147
0.0
147
0.0
147
0.0208333333333333
147
0.0
147
0.0
147
0.0
147
0.0
147
1.0
147
0.0
147
0.0
147
0.0
147
0.0
147
1.0
  0
MATERIAL
  5
1144
102
{ACAD_XDICTIONARY
360
1145
102
}
102
{ACAD_REACTORS
330
1133
102
}
330
1133
100
AcDbMaterial
  1
Global
 72
     0
 43
0.0208333333333333
 43
0.0
 43
0.0
 43
0.0
 43
0.0
 43
0.0208333333333333
 43
0.0
 43
0.0
 43
0.0
 43
0.0
 43
1.0
 43
0.0
 43
0.0
 43
0.0
 43
0.0
 43
1.0
 77
     0
 47
0.0208333333333333
 47
0.0
 47
0.0
 47
0.0
 47
0.0
 47
0.0208333333333333
 47
0.0
 47
0.0
 47
0.0
 47
0.0
 47
1.0
 47
0.0
 47
0.0
 47
0.0
 47
0.0
 47
1.0
171
     0
 49
0.0208333333333333
 49
0.0
 49
0.0
 49
0.0
 49
0.0
 49
0.0208333333333333
 49
0.0
 49
0.0
 49
0.0
 49
0.0
 49
1.0
 49
0.0
 49
0.0
 49
0.0
 49
0.0
 49
1.0
175
     0
142
0.0208333333333333
142
0.0
142
0.0
142
0.0
142
0.0
142
0.0208333333333333
142
0.0
142
0.0
142
0.0
142
0.0
142
1.0
142
0.0
142
0.0
142
0.0
142
0.0
142
1.0
179
     0
144
0.0208333333333333
144
0.0
144
0.0
144
0.0
144
0.0
144
0.0208333333333333
144
0.0
144
0.0
144
0.0
144
0.0
144
1.0
144
0.0
144
0.0
144
0.0
144
0.0
144
1.0
147
0.0208333333333333
147
0.0
147
0.0
147
0.0
147
0.0
147
0.0208333333333333
147
0.0
147
0.0
147
0.0
147
0.0
147
1.0
147
0.0
147
0.0
147
0.0
147
0.0
147
1.0
  0
MLEADERSTYLE
  5
1183
102
{ACAD_REACTORS
330
1182
102
}
330
1182
100
AcDbMLeaderStyle
170
     2
171
     1
172
     0
 90
        2
 40
0.0
 41
0.0
173
     1
 91
-1056964608
340
9B4
 92
       -2
290
     1
 42
0.09
291
     1
 43
0.36
  3
Standard
 44
0.18
300

342
9B2
174
     1
178
     6
175
     1
176
     0
 93
-1056964608
 45
0.18
292
     0
297
     0
 46
0.18
 94
-1056964608
 47
1.0
 49
1.0
140
1.0
293
     1
141
0.0
294
     1
177
     0
142
1.0
295
     0
296
     0
143
0.125
1001
ACAD_MLEADERVER
1070
     2
  0
MLINESTYLE
  5
9B8
102
{ACAD_REACTORS
330
9B7
102
}
330
9B7
100
AcDbMlineStyle
  2
STANDARD
 70
     0
  3

 62
   256
 51
90.0
 52
90.0
 71
     2
 49
0.5
 62
   256
  6
BYLAYER
 49
-0.5
 62
   256
  6
BYLAYER
  0
PLOTSETTINGS
  5
A76
102
{ACAD_REACTORS
330
9B9
102
}
330
9B9
100
AcDbPlotSettings
  1
1055 B&W Full Shaded Draft
  2
1055B&WDraftShaded.pc3
  4
User607
  6

 40
0.0
 41
0.0
 42
0.0
 43
0.0
 44
901.7000122070312
 45
1155.700073242187
 46
0.0
 47
0.0
 48
180377.877572
 49
80019.819395
140
180380.839082
141
80022.26069
142
1.0
143
1.0
 70
   688
 72
     0
 73
     2
 74
     3
  7
1055B&WFullDraftShaded.ctb
 75
    16
147
1.0
 76
     0
 77
     2
 78
   300
148
-4581603.303200401
149
-2032962.095032944
  0
PLOTSETTINGS
  5
A77
102
{ACAD_REACTORS
330
9B9
102
}
330
9B9
100
AcDbPlotSettings
  1
1055 B&W Full Shaded Final
  2
1055B&WFinalShaded.pc3
  4
User257
  6

 40
4.995333194732666
 41
8.297271728515625
 42
4.99530029296875
 43
8.29736328125
 44
911.6906738281249
 45
1172.294677734375
 46
0.0
 47
0.0
 48
180377.877572
 49
80019.819395
140
180380.839082
141
80022.26069
142
1.0
143
1.0
 70
   688
 72
     0
 73
     3
 74
     3
  7
1055B&WFullFinalShaded.ctb
 75
    16
147
1.0
 76
     0
 77
     2
 78
   300
148
-4581603.303200401
149
-2032962.095032944
  0
PLOTSETTINGS
  5
A78
102
{ACAD_REACTORS
330
9B9
102
}
330
9B9
100
AcDbPlotSettings
  1
1055 Color Full Shaded Draft
  2
1055ColorDraftShaded.pc3
  4
User607
  6

 40
0.0
 41
0.0
 42
0.0
 43
0.0
 44
901.7000122070312
 45
1155.700073242187
 46
0.0
 47
0.0
 48
180377.877572
 49
80019.819395
140
180380.839082
141
80022.26069
142
1.0
143
1.0
 70
   688
 72
     0
 73
     2
 74
     3
  7
1055ColorFullDraftShaded.ctb
 75
    16
147
1.0
 76
     0
 77
     2
 78
   300
148
-4581603.303200401
149
-2032962.095032944
  0
PLOTSETTINGS
  5
A79
102
{ACAD_REACTORS
330
9B9
102
}
330
9B9
100
AcDbPlotSettings
  1
1055 Color Full Shaded Final
  2
1055ColorFinalShaded.pc3
  4
User607
  6

 40
0.0
 41
0.0
 42
0.0
 43
0.0
 44
901.7000122070312
 45
1155.700073242187
 46
0.0
 47
0.0
 48
180377.877572
 49
80019.819395
140
180380.839082
141
80022.26069
142
1.0
143
1.0
 70
   688
 72
     0
 73
     2
 74
     3
  7
1055ColorFullFinalShaded.ctb
 75
    16
147
1.0
 76
     0
 77
     2
 78
   300
148
-4581603.303200401
149
-2032962.095032944
  0
PLOTSETTINGS
  5
A7A
102
{ACAD_REACTORS
330
9B9
102
}
330
9B9
100
AcDbPlotSettings
  1
1055 PLUS B&W Full Shaded Draft
  2
1055_PLUS_B&WDraftShaded.pc3
  4
User257
  6

 40
4.995333194732666
 41
8.297393798828125
 42
4.99530029296875
 43
8.29736328125
 44
901.6152954101562
 45
1155.615356445312
 46
0.0
 47
0.0
 48
180377.877572
 49
80019.819395
140
180380.839082
141
80022.26069
142
1.0
143
1.0
 70
   688
 72
     0
 73
     3
 74
     5
  7
1055B&WFullDraftShaded.ctb
 75
    16
147
1.0
 76
     0
 77
     2
 78
   300
148
-4581603.303200401
149
-2032962.095032944
  0
PLOTSETTINGS
  5
A7B
102
{ACAD_REACTORS
330
9B9
102
}
330
9B9
100
AcDbPlotSettings
  1
1055 PLUS B&W Full Shaded Final
  2
1055_PLUS_B&WFinalShaded.pc3
  4
User257
  6

 40
4.995333194732666
 41
8.297271728515625
 42
4.99530029296875
 43
8.29736328125
 44
901.6576538085937
 45
1155.657592773437
 46
0.0
 47
0.0
 48
180377.877572
 49
80019.819395
140
180380.839082
141
80022.26069
142
1.0
143
1.0
 70
   688
 72
     0
 73
     3
 74
     5
  7
1055B&WFullFinalShaded.ctb
 75
    16
147
1.0
 76
     0
 77
     2
 78
   300
148
-4581603.303200401
149
-2032962.095032944
  0
PLOTSETTINGS
  5
A7C
102
{ACAD_REACTORS
330
9B9
102
}
330
9B9
100
AcDbPlotSettings
  1
1055 PLUS Color Full Shaded Draft
  2
1055_PLUS_ColorDraftShaded.pc3
  4
User257
  6

 40
4.995333194732666
 41
8.297393798828125
 42
4.99530029296875
 43
8.29736328125
 44
901.6152954101562
 45
1155.615356445312
 46
0.0
 47
0.0
 48
180377.877572
 49
80019.819395
140
180380.839082
141
80022.26069
142
1.0
143
1.0
 70
   688
 72
     0
 73
     3
 74
     5
  7
1055ColorFullDraftShaded.ctb
 75
    16
147
1.0
 76
     0
 77
     2
 78
   300
148
-4581603.303200401
149
-2032962.095032944
  0
PLOTSETTINGS
  5
A7D
102
{ACAD_REACTORS
330
9B9
102
}
330
9B9
100
AcDbPlotSettings
  1
1055 PLUS Color Full Shaded Final
  2
1055_PLUS_ColorFinalShaded.pc3
  4
User257
  6

 40
4.995333194732666
 41
8.297271728515625
 42
4.99530029296875
 43
8.29736328125
 44
901.6576538085937
 45
1155.657592773437
 46
0.0
 47
0.0
 48
180377.877572
 49
80019.819395
140
180380.839082
141
80022.26069
142
1.0
143
1.0
 70
   688
 72
     0
 73
     3
 74
     5
  7
1055ColorFullFinalShaded.ctb
 75
    16
147
1.0
 76
     0
 77
     2
 78
   300
148
-4581603.303200401
149
-2032962.095032944
  0
PLOTSETTINGS
  5
A7E
102
{ACAD_REACTORS
330
9B9
102
}
330
9B9
100
AcDbPlotSettings
  1
1055-B&W-Shaded-Draft
  2
1055B&WDraftShaded.pc3
  4
User257
  6

 40
4.995333194732666
 41
8.297393798828125
 42
4.99530029296875
 43
8.29736328125
 44
901.6152954101562
 45
1155.615356445312
 46
0.0
 47
0.0
 48
180360.0524337165
 49
80033.77936194791
140
180369.1574725906
141
80037.61796031875
142
1.0
143
30.0
 70
  1696
 72
     0
 73
     1
 74
     1
  7
1055B&WFullDraftShaded.ctb
 75
     0
147
0.0333333333333333
 76
     0
 77
     2
 78
   300
148
-190.0773302744904
149
-129.2444057835751
  0
PLOTSETTINGS
  5
A7F
102
{ACAD_REACTORS
330
9B9
102
}
330
9B9
100
AcDbPlotSettings
  1
1055-B&W-Shaded-Final
  2
1055B&WFinalShaded.pc3
  4
User607
  6

 40
0.0
 41
0.0
 42
0.0
 43
0.0
 44
901.7000122070312
 45
1155.700073242187
 46
0.0
 47
0.0
 48
180360.0524337165
 49
80033.77936194791
140
180369.1574725906
141
80037.61796031875
142
1.0
143
30.0
 70
  1696
 72
     0
 73
     1
 74
     1
  7
1055B&WFullFinalShaded.ctb
 75
     0
147
0.0333333333333333
 76
     0
 77
     2
 78
   300
148
-190.0773302744904
149
-129.2444057835751
  0
PLOTSETTINGS
  5
A80
102
{ACAD_REACTORS
330
9B9
102
}
330
9B9
100
AcDbPlotSettings
  1
1055-Color-Shaded-Draft
  2
1055ColorDraftShaded.pc3
  4
User257
  6

 40
4.995333194732666
 41
8.297393798828125
 42
4.99530029296875
 43
8.29736328125
 44
901.6152954101562
 45
1155.615356445312
 46
0.0
 47
0.0
 48
180360.0524337165
 49
80033.77936194791
140
180369.1574725906
141
80037.61796031875
142
1.0
143
30.0
 70
  1696
 72
     0
 73
     1
 74
     1
  7
1055ColorFullDraftShaded.ctb
 75
     0
147
0.0333333333333333
 76
     0
 77
     2
 78
   300
148
-190.0773302744904
149
-129.2444057835751
  0
PLOTSETTINGS
  5
A81
102
{ACAD_REACTORS
330
9B9
102
}
330
9B9
100
AcDbPlotSettings
  1
1055-Color-Shaded-Final
  2
1055ColorDraftShaded.pc3
  4
User257
  6

 40
4.995333194732666
 41
8.297393798828125
 42
4.99530029296875
 43
8.29736328125
 44
901.6152954101562
 45
1155.615356445312
 46
0.0
 47
0.0
 48
180360.0524337165
 49
80033.77936194791
140
180369.1574725906
141
80037.61796031875
142
1.0
143
30.0
 70
  1696
 72
     0
 73
     1
 74
     1
  7
1055ColorFullFinalShaded.ctb
 75
     0
147
0.0333333333333333
 76
     0
 77
     2
 78
   300
148
-190.0773302744904
149
-129.2444057835751
  0
PLOTSETTINGS
  5
A82
102
{ACAD_REACTORS
330
9B9
102
}
330
9B9
100
AcDbPlotSettings
  1
1055-PLUS-B&W-Shaded-Draft
  2
1055_PLUS_B&WDraftShaded.pc3
  4
User257
  6

 40
4.995333194732666
 41
8.297393798828125
 42
4.99530029296875
 43
8.29736328125
 44
901.6152954101562
 45
1155.615356445312
 46
0.0
 47
0.0
 48
180360.0524337165
 49
80033.77936194791
140
180369.1574725906
141
80037.61796031875
142
1.0
143
30.0
 70
  1696
 72
     0
 73
     1
 74
     0
  7
1055B&WFullDraftShaded.ctb
 75
     0
147
0.0333333333333333
 76
     0
 77
     2
 78
   300
148
0.9506237099442845
149
8.593888772447144
  0
PLOTSETTINGS
  5
A83
102
{ACAD_REACTORS
330
9B9
102
}
330
9B9
100
AcDbPlotSettings
  1
1055-PLUS-B&W-Shaded-Final
  2
1055_PLUS_B&WFinalShaded.pc3
  4
User257
  6

 40
4.995333194732666
 41
8.297271728515625
 42
4.99530029296875
 43
8.29736328125
 44
901.6576538085937
 45
1155.657592773437
 46
0.0
 47
0.0
 48
180360.0524337165
 49
80033.77936194791
140
180369.1574725906
141
80037.61796031875
142
1.0
143
30.0
 70
  1696
 72
     0
 73
     1
 74
     0
  7
1055B&WFullFinalShaded.ctb
 75
     0
147
0.0333333333333333
 76
     0
 77
     2
 78
   300
148
0.9506237099442845
149
8.593888772447144
  0
PLOTSETTINGS
  5
A84
102
{ACAD_REACTORS
330
9B9
102
}
330
9B9
100
AcDbPlotSettings
  1
1055-PLUS-Color-Shaded-Draft
  2
1055_PLUS_ColorDraftShaded.pc3
  4
User257
  6

 40
4.995333194732666
 41
8.297393798828125
 42
4.99530029296875
 43
8.29736328125
 44
901.6152954101562
 45
1155.615356445312
 46
0.0
 47
0.0
 48
180360.0524337165
 49
80033.77936194791
140
180369.1574725906
141
80037.61796031875
142
1.0
143
30.0
 70
  1696
 72
     0
 73
     1
 74
     0
  7
1055ColorFullDraftShaded.ctb
 75
     0
147
0.0333333333333333
 76
     0
 77
     2
 78
   300
148
0.9506237099442845
149
8.593888772447144
  0
PLOTSETTINGS
  5
A85
102
{ACAD_REACTORS
330
9B9
102
}
330
9B9
100
AcDbPlotSettings
  1
1055-PLUS-Color-Shaded-Final
  2
1055_PLUS_ColorFinalShaded.pc3
  4
User257
  6

 40
4.995333194732666
 41
8.297271728515625
 42
4.99530029296875
 43
8.29736328125
 44
901.6576538085937
 45
1155.657592773437
 46
0.0
 47
0.0
 48
180360.0524337165
 49
80033.77936194791
140
180369.1574725906
141
80037.61796031875
142
1.0
143
30.0
 70
  1696
 72
     0
 73
     1
 74
     0
  7
1055ColorFullFinalShaded.ctb
 75
     0
147
0.0333333333333333
 76
     0
 77
     2
 78
   300
148
0.9506237099442845
149
8.593888772447144
  0
PLOTSETTINGS
  5
A86
102
{ACAD_REACTORS
330
9B9
102
}
330
9B9
100
AcDbPlotSettings
  1
2200 Color Inkjet
  2
HP  2200 Color Inkjet.pc3
  4
Letter
  6

 40
7.143749713897705
 41
12.47775650024414
 42
7.14373779296875
 43
3.17498779296875
 44
215.8999938964844
 45
279.3999938964844
 46
0.0
 47
0.0
 48
180377.877572
 49
80019.819395
140
180380.839082
141
80022.26069
142
1.0
143
0.3486331030131726
 70
   688
 72
     0
 73
     1
 74
     3
  7
Color.ctb
 75
     0
147
2.868344948764708
 76
     0
 77
     2
 78
   300
148
-4581603.303200401
149
-2032962.095032944
  0
PLOTSETTINGS
  5
A87
102
{ACAD_REACTORS
330
9B9
102
}
330
9B9
100
AcDbPlotSettings
  1
2200-Color-Inkjet
  2
HP  2200 Color Inkjet.pc3
  4
Letter
  6

 40
7.143749713897705
 41
12.47775650024414
 42
7.14373779296875
 43
3.17498779296875
 44
215.8999938964844
 45
279.3999938964844
 46
0.0
 47
0.0
 48
180360.0524337165
 49
80033.77936194791
140
180369.1574725906
141
80037.61796031875
142
1.0
143
0.069393053089765
 70
  1712
 72
     0
 73
     1
 74
     1
  7
Color.ctb
 75
     0
147
14.41066440334347
 76
     0
 77
     2
 78
   300
148
-190.0773302744904
149
-129.2444057835751
  0
PLOTSETTINGS
  5
A88
102
{ACAD_REACTORS
330
9B9
102
}
330
9B9
100
AcDbPlotSettings
  1
24x36 PDF
  2
Bluebeam PDF Printer.pc3
  4
User128
  6

 40
3.174999952316284
 41
3.174999952316284
 42
3.17498779296875
 43
3.17498779296875
 44
609.5999755859375
 45
914.3999633789062
 46
270.51
 47
416.3059999999999
 48
180377.877572
 49
80019.819395
140
180380.839082
141
80022.26069
142
1.0
143
1.0
 70
   692
 72
     0
 73
     1
 74
     4
  7
1055B&WFullDraftShaded.ctb
 75
    16
147
1.0
 76
     0
 77
     2
 78
   300
148
-4581598.0903288
149
-2032503.412633
  0
PLOTSETTINGS
  5
A89
102
{ACAD_REACTORS
330
9B9
102
}
330
9B9
100
AcDbPlotSettings
  1
8500 B&W Shaded 11x17
  2
8500B&WShaded.pc3
  4
11x17
  6

 40
5.027083396911621
 41
5.027085304260253
 42
5.027099609375
 43
5.027069091796875
 44
279.3999938964844
 45
431.7999877929687
 46
0.0
 47
92.964
 48
180377.877572
 49
80019.819395
140
180380.839082
141
80022.26069
142
1.0
143
0.0116192543742624
 70
   692
 72
     0
 73
     1
 74
     3
  7
8500B&WShaded.ctb
 75
     0
147
86.06404230335863
 76
     0
 77
     2
 78
   300
148
-4581651.879813895
149
-2032998.636134231
  0
PLOTSETTINGS
  5
A8A
102
{ACAD_REACTORS
330
9B9
102
}
330
9B9
100
AcDbPlotSettings
  1
8500 B&W Shaded 8.5x11
  2
8500B&WShaded.pc3
  4
Letter
  6

 40
5.027083396911621
 41
5.027085304260253
 42
5.027084350585937
 43
5.027069091796875
 44
215.8999938964844
 45
279.3999938964844
 46
0.0
 47
44.44999999999999
 48
180377.877572
 49
80019.819395
140
180380.839082
141
80022.26069
142
1.0
143
0.0152035994604527
 70
   692
 72
     0
 73
     1
 74
     3
  7
8500B&WShaded.ctb
 75
     0
147
65.77389799048455
 76
     0
 77
     2
 78
   300
148
-4581651.879813895
149
-2032998.636134231
  0
PLOTSETTINGS
  5
A8B
102
{ACAD_REACTORS
330
9B9
102
}
330
9B9
100
AcDbPlotSettings
  1
8500 Color Shaded 11x17
  2
8500ColorShaded.pc3
  4
11x17
  6

 40
5.027083396911621
 41
5.027085304260253
 42
5.027099609375
 43
5.027069091796875
 44
279.3999938964844
 45
431.7999877929687
 46
0.0
 47
92.964
 48
180377.877572
 49
80019.819395
140
180380.839082
141
80022.26069
142
1.0
143
0.0116192543742624
 70
   692
 72
     0
 73
     1
 74
     3
  7
8500ColorShaded.ctb
 75
     0
147
86.06404230335863
 76
     0
 77
     2
 78
   300
148
-4581651.879813895
149
-2032998.636134231
  0
PLOTSETTINGS
  5
A8C
102
{ACAD_REACTORS
330
9B9
102
}
330
9B9
100
AcDbPlotSettings
  1
8500 Color Shaded 8.5x11
  2
8500ColorShaded.pc3
  4
Letter
  6

 40
5.027083396911621
 41
5.027085304260253
 42
5.027084350585937
 43
5.027069091796875
 44
215.8999938964844
 45
279.3999938964844
 46
0.0
 47
44.44999999999999
 48
180377.877572
 49
80019.819395
140
180380.839082
141
80022.26069
142
1.0
143
0.0152035994604527
 70
   692
 72
     0
 73
     1
 74
     3
  7
8500ColorShaded.ctb
 75
     0
147
65.77389799048455
 76
     0
 77
     2
 78
   300
148
-4581651.879813895
149
-2032998.636134231
  0
PLOTSETTINGS
  5
A8D
102
{ACAD_REACTORS
330
9B9
102
}
330
9B9
100
AcDbPlotSettings
  1
8500-B&W-Shaded-11x17
  2
8500B&WShaded.pc3
  4
11x17
  6

 40
5.027083396911621
 41
5.027085304260253
 42
5.027099609375
 43
5.027069091796875
 44
279.3999938964844
 45
431.7999877929687
 46
0.0
 47
0.0
 48
180360.0524337165
 49
80033.77936194791
140
180369.1574725906
141
80037.61796031875
142
1.0
143
0.0519425466957002
 70
  1712
 72
     0
 73
     1
 74
     1
  7
8500B&WShaded.ctb
 75
     0
147
19.25204025629301
 76
     0
 77
     2
 78
   300
148
-190.0773302744904
149
-129.2444057835751
  0
PLOTSETTINGS
  5
A8E
102
{ACAD_REACTORS
330
9B9
102
}
330
9B9
100
AcDbPlotSettings
  1
8500-B&W-Shaded-8.5x11
  2
8500B&WShaded.pc3
  4
Letter
  6

 40
5.027083396911621
 41
5.027085304260253
 42
5.027084350585937
 43
5.027069091796875
 44
215.8999938964844
 45
279.3999938964844
 46
0.0
 47
0.0
 48
180360.0524337165
 49
80033.77936194791
140
180369.1574725906
141
80037.61796031875
142
1.0
143
0.0679659511256221
 70
  1712
 72
     0
 73
     1
 74
     1
  7
8500B&WShaded.ctb
 75
     0
147
14.71324955273106
 76
     0
 77
     2
 78
   300
148
-190.0773302744904
149
-129.2444057835751
  0
PLOTSETTINGS
  5
A8F
102
{ACAD_REACTORS
330
9B9
102
}
330
9B9
100
AcDbPlotSettings
  1
8500-Color-Shaded-11x17
  2
8500ColorShaded.pc3
  4
11x17
  6

 40
5.027083396911621
 41
5.027085304260253
 42
5.027099609375
 43
5.027069091796875
 44
279.3999938964844
 45
431.7999877929687
 46
0.0
 47
0.0
 48
180360.0524337165
 49
80033.77936194791
140
180369.1574725906
141
80037.61796031875
142
1.0
143
0.0519425466957002
 70
  1712
 72
     0
 73
     1
 74
     1
  7
8500ColorShaded.ctb
 75
     0
147
19.25204025629301
 76
     0
 77
     2
 78
   300
148
-190.0773302744904
149
-129.2444057835751
  0
PLOTSETTINGS
  5
A90
102
{ACAD_REACTORS
330
9B9
102
}
330
9B9
100
AcDbPlotSettings
  1
8500-Color-Shaded-8.5x11
  2
8500ColorShaded.pc3
  4
Letter
  6

 40
5.027083396911621
 41
5.027085304260253
 42
5.027084350585937
 43
5.027069091796875
 44
215.8999938964844
 45
279.3999938964844
 46
0.0
 47
0.0
 48
180360.0524337165
 49
80033.77936194791
140
180369.1574725906
141
80037.61796031875
142
1.0
143
0.0679659511256221
 70
  1712
 72
     0
 73
     1
 74
     1
  7
8500ColorShaded.ctb
 75
     0
147
14.71324955273106
 76
     0
 77
     2
 78
   300
148
-190.0773302744904
149
-129.2444057835751
  0
PLOTSETTINGS
  5
A91
102
{ACAD_REACTORS
330
9B9
102
}
330
9B9
100
AcDbPlotSettings
  1
Laser Jet 5 Shaded 11x17
  2
LaserJet5Shaded.pc3
  4
11x17
  6

 40
7.143749713897705
 41
5.873736858367919
 42
7.143768310546875
 43
7.14373779296875
 44
279.3999938964844
 45
431.7999877929687
 46
0.0
 47
29.718
 48
180377.877572
 49
80019.819395
140
180380.839082
141
80022.26069
142
1.0
143
0.2557442899420743
 70
   692
 72
     0
 73
     1
 74
     3
  7
LaserJet5Shaded.ctb
 75
     0
147
3.910155727138614
 76
     0
 77
     2
 78
   300
148
-4581603.303200401
149
-2032962.095032944
  0
PLOTSETTINGS
  5
A92
102
{ACAD_REACTORS
330
9B9
102
}
330
9B9
100
AcDbPlotSettings
  1
Laser Jet 5 Shaded 8.5x11
  2
LaserJet5Shaded.pc3
  4
Letter
  6

 40
7.143749713897705
 41
6.974400997161865
 42
7.14373779296875
 43
6.297088623046875
 44
215.8999938964844
 45
279.3999938964844
 46
2.794
 47
0.0
 48
180377.877572
 49
80019.819395
140
180380.839082
141
80022.26069
142
1.0
143
0.345513616778612
 70
   692
 72
     0
 73
     1
 74
     3
  7
LaserJet5Shaded.ctb
 75
     0
147
2.894241938489939
 76
     0
 77
     2
 78
   300
148
-4581603.303200401
149
-2032962.095032944
  0
PLOTSETTINGS
  5
A93
102
{ACAD_REACTORS
330
9B9
102
}
330
9B9
100
AcDbPlotSettings
  1
LaserJet5-Shaded-11x17
  2
LaserJet5Shaded.pc3
  4
11x17
  6

 40
7.143749713897705
 41
5.873736858367919
 42
7.143768310546875
 43
7.14373779296875
 44
279.3999938964844
 45
431.7999877929687
 46
0.0
 47
0.0
 48
180360.0524337165
 49
80033.77936194791
140
180369.1574725906
141
80037.61796031875
142
1.0
143
0.0527719690046124
 70
  1712
 72
     0
 73
     1
 74
     1
  7
LaserJet5Shaded.ctb
 75
     0
147
18.9494540162524
 76
     0
 77
     2
 78
   300
148
-190.0773302744904
149
-129.2444057835751
  0
PLOTSETTINGS
  5
A94
102
{ACAD_REACTORS
330
9B9
102
}
330
9B9
100
AcDbPlotSettings
  1
LaserJet5-Shaded-8.5x11
  2
LaserJet5Shaded.pc3
  4
Letter
  6

 40
7.143749713897705
 41
6.974400997161865
 42
7.14373779296875
 43
6.297088623046875
 44
215.8999938964844
 45
279.3999938964844
 46
0.0
 47
0.0
 48
180360.0524337165
 49
80033.77936194791
140
180369.1574725906
141
80037.61796031875
142
1.0
143
0.069393053089765
 70
  1712
 72
     0
 73
     1
 74
     1
  7
LaserJet5Shaded.ctb
 75
     0
147
14.41066440334347
 76
     0
 77
     2
 78
   300
148
-190.0773302744904
149
-129.2444057835751
  0
PLOTSETTINGS
  5
A95
102
{ACAD_REACTORS
330
9B9
102
}
330
9B9
100
AcDbPlotSettings
  1
Oki Doki B&W Shaded 11x17
  2
OKI DOKI Color Laser.pc3
  4
Tabloid
  6

 40
5.027083396911621
 41
5.027085304260253
 42
5.027099609375
 43
5.027069091796875
 44
279.3999938964844
 45
431.7999877929687
 46
0.0
 47
47.49799999999999
 48
180377.877572
 49
80019.819395
140
180380.839082
141
80022.26069
142
1.0
143
0.2302203728173071
 70
   692
 72
     0
 73
     1
 74
     4
  7
OKIB&WShaded.ctb
 75
     0
147
4.343664236846477
 76
     0
 77
     2
 78
   300
148
-4581598.0903288
149
-2032503.412633
  0
PLOTSETTINGS
  5
A96
102
{ACAD_REACTORS
330
9B9
102
}
330
9B9
100
AcDbPlotSettings
  1
Oki Doki B&W Shaded 8.5x11
  2
OKI DOKI Color Laser.pc3
  4
Letter
  6

 40
5.027083396911621
 41
5.027085304260253
 42
5.027084350585937
 43
5.027069091796875
 44
215.8999938964844
 45
279.3999938964844
 46
0.0
 47
9.906
 48
180377.877572
 49
80019.819395
140
180380.839082
141
80022.26069
142
1.0
143
0.3012394963745367
 70
   692
 72
     0
 73
     1
 74
     4
  7
OKIB&WShaded.ctb
 75
     0
147
3.319617819161008
 76
     0
 77
     2
 78
   300
148
-4581598.0903288
149
-2032503.412633
  0
PLOTSETTINGS
  5
A97
102
{ACAD_REACTORS
330
9B9
102
}
330
9B9
100
AcDbPlotSettings
  1
Oki Doki Color Laser
  2
OKI DOKI Color Laser.pc3
  4
Letter
  6

 40
5.027083396911621
 41
5.027085304260253
 42
5.027084350585937
 43
5.027069091796875
 44
215.8999938964844
 45
279.3999938964844
 46
71.88199999999999
 47
97.02799999999999
 48
180377.877572
 49
80019.819395
140
180380.839082
141
80022.26069
142
1.0
143
1.0
 70
   692
 72
     0
 73
     1
 74
     4
  7
Color.ctb
 75
    16
147
1.0
 76
     0
 77
     2
 78
   300
148
-4581598.0903288
149
-2032503.412633
  0
PLOTSETTINGS
  5
A98
102
{ACAD_REACTORS
330
9B9
102
}
330
9B9
100
AcDbPlotSettings
  1
Oki Doki Color Shaded 11x17
  2
OKI DOKI Color Laser.pc3
  4
Tabloid
  6

 40
5.027083396911621
 41
5.027085304260253
 42
5.027099609375
 43
5.027069091796875
 44
279.3999938964844
 45
431.7999877929687
 46
0.0
 47
47.49799999999999
 48
180377.877572
 49
80019.819395
140
180380.839082
141
80022.26069
142
1.0
143
0.2302203728173071
 70
   692
 72
     0
 73
     1
 74
     4
  7
OKIColorShaded.ctb
 75
     0
147
4.343664236846477
 76
     0
 77
     2
 78
   300
148
-4581598.0903288
149
-2032503.412633
  0
PLOTSETTINGS
  5
A99
102
{ACAD_REACTORS
330
9B9
102
}
330
9B9
100
AcDbPlotSettings
  1
Oki Doki Color Shaded 8.5x11
  2
OKI DOKI Color Laser.pc3
  4
Letter
  6

 40
5.027083396911621
 41
5.027085304260253
 42
5.027084350585937
 43
5.027069091796875
 44
215.8999938964844
 45
279.3999938964844
 46
0.0
 47
9.906
 48
180377.877572
 49
80019.819395
140
180380.839082
141
80022.26069
142
1.0
143
0.3012394963745367
 70
   692
 72
     0
 73
     1
 74
     4
  7
OKIColorShaded.ctb
 75
     0
147
3.319617819161008
 76
     0
 77
     2
 78
   300
148
-4581598.0903288
149
-2032503.412633
  0
PLOTSETTINGS
  5
A9A
102
{ACAD_REACTORS
330
9B9
102
}
330
9B9
100
AcDbPlotSettings
  1
Oki-Doki-B&W-Shaded-11x17
  2
OKI DOKI Color Laser.pc3
  4
Tabloid
  6

 40
5.027083396911621
 41
5.027085304260253
 42
5.027099609375
 43
5.027069091796875
 44
279.3999938964844
 45
431.7999877929687
 46
45.72
 47
0.0
 48
180360.0524337165
 49
80033.77936194791
140
180369.1574725906
141
80037.61796031875
142
1.0
143
0.5483586774064594
 70
  1716
 72
     0
 73
     1
 74
     4
  7
OKIB&WShaded.ctb
 75
     0
147
1.823623918435361
 76
     0
 77
     2
 78
   300
148
-4581145.331816398
149
-2032857.995793477
  0
PLOTSETTINGS
  5
A9B
102
{ACAD_REACTORS
330
9B9
102
}
330
9B9
100
AcDbPlotSettings
  1
Oki-Doki-B&W-Shaded-8.5x11
  2
OKI DOKI Color Laser.pc3
  4
Letter
  6

 40
5.027083396911621
 41
5.027085304260253
 42
5.027084350585937
 43
5.027069091796875
 44
215.8999938964844
 45
279.3999938964844
 46
46.228
 47
0.0
 48
180360.0524337165
 49
80033.77936194791
140
180369.1574725906
141
80037.61796031875
142
1.0
143
0.8586284006917006
 70
  1716
 72
     0
 73
     1
 74
     4
  7
OKIB&WShaded.ctb
 75
     0
147
1.16464817515285
 76
     0
 77
     2
 78
   300
148
-4581145.331816398
149
-2032857.995793477
  0
PLOTSETTINGS
  5
A9C
102
{ACAD_REACTORS
330
9B9
102
}
330
9B9
100
AcDbPlotSettings
  1
Oki-Doki-Color-Laser
  2
OKI DOKI Color Laser.pc3
  4
Letter
  6

 40
5.027083396911621
 41
5.027085304260253
 42
5.027084350585937
 43
5.027069091796875
 44
215.8999938964844
 45
279.3999938964844
 46
17.018
 47
0.0
 48
180360.0524337165
 49
80033.77936194791
140
180369.1574725906
141
80037.61796031875
142
1.0
143
1.429088128819241
 70
  1716
 72
     0
 73
     1
 74
     0
  7
Color.ctb
 75
     0
147
0.6997469084193093
 76
     0
 77
     2
 78
   300
148
0.9506237099442977
149
8.593888772447144
  0
PLOTSETTINGS
  5
A9D
102
{ACAD_REACTORS
330
9B9
102
}
330
9B9
100
AcDbPlotSettings
  1
Oki-Doki-Color-Shaded-11x17
  2
OKI DOKI Color Laser.pc3
  4
Tabloid
  6

 40
5.027083396911621
 41
5.027085304260253
 42
5.027099609375
 43
5.027069091796875
 44
279.3999938964844
 45
431.7999877929687
 46
45.72
 47
0.0
 48
180360.0524337165
 49
80033.77936194791
140
180369.1574725906
141
80037.61796031875
142
1.0
143
0.5483586774064594
 70
  1716
 72
     0
 73
     1
 74
     4
  7
OKIColorShaded.ctb
 75
     0
147
1.823623918435361
 76
     0
 77
     2
 78
   300
148
-4581145.331816398
149
-2032857.995793477
  0
PLOTSETTINGS
  5
A9E
102
{ACAD_REACTORS
330
9B9
102
}
330
9B9
100
AcDbPlotSettings
  1
Oki-Doki-Color-Shaded-8.5x11
  2
OKI DOKI Color Laser.pc3
  4
Letter
  6

 40
5.027083396911621
 41
5.027085304260253
 42
5.027084350585937
 43
5.027069091796875
 44
215.8999938964844
 45
279.3999938964844
 46
46.228
 47
0.0
 48
180360.0524337165
 49
80033.77936194791
140
180369.1574725906
141
80037.61796031875
142
1.0
143
0.8586284006917006
 70
  1716
 72
     0
 73
     1
 74
     4
  7
OKIColorShaded.ctb
 75
     0
147
1.16464817515285
 76
     0
 77
     2
 78
   300
148
-4581145.331816398
149
-2032857.995793477
  0
ACDBPLACEHOLDER
  5
9B0
102
{ACAD_REACTORS
330
9AF
102
}
330
9AF
  0
SCALE
  5
1161
102
{ACAD_REACTORS
330
1160
102
}
330
1160
100
AcDbScale
 70
     0
300
1:1
140
1.0
141
1.0
290
     1
  0
SCALE
  5
1162
102
{ACAD_REACTORS
330
1160
102
}
330
1160
100
AcDbScale
 70
     0
300
1:2
140
1.0
141
2.0
290
     0
  0
SCALE
  5
1163
102
{ACAD_REACTORS
330
1160
102
}
330
1160
100
AcDbScale
 70
     0
300
1:4
140
1.0
141
4.0
290
     0
  0
SCALE
  5
1164
102
{ACAD_REACTORS
330
1160
102
}
330
1160
100
AcDbScale
 70
     0
300
1:5
140
1.0
141
5.0
290
     0
  0
SCALE
  5
1165
102
{ACAD_REACTORS
330
1160
102
}
330
1160
100
AcDbScale
 70
     0
300
1:8
140
1.0
141
8.0
290
     0
  0
SCALE
  5
1166
102
{ACAD_REACTORS
330
1160
102
}
330
1160
100
AcDbScale
 70
     0
300
1:10
140
1.0
141
10.0
290
     0
  0
SCALE
  5
1167
102
{ACAD_REACTORS
330
1160
102
}
330
1160
100
AcDbScale
 70
     0
300
1:16
140
1.0
141
16.0
290
     0
  0
SCALE
  5
1168
102
{ACAD_REACTORS
330
1160
102
}
330
1160
100
AcDbScale
 70
     0
300
1:20
140
1.0
141
20.0
290
     0
  0
SCALE
  5
1169
102
{ACAD_REACTORS
330
1160
102
}
330
1160
100
AcDbScale
 70
     0
300
1:30
140
1.0
141
30.0
290
     0
  0
SCALE
  5
116A
102
{ACAD_REACTORS
330
1160
102
}
330
1160
100
AcDbScale
 70
     0
300
1:40
140
1.0
141
40.0
290
     0
  0
SCALE
  5
116B
102
{ACAD_REACTORS
330
1160
102
}
330
1160
100
AcDbScale
 70
     0
300
1:50
140
1.0
141
50.0
290
     0
  0
SCALE
  5
116C
102
{ACAD_REACTORS
330
1160
102
}
330
1160
100
AcDbScale
 70
     0
300
1:100
140
1.0
141
100.0
290
     0
  0
SCALE
  5
116D
102
{ACAD_REACTORS
330
1160
102
}
330
1160
100
AcDbScale
 70
     0
300
2:1
140
2.0
141
1.0
290
     0
  0
SCALE
  5
116E
102
{ACAD_REACTORS
330
1160
102
}
330
1160
100
AcDbScale
 70
     0
300
4:1
140
4.0
141
1.0
290
     0
  0
SCALE
  5
116F
102
{ACAD_REACTORS
330
1160
102
}
330
1160
100
AcDbScale
 70
     0
300
8:1
140
8.0
141
1.0
290
     0
  0
SCALE
  5
1170
102
{ACAD_REACTORS
330
1160
102
}
330
1160
100
AcDbScale
 70
     0
300
10:1
140
10.0
141
1.0
290
     0
  0
SCALE
  5
1171
102
{ACAD_REACTORS
330
1160
102
}
330
1160
100
AcDbScale
 70
     0
300
100:1
140
100.0
141
1.0
290
     0
  0
SCALE
  5
1172
102
{ACAD_REACTORS
330
1160
102
}
330
1160
100
AcDbScale
 70
     0
300
1/128" = 1'-0"
140
0.0078125
141
12.0
290
     0
  0
SCALE
  5
1173
102
{ACAD_REACTORS
330
1160
102
}
330
1160
100
AcDbScale
 70
     0
300
1/64" = 1'-0"
140
0.015625
141
12.0
290
     0
  0
SCALE
  5
1174
102
{ACAD_REACTORS
330
1160
102
}
330
1160
100
AcDbScale
 70
     0
300
1/32" = 1'-0"
140
0.03125
141
12.0
290
     0
  0
SCALE
  5
1175
102
{ACAD_REACTORS
330
1160
102
}
330
1160
100
AcDbScale
 70
     0
300
1/16" = 1'-0"
140
0.0625
141
12.0
290
     0
  0
SCALE
  5
1176
102
{ACAD_REACTORS
330
1160
102
}
330
1160
100
AcDbScale
 70
     0
300
3/32" = 1'-0"
140
0.09375
141
12.0
290
     0
  0
SCALE
  5
1177
102
{ACAD_REACTORS
330
1160
102
}
330
1160
100
AcDbScale
 70
     0
300
1/8" = 1'-0"
140
0.125
141
12.0
290
     0
  0
SCALE
  5
1178
102
{ACAD_REACTORS
330
1160
102
}
330
1160
100
AcDbScale
 70
     0
300
3/16" = 1'-0"
140
0.1875
141
12.0
290
     0
  0
SCALE
  5
1179
102
{ACAD_REACTORS
330
1160
102
}
330
1160
100
AcDbScale
 70
     0
300
1/4" = 1'-0"
140
0.25
141
12.0
290
     0
  0
SCALE
  5
117A
102
{ACAD_REACTORS
330
1160
102
}
330
1160
100
AcDbScale
 70
     0
300
3/8" = 1'-0"
140
0.375
141
12.0
290
     0
  0
SCALE
  5
117B
102
{ACAD_REACTORS
330
1160
102
}
330
1160
100
AcDbScale
 70
     0
300
1/2" = 1'-0"
140
0.5
141
12.0
290
     0
  0
SCALE
  5
117C
102
{ACAD_REACTORS
330
1160
102
}
330
1160
100
AcDbScale
 70
     0
300
3/4" = 1'-0"
140
0.75
141
12.0
290
     0
  0
SCALE
  5
117D
102
{ACAD_REACTORS
330
1160
102
}
330
1160
100
AcDbScale
 70
     0
300
1" = 1'-0"
140
1.0
141
12.0
290
     0
  0
SCALE
  5
117E
102
{ACAD_REACTORS
330
1160
102
}
330
1160
100
AcDbScale
 70
     0
300
1-1/2" = 1'-0"
140
1.5
141
12.0
290
     0
  0
SCALE
  5
117F
102
{ACAD_REACTORS
330
1160
102
}
330
1160
100
AcDbScale
 70
     0
300
3" = 1'-0"
140
3.0
141
12.0
290
     0
  0
SCALE
  5
1180
102
{ACAD_REACTORS
330
1160
102
}
330
1160
100
AcDbScale
 70
     0
300
6" = 1'-0"
140
6.0
141
12.0
290
     0
  0
SCALE
  5
1181
102
{ACAD_REACTORS
330
1160
102
}
330
1160
100
AcDbScale
 70
     0
300
1'-0" = 1'-0"
140
12.0
141
12.0
290
     0
  0
TABLESTYLE
  5
115F
102
{ACAD_XDICTIONARY
360
1369
102
}
102
{ACAD_REACTORS
330
115E
102
}
330
115E
100
AcDbTableStyle
  3
Standard
 70
     0
 71
     0
 40
0.06
 41
0.06
280
     0
281
     0
  7
STANDARD
140
0.18
170
     2
 62
     0
 63
     7
283
     0
274
    -2
284
     1
 64
     0
275
    -2
285
     1
 65
     0
276
    -2
286
     1
 66
     0
277
    -2
287
     1
 67
     0
278
    -2
288
     1
 68
     0
279
    -2
289
     1
 69
     0
  7
STANDARD
140
0.25
170
     5
 62
     0
 63
     7
283
     0
274
    -2
284
     1
 64
     0
275
    -2
285
     1
 65
     0
276
    -2
286
     1
 66
     0
277
    -2
287
     1
 67
     0
278
    -2
288
     1
 68
     0
279
    -2
289
     1
 69
     0
  7
STANDARD
140
0.18
170
     5
 62
     0
 63
     7
283
     0
274
    -2
284
     1
 64
     0
275
    -2
285
     1
 65
     0
276
    -2
286
     1
 66
     0
277
    -2
287
     1
 67
     0
278
    -2
288
     1
 68
     0
279
    -2
289
     1
 69
     0
  0
VISUALSTYLE
  5
1152
102
{ACAD_REACTORS
330
114C
102
}
330
114C
100
AcDbVisualStyle
  2
2dWireframe
 70
     4
 71
     0
 72
     2
 73
     0
 90
        0
 40
-0.6
 41
-30.0
 62
     5
 63
     7
421
 16777215
 74
     1
 91
        4
 64
     7
 65
   257
 75
     1
175
     1
 42
1.0
 92
        0
 66
   257
 43
1.0
 76
     1
 77
     6
 78
     2
 67
     7
 79
     5
170
     0
171
     0
290
     0
174
     0
 93
        1
 44
0.0
173
     0
291
     0
 45
0.0
1001
ACAD
1000
AcDbSavedByObjectVersion
1070
     0
  0
VISUALSTYLE
  5
1154
102
{ACAD_REACTORS
330
114C
102
}
330
114C
100
AcDbVisualStyle
  2
3D Hidden
 70
     6
 71
     1
 72
     2
 73
     2
 90
        0
 40
-0.6
 41
-30.0
 62
     5
 63
     7
421
 16777215
 74
     2
 91
        2
 64
     7
 65
   257
 75
     2
175
     1
 42
40.0
 92
        0
 66
   257
 43
1.0
 76
     1
 77
     6
 78
     2
 67
     7
 79
     3
170
     0
171
     0
290
     0
174
     0
 93
        1
 44
0.0
173
     0
291
     0
 45
0.0
1001
ACAD
1000
AcDbSavedByObjectVersion
1070
     0
  0
VISUALSTYLE
  5
1153
102
{ACAD_REACTORS
330
114C
102
}
330
114C
100
AcDbVisualStyle
  2
3dWireframe
 70
     5
 71
     0
 72
     2
 73
     0
 90
        0
 40
-0.6
 41
-30.0
 62
     5
 63
     7
421
 16777215
 74
     1
 91
        4
 64
     7
 65
   257
 75
     1
175
     1
 42
1.0
 92
        0
 66
   257
 43
1.0
 76
     1
 77
     6
 78
     2
 67
     7
 79
     5
170
     0
171
     0
290
     0
174
     0
 93
        1
 44
0.0
173
     0
291
     0
 45
0.0
1001
ACAD
1000
AcDbSavedByObjectVersion
1070
     0
  0
VISUALSTYLE
  5
1151
102
{ACAD_REACTORS
330
114C
102
}
330
114C
100
AcDbVisualStyle
  2
Basic
 70
     7
 71
     1
 72
     0
 73
     1
 90
        0
 40
-0.6
 41
-30.0
 62
     5
 63
     7
421
 16777215
 74
     0
 91
        4
 64
     7
 65
   257
 75
     1
175
     1
 42
1.0
 92
        8
 66
     7
 43
1.0
 76
     1
 77
     6
 78
     2
 67
     7
 79
     5
170
     0
171
     0
290
     0
174
     0
 93
        1
 44
0.0
173
     0
291
     1
 45
0.0
1001
ACAD
1000
AcDbSavedByObjectVersion
1070
     0
  0
VISUALSTYLE
  5
1158
102
{ACAD_REACTORS
330
114C
102
}
330
114C
100
AcDbVisualStyle
  2
Brighten
 70
    12
 71
     2
 72
     2
 73
     0
 90
        0
 40
-0.6
 41
-30.0
 62
     5
 63
     7
421
 16777215
 74
     1
 91
        4
 64
     7
 65
   257
 75
     1
175
     1
 42
1.0
 92
        8
 66
     7
 43
1.0
 76
     1
 77
     6
 78
     2
 67
     7
 79
     5
170
     0
171
     0
290
     0
174
     0
 93
        1
 44
50.0
173
     0
291
     1
 45
0.0
1001
ACAD
1000
AcDbSavedByObjectVersion
1070
     0
  0
VISUALSTYLE
  5
115C
102
{ACAD_REACTORS
330
114C
102
}
330
114C
100
AcDbVisualStyle
  2
ColorChange
 70
    16
 71
     2
 72
     2
 73
     3
 90
        0
 40
-0.6
 41
-30.0
 62
     5
 63
     8
421
  8421504
 74
     1
 91
        4
 64
     7
 65
   257
 75
     1
175
     1
 42
1.0
 92
        8
 66
     8
424
  8421504
 43
1.0
 76
     1
 77
     6
 78
     2
 67
     7
 79
     5
170
     0
171
     0
290
     0
174
     0
 93
        1
 44
0.0
173
     0
291
     1
 45
0.0
1001
ACAD
1000
AcDbSavedByObjectVersion
1070
     0
  0
VISUALSTYLE
  5
1155
102
{ACAD_REACTORS
330
114C
102
}
330
114C
100
AcDbVisualStyle
  2
Conceptual
 70
     9
 71
     3
 72
     2
 73
     0
 90
        0
 40
-0.6
 41
-30.0
 62
     5
 63
     7
421
 16777215
 74
     2
 91
        2
 64
     7
 65
   257
 75
     1
175
     1
 42
40.0
 92
        8
 66
     7
 43
1.0
 76
     1
 77
     6
 78
     2
 67
     7
 79
     3
170
     0
171
     0
290
     0
174
     0
 93
        1
 44
0.0
173
     0
291
     0
 45
0.0
1001
ACAD
1000
AcDbSavedByObjectVersion
1070
     0
  0
VISUALSTYLE
  5
1157
102
{ACAD_REACTORS
330
114C
102
}
330
114C
100
AcDbVisualStyle
  2
Dim
 70
    11
 71
     2
 72
     2
 73
     0
 90
        0
 40
-0.6
 41
-30.0
 62
     5
 63
     7
421
 16777215
 74
     1
 91
        4
 64
     7
 65
   257
 75
     1
175
     1
 42
1.0
 92
        8
 66
     7
 43
1.0
 76
     1
 77
     6
 78
     2
 67
     7
 79
     5
170
     0
171
     0
290
     0
174
     0
 93
        1
 44
-50.0
173
     0
291
     1
 45
0.0
1001
ACAD
1000
AcDbSavedByObjectVersion
1070
     0
  0
VISUALSTYLE
  5
115B
102
{ACAD_REACTORS
330
114C
102
}
330
114C
100
AcDbVisualStyle
  2
Facepattern
 70
    15
 71
     2
 72
     2
 73
     0
 90
        0
 40
-0.6
 41
-30.0
 62
     5
 63
     7
421
 16777215
 74
     1
 91
        4
 64
     7
 65
   257
 75
     1
175
     1
 42
1.0
 92
        8
 66
     7
 43
1.0
 76
     1
 77
     6
 78
     2
 67
     7
 79
     5
170
     0
171
     0
290
     0
174
     0
 93
        1
 44
0.0
173
     0
291
     1
 45
0.0
1001
ACAD
1000
AcDbSavedByObjectVersion
1070
     0
  0
VISUALSTYLE
  5
114D
102
{ACAD_REACTORS
330
114C
102
}
330
114C
100
AcDbVisualStyle
  2
Flat
 70
     0
 71
     2
 72
     1
 73
     1
 90
        2
 40
-0.6
 41
30.0
 62
     5
 63
     7
421
 16777215
 74
     0
 91
        4
 64
     7
 65
   257
 75
     1
175
     1
 42
1.0
 92
        8
 66
     7
 43
1.0
 76
     1
 77
     6
 78
     2
 67
     7
 79
     5
170
     0
171
     0
290
     0
174
     0
 93
       13
 44
0.0
173
     0
291
     1
 45
0.0
1001
ACAD
1000
AcDbSavedByObjectVersion
1070
     0
  0
VISUALSTYLE
  5
114E
102
{ACAD_REACTORS
330
114C
102
}
330
114C
100
AcDbVisualStyle
  2
FlatWithEdges
 70
     1
 71
     2
 72
     1
 73
     1
 90
        2
 40
-0.6
 41
30.0
 62
     5
 63
     7
421
 16777215
 74
     1
 91
        4
 64
     7
 65
   257
 75
     1
175
     1
 42
1.0
 92
        0
 66
   257
 43
1.0
 76
     1
 77
     6
 78
     2
 67
     7
 79
     5
170
     0
171
     0
290
     0
174
     0
 93
       13
 44
0.0
173
     0
291
     1
 45
0.0
1001
ACAD
1000
AcDbSavedByObjectVersion
1070
     0
  0
VISUALSTYLE
  5
114F
102
{ACAD_REACTORS
330
114C
102
}
330
114C
100
AcDbVisualStyle
  2
Gouraud
 70
     2
 71
     2
 72
     2
 73
     1
 90
        2
 40
-0.6
 41
30.0
 62
     5
 63
     7
421
 16777215
 74
     0
 91
        4
 64
     7
 65
   257
 75
     1
175
     1
 42
1.0
 92
        0
 66
     7
 43
1.0
 76
     1
 77
     6
 78
     2
 67
     7
 79
     5
170
     0
171
     0
290
     0
174
     0
 93
       13
 44
0.0
173
     0
291
     1
 45
0.0
1001
ACAD
1000
AcDbSavedByObjectVersion
1070
     0
  0
VISUALSTYLE
  5
1150
102
{ACAD_REACTORS
330
114C
102
}
330
114C
100
AcDbVisualStyle
  2
GouraudWithEdges
 70
     3
 71
     2
 72
     2
 73
     1
 90
        2
 40
-0.6
 41
30.0
 62
     5
 63
     7
421
 16777215
 74
     1
 91
        4
 64
     7
 65
   257
 75
     1
175
     1
 42
1.0
 92
        0
 66
   257
 43
1.0
 76
     1
 77
     6
 78
     2
 67
     7
 79
     5
170
     0
171
     0
290
     0
174
     0
 93
       13
 44
0.0
173
     0
291
     1
 45
0.0
1001
ACAD
1000
AcDbSavedByObjectVersion
1070
     0
  0
VISUALSTYLE
  5
115A
102
{ACAD_REACTORS
330
114C
102
}
330
114C
100
AcDbVisualStyle
  2
Linepattern
 70
    14
 71
     2
 72
     2
 73
     0
 90
        0
 40
-0.6
 41
-30.0
 62
     5
 63
     7
421
 16777215
 74
     1
 91
        4
 64
     7
 65
   257
 75
     7
175
     7
 42
1.0
 92
        8
 66
     7
 43
1.0
 76
     1
 77
     6
 78
     2
 67
     7
 79
     5
170
     0
171
     0
290
     0
174
     0
 93
        1
 44
0.0
173
     0
291
     1
 45
0.0
1001
ACAD
1000
AcDbSavedByObjectVersion
1070
     0
  0
VISUALSTYLE
  5
1156
102
{ACAD_REACTORS
330
114C
102
}
330
114C
100
AcDbVisualStyle
  2
Realistic
 70
     8
 71
     2
 72
     2
 73
     0
 90
        0
 40
-0.6
 41
-30.0
 62
     5
 63
     7
421
 16777215
 74
     1
 91
        0
 64
     7
 65
   257
 75
     1
175
     1
 42
1.0
 92
        8
 66
     8
424
  7895160
 43
1.0
 76
     1
 77
     6
 78
     2
 67
     7
 79
     5
170
     0
171
     0
290
     0
174
     0
 93
       13
 44
0.0
173
     0
291
     0
 45
0.0
1001
ACAD
1000
AcDbSavedByObjectVersion
1070
     0
  0
VISUALSTYLE
  5
1159
102
{ACAD_REACTORS
330
114C
102
}
330
114C
100
AcDbVisualStyle
  2
Thicken
 70
    13
 71
     2
 72
     2
 73
     0
 90
        0
 40
-0.6
 41
-30.0
 62
     5
 63
     7
421
 16777215
 74
     1
 91
        4
 64
     7
 65
   257
 75
     1
175
     1
 42
1.0
 92
       12
 66
     7
 43
1.0
 76
     1
 77
     6
 78
     2
 67
     7
 79
     5
170
     0
171
     0
290
     0
174
     0
 93
        1
 44
0.0
173
     0
291
     1
 45
0.0
1001
ACAD
1000
AcDbSavedByObjectVersion
1070
     0
  0
DICTIONARYVAR
  5
1372
102
{ACAD_REACTORS
330
9EA
102
}
330
9EA
100
DictionaryVariables
280
     0
  1
1:1
  0
DICTIONARYVAR
  5
136F
102
{ACAD_REACTORS
330
9EA
102
}
330
9EA
100
DictionaryVariables
280
     0
  1
STANDARD
  0
DICTIONARYVAR
  5
136E
102
{ACAD_REACTORS
330
9EA
102
}
330
9EA
100
DictionaryVariables
280
     0
  1
STANDARD
  0
DICTIONARYVAR
  5
9ED
102
{ACAD_REACTORS
330
9EA
102
}
330
9EA
100
DictionaryVariables
280
     0
  1
1
  0
DICTIONARYVAR
  5
9EC
102
{ACAD_REACTORS
330
9EA
102
}
330
9EA
100
DictionaryVariables
280
     0
  1
1
  0
DICTIONARYVAR
  5
1456
102
{ACAD_REACTORS
330
9EA
102
}
330
9EA
100
DictionaryVariables
280
     0
  1
0
  0
DICTIONARYVAR
  5
1374
102
{ACAD_REACTORS
330
9EA
102
}
330
9EA
100
DictionaryVariables
280
     0
  1
15
  0
DICTIONARYVAR
  5
1373
102
{ACAD_REACTORS
330
9EA
102
}
330
9EA
100
DictionaryVariables
280
     0
  1
0
  0
DICTIONARYVAR
  5
1371
102
{ACAD_REACTORS
330
9EA
102
}
330
9EA
100
DictionaryVariables
280
     0
  1
0
  0
DICTIONARYVAR
  5
9EB
102
{ACAD_REACTORS
330
9EA
102
}
330
9EA
100
DictionaryVariables
280
     0
  1
1
  0
DICTIONARYVAR
  5
1370
102
{ACAD_REACTORS
330
9EA
102
}
330
9EA
100
DictionaryVariables
280
     0
  1
0
  0
XRECORD
  5
1462
102
{ACAD_REACTORS
330
145F
102
}
330
145F
100
AcDbXrecord
280
     1
  1
_0100-
  1
*0100-*
  1
*
  1
*
 70
     0
  1
*
  1
*
  0
XRECORD
  5
1461
102
{ACAD_REACTORS
330
145F
102
}
330
145F
100
AcDbXrecord
280
     1
  1
_0280-
  1
*0280-*
  1
*
  1
*
 70
     0
  1
*
  1
*
  0
XRECORD
  5
1464
102
{ACAD_REACTORS
330
145F
102
}
330
145F
100
AcDbXrecord
280
     1
  1
_Add Alternate
  1
*add*alt*
  1
*
  1
*
 70
     0
  1
*
  1
*
  0
XRECORD
  5
1465
102
{ACAD_REACTORS
330
145F
102
}
330
145F
100
AcDbXrecord
280
     1
  1
_Bid Alternate
  1
*bid*alt*
  1
*
  1
*
 70
     0
  1
*
  1
*
  0
XRECORD
  5
1467
102
{ACAD_REACTORS
330
145F
102
}
330
145F
100
AcDbXrecord
280
     1
  1
_Color 253
  1
*
  1
253
  1
*
 70
     0
  1
*
  1
*
  0
XRECORD
  5
1463
102
{ACAD_REACTORS
330
145F
102
}
330
145F
100
AcDbXrecord
280
     1
  1
_Color 8
  1
*
  1
8
  1
*
 70
     0
  1
*
  1
*
  0
XRECORD
  5
1466
102
{ACAD_REACTORS
330
145F
102
}
330
145F
100
AcDbXrecord
280
     1
  1
_Color 84
  1
*
  1
84
  1
*
 70
     0
  1
*
  1
*
  0
XRECORD
  5
146D
102
{ACAD_REACTORS
330
145F
102
}
330
145F
100
AcDbXrecord
280
     1
  1
_Contours
  1
*contour*,*cont-*,*cp cont*,*p-cont*
  1
*
  1
*
 70
     0
  1
*
  1
*
  0
XRECORD
  5
1468
102
{ACAD_REACTORS
330
145F
102
}
330
145F
100
AcDbXrecord
280
     1
  1
_Demo
  1
*demo*
  1
*
  1
*
 70
     0
  1
*
  1
*
  0
XRECORD
  5
1469
102
{ACAD_REACTORS
330
145F
102
}
330
145F
100
AcDbXrecord
280
     1
  1
_Existing
  1
*exist*,*ex*
  1
*
  1
*
 70
     0
  1
*
  1
*
  0
XRECORD
  5
146C
102
{ACAD_REACTORS
330
145F
102
}
330
145F
100
AcDbXrecord
280
     1
  1
_Hardscape
  1
*sidewalk*,*sw*,*curb*,*walk*,*-lip*,*tbc*
  1
*
  1
*
 70
     0
  1
*
  1
*
  0
XRECORD
  5
1460
102
{ACAD_REACTORS
330
145F
102
}
330
145F
100
AcDbXrecord
280
     1
  1
_NoXref
  1
~*|*
  1
*
  1
*
 70
     0
  1
*
  1
*
  0
XRECORD
  5
146A
102
{ACAD_REACTORS
330
145F
102
}
330
145F
100
AcDbXrecord
280
     1
  1
_Row
  1
*row*
  1
*
  1
*
 70
     0
  1
*
  1
*
  0
XRECORD
  5
146B
102
{ACAD_REACTORS
330
145F
102
}
330
145F
100
AcDbXrecord
280
     1
  1
_Utility
  1
*ut-*,*utility*,*wat*
  1
*
  1
*
 70
     0
  1
*
  1
*
  0
DICTIONARY
  5
113D
330
113C
100
AcDbDictionary
280
     1
281
     1
  3
ACAD_XREC_ROUNDTRIP
360
1474
  3
BUMPTILE
360
113F
  3
DIFFUSETILE
360
113E
  3
OPACITYTILE
360
1142
  3
REFLECTIONTILE
360
1141
  3
REFRACTIONTILE
360
1143
  3
SPECULARTILE
360
1140
  0
DICTIONARY
  5
1135
330
1134
100
AcDbDictionary
280
     1
281
     1
  3
ACAD_XREC_ROUNDTRIP
360
1473
  3
BUMPTILE
360
1137
  3
DIFFUSETILE
360
1136
  3
OPACITYTILE
360
113A
  3
REFLECTIONTILE
360
1139
  3
REFRACTIONTILE
360
113B
  3
SPECULARTILE
360
1138
  0
DICTIONARY
  5
1145
330
1144
100
AcDbDictionary
280
     1
281
     1
  3
ACAD_XREC_ROUNDTRIP
360
1475
  3
BUMPTILE
360
1147
  3
DIFFUSETILE
360
1146
  3
OPACITYTILE
360
114A
  3
REFLECTIONTILE
360
1149
  3
REFRACTIONTILE
360
114B
  3
SPECULARTILE
360
1148
  0
DICTIONARY
  5
1369
330
115F
100
AcDbDictionary
280
     1
281
     1
  3
ACAD_ROUNDTRIP_2008_TABLESTYLE_CELLSTYLEMAP
360
146E
  3
ACAD_XREC_ROUNDTRIP
360
1476
  0
XRECORD
  5
1474
102
{ACAD_REACTORS
330
113D
102
}
330
113D
100
AcDbXrecord
280
     1
102
MATERIAL
148
0.0
149
0.0
149
0.0
 93
        0
 94
      127
282
     0
 72
     0
 77
     0
171
     0
175
     0
179
     0
273
     0
  0
XRECORD
  5
113F
102
{ACAD_REACTORS
330
113D
102
}
330
113D
100
AcDbXrecord
280
     1
270
     1
271
     1
  0
XRECORD
  5
113E
102
{ACAD_REACTORS
330
113D
102
}
330
113D
100
AcDbXrecord
280
     1
270
     1
271
     1
  0
XRECORD
  5
1142
102
{ACAD_REACTORS
330
113D
102
}
330
113D
100
AcDbXrecord
280
     1
270
     1
271
     1
  0
XRECORD
  5
1141
102
{ACAD_REACTORS
330
113D
102
}
330
113D
100
AcDbXrecord
280
     1
270
     1
271
     1
  0
XRECORD
  5
1143
102
{ACAD_REACTORS
330
113D
102
}
330
113D
100
AcDbXrecord
280
     1
270
     1
271
     1
  0
XRECORD
  5
1140
102
{ACAD_REACTORS
330
113D
102
}
330
113D
100
AcDbXrecord
280
     1
270
     1
271
     1
  0
XRECORD
  5
1473
102
{ACAD_REACTORS
330
1135
102
}
330
1135
100
AcDbXrecord
280
     1
102
MATERIAL
148
0.0
149
0.0
149
0.0
 93
        0
 94
      127
282
     0
 72
     0
 77
     0
171
     0
175
     0
179
     0
273
     0
  0
XRECORD
  5
1137
102
{ACAD_REACTORS
330
1135
102
}
330
1135
100
AcDbXrecord
280
     1
270
     1
271
     1
  0
XRECORD
  5
1136
102
{ACAD_REACTORS
330
1135
102
}
330
1135
100
AcDbXrecord
280
     1
270
     1
271
     1
  0
XRECORD
  5
113A
102
{ACAD_REACTORS
330
1135
102
}
330
1135
100
AcDbXrecord
280
     1
270
     1
271
     1
  0
XRECORD
  5
1139
102
{ACAD_REACTORS
330
1135
102
}
330
1135
100
AcDbXrecord
280
     1
270
     1
271
     1
  0
XRECORD
  5
113B
102
{ACAD_REACTORS
330
1135
102
}
330
1135
100
AcDbXrecord
280
     1
270
     1
271
     1
  0
XRECORD
  5
1138
102
{ACAD_REACTORS
330
1135
102
}
330
1135
100
AcDbXrecord
280
     1
270
     1
271
     1
  0
XRECORD
  5
1475
102
{ACAD_REACTORS
330
1145
102
}
330
1145
100
AcDbXrecord
280
     1
102
MATERIAL
148
0.0
149
0.0
149
0.0
 93
        0
 94
      127
282
     0
 72
     0
 77
     0
171
     0
175
     0
179
     0
273
     0
  0
XRECORD
  5
1147
102
{ACAD_REACTORS
330
1145
102
}
330
1145
100
AcDbXrecord
280
     1
270
     1
271
     1
  0
XRECORD
  5
1146
102
{ACAD_REACTORS
330
1145
102
}
330
1145
100
AcDbXrecord
280
     1
270
     1
271
     1
  0
XRECORD
  5
114A
102
{ACAD_REACTORS
330
1145
102
}
330
1145
100
AcDbXrecord
280
     1
270
     1
271
     1
  0
XRECORD
  5
1149
102
{ACAD_REACTORS
330
1145
102
}
330
1145
100
AcDbXrecord
280
     1
270
     1
271
     1
  0
XRECORD
  5
114B
102
{ACAD_REACTORS
330
1145
102
}
330
1145
100
AcDbXrecord
280
     1
270
     1
271
     1
  0
XRECORD
  5
1148
102
{ACAD_REACTORS
330
1145
102
}
330
1145
100
AcDbXrecord
280
     1
270
     1
271
     1
  0
CELLSTYLEMAP
  5
146E
102
{ACAD_REACTORS
330
1369
102
}
330
1369
100
AcDbCellStyleMap
 90
        3
300
CELLSTYLE
  1
TABLEFORMAT_BEGIN
 90
        5
170
     1
 91
        0
 92
    32768
 62
   257
 93
        1
300
CONTENTFORMAT
  1
CONTENTFORMAT_BEGIN
 90
        0
 91
        0
 92
      512
 93
        0
300

 40
0.0
140
1.0
 94
        5
 62
     0
340
9B2
144
0.25
309
CONTENTFORMAT_END
171
     0
 94
        0
309
TABLEFORMAT_END
  1
CELLSTYLE_BEGIN
 90
        1
 91
        1
300
_TITLE
309
CELLSTYLE_END
300
CELLSTYLE
  1
TABLEFORMAT_BEGIN
 90
        5
170
     1
 91
        0
 92
        0
 62
   257
 93
        1
300
CONTENTFORMAT
  1
CONTENTFORMAT_BEGIN
 90
        0
 91
        0
 92
      512
 93
        0
300

 40
0.0
140
1.0
 94
        5
 62
     0
340
9B2
144
0.18
309
CONTENTFORMAT_END
171
     0
 94
        0
309
TABLEFORMAT_END
  1
CELLSTYLE_BEGIN
 90
        2
 91
        1
300
_HEADER
309
CELLSTYLE_END
300
CELLSTYLE
  1
TABLEFORMAT_BEGIN
 90
        5
170
     1
 91
        0
 92
        0
 62
   257
 93
        1
300
CONTENTFORMAT
  1
CONTENTFORMAT_BEGIN
 90
        0
 91
        0
 92
      512
 93
        0
300

 40
0.0
140
1.0
 94
        2
 62
     0
340
9B2
144
0.18
309
CONTENTFORMAT_END
171
     0
 94
        0
309
TABLEFORMAT_END
  1
CELLSTYLE_BEGIN
 90
        3
 91
        2
300
_DATA
309
CELLSTYLE_END
  0
XRECORD
  5
1476
102
{ACAD_REACTORS
330
1369
102
}
330
1369
100
AcDbXrecord
280
     1
102
ACAD_ROUNDTRIP_PRE2007_TABLESTYLE
 90
      512
 91
        0
  1

 92
      512
 93
        0
  2

 94
      512
 95
        0
  3

  0
ENDSEC
  0
EOF
