  0
SECTION
  2
HEADER
  9
$ACADVER
  1
AC1018
  9
$ACADMAINTVER
 70
   104
  9
$DWGCODEPAGE
  3
ANSI_1252
  9
$LASTSAVEDBY
  1
dweyer
  9
$INSBASE
 10
0.0
 20
0.0
 30
0.0
  9
$EXTMIN
 10
-0.4984554492313005
 20
-2.476922311636122
 30
0.0
  9
$EXTMAX
 10
9.836131975556137
 20
7.963077688363877
 30
0.03
  9
$LIMMIN
 10
0.0
 20
0.0
  9
$LIMMAX
 10
12.0
 20
9.0
  9
$ORTHOMODE
 70
     1
  9
$REGENMODE
 70
     1
  9
$FILLMODE
 70
     1
  9
$QTEXTMODE
 70
     0
  9
$MIRRTEXT
 70
     0
  9
$LTSCALE
 40
1.0
  9
$ATTMODE
 70
     1
  9
$TEXTSIZE
 40
0.125
  9
$TRACEWID
 40
0.05
  9
$TEXTSTYLE
  7
ROMANS
  9
$CLAYER
  8
0
  9
$CELTYPE
  6
ByLayer
  9
$CECOLOR
 62
   256
  9
$CELTSCALE
 40
1.0
  9
$DISPSILH
 70
     0
  9
$DIMSCALE
 40
1.0
  9
$DIMASZ
 40
0.18
  9
$DIMEXO
 40
0.0625
  9
$DIMDLI
 40
0.38
  9
$DIMRND
 40
0.0
  9
$DIMDLE
 40
0.0
  9
$DIMEXE
 40
0.125
  9
$DIMTP
 40
0.0
  9
$DIMTM
 40
0.0
  9
$DIMTXT
 40
0.125
  9
$DIMCEN
 40
0.09
  9
$DIMTSZ
 40
0.0
  9
$DIMTOL
 70
     0
  9
$DIMLIM
 70
     0
  9
$DIMTIH
 70
     1
  9
$DIMTOH
 70
     1
  9
$DIMSE1
 70
     0
  9
$DIMSE2
 70
     0
  9
$DIMTAD
 70
     0
  9
$DIMZIN
 70
     0
  9
$DIMBLK
  1

  9
$DIMASO
 70
     1
  9
$DIMSHO
 70
     1
  9
$DIMPOST
  1

  9
$DIMAPOST
  1

  9
$DIMALT
 70
     0
  9
$DIMALTD
 70
     2
  9
$DIMALTF
 40
25.4
  9
$DIMLFAC
 40
1.0
  9
$DIMTOFL
 70
     0
  9
$DIMTVP
 40
0.0
  9
$DIMTIX
 70
     0
  9
$DIMSOXD
 70
     0
  9
$DIMSAH
 70
     0
  9
$DIMBLK1
  1

  9
$DIMBLK2
  1

  9
$DIMSTYLE
  2
STANDARD
  9
$DIMCLRD
 70
   256
  9
$DIMCLRE
 70
   256
  9
$DIMCLRT
 70
   256
  9
$DIMTFAC
 40
1.0
  9
$DIMGAP
 40
0.09
  9
$DIMJUST
 70
     0
  9
$DIMSD1
 70
     0
  9
$DIMSD2
 70
     0
  9
$DIMTOLJ
 70
     1
  9
$DIMTZIN
 70
     0
  9
$DIMALTZ
 70
     0
  9
$DIMALTTZ
 70
     0
  9
$DIMUPT
 70
     0
  9
$DIMDEC
 70
     4
  9
$DIMTDEC
 70
     4
  9
$DIMALTU
 70
     2
  9
$DIMALTTD
 70
     2
  9
$DIMTXSTY
  7
Arial
  9
$DIMAUNIT
 70
     0
  9
$DIMADEC
 70
     0
  9
$DIMALTRND
 40
0.0
  9
$DIMAZIN
 70
     0
  9
$DIMDSEP
 70
    46
  9
$DIMATFIT
 70
     3
  9
$DIMFRAC
 70
     0
  9
$DIMLDRBLK
  1

  9
$DIMLUNIT
 70
     2
  9
$DIMLWD
 70
    -1
  9
$DIMLWE
 70
    -1
  9
$DIMTMOVE
 70
     2
  9
$LUNITS
 70
     2
  9
$LUPREC
 70
     3
  9
$SKETCHINC
 40
0.1
  9
$FILLETRAD
 40
0.0
  9
$AUNITS
 70
     0
  9
$AUPREC
 70
     0
  9
$MENU
  1
ACAD
  9
$ELEVATION
 40
0.0
  9
$PELEVATION
 40
0.0
  9
$THICKNESS
 40
0.0
  9
$LIMCHECK
 70
     0
  9
$CHAMFERA
 40
0.0
  9
$CHAMFERB
 40
0.0
  9
$CHAMFERC
 40
0.0
  9
$CHAMFERD
 40
0.0
  9
$SKPOLY
 70
     0
  9
$TDCREATE
 40
2451605.558833901
  9
$TDUCREATE
 40
2451605.850500568
  9
$TDUPDATE
 40
2455210.461449919
  9
$TDUUPDATE
 40
2455210.753116586
  9
$TDINDWG
 40
0.2536571181
  9
$TDUSRTIMER
 40
0.2536571181
  9
$USRTIMER
 70
     1
  9
$ANGBASE
 50
0.0
  9
$ANGDIR
 70
     0
  9
$PDMODE
 70
     0
  9
$PDSIZE
 40
0.0
  9
$PLINEWID
 40
0.0
  9
$SPLFRAME
 70
     0
  9
$SPLINETYPE
 70
     6
  9
$SPLINESEGS
 70
     8
  9
$HANDSEED
  5
1A2E
  9
$SURFTAB1
 70
     6
  9
$SURFTAB2
 70
     6
  9
$SURFTYPE
 70
     6
  9
$SURFU
 70
     6
  9
$SURFV
 70
     6
  9
$UCSBASE
  2

  9
$UCSNAME
  2

  9
$UCSORG
 10
0.0
 20
0.0
 30
0.0
  9
$UCSXDIR
 10
1.0
 20
0.0
 30
0.0
  9
$UCSYDIR
 10
0.0
 20
1.0
 30
0.0
  9
$UCSORTHOREF
  2

  9
$UCSORTHOVIEW
 70
     0
  9
$UCSORGTOP
 10
0.0
 20
0.0
 30
0.0
  9
$UCSORGBOTTOM
 10
0.0
 20
0.0
 30
0.0
  9
$UCSORGLEFT
 10
0.0
 20
0.0
 30
0.0
  9
$UCSORGRIGHT
 10
0.0
 20
0.0
 30
0.0
  9
$UCSORGFRONT
 10
0.0
 20
0.0
 30
0.0
  9
$UCSORGBACK
 10
0.0
 20
0.0
 30
0.0
  9
$PUCSBASE
  2

  9
$PUCSNAME
  2

  9
$PUCSORG
 10
0.0
 20
0.0
 30
0.0
  9
$PUCSXDIR
 10
1.0
 20
0.0
 30
0.0
  9
$PUCSYDIR
 10
0.0
 20
1.0
 30
0.0
  9
$PUCSORTHOREF
  2

  9
$PUCSORTHOVIEW
 70
     0
  9
$PUCSORGTOP
 10
0.0
 20
0.0
 30
0.0
  9
$PUCSORGBOTTOM
 10
0.0
 20
0.0
 30
0.0
  9
$PUCSORGLEFT
 10
0.0
 20
0.0
 30
0.0
  9
$PUCSORGRIGHT
 10
0.0
 20
0.0
 30
0.0
  9
$PUCSORGFRONT
 10
0.0
 20
0.0
 30
0.0
  9
$PUCSORGBACK
 10
0.0
 20
0.0
 30
0.0
  9
$USERI1
 70
     0
  9
$USERI2
 70
     0
  9
$USERI3
 70
     0
  9
$USERI4
 70
     0
  9
$USERI5
 70
     0
  9
$USERR1
 40
0.0
  9
$USERR2
 40
0.0
  9
$USERR3
 40
0.0
  9
$USERR4
 40
0.0
  9
$USERR5
 40
0.0
  9
$WORLDVIEW
 70
     1
  9
$SHADEDGE
 70
     3
  9
$SHADEDIF
 70
    70
  9
$TILEMODE
 70
     1
  9
$MAXACTVP
 70
    16
  9
$PINSBASE
 10
0.0
 20
0.0
 30
0.0
  9
$PLIMCHECK
 70
     0
  9
$PEXTMIN
 10
1.000000000000000E+20
 20
1.000000000000000E+20
 30
1.000000000000000E+20
  9
$PEXTMAX
 10
-1.000000000000000E+20
 20
-1.000000000000000E+20
 30
-1.000000000000000E+20
  9
$PLIMMIN
 10
0.0
 20
0.0
  9
$PLIMMAX
 10
12.0
 20
9.0
  9
$UNITMODE
 70
     0
  9
$VISRETAIN
 70
     0
  9
$PLINEGEN
 70
     1
  9
$PSLTSCALE
 70
     1
  9
$TREEDEPTH
 70
  3020
  9
$CMLSTYLE
  2
Standard
  9
$CMLJUST
 70
     0
  9
$CMLSCALE
 40
1.0
  9
$PROXYGRAPHICS
 70
     1
  9
$MEASUREMENT
 70
     0
  9
$CELWEIGHT
370
    -1
  9
$ENDCAPS
280
     0
  9
$JOINSTYLE
280
     0
  9
$LWDISPLAY
290
     0
  9
$INSUNITS
 70
     0
  9
$HYPERLINKBASE
  1

  9
$STYLESHEET
  1
pdf bw shaded.ctb
  9
$XEDIT
290
     1
  9
$CEPSNTYPE
380
     0
  9
$PSTYLEMODE
290
     1
  9
$FINGERPRINTGUID
  2
{809E942E-D3FA-4AF4-BE5E-39ACFC237699}
  9
$VERSIONGUID
  2
{4EFD42A9-2F4C-4970-B1E8-8BE305CF501A}
  9
$EXTNAMES
290
     1
  9
$PSVPSCALE
 40
0.0
  9
$OLESTARTUP
290
     1
  9
$SORTENTS
280
    48
  9
$INDEXCTL
280
     0
  9
$HIDETEXT
280
     1
  9
$XCLIPFRAME
290
     0
  9
$HALOGAP
280
     0
  9
$OBSCOLOR
 70
   257
  9
$OBSLTYPE
280
     0
  9
$INTERSECTIONDISPLAY
280
     0
  9
$INTERSECTIONCOLOR
 70
   257
  9
$DIMASSOC
280
     1
  9
$PROJECTNAME
  1

  0
ENDSEC
  0
SECTION
  2
CLASSES
  0
CLASS
  1
ACDBDICTIONARYWDFLT
  2
AcDbDictionaryWithDefault
  3
ObjectDBX Classes
 90
        0
 91
        1
280
     0
281
     0
  0
CLASS
  1
DICTIONARYVAR
  2
AcDbDictionaryVar
  3
ObjectDBX Classes
 90
        0
 91
       11
280
     0
281
     0
  0
CLASS
  1
MATERIAL
  2
AcDbMaterial
  3
ObjectDBX Classes
 90
     1153
 91
        3
280
     0
281
     0
  0
CLASS
  1
VISUALSTYLE
  2
AcDbVisualStyle
  3
ObjectDBX Classes
 90
     4095
 91
       16
280
     0
281
     0
  0
CLASS
  1
TABLESTYLE
  2
AcDbTableStyle
  3
ObjectDBX Classes
 90
     4095
 91
        1
280
     0
281
     0
  0
CLASS
  1
SCALE
  2
AcDbScale
  3
ObjectDBX Classes
 90
     1153
 91
       33
280
     0
281
     0
  0
CLASS
  1
MLEADERSTYLE
  2
AcDbMLeaderStyle
  3
ACDB_MLEADERSTYLE_CLASS
 90
     4095
 91
        1
280
     0
281
     0
  0
CLASS
  1
EXACXREFPANELOBJECT
  2
ExAcXREFPanelObject
  3
EXAC_ESW
 90
     1025
 91
        0
280
     0
281
     0
  0
CLASS
  1
NPOCOLLECTION
  2
AcDbImpNonPersistentObjectsCollection
  3
ObjectDBX Classes
 90
     1153
 91
        0
280
     0
281
     0
  0
CLASS
  1
PLOTSETTINGS
  2
AcDbPlotSettings
  3
ObjectDBX Classes
 90
        0
 91
       76
280
     0
281
     0
  0
CLASS
  1
LAYER_INDEX
  2
AcDbLayerIndex
  3
ObjectDBX Classes
 90
        0
 91
        0
280
     0
281
     0
  0
CLASS
  1
SPATIAL_INDEX
  2
AcDbSpatialIndex
  3
ObjectDBX Classes
 90
        0
 91
        0
280
     0
281
     0
  0
CLASS
  1
IDBUFFER
  2
AcDbIdBuffer
  3
ObjectDBX Classes
 90
        0
 91
        0
280
     0
281
     0
  0
CLASS
  1
CELLSTYLEMAP
  2
AcDbCellStyleMap
  3
ObjectDBX Classes
 90
     1152
 91
        9
280
     0
281
     0
  0
CLASS
  1
AEC_REFEDIT_STATUS_TRACKER
  2
AecDbRefEditStatusTracker
  3
AecArchBase50|Product Desc: Autodesk Architectural Desktop 2007 |Company: Autodesk,Inc. |WEB Address: www.autodesk.com
 90
      129
 91
        0
280
     0
281
     0
  0
CLASS
  1
SORTENTSTABLE
  2
AcDbSortentsTable
  3
ObjectDBX Classes
 90
        0
 91
        1
280
     0
281
     0
  0
ENDSEC
  0
SECTION
  2
TABLES
  0
TABLE
  2
VPORT
  5
10AB
330
0
100
AcDbSymbolTable
 70
     1
  0
VPORT
  5
11F0
330
10AB
100
AcDbSymbolTableRecord
100
AcDbViewportTableRecord
  2
*Active
 70
     0
 10
0.0
 20
0.0
 11
1.0
 21
1.0
 12
4.668838263162419
 22
2.743077688363877
 13
0.0
 23
0.0
 14
0.14
 24
0.14
 15
0.14
 25
0.14
 16
0.0
 26
0.0
 36
1.0
 17
0.0
 27
0.0
 37
0.0
 40
10.53266272189349
 41
2.308148148148148
 42
50.0
 43
0.0
 44
0.0
 50
0.0
 51
0.0
 71
     0
 72
  4000
 73
     1
 74
     1
 75
     0
 76
     0
 77
     0
 78
     0
281
     0
 65
     1
110
0.0
120
0.0
130
0.0
111
1.0
121
0.0
131
0.0
112
0.0
122
1.0
132
0.0
 79
     0
146
0.0
  0
ENDTAB
  0
TABLE
  2
LTYPE
  5
10A8
330
0
100
AcDbSymbolTable
 70
     1
  0
LTYPE
  5
10B6
330
10A8
100
AcDbSymbolTableRecord
100
AcDbLinetypeTableRecord
  2
ByBlock
 70
     0
  3

 72
    65
 73
     0
 40
0.0
  0
LTYPE
  5
10B7
330
10A8
100
AcDbSymbolTableRecord
100
AcDbLinetypeTableRecord
  2
ByLayer
 70
     0
  3

 72
    65
 73
     0
 40
0.0
  0
LTYPE
  5
10B8
330
10A8
100
AcDbSymbolTableRecord
100
AcDbLinetypeTableRecord
  2
CONTINUOUS
 70
     0
  3
Solid line
 72
    65
 73
     0
 40
0.0
  0
ENDTAB
  0
TABLE
  2
LAYER
  5
10A5
102
{ACAD_XDICTIONARY
360
10EB
102
}
330
0
100
AcDbSymbolTable
 70
     5
  0
LAYER
  5
10B3
330
10A5
100
AcDbSymbolTableRecord
100
AcDbLayerTableRecord
  2
0
 70
     0
 62
     7
  6
CONTINUOUS
370
    -3
390
10B2
  0
LAYER
  5
10CC
330
10A5
100
AcDbSymbolTableRecord
100
AcDbLayerTableRecord
  2
text_bubbles
 70
     0
 62
     6
  6
CONTINUOUS
370
    -3
390
10B2
  0
LAYER
  5
10CD
330
10A5
100
AcDbSymbolTableRecord
100
AcDbLayerTableRecord
  2
image
 70
     0
 62
     7
  6
CONTINUOUS
370
    -3
390
10B2
  0
LAYER
  5
118F
330
10A5
100
AcDbSymbolTableRecord
100
AcDbLayerTableRecord
  2
title
 70
     0
 62
     4
  6
CONTINUOUS
370
    -3
390
10B2
  0
ENDTAB
  0
TABLE
  2
STYLE
  5
10A6
330
0
100
AcDbSymbolTable
 70
     7
  0
STYLE
  5
10B4
330
10A6
100
AcDbSymbolTableRecord
100
AcDbTextStyleTableRecord
  2
STANDARD
 70
     0
 40
0.0
 41
1.0
 50
0.0
 71
     0
 42
0.2
  3
txt
  4

  0
STYLE
  5
10C7
330
10A6
100
AcDbSymbolTableRecord
100
AcDbTextStyleTableRecord
  2
ROMANS
 70
     0
 40
0.0
 41
1.0
 50
0.0
 71
     0
 42
0.125
  3
ROMANS.SHX
  4

  0
STYLE
  5
10C8
330
10A6
100
AcDbSymbolTableRecord
100
AcDbTextStyleTableRecord
  2
SIMPLEX
 70
     0
 40
0.0
 41
1.0
 50
0.0
 71
     0
 42
0.125
  3
SIMPLEX
  4

  0
STYLE
  5
1190
330
10A6
100
AcDbSymbolTableRecord
100
AcDbTextStyleTableRecord
  2
L100
 70
     0
 40
0.1
 41
1.0
 50
0.0
 71
     0
 42
0.1
  3
romans.shx
  4

  0
STYLE
  5
1191
330
10A6
100
AcDbSymbolTableRecord
100
AcDbTextStyleTableRecord
  2
L200
 70
     0
 40
0.2
 41
1.0
 50
0.0
 71
     0
 42
0.081
  3
ARIAL.TTF
  4

1001
ACAD
1000
Arial
1071
       34
  0
STYLE
  5
1192
330
10A6
100
AcDbSymbolTableRecord
100
AcDbTextStyleTableRecord
  2
L80
 70
     0
 40
0.08
 41
1.0
 50
0.0
 71
     0
 42
0.08
  3
ROMANS
  4

  0
STYLE
  5
1345
330
10A6
100
AcDbSymbolTableRecord
100
AcDbTextStyleTableRecord
  2
Arial
 70
     0
 40
0.0
 41
1.0
 50
0.0
 71
     0
 42
0.125
  3
ARIAL.TTF
  4

1001
ACAD
1000
Arial
1071
       34
  0
ENDTAB
  0
TABLE
  2
VIEW
  5
10A9
330
0
100
AcDbSymbolTable
 70
     0
  0
ENDTAB
  0
TABLE
  2
UCS
  5
10AA
330
0
100
AcDbSymbolTable
 70
     0
  0
ENDTAB
  0
TABLE
  2
APPID
  5
10AC
330
0
100
AcDbSymbolTable
 70
    15
  0
APPID
  5
10B5
330
10AC
100
AcDbSymbolTableRecord
100
AcDbRegAppTableRecord
  2
ACAD
 70
     0
  0
APPID
  5
10CA
330
10AC
100
AcDbSymbolTableRecord
100
AcDbRegAppTableRecord
  2
ABNSLEADERTOOLS
 70
     0
  0
APPID
  5
1193
330
10AC
100
AcDbSymbolTableRecord
100
AcDbRegAppTableRecord
  2
RAK
 70
     0
  0
APPID
  5
1194
330
10AC
100
AcDbSymbolTableRecord
100
AcDbRegAppTableRecord
  2
DCO15
 70
     0
  0
APPID
  5
1243
330
10AC
100
AcDbSymbolTableRecord
100
AcDbRegAppTableRecord
  2
ACAD_MLEADERVER
 70
     0
  0
APPID
  5
1257
330
10AC
100
AcDbSymbolTableRecord
100
AcDbRegAppTableRecord
  2
ACAD_PSEXT
 70
     0
  0
APPID
  5
12D8
330
10AC
100
AcDbSymbolTableRecord
100
AcDbRegAppTableRecord
  2
ACAD_EXEMPT_FROM_CAD_STANDARDS
 70
     0
  0
APPID
  5
1346
330
10AC
100
AcDbSymbolTableRecord
100
AcDbRegAppTableRecord
  2
BBSI_PltSel
 70
     0
  0
APPID
  5
1347
330
10AC
100
AcDbSymbolTableRecord
100
AcDbRegAppTableRecord
  2
BBSI_Plots
 70
     0
  0
APPID
  5
1348
330
10AC
100
AcDbSymbolTableRecord
100
AcDbRegAppTableRecord
  2
BBSI_Bookmarks
 70
     0
  0
APPID
  5
1349
330
10AC
100
AcDbSymbolTableRecord
100
AcDbRegAppTableRecord
  2
BBSI_BookmarksEx
 70
     0
  0
APPID
  5
135A
330
10AC
100
AcDbSymbolTableRecord
100
AcDbRegAppTableRecord
  2
BBSI_StampsEx
 70
     0
  0
APPID
  5
135B
330
10AC
100
AcDbSymbolTableRecord
100
AcDbRegAppTableRecord
  2
BBSI_Attachs
 70
     0
  0
APPID
  5
135C
330
10AC
100
AcDbSymbolTableRecord
100
AcDbRegAppTableRecord
  2
BBSI_DigSigs
 70
     0
  0
APPID
  5
13B4
330
10AC
100
AcDbSymbolTableRecord
100
AcDbRegAppTableRecord
  2
BBSI_Stamp
 70
     0
  0
ENDTAB
  0
TABLE
  2
DIMSTYLE
  5
10AD
330
0
100
AcDbSymbolTable
 70
     1
100
AcDbDimStyleTable
 71
     1
340
10CB
  0
DIMSTYLE
105
10CB
330
10AD
100
AcDbSymbolTableRecord
100
AcDbDimStyleTableRecord
  2
STANDARD
 70
     0
279
     2
340
10B4
  0
ENDTAB
  0
TABLE
  2
BLOCK_RECORD
  5
10A4
330
0
100
AcDbSymbolTable
 70
     2
  0
BLOCK_RECORD
  5
10C1
102
{ACAD_XDICTIONARY
360
12AB
102
}
330
10A4
100
AcDbSymbolTableRecord
100
AcDbBlockTableRecord
  2
*Model_Space
340
10C4
  0
BLOCK_RECORD
  5
10BD
330
10A4
100
AcDbSymbolTableRecord
100
AcDbBlockTableRecord
  2
*Paper_Space
340
10C0
  0
BLOCK_RECORD
  5
1195
102
{ACAD_XDICTIONARY
360
1316
102
}
330
10A4
100
AcDbSymbolTableRecord
100
AcDbBlockTableRecord
  2
titleblock
340
0
102
{BLKREFS
331
11A4
102
}
  0
BLOCK_RECORD
  5
175B
330
10A4
100
AcDbSymbolTableRecord
100
AcDbBlockTableRecord
  2
*X1
340
0
102
{BLKREFS
331
193B
102
}
  0
ENDTAB
  0
ENDSEC
  0
SECTION
  2
BLOCKS
  0
BLOCK
  5
10D6
330
10C1
100
AcDbEntity
  8
0
100
AcDbBlockBegin
  2
*Model_Space
 70
     0
 10
0.0
 20
0.0
 30
0.0
  3
*Model_Space
  1

  0
ENDBLK
  5
10D7
330
10C1
100
AcDbEntity
  8
0
100
AcDbBlockEnd
  0
BLOCK
  5
10D4
330
10BD
100
AcDbEntity
 67
     1
  8
0
100
AcDbBlockBegin
  2
*Paper_Space
 70
     0
 10
0.0
 20
0.0
 30
0.0
  3
*Paper_Space
  1

  0
ENDBLK
  5
10D5
330
10BD
100
AcDbEntity
 67
     1
  8
0
100
AcDbBlockEnd
  0
BLOCK
  5
11A1
330
1195
100
AcDbEntity
  8
0
100
AcDbBlockBegin
  2
titleblock
 70
     2
 10
0.0
 20
0.0
 30
0.0
  3
titleblock
  1

  0
LWPOLYLINE
  5
1196
330
1195
100
AcDbEntity
  8
0
100
AcDbPolyline
 90
        4
 70
     1
 43
0.0
 10
0.0
 20
0.0
 10
10.33458742478744
 20
0.0000000000000002
 10
10.33458742478744
 20
10.44
 10
0.0
 20
10.44
  0
ATTDEF
  5
1197
330
1195
100
AcDbEntity
  8
title
100
AcDbText
 10
0.5055556038023421
 20
0.7842270964783673
 30
0.0
 40
0.2
  1
D
  7
L200
 72
     4
 11
0.6064423705144839
 21
0.8842270964783672
 31
0.0
100
AcDbAttributeDefinition
  3
#
  2
D
 70
     0
  0
ATTDEF
  5
1198
330
1195
100
AcDbEntity
  8
title
100
AcDbText
 10
1.231442370514484
 20
1.34371230274675
 30
0.0
 40
0.2
  1

  7
L200
100
AcDbAttributeDefinition
  3
DETAIL TITLE TOP LINE
  2
TITLE1
 70
     0
  0
ATTDEF
  5
1199
330
1195
100
AcDbEntity
  8
title
100
AcDbText
 10
1.231442370514484
 20
0.9842270964783674
 30
0.0
 40
0.2
  1
TITLE
  7
L200
100
AcDbAttributeDefinition
  3
DETAIL TITLE TOP 2ND LINE
  2
TITLE2
 70
     0
  0
ATTDEF
  5
119A
330
1195
100
AcDbEntity
  8
title
100
AcDbText
 10
2.713645751168312
 20
0.5927927664583189
 30
0.0
 40
0.2
  1
TITLE2
  7
L200
100
AcDbAttributeDefinition
  3
DETAIL TITLE BOTTOM 1
  2
TITLE3
 70
     0
  0
ATTDEF
  5
119B
330
1195
100
AcDbEntity
  8
title
100
AcDbText
 10
2.713645751168312
 20
0.2692560808167741
 30
0.0
 40
0.2
  1

  7
L200
100
AcDbAttributeDefinition
  3
DETAIL TITLE BOTTOM 2
  2
TITLE4
 70
     0
  0
ATTDEF
  5
119C
330
1195
100
AcDbEntity
  8
title
 62
     7
100
AcDbText
 10
8.177214829966379
 20
0.9696027915446398
 30
0.0
 40
0.08
  1
-
  7
L80
 72
     2
 11
8.261024353775903
 21
0.9696027915446398
 31
0.0
100
AcDbAttributeDefinition
  3
REVISION DATE
  2
REVISED
 70
     0
  0
ATTDEF
  5
119D
330
1195
100
AcDbEntity
  8
title
 62
     7
100
AcDbText
 10
0.2639423705144838
 20
0.0847116480207213
 30
0.0
 40
0.08
  1
-
  7
L80
100
AcDbAttributeDefinition
  3
DWG-NAME
  2
DWG-NAME
 70
     0
  0
LWPOLYLINE
  5
119E
330
1195
100
AcDbEntity
  8
title
 62
     3
100
AcDbPolyline
 90
        2
 70
     1
 43
0.03
 10
0.6064423705144839
 20
0.5417270964783675
 42
0.9999999999999998
 10
0.6064423705144839
 20
1.226727096478367
 42
0.9999999999999998
  0
ATTDEF
  5
119F
330
1195
100
AcDbEntity
  8
title
 62
     7
100
AcDbText
 10
1.231442370514484
 20
0.7005637793954894
 30
0.0
 40
0.1
  1
N.T.S.
  7
L100
100
AcDbAttributeDefinition
  3
SCALE
  2
SCALE
 70
     0
  0
LWPOLYLINE
  5
11A0
330
1195
100
AcDbEntity
  8
title
 62
     3
100
AcDbPolyline
 90
        2
 70
     0
 43
0.04
 39
0.03
 10
0.9489423705144833
 20
0.8842270964783672
 10
8.261024353775903
 20
0.8842270964783672
  0
ENDBLK
  5
11A2
330
1195
100
AcDbEntity
  8
0
100
AcDbBlockEnd
  0
BLOCK
  5
175C
330
175B
100
AcDbEntity
  8
0
100
AcDbBlockBegin
  2
*X1
 70
     1
 10
0.0
 20
0.0
 30
0.0
  3
*X1
  1

  0
LINE
  5
175D
330
175B
100
AcDbEntity
  8
0
 62
     0
100
AcDbLine
 10
1.052349707137936
 20
3.967752767485229
 30
0.0
 11
1.052349707137936
 21
3.967752767485229
 31
0.0
  0
LINE
  5
175E
330
175B
100
AcDbEntity
  8
0
 62
     0
100
AcDbLine
 10
1.692189176082818
 20
4.458718859980763
 30
0.0
 11
1.692189176082818
 21
4.458718859980763
 31
0.0
  0
LINE
  5
175F
330
175B
100
AcDbEntity
  8
0
 62
     0
100
AcDbLine
 10
1.821109093880144
 20
4.55764259219468
 30
0.0
 11
1.821109093880144
 21
4.55764259219468
 31
0.0
  0
LINE
  5
1760
330
175B
100
AcDbEntity
  8
0
 62
     0
100
AcDbLine
 10
1.941698801604411
 20
4.650174329404006
 30
0.0
 11
1.941698801604411
 21
4.650174329404006
 31
0.0
  0
LINE
  5
1761
330
175B
100
AcDbEntity
  8
0
 62
     0
100
AcDbLine
 10
2.076568869453921
 20
4.753663772335488
 30
0.0
 11
2.076568869453921
 21
4.753663772335488
 31
0.0
  0
LINE
  5
1762
330
175B
100
AcDbEntity
  8
0
 62
     0
100
AcDbLine
 10
0.7822603856801406
 20
3.958021969241146
 30
0.0
 11
0.7822603856801406
 21
3.958021969241146
 31
0.0
  0
LINE
  5
1763
330
175B
100
AcDbEntity
  8
0
 62
     0
100
AcDbLine
 10
0.9171304535296505
 20
4.061511412172628
 30
0.0
 11
0.9171304535296505
 21
4.061511412172628
 31
0.0
  0
LINE
  5
1764
330
175B
100
AcDbEntity
  8
0
 62
     0
100
AcDbLine
 10
1.046050371326976
 20
4.160435144386545
 30
0.0
 11
1.046050371326976
 21
4.160435144386545
 31
0.0
  0
LINE
  5
1765
330
175B
100
AcDbEntity
  8
0
 62
     0
100
AcDbLine
 10
0.5264514243475862
 20
3.959248876719219
 30
0.0
 11
0.5264514243475862
 21
3.959248876719219
 31
0.0
  0
LINE
  5
1766
330
175B
100
AcDbEntity
  8
0
 62
     0
100
AcDbLine
 10
0.655371342144912
 20
4.058172608933136
 30
0.0
 11
0.655371342144912
 21
4.058172608933136
 31
0.0
  0
LINE
  5
1767
330
175B
100
AcDbEntity
  8
0
 62
     0
100
AcDbLine
 10
0.7759610498691797
 20
4.150704346142462
 30
0.0
 11
0.7759610498691797
 21
4.150704346142462
 31
0.0
  0
LINE
  5
1768
330
175B
100
AcDbEntity
  8
0
 62
     0
100
AcDbLine
 10
0.9108311177186896
 20
4.254193789073944
 30
0.0
 11
0.9108311177186896
 21
4.254193789073944
 31
0.0
  0
LINE
  5
1769
330
175B
100
AcDbEntity
  8
0
 62
     0
100
AcDbLine
 10
1.039751035516015
 20
4.353117521287861
 30
0.0
 11
1.039751035516015
 21
4.353117521287861
 31
0.0
  0
LINE
  5
176A
330
175B
100
AcDbEntity
  8
0
 62
     0
100
AcDbLine
 10
0.5201520885366256
 20
4.151931253620535
 30
0.0
 11
0.5201520885366256
 21
4.151931253620535
 31
0.0
  0
LINE
  5
176B
330
175B
100
AcDbEntity
  8
0
 62
     0
100
AcDbLine
 10
0.6490720063339513
 20
4.250854985834452
 30
0.0
 11
0.6490720063339513
 21
4.250854985834452
 31
0.0
  0
LINE
  5
176C
330
175B
100
AcDbEntity
  8
0
 62
     0
100
AcDbLine
 10
0.7696617140582191
 20
4.343386723043778
 30
0.0
 11
0.7696617140582191
 21
4.343386723043778
 31
0.0
  0
LINE
  5
176D
330
175B
100
AcDbEntity
  8
0
 62
     0
100
AcDbLine
 10
0.904531781907729
 20
4.44687616597526
 30
0.0
 11
0.904531781907729
 21
4.44687616597526
 31
0.0
  0
LINE
  5
176E
330
175B
100
AcDbEntity
  8
0
 62
     0
100
AcDbLine
 10
1.033451699705054
 20
4.545799898189177
 30
0.0
 11
1.033451699705054
 21
4.545799898189177
 31
0.0
  0
LINE
  5
176F
330
175B
100
AcDbEntity
  8
0
 62
     0
100
AcDbLine
 10
0.5138527527256646
 20
4.344613630521851
 30
0.0
 11
0.5138527527256646
 21
4.344613630521851
 31
0.0
  0
LINE
  5
1770
330
175B
100
AcDbEntity
  8
0
 62
     0
100
AcDbLine
 10
0.6427726705229903
 20
4.443537362735768
 30
0.0
 11
0.6427726705229903
 21
4.443537362735768
 31
0.0
  0
LINE
  5
1771
330
175B
100
AcDbEntity
  8
0
 62
     0
100
AcDbLine
 10
0.7633623782472581
 20
4.536069099945094
 30
0.0
 11
0.7633623782472581
 21
4.536069099945094
 31
0.0
  0
LINE
  5
1772
330
175B
100
AcDbEntity
  8
0
 62
     0
100
AcDbLine
 10
0.898232446096768
 20
4.639558542876576
 30
0.0
 11
0.898232446096768
 21
4.639558542876576
 31
0.0
  0
LINE
  5
1773
330
175B
100
AcDbEntity
  8
0
 62
     0
100
AcDbLine
 10
0.5075534169147042
 20
4.537296007423166
 30
0.0
 11
0.5075534169147042
 21
4.537296007423166
 31
0.0
  0
LINE
  5
1774
330
175B
100
AcDbEntity
  8
0
 62
     0
100
AcDbLine
 10
0.6364733347120298
 20
4.636219739637083
 30
0.0
 11
0.6364733347120298
 21
4.636219739637083
 31
0.0
  0
LINE
  5
1775
330
175B
100
AcDbEntity
  8
0
 62
     0
100
AcDbLine
 10
0.7570630424362977
 20
4.728751476846409
 30
0.0
 11
0.7570630424362977
 21
4.728751476846409
 31
0.0
  0
LINE
  5
1776
330
175B
100
AcDbEntity
  8
0
 62
     0
100
AcDbLine
 10
0.5012540811037434
 20
4.729978384324482
 30
0.0
 11
0.5012540811037434
 21
4.729978384324482
 31
0.0
  0
LINE
  5
1777
330
175B
100
AcDbEntity
  8
0
 62
     0
100
AcDbLine
 10
1.698488511893778
 20
4.266036483079447
 30
0.0
 11
1.698488511893778
 21
4.266036483079447
 31
0.0
  0
LINE
  5
1778
330
175B
100
AcDbEntity
  8
0
 62
     0
100
AcDbLine
 10
1.827408429691104
 20
4.364960215293364
 30
0.0
 11
1.827408429691104
 21
4.364960215293364
 31
0.0
  0
LINE
  5
1779
330
175B
100
AcDbEntity
  8
0
 62
     0
100
AcDbLine
 10
1.947998137415372
 20
4.45749195250269
 30
0.0
 11
1.947998137415372
 21
4.45749195250269
 31
0.0
  0
LINE
  5
177A
330
175B
100
AcDbEntity
  8
0
 62
     0
100
AcDbLine
 10
2.082868205264881
 20
4.560981395434172
 30
0.0
 11
2.082868205264881
 21
4.560981395434172
 31
0.0
  0
LINE
  5
177B
330
175B
100
AcDbEntity
  8
0
 62
     0
100
AcDbLine
 10
2.211788123062207
 20
4.659905127648089
 30
0.0
 11
2.211788123062207
 21
4.659905127648089
 31
0.0
  0
LINE
  5
177C
330
175B
100
AcDbEntity
  8
0
 62
     0
100
AcDbLine
 10
1.70478784770474
 20
4.073354106178131
 30
0.0
 11
1.70478784770474
 21
4.073354106178131
 31
0.0
  0
LINE
  5
177D
330
175B
100
AcDbEntity
  8
0
 62
     0
100
AcDbLine
 10
1.833707765502065
 20
4.172277838392048
 30
0.0
 11
1.833707765502065
 21
4.172277838392048
 31
0.0
  0
LINE
  5
177E
330
175B
100
AcDbEntity
  8
0
 62
     0
100
AcDbLine
 10
1.954297473226333
 20
4.264809575601374
 30
0.0
 11
1.954297473226333
 21
4.264809575601374
 31
0.0
  0
LINE
  5
177F
330
175B
100
AcDbEntity
  8
0
 62
     0
100
AcDbLine
 10
2.089167541075843
 20
4.368299018532856
 30
0.0
 11
2.089167541075843
 21
4.368299018532856
 31
0.0
  0
LINE
  5
1780
330
175B
100
AcDbEntity
  8
0
 62
     0
100
AcDbLine
 10
2.218087458873169
 20
4.467222750746773
 30
0.0
 11
2.218087458873169
 21
4.467222750746773
 31
0.0
  0
LINE
  5
1781
330
175B
100
AcDbEntity
  8
0
 62
     0
100
AcDbLine
 10
1.840007101313026
 20
3.979595461490732
 30
0.0
 11
1.840007101313026
 21
3.979595461490732
 31
0.0
  0
LINE
  5
1782
330
175B
100
AcDbEntity
  8
0
 62
     0
100
AcDbLine
 10
1.960596809037293
 20
4.072127198700058
 30
0.0
 11
1.960596809037293
 21
4.072127198700058
 31
0.0
  0
LINE
  5
1783
330
175B
100
AcDbEntity
  8
0
 62
     0
100
AcDbLine
 10
2.095466876886803
 20
4.17561664163154
 30
0.0
 11
2.095466876886803
 21
4.17561664163154
 31
0.0
  0
LINE
  5
1784
330
175B
100
AcDbEntity
  8
0
 62
     0
100
AcDbLine
 10
2.224386794684129
 20
4.274540373845457
 30
0.0
 11
2.224386794684129
 21
4.274540373845457
 31
0.0
  0
LINE
  5
1785
330
175B
100
AcDbEntity
  8
0
 62
     0
100
AcDbLine
 10
2.101766212697765
 20
3.982934264730224
 30
0.0
 11
2.101766212697765
 21
3.982934264730224
 31
0.0
  0
LINE
  5
1786
330
175B
100
AcDbEntity
  8
0
 62
     0
100
AcDbLine
 10
2.230686130495091
 20
4.081857996944141
 30
0.0
 11
2.230686130495091
 21
4.081857996944141
 31
0.0
  0
LINE
  5
1787
330
175B
100
AcDbEntity
  8
0
 62
     0
100
AcDbLine
 10
0.4090472096614583
 20
4.196492953677888
 30
0.0
 11
0.4090472096614583
 21
4.196492953677888
 31
0.0
  0
LINE
  5
1788
330
175B
100
AcDbEntity
  8
0
 62
     0
100
AcDbLine
 10
0.4903456882941108
 20
4.207196101439932
 30
0.0
 11
0.4903456882941108
 21
4.207196101439932
 31
0.0
  0
LINE
  5
1789
330
175B
100
AcDbEntity
  8
0
 62
     0
100
AcDbLine
 10
0.6261736343023228
 20
4.225078189774079
 30
0.0
 11
0.6261736343023228
 21
4.225078189774079
 31
0.0
  0
LINE
  5
178A
330
175B
100
AcDbEntity
  8
0
 62
     0
100
AcDbLine
 10
0.6782244895244478
 20
4.231930814865632
 30
0.0
 11
0.6782244895244478
 21
4.231930814865632
 31
0.0
  0
LINE
  5
178B
330
175B
100
AcDbEntity
  8
0
 62
     0
100
AcDbLine
 10
0.7595229681571003
 20
4.242633962627676
 30
0.0
 11
0.7595229681571003
 21
4.242633962627676
 31
0.0
  0
LINE
  5
178C
330
175B
100
AcDbEntity
  8
0
 62
     0
100
AcDbLine
 10
0.8953509141653123
 20
4.260516050961824
 30
0.0
 11
0.8953509141653123
 21
4.260516050961824
 31
0.0
  0
LINE
  5
178D
330
175B
100
AcDbEntity
  8
0
 62
     0
100
AcDbLine
 10
0.9474017693874372
 20
4.267368676053377
 30
0.0
 11
0.9474017693874372
 21
4.267368676053377
 31
0.0
  0
LINE
  5
178E
330
175B
100
AcDbEntity
  8
0
 62
     0
100
AcDbLine
 10
1.028700248020089
 20
4.27807182381542
 30
0.0
 11
1.028700248020089
 21
4.27807182381542
 31
0.0
  0
LINE
  5
178F
330
175B
100
AcDbEntity
  8
0
 62
     0
100
AcDbLine
 10
1.70288275375428
 20
4.366829634525055
 30
0.0
 11
1.70288275375428
 21
4.366829634525055
 31
0.0
  0
LINE
  5
1790
330
175B
100
AcDbEntity
  8
0
 62
     0
100
AcDbLine
 10
1.754933608976406
 20
4.373682259616608
 30
0.0
 11
1.754933608976406
 21
4.373682259616608
 31
0.0
  0
LINE
  5
1791
330
175B
100
AcDbEntity
  8
0
 62
     0
100
AcDbLine
 10
1.836232087609058
 20
4.384385407378652
 30
0.0
 11
1.836232087609058
 21
4.384385407378652
 31
0.0
  0
LINE
  5
1792
330
175B
100
AcDbEntity
  8
0
 62
     0
100
AcDbLine
 10
1.97206003361727
 20
4.402267495712799
 30
0.0
 11
1.97206003361727
 21
4.402267495712799
 31
0.0
  0
LINE
  5
1793
330
175B
100
AcDbEntity
  8
0
 62
     0
100
AcDbLine
 10
2.024110888839395
 20
4.409120120804352
 30
0.0
 11
2.024110888839395
 21
4.409120120804352
 31
0.0
  0
LINE
  5
1794
330
175B
100
AcDbEntity
  8
0
 62
     0
100
AcDbLine
 10
2.105409367472048
 20
4.419823268566396
 30
0.0
 11
2.105409367472048
 21
4.419823268566396
 31
0.0
  0
LINE
  5
1795
330
175B
100
AcDbEntity
  8
0
 62
     0
100
AcDbLine
 10
2.24123731348026
 20
4.437705356900544
 30
0.0
 11
2.24123731348026
 21
4.437705356900544
 31
0.0
  0
LINE
  5
1796
330
175B
100
AcDbEntity
  8
0
 62
     0
100
AcDbLine
 10
2.293288168702385
 20
4.444557981992097
 30
0.0
 11
2.293288168702385
 21
4.444557981992097
 31
0.0
  0
LINE
  5
1797
330
175B
100
AcDbEntity
  8
0
 62
     0
100
AcDbLine
 10
0.5339740249661059
 20
4.47185493510931
 30
0.0
 11
0.5339740249661059
 21
4.47185493510931
 31
0.0
  0
LINE
  5
1798
330
175B
100
AcDbEntity
  8
0
 62
     0
100
AcDbLine
 10
0.586024880188231
 20
4.478707560200863
 30
0.0
 11
0.586024880188231
 21
4.478707560200863
 31
0.0
  0
LINE
  5
1799
330
175B
100
AcDbEntity
  8
0
 62
     0
100
AcDbLine
 10
0.6673233588208835
 20
4.489410707962907
 30
0.0
 11
0.6673233588208835
 21
4.489410707962907
 31
0.0
  0
LINE
  5
179A
330
175B
100
AcDbEntity
  8
0
 62
     0
100
AcDbLine
 10
0.8031513048290953
 20
4.507292796297054
 30
0.0
 11
0.8031513048290953
 21
4.507292796297054
 31
0.0
  0
LINE
  5
179B
330
175B
100
AcDbEntity
  8
0
 62
     0
100
AcDbLine
 10
0.8552021600512205
 20
4.514145421388607
 30
0.0
 11
0.8552021600512205
 21
4.514145421388607
 31
0.0
  0
LINE
  5
179C
330
175B
100
AcDbEntity
  8
0
 62
     0
100
AcDbLine
 10
0.9365006386838729
 20
4.524848569150651
 30
0.0
 11
0.9365006386838729
 21
4.524848569150651
 31
0.0
  0
LINE
  5
179D
330
175B
100
AcDbEntity
  8
0
 62
     0
100
AcDbLine
 10
1.072328584692085
 20
4.542730657484798
 30
0.0
 11
1.072328584692085
 21
4.542730657484798
 31
0.0
  0
LINE
  5
179E
330
175B
100
AcDbEntity
  8
0
 62
     0
100
AcDbLine
 10
1.12437943991421
 20
4.549583282576351
 30
0.0
 11
1.12437943991421
 21
4.549583282576351
 31
0.0
  0
LINE
  5
179F
330
175B
100
AcDbEntity
  8
0
 62
     0
100
AcDbLine
 10
1.879860424281053
 20
4.64904424104803
 30
0.0
 11
1.879860424281053
 21
4.64904424104803
 31
0.0
  0
LINE
  5
17A0
330
175B
100
AcDbEntity
  8
0
 62
     0
100
AcDbLine
 10
1.931911279503178
 20
4.655896866139583
 30
0.0
 11
1.931911279503178
 21
4.655896866139583
 31
0.0
  0
LINE
  5
17A1
330
175B
100
AcDbEntity
  8
0
 62
     0
100
AcDbLine
 10
2.013209758135831
 20
4.666600013901627
 30
0.0
 11
2.013209758135831
 21
4.666600013901627
 31
0.0
  0
LINE
  5
17A2
330
175B
100
AcDbEntity
  8
0
 62
     0
100
AcDbLine
 10
2.149037704144043
 20
4.684482102235774
 30
0.0
 11
2.149037704144043
 21
4.684482102235774
 31
0.0
  0
LINE
  5
17A3
330
175B
100
AcDbEntity
  8
0
 62
     0
100
AcDbLine
 10
2.201088559366168
 20
4.691334727327327
 30
0.0
 11
2.201088559366168
 21
4.691334727327327
 31
0.0
  0
LINE
  5
17A4
330
175B
100
AcDbEntity
  8
0
 62
     0
100
AcDbLine
 10
0.4938252708520141
 20
4.725484305536092
 30
0.0
 11
0.4938252708520141
 21
4.725484305536092
 31
0.0
  0
LINE
  5
17A5
330
175B
100
AcDbEntity
  8
0
 62
     0
100
AcDbLine
 10
0.5751237494846665
 20
4.736187453298136
 30
0.0
 11
0.5751237494846665
 21
4.736187453298136
 31
0.0
  0
LINE
  5
17A6
330
175B
100
AcDbEntity
  8
0
 62
     0
100
AcDbLine
 10
0.7109516954928785
 20
4.754069541632283
 30
0.0
 11
0.7109516954928785
 21
4.754069541632283
 31
0.0
  0
LINE
  5
17A7
330
175B
100
AcDbEntity
  8
0
 62
     0
100
AcDbLine
 10
0.7630025507150036
 20
4.760922166723836
 30
0.0
 11
0.7630025507150036
 21
4.760922166723836
 31
0.0
  0
LINE
  5
17A8
330
175B
100
AcDbEntity
  8
0
 62
     0
100
AcDbLine
 10
0.8443010293476561
 20
4.77162531448588
 30
0.0
 11
0.8443010293476561
 21
4.77162531448588
 31
0.0
  0
LINE
  5
17A9
330
175B
100
AcDbEntity
  8
0
 62
     0
100
AcDbLine
 10
0.4491959637755503
 20
3.942863583251105
 30
0.0
 11
0.4491959637755503
 21
3.942863583251105
 31
0.0
  0
LINE
  5
17AA
330
175B
100
AcDbEntity
  8
0
 62
     0
100
AcDbLine
 10
0.5012468189976753
 20
3.949716208342658
 30
0.0
 11
0.5012468189976753
 21
3.949716208342658
 31
0.0
  0
LINE
  5
17AB
330
175B
100
AcDbEntity
  8
0
 62
     0
100
AcDbLine
 10
0.5825452976303279
 20
3.960419356104702
 30
0.0
 11
0.5825452976303279
 21
3.960419356104702
 31
0.0
  0
LINE
  5
17AC
330
175B
100
AcDbEntity
  8
0
 62
     0
100
AcDbLine
 10
0.7183732436385398
 20
3.978301444438849
 30
0.0
 11
0.7183732436385398
 21
3.978301444438849
 31
0.0
  0
LINE
  5
17AD
330
175B
100
AcDbEntity
  8
0
 62
     0
100
AcDbLine
 10
0.7704240988606649
 20
3.985154069530402
 30
0.0
 11
0.7704240988606649
 21
3.985154069530402
 31
0.0
  0
LINE
  5
17AE
330
175B
100
AcDbEntity
  8
0
 62
     0
100
AcDbLine
 10
0.8517225774933173
 20
3.995857217292446
 30
0.0
 11
0.8517225774933173
 21
3.995857217292446
 31
0.0
  0
LINE
  5
17AF
330
175B
100
AcDbEntity
  8
0
 62
     0
100
AcDbLine
 10
0.9875505235015292
 20
4.013739305626593
 30
0.0
 11
0.9875505235015292
 21
4.013739305626593
 31
0.0
  0
LINE
  5
17B0
330
175B
100
AcDbEntity
  8
0
 62
     0
100
AcDbLine
 10
1.039601378723654
 20
4.020591930718146
 30
0.0
 11
1.039601378723654
 21
4.020591930718146
 31
0.0
  0
LINE
  5
17B1
330
175B
100
AcDbEntity
  8
0
 62
     0
100
AcDbLine
 10
1.120899857356306
 20
4.03129507848019
 30
0.0
 11
1.120899857356306
 21
4.03129507848019
 31
0.0
  0
LINE
  5
17B2
330
175B
100
AcDbEntity
  8
0
 62
     0
100
AcDbLine
 10
1.659254417082285
 20
4.102170800855678
 30
0.0
 11
1.659254417082285
 21
4.102170800855678
 31
0.0
  0
LINE
  5
17B3
330
175B
100
AcDbEntity
  8
0
 62
     0
100
AcDbLine
 10
1.795082363090497
 20
4.120052889189826
 30
0.0
 11
1.795082363090497
 21
4.120052889189826
 31
0.0
  0
LINE
  5
17B4
330
175B
100
AcDbEntity
  8
0
 62
     0
100
AcDbLine
 10
1.847133218312623
 20
4.126905514281379
 30
0.0
 11
1.847133218312623
 21
4.126905514281379
 31
0.0
  0
LINE
  5
17B5
330
175B
100
AcDbEntity
  8
0
 62
     0
100
AcDbLine
 10
1.928431696945275
 20
4.137608662043422
 30
0.0
 11
1.928431696945275
 21
4.137608662043422
 31
0.0
  0
LINE
  5
17B6
330
175B
100
AcDbEntity
  8
0
 62
     0
100
AcDbLine
 10
2.064259642953487
 20
4.15549075037757
 30
0.0
 11
2.064259642953487
 21
4.15549075037757
 31
0.0
  0
LINE
  5
17B7
330
175B
100
AcDbEntity
  8
0
 62
     0
100
AcDbLine
 10
2.116310498175612
 20
4.162343375469123
 30
0.0
 11
2.116310498175612
 21
4.162343375469123
 31
0.0
  0
LINE
  5
17B8
330
175B
100
AcDbEntity
  8
0
 62
     0
100
AcDbLine
 10
2.197608976808265
 20
4.173046523231167
 30
0.0
 11
2.197608976808265
 21
4.173046523231167
 31
0.0
  0
LINE
  5
17B9
330
175B
100
AcDbEntity
  8
0
 62
     0
100
AcDbLine
 10
2.156459252289704
 20
3.908714005042339
 30
0.0
 11
2.156459252289704
 21
3.908714005042339
 31
0.0
  0
LINE
  5
17BA
330
175B
100
AcDbEntity
  8
0
 62
     0
100
AcDbLine
 10
2.208510107511829
 20
3.915566630133891
 30
0.0
 11
2.208510107511829
 21
3.915566630133891
 31
0.0
  0
LINE
  5
17BB
330
175B
100
AcDbEntity
  8
0
 62
     0
100
AcDbLine
 10
0.5224054167970413
 20
4.761755578940298
 30
0.0
 11
0.5224054167970413
 21
4.761755578940298
 31
0.0
  0
LINE
  5
17BC
330
175B
100
AcDbEntity
  8
0
 62
     0
100
AcDbLine
 10
0.5645749890876856
 20
4.734890598522957
 30
0.0
 11
0.5645749890876856
 21
4.734890598522957
 31
0.0
  0
LINE
  5
17BD
330
175B
100
AcDbEntity
  8
0
 62
     0
100
AcDbLine
 10
0.716385449334005
 20
4.638176669020529
 30
0.0
 11
0.716385449334005
 21
4.638176669020529
 31
0.0
  0
LINE
  5
17BE
330
175B
100
AcDbEntity
  8
0
 62
     0
100
AcDbLine
 10
0.9145824391000331
 20
4.511911261059025
 30
0.0
 11
0.9145824391000331
 21
4.511911261059025
 31
0.0
  0
LINE
  5
17BF
330
175B
100
AcDbEntity
  8
0
 62
     0
100
AcDbLine
 10
0.9567520113906773
 20
4.485046280641684
 30
0.0
 11
0.9567520113906773
 21
4.485046280641684
 31
0.0
  0
LINE
  5
17C0
330
175B
100
AcDbEntity
  8
0
 62
     0
100
AcDbLine
 10
1.108562471636996
 20
4.388332351139256
 30
0.0
 11
1.108562471636996
 21
4.388332351139256
 31
0.0
  0
LINE
  5
17C1
330
175B
100
AcDbEntity
  8
0
 62
     0
100
AcDbLine
 10
1.698936483706016
 20
4.012222625296478
 30
0.0
 11
1.698936483706016
 21
4.012222625296478
 31
0.0
  0
LINE
  5
17C2
330
175B
100
AcDbEntity
  8
0
 62
     0
100
AcDbLine
 10
1.74110605599666
 20
3.985357644879136
 30
0.0
 11
1.74110605599666
 21
3.985357644879136
 31
0.0
  0
LINE
  5
17C3
330
175B
100
AcDbEntity
  8
0
 62
     0
100
AcDbLine
 10
0.8338196029721908
 20
4.762321484293995
 30
0.0
 11
0.8338196029721908
 21
4.762321484293995
 31
0.0
  0
LINE
  5
17C4
330
175B
100
AcDbEntity
  8
0
 62
     0
100
AcDbLine
 10
0.8759891752628352
 20
4.735456503876654
 30
0.0
 11
0.8759891752628352
 21
4.735456503876654
 31
0.0
  0
LINE
  5
17C5
330
175B
100
AcDbEntity
  8
0
 62
     0
100
AcDbLine
 10
1.660343219868819
 20
4.235767868114106
 30
0.0
 11
1.660343219868819
 21
4.235767868114106
 31
0.0
  0
LINE
  5
17C6
330
175B
100
AcDbEntity
  8
0
 62
     0
100
AcDbLine
 10
1.812153680115138
 20
4.139053938611678
 30
0.0
 11
1.812153680115138
 21
4.139053938611678
 31
0.0
  0
LINE
  5
17C7
330
175B
100
AcDbEntity
  8
0
 62
     0
100
AcDbLine
 10
2.010350669881166
 20
4.012788530650174
 30
0.0
 11
2.010350669881166
 21
4.012788530650174
 31
0.0
  0
LINE
  5
17C8
330
175B
100
AcDbEntity
  8
0
 62
     0
100
AcDbLine
 10
2.05252024217181
 20
3.985923550232833
 30
0.0
 11
2.05252024217181
 21
3.985923550232833
 31
0.0
  0
LINE
  5
17C9
330
175B
100
AcDbEntity
  8
0
 62
     0
100
AcDbLine
 10
1.731390843987296
 20
4.389464161846648
 30
0.0
 11
1.731390843987296
 21
4.389464161846648
 31
0.0
  0
LINE
  5
17CA
330
175B
100
AcDbEntity
  8
0
 62
     0
100
AcDbLine
 10
1.929587833753324
 20
4.263198753885144
 30
0.0
 11
1.929587833753324
 21
4.263198753885144
 31
0.0
  0
LINE
  5
17CB
330
175B
100
AcDbEntity
  8
0
 62
     0
100
AcDbLine
 10
1.971757406043968
 20
4.236333773467803
 30
0.0
 11
1.971757406043968
 21
4.236333773467803
 31
0.0
  0
LINE
  5
17CC
330
175B
100
AcDbEntity
  8
0
 62
     0
100
AcDbLine
 10
2.123567866290287
 20
4.139619843965375
 30
0.0
 11
2.123567866290287
 21
4.139619843965375
 31
0.0
  0
LINE
  5
17CD
330
175B
100
AcDbEntity
  8
0
 62
     0
100
AcDbLine
 10
1.84882499762548
 20
4.513608977120114
 30
0.0
 11
1.84882499762548
 21
4.513608977120114
 31
0.0
  0
LINE
  5
17CE
330
175B
100
AcDbEntity
  8
0
 62
     0
100
AcDbLine
 10
1.890994569916125
 20
4.486743996702773
 30
0.0
 11
1.890994569916125
 21
4.486743996702773
 31
0.0
  0
LINE
  5
17CF
330
175B
100
AcDbEntity
  8
0
 62
     0
100
AcDbLine
 10
2.042805030162444
 20
4.390030067200345
 30
0.0
 11
2.042805030162444
 21
4.390030067200345
 31
0.0
  0
LINE
  5
17D0
330
175B
100
AcDbEntity
  8
0
 62
     0
100
AcDbLine
 10
2.241002019928472
 20
4.263764659238841
 30
0.0
 11
2.241002019928472
 21
4.263764659238841
 31
0.0
  0
LINE
  5
17D1
330
175B
100
AcDbEntity
  8
0
 62
     0
100
AcDbLine
 10
2.283171592219116
 20
4.2368996788215
 30
0.0
 11
2.283171592219116
 21
4.2368996788215
 31
0.0
  0
LINE
  5
17D2
330
175B
100
AcDbEntity
  8
0
 62
     0
100
AcDbLine
 10
1.962042194034602
 20
4.640440290435314
 30
0.0
 11
1.962042194034602
 21
4.640440290435314
 31
0.0
  0
LINE
  5
17D3
330
175B
100
AcDbEntity
  8
0
 62
     0
100
AcDbLine
 10
2.16023918380063
 20
4.514174882473811
 30
0.0
 11
2.16023918380063
 21
4.514174882473811
 31
0.0
  0
LINE
  5
17D4
330
175B
100
AcDbEntity
  8
0
 62
     0
100
AcDbLine
 10
2.202408756091274
 20
4.48730990205647
 30
0.0
 11
2.202408756091274
 21
4.48730990205647
 31
0.0
  0
LINE
  5
17D5
330
175B
100
AcDbEntity
  8
0
 62
     0
100
AcDbLine
 10
2.079476347672788
 20
4.764585105708779
 30
0.0
 11
2.079476347672788
 21
4.764585105708779
 31
0.0
  0
LINE
  5
17D6
330
175B
100
AcDbEntity
  8
0
 62
     0
100
AcDbLine
 10
2.121645919963432
 20
4.737720125291438
 30
0.0
 11
2.121645919963432
 21
4.737720125291438
 31
0.0
  0
LINE
  5
17D7
330
175B
100
AcDbEntity
  8
0
 62
     0
100
AcDbLine
 10
2.273456380209752
 20
4.64100619578901
 30
0.0
 11
2.273456380209752
 21
4.64100619578901
 31
0.0
  0
LINE
  5
17D8
330
175B
100
AcDbEntity
  8
0
 62
     0
100
AcDbLine
 10
0.6031682529248839
 20
4.511345355705328
 30
0.0
 11
0.6031682529248839
 21
4.511345355705328
 31
0.0
  0
LINE
  5
17D9
330
175B
100
AcDbEntity
  8
0
 62
     0
100
AcDbLine
 10
0.6453378252155283
 20
4.484480375287987
 30
0.0
 11
0.6453378252155283
 21
4.484480375287987
 31
0.0
  0
LINE
  5
17DA
330
175B
100
AcDbEntity
  8
0
 62
     0
100
AcDbLine
 10
0.7971482854618476
 20
4.387766445785559
 30
0.0
 11
0.7971482854618476
 21
4.387766445785559
 31
0.0
  0
LINE
  5
17DB
330
175B
100
AcDbEntity
  8
0
 62
     0
100
AcDbLine
 10
0.9953452752278757
 20
4.261501037824055
 30
0.0
 11
0.9953452752278757
 21
4.261501037824055
 31
0.0
  0
LINE
  5
17DC
330
175B
100
AcDbEntity
  8
0
 62
     0
100
AcDbLine
 10
1.03751484751852
 20
4.234636057406715
 30
0.0
 11
1.03751484751852
 21
4.234636057406715
 31
0.0
  0
LINE
  5
17DD
330
175B
100
AcDbEntity
  8
0
 62
     0
100
AcDbLine
 10
0.485734099286697
 20
4.387200540431862
 30
0.0
 11
0.485734099286697
 21
4.387200540431862
 31
0.0
  0
LINE
  5
17DE
330
175B
100
AcDbEntity
  8
0
 62
     0
100
AcDbLine
 10
0.6839310890527252
 20
4.260935132470359
 30
0.0
 11
0.6839310890527252
 21
4.260935132470359
 31
0.0
  0
LINE
  5
17DF
330
175B
100
AcDbEntity
  8
0
 62
     0
100
AcDbLine
 10
0.7261006613433695
 20
4.234070152053018
 30
0.0
 11
0.7261006613433695
 21
4.234070152053018
 31
0.0
  0
LINE
  5
17E0
330
175B
100
AcDbEntity
  8
0
 62
     0
100
AcDbLine
 10
0.8779111215896888
 20
4.137356222550589
 30
0.0
 11
0.8779111215896888
 21
4.137356222550589
 31
0.0
  0
LINE
  5
17E1
330
175B
100
AcDbEntity
  8
0
 62
     0
100
AcDbLine
 10
1.076108111355716
 20
4.011090814589086
 30
0.0
 11
1.076108111355716
 21
4.011090814589086
 31
0.0
  0
LINE
  5
17E2
330
175B
100
AcDbEntity
  8
0
 62
     0
100
AcDbLine
 10
1.118277683646361
 20
3.984225834171744
 30
0.0
 11
1.118277683646361
 21
3.984225834171744
 31
0.0
  0
LINE
  5
17E3
330
175B
100
AcDbEntity
  8
0
 62
     0
100
AcDbLine
 10
0.4146864751682209
 20
4.23350424669932
 30
0.0
 11
0.4146864751682209
 21
4.23350424669932
 31
0.0
  0
LINE
  5
17E4
330
175B
100
AcDbEntity
  8
0
 62
     0
100
AcDbLine
 10
0.5664969354145403
 20
4.136790317196892
 30
0.0
 11
0.5664969354145403
 21
4.136790317196892
 31
0.0
  0
LINE
  5
17E5
330
175B
100
AcDbEntity
  8
0
 62
     0
100
AcDbLine
 10
0.7646939251805685
 20
4.010524909235388
 30
0.0
 11
0.7646939251805685
 21
4.010524909235388
 31
0.0
  0
LINE
  5
17E6
330
175B
100
AcDbEntity
  8
0
 62
     0
100
AcDbLine
 10
0.8068634974712127
 20
3.983659928818047
 30
0.0
 11
0.8068634974712127
 21
3.983659928818047
 31
0.0
  0
LINE
  5
17E7
330
175B
100
AcDbEntity
  8
0
 62
     0
100
AcDbLine
 10
0.4532797390054192
 20
4.009959003881692
 30
0.0
 11
0.4532797390054192
 21
4.009959003881692
 31
0.0
  0
LINE
  5
17E8
330
175B
100
AcDbEntity
  8
0
 62
     0
100
AcDbLine
 10
0.4954493112960635
 20
3.983094023464351
 30
0.0
 11
0.4954493112960635
 21
3.983094023464351
 31
0.0
  0
LINE
  5
17E9
330
175B
100
AcDbEntity
  8
0
 62
     0
100
AcDbLine
 10
0.6968541134605802
 20
4.697166746310138
 30
0.0
 11
0.6968541134605802
 21
4.697166746310138
 31
0.0
  0
LINE
  5
17EA
330
175B
100
AcDbEntity
  8
0
 62
     0
100
AcDbLine
 10
0.7152860468808333
 20
4.680276991119746
 30
0.0
 11
0.7152860468808333
 21
4.680276991119746
 31
0.0
  0
LINE
  5
17EB
330
175B
100
AcDbEntity
  8
0
 62
     0
100
AcDbLine
 10
0.8022847726244279
 20
4.600557346621098
 30
0.0
 11
0.8022847726244279
 21
4.600557346621098
 31
0.0
  0
LINE
  5
17EC
330
175B
100
AcDbEntity
  8
0
 62
     0
100
AcDbLine
 10
0.9018172130937946
 20
4.509352668592984
 30
0.0
 11
0.9018172130937946
 21
4.509352668592984
 31
0.0
  0
LINE
  5
17ED
330
175B
100
AcDbEntity
  8
0
 62
     0
100
AcDbLine
 10
0.9202491465140475
 20
4.492462913402592
 30
0.0
 11
0.9202491465140475
 21
4.492462913402592
 31
0.0
  0
LINE
  5
17EE
330
175B
100
AcDbEntity
  8
0
 62
     0
100
AcDbLine
 10
1.007247872257642
 20
4.412743268903944
 30
0.0
 11
1.007247872257642
 21
4.412743268903944
 31
0.0
  0
LINE
  5
17EF
330
175B
100
AcDbEntity
  8
0
 62
     0
100
AcDbLine
 10
1.106780312727009
 20
4.32153859087583
 30
0.0
 11
1.106780312727009
 21
4.32153859087583
 31
0.0
  0
LINE
  5
17F0
330
175B
100
AcDbEntity
  8
0
 62
     0
100
AcDbLine
 10
1.125212246147262
 20
4.304648835685438
 30
0.0
 11
1.125212246147262
 21
4.304648835685438
 31
0.0
  0
LINE
  5
17F1
330
175B
100
AcDbEntity
  8
0
 62
     0
100
AcDbLine
 10
1.717786731981299
 20
4.124882669963063
 30
0.0
 11
1.717786731981299
 21
4.124882669963063
 31
0.0
  0
LINE
  5
17F2
330
175B
100
AcDbEntity
  8
0
 62
     0
100
AcDbLine
 10
1.817319172450666
 20
4.033677991934949
 30
0.0
 11
1.817319172450666
 21
4.033677991934949
 31
0.0
  0
LINE
  5
17F3
330
175B
100
AcDbEntity
  8
0
 62
     0
100
AcDbLine
 10
1.835751105870919
 20
4.016788236744557
 30
0.0
 11
1.835751105870919
 21
4.016788236744557
 31
0.0
  0
LINE
  5
17F4
330
175B
100
AcDbEntity
  8
0
 62
     0
100
AcDbLine
 10
1.922749831614514
 20
3.937068592245909
 30
0.0
 11
1.922749831614514
 21
3.937068592245909
 31
0.0
  0
LINE
  5
17F5
330
175B
100
AcDbEntity
  8
0
 62
     0
100
AcDbLine
 10
1.708005633641467
 20
4.497073703862681
 30
0.0
 11
1.708005633641467
 21
4.497073703862681
 31
0.0
  0
LINE
  5
17F6
330
175B
100
AcDbEntity
  8
0
 62
     0
100
AcDbLine
 10
1.72643756706172
 20
4.480183948672289
 30
0.0
 11
1.72643756706172
 21
4.480183948672289
 31
0.0
  0
LINE
  5
17F7
330
175B
100
AcDbEntity
  8
0
 62
     0
100
AcDbLine
 10
1.813436292805315
 20
4.400464304173641
 30
0.0
 11
1.813436292805315
 21
4.400464304173641
 31
0.0
  0
LINE
  5
17F8
330
175B
100
AcDbEntity
  8
0
 62
     0
100
AcDbLine
 10
1.912968733274682
 20
4.309259626145527
 30
0.0
 11
1.912968733274682
 21
4.309259626145527
 31
0.0
  0
LINE
  5
17F9
330
175B
100
AcDbEntity
  8
0
 62
     0
100
AcDbLine
 10
1.931400666694935
 20
4.292369870955135
 30
0.0
 11
1.931400666694935
 21
4.292369870955135
 31
0.0
  0
LINE
  5
17FA
330
175B
100
AcDbEntity
  8
0
 62
     0
100
AcDbLine
 10
2.01839939243853
 20
4.212650226456487
 30
0.0
 11
2.01839939243853
 21
4.212650226456487
 31
0.0
  0
LINE
  5
17FB
330
175B
100
AcDbEntity
  8
0
 62
     0
100
AcDbLine
 10
2.117931832907896
 20
4.121445548428373
 30
0.0
 11
2.117931832907896
 21
4.121445548428373
 31
0.0
  0
LINE
  5
17FC
330
175B
100
AcDbEntity
  8
0
 62
     0
100
AcDbLine
 10
2.13636376632815
 20
4.104555793237981
 30
0.0
 11
2.13636376632815
 21
4.104555793237981
 31
0.0
  0
LINE
  5
17FD
330
175B
100
AcDbEntity
  8
0
 62
     0
100
AcDbLine
 10
2.223362492071744
 20
4.024836148739333
 30
0.0
 11
2.223362492071744
 21
4.024836148739333
 31
0.0
  0
LINE
  5
17FE
330
175B
100
AcDbEntity
  8
0
 62
     0
100
AcDbLine
 10
1.822087127885735
 20
4.755765582882868
 30
0.0
 11
1.822087127885735
 21
4.755765582882868
 31
0.0
  0
LINE
  5
17FF
330
175B
100
AcDbEntity
  8
0
 62
     0
100
AcDbLine
 10
1.90908585362933
 20
4.67604593838422
 30
0.0
 11
1.90908585362933
 21
4.67604593838422
 31
0.0
  0
LINE
  5
1800
330
175B
100
AcDbEntity
  8
0
 62
     0
100
AcDbLine
 10
2.008618294098697
 20
4.584841260356106
 30
0.0
 11
2.008618294098697
 21
4.584841260356106
 31
0.0
  0
LINE
  5
1801
330
175B
100
AcDbEntity
  8
0
 62
     0
100
AcDbLine
 10
2.02705022751895
 20
4.567951505165714
 30
0.0
 11
2.02705022751895
 21
4.567951505165714
 31
0.0
  0
LINE
  5
1802
330
175B
100
AcDbEntity
  8
0
 62
     0
100
AcDbLine
 10
2.114048953262544
 20
4.488231860667066
 30
0.0
 11
2.114048953262544
 21
4.488231860667066
 31
0.0
  0
LINE
  5
1803
330
175B
100
AcDbEntity
  8
0
 62
     0
100
AcDbLine
 10
2.213581393731911
 20
4.397027182638952
 30
0.0
 11
2.213581393731911
 21
4.397027182638952
 31
0.0
  0
LINE
  5
1804
330
175B
100
AcDbEntity
  8
0
 62
     0
100
AcDbLine
 10
2.232013327152164
 20
4.38013742744856
 30
0.0
 11
2.232013327152164
 21
4.38013742744856
 31
0.0
  0
LINE
  5
1805
330
175B
100
AcDbEntity
  8
0
 62
     0
100
AcDbLine
 10
2.209698514086559
 20
4.763813494877644
 30
0.0
 11
2.209698514086559
 21
4.763813494877644
 31
0.0
  0
LINE
  5
1806
330
175B
100
AcDbEntity
  8
0
 62
     0
100
AcDbLine
 10
0.5016721121671976
 20
4.512789790127674
 30
0.0
 11
0.5016721121671976
 21
4.512789790127674
 31
0.0
  0
LINE
  5
1807
330
175B
100
AcDbEntity
  8
0
 62
     0
100
AcDbLine
 10
0.6012045526365644
 20
4.42158511209956
 30
0.0
 11
0.6012045526365644
 21
4.42158511209956
 31
0.0
  0
LINE
  5
1808
330
175B
100
AcDbEntity
  8
0
 62
     0
100
AcDbLine
 10
0.6196364860568174
 20
4.404695356909168
 30
0.0
 11
0.6196364860568174
 21
4.404695356909168
 31
0.0
  0
LINE
  5
1809
330
175B
100
AcDbEntity
  8
0
 62
     0
100
AcDbLine
 10
0.7066352118004122
 20
4.32497571241052
 30
0.0
 11
0.7066352118004122
 21
4.32497571241052
 31
0.0
  0
LINE
  5
180A
330
175B
100
AcDbEntity
  8
0
 62
     0
100
AcDbLine
 10
0.8061676522697787
 20
4.233771034382406
 30
0.0
 11
0.8061676522697787
 21
4.233771034382406
 31
0.0
  0
LINE
  5
180B
330
175B
100
AcDbEntity
  8
0
 62
     0
100
AcDbLine
 10
0.8245995856900318
 20
4.216881279192014
 30
0.0
 11
0.8245995856900318
 21
4.216881279192014
 31
0.0
  0
LINE
  5
180C
330
175B
100
AcDbEntity
  8
0
 62
     0
100
AcDbLine
 10
0.9115983114336266
 20
4.137161634693366
 30
0.0
 11
0.9115983114336266
 21
4.137161634693366
 31
0.0
  0
LINE
  5
180D
330
175B
100
AcDbEntity
  8
0
 62
     0
100
AcDbLine
 10
1.011130751902993
 20
4.045956956665252
 30
0.0
 11
1.011130751902993
 21
4.045956956665252
 31
0.0
  0
LINE
  5
180E
330
175B
100
AcDbEntity
  8
0
 62
     0
100
AcDbLine
 10
1.029562685323246
 20
4.02906720147486
 30
0.0
 11
1.029562685323246
 21
4.02906720147486
 31
0.0
  0
LINE
  5
180F
330
175B
100
AcDbEntity
  8
0
 62
     0
100
AcDbLine
 10
1.116561411066841
 20
3.949347556976212
 30
0.0
 11
1.116561411066841
 21
3.949347556976212
 31
0.0
  0
LINE
  5
1810
330
175B
100
AcDbEntity
  8
0
 62
     0
100
AcDbLine
 10
0.4060225513431834
 20
4.237208155917095
 30
0.0
 11
0.4060225513431834
 21
4.237208155917095
 31
0.0
  0
LINE
  5
1811
330
175B
100
AcDbEntity
  8
0
 62
     0
100
AcDbLine
 10
0.5055549918125502
 20
4.146003477888982
 30
0.0
 11
0.5055549918125502
 21
4.146003477888982
 31
0.0
  0
LINE
  5
1812
330
175B
100
AcDbEntity
  8
0
 62
     0
100
AcDbLine
 10
0.5239869252328032
 20
4.12911372269859
 30
0.0
 11
0.5239869252328032
 21
4.12911372269859
 31
0.0
  0
LINE
  5
1813
330
175B
100
AcDbEntity
  8
0
 62
     0
100
AcDbLine
 10
0.610985650976398
 20
4.049394078199942
 30
0.0
 11
0.610985650976398
 21
4.049394078199942
 31
0.0
  0
LINE
  5
1814
330
175B
100
AcDbEntity
  8
0
 62
     0
100
AcDbLine
 10
0.7105180914457647
 20
3.958189400171828
 30
0.0
 11
0.7105180914457647
 21
3.958189400171828
 31
0.0
  0
LINE
  5
1815
330
175B
100
AcDbEntity
  8
0
 62
     0
100
AcDbLine
 10
0.7289500248660178
 20
3.941299644981436
 30
0.0
 11
0.7289500248660178
 21
3.941299644981436
 31
0.0
  0
ENDBLK
  5
1816
330
175B
100
AcDbEntity
  8
0
100
AcDbBlockEnd
  0
ENDSEC
  0
SECTION
  2
ENTITIES
  0
TEXT
  5
EAB
330
10C1
100
AcDbEntity
  8
text_bubbles
100
AcDbText
 10
5.355037939884219
 20
5.132577534387436
 30
0.0
 40
0.125
  1
3
  7
ROMANS
 72
     4
 11
5.414561749408028
 21
5.195077534387436
 31
0.0
100
AcDbText
  0
CIRCLE
  5
EAC
330
10C1
100
AcDbEntity
  8
text_bubbles
100
AcDbCircle
 10
5.414561749408028
 20
5.195077534387436
 30
0.0
 40
0.15625
  0
TEXT
  5
EC2
330
10C1
100
AcDbEntity
  8
text_bubbles
100
AcDbText
 10
5.352061749408028
 20
3.835287370173707
 30
0.0
 40
0.125
  1
6
  7
ROMANS
 72
     4
 11
5.414561749408028
 21
3.897787370173707
 31
0.0
100
AcDbText
  0
CIRCLE
  5
EC3
330
10C1
100
AcDbEntity
  8
text_bubbles
100
AcDbCircle
 10
5.414561749408028
 20
3.897787370173707
 30
0.0
 40
0.15625
  0
CIRCLE
  5
ECE
330
10C1
100
AcDbEntity
  8
text_bubbles
100
AcDbCircle
 10
5.414561749408028
 20
4.786053216203849
 30
0.0
 40
0.15625
  0
CIRCLE
  5
ECF
330
10C1
100
AcDbEntity
  8
text_bubbles
100
AcDbCircle
 10
5.414561749408028
 20
4.334173200637685
 30
0.0
 40
0.15625
  0
TEXT
  5
ED6
330
10C1
100
AcDbEntity
  8
text_bubbles
100
AcDbText
 10
5.355037939884219
 20
4.271673200637685
 30
0.0
 40
0.125
  1
5
  7
ROMANS
 72
     4
 11
5.414561749408028
 21
4.334173200637685
 31
0.0
100
AcDbText
  0
TEXT
  5
ED7
330
10C1
100
AcDbEntity
  8
text_bubbles
100
AcDbText
 10
5.352061749408028
 20
4.723553216203849
 30
0.0
 40
0.125
  1
4
  7
ROMANS
 72
     4
 11
5.414561749408028
 21
4.786053216203849
 31
0.0
100
AcDbText
  0
CIRCLE
  5
EDC
330
10C1
100
AcDbEntity
  8
text_bubbles
100
AcDbCircle
 10
3.119563596126354
 20
7.595015068540577
 30
0.0
 40
0.15625
  0
TEXT
  5
EDE
330
10C1
100
AcDbEntity
  8
text_bubbles
100
AcDbText
 10
3.068968358031116
 20
7.532515068540577
 30
0.0
 40
0.125
  1
1
  7
ROMANS
 72
     4
 11
3.119563596126354
 21
7.595015068540577
 31
0.0
100
AcDbText
  0
CIRCLE
  5
EDF
330
10C1
100
AcDbEntity
  8
text_bubbles
100
AcDbCircle
 10
5.414561749408028
 20
5.814421242705176
 30
0.0
 40
0.15625
  0
CIRCLE
  5
EE0
330
10C1
100
AcDbEntity
  8
text_bubbles
100
AcDbCircle
 10
5.414561749408028
 20
6.465070701672025
 30
0.0
 40
0.15625
  0
TEXT
  5
EE1
330
10C1
100
AcDbEntity
  8
text_bubbles
100
AcDbText
 10
5.355037939884219
 20
5.751921242705176
 30
0.0
 40
0.125
  1
2
  7
ROMANS
 72
     4
 11
5.414561749408028
 21
5.814421242705176
 31
0.0
100
AcDbText
  0
TEXT
  5
EE2
330
10C1
100
AcDbEntity
  8
text_bubbles
100
AcDbText
 10
5.36396651131279
 20
6.402570701672025
 30
0.0
 40
0.125
  1
1
  7
ROMANS
 72
     4
 11
5.414561749408028
 21
6.465070701672025
 31
0.0
100
AcDbText
  0
INSERT
  5
11A4
330
10C1
100
AcDbEntity
  8
title
100
AcDbBlockReference
 66
     1
  2
titleblock
 10
-0.4984554492313005
 20
-2.476922311636122
 30
0.0
  0
ATTRIB
  5
11A5
330
11A4
100
AcDbEntity
  8
title
100
AcDbText
 10
0.0071001545710415
 20
-1.692695215157754
 30
0.0
 40
0.2
  1
D
  7
L200
 72
     4
 11
0.1079869212831834
 21
-1.592695215157754
 31
0.0
100
AcDbAttribute
  2
D
 70
     0
  0
ATTRIB
  5
11A6
330
11A4
100
AcDbEntity
  8
title
100
AcDbText
 10
0.7329869212831837
 20
-1.133210008889371
 30
0.0
 40
0.2
  1
SQ NOZZLE ON POP-UP SPRAY
  7
L200
100
AcDbAttribute
  2
TITLE1
 70
     0
  0
ATTRIB
  5
11A7
330
11A4
100
AcDbEntity
  8
title
100
AcDbText
 10
0.7329869212831837
 20
-1.492695215157754
 30
0.0
 40
0.2
  1
SPRINKLER FROM SWING PIPE TO PVC
  7
L200
100
AcDbAttribute
  2
TITLE2
 70
     0
  0
ATTRIB
  5
11A8
330
11A4
100
AcDbEntity
  8
title
100
AcDbText
 10
2.215190301937012
 20
-1.884129545177803
 30
0.0
 40
0.2
  1
OPTION 3
  7
L200
100
AcDbAttribute
  2
TITLE3
 70
     0
  0
ATTRIB
  5
11A9
330
11A4
100
AcDbEntity
  8
title
100
AcDbText
 10
2.215190301937012
 20
-2.207666230819348
 30
0.0
 40
0.2
  1

  7
L200
100
AcDbAttribute
  2
TITLE4
 70
     0
  0
ATTRIB
  5
11AA
330
11A4
100
AcDbEntity
  8
title
 62
     7
100
AcDbText
 10
7.194949856925555
 20
-1.507319520091482
 30
0.0
 40
0.08
  1
1-13-10
  7
L80
 72
     2
 11
7.762568904544602
 21
-1.507319520091482
 31
0.0
100
AcDbAttribute
  2
REVISED
 70
     0
  0
ATTRIB
  5
11AB
330
11A4
100
AcDbEntity
  8
title
 62
     7
100
AcDbText
 10
-0.2345130787168166
 20
-2.3922106636154
 30
0.0
 40
0.08
  1
SQ Nozzle Option 3.dwg
  7
L80
100
AcDbAttribute
  2
DWG-NAME
 70
     0
  0
ATTRIB
  5
11AC
330
11A4
100
AcDbEntity
  8
title
 62
     7
100
AcDbText
 10
0.7329869212831837
 20
-1.776358532240632
 30
0.0
 40
0.1
  1
N.T.S.
  7
L100
100
AcDbAttribute
  2
SCALE
 70
     0
  0
SEQEND
  5
11AD
330
11A4
100
AcDbEntity
  8
title
  0
MTEXT
  5
12DA
102
{ACAD_XDICTIONARY
360
1A26
102
}
330
10C1
100
AcDbEntity
  8
text_bubbles
100
AcDbMText
 10
5.703924416721529
 20
6.52371223220704
 30
0.0
 40
0.125
 41
4.202295919515166
 71
     1
 72
     5
  3
\A1;\pi-0.25,l0.25;{\Fromans|c0;LOW VOLUME SPRAY NOZZLE:\P  RAIN BIRD SQ SQUARE SERIES NOZZLE (FORMERLY KNOWN AS XPCN)\P\pi0,l0;POP-UP SPRAY SPRINKLER:   \P\pt0.25;^IRAIN BIRD 1800 SERIES OR \P^IUNI-SPRAY SERIES\P\ptz;}TOP OF MULCH\P\PFINISH GRADE \P\P
  1
{\H0.7x;\S1#2;}" MALE MPT x {\H0.7x;\S1#2;}" BARB ELBOW:  \P\pt0.25;^IRAIN BIRD MODEL SBE-050 (1 OF 2)\P\ptz;{\A0;\Fromans|c0;SWING PIPE, 12-INCH LENGTH:   \P\pt0.25;^IRAIN BIRD MODEL SP-100\PPVC SCH 40 LATERAL\P\PPVC SCH 40 TEE OR ELL}
  7
SIMPLEX
 73
     1
 44
1.0
1001
ACAD
1000
ACAD_MTEXT_DEFINED_HEIGHT_BEGIN
1070
    46
1040
0.0311617146552878
1000
ACAD_MTEXT_DEFINED_HEIGHT_END
  0
TEXT
  5
13F7
330
10C1
100
AcDbEntity
  8
text_bubbles
100
AcDbText
 10
5.355037939884219
 20
3.414917654195582
 30
0.0
 40
0.125
  1
7
  7
ROMANS
 72
     4
 11
5.414561749408028
 21
3.477417654195582
 31
0.0
100
AcDbText
  0
CIRCLE
  5
13F8
330
10C1
100
AcDbEntity
  8
text_bubbles
100
AcDbCircle
 10
5.414561749408028
 20
3.477417654195582
 30
0.0
 40
0.15625
  0
LINE
  5
18AD
330
10C1
100
AcDbEntity
  8
image
100
AcDbLine
 10
1.681624416848815
 20
5.831273544205781
 30
0.0
 11
1.681624416848815
 21
5.667851056668291
 31
0.0
  0
LINE
  5
18AE
330
10C1
100
AcDbEntity
  8
image
100
AcDbLine
 10
1.634670719843419
 20
5.831273544205781
 30
0.0
 11
1.634670719843419
 21
5.667851056668291
 31
0.0
  0
LINE
  5
18AF
330
10C1
100
AcDbEntity
  8
image
100
AcDbLine
 10
1.424600661139577
 20
5.831273544205781
 30
0.0
 11
1.424600661139577
 21
5.667851056668291
 31
0.0
  0
LINE
  5
18B0
330
10C1
100
AcDbEntity
  8
image
100
AcDbLine
 10
1.379223658996539
 20
5.831273544205781
 30
0.0
 11
1.379223658996539
 21
5.667851056668291
 31
0.0
  0
LINE
  5
18B1
330
10C1
100
AcDbEntity
  8
image
100
AcDbLine
 10
1.275555884001223
 20
5.667851056668291
 30
0.0
 11
1.778347940450525
 21
5.667851056668291
 31
0.0
  0
LINE
  5
18B2
330
10C1
100
AcDbEntity
  8
image
100
AcDbLine
 10
1.186371399888609
 20
5.831273544205781
 30
0.0
 11
1.867532424563132
 21
5.831273544205781
 31
0.0
  0
LINE
  5
18B3
330
10C1
100
AcDbEntity
  8
image
100
AcDbLine
 10
1.09561739560253
 20
5.88802825026218
 30
0.0
 11
1.958286428849215
 21
5.88802825026218
 31
0.0
  0
LINE
  5
18B4
330
10C1
100
AcDbEntity
  8
image
100
AcDbLine
 10
1.778347940450525
 20
5.667851056668291
 30
0.0
 11
1.867532424563132
 21
5.667851056668291
 31
0.0
  0
LINE
  5
18B5
330
10C1
100
AcDbEntity
  8
image
100
AcDbLine
 10
1.867532424563132
 20
5.667851056668291
 30
0.0
 11
1.867532424563132
 21
5.831273544205781
 31
0.0
  0
LINE
  5
18B6
330
10C1
100
AcDbEntity
  8
image
100
AcDbLine
 10
1.867532424563132
 20
5.831273544205781
 30
0.0
 11
1.958286428849215
 21
5.831273544205781
 31
0.0
  0
LINE
  5
18B7
330
10C1
100
AcDbEntity
  8
image
100
AcDbLine
 10
1.958286428849215
 20
5.831273544205781
 30
0.0
 11
1.958286428849215
 21
5.88802825026218
 31
0.0
  0
LINE
  5
18B8
330
10C1
100
AcDbEntity
  8
image
100
AcDbLine
 10
1.958286428849215
 20
5.831273544205768
 30
0.0
 11
1.867532424563132
 21
5.667851056668291
 31
0.0
  0
LINE
  5
18B9
330
10C1
100
AcDbEntity
  8
image
100
AcDbLine
 10
1.095617395602526
 20
5.831273544205768
 30
0.0
 11
1.186371399888609
 21
5.667851056668291
 31
0.0
  0
LINE
  5
18BA
330
10C1
100
AcDbEntity
  8
image
100
AcDbLine
 10
1.09561739560253
 20
5.831273544205781
 30
0.0
 11
1.09561739560253
 21
5.88802825026218
 31
0.0
  0
LINE
  5
18BB
330
10C1
100
AcDbEntity
  8
image
100
AcDbLine
 10
1.186371399888609
 20
5.831273544205781
 30
0.0
 11
1.09561739560253
 21
5.831273544205781
 31
0.0
  0
LINE
  5
18BC
330
10C1
100
AcDbEntity
  8
image
100
AcDbLine
 10
1.186371399888609
 20
5.667851056668291
 30
0.0
 11
1.186371399888609
 21
5.831273544205781
 31
0.0
  0
LINE
  5
18BD
330
10C1
100
AcDbEntity
  8
image
100
AcDbLine
 10
1.275555884001223
 20
5.667851056668291
 30
0.0
 11
1.186371399888609
 21
5.667851056668291
 31
0.0
  0
LINE
  5
18BE
330
10C1
100
AcDbEntity
  8
image
100
AcDbLine
 10
1.778347940450525
 20
5.667851056668291
 30
0.0
 11
1.778347940450525
 21
5.139928340691839
 31
0.0
  0
LINE
  5
18BF
330
10C1
100
AcDbEntity
  8
image
100
AcDbLine
 10
1.778347940450525
 20
5.139928340691839
 30
0.0
 11
1.778347940450525
 21
3.676329707476464
 31
0.0
  0
LINE
  5
18C0
330
10C1
100
AcDbEntity
  8
image
100
AcDbLine
 10
1.275555884001223
 20
3.676329707476464
 30
0.0
 11
1.387518199049657
 21
3.525533299824681
 31
0.0
  0
LINE
  5
18C1
330
10C1
100
AcDbEntity
  8
image
100
AcDbLine
 10
1.387518199049657
 20
3.525533299824681
 30
0.0
 11
1.526951912225874
 21
3.525533299824681
 31
0.0
  0
LINE
  5
18C2
330
10C1
100
AcDbEntity
  8
image
100
AcDbLine
 10
1.275555884001223
 20
3.676329707476464
 30
0.0
 11
1.778347940450525
 21
3.676329707476464
 31
0.0
  0
LINE
  5
18C3
330
10C1
100
AcDbEntity
  8
image
100
AcDbLine
 10
1.275555884001223
 20
5.139928340691839
 30
0.0
 11
1.275555884001223
 21
3.676329707476464
 31
0.0
  0
LINE
  5
18C4
330
10C1
100
AcDbEntity
  8
image
100
AcDbLine
 10
1.275555884001223
 20
5.667851056668291
 30
0.0
 11
1.275555884001223
 21
5.139928340691839
 31
0.0
  0
LINE
  5
18C5
330
10C1
100
AcDbEntity
  8
image
100
AcDbLine
 10
1.392227099098529
 20
3.525533299824681
 30
0.0
 11
1.392227099098529
 21
3.676329707476464
 31
0.0
  0
LINE
  5
18C6
330
10C1
100
AcDbEntity
  8
image
100
AcDbLine
 10
1.516730447645804
 20
3.676329707476464
 30
0.0
 11
1.516730447645804
 21
3.525533299824681
 31
0.0
  0
LINE
  5
18C7
330
10C1
100
AcDbEntity
  8
image
100
AcDbLine
 10
1.275555884001223
 20
5.627424426047647
 30
0.0
 11
1.778347940450525
 21
5.627424426047647
 31
0.0
  0
LINE
  5
18C8
330
10C1
100
AcDbEntity
  8
image
100
AcDbLine
 10
1.778347940450525
 20
5.605021471465165
 30
0.0
 11
1.275555884001223
 21
5.605021471465165
 31
0.0
  0
LINE
  5
18C9
330
10C1
100
AcDbEntity
  8
image
100
AcDbLine
 10
1.666385625402091
 20
3.525533299824681
 30
0.0
 11
1.526951912225874
 21
3.525533299824681
 31
0.0
  0
LINE
  5
18CA
330
10C1
100
AcDbEntity
  8
image
100
AcDbLine
 10
1.661676725353212
 20
3.525533299824681
 30
0.0
 11
1.661676725353212
 21
3.676329707476464
 31
0.0
  0
LINE
  5
18CB
330
10C1
100
AcDbEntity
  8
image
100
AcDbLine
 10
1.537173376805937
 20
3.676329707476464
 30
0.0
 11
1.537173376805937
 21
3.525533299824681
 31
0.0
  0
LINE
  5
18CC
330
10C1
100
AcDbEntity
  8
image
100
AcDbLine
 10
1.778347940450525
 20
3.676329707476464
 30
0.0
 11
1.666385625402091
 21
3.525533299824681
 31
0.0
  0
LINE
  5
18CD
330
10C1
100
AcDbEntity
  8
image
100
AcDbLine
 10
4.174469514509777
 20
2.888212751474791
 30
0.0
 11
3.724089984928154
 21
2.888212751474785
 31
0.0
  0
LINE
  5
18CE
330
10C1
100
AcDbEntity
  8
image
100
AcDbLine
 10
3.609144723487821
 20
2.682330575201646
 30
0.0
 11
3.729203111995547
 21
2.897371038776103
 31
0.0
  0
LINE
  5
18CF
330
10C1
100
AcDbEntity
  8
image
100
AcDbLine
 10
4.174469514509777
 20
2.535304431850522
 30
0.0
 11
4.174469514509777
 21
2.888212751474791
 31
0.0
  0
LINE
  5
18D0
330
10C1
100
AcDbEntity
  8
image
100
AcDbLine
 10
3.436327662238723
 20
2.535304431850522
 30
0.0
 11
4.174469514509777
 21
2.535304431850522
 31
0.0
  0
LINE
  5
18D1
330
10C1
100
AcDbEntity
  8
image
100
AcDbLine
 10
3.436327662238723
 20
2.770295316542791
 30
0.0
 11
3.436327662238723
 21
2.535304431850522
 31
0.0
  0
LINE
  5
18D2
330
10C1
100
AcDbEntity
  8
image
100
AcDbLine
 10
3.795375337392683
 20
2.791693493272094
 30
0.0
 11
3.807204681732633
 21
2.711990411029052
 31
0.0
  0
LINE
  5
18D3
330
10C1
100
AcDbEntity
  8
image
100
AcDbLine
 10
3.807204681732633
 20
2.711990411029052
 30
0.0
 11
3.737224411791841
 21
2.680259011310855
 31
0.0
  0
LINE
  5
18D4
330
10C1
100
AcDbEntity
  8
image
100
AcDbLine
 10
4.174469514509777
 20
2.833935012412732
 30
0.0
 11
4.585873863057582
 21
2.833935012412732
 31
0.0
  0
LINE
  5
18D5
330
10C1
100
AcDbEntity
  8
image
100
AcDbLine
 10
4.174469514509777
 20
2.58542996300605
 30
0.0
 11
4.585873863057582
 21
2.58542996300605
 31
0.0
  0
LWPOLYLINE
  5
18D6
330
10C1
100
AcDbEntity
  8
image
100
AcDbPolyline
 90
        4
 70
     0
 43
0.0
 10
4.585873863057582
 20
2.833935012412732
 42
-0.5107053858875276
 10
4.585873863057592
 20
2.707912566196778
 42
0.5107053858875159
 10
4.585873863057582
 20
2.58542996300605
 42
0.5397302473450178
 10
4.588224627507869
 20
2.709682487709388
 42
0.5397302473450178
  0
LINE
  5
18D7
330
10C1
100
AcDbEntity
  8
image
100
AcDbLine
 10
3.294834947026176
 20
2.833935012412732
 30
0.0
 11
0.7301792006258366
 21
2.833935012412732
 31
0.0
  0
LINE
  5
18D8
330
10C1
100
AcDbEntity
  8
image
100
AcDbLine
 10
3.436327662238723
 20
2.58542996300605
 30
0.0
 11
0.7301792006258366
 21
2.58542996300605
 31
0.0
  0
LINE
  5
18D9
330
10C1
100
AcDbEntity
  8
image
100
AcDbLine
 10
3.757198853578641
 20
2.622223134384113
 30
0.0
 11
3.618228674174409
 21
2.696991706867827
 31
0.0
  0
LINE
  5
18DA
330
10C1
100
AcDbEntity
  8
image
100
AcDbLine
 10
3.860537710436693
 20
2.800330321551252
 30
0.0
 11
3.718349890710792
 21
2.877931483028608
 31
0.0
  0
ARC
  5
18DB
330
10C1
100
AcDbEntity
  8
image
100
AcDbCircle
 10
3.807204681732633
 20
2.711990411029052
 30
0.0
 40
0.1028766233448846
100
AcDbArc
 50
234.4756814862677
 51
62.64469113840124
  0
ARC
  5
18DC
330
10C1
100
AcDbEntity
  8
image
100
AcDbCircle
 10
3.807204681732633
 20
2.711990411029052
 30
0.0
 40
0.1329410711969937
100
AcDbArc
 50
202.3302578892511
 51
100.5273986155575
  0
LWPOLYLINE
  5
18DD
330
10C1
100
AcDbEntity
  8
image
100
AcDbPolyline
 90
        4
 70
     0
 43
0.0
 10
0.7301792006258366
 20
2.833935012412732
 42
0.5107053858875276
 10
0.7301792006258259
 20
2.707912566196778
 42
-0.5107053858875159
 10
0.7301792006258366
 20
2.58542996300605
 42
-0.5397302473450178
 10
0.7278284361755487
 20
2.709682487709388
 42
-0.5397302473450178
  0
ARC
  5
18DE
330
10C1
100
AcDbEntity
  8
image
100
AcDbCircle
 10
1.883381376518282
 20
-0.4750715983089631
 30
0.0
 40
3.844532119724008
100
AcDbArc
 50
61.30701558492705
 51
91.57178904497751
  0
ARC
  5
18DF
330
10C1
100
AcDbEntity
  8
image
100
AcDbCircle
 10
1.879237808256116
 20
-0.5025325741066338
 30
0.0
 40
3.624352523581052
100
AcDbArc
 50
61.49072909609822
 51
91.61727251044181
  0
LINE
  5
18E0
330
10C1
100
AcDbEntity
  8
image
100
AcDbLine
 10
1.776947771888067
 20
3.120376196984376
 30
0.0
 11
1.777927962365057
 21
3.368013984531081
 31
0.0
  0
ARC
  5
18E1
330
10C1
100
AcDbEntity
  8
image
100
AcDbCircle
 10
1.482044375336207
 20
3.201921070865332
 30
0.0
 40
0.0572650297883847
100
AcDbArc
 50
180.0
 51
270.0
  0
LWPOLYLINE
  5
18E2
330
10C1
100
AcDbEntity
  8
image
100
AcDbPolyline
 90
        3
 70
     0
 43
0.0
 10
1.484656796806162
 20
3.149536481392554
 42
0.3551655385017884
 10
1.596676747874812
 20
3.246568982255776
 42
-0.3351985284943452
 10
1.677867321268268
 20
3.342930309694057
 42
-0.5949761929811071
  0
LINE
  5
18E3
330
10C1
100
AcDbEntity
  8
image
100
AcDbLine
 10
1.776944755583392
 20
3.14465604107695
 30
0.0
 11
1.482044375336207
 21
3.14465604107695
 31
0.0
  0
LINE
  5
18E4
330
10C1
100
AcDbEntity
  8
image
100
AcDbLine
 10
1.7778428314385
 20
3.346506293118702
 30
0.0
 11
1.685653370139347
 21
3.346506293118697
 31
0.0
  0
ARC
  5
18E5
330
10C1
100
AcDbEntity
  8
image
100
AcDbCircle
 10
1.685653370139347
 20
3.40377132290708
 30
0.0
 40
0.0572650297883847
100
AcDbArc
 50
180.0
 51
270.0
  0
LINE
  5
18E6
330
10C1
100
AcDbEntity
  8
image
100
AcDbLine
 10
1.424779345547821
 20
3.52448983462667
 30
0.0
 11
1.424779345547821
 21
3.201921070865332
 31
0.0
  0
LINE
  5
18E7
330
10C1
100
AcDbEntity
  8
image
100
AcDbLine
 10
1.424779345547821
 20
3.468435671641934
 30
0.0
 11
1.628388340350961
 21
3.468435671641934
 31
0.0
  0
LINE
  5
18E8
330
10C1
100
AcDbEntity
  8
image
100
AcDbLine
 10
1.628388340350961
 20
3.52448983462667
 30
0.0
 11
1.628388340350961
 21
3.40377132290708
 31
0.0
  0
LINE
  5
18E9
330
10C1
100
AcDbEntity
  8
image
100
AcDbLine
 10
1.444414755200837
 20
3.499018797569078
 30
0.0
 11
1.609191491359559
 21
3.499018797569078
 31
0.0
  0
LINE
  5
18EA
330
10C1
100
AcDbEntity
  8
image
100
AcDbLine
 10
1.526951912225871
 20
7.236444980332113
 30
0.0
 11
1.34741404086566
 21
7.236444980332113
 31
0.0
  0
LINE
  5
18EB
330
10C1
100
AcDbEntity
  8
image
100
AcDbLine
 10
1.526951912225871
 20
6.938555035025417
 30
0.0
 11
1.36464558515983
 21
6.938555035025417
 31
0.0
  0
LINE
  5
18EC
330
10C1
100
AcDbEntity
  8
image
100
AcDbLine
 10
1.526951912225871
 20
7.216180363566059
 30
0.0
 11
1.34741404086566
 21
7.216180363566059
 31
0.0
  0
LINE
  5
18ED
330
10C1
100
AcDbEntity
  8
image
100
AcDbLine
 10
1.36464558515983
 20
7.216180363566057
 30
0.0
 11
1.36464558515983
 21
5.88802825026218
 31
0.0
  0
LINE
  5
18EE
330
10C1
100
AcDbEntity
  8
image
100
AcDbLine
 10
1.34741404086566
 20
7.236444980332113
 30
0.0
 11
1.34741404086566
 21
7.216180363566059
 31
0.0
  0
LINE
  5
18EF
330
10C1
100
AcDbEntity
  8
image
100
AcDbLine
 10
1.505538759226928
 20
6.938555035025417
 30
0.0
 11
1.505538759226928
 21
7.098074519098541
 31
0.0
  0
LINE
  5
18F0
330
10C1
100
AcDbEntity
  8
image
100
AcDbLine
 10
1.505538759226928
 20
7.098074519098541
 30
0.0
 11
1.526951912225871
 21
7.098074519098541
 31
0.0
  0
LINE
  5
18F1
330
10C1
100
AcDbEntity
  8
image
100
AcDbLine
 10
1.505538759226928
 20
7.098074519098541
 30
0.0
 11
1.505538759226928
 21
7.113272966510447
 31
0.0
  0
LINE
  5
18F2
330
10C1
100
AcDbEntity
  8
image
100
AcDbLine
 10
1.505538759226928
 20
7.113272966510447
 30
0.0
 11
1.526951912225871
 21
7.113272966510447
 31
0.0
  0
LINE
  5
18F3
330
10C1
100
AcDbEntity
  8
image
100
AcDbLine
 10
1.548365065224817
 20
6.938555035025417
 30
0.0
 11
1.548365065224817
 21
7.098074519098541
 31
0.0
  0
LINE
  5
18F4
330
10C1
100
AcDbEntity
  8
image
100
AcDbLine
 10
1.689258239291915
 20
7.216180363566057
 30
0.0
 11
1.689258239291915
 21
5.88802825026218
 31
0.0
  0
LINE
  5
18F5
330
10C1
100
AcDbEntity
  8
image
100
AcDbLine
 10
1.526951912225871
 20
6.938555035025417
 30
0.0
 11
1.689258239291915
 21
6.938555035025417
 31
0.0
  0
LINE
  5
18F6
330
10C1
100
AcDbEntity
  8
image
100
AcDbLine
 10
1.526951912225871
 20
7.216180363566059
 30
0.0
 11
1.706489783586085
 21
7.216180363566059
 31
0.0
  0
LINE
  5
18F7
330
10C1
100
AcDbEntity
  8
image
100
AcDbLine
 10
1.526951912225871
 20
7.236444980332113
 30
0.0
 11
1.706489783586085
 21
7.236444980332113
 31
0.0
  0
LINE
  5
18F8
330
10C1
100
AcDbEntity
  8
image
100
AcDbLine
 10
1.706489783586085
 20
7.236444980332113
 30
0.0
 11
1.706489783586085
 21
7.216180363566059
 31
0.0
  0
LINE
  5
18F9
330
10C1
100
AcDbEntity
  8
image
100
AcDbLine
 10
1.548365065224817
 20
7.113272966510447
 30
0.0
 11
1.526951912225871
 21
7.113272966510447
 31
0.0
  0
LINE
  5
18FA
330
10C1
100
AcDbEntity
  8
image
100
AcDbLine
 10
1.548365065224817
 20
7.098074519098541
 30
0.0
 11
1.548365065224817
 21
7.113272966510447
 31
0.0
  0
LINE
  5
18FB
330
10C1
100
AcDbEntity
  8
image
100
AcDbLine
 10
1.548365065224817
 20
7.098074519098541
 30
0.0
 11
1.526951912225871
 21
7.098074519098541
 31
0.0
  0
LINE
  5
18FC
330
10C1
100
AcDbEntity
  8
image
100
AcDbLine
 10
1.958286428849215
 20
5.88802825026218
 30
0.0
 11
2.488237937521812
 21
5.88802825026218
 31
0.0
  0
LINE
  5
18FD
330
10C1
100
AcDbEntity
  8
image
100
AcDbLine
 10
0.4880000661751583
 20
5.019590476661892
 30
0.0
 11
1.275555884001223
 21
5.019590476661892
 31
0.0
  0
LINE
  5
18FE
330
10C1
100
AcDbEntity
  8
image
100
AcDbLine
 10
1.09561739560253
 20
5.88802825026218
 30
0.0
 11
0.4964610326442039
 21
5.88802825026218
 31
0.0
  0
LINE
  5
18FF
330
10C1
100
AcDbEntity
  8
image
100
AcDbLine
 10
1.778347940450525
 20
5.019590476661892
 30
0.0
 11
2.454535768862795
 21
5.019590476661892
 31
0.0
  0
INSERT
  5
193B
330
10C1
100
AcDbEntity
  8
image
100
AcDbBlockReference
  2
*X1
 10
0.1379178926869122
 20
1.111404671770257
 30
0.0
1001
ACAD
1000
HATCH
1002
{
1070
    16
1000
AR-SAND
1040
0.1
1040
0.0
1002
}
  0
HATCH
  5
193C
330
10C1
100
AcDbEntity
  8
image
100
AcDbHatch
 10
0.0
 20
0.0
 30
0.0
210
0.0
220
0.0
230
1.0
  2
EARTH
 70
     0
 71
     0
 91
        2
 92
        7
 72
     0
 73
     1
 93
       10
 10
1.275555884001223
 20
5.019590476661893
 10
0.5725266354672004
 20
5.019590476661893
 10
0.5909511545633222
 20
4.835529444583158
 10
0.5955572843373509
 20
4.73887377833767
 10
0.6185879332075018
 20
4.46731740400958
 10
0.6231940629815305
 20
4.333840531575335
 10
0.6185879332075018
 20
4.310827277707361
 10
1.014715274982213
 20
4.149734521945544
 10
1.120656296026522
 20
4.1911583575939
 10
1.275555884001223
 20
4.260198119197821
 97
        0
 92
        7
 72
     0
 73
     1
 93
       13
 10
2.451828344345583
 20
4.692847270601725
 10
2.346992414209523
 20
5.019590476661892
 10
1.778347940450526
 20
5.019590476661892
 10
1.778347940450525
 20
4.356853785443306
 10
1.880668034916107
 20
4.402880293179257
 10
1.912910943334316
 20
4.416688245500041
 10
1.968184536864312
 20
4.430496197820821
 10
2.018851964378634
 20
4.444304150141609
 10
2.069519428134589
 20
4.453509451688796
 10
2.166248189630849
 20
4.453509451688796
 10
2.286007636238871
 20
4.444304150141609
 10
2.355099582849324
 20
4.44430415014161
 10
2.410373176379314
 20
4.49493330865115
 97
        0
 75
     0
 76
     1
 52
45.0
 41
0.65
 77
     0
 78
     6
 53
45.0
 43
0.1379178926869122
 44
1.111404671770257
 45
0.0
 46
0.2298097038856279
 79
     2
 49
0.1625
 49
-0.1625
 53
45.0
 43
0.094828573208357
 44
1.154493991248812
 45
0.0
 46
0.2298097038856279
 79
     2
 49
0.1625
 49
-0.1625
 53
45.0
 43
0.0517392537298018
 44
1.197583310727367
 45
0.0
 46
0.2298097038856279
 79
     2
 49
0.1625
 49
-0.1625
 53
135.0
 43
0.0517392537298018
 44
1.226309523713071
 45
-0.2298097038856279
 46
0.0
 79
     2
 49
0.1625
 49
-0.1625
 53
135.0
 43
0.094828573208357
 44
1.269398843191626
 45
-0.2298097038856279
 46
0.0
 79
     2
 49
0.1625
 49
-0.1625
 53
135.0
 43
0.1379178926869122
 44
1.312488162670181
 45
-0.2298097038856279
 46
0.0
 79
     2
 49
0.1625
 49
-0.1625
 47
0.0046026504998369
 98
        2
 10
0.9548355516781953
 20
4.536357165613503
 10
1.972790666638336
 20
4.679039318280939
  0
CIRCLE
  5
193D
330
10C1
100
AcDbEntity
  8
text_bubbles
100
AcDbCircle
 10
3.119563596126354
 20
6.706853917260822
 30
0.0
 40
0.15625
  0
TEXT
  5
193E
330
10C1
100
AcDbEntity
  8
text_bubbles
100
AcDbText
 10
3.060039786602545
 20
6.644353917260822
 30
0.0
 40
0.125
  1
2
  7
ROMANS
 72
     4
 11
3.119563596126354
 21
6.706853917260822
 31
0.0
100
AcDbText
  0
CIRCLE
  5
193F
330
10C1
100
AcDbEntity
  8
text_bubbles
100
AcDbCircle
 10
3.119563596126354
 20
6.353161417745832
 30
0.0
 40
0.15625
  0
TEXT
  5
1940
330
10C1
100
AcDbEntity
  8
text_bubbles
100
AcDbText
 10
3.060039786602545
 20
6.290661417745832
 30
0.0
 40
0.125
  1
3
  7
ROMANS
 72
     4
 11
3.119563596126354
 21
6.353161417745832
 31
0.0
100
AcDbText
  0
CIRCLE
  5
1941
330
10C1
100
AcDbEntity
  8
text_bubbles
100
AcDbCircle
 10
3.119563596126354
 20
5.402121605880211
 30
0.0
 40
0.15625
  0
TEXT
  5
1942
330
10C1
100
AcDbEntity
  8
text_bubbles
100
AcDbText
 10
3.057063596126354
 20
5.339621605880211
 30
0.0
 40
0.125
  1
4
  7
ROMANS
 72
     4
 11
3.119563596126354
 21
5.402121605880211
 31
0.0
100
AcDbText
  0
CIRCLE
  5
1945
330
10C1
100
AcDbEntity
  8
text_bubbles
100
AcDbCircle
 10
1.239487263282166
 20
1.967374565994899
 30
0.0
 40
0.15625
  0
TEXT
  5
1946
330
10C1
100
AcDbEntity
  8
text_bubbles
100
AcDbText
 10
1.179963453758357
 20
1.904874565994899
 30
0.0
 40
0.125
  1
5
  7
ROMANS
 72
     4
 11
1.239487263282166
 21
1.967374565994899
 31
0.0
100
AcDbText
  0
CIRCLE
  5
1947
330
10C1
100
AcDbEntity
  8
text_bubbles
100
AcDbCircle
 10
1.805870108875575
 20
1.967374565994899
 30
0.0
 40
0.15625
  0
TEXT
  5
1948
330
10C1
100
AcDbEntity
  8
text_bubbles
100
AcDbText
 10
1.743370108875575
 20
1.904874565994899
 30
0.0
 40
0.125
  1
6
  7
ROMANS
 72
     4
 11
1.805870108875575
 21
1.967374565994899
 31
0.0
100
AcDbText
  0
CIRCLE
  5
1949
330
10C1
100
AcDbEntity
  8
text_bubbles
100
AcDbCircle
 10
2.356520114942408
 20
1.967374565994899
 30
0.0
 40
0.15625
  0
TEXT
  5
194A
330
10C1
100
AcDbEntity
  8
text_bubbles
100
AcDbText
 10
2.296996305418598
 20
1.904874565994899
 30
0.0
 40
0.125
  1
7
  7
ROMANS
 72
     4
 11
2.356520114942408
 21
1.967374565994899
 31
0.0
100
AcDbText
  0
CIRCLE
  5
194D
330
10C1
100
AcDbEntity
  8
text_bubbles
100
AcDbCircle
 10
3.890473638581919
 20
1.967374565994899
 30
0.0
 40
0.15625
  0
TEXT
  5
194E
330
10C1
100
AcDbEntity
  8
text_bubbles
100
AcDbText
 10
3.83094982905811
 20
1.904874565994899
 30
0.0
 40
0.125
  1
8
  7
ROMANS
 72
     4
 11
3.890473638581919
 21
1.967374565994899
 31
0.0
100
AcDbText
  0
LEADER
  5
1958
330
10C1
100
AcDbEntity
  8
text_bubbles
100
AcDbLeader
  3
STANDARD
 76
     2
 10
1.706489783586085
 20
7.236444980332113
 30
0.0
 10
2.968113472098389
 20
7.556584320019192
 30
0.0
1001
ACAD
1000
DSTYLE
1002
{
1070
    44
1040
0.125
1070
   140
1040
0.125
1070
   176
1070
   256
1070
   177
1070
   256
1070
   178
1070
   256
1070
   340
1005
1345
1070
   371
1070
    -1
1070
   372
1070
    -1
1002
}
  0
LEADER
  5
1959
330
10C1
100
AcDbEntity
  8
text_bubbles
100
AcDbLeader
  3
STANDARD
 76
     2
 10
1.774306287850026
 20
5.88802825026218
 30
0.0
 10
2.986093899357621
 20
6.625614133014048
 30
0.0
1001
ACAD
1000
DSTYLE
1002
{
1070
    44
1040
0.125
1070
   140
1040
0.125
1070
   176
1070
   256
1070
   177
1070
   256
1070
   178
1070
   256
1070
   340
1005
1345
1070
   371
1070
    -1
1070
   372
1070
    -1
1002
}
  0
LEADER
  5
195A
330
10C1
100
AcDbEntity
  8
text_bubbles
100
AcDbLeader
  3
STANDARD
 76
     2
 10
2.293490558260374
 20
5.88802825026218
 30
0.0
 10
2.983412825935057
 20
6.276499626243698
 30
0.0
1001
ACAD
1000
DSTYLE
1002
{
1070
    44
1040
0.125
1070
   140
1040
0.125
1070
   176
1070
   256
1070
   177
1070
   256
1070
   178
1070
   256
1070
   340
1005
1345
1070
   371
1070
    -1
1070
   372
1070
    -1
1002
}
  0
LEADER
  5
195B
330
10C1
100
AcDbEntity
  8
text_bubbles
100
AcDbLeader
  3
STANDARD
 76
     2
 10
2.454535768862795
 20
5.019590476661892
 30
0.0
 10
2.984121820484846
 20
5.324214045842205
 30
0.0
1001
ACAD
1000
DSTYLE
1002
{
1070
    44
1040
0.125
1070
   140
1040
0.125
1070
   176
1070
   256
1070
   177
1070
   256
1070
   178
1070
   256
1070
   340
1005
1345
1070
   371
1070
    -1
1070
   372
1070
    -1
1002
}
  0
LEADER
  5
195C
330
10C1
100
AcDbEntity
  8
text_bubbles
100
AcDbLeader
  3
STANDARD
 76
     2
 10
1.522580572408141
 20
3.14465604107695
 30
0.0
 10
1.276018373699179
 20
2.119294085714058
 30
0.0
1001
ACAD
1000
DSTYLE
1002
{
1070
    44
1040
0.125
1070
   140
1040
0.125
1070
   176
1070
   256
1070
   177
1070
   256
1070
   178
1070
   256
1070
   340
1005
1345
1070
   371
1070
    -1
1070
   372
1070
    -1
1002
}
  0
LEADER
  5
195D
330
10C1
100
AcDbEntity
  8
text_bubbles
100
AcDbLeader
  3
STANDARD
 76
     2
 10
2.057375710419066
 20
3.117439539460172
 30
0.0
 10
1.839251238867704
 20
2.120017163786107
 30
0.0
1001
ACAD
1000
DSTYLE
1002
{
1070
    44
1040
0.125
1070
   140
1040
0.125
1070
   176
1070
   256
1070
   177
1070
   256
1070
   178
1070
   256
1070
   340
1005
1345
1070
   371
1070
    -1
1070
   372
1070
    -1
1002
}
  0
LEADER
  5
195E
330
10C1
100
AcDbEntity
  8
text_bubbles
100
AcDbLeader
  3
STANDARD
 76
     2
 10
2.513750538045774
 20
2.58542996300605
 30
0.0
 10
2.395042406359537
 20
2.11880143139194
 30
0.0
1001
ACAD
1000
DSTYLE
1002
{
1070
    44
1040
0.125
1070
   140
1040
0.125
1070
   176
1070
   256
1070
   177
1070
   256
1070
   178
1070
   256
1070
   340
1005
1345
1070
   371
1070
    -1
1070
   372
1070
    -1
1002
}
  0
LEADER
  5
1960
330
10C1
100
AcDbEntity
  8
text_bubbles
100
AcDbLeader
  3
STANDARD
 76
     2
 10
4.071303349276816
 20
2.535304431850522
 30
0.0
 10
3.937878907094839
 20
2.11625976679477
 30
0.0
1001
ACAD
1000
DSTYLE
1002
{
1070
    44
1040
0.125
1070
   140
1040
0.125
1070
   176
1070
   256
1070
   177
1070
   256
1070
   178
1070
   256
1070
   340
1005
1345
1070
   371
1070
    -1
1070
   372
1070
    -1
1002
}
  0
TEXT
  5
1974
330
10C1
100
AcDbEntity
  8
text_bubbles
100
AcDbText
 10
5.355037939884219
 20
3.002468168530503
 30
0.0
 40
0.125
  1
8
  7
ROMANS
 72
     4
 11
5.414561749408028
 21
3.064968168530503
 31
0.0
100
AcDbText
  0
CIRCLE
  5
1975
330
10C1
100
AcDbEntity
  8
text_bubbles
100
AcDbCircle
 10
5.414561749408028
 20
3.064968168530503
 30
0.0
 40
0.15625
  0
MTEXT
  5
19BF
102
{ACAD_XDICTIONARY
360
1A28
102
}
330
10C1
100
AcDbEntity
  8
image
100
AcDbMText
 10
0.2856393224591508
 20
1.517622897229772
 30
0.0
 40
0.125
 41
8.411161130320184
 71
     1
 72
     5
  3
NOTES: \P\pi-0.375,l0.375,t0.375;1. {\A1;RAIN BIRD SQ SQUARE NOZZLE SERIES ARE AVAILABLE IN THE FOLLOWING MODELS:\P^ISQ QTR - QUARTER PATTERN - 7.4 GPH MAX\P^ISQ HLF - HALF PATTERN - 13.7 GPH MAX\P^ISQ FUL - FULL PATTERN - 27.3 GPH MAX\P}2. SQ NOZZLES C
  1
AN BE ADJUSTED FROM 2.5' THROW TO 4' THROW BY TURNING THE NOZZLE.
  7
ROMANS
 73
     1
 44
1.0
  0
ENDSEC
  0
SECTION
  2
OBJECTS
  0
DICTIONARY
  5
10AF
330
0
100
AcDbDictionary
281
     1
  3
ACAD_COLOR
350
121C
  3
ACAD_GROUP
350
10B0
  3
ACAD_LAYOUT
350
10BC
  3
ACAD_MATERIAL
350
11F2
  3
ACAD_MLEADERSTYLE
350
1241
  3
ACAD_MLINESTYLE
350
10B9
  3
ACAD_PLOTSETTINGS
350
10BB
  3
ACAD_PLOTSTYLENAME
350
10B1
  3
ACAD_SCALELIST
350
121F
  3
ACAD_TABLESTYLE
350
121D
  3
ACAD_VISUALSTYLE
350
120B
  3
ACDB_RECOMPOSE_DATA
350
12BC
  3
AcDbVariableDictionary
350
10DD
  3
AEC_PROPERTY_SET_DEFS
350
1350
1001
BBSI_PltSel
1000
1
1000

1001
BBSI_Bookmarks
1000
1
1000
1
1000
0
1000
1
1000
0
1000
0
1000
0
1000
0
1000
0
1000
0
1000
0
1001
BBSI_BookmarksEx
1000
0
1000
0
1000

1000
0
1001
BBSI_Plots
1000

1000
ANSI_A_(11.00_x_8.50_Inches)
1000
279.399993896484
1000
215.899993896484
1000
0
1000
1
1000
1
1000
1.513528885555E-14
1000
17.9871359092673
1000
1
1000
0
1000
1
1000
1.56885758041751
1000
0
1000
1
1000
PDF BW Shaded.ctb
1000
0
1000
0
1000
1
1000
1
1000
0
1000
0
1000
0
1000
0
1000
0
1000
0
1000

1000

  0
DICTIONARY
  5
10EB
330
10A5
100
AcDbDictionary
280
     1
281
     1
  3
ACAD_LAYERFILTERS
360
19EE
  3
ACAD_LAYERSTATES
360
10EC
  0
DICTIONARY
  5
12AB
330
10C1
100
AcDbDictionary
280
     1
281
     1
  0
DICTIONARY
  5
1316
330
1195
100
AcDbDictionary
280
     1
281
     1
  3
ACAD_SORTENTS
360
1344
  0
DICTIONARY
  5
1A26
330
12DA
100
AcDbDictionary
280
     1
281
     1
  3
ACAD_MTEXT_2008_RT
360
1A27
  0
DICTIONARY
  5
1A28
330
19BF
100
AcDbDictionary
280
     1
281
     1
  3
ACAD_MTEXT_2008_RT
360
1A29
  0
DICTIONARY
  5
121C
102
{ACAD_REACTORS
330
10AF
102
}
330
10AF
100
AcDbDictionary
281
     1
  0
DICTIONARY
  5
10B0
102
{ACAD_REACTORS
330
10AF
102
}
330
10AF
100
AcDbDictionary
281
     1
  0
DICTIONARY
  5
10BC
102
{ACAD_REACTORS
330
10AF
102
}
330
10AF
100
AcDbDictionary
281
     1
  3
Layout1
350
10C0
  3
Model
350
10C4
  0
DICTIONARY
  5
11F2
102
{ACAD_REACTORS
330
10AF
102
}
330
10AF
100
AcDbDictionary
281
     1
  3
ByBlock
350
11FB
  3
ByLayer
350
11F3
  3
Global
350
1203
  0
DICTIONARY
  5
1241
102
{ACAD_REACTORS
330
10AF
102
}
330
10AF
100
AcDbDictionary
281
     1
  3
Standard
350
1242
  0
DICTIONARY
  5
10B9
102
{ACAD_REACTORS
330
10AF
102
}
330
10AF
100
AcDbDictionary
281
     1
  3
Standard
350
10BA
  0
DICTIONARY
  5
10BB
102
{ACAD_REACTORS
330
10AF
102
}
330
10AF
100
AcDbDictionary
281
     1
  3
1055 24x36 BW
350
1256
  3
1055 24x36 BW Final
350
1258
  3
1055 24x36 Color
350
1259
  3
1055 24x36 Color Shaded
350
125A
  3
1055 30x42 BW
350
125B
  3
1055 30x42 BW Final
350
125C
  3
1055 B&W Draft
350
125D
  3
1055 B&W Final
350
125E
  3
1055 BW Half
350
125F
  3
1055 Color Draft
350
1260
  3
1055 Color Final
350
1261
  3
1055+ 24x36 BW
350
1262
  3
1055+ 24x36 BW Final
350
1263
  3
1055+ 24x36 Color
350
1264
  3
1055+ 24x36 Color Shaded
350
1265
  3
1055+ 30x42 BW
350
1266
  3
1055+ 30x42 BW Final
350
1267
  3
1055+ B&W Draft
350
1268
  3
1055+ B&W Final
350
1269
  3
1055+ BW Half
350
126A
  3
1055+ Color Draft
350
126B
  3
1055+ Color Final
350
126C
  3
_1055 22x34 True Centered BW
350
126D
  3
_1055 24x36 True Centered BW
350
126E
  3
_1055 24x36 True Centered BW Final
350
126F
  3
_1055 24x36 True Centered Color
350
1270
  3
_1055 30x42 True Centered BW
350
1271
  3
_1055+ 22x34 True Centered BW
350
1272
  3
_1055+ 24x36 True Centered BW
350
1273
  3
_1055+ 24x36 True Centered BW Final
350
1274
  3
_1055+ 24x36 True Centered Color
350
1275
  3
DWF BW 11x17 Fit
350
1276
  3
DWF BW 11x17 Half
350
1277
  3
DWF BW 22x34
350
1278
  3
DWF BW 24x36
350
1279
  3
DWF BW 30x42
350
127A
  3
DWF BW 36x48
350
127B
  3
Laser5 11x17 Fit
350
127C
  3
Laser5 11x17 Full
350
127D
  3
Laser5 11x17 Half
350
127E
  3
Laser5 8x11 Fit
350
127F
  3
Laser5 8x11 Half
350
1280
  3
Laser5 8x11 Portrait Fit
350
1281
  3
LaserJet5 11x17
350
1282
  3
LaserJet5 8.5x11
350
1283
  3
Oki9500 11x17 BW Fit
350
1284
  3
Oki9500 11x17 BW Full
350
1285
  3
Oki9500 11x17 BW Half
350
1286
  3
Oki9500 11x17 Color Fit
350
1287
  3
Oki9500 11x17 Color Full
350
1288
  3
Oki9500 11x17 Color Half
350
1289
  3
Oki9500 8x11 BW Fit
350
128A
  3
Oki9500 8x11 BW Portrait Fit
350
128B
  3
Oki9500 8x11 Color Fit
350
128C
  3
Oki9500 8x11 Color Portrait Fit
350
128D
  3
OKI9500 B&W 11x17
350
128E
  3
OKI9500 B&W 8.5x11
350
128F
  3
OKI9500 Color 11x17
350
1290
  3
OKI9500 Color 8.5x11
350
1291
  3
Oki9600 11x17 BW Fit
350
1292
  3
Oki9600 11x17 BW Full
350
1293
  3
Oki9600 11x17 BW Half
350
1294
  3
Oki9600 11x17 Color Fit
350
1295
  3
Oki9600 11x17 Color Full
350
1296
  3
Oki9600 11x17 Color Half
350
1297
  3
Oki9600 8x11 BW Fit
350
1298
  3
Oki9600 8x11 BW Portrait Fit
350
1299
  3
Oki9600 8x11 Color Fit
350
129A
  3
Oki9600 8x11 Color Portrait Fit
350
129B
  3
OKI9600 B&W 11x17
350
129C
  3
OKI9600 B&W 8.5x11
350
129D
  3
OKI9600 Color 11x17
350
129E
  3
OKI9600 Color 8.5x11
350
129F
  3
PHX Kyocera 11x17 Fit
350
12A0
  3
PHX Oki9500 11x17 BW Fit
350
12A1
  3
PHX Oki9500 11x17 BW Half
350
12A2
  0
ACDBDICTIONARYWDFLT
  5
10B1
102
{ACAD_REACTORS
330
10AF
102
}
330
10AF
100
AcDbDictionary
281
     1
  3
Normal
350
10B2
100
AcDbDictionaryWithDefault
340
10B2
  0
DICTIONARY
  5
121F
102
{ACAD_REACTORS
330
10AF
102
}
330
10AF
100
AcDbDictionary
281
     1
  3
A0
350
1220
  3
A1
350
1221
  3
A2
350
1222
  3
A3
350
1223
  3
A4
350
1224
  3
A5
350
1225
  3
A6
350
1226
  3
A7
350
1227
  3
A8
350
1228
  3
A9
350
1229
  3
B0
350
122A
  3
B1
350
122B
  3
B2
350
122C
  3
B3
350
122D
  3
B4
350
122E
  3
B5
350
122F
  3
B6
350
1230
  3
B7
350
1231
  3
B8
350
1232
  3
B9
350
1233
  3
C0
350
1234
  3
C1
350
1235
  3
C2
350
1236
  3
C3
350
1237
  3
C4
350
1238
  3
C5
350
1239
  3
C6
350
123A
  3
C7
350
123B
  3
C8
350
123C
  3
C9
350
123D
  3
D0
350
123E
  3
D1
350
123F
  3
D2
350
1240
  0
DICTIONARY
  5
121D
102
{ACAD_REACTORS
330
10AF
102
}
330
10AF
100
AcDbDictionary
281
     1
  3
Standard
350
121E
  0
DICTIONARY
  5
120B
102
{ACAD_REACTORS
330
10AF
102
}
330
10AF
100
AcDbDictionary
281
     1
  3
2dWireframe
350
1211
  3
3D Hidden
350
1213
  3
3dWireframe
350
1212
  3
Basic
350
1210
  3
Brighten
350
1217
  3
ColorChange
350
121B
  3
Conceptual
350
1214
  3
Dim
350
1216
  3
Facepattern
350
121A
  3
Flat
350
120C
  3
FlatWithEdges
350
120D
  3
Gouraud
350
120E
  3
GouraudWithEdges
350
120F
  3
Linepattern
350
1219
  3
Realistic
350
1215
  3
Thicken
350
1218
  0
XRECORD
  5
12BC
102
{ACAD_REACTORS
330
10AF
102
}
330
10AF
100
AcDbXrecord
280
     1
 90
        1
330
121E
330
12DA
330
19BF
  0
DICTIONARY
  5
10DD
102
{ACAD_REACTORS
330
10AF
102
}
330
10AF
100
AcDbDictionary
281
     1
  3
CANNOSCALE
350
12C0
  3
CMLEADERSTYLE
350
12BE
  3
CTABLESTYLE
350
12BD
  3
DIMASSOC
350
10E0
  3
HIDETEXT
350
10DF
  3
LAYEREVAL
350
1A24
  3
LAYERNOTIFY
350
12C2
  3
LIGHTINGUNITS
350
12C1
  3
MSLTSCALE
350
12BF
  3
SORTENTS
350
10DE
  0
DICTIONARY
  5
1350
102
{ACAD_REACTORS
330
10AF
102
}
330
10AF
100
AcDbDictionary
281
     1
  0
DICTIONARY
  5
19EE
102
{ACAD_REACTORS
330
10EB
102
}
330
10EB
100
AcDbDictionary
281
     1
  3
_0100-
350
19F1
  3
_0280-
350
19F0
  3
_Color 253
350
19F4
  3
_Color 8
350
19F2
  3
_Color 84
350
19F3
  3
_Contours
350
19F9
  3
_Existing
350
19F5
  3
_Hardscape
350
19F8
  3
_NoXref
350
19EF
  3
_Row
350
19F6
  3
_Utility
350
19F7
  0
DICTIONARY
  5
10EC
102
{ACAD_REACTORS
330
10EB
102
}
330
10EB
100
AcDbDictionary
281
     1
  0
SORTENTSTABLE
  5
1344
102
{ACAD_REACTORS
330
1316
102
}
330
1316
100
AcDbSortentsTable
330
1195
  0
XRECORD
  5
1A27
102
{ACAD_REACTORS
330
1A26
102
}
330
1A26
100
AcDbXrecord
280
     1
 40
8079148.0
  1
\A1;\pxi-2,l2;{\Fromans|c0;LOW VOLUME SPRAY NOZZLE:\P  RAIN BIRD SQ SQUARE SERIES NOZZLE (FORMERLY KNOWN AS XPCN)\P\pi0,l0;POP-UP SPRAY SPRINKLER:   \P\pt2;^IRAIN BIRD 1800 SERIES OR \P^IUNI-SPRAY SERIES\P\ptz;}TOP OF MULCH\P\PFINISH GRADE \P\P{\H0.7x;
  1
\S1#2;}" MALE MPT x {\H0.7x;\S1#2;}" BARB ELBOW:  \P\pt2;^IRAIN BIRD MODEL SBE-050 (1 OF 2)\P\ptz;{\A0;\Fromans|c0;SWING PIPE, 12-INCH LENGTH:   \P\pt2;^IRAIN BIRD MODEL SP-100\PPVC SCH 40 LATERAL\P\PPVC SCH 40 TEE OR ELL}
  0
XRECORD
  5
1A29
102
{ACAD_REACTORS
330
1A28
102
}
330
1A28
100
AcDbXrecord
280
     1
 40
3242946.0
  1
NOTES: \P\pxi-3,l3,t3;1. {\A1;RAIN BIRD SQ SQUARE NOZZLE SERIES ARE AVAILABLE IN THE FOLLOWING MODELS:\P^ISQ QTR - QUARTER PATTERN - 7.4 GPH MAX\P^ISQ HLF - HALF PATTERN - 13.7 GPH MAX\P^ISQ FUL - FULL PATTERN - 27.3 GPH MAX\P}2. SQ NOZZLES CAN BE ADJUS
  1
TED FROM 2.5' THROW TO 4' THROW BY TURNING THE NOZZLE.
  0
LAYOUT
  5
10C0
102
{ACAD_REACTORS
330
10BC
102
}
330
10BC
100
AcDbPlotSettings
  1

  2
S:\AutoCAD 2002\Plotters\1055B&WDraftShaded.pc3
  4

  6

 40
0.0
 41
0.0
 42
0.0
 43
0.0
 44
0.0
 45
0.0
 46
0.0
 47
0.0
 48
0.0
 49
0.0
140
0.0
141
0.0
142
1.0
143
1.0
 70
   688
 72
     0
 73
     0
 74
     5
  7
TRexLJ5Shaded2.ctb
 75
    16
147
1.0
 76
     0
 77
     2
 78
   300
148
0.0
149
0.0
100
AcDbLayout
  1
Layout1
 70
     1
 71
     1
 10
0.0
 20
0.0
 11
12.0
 21
9.0
 12
0.0
 22
0.0
 32
0.0
 14
1.000000000000000E+20
 24
1.000000000000000E+20
 34
1.000000000000000E+20
 15
-1.000000000000000E+20
 25
-1.000000000000000E+20
 35
-1.000000000000000E+20
146
0.0
 13
0.0
 23
0.0
 33
0.0
 16
1.0
 26
0.0
 36
0.0
 17
0.0
 27
1.0
 37
0.0
 76
     0
330
10BD
  0
LAYOUT
  5
10C4
102
{ACAD_REACTORS
330
10BC
102
}
330
10BC
100
AcDbPlotSettings
  1
LaserJet5 8.5x11
  2
LaserJet5Shaded-8x11.pc3
  4
Letter
  6

 40
5.873749732971191
 41
5.873734951019287
 42
6.55108642578125
 43
5.027084350585937
 44
279.3999938964844
 45
215.8999938964844
 46
32.0229288755689
 47
-0.000000000000001
 48
0.0
 49
0.0
140
0.0
141
0.0
142
1.0
143
1.293546671707545
 70
 11956
 72
     0
 73
     0
 74
     1
  7
laserjet5shaded.ctb
 75
     0
147
0.7730683568455638
 76
     0
 77
     2
 78
   300
148
12.66076841047503
149
62.91382671555751
100
AcDbLayout
  1
Model
 70
     1
 71
     0
 10
0.0
 20
0.0
 11
12.0
 21
9.0
 12
0.0
 22
0.0
 32
0.0
 14
0.0
 24
0.0
 34
0.0
 15
0.0
 25
0.0
 35
0.0
146
0.0
 13
0.0
 23
0.0
 33
0.0
 16
1.0
 26
0.0
 36
0.0
 17
0.0
 27
1.0
 37
0.0
 76
     0
330
10C1
331
11F0
1001
ACAD_PSEXT
1000
LaserJet5Shaded-8x11.pc3
1000
HP LaserJet 5Si
1000
CAD Area
1000

1070
     0
  0
MATERIAL
  5
11FB
102
{ACAD_XDICTIONARY
360
11FC
102
}
102
{ACAD_REACTORS
330
11F2
102
}
330
11F2
100
AcDbMaterial
  1
ByBlock
 72
     0
 43
0.0208333333333333
 43
0.0
 43
0.0
 43
0.0
 43
0.0
 43
0.0208333333333333
 43
0.0
 43
0.0
 43
0.0
 43
0.0
 43
1.0
 43
0.0
 43
0.0
 43
0.0
 43
0.0
 43
1.0
 77
     0
 47
0.0208333333333333
 47
0.0
 47
0.0
 47
0.0
 47
0.0
 47
0.0208333333333333
 47
0.0
 47
0.0
 47
0.0
 47
0.0
 47
1.0
 47
0.0
 47
0.0
 47
0.0
 47
0.0
 47
1.0
171
     0
 49
0.0208333333333333
 49
0.0
 49
0.0
 49
0.0
 49
0.0
 49
0.0208333333333333
 49
0.0
 49
0.0
 49
0.0
 49
0.0
 49
1.0
 49
0.0
 49
0.0
 49
0.0
 49
0.0
 49
1.0
175
     0
142
0.0208333333333333
142
0.0
142
0.0
142
0.0
142
0.0
142
0.0208333333333333
142
0.0
142
0.0
142
0.0
142
0.0
142
1.0
142
0.0
142
0.0
142
0.0
142
0.0
142
1.0
179
     0
144
0.0208333333333333
144
0.0
144
0.0
144
0.0
144
0.0
144
0.0208333333333333
144
0.0
144
0.0
144
0.0
144
0.0
144
1.0
144
0.0
144
0.0
144
0.0
144
0.0
144
1.0
147
0.0208333333333333
147
0.0
147
0.0
147
0.0
147
0.0
147
0.0208333333333333
147
0.0
147
0.0
147
0.0
147
0.0
147
1.0
147
0.0
147
0.0
147
0.0
147
0.0
147
1.0
  0
MATERIAL
  5
11F3
102
{ACAD_XDICTIONARY
360
11F4
102
}
102
{ACAD_REACTORS
330
11F2
102
}
330
11F2
100
AcDbMaterial
  1
ByLayer
 72
     0
 43
0.0208333333333333
 43
0.0
 43
0.0
 43
0.0
 43
0.0
 43
0.0208333333333333
 43
0.0
 43
0.0
 43
0.0
 43
0.0
 43
1.0
 43
0.0
 43
0.0
 43
0.0
 43
0.0
 43
1.0
 77
     0
 47
0.0208333333333333
 47
0.0
 47
0.0
 47
0.0
 47
0.0
 47
0.0208333333333333
 47
0.0
 47
0.0
 47
0.0
 47
0.0
 47
1.0
 47
0.0
 47
0.0
 47
0.0
 47
0.0
 47
1.0
171
     0
 49
0.0208333333333333
 49
0.0
 49
0.0
 49
0.0
 49
0.0
 49
0.0208333333333333
 49
0.0
 49
0.0
 49
0.0
 49
0.0
 49
1.0
 49
0.0
 49
0.0
 49
0.0
 49
0.0
 49
1.0
175
     0
142
0.0208333333333333
142
0.0
142
0.0
142
0.0
142
0.0
142
0.0208333333333333
142
0.0
142
0.0
142
0.0
142
0.0
142
1.0
142
0.0
142
0.0
142
0.0
142
0.0
142
1.0
179
     0
144
0.0208333333333333
144
0.0
144
0.0
144
0.0
144
0.0
144
0.0208333333333333
144
0.0
144
0.0
144
0.0
144
0.0
144
1.0
144
0.0
144
0.0
144
0.0
144
0.0
144
1.0
147
0.0208333333333333
147
0.0
147
0.0
147
0.0
147
0.0
147
0.0208333333333333
147
0.0
147
0.0
147
0.0
147
0.0
147
1.0
147
0.0
147
0.0
147
0.0
147
0.0
147
1.0
  0
MATERIAL
  5
1203
102
{ACAD_XDICTIONARY
360
1204
102
}
102
{ACAD_REACTORS
330
11F2
102
}
330
11F2
100
AcDbMaterial
  1
Global
 72
     0
 43
0.0208333333333333
 43
0.0
 43
0.0
 43
0.0
 43
0.0
 43
0.0208333333333333
 43
0.0
 43
0.0
 43
0.0
 43
0.0
 43
1.0
 43
0.0
 43
0.0
 43
0.0
 43
0.0
 43
1.0
 77
     0
 47
0.0208333333333333
 47
0.0
 47
0.0
 47
0.0
 47
0.0
 47
0.0208333333333333
 47
0.0
 47
0.0
 47
0.0
 47
0.0
 47
1.0
 47
0.0
 47
0.0
 47
0.0
 47
0.0
 47
1.0
171
     0
 49
0.0208333333333333
 49
0.0
 49
0.0
 49
0.0
 49
0.0
 49
0.0208333333333333
 49
0.0
 49
0.0
 49
0.0
 49
0.0
 49
1.0
 49
0.0
 49
0.0
 49
0.0
 49
0.0
 49
1.0
175
     0
142
0.0208333333333333
142
0.0
142
0.0
142
0.0
142
0.0
142
0.0208333333333333
142
0.0
142
0.0
142
0.0
142
0.0
142
1.0
142
0.0
142
0.0
142
0.0
142
0.0
142
1.0
179
     0
144
0.0208333333333333
144
0.0
144
0.0
144
0.0
144
0.0
144
0.0208333333333333
144
0.0
144
0.0
144
0.0
144
0.0
144
1.0
144
0.0
144
0.0
144
0.0
144
0.0
144
1.0
147
0.0208333333333333
147
0.0
147
0.0
147
0.0
147
0.0
147
0.0208333333333333
147
0.0
147
0.0
147
0.0
147
0.0
147
1.0
147
0.0
147
0.0
147
0.0
147
0.0
147
1.0
  0
MLEADERSTYLE
  5
1242
102
{ACAD_REACTORS
330
1241
102
}
330
1241
100
AcDbMLeaderStyle
170
     2
171
     1
172
     0
 90
        2
 40
0.0
 41
0.0
173
     1
 91
-1056964608
340
10B6
 92
       -2
290
     1
 42
0.09
291
     1
 43
0.36
  3
Standard
 44
0.18
300

342
10B4
174
     1
178
     6
175
     1
176
     0
 93
-1056964608
 45
0.18
292
     0
297
     0
 46
0.18
 94
-1056964608
 47
1.0
 49
1.0
140
1.0
293
     1
141
0.0
294
     1
177
     0
142
1.0
295
     0
296
     0
143
0.125
1001
ACAD_MLEADERVER
1070
     2
  0
MLINESTYLE
  5
10BA
102
{ACAD_REACTORS
330
10B9
102
}
330
10B9
100
AcDbMlineStyle
  2
STANDARD
 70
     0
  3

 62
   256
 51
90.0
 52
90.0
 71
     2
 49
0.5
 62
   256
  6
BYLAYER
 49
-0.5
 62
   256
  6
BYLAYER
  0
PLOTSETTINGS
  5
1256
102
{ACAD_REACTORS
330
10BB
102
}
330
10BB
100
AcDbPlotSettings
  1
1055 24x36 BW
  2
1055B&WDraftShaded.pc3
  4
User257
  6

 40
14.98600006103515
 41
8.297271728515625
 42
14.9859619140625
 43
8.29736328125
 44
914.3153076171875
 45
1269.915283203125
 46
0.0
 47
0.0
 48
0.0
 49
0.0
140
0.0
141
0.0
142
1.0
143
1.0
 70
  2800
 72
     0
 73
     2
 74
     1
  7
1055B&WFullDraftShaded.ctb
 75
    16
147
1.0
 76
     0
 77
     2
 78
   300
148
-75.74468520391772
149
-27.53050504688192
1001
ACAD_PSEXT
1000
1055B&WDraftShaded.pc3
1000
HP DesignJet 1055CM by HP
1000
FRONT
1000

1070
     0
  0
PLOTSETTINGS
  5
1258
102
{ACAD_REACTORS
330
10BB
102
}
330
10BB
100
AcDbPlotSettings
  1
1055 24x36 BW Final
  2
1055B&WFinalShaded.pc3
  4
User257
  6

 40
14.98600006103515
 41
8.297271728515625
 42
14.9859619140625
 43
8.29736328125
 44
914.357666015625
 45
1269.957641601562
 46
0.0
 47
0.0
 48
0.0
 49
0.0
140
0.0
141
0.0
142
1.0
143
1.0
 70
  2800
 72
     0
 73
     2
 74
     1
  7
1055B&WFullFinalShaded.ctb
 75
    16
147
1.0
 76
     0
 77
     2
 78
   300
148
-75.74468520391772
149
-27.53050504688192
1001
ACAD_PSEXT
1000
1055B&WFinalShaded.pc3
1000
HP DesignJet 1055CM by HP
1000
FRONT
1000

1070
     0
  0
PLOTSETTINGS
  5
1259
102
{ACAD_REACTORS
330
10BB
102
}
330
10BB
100
AcDbPlotSettings
  1
1055 24x36 Color
  2
1055ColorDraftShaded.pc3
  4
User257
  6

 40
14.98600006103515
 41
8.297271728515625
 42
14.9859619140625
 43
8.29736328125
 44
914.3153076171875
 45
1269.915283203125
 46
0.0
 47
0.0
 48
0.0
 49
0.0
140
0.0
141
0.0
142
1.0
143
1.0
 70
  2800
 72
     0
 73
     2
 74
     1
  7
Color.ctb
 75
    16
147
1.0
 76
     0
 77
     2
 78
   300
148
-75.74468520391772
149
-27.53050504688192
1001
ACAD_PSEXT
1000
1055ColorDraftShaded.pc3
1000
HP DesignJet 1055CM by HP
1000
FRONT
1000

1070
     0
  0
PLOTSETTINGS
  5
125A
102
{ACAD_REACTORS
330
10BB
102
}
330
10BB
100
AcDbPlotSettings
  1
1055 24x36 Color Shaded
  2
1055ColorDraftShaded.pc3
  4
User257
  6

 40
14.98600006103515
 41
8.297271728515625
 42
14.9859619140625
 43
8.29736328125
 44
914.3153076171875
 45
1269.915283203125
 46
0.0
 47
0.0
 48
0.0
 49
0.0
140
0.0
141
0.0
142
1.0
143
1.0
 70
  2800
 72
     0
 73
     2
 74
     1
  7
1055ColorFullDraftShaded.ctb
 75
    16
147
1.0
 76
     0
 77
     2
 78
   300
148
-75.74468520391772
149
-27.53050504688192
1001
ACAD_PSEXT
1000
1055ColorDraftShaded.pc3
1000
HP DesignJet 1055CM by HP
1000
FRONT
1000

1070
     0
  0
PLOTSETTINGS
  5
125B
102
{ACAD_REACTORS
330
10BB
102
}
330
10BB
100
AcDbPlotSettings
  1
1055 30x42 BW
  2
1055B&WDraftShaded.pc3
  4
User257
  6

 40
14.98600006103515
 41
8.297271728515625
 42
14.9859619140625
 43
8.29736328125
 44
914.3153076171875
 45
1269.915283203125
 46
0.0
 47
0.0
 48
0.0
 49
0.0
140
0.0
141
0.0
142
1.0
143
1.0
 70
  2800
 72
     0
 73
     1
 74
     1
  7
1055B&WFullDraftShaded.ctb
 75
    16
147
1.0
 76
     0
 77
     2
 78
   300
148
-75.74468520391772
149
-27.53050504688192
1001
ACAD_PSEXT
1000
1055B&WDraftShaded.pc3
1000
HP DesignJet 1055CM by HP
1000
FRONT
1000

1070
     0
  0
PLOTSETTINGS
  5
125C
102
{ACAD_REACTORS
330
10BB
102
}
330
10BB
100
AcDbPlotSettings
  1
1055 30x42 BW Final
  2
1055B&WFinalShaded.pc3
  4
User257
  6

 40
14.98600006103515
 41
8.297271728515625
 42
14.9859619140625
 43
8.29736328125
 44
914.357666015625
 45
1269.957641601562
 46
0.0
 47
0.0
 48
0.0
 49
0.0
140
0.0
141
0.0
142
1.0
143
1.0
 70
  2800
 72
     0
 73
     1
 74
     1
  7
1055B&WFullFinalShaded.ctb
 75
    16
147
1.0
 76
     0
 77
     2
 78
   300
148
-75.74468520391772
149
-27.53050504688192
1001
ACAD_PSEXT
1000
1055B&WFinalShaded.pc3
1000
HP DesignJet 1055CM by HP
1000
FRONT
1000

1070
     0
  0
PLOTSETTINGS
  5
125D
102
{ACAD_REACTORS
330
10BB
102
}
330
10BB
100
AcDbPlotSettings
  1
1055 B&W Draft
  2
1055B&WDraftShaded.pc3
  4
User257
  6

 40
4.995333194732666
 41
8.297271728515625
 42
4.99530029296875
 43
8.29736328125
 44
914.3153076171875
 45
1269.915283203125
 46
0.0
 47
0.0
 48
0.0
 49
0.0
140
0.0
141
0.0
142
1.0
143
30.0
 70
 11936
 72
     0
 73
     2
 74
     1
  7
1055B&WFullDraftShaded.ctb
 75
     0
147
3.484472351238056
 76
     0
 77
     2
 78
   300
148
-119.4582094169044
149
-58.17053554795709
1001
ACAD_PSEXT
1000
1055B&WDraftShaded.pc3
1000
HP DesignJet 1055CM by HP
1000
\\aqua-srv01
1000

1070
     0
  0
PLOTSETTINGS
  5
125E
102
{ACAD_REACTORS
330
10BB
102
}
330
10BB
100
AcDbPlotSettings
  1
1055 B&W Final
  2
1055B&WFinalShaded.pc3
  4
User257
  6

 40
4.995333194732666
 41
8.297271728515625
 42
4.99530029296875
 43
8.29736328125
 44
914.357666015625
 45
1269.957641601562
 46
0.0
 47
0.0
 48
0.0
 49
0.0
140
0.0
141
0.0
142
1.0
143
30.0
 70
 11936
 72
     0
 73
     2
 74
     1
  7
1055B&WFullFinalShaded.ctb
 75
     0
147
3.484472351238056
 76
     0
 77
     2
 78
   300
148
-119.4582094169044
149
-58.17053554795709
1001
ACAD_PSEXT
1000
1055B&WFinalShaded.pc3
1000
HP DesignJet 1055CM by HP
1000
\\aqua-srv01
1000

1070
     0
  0
PLOTSETTINGS
  5
125F
102
{ACAD_REACTORS
330
10BB
102
}
330
10BB
100
AcDbPlotSettings
  1
1055 BW Half
  2
1055B&WDraftShaded.pc3
  4
User257
  6

 40
14.98600006103515
 41
8.297271728515625
 42
14.9859619140625
 43
8.29736328125
 44
914.3153076171875
 45
1269.915283203125
 46
0.0
 47
0.0
 48
0.0
 49
0.0
140
0.0
141
0.0
142
1.0
143
2.0
 70
  2800
 72
     0
 73
     2
 74
     1
  7
1055B&WFullDraftShaded.ctb
 75
    17
147
0.5
 76
     0
 77
     2
 78
   300
148
-75.74468520391772
149
-27.53050504688192
1001
ACAD_PSEXT
1000
1055B&WDraftShaded.pc3
1000
HP DesignJet 1055CM by HP
1000
FRONT
1000

1070
     0
  0
PLOTSETTINGS
  5
1260
102
{ACAD_REACTORS
330
10BB
102
}
330
10BB
100
AcDbPlotSettings
  1
1055 Color Draft
  2
1055ColorDraftShaded.pc3
  4
User257
  6

 40
4.995333194732666
 41
8.297271728515625
 42
4.99530029296875
 43
8.29736328125
 44
914.3153076171875
 45
1269.915283203125
 46
0.0
 47
0.0
 48
0.0
 49
0.0
140
0.0
141
0.0
142
1.0
143
30.0
 70
 11936
 72
     0
 73
     2
 74
     1
  7
1055ColorFullDraftShaded.ctb
 75
     0
147
3.484472351238056
 76
     0
 77
     2
 78
   300
148
-119.4582094169044
149
-58.17053554795709
1001
ACAD_PSEXT
1000
1055ColorDraftShaded.pc3
1000
HP DesignJet 1055CM by HP
1000
\\aqua-srv01
1000

1070
     0
  0
PLOTSETTINGS
  5
1261
102
{ACAD_REACTORS
330
10BB
102
}
330
10BB
100
AcDbPlotSettings
  1
1055 Color Final
  2
1055ColorFinalShaded.pc3
  4
User257
  6

 40
4.995333194732666
 41
8.297271728515625
 42
4.99530029296875
 43
8.29736328125
 44
914.357666015625
 45
1269.957641601562
 46
0.0
 47
0.0
 48
0.0
 49
0.0
140
0.0
141
0.0
142
1.0
143
30.0
 70
 11936
 72
     0
 73
     2
 74
     1
  7
1055ColorFullFinalShaded.ctb
 75
     0
147
3.484472351238056
 76
     0
 77
     2
 78
   300
148
-119.4582094169044
149
-58.17053554795709
1001
ACAD_PSEXT
1000
1055ColorFinalShaded.pc3
1000
HP DesignJet 1055CM by HP
1000
\\aqua-srv01
1000

1070
     0
  0
PLOTSETTINGS
  5
1262
102
{ACAD_REACTORS
330
10BB
102
}
330
10BB
100
AcDbPlotSettings
  1
1055+ 24x36 BW
  2
1055_PLUS_B&WDraftShaded.pc3
  4
User257
  6

 40
14.98600006103515
 41
8.297271728515625
 42
14.9859619140625
 43
8.29736328125
 44
914.3153076171875
 45
1269.915283203125
 46
0.0
 47
0.0
 48
0.0
 49
0.0
140
0.0
141
0.0
142
1.0
143
1.0
 70
  2800
 72
     0
 73
     2
 74
     1
  7
1055B&WFullDraftShaded.ctb
 75
    16
147
1.0
 76
     0
 77
     2
 78
   300
148
-75.74468520391772
149
-27.53050504688192
1001
ACAD_PSEXT
1000
1055_PLUS_B&WDraftShaded.pc3
1000
HP DesignJet 1055CM by HP
1000
FRONT
1000

1070
     0
  0
PLOTSETTINGS
  5
1263
102
{ACAD_REACTORS
330
10BB
102
}
330
10BB
100
AcDbPlotSettings
  1
1055+ 24x36 BW Final
  2
1055_PLUS_B&WFinalShaded.pc3
  4
User257
  6

 40
14.98600006103515
 41
8.297271728515625
 42
14.9859619140625
 43
8.29736328125
 44
914.357666015625
 45
1269.957641601562
 46
0.0
 47
0.0
 48
0.0
 49
0.0
140
0.0
141
0.0
142
1.0
143
1.0
 70
  2800
 72
     0
 73
     2
 74
     1
  7
1055B&WFullFinalShaded.ctb
 75
    16
147
1.0
 76
     0
 77
     2
 78
   300
148
-75.74468520391772
149
-27.53050504688192
1001
ACAD_PSEXT
1000
1055_PLUS_B&WFinalShaded.pc3
1000
HP DesignJet 1055CM by HP
1000
FRONT
1000

1070
     0
  0
PLOTSETTINGS
  5
1264
102
{ACAD_REACTORS
330
10BB
102
}
330
10BB
100
AcDbPlotSettings
  1
1055+ 24x36 Color
  2
1055_PLUS_ColorDraftShaded.pc3
  4
User257
  6

 40
14.98600006103515
 41
8.297271728515625
 42
14.9859619140625
 43
8.29736328125
 44
914.3153076171875
 45
1269.915283203125
 46
0.0
 47
0.0
 48
0.0
 49
0.0
140
0.0
141
0.0
142
1.0
143
1.0
 70
  2800
 72
     0
 73
     2
 74
     1
  7
Color.ctb
 75
    16
147
1.0
 76
     0
 77
     2
 78
   300
148
-75.74468520391772
149
-27.53050504688192
1001
ACAD_PSEXT
1000
1055_PLUS_ColorDraftShaded.pc3
1000
HP DesignJet 1055CM by HP
1000
FRONT
1000

1070
     0
  0
PLOTSETTINGS
  5
1265
102
{ACAD_REACTORS
330
10BB
102
}
330
10BB
100
AcDbPlotSettings
  1
1055+ 24x36 Color Shaded
  2
1055_PLUS_ColorDraftShaded.pc3
  4
User257
  6

 40
14.98600006103515
 41
8.297271728515625
 42
14.9859619140625
 43
8.29736328125
 44
914.3153076171875
 45
1269.915283203125
 46
0.0
 47
0.0
 48
0.0
 49
0.0
140
0.0
141
0.0
142
1.0
143
1.0
 70
  2800
 72
     0
 73
     2
 74
     1
  7
1055ColorFullDraftShaded.ctb
 75
    16
147
1.0
 76
     0
 77
     2
 78
   300
148
-75.74468520391772
149
-27.53050504688192
1001
ACAD_PSEXT
1000
1055_PLUS_ColorDraftShaded.pc3
1000
HP DesignJet 1055CM by HP
1000
FRONT
1000

1070
     0
  0
PLOTSETTINGS
  5
1266
102
{ACAD_REACTORS
330
10BB
102
}
330
10BB
100
AcDbPlotSettings
  1
1055+ 30x42 BW
  2
1055_PLUS_B&WDraftShaded.pc3
  4
User257
  6

 40
14.98600006103515
 41
8.297271728515625
 42
14.9859619140625
 43
8.29736328125
 44
914.3153076171875
 45
1269.915283203125
 46
0.0
 47
0.0
 48
0.0
 49
0.0
140
0.0
141
0.0
142
1.0
143
1.0
 70
  2800
 72
     0
 73
     1
 74
     1
  7
1055B&WFullDraftShaded.ctb
 75
    16
147
1.0
 76
     0
 77
     2
 78
   300
148
-75.74468520391772
149
-27.53050504688192
1001
ACAD_PSEXT
1000
1055_PLUS_B&WDraftShaded.pc3
1000
HP DesignJet 1055CM by HP
1000
FRONT
1000

1070
     0
  0
PLOTSETTINGS
  5
1267
102
{ACAD_REACTORS
330
10BB
102
}
330
10BB
100
AcDbPlotSettings
  1
1055+ 30x42 BW Final
  2
1055_PLUS_B&WFinalShaded.pc3
  4
User257
  6

 40
14.98600006103515
 41
8.297271728515625
 42
14.9859619140625
 43
8.29736328125
 44
914.357666015625
 45
1269.957641601562
 46
0.0
 47
0.0
 48
0.0
 49
0.0
140
0.0
141
0.0
142
1.0
143
1.0
 70
  2800
 72
     0
 73
     1
 74
     1
  7
1055B&WFullFinalShaded.ctb
 75
    16
147
1.0
 76
     0
 77
     2
 78
   300
148
-75.74468520391772
149
-27.53050504688192
1001
ACAD_PSEXT
1000
1055_PLUS_B&WFinalShaded.pc3
1000
HP DesignJet 1055CM by HP
1000
FRONT
1000

1070
     0
  0
PLOTSETTINGS
  5
1268
102
{ACAD_REACTORS
330
10BB
102
}
330
10BB
100
AcDbPlotSettings
  1
1055+ B&W Draft
  2
1055_PLUS_B&WDraftShaded.pc3
  4
User257
  6

 40
4.995333194732666
 41
13.2926607131958
 42
4.99530029296875
 43
13.292724609375
 44
914.3153076171875
 45
1269.915283203125
 46
0.0
 47
0.0
 48
0.0
 49
0.0
140
0.0
141
0.0
142
1.0
143
30.0
 70
 11936
 72
     0
 73
     2
 74
     1
  7
1055B&WFullDraftShaded.ctb
 75
     0
147
3.484472351238056
 76
     0
 77
     2
 78
   300
148
-119.4582094169044
149
-58.17053554795709
1001
ACAD_PSEXT
1000
1055_PLUS_B&WDraftShaded.pc3
1000
HP DesignJet 1055CM by HP
1000
\\aqua-srv01
1000

1070
     0
  0
PLOTSETTINGS
  5
1269
102
{ACAD_REACTORS
330
10BB
102
}
330
10BB
100
AcDbPlotSettings
  1
1055+ B&W Final
  2
1055_PLUS_B&WFinalShaded.pc3
  4
User257
  6

 40
4.995333194732666
 41
13.2926607131958
 42
4.99530029296875
 43
13.292724609375
 44
914.357666015625
 45
1269.957641601562
 46
0.0
 47
0.0
 48
0.0
 49
0.0
140
0.0
141
0.0
142
1.0
143
30.0
 70
 11936
 72
     0
 73
     2
 74
     1
  7
1055B&WFullFinalShaded.ctb
 75
     0
147
3.484472351238056
 76
     0
 77
     2
 78
   300
148
-119.4582094169044
149
-58.17053554795709
1001
ACAD_PSEXT
1000
1055_PLUS_B&WFinalShaded.pc3
1000
HP DesignJet 1055CM by HP
1000
\\aqua-srv01
1000

1070
     0
  0
PLOTSETTINGS
  5
126A
102
{ACAD_REACTORS
330
10BB
102
}
330
10BB
100
AcDbPlotSettings
  1
1055+ BW Half
  2
1055_PLUS_B&WDraftShaded.pc3
  4
User257
  6

 40
14.98600006103515
 41
8.297271728515625
 42
14.9859619140625
 43
8.29736328125
 44
914.3153076171875
 45
1269.915283203125
 46
0.0
 47
0.0
 48
0.0
 49
0.0
140
0.0
141
0.0
142
1.0
143
2.0
 70
  2800
 72
     0
 73
     2
 74
     1
  7
1055B&WFullDraftShaded.ctb
 75
    17
147
0.5
 76
     0
 77
     2
 78
   300
148
-75.74468520391772
149
-27.53050504688192
1001
ACAD_PSEXT
1000
1055_PLUS_B&WDraftShaded.pc3
1000
HP DesignJet 1055CM by HP
1000
FRONT
1000

1070
     0
  0
PLOTSETTINGS
  5
126B
102
{ACAD_REACTORS
330
10BB
102
}
330
10BB
100
AcDbPlotSettings
  1
1055+ Color Draft
  2
1055_PLUS_ColorDraftShaded.pc3
  4
User257
  6

 40
4.995333194732666
 41
8.297271728515625
 42
4.99530029296875
 43
8.29736328125
 44
914.3153076171875
 45
1269.915283203125
 46
0.0
 47
0.0
 48
0.0
 49
0.0
140
0.0
141
0.0
142
1.0
143
30.0
 70
 11936
 72
     0
 73
     2
 74
     1
  7
1055ColorFullDraftShaded.ctb
 75
     0
147
3.484472351238056
 76
     0
 77
     2
 78
   300
148
-119.4582094169044
149
-58.17053554795709
1001
ACAD_PSEXT
1000
1055_PLUS_ColorDraftShaded.pc3
1000
HP DesignJet 1055CM by HP
1000
\\aqua-srv01
1000

1070
     0
  0
PLOTSETTINGS
  5
126C
102
{ACAD_REACTORS
330
10BB
102
}
330
10BB
100
AcDbPlotSettings
  1
1055+ Color Final
  2
1055_PLUS_ColorFinalShaded.pc3
  4
User257
  6

 40
4.995333194732666
 41
13.2926607131958
 42
4.99530029296875
 43
13.292724609375
 44
914.357666015625
 45
1269.957641601562
 46
0.0
 47
0.0
 48
0.0
 49
0.0
140
0.0
141
0.0
142
1.0
143
30.0
 70
 11936
 72
     0
 73
     2
 74
     1
  7
1055ColorFullFinalShaded.ctb
 75
     0
147
3.484472351238056
 76
     0
 77
     2
 78
   300
148
-119.4582094169044
149
-58.17053554795709
1001
ACAD_PSEXT
1000
1055_PLUS_ColorFinalShaded.pc3
1000
HP DesignJet 1055CM by HP
1000
\\aqua-srv01
1000

1070
     0
  0
PLOTSETTINGS
  5
126D
102
{ACAD_REACTORS
330
10BB
102
}
330
10BB
100
AcDbPlotSettings
  1
_1055 22x34 True Centered BW
  2
1055B&WDraftShaded 24x36 true.pc3
  4
User1639
  6

 40
0.0
 41
0.0
 42
0.0
 43
0.0
 44
863.6000366210938
 45
558.7999877929687
 46
379.1860116761152
 47
224.9166389522296
 48
0.0
 49
0.0
140
0.0
141
0.0
142
1.0
143
1.0
 70
  2804
 72
     0
 73
     0
 74
     1
  7
1055B&WFullDraftShaded.ctb
 75
    16
147
1.0
 76
     0
 77
     2
 78
   300
148
-75.74468520391772
149
-27.53050504688192
1001
ACAD_PSEXT
1000
1055B&WDraftShaded 24x36 true.pc3
1000
HP DesignJet 1055CM by HP
1000
FRONT
1000

1070
     0
  0
PLOTSETTINGS
  5
126E
102
{ACAD_REACTORS
330
10BB
102
}
330
10BB
100
AcDbPlotSettings
  1
_1055 24x36 True Centered BW
  2
1055B&WDraftShaded 24x36 true.pc3
  4
User1308
  6

 40
14.98600006103515
 41
8.297332763671875
 42
14.9859619140625
 43
8.29736328125
 44
914.3153076171875
 45
609.5153198242187
 46
389.5576661866133
 47
241.9769569453936
 48
0.0
 49
0.0
140
0.0
141
0.0
142
1.0
143
1.0
 70
  2804
 72
     0
 73
     0
 74
     1
  7
1055B&WFullDraftShaded.ctb
 75
    16
147
1.0
 76
     0
 77
     2
 78
   300
148
-75.74468520391772
149
-27.53050504688192
1001
ACAD_PSEXT
1000
1055B&WDraftShaded 24x36 true.pc3
1000
HP DesignJet 1055CM by HP
1000
FRONT
1000

1070
     0
  0
PLOTSETTINGS
  5
126F
102
{ACAD_REACTORS
330
10BB
102
}
330
10BB
100
AcDbPlotSettings
  1
_1055 24x36 True Centered BW Final
  2
1055B&WFinalShaded 24x36 true.pc3
  4
User1308
  6

 40
14.98600006103515
 41
8.297332763671875
 42
14.9859619140625
 43
8.29736328125
 44
914.357666015625
 45
609.5576782226562
 46
389.578845385832
 47
241.9981361446124
 48
0.0
 49
0.0
140
0.0
141
0.0
142
1.0
143
1.0
 70
  2804
 72
     0
 73
     0
 74
     1
  7
1055B&WFullFinalShaded.ctb
 75
    16
147
1.0
 76
     0
 77
     2
 78
   300
148
-75.74468520391772
149
-27.53050504688192
1001
ACAD_PSEXT
1000
1055B&WFinalShaded 24x36 true.pc3
1000
HP DesignJet 1055CM by HP
1000
FRONT
1000

1070
     0
  0
PLOTSETTINGS
  5
1270
102
{ACAD_REACTORS
330
10BB
102
}
330
10BB
100
AcDbPlotSettings
  1
_1055 24x36 True Centered Color
  2
1055ColorDraftShaded 24x36 true.pc3
  4
User1308
  6

 40
14.98600006103515
 41
8.297332763671875
 42
14.9859619140625
 43
8.29736328125
 44
914.3153076171875
 45
609.5153198242187
 46
389.5576661866133
 47
241.9769569453936
 48
0.0
 49
0.0
140
0.0
141
0.0
142
1.0
143
1.0
 70
  2804
 72
     0
 73
     0
 74
     1
  7
1055ColorFullDraftShaded.ctb
 75
    16
147
1.0
 76
     0
 77
     2
 78
   300
148
-75.74468520391772
149
-27.53050504688192
1001
ACAD_PSEXT
1000
1055ColorDraftShaded 24x36 true.pc3
1000
HP DesignJet 1055CM by HP
1000
FRONT
1000

1070
     0
  0
PLOTSETTINGS
  5
1271
102
{ACAD_REACTORS
330
10BB
102
}
330
10BB
100
AcDbPlotSettings
  1
_1055 30x42 True Centered BW
  2
1055B&WDraftShaded 30x42 true.pc3
  4
User286
  6

 40
0.0
 41
0.0
 42
-0.08465576171875
 43
-0.084716796875
 44
761.9153442382812
 45
1066.71533203125
 46
326.5166450557452
 47
480.7860177796309
 48
0.0
 49
0.0
140
0.0
141
0.0
142
1.0
143
1.0
 70
  2804
 72
     0
 73
     1
 74
     1
  7
1055B&WFullDraftShaded.ctb
 75
    16
147
1.0
 76
     0
 77
     2
 78
   300
148
-75.74468520391772
149
-27.53050504688192
1001
ACAD_PSEXT
1000
1055B&WDraftShaded 30x42 true.pc3
1000
HP DesignJet 1055CM by HP
1000
FRONT
1000

1070
     0
  0
PLOTSETTINGS
  5
1272
102
{ACAD_REACTORS
330
10BB
102
}
330
10BB
100
AcDbPlotSettings
  1
_1055+ 22x34 True Centered BW
  2
1055_PLUS_B&WDraftShaded 24x36 true.pc3
  4
User1639
  6

 40
0.0
 41
0.0
 42
0.0
 43
0.0
 44
863.6000366210938
 45
558.7999877929687
 46
379.1860116761152
 47
224.9166389522296
 48
0.0
 49
0.0
140
0.0
141
0.0
142
1.0
143
1.0
 70
  2804
 72
     0
 73
     0
 74
     1
  7
1055B&WFullDraftShaded.ctb
 75
    16
147
1.0
 76
     0
 77
     2
 78
   300
148
-75.74468520391772
149
-27.53050504688192
1001
ACAD_PSEXT
1000
1055_PLUS_B&WDraftShaded 24x36 true.pc3
1000
HP DesignJet 1055CM by HP
1000
FRONT
1000

1070
     0
  0
PLOTSETTINGS
  5
1273
102
{ACAD_REACTORS
330
10BB
102
}
330
10BB
100
AcDbPlotSettings
  1
_1055+ 24x36 True Centered BW
  2
1055_PLUS_B&WDraftShaded 24x36 true.pc3
  4
User1308
  6

 40
14.98600006103515
 41
8.297332763671875
 42
14.9859619140625
 43
8.29736328125
 44
914.3153076171875
 45
609.5153198242187
 46
389.5576661866133
 47
241.9769569453936
 48
0.0
 49
0.0
140
0.0
141
0.0
142
1.0
143
1.0
 70
  2804
 72
     0
 73
     0
 74
     1
  7
1055B&WFullDraftShaded.ctb
 75
    16
147
1.0
 76
     0
 77
     2
 78
   300
148
-75.74468520391772
149
-27.53050504688192
1001
ACAD_PSEXT
1000
1055_PLUS_B&WDraftShaded 24x36 true.pc3
1000
HP DesignJet 1055CM by HP
1000
FRONT
1000

1070
     0
  0
PLOTSETTINGS
  5
1274
102
{ACAD_REACTORS
330
10BB
102
}
330
10BB
100
AcDbPlotSettings
  1
_1055+ 24x36 True Centered BW Final
  2
1055_PLUS_B&WFinalShaded 24x36 true.pc3
  4
User1308
  6

 40
14.98600006103515
 41
8.297332763671875
 42
14.9859619140625
 43
8.29736328125
 44
914.357666015625
 45
609.5576782226562
 46
389.578845385832
 47
241.9981361446124
 48
0.0
 49
0.0
140
0.0
141
0.0
142
1.0
143
1.0
 70
  2804
 72
     0
 73
     0
 74
     1
  7
1055B&WFullFinalShaded.ctb
 75
    16
147
1.0
 76
     0
 77
     2
 78
   300
148
-75.74468520391772
149
-27.53050504688192
1001
ACAD_PSEXT
1000
1055_PLUS_B&WFinalShaded 24x36 true.pc3
1000
HP DesignJet 1055CM by HP
1000
FRONT
1000

1070
     0
  0
PLOTSETTINGS
  5
1275
102
{ACAD_REACTORS
330
10BB
102
}
330
10BB
100
AcDbPlotSettings
  1
_1055+ 24x36 True Centered Color
  2
1055_PLUS_ColorDraftShaded 24x36 true.pc3
  4
User1308
  6

 40
14.98600006103515
 41
8.297332763671875
 42
14.9859619140625
 43
8.29736328125
 44
914.3153076171875
 45
609.5153198242187
 46
389.5576661866133
 47
241.9769569453936
 48
0.0
 49
0.0
140
0.0
141
0.0
142
1.0
143
1.0
 70
  2804
 72
     0
 73
     0
 74
     1
  7
1055ColorFullDraftShaded.ctb
 75
    16
147
1.0
 76
     0
 77
     2
 78
   300
148
-75.74468520391772
149
-27.53050504688192
1001
ACAD_PSEXT
1000
1055_PLUS_ColorDraftShaded 24x36 true.pc3
1000
HP DesignJet 1055CM by HP
1000
FRONT
1000

1070
     0
  0
PLOTSETTINGS
  5
1276
102
{ACAD_REACTORS
330
10BB
102
}
330
10BB
100
AcDbPlotSettings
  1
DWF BW 11x17 Fit
  2
DWF-BW_11x17.pc3
  4
UserDefinedImperial (17.00 x 11.00Inches)
  6

 40
0.0
 41
0.0
 42
0.0
 43
0.0
 44
431.7999877929687
 45
279.3999938964844
 46
80.99316641155249
 47
0.000000000000005
 48
0.0
 49
0.0
140
0.0
141
0.0
142
1.0
143
0.3900025492802298
 70
  2740
 72
     0
 73
     0
 74
     1
  7
1055B&WFullFinalShaded.ctb
 75
     0
147
2.564085803658341
 76
     0
 77
     2
 78
   300
148
-75.74468520391772
149
-27.53050504688192
1001
ACAD_PSEXT
1000
DWF-BW_11x17.pc3
1000
DWF eView (optimized for viewing)
1000
File
1000

1070
     0
  0
PLOTSETTINGS
  5
1277
102
{ACAD_REACTORS
330
10BB
102
}
330
10BB
100
AcDbPlotSettings
  1
DWF BW 11x17 Half
  2
DWF-BW_11x17.pc3
  4
UserDefinedImperial (17.00 x 11.00Inches)
  6

 40
0.0
 41
0.0
 42
0.0
 43
0.0
 44
431.7999877929687
 45
279.3999938964844
 46
189.5929905792686
 47
112.4583194761148
 48
0.0
 49
0.0
140
0.0
141
0.0
142
1.0
143
2.0
 70
  2740
 72
     0
 73
     0
 74
     1
  7
1055B&WFullFinalShaded.ctb
 75
    17
147
0.5
 76
     0
 77
     2
 78
   300
148
-75.74468520391772
149
-27.53050504688192
1001
ACAD_PSEXT
1000
DWF-BW_11x17.pc3
1000
DWF eView (optimized for viewing)
1000
File
1000

1070
     0
  0
PLOTSETTINGS
  5
1278
102
{ACAD_REACTORS
330
10BB
102
}
330
10BB
100
AcDbPlotSettings
  1
DWF BW 22x34
  2
DWF-BW_22x34.pc3
  4
UserDefinedImperial (34.00 x 22.00Inches)
  6

 40
0.0
 41
0.0
 42
0.0
 43
0.0
 44
863.5999755859375
 45
558.7999877929687
 46
379.1859811585372
 47
224.9166389522296
 48
0.0
 49
0.0
140
0.0
141
0.0
142
1.0
143
1.0
 70
  2740
 72
     0
 73
     0
 74
     1
  7
1055B&WFullFinalShaded.ctb
 75
    16
147
1.0
 76
     0
 77
     2
 78
   300
148
-75.74468520391772
149
-27.53050504688192
1001
ACAD_PSEXT
1000
DWF-BW_22x34.pc3
1000
DWF eView (optimized for viewing)
1000
File
1000

1070
     0
  0
PLOTSETTINGS
  5
1279
102
{ACAD_REACTORS
330
10BB
102
}
330
10BB
100
AcDbPlotSettings
  1
DWF BW 24x36
  2
DWF-BW_24x36.pc3
  4
UserDefinedImperial (36.00 x 24.00Inches)
  6

 40
0.0
 41
0.0
 42
0.0
 43
0.0
 44
914.4000244140626
 45
609.5999755859375
 46
404.5860055725996
 47
250.3166328487139
 48
0.0
 49
0.0
140
0.0
141
0.0
142
1.0
143
1.0
 70
  2740
 72
     0
 73
     0
 74
     1
  7
1055B&WFullFinalShaded.ctb
 75
    16
147
1.0
 76
     0
 77
     2
 78
   300
148
-75.74468520391772
149
-27.53050504688192
1001
ACAD_PSEXT
1000
DWF-BW_24x36.pc3
1000
DWF eView (optimized for viewing)
1000
File
1000

1070
     0
  0
PLOTSETTINGS
  5
127A
102
{ACAD_REACTORS
330
10BB
102
}
330
10BB
100
AcDbPlotSettings
  1
DWF BW 30x42
  2
DWF-BW_30x42.pc3
  4
UserDefinedImperial (42.00 x 30.00Inches)
  6

 40
0.0
 41
0.0
 42
0.0
 43
0.0
 44
1066.800048828125
 45
762.0
 46
480.7860177796309
 47
326.5166450557452
 48
0.0
 49
0.0
140
0.0
141
0.0
142
1.0
143
1.0
 70
  2740
 72
     0
 73
     0
 74
     1
  7
1055B&WFullFinalShaded.ctb
 75
    16
147
1.0
 76
     0
 77
     2
 78
   300
148
-75.74468520391772
149
-27.53050504688192
1001
ACAD_PSEXT
1000
DWF-BW_30x42.pc3
1000
DWF eView (optimized for viewing)
1000
File
1000

1070
     0
  0
PLOTSETTINGS
  5
127B
102
{ACAD_REACTORS
330
10BB
102
}
330
10BB
100
AcDbPlotSettings
  1
DWF BW 36x48
  2
DWF-BW_36x48.pc3
  4
UserDefinedImperial (48.00 x 36.00Inches)
  6

 40
0.0
 41
0.0
 42
0.0
 43
0.0
 44
1219.199951171875
 45
914.4000244140626
 46
556.9859689515058
 47
402.7166572627765
 48
0.0
 49
0.0
140
0.0
141
0.0
142
1.0
143
1.0
 70
  2740
 72
     0
 73
     0
 74
     1
  7
1055B&WFullFinalShaded.ctb
 75
    16
147
1.0
 76
     0
 77
     2
 78
   300
148
-75.74468520391772
149
-27.53050504688192
1001
ACAD_PSEXT
1000
DWF-BW_36x48.pc3
1000
DWF eView (optimized for viewing)
1000
File
1000

1070
     0
  0
PLOTSETTINGS
  5
127C
102
{ACAD_REACTORS
330
10BB
102
}
330
10BB
100
AcDbPlotSettings
  1
Laser5 11x17 Fit
  2
LaserJet5Shaded.pc3
  4
11x17
  6

 40
5.873749732971191
 41
5.027085304260253
 42
5.873748779296875
 43
5.027069091796875
 44
431.7999877929687
 45
279.3999938964844
 46
79.97401308328474
 47
0.0
 48
0.0
 49
0.0
140
0.0
141
0.0
142
1.0
143
0.4045605831172927
 70
  2740
 72
     0
 73
     0
 74
     1
  7
LaserJet5Shaded.ctb
 75
     0
147
2.471817675104729
 76
     0
 77
     2
 78
   300
148
-75.74468520391772
149
-27.53050504688192
1001
ACAD_PSEXT
1000
LaserJet5Shaded.pc3
1000
HP LaserJet 5Si
1000
\\aqua-srv01
1000

1070
     0
  0
PLOTSETTINGS
  5
127D
102
{ACAD_REACTORS
330
10BB
102
}
330
10BB
100
AcDbPlotSettings
  1
Laser5 11x17 Full
  2
LaserJet5Shaded.pc3
  4
11x17
  6

 40
5.873749732971191
 41
5.027085304260253
 42
5.873748779296875
 43
5.027069091796875
 44
431.7999877929687
 45
279.3999938964844
 46
157.4122380059187
 47
80.18956480595884
 48
0.0
 49
0.0
140
0.0
141
0.0
142
1.0
143
1.0
 70
  2724
 72
     0
 73
     0
 74
     1
  7
LaserJet5Shaded.ctb
 75
     0
147
2.433550528115671
 76
     0
 77
     2
 78
   300
148
-75.74468520391772
149
-27.53050504688192
1001
ACAD_PSEXT
1000
LaserJet5Shaded.pc3
1000
HP LaserJet 5Si
1000
\\aqua-srv01
1000

1070
     0
  0
PLOTSETTINGS
  5
127E
102
{ACAD_REACTORS
330
10BB
102
}
330
10BB
100
AcDbPlotSettings
  1
Laser5 11x17 Half
  2
LaserJet5Shaded.pc3
  4
11x17
  6

 40
5.873749732971191
 41
5.027085304260253
 42
5.873748779296875
 43
5.027069091796875
 44
431.7999877929687
 45
279.3999938964844
 46
183.7192413231345
 47
107.4312422780862
 48
0.0
 49
0.0
140
0.0
141
0.0
142
1.0
143
2.0
 70
  2740
 72
     0
 73
     0
 74
     1
  7
LaserJet5Shaded.ctb
 75
    17
147
0.5
 76
     0
 77
     2
 78
   300
148
-75.74468520391772
149
-27.53050504688192
1001
ACAD_PSEXT
1000
LaserJet5Shaded.pc3
1000
HP LaserJet 5Si
1000
\\aqua-srv01
1000

1070
     0
  0
PLOTSETTINGS
  5
127F
102
{ACAD_REACTORS
330
10BB
102
}
330
10BB
100
AcDbPlotSettings
  1
Laser5 8x11 Fit
  2
LaserJet5Shaded-8x11.pc3
  4
Letter
  6

 40
5.873749732971191
 41
5.027085304260253
 42
5.873748779296875
 43
5.027084350585937
 44
279.3999938964844
 45
215.8999938964844
 46
34.4346667826652
 47
0.0
 48
0.0
 49
0.0
140
0.0
141
0.0
142
1.0
143
0.5293607985003172
 70
  2740
 72
     0
 73
     0
 74
     1
  7
LaserJet5Shaded.ctb
 75
     0
147
1.889070748784206
 76
     0
 77
     2
 78
   300
148
-75.74468520391772
149
-27.53050504688192
1001
ACAD_PSEXT
1000
LaserJet5Shaded-8x11.pc3
1000
HP LaserJet 5Si
1000
\\aqua-srv01
1000

1070
     0
  0
PLOTSETTINGS
  5
1280
102
{ACAD_REACTORS
330
10BB
102
}
330
10BB
100
AcDbPlotSettings
  1
Laser5 8x11 Half
  2
LaserJet5Shaded-8x11.pc3
  4
Letter
  6

 40
5.873749732971191
 41
5.027085304260253
 42
5.873748779296875
 43
5.027084350585937
 44
279.3999938964844
 45
215.8999938964844
 46
107.5192443748923
 47
75.68123464869171
 48
0.0
 49
0.0
140
0.0
141
0.0
142
1.0
143
2.0
 70
  2740
 72
     0
 73
     0
 74
     1
  7
LaserJet5Shaded.ctb
 75
    17
147
0.5
 76
     0
 77
     2
 78
   300
148
-75.74468520391772
149
-27.53050504688192
1001
ACAD_PSEXT
1000
LaserJet5Shaded-8x11.pc3
1000
HP LaserJet 5Si
1000
\\aqua-srv01
1000

1070
     0
  0
PLOTSETTINGS
  5
1281
102
{ACAD_REACTORS
330
10BB
102
}
330
10BB
100
AcDbPlotSettings
  1
Laser5 8x11 Portrait Fit
  2
LaserJet5Shaded-8x11.pc3
  4
Letter
  6

 40
5.873749732971191
 41
5.027085304260253
 42
5.873748779296875
 43
5.027084350585937
 44
279.3999938964844
 45
215.8999938964844
 46
27.24653799736659
 47
0.0000000000000029
 48
0.0
 49
0.0
140
0.0
141
0.0
142
1.0
143
0.5111981924167587
 70
  2740
 72
     0
 73
     1
 74
     1
  7
LaserJet5Shaded.ctb
 75
     0
147
1.956188450652308
 76
     0
 77
     2
 78
   300
148
-75.74468520391772
149
-27.53050504688192
1001
ACAD_PSEXT
1000
LaserJet5Shaded-8x11.pc3
1000
HP LaserJet 5Si
1000
\\aqua-srv01
1000

1070
     0
  0
PLOTSETTINGS
  5
1282
102
{ACAD_REACTORS
330
10BB
102
}
330
10BB
100
AcDbPlotSettings
  1
LaserJet5 11x17
  2
LaserJet5Shaded.pc3
  4
11x17
  6

 40
7.111999988555908
 41
5.079999923706054
 42
7.11199951171875
 43
5.079986572265625
 44
279.3999938964844
 45
431.7999877929687
 46
0.0
 47
74.88489939702606
 48
0.0
 49
0.0
140
0.0
141
0.0
142
1.0
143
0.3551636250563743
 70
 11956
 72
     0
 73
     1
 74
     1
  7
LaserJet5Shaded.ctb
 75
     0
147
2.815603652658045
 76
     0
 77
     2
 78
   300
148
-119.4582094169044
149
-58.17053554795709
1001
ACAD_PSEXT
1000
LaserJet5Shaded.pc3
1000
HP LaserJet 5Si
1000
\\aqua-srv01
1000

1070
     0
  0
PLOTSETTINGS
  5
1283
102
{ACAD_REACTORS
330
10BB
102
}
330
10BB
100
AcDbPlotSettings
  1
LaserJet5 8.5x11
  2
LaserJet5Shaded-8x11.pc3
  4
Letter
  6

 40
5.873749732971191
 41
5.873734951019287
 42
6.55108642578125
 43
5.027084350585937
 44
279.3999938964844
 45
215.8999938964844
 46
28.40045128601757
 47
0.0000000000000046
 48
0.0
 49
0.0
140
0.0
141
0.0
142
1.0
143
0.4594207153946231
 70
 11956
 72
     0
 73
     0
 74
     1
  7
LaserJet5Shaded.ctb
 75
     0
147
2.176654135286525
 76
     0
 77
     2
 78
   300
148
-119.4582094169044
149
-58.17053554795709
1001
ACAD_PSEXT
1000
LaserJet5Shaded-8x11.pc3
1000
HP LaserJet 5Si
1000
CAD Area
1000

1070
     0
  0
PLOTSETTINGS
  5
1284
102
{ACAD_REACTORS
330
10BB
102
}
330
10BB
100
AcDbPlotSettings
  1
Oki9500 11x17 BW Fit
  2
OKI DOKI Color Laser.pc3
  4
Tabloid
  6

 40
5.027083396911621
 41
5.027085304260253
 42
5.027099609375
 43
5.027069091796875
 44
431.7999877929687
 45
279.3999938964844
 46
80.82067083627547
 47
0.0
 48
0.0
 49
0.0
140
0.0
141
0.0
142
1.0
143
0.4045605831172927
 70
  2740
 72
     0
 73
     0
 74
     1
  7
OKIB&WShaded.ctb
 75
     0
147
2.471817675104729
 76
     0
 77
     2
 78
   300
148
-75.74468520391772
149
-27.53050504688192
1001
ACAD_PSEXT
1000
OKI DOKI Color Laser.pc3
1000
OKI C9500(PCL)
1000
FRONT
1000

1070
     0
  0
PLOTSETTINGS
  5
1285
102
{ACAD_REACTORS
330
10BB
102
}
330
10BB
100
AcDbPlotSettings
  1
Oki9500 11x17 BW Full
  2
OKI DOKI Color Laser.pc3
  4
Tabloid
  6

 40
5.027083396911621
 41
5.027085304260253
 42
5.027099609375
 43
5.027069091796875
 44
431.7999877929687
 45
279.3999938964844
 46
158.2588957589094
 47
80.18956480595884
 48
0.0
 49
0.0
140
0.0
141
0.0
142
1.0
143
1.0
 70
  2724
 72
     0
 73
     0
 74
     1
  7
OKIB&WShaded.ctb
 75
     0
147
2.471817675104729
 76
     0
 77
     2
 78
   300
148
-75.74468520391772
149
-27.53050504688192
1001
ACAD_PSEXT
1000
OKI DOKI Color Laser.pc3
1000
OKI C9500(PCL)
1000
FRONT
1000

1070
     0
  0
PLOTSETTINGS
  5
1286
102
{ACAD_REACTORS
330
10BB
102
}
330
10BB
100
AcDbPlotSettings
  1
Oki9500 11x17 BW Half
  2
OKI DOKI Color Laser.pc3
  4
Tabloid
  6

 40
5.027083396911621
 41
5.027085304260253
 42
5.027099609375
 43
5.027069091796875
 44
431.7999877929687
 45
279.3999938964844
 46
184.5658990761252
 47
107.4312422780862
 48
0.0
 49
0.0
140
0.0
141
0.0
142
1.0
143
2.0
 70
  2740
 72
     0
 73
     0
 74
     1
  7
OKIB&WShaded.ctb
 75
    17
147
0.5
 76
     0
 77
     2
 78
   300
148
-75.74468520391772
149
-27.53050504688192
1001
ACAD_PSEXT
1000
OKI DOKI Color Laser.pc3
1000
OKI C9500(PCL)
1000
FRONT
1000

1070
     0
  0
PLOTSETTINGS
  5
1287
102
{ACAD_REACTORS
330
10BB
102
}
330
10BB
100
AcDbPlotSettings
  1
Oki9500 11x17 Color Fit
  2
OKI DOKI Color Laser.pc3
  4
Tabloid
  6

 40
5.027083396911621
 41
5.027085304260253
 42
5.027099609375
 43
5.027069091796875
 44
431.7999877929687
 45
279.3999938964844
 46
80.82067083627547
 47
0.0
 48
0.0
 49
0.0
140
0.0
141
0.0
142
1.0
143
0.4045605831172927
 70
  2740
 72
     0
 73
     0
 74
     1
  7
OKIColorShaded.ctb
 75
     0
147
2.471817675104729
 76
     0
 77
     2
 78
   300
148
-75.74468520391772
149
-27.53050504688192
1001
ACAD_PSEXT
1000
OKI DOKI Color Laser.pc3
1000
OKI C9500(PCL)
1000
FRONT
1000

1070
     0
  0
PLOTSETTINGS
  5
1288
102
{ACAD_REACTORS
330
10BB
102
}
330
10BB
100
AcDbPlotSettings
  1
Oki9500 11x17 Color Full
  2
OKI DOKI Color Laser.pc3
  4
Tabloid
  6

 40
5.027082920074462
 41
5.027085781097412
 42
5.027099609375
 43
5.027069091796875
 44
431.7999877929687
 45
279.3999938964844
 46
158.258895997328
 47
80.18956456754025
 48
0.0
 49
0.0
140
0.0
141
0.0
142
1.0
143
1.0
 70
  2724
 72
     0
 73
     0
 74
     1
  7
OKIColorShaded.ctb
 75
     0
147
2.471817675104729
 76
     0
 77
     2
 78
   300
148
-75.74468520391772
149
-27.53050504688192
1001
ACAD_PSEXT
1000
OKI DOKI Color Laser.pc3
1000
OKI C9600(PCL)
1000
FRONT
1000

1070
     0
  0
PLOTSETTINGS
  5
1289
102
{ACAD_REACTORS
330
10BB
102
}
330
10BB
100
AcDbPlotSettings
  1
Oki9500 11x17 Color Half
  2
OKI DOKI Color Laser.pc3
  4
Tabloid
  6

 40
5.027083396911621
 41
5.027085304260253
 42
5.027099609375
 43
5.027069091796875
 44
431.7999877929687
 45
279.3999938964844
 46
184.5658990761252
 47
107.4312422780862
 48
0.0
 49
0.0
140
0.0
141
0.0
142
1.0
143
2.0
 70
  2740
 72
     0
 73
     0
 74
     1
  7
OKIColorShaded.ctb
 75
    17
147
0.5
 76
     0
 77
     2
 78
   300
148
-75.74468520391772
149
-27.53050504688192
1001
ACAD_PSEXT
1000
OKI DOKI Color Laser.pc3
1000
OKI C9500(PCL)
1000
FRONT
1000

1070
     0
  0
PLOTSETTINGS
  5
128A
102
{ACAD_REACTORS
330
10BB
102
}
330
10BB
100
AcDbPlotSettings
  1
Oki9500 8x11 BW Fit
  2
OKI DOKI Color Laser8x11.pc3
  4
Letter
  6

 40
5.027083396911621
 41
5.027085304260253
 42
5.027099609375
 43
5.027084350585937
 44
279.3999938964844
 45
215.8999938964844
 46
35.28132453565591
 47
0.0
 48
0.0
 49
0.0
140
0.0
141
0.0
142
1.0
143
0.5293607985003172
 70
  2740
 72
     0
 73
     0
 74
     1
  7
OKIB&WShaded.ctb
 75
     0
147
1.889070748784206
 76
     0
 77
     2
 78
   300
148
-75.74468520391772
149
-27.53050504688192
1001
ACAD_PSEXT
1000
OKI DOKI Color Laser8x11.pc3
1000
OKI C9500(PCL)
1000
FRONT
1000

1070
     0
  0
PLOTSETTINGS
  5
128B
102
{ACAD_REACTORS
330
10BB
102
}
330
10BB
100
AcDbPlotSettings
  1
Oki9500 8x11 BW Portrait Fit
  2
OKI DOKI Color Laser8x11.pc3
  4
Letter
  6

 40
5.027083396911621
 41
5.027085304260253
 42
5.027099609375
 43
5.027084350585937
 44
279.3999938964844
 45
215.8999938964844
 46
28.0931957503573
 47
0.0000000000000029
 48
0.0
 49
0.0
140
0.0
141
0.0
142
1.0
143
0.5111981924167587
 70
  2740
 72
     0
 73
     1
 74
     1
  7
OKIB&WShaded.ctb
 75
     0
147
1.956188450652308
 76
     0
 77
     2
 78
   300
148
-75.74468520391772
149
-27.53050504688192
1001
ACAD_PSEXT
1000
OKI DOKI Color Laser8x11.pc3
1000
OKI C9500(PCL)
1000
FRONT
1000

1070
     0
  0
PLOTSETTINGS
  5
128C
102
{ACAD_REACTORS
330
10BB
102
}
330
10BB
100
AcDbPlotSettings
  1
Oki9500 8x11 Color Fit
  2
OKI DOKI Color Laser8x11.pc3
  4
Letter
  6

 40
5.027083396911621
 41
5.027085304260253
 42
5.027099609375
 43
5.027084350585937
 44
279.3999938964844
 45
215.8999938964844
 46
35.28132453565591
 47
0.0
 48
0.0
 49
0.0
140
0.0
141
0.0
142
1.0
143
0.5293607985003172
 70
  2740
 72
     0
 73
     0
 74
     1
  7
OKIColorShaded.ctb
 75
     0
147
1.889070748784206
 76
     0
 77
     2
 78
   300
148
-75.74468520391772
149
-27.53050504688192
1001
ACAD_PSEXT
1000
OKI DOKI Color Laser8x11.pc3
1000
OKI C9500(PCL)
1000
FRONT
1000

1070
     0
  0
PLOTSETTINGS
  5
128D
102
{ACAD_REACTORS
330
10BB
102
}
330
10BB
100
AcDbPlotSettings
  1
Oki9500 8x11 Color Portrait Fit
  2
OKI DOKI Color Laser8x11.pc3
  4
Letter
  6

 40
5.027083396911621
 41
5.027085304260253
 42
5.027099609375
 43
5.027084350585937
 44
279.3999938964844
 45
215.8999938964844
 46
28.0931957503573
 47
0.0000000000000029
 48
0.0
 49
0.0
140
0.0
141
0.0
142
1.0
143
0.5111981924167587
 70
  2740
 72
     0
 73
     1
 74
     1
  7
OKIColorShaded.ctb
 75
     0
147
1.956188450652308
 76
     0
 77
     2
 78
   300
148
-75.74468520391772
149
-27.53050504688192
1001
ACAD_PSEXT
1000
OKI DOKI Color Laser8x11.pc3
1000
OKI C9500(PCL)
1000
FRONT
1000

1070
     0
  0
PLOTSETTINGS
  5
128E
102
{ACAD_REACTORS
330
10BB
102
}
330
10BB
100
AcDbPlotSettings
  1
OKI9500 B&W 11x17
  2
OKI DOKI Color Laser.pc3
  4
11x17
  6

 40
5.873749732971191
 41
5.873734951019287
 42
5.873748779296875
 43
5.027069091796875
 44
431.7999877929687
 45
279.3999938964844
 46
72.38759962724653
 47
0.0000000000000057
 48
0.0
 49
0.0
140
0.0
141
0.0
142
1.0
143
0.3507677900220671
 70
 11956
 72
     0
 73
     0
 74
     1
  7
OKIB&WShaded.ctb
 75
     0
147
2.850888902704233
 76
     0
 77
     2
 78
   300
148
-119.4582094169044
149
-58.17053554795709
1001
ACAD_PSEXT
1000
OKI DOKI Color Laser.pc3
1000
HP LaserJet 5Si
1000
CAD Area
1000

1070
     0
  0
PLOTSETTINGS
  5
128F
102
{ACAD_REACTORS
330
10BB
102
}
330
10BB
100
AcDbPlotSettings
  1
OKI9500 B&W 8.5x11
  2
OKI DOKI Color Laser8x11.pc3
  4
Letter
  6

 40
5.873749732971191
 41
5.873734951019287
 42
6.55108642578125
 43
5.027084350585937
 44
279.3999938964844
 45
215.8999938964844
 46
28.40045128601757
 47
0.0000000000000046
 48
0.0
 49
0.0
140
0.0
141
0.0
142
1.0
143
0.4594207153946231
 70
 11956
 72
     0
 73
     0
 74
     1
  7
OKIB&WShaded.ctb
 75
     0
147
2.176654135286525
 76
     0
 77
     2
 78
   300
148
-119.4582094169044
149
-58.17053554795709
1001
ACAD_PSEXT
1000
OKI DOKI Color Laser8x11.pc3
1000
HP LaserJet 5Si
1000
CAD Area
1000

1070
     0
  0
PLOTSETTINGS
  5
1290
102
{ACAD_REACTORS
330
10BB
102
}
330
10BB
100
AcDbPlotSettings
  1
OKI9500 Color 11x17
  2
OKI DOKI Color Laser.pc3
  4
Tabloid
  6

 40
5.027083396911621
 41
5.027085304260253
 42
5.027099609375
 43
5.027069091796875
 44
431.7999877929687
 45
279.3999938964844
 46
72.80024597690952
 47
0.0
 48
0.0
 49
0.0
140
0.0
141
0.0
142
1.0
143
0.349665202263268
 70
 11956
 72
     0
 73
     0
 74
     1
  7
OKIColorShaded.ctb
 75
     0
147
2.859878516727796
 76
     0
 77
     2
 78
   300
148
-119.4582094169044
149
-58.17053554795709
1001
ACAD_PSEXT
1000
OKI DOKI Color Laser.pc3
1000
OKI C9500(PCL)
1000
FRONT
1000

1070
     0
  0
PLOTSETTINGS
  5
1291
102
{ACAD_REACTORS
330
10BB
102
}
330
10BB
100
AcDbPlotSettings
  1
OKI9500 Color 8.5x11
  2
OKI DOKI Color Laser8x11.pc3
  4
Letter
  6

 40
5.873749732971191
 41
5.873734951019287
 42
6.55108642578125
 43
5.027084350585937
 44
279.3999938964844
 45
215.8999938964844
 46
28.40045128601757
 47
0.0000000000000046
 48
0.0
 49
0.0
140
0.0
141
0.0
142
1.0
143
0.4594207153946231
 70
 11956
 72
     0
 73
     0
 74
     1
  7
OKIColorShaded.ctb
 75
     0
147
2.176654135286525
 76
     0
 77
     2
 78
   300
148
-119.4582094169044
149
-58.17053554795709
1001
ACAD_PSEXT
1000
OKI DOKI Color Laser8x11.pc3
1000
HP LaserJet 5Si
1000
CAD Area
1000

1070
     0
  0
PLOTSETTINGS
  5
1292
102
{ACAD_REACTORS
330
10BB
102
}
330
10BB
100
AcDbPlotSettings
  1
Oki9600 11x17 BW Fit
  2
9600 BW 11x17.pc3
  4
Tabloid
  6

 40
5.027082920074462
 41
5.027085781097412
 42
5.027099609375
 43
5.027069091796875
 44
431.7999877929687
 45
279.3999938964844
 46
80.82067130493244
 47
0.000000000000007
 48
0.0
 49
0.0
140
0.0
141
0.0
142
1.0
143
0.4045605838335077
 70
  2804
 72
     0
 73
     0
 74
     1
  7
OKIB&WShaded.ctb
 75
     0
147
2.47181767072874
 76
     0
 77
     2
 78
   300
148
-75.74468520391772
149
-27.53050504688192
1001
ACAD_PSEXT
1000
9600 BW 11x17.pc3
1000
OKI C9600(PCL)
1000
Expansion Area
1000

1070
     0
  0
PLOTSETTINGS
  5
1293
102
{ACAD_REACTORS
330
10BB
102
}
330
10BB
100
AcDbPlotSettings
  1
Oki9600 11x17 BW Full
  2
9600 BW 11x17.pc3
  4
Tabloid
  6

 40
5.027082920074462
 41
5.027085781097412
 42
5.027099609375
 43
5.027069091796875
 44
431.7999877929687
 45
279.3999938964844
 46
158.258895997328
 47
80.18956456754025
 48
0.0
 49
0.0
140
0.0
141
0.0
142
1.0
143
1.0
 70
  2788
 72
     0
 73
     0
 74
     1
  7
OKIB&WShaded.ctb
 75
     0
147
2.47181767072874
 76
     0
 77
     2
 78
   300
148
-75.74468520391772
149
-27.53050504688192
1001
ACAD_PSEXT
1000
9600 BW 11x17.pc3
1000
OKI C9600(PCL)
1000
Expansion Area
1000

1070
     0
  0
PLOTSETTINGS
  5
1294
102
{ACAD_REACTORS
330
10BB
102
}
330
10BB
100
AcDbPlotSettings
  1
Oki9600 11x17 BW Half
  2
9600 BW 11x17.pc3
  4
Tabloid
  6

 40
5.027082920074462
 41
5.027085781097412
 42
5.027099609375
 43
5.027069091796875
 44
431.7999877929687
 45
279.3999938964844
 46
184.5658993145439
 47
107.4312420396676
 48
0.0
 49
0.0
140
0.0
141
0.0
142
1.0
143
2.0
 70
  2788
 72
     0
 73
     0
 74
     1
  7
OKIB&WShaded.ctb
 75
     0
147
2.47181767072874
 76
     0
 77
     2
 78
   300
148
-75.74468520391772
149
-27.53050504688192
1001
ACAD_PSEXT
1000
9600 BW 11x17.pc3
1000
OKI C9600(PCL)
1000
Expansion Area
1000

1070
     0
  0
PLOTSETTINGS
  5
1295
102
{ACAD_REACTORS
330
10BB
102
}
330
10BB
100
AcDbPlotSettings
  1
Oki9600 11x17 Color Fit
  2
9600 Color 11x17.pc3
  4
Tabloid
  6

 40
5.027082920074462
 41
5.027085781097412
 42
5.027099609375
 43
5.027069091796875
 44
431.7999877929687
 45
279.3999938964844
 46
80.82067130493244
 47
0.000000000000007
 48
0.0
 49
0.0
140
0.0
141
0.0
142
1.0
143
0.4045605838335077
 70
  2804
 72
     0
 73
     0
 74
     1
  7
OKIColorShaded.ctb
 75
     0
147
2.47181767072874
 76
     0
 77
     2
 78
   300
148
-75.74468520391772
149
-27.53050504688192
1001
ACAD_PSEXT
1000
9600 Color 11x17.pc3
1000
OKI C9600(PCL)
1000
Expansion Area
1000

1070
     0
  0
PLOTSETTINGS
  5
1296
102
{ACAD_REACTORS
330
10BB
102
}
330
10BB
100
AcDbPlotSettings
  1
Oki9600 11x17 Color Full
  2
9600 Color 11x17.pc3
  4
Tabloid
  6

 40
5.027082920074462
 41
5.027085781097412
 42
5.027099609375
 43
5.027069091796875
 44
431.7999877929687
 45
279.3999938964844
 46
158.258895997328
 47
80.18956456754025
 48
0.0
 49
0.0
140
0.0
141
0.0
142
1.0
143
1.0
 70
  2788
 72
     0
 73
     0
 74
     1
  7
OKIColorShaded.ctb
 75
     0
147
2.47181767072874
 76
     0
 77
     2
 78
   300
148
-75.74468520391772
149
-27.53050504688192
1001
ACAD_PSEXT
1000
9600 Color 11x17.pc3
1000
OKI C9600(PCL)
1000
Expansion Area
1000

1070
     0
  0
PLOTSETTINGS
  5
1297
102
{ACAD_REACTORS
330
10BB
102
}
330
10BB
100
AcDbPlotSettings
  1
Oki9600 11x17 Color Half
  2
9600 Color 11x17.pc3
  4
Tabloid
  6

 40
5.027082920074462
 41
5.027085781097412
 42
5.027099609375
 43
5.027069091796875
 44
431.7999877929687
 45
279.3999938964844
 46
184.5658993145439
 47
107.4312420396676
 48
0.0
 49
0.0
140
0.0
141
0.0
142
1.0
143
2.0
 70
  2788
 72
     0
 73
     0
 74
     1
  7
OKIColorShaded.ctb
 75
     0
147
2.47181767072874
 76
     0
 77
     2
 78
   300
148
-75.74468520391772
149
-27.53050504688192
1001
ACAD_PSEXT
1000
9600 Color 11x17.pc3
1000
OKI C9600(PCL)
1000
Expansion Area
1000

1070
     0
  0
PLOTSETTINGS
  5
1298
102
{ACAD_REACTORS
330
10BB
102
}
330
10BB
100
AcDbPlotSettings
  1
Oki9600 8x11 BW Fit
  2
9600 BW 8.5x11.pc3
  4
Letter
  6

 40
5.027082920074462
 41
5.027070522308349
 42
5.027099609375
 43
5.027084350585937
 44
279.3999938964844
 45
215.8999938964844
 46
35.28131763668624
 47
0.0000000000000033
 48
0.0
 49
0.0
140
0.0
141
0.0
142
1.0
143
0.5293607604865011
 70
  2804
 72
     0
 73
     0
 74
     1
  7
OKIB&WShaded.ctb
 75
     0
147
1.889070884439876
 76
     0
 77
     2
 78
   300
148
-75.74468520391772
149
-27.53050504688192
1001
ACAD_PSEXT
1000
9600 BW 8.5x11.pc3
1000
OKI C9600(PCL)
1000
Expansion Area
1000

1070
     0
  0
PLOTSETTINGS
  5
1299
102
{ACAD_REACTORS
330
10BB
102
}
330
10BB
100
AcDbPlotSettings
  1
Oki9600 8x11 BW Portrait Fit
  2
9600 BW 8.5x11.pc3
  4
Letter
  6

 40
5.027082920074462
 41
5.027070522308349
 42
5.027099609375
 43
5.027084350585937
 44
279.3999938964844
 45
215.8999938964844
 46
28.09318833520237
 47
-0.0000000000000029
 48
0.0
 49
0.0
140
0.0
141
0.0
142
1.0
143
0.5111981557072135
 70
  2804
 72
     0
 73
     1
 74
     1
  7
OKIB&WShaded.ctb
 75
     0
147
1.956188591127753
 76
     0
 77
     2
 78
   300
148
-75.74468520391772
149
-27.53050504688192
1001
ACAD_PSEXT
1000
9600 BW 8.5x11.pc3
1000
OKI C9600(PCL)
1000
Expansion Area
1000

1070
     0
  0
PLOTSETTINGS
  5
129A
102
{ACAD_REACTORS
330
10BB
102
}
330
10BB
100
AcDbPlotSettings
  1
Oki9600 8x11 Color Fit
  2
9600 Color 8.5x11.pc3
  4
Letter
  6

 40
5.027082920074462
 41
5.027070522308349
 42
5.027099609375
 43
5.027084350585937
 44
279.3999938964844
 45
215.8999938964844
 46
35.28131763668624
 47
0.0000000000000033
 48
0.0
 49
0.0
140
0.0
141
0.0
142
1.0
143
0.5293607604865011
 70
  2804
 72
     0
 73
     0
 74
     1
  7
OKIColorShaded.ctb
 75
     0
147
1.889070884439876
 76
     0
 77
     2
 78
   300
148
-75.74468520391772
149
-27.53050504688192
1001
ACAD_PSEXT
1000
9600 Color 8.5x11.pc3
1000
OKI C9600(PCL)
1000
Expansion Area
1000

1070
     0
  0
PLOTSETTINGS
  5
129B
102
{ACAD_REACTORS
330
10BB
102
}
330
10BB
100
AcDbPlotSettings
  1
Oki9600 8x11 Color Portrait Fit
  2
9600 Color 8.5x11.pc3
  4
Letter
  6

 40
5.027082920074462
 41
5.027070522308349
 42
5.027099609375
 43
5.027084350585937
 44
279.3999938964844
 45
215.8999938964844
 46
28.09318833520237
 47
-0.0000000000000029
 48
0.0
 49
0.0
140
0.0
141
0.0
142
1.0
143
0.5111981557072135
 70
  2804
 72
     0
 73
     1
 74
     1
  7
OKIColorShaded.ctb
 75
     0
147
1.956188591127753
 76
     0
 77
     2
 78
   300
148
-75.74468520391772
149
-27.53050504688192
1001
ACAD_PSEXT
1000
9600 Color 8.5x11.pc3
1000
OKI C9600(PCL)
1000
Expansion Area
1000

1070
     0
  0
PLOTSETTINGS
  5
129C
102
{ACAD_REACTORS
330
10BB
102
}
330
10BB
100
AcDbPlotSettings
  1
OKI9600 B&W 11x17
  2
9600 BW 11x17.pc3
  4
Tabloid
  6

 40
5.027082920074462
 41
5.027085781097412
 42
5.027099609375
 43
5.027069091796875
 44
431.7999877929687
 45
279.3999938964844
 46
72.80024645976547
 47
-0.0000000000000027
 48
0.0
 49
0.0
140
0.0
141
0.0
142
1.0
143
0.3496652028822988
 70
 11956
 72
     0
 73
     0
 74
     1
  7
OKIB&WShaded.ctb
 75
     0
147
2.859878511664802
 76
     0
 77
     2
 78
   300
148
-119.4582094169044
149
-58.17053554795709
1001
ACAD_PSEXT
1000
9600 BW 11x17.pc3
1000
OKI C9600(PCL)
1000
Expansion Area
1000

1070
     0
  0
PLOTSETTINGS
  5
129D
102
{ACAD_REACTORS
330
10BB
102
}
330
10BB
100
AcDbPlotSettings
  1
OKI9600 B&W 8.5x11
  2
9600 BW 8.5x11.pc3
  4
Letter
  6

 40
5.027082920074462
 41
5.027070522308349
 42
5.027099609375
 43
5.027084350585937
 44
279.3999938964844
 45
215.8999938964844
 46
29.15175911978468
 47
0.0000000000000065
 48
0.0
 49
0.0
140
0.0
141
0.0
142
1.0
143
0.4575310722549676
 70
 11956
 72
     0
 73
     0
 74
     1
  7
OKIB&WShaded.ctb
 75
     0
147
2.185643906262899
 76
     0
 77
     2
 78
   300
148
-119.4582094169044
149
-58.17053554795709
1001
ACAD_PSEXT
1000
9600 BW 8.5x11.pc3
1000
OKI C9600(PCL)
1000
Expansion Area
1000

1070
     0
  0
PLOTSETTINGS
  5
129E
102
{ACAD_REACTORS
330
10BB
102
}
330
10BB
100
AcDbPlotSettings
  1
OKI9600 Color 11x17
  2
9600 Color 11x17.pc3
  4
Tabloid
  6

 40
5.027082920074462
 41
5.027085781097412
 42
5.027099609375
 43
5.027069091796875
 44
431.7999877929687
 45
279.3999938964844
 46
72.80024645976547
 47
-0.0000000000000027
 48
0.0
 49
0.0
140
0.0
141
0.0
142
1.0
143
0.3496652028822988
 70
 11956
 72
     0
 73
     0
 74
     1
  7
OKIColorShaded.ctb
 75
     0
147
2.859878511664802
 76
     0
 77
     2
 78
   300
148
-119.4582094169044
149
-58.17053554795709
1001
ACAD_PSEXT
1000
9600 Color 11x17.pc3
1000
OKI C9600(PCL)
1000
Expansion Area
1000

1070
     0
  0
PLOTSETTINGS
  5
129F
102
{ACAD_REACTORS
330
10BB
102
}
330
10BB
100
AcDbPlotSettings
  1
OKI9600 Color 8.5x11
  2
9600 Color 8.5x11.pc3
  4
Letter
  6

 40
5.027082920074462
 41
5.027070522308349
 42
5.027099609375
 43
5.027084350585937
 44
279.3999938964844
 45
215.8999938964844
 46
29.15175911978468
 47
0.0000000000000065
 48
0.0
 49
0.0
140
0.0
141
0.0
142
1.0
143
0.4575310722549676
 70
 11956
 72
     0
 73
     0
 74
     1
  7
OKIColorShaded.ctb
 75
     0
147
2.185643906262899
 76
     0
 77
     2
 78
   300
148
-119.4582094169044
149
-58.17053554795709
1001
ACAD_PSEXT
1000
9600 Color 8.5x11.pc3
1000
OKI C9600(PCL)
1000
Expansion Area
1000

1070
     0
  0
PLOTSETTINGS
  5
12A0
102
{ACAD_REACTORS
330
10BB
102
}
330
10BB
100
AcDbPlotSettings
  1
PHX Kyocera 11x17 Fit
  2
PHX_Kyocera.pc3
  4
Tabloid
  6

 40
4.984749794006347
 41
5.069418907165527
 42
5.069427490234375
 43
4.9847412109375
 44
431.7999877929687
 45
279.3999938964844
 46
80.8206764601584
 47
-0.0000000000000226
 48
0.0
 49
0.0
140
0.0
141
0.0
142
1.0
143
0.4045605917118723
 70
  2740
 72
     0
 73
     0
 74
     1
  7
LaserJet5Shaded.ctb
 75
     0
147
2.471817622592858
 76
     0
 77
     2
 78
   300
148
-75.74468520391772
149
-27.53050504688192
1001
ACAD_PSEXT
1000
PHX_Kyocera.pc3
1000
Kyocera Mita KM-2050 KX
1000
Arizona
1000

1070
     0
  0
PLOTSETTINGS
  5
12A1
102
{ACAD_REACTORS
330
10BB
102
}
330
10BB
100
AcDbPlotSettings
  1
PHX Oki9500 11x17 BW Fit
  2
PHX OKI BW.pc3
  4
Tabloid
  6

 40
5.027082920074462
 41
5.027085781097412
 42
5.027099609375
 43
5.027069091796875
 44
431.7999877929687
 45
279.3999938964844
 46
80.82067130493246
 47
0.0
 48
0.0
 49
0.0
140
0.0
141
0.0
142
1.0
143
0.4045605838335077
 70
  2740
 72
     0
 73
     0
 74
     1
  7
OKIB&WShaded.ctb
 75
     0
147
2.47181767072874
 76
     0
 77
     2
 78
   300
148
-75.74468520391772
149
-27.53050504688192
1001
ACAD_PSEXT
1000
PHX OKI BW.pc3
1000
OKI C9500(PCL)
1000
Arizona
1000

1070
     0
  0
PLOTSETTINGS
  5
12A2
102
{ACAD_REACTORS
330
10BB
102
}
330
10BB
100
AcDbPlotSettings
  1
PHX Oki9500 11x17 BW Half
  2
PHX OKI BW.pc3
  4
Tabloid
  6

 40
5.027082920074462
 41
5.027085781097412
 42
5.027099609375
 43
5.027069091796875
 44
431.7999877929687
 45
279.3999938964844
 46
184.5658993145439
 47
107.4312420396676
 48
0.0
 49
0.0
140
0.0
141
0.0
142
1.0
143
2.0
 70
  2724
 72
     0
 73
     0
 74
     1
  7
OKIB&WShaded.ctb
 75
     0
147
2.47181767072874
 76
     0
 77
     2
 78
   300
148
-75.74468520391772
149
-27.53050504688192
1001
ACAD_PSEXT
1000
PHX OKI BW.pc3
1000
OKI C9500(PCL)
1000
Arizona
1000

1070
     0
  0
ACDBPLACEHOLDER
  5
10B2
102
{ACAD_REACTORS
330
10B1
102
}
330
10B1
  0
SCALE
  5
1220
102
{ACAD_REACTORS
330
121F
102
}
330
121F
100
AcDbScale
 70
     0
300
1:1
140
1.0
141
1.0
290
     1
  0
SCALE
  5
1221
102
{ACAD_REACTORS
330
121F
102
}
330
121F
100
AcDbScale
 70
     0
300
1:2
140
1.0
141
2.0
290
     0
  0
SCALE
  5
1222
102
{ACAD_REACTORS
330
121F
102
}
330
121F
100
AcDbScale
 70
     0
300
1:4
140
1.0
141
4.0
290
     0
  0
SCALE
  5
1223
102
{ACAD_REACTORS
330
121F
102
}
330
121F
100
AcDbScale
 70
     0
300
1:5
140
1.0
141
5.0
290
     0
  0
SCALE
  5
1224
102
{ACAD_REACTORS
330
121F
102
}
330
121F
100
AcDbScale
 70
     0
300
1:8
140
1.0
141
8.0
290
     0
  0
SCALE
  5
1225
102
{ACAD_REACTORS
330
121F
102
}
330
121F
100
AcDbScale
 70
     0
300
1:10
140
1.0
141
10.0
290
     0
  0
SCALE
  5
1226
102
{ACAD_REACTORS
330
121F
102
}
330
121F
100
AcDbScale
 70
     0
300
1:16
140
1.0
141
16.0
290
     0
  0
SCALE
  5
1227
102
{ACAD_REACTORS
330
121F
102
}
330
121F
100
AcDbScale
 70
     0
300
1:20
140
1.0
141
20.0
290
     0
  0
SCALE
  5
1228
102
{ACAD_REACTORS
330
121F
102
}
330
121F
100
AcDbScale
 70
     0
300
1:30
140
1.0
141
30.0
290
     0
  0
SCALE
  5
1229
102
{ACAD_REACTORS
330
121F
102
}
330
121F
100
AcDbScale
 70
     0
300
1:40
140
1.0
141
40.0
290
     0
  0
SCALE
  5
122A
102
{ACAD_REACTORS
330
121F
102
}
330
121F
100
AcDbScale
 70
     0
300
1:50
140
1.0
141
50.0
290
     0
  0
SCALE
  5
122B
102
{ACAD_REACTORS
330
121F
102
}
330
121F
100
AcDbScale
 70
     0
300
1:100
140
1.0
141
100.0
290
     0
  0
SCALE
  5
122C
102
{ACAD_REACTORS
330
121F
102
}
330
121F
100
AcDbScale
 70
     0
300
2:1
140
2.0
141
1.0
290
     0
  0
SCALE
  5
122D
102
{ACAD_REACTORS
330
121F
102
}
330
121F
100
AcDbScale
 70
     0
300
4:1
140
4.0
141
1.0
290
     0
  0
SCALE
  5
122E
102
{ACAD_REACTORS
330
121F
102
}
330
121F
100
AcDbScale
 70
     0
300
8:1
140
8.0
141
1.0
290
     0
  0
SCALE
  5
122F
102
{ACAD_REACTORS
330
121F
102
}
330
121F
100
AcDbScale
 70
     0
300
10:1
140
10.0
141
1.0
290
     0
  0
SCALE
  5
1230
102
{ACAD_REACTORS
330
121F
102
}
330
121F
100
AcDbScale
 70
     0
300
100:1
140
100.0
141
1.0
290
     0
  0
SCALE
  5
1231
102
{ACAD_REACTORS
330
121F
102
}
330
121F
100
AcDbScale
 70
     0
300
1/128" = 1'-0"
140
0.0078125
141
12.0
290
     0
  0
SCALE
  5
1232
102
{ACAD_REACTORS
330
121F
102
}
330
121F
100
AcDbScale
 70
     0
300
1/64" = 1'-0"
140
0.015625
141
12.0
290
     0
  0
SCALE
  5
1233
102
{ACAD_REACTORS
330
121F
102
}
330
121F
100
AcDbScale
 70
     0
300
1/32" = 1'-0"
140
0.03125
141
12.0
290
     0
  0
SCALE
  5
1234
102
{ACAD_REACTORS
330
121F
102
}
330
121F
100
AcDbScale
 70
     0
300
1/16" = 1'-0"
140
0.0625
141
12.0
290
     0
  0
SCALE
  5
1235
102
{ACAD_REACTORS
330
121F
102
}
330
121F
100
AcDbScale
 70
     0
300
3/32" = 1'-0"
140
0.09375
141
12.0
290
     0
  0
SCALE
  5
1236
102
{ACAD_REACTORS
330
121F
102
}
330
121F
100
AcDbScale
 70
     0
300
1/8" = 1'-0"
140
0.125
141
12.0
290
     0
  0
SCALE
  5
1237
102
{ACAD_REACTORS
330
121F
102
}
330
121F
100
AcDbScale
 70
     0
300
3/16" = 1'-0"
140
0.1875
141
12.0
290
     0
  0
SCALE
  5
1238
102
{ACAD_REACTORS
330
121F
102
}
330
121F
100
AcDbScale
 70
     0
300
1/4" = 1'-0"
140
0.25
141
12.0
290
     0
  0
SCALE
  5
1239
102
{ACAD_REACTORS
330
121F
102
}
330
121F
100
AcDbScale
 70
     0
300
3/8" = 1'-0"
140
0.375
141
12.0
290
     0
  0
SCALE
  5
123A
102
{ACAD_REACTORS
330
121F
102
}
330
121F
100
AcDbScale
 70
     0
300
1/2" = 1'-0"
140
0.5
141
12.0
290
     0
  0
SCALE
  5
123B
102
{ACAD_REACTORS
330
121F
102
}
330
121F
100
AcDbScale
 70
     0
300
3/4" = 1'-0"
140
0.75
141
12.0
290
     0
  0
SCALE
  5
123C
102
{ACAD_REACTORS
330
121F
102
}
330
121F
100
AcDbScale
 70
     0
300
1" = 1'-0"
140
1.0
141
12.0
290
     0
  0
SCALE
  5
123D
102
{ACAD_REACTORS
330
121F
102
}
330
121F
100
AcDbScale
 70
     0
300
1-1/2" = 1'-0"
140
1.5
141
12.0
290
     0
  0
SCALE
  5
123E
102
{ACAD_REACTORS
330
121F
102
}
330
121F
100
AcDbScale
 70
     0
300
3" = 1'-0"
140
3.0
141
12.0
290
     0
  0
SCALE
  5
123F
102
{ACAD_REACTORS
330
121F
102
}
330
121F
100
AcDbScale
 70
     0
300
6" = 1'-0"
140
6.0
141
12.0
290
     0
  0
SCALE
  5
1240
102
{ACAD_REACTORS
330
121F
102
}
330
121F
100
AcDbScale
 70
     0
300
1'-0" = 1'-0"
140
12.0
141
12.0
290
     0
  0
TABLESTYLE
  5
121E
102
{ACAD_XDICTIONARY
360
12BA
102
}
102
{ACAD_REACTORS
330
121D
102
}
330
121D
100
AcDbTableStyle
  3
Standard
 70
     0
 71
     0
 40
0.06
 41
0.06
280
     0
281
     0
  7
STANDARD
140
0.18
170
     2
 62
     0
 63
     7
283
     0
274
    -2
284
     1
 64
     0
275
    -2
285
     1
 65
     0
276
    -2
286
     1
 66
     0
277
    -2
287
     1
 67
     0
278
    -2
288
     1
 68
     0
279
    -2
289
     1
 69
     0
  7
STANDARD
140
0.25
170
     5
 62
     0
 63
     7
283
     0
274
    -2
284
     1
 64
     0
275
    -2
285
     1
 65
     0
276
    -2
286
     1
 66
     0
277
    -2
287
     1
 67
     0
278
    -2
288
     1
 68
     0
279
    -2
289
     1
 69
     0
  7
STANDARD
140
0.18
170
     5
 62
     0
 63
     7
283
     0
274
    -2
284
     1
 64
     0
275
    -2
285
     1
 65
     0
276
    -2
286
     1
 66
     0
277
    -2
287
     1
 67
     0
278
    -2
288
     1
 68
     0
279
    -2
289
     1
 69
     0
  0
VISUALSTYLE
  5
1211
102
{ACAD_REACTORS
330
120B
102
}
330
120B
100
AcDbVisualStyle
  2
2dWireframe
 70
     4
 71
     0
 72
     2
 73
     0
 90
        0
 40
-0.6
 41
-30.0
 62
     5
 63
     7
421
 16777215
 74
     1
 91
        4
 64
     7
 65
   257
 75
     1
175
     1
 42
1.0
 92
        0
 66
   257
 43
1.0
 76
     1
 77
     6
 78
     2
 67
     7
 79
     5
170
     0
171
     0
290
     0
174
     0
 93
        1
 44
0.0
173
     0
291
     0
 45
0.0
1001
ACAD
1000
AcDbSavedByObjectVersion
1070
     0
  0
VISUALSTYLE
  5
1213
102
{ACAD_REACTORS
330
120B
102
}
330
120B
100
AcDbVisualStyle
  2
3D Hidden
 70
     6
 71
     1
 72
     2
 73
     2
 90
        0
 40
-0.6
 41
-30.0
 62
     5
 63
     7
421
 16777215
 74
     2
 91
        2
 64
     7
 65
   257
 75
     2
175
     1
 42
40.0
 92
        0
 66
   257
 43
1.0
 76
     1
 77
     6
 78
     2
 67
     7
 79
     3
170
     0
171
     0
290
     0
174
     0
 93
        1
 44
0.0
173
     0
291
     0
 45
0.0
1001
ACAD
1000
AcDbSavedByObjectVersion
1070
     0
  0
VISUALSTYLE
  5
1212
102
{ACAD_REACTORS
330
120B
102
}
330
120B
100
AcDbVisualStyle
  2
3dWireframe
 70
     5
 71
     0
 72
     2
 73
     0
 90
        0
 40
-0.6
 41
-30.0
 62
     5
 63
     7
421
 16777215
 74
     1
 91
        4
 64
     7
 65
   257
 75
     1
175
     1
 42
1.0
 92
        0
 66
   257
 43
1.0
 76
     1
 77
     6
 78
     2
 67
     7
 79
     5
170
     0
171
     0
290
     0
174
     0
 93
        1
 44
0.0
173
     0
291
     0
 45
0.0
1001
ACAD
1000
AcDbSavedByObjectVersion
1070
     0
  0
VISUALSTYLE
  5
1210
102
{ACAD_REACTORS
330
120B
102
}
330
120B
100
AcDbVisualStyle
  2
Basic
 70
     7
 71
     1
 72
     0
 73
     1
 90
        0
 40
-0.6
 41
-30.0
 62
     5
 63
     7
421
 16777215
 74
     0
 91
        4
 64
     7
 65
   257
 75
     1
175
     1
 42
1.0
 92
        8
 66
     7
 43
1.0
 76
     1
 77
     6
 78
     2
 67
     7
 79
     5
170
     0
171
     0
290
     0
174
     0
 93
        1
 44
0.0
173
     0
291
     1
 45
0.0
1001
ACAD
1000
AcDbSavedByObjectVersion
1070
     0
  0
VISUALSTYLE
  5
1217
102
{ACAD_REACTORS
330
120B
102
}
330
120B
100
AcDbVisualStyle
  2
Brighten
 70
    12
 71
     2
 72
     2
 73
     0
 90
        0
 40
-0.6
 41
-30.0
 62
     5
 63
     7
421
 16777215
 74
     1
 91
        4
 64
     7
 65
   257
 75
     1
175
     1
 42
1.0
 92
        8
 66
     7
 43
1.0
 76
     1
 77
     6
 78
     2
 67
     7
 79
     5
170
     0
171
     0
290
     0
174
     0
 93
        1
 44
50.0
173
     0
291
     1
 45
0.0
1001
ACAD
1000
AcDbSavedByObjectVersion
1070
     0
  0
VISUALSTYLE
  5
121B
102
{ACAD_REACTORS
330
120B
102
}
330
120B
100
AcDbVisualStyle
  2
ColorChange
 70
    16
 71
     2
 72
     2
 73
     3
 90
        0
 40
-0.6
 41
-30.0
 62
     5
 63
     8
421
  8421504
 74
     1
 91
        4
 64
     7
 65
   257
 75
     1
175
     1
 42
1.0
 92
        8
 66
     8
424
  8421504
 43
1.0
 76
     1
 77
     6
 78
     2
 67
     7
 79
     5
170
     0
171
     0
290
     0
174
     0
 93
        1
 44
0.0
173
     0
291
     1
 45
0.0
1001
ACAD
1000
AcDbSavedByObjectVersion
1070
     0
  0
VISUALSTYLE
  5
1214
102
{ACAD_REACTORS
330
120B
102
}
330
120B
100
AcDbVisualStyle
  2
Conceptual
 70
     9
 71
     3
 72
     2
 73
     0
 90
        0
 40
-0.6
 41
-30.0
 62
     5
 63
     7
421
 16777215
 74
     2
 91
        2
 64
     7
 65
   257
 75
     1
175
     1
 42
40.0
 92
        8
 66
     7
 43
1.0
 76
     1
 77
     6
 78
     2
 67
     7
 79
     3
170
     0
171
     0
290
     0
174
     0
 93
        1
 44
0.0
173
     0
291
     0
 45
0.0
1001
ACAD
1000
AcDbSavedByObjectVersion
1070
     0
  0
VISUALSTYLE
  5
1216
102
{ACAD_REACTORS
330
120B
102
}
330
120B
100
AcDbVisualStyle
  2
Dim
 70
    11
 71
     2
 72
     2
 73
     0
 90
        0
 40
-0.6
 41
-30.0
 62
     5
 63
     7
421
 16777215
 74
     1
 91
        4
 64
     7
 65
   257
 75
     1
175
     1
 42
1.0
 92
        8
 66
     7
 43
1.0
 76
     1
 77
     6
 78
     2
 67
     7
 79
     5
170
     0
171
     0
290
     0
174
     0
 93
        1
 44
-50.0
173
     0
291
     1
 45
0.0
1001
ACAD
1000
AcDbSavedByObjectVersion
1070
     0
  0
VISUALSTYLE
  5
121A
102
{ACAD_REACTORS
330
120B
102
}
330
120B
100
AcDbVisualStyle
  2
Facepattern
 70
    15
 71
     2
 72
     2
 73
     0
 90
        0
 40
-0.6
 41
-30.0
 62
     5
 63
     7
421
 16777215
 74
     1
 91
        4
 64
     7
 65
   257
 75
     1
175
     1
 42
1.0
 92
        8
 66
     7
 43
1.0
 76
     1
 77
     6
 78
     2
 67
     7
 79
     5
170
     0
171
     0
290
     0
174
     0
 93
        1
 44
0.0
173
     0
291
     1
 45
0.0
1001
ACAD
1000
AcDbSavedByObjectVersion
1070
     0
  0
VISUALSTYLE
  5
120C
102
{ACAD_REACTORS
330
120B
102
}
330
120B
100
AcDbVisualStyle
  2
Flat
 70
     0
 71
     2
 72
     1
 73
     1
 90
        2
 40
-0.6
 41
30.0
 62
     5
 63
     7
421
 16777215
 74
     0
 91
        4
 64
     7
 65
   257
 75
     1
175
     1
 42
1.0
 92
        8
 66
     7
 43
1.0
 76
     1
 77
     6
 78
     2
 67
     7
 79
     5
170
     0
171
     0
290
     0
174
     0
 93
       13
 44
0.0
173
     0
291
     1
 45
0.0
1001
ACAD
1000
AcDbSavedByObjectVersion
1070
     0
  0
VISUALSTYLE
  5
120D
102
{ACAD_REACTORS
330
120B
102
}
330
120B
100
AcDbVisualStyle
  2
FlatWithEdges
 70
     1
 71
     2
 72
     1
 73
     1
 90
        2
 40
-0.6
 41
30.0
 62
     5
 63
     7
421
 16777215
 74
     1
 91
        4
 64
     7
 65
   257
 75
     1
175
     1
 42
1.0
 92
        0
 66
   257
 43
1.0
 76
     1
 77
     6
 78
     2
 67
     7
 79
     5
170
     0
171
     0
290
     0
174
     0
 93
       13
 44
0.0
173
     0
291
     1
 45
0.0
1001
ACAD
1000
AcDbSavedByObjectVersion
1070
     0
  0
VISUALSTYLE
  5
120E
102
{ACAD_REACTORS
330
120B
102
}
330
120B
100
AcDbVisualStyle
  2
Gouraud
 70
     2
 71
     2
 72
     2
 73
     1
 90
        2
 40
-0.6
 41
30.0
 62
     5
 63
     7
421
 16777215
 74
     0
 91
        4
 64
     7
 65
   257
 75
     1
175
     1
 42
1.0
 92
        0
 66
     7
 43
1.0
 76
     1
 77
     6
 78
     2
 67
     7
 79
     5
170
     0
171
     0
290
     0
174
     0
 93
       13
 44
0.0
173
     0
291
     1
 45
0.0
1001
ACAD
1000
AcDbSavedByObjectVersion
1070
     0
  0
VISUALSTYLE
  5
120F
102
{ACAD_REACTORS
330
120B
102
}
330
120B
100
AcDbVisualStyle
  2
GouraudWithEdges
 70
     3
 71
     2
 72
     2
 73
     1
 90
        2
 40
-0.6
 41
30.0
 62
     5
 63
     7
421
 16777215
 74
     1
 91
        4
 64
     7
 65
   257
 75
     1
175
     1
 42
1.0
 92
        0
 66
   257
 43
1.0
 76
     1
 77
     6
 78
     2
 67
     7
 79
     5
170
     0
171
     0
290
     0
174
     0
 93
       13
 44
0.0
173
     0
291
     1
 45
0.0
1001
ACAD
1000
AcDbSavedByObjectVersion
1070
     0
  0
VISUALSTYLE
  5
1219
102
{ACAD_REACTORS
330
120B
102
}
330
120B
100
AcDbVisualStyle
  2
Linepattern
 70
    14
 71
     2
 72
     2
 73
     0
 90
        0
 40
-0.6
 41
-30.0
 62
     5
 63
     7
421
 16777215
 74
     1
 91
        4
 64
     7
 65
   257
 75
     7
175
     7
 42
1.0
 92
        8
 66
     7
 43
1.0
 76
     1
 77
     6
 78
     2
 67
     7
 79
     5
170
     0
171
     0
290
     0
174
     0
 93
        1
 44
0.0
173
     0
291
     1
 45
0.0
1001
ACAD
1000
AcDbSavedByObjectVersion
1070
     0
  0
VISUALSTYLE
  5
1215
102
{ACAD_REACTORS
330
120B
102
}
330
120B
100
AcDbVisualStyle
  2
Realistic
 70
     8
 71
     2
 72
     2
 73
     0
 90
        0
 40
-0.6
 41
-30.0
 62
     5
 63
     7
421
 16777215
 74
     1
 91
        0
 64
     7
 65
   257
 75
     1
175
     1
 42
1.0
 92
        8
 66
     8
424
  7895160
 43
1.0
 76
     1
 77
     6
 78
     2
 67
     7
 79
     5
170
     0
171
     0
290
     0
174
     0
 93
       13
 44
0.0
173
     0
291
     0
 45
0.0
1001
ACAD
1000
AcDbSavedByObjectVersion
1070
     0
  0
VISUALSTYLE
  5
1218
102
{ACAD_REACTORS
330
120B
102
}
330
120B
100
AcDbVisualStyle
  2
Thicken
 70
    13
 71
     2
 72
     2
 73
     0
 90
        0
 40
-0.6
 41
-30.0
 62
     5
 63
     7
421
 16777215
 74
     1
 91
        4
 64
     7
 65
   257
 75
     1
175
     1
 42
1.0
 92
       12
 66
     7
 43
1.0
 76
     1
 77
     6
 78
     2
 67
     7
 79
     5
170
     0
171
     0
290
     0
174
     0
 93
        1
 44
0.0
173
     0
291
     1
 45
0.0
1001
ACAD
1000
AcDbSavedByObjectVersion
1070
     0
  0
DICTIONARYVAR
  5
12C0
102
{ACAD_REACTORS
330
10DD
102
}
330
10DD
100
DictionaryVariables
280
     0
  1
1:1
  0
DICTIONARYVAR
  5
12BE
102
{ACAD_REACTORS
330
10DD
102
}
330
10DD
100
DictionaryVariables
280
     0
  1
STANDARD
  0
DICTIONARYVAR
  5
12BD
102
{ACAD_REACTORS
330
10DD
102
}
330
10DD
100
DictionaryVariables
280
     0
  1
STANDARD
  0
DICTIONARYVAR
  5
10E0
102
{ACAD_REACTORS
330
10DD
102
}
330
10DD
100
DictionaryVariables
280
     0
  1
1
  0
DICTIONARYVAR
  5
10DF
102
{ACAD_REACTORS
330
10DD
102
}
330
10DD
100
DictionaryVariables
280
     0
  1
1
  0
DICTIONARYVAR
  5
1A24
102
{ACAD_REACTORS
330
10DD
102
}
330
10DD
100
DictionaryVariables
280
     0
  1
0
  0
DICTIONARYVAR
  5
12C2
102
{ACAD_REACTORS
330
10DD
102
}
330
10DD
100
DictionaryVariables
280
     0
  1
15
  0
DICTIONARYVAR
  5
12C1
102
{ACAD_REACTORS
330
10DD
102
}
330
10DD
100
DictionaryVariables
280
     0
  1
0
  0
DICTIONARYVAR
  5
12BF
102
{ACAD_REACTORS
330
10DD
102
}
330
10DD
100
DictionaryVariables
280
     0
  1
0
  0
DICTIONARYVAR
  5
10DE
102
{ACAD_REACTORS
330
10DD
102
}
330
10DD
100
DictionaryVariables
280
     0
  1
1
  0
XRECORD
  5
19F1
102
{ACAD_REACTORS
330
19EE
102
}
330
19EE
100
AcDbXrecord
280
     1
  1
_0100-
  1
*0100-*
  1
*
  1
*
 70
     0
  1
*
  1
*
  0
XRECORD
  5
19F0
102
{ACAD_REACTORS
330
19EE
102
}
330
19EE
100
AcDbXrecord
280
     1
  1
_0280-
  1
*0280-*
  1
*
  1
*
 70
     0
  1
*
  1
*
  0
XRECORD
  5
19F4
102
{ACAD_REACTORS
330
19EE
102
}
330
19EE
100
AcDbXrecord
280
     1
  1
_Color 253
  1
*
  1
253
  1
*
 70
     0
  1
*
  1
*
  0
XRECORD
  5
19F2
102
{ACAD_REACTORS
330
19EE
102
}
330
19EE
100
AcDbXrecord
280
     1
  1
_Color 8
  1
*
  1
8
  1
*
 70
     0
  1
*
  1
*
  0
XRECORD
  5
19F3
102
{ACAD_REACTORS
330
19EE
102
}
330
19EE
100
AcDbXrecord
280
     1
  1
_Color 84
  1
*
  1
84
  1
*
 70
     0
  1
*
  1
*
  0
XRECORD
  5
19F9
102
{ACAD_REACTORS
330
19EE
102
}
330
19EE
100
AcDbXrecord
280
     1
  1
_Contours
  1
*contour*,*cont-*,*cp cont*,*p-cont*
  1
*
  1
*
 70
     0
  1
*
  1
*
  0
XRECORD
  5
19F5
102
{ACAD_REACTORS
330
19EE
102
}
330
19EE
100
AcDbXrecord
280
     1
  1
_Existing
  1
*exist*
  1
*
  1
*
 70
     0
  1
*
  1
*
  0
XRECORD
  5
19F8
102
{ACAD_REACTORS
330
19EE
102
}
330
19EE
100
AcDbXrecord
280
     1
  1
_Hardscape
  1
*sidewalk*,*sw*,*curb*,*walk*,*-lip*,*tbc*
  1
*
  1
*
 70
     0
  1
*
  1
*
  0
XRECORD
  5
19EF
102
{ACAD_REACTORS
330
19EE
102
}
330
19EE
100
AcDbXrecord
280
     1
  1
_NoXref
  1
~*|*
  1
*
  1
*
 70
     0
  1
*
  1
*
  0
XRECORD
  5
19F6
102
{ACAD_REACTORS
330
19EE
102
}
330
19EE
100
AcDbXrecord
280
     1
  1
_Row
  1
*row*
  1
*
  1
*
 70
     0
  1
*
  1
*
  0
XRECORD
  5
19F7
102
{ACAD_REACTORS
330
19EE
102
}
330
19EE
100
AcDbXrecord
280
     1
  1
_Utility
  1
*ut-*,*utility*,*wat*
  1
*
  1
*
 70
     0
  1
*
  1
*
  0
DICTIONARY
  5
11FC
330
11FB
100
AcDbDictionary
280
     1
281
     1
  3
ACAD_XREC_ROUNDTRIP
360
1A2B
  3
BUMPTILE
360
11FE
  3
DIFFUSETILE
360
11FD
  3
OPACITYTILE
360
1201
  3
REFLECTIONTILE
360
1200
  3
REFRACTIONTILE
360
1202
  3
SPECULARTILE
360
11FF
  0
DICTIONARY
  5
11F4
330
11F3
100
AcDbDictionary
280
     1
281
     1
  3
ACAD_XREC_ROUNDTRIP
360
1A2A
  3
BUMPTILE
360
11F6
  3
DIFFUSETILE
360
11F5
  3
OPACITYTILE
360
11F9
  3
REFLECTIONTILE
360
11F8
  3
REFRACTIONTILE
360
11FA
  3
SPECULARTILE
360
11F7
  0
DICTIONARY
  5
1204
330
1203
100
AcDbDictionary
280
     1
281
     1
  3
ACAD_XREC_ROUNDTRIP
360
1A2C
  3
BUMPTILE
360
1206
  3
DIFFUSETILE
360
1205
  3
OPACITYTILE
360
1209
  3
REFLECTIONTILE
360
1208
  3
REFRACTIONTILE
360
120A
  3
SPECULARTILE
360
1207
  0
DICTIONARY
  5
12BA
330
121E
100
AcDbDictionary
280
     1
281
     1
  3
ACAD_ROUNDTRIP_2008_TABLESTYLE_CELLSTYLEMAP
360
1A25
  3
ACAD_XREC_ROUNDTRIP
360
1A2D
  0
XRECORD
  5
1A2B
102
{ACAD_REACTORS
330
11FC
102
}
330
11FC
100
AcDbXrecord
280
     1
102
MATERIAL
148
0.0
149
0.0
149
0.0
 93
        0
 94
      127
282
     0
 72
     0
 77
     0
171
     0
175
     0
179
     0
273
     0
  0
XRECORD
  5
11FE
102
{ACAD_REACTORS
330
11FC
102
}
330
11FC
100
AcDbXrecord
280
     1
270
     1
271
     1
  0
XRECORD
  5
11FD
102
{ACAD_REACTORS
330
11FC
102
}
330
11FC
100
AcDbXrecord
280
     1
270
     1
271
     1
  0
XRECORD
  5
1201
102
{ACAD_REACTORS
330
11FC
102
}
330
11FC
100
AcDbXrecord
280
     1
270
     1
271
     1
  0
XRECORD
  5
1200
102
{ACAD_REACTORS
330
11FC
102
}
330
11FC
100
AcDbXrecord
280
     1
270
     1
271
     1
  0
XRECORD
  5
1202
102
{ACAD_REACTORS
330
11FC
102
}
330
11FC
100
AcDbXrecord
280
     1
270
     1
271
     1
  0
XRECORD
  5
11FF
102
{ACAD_REACTORS
330
11FC
102
}
330
11FC
100
AcDbXrecord
280
     1
270
     1
271
     1
  0
XRECORD
  5
1A2A
102
{ACAD_REACTORS
330
11F4
102
}
330
11F4
100
AcDbXrecord
280
     1
102
MATERIAL
148
0.0
149
0.0
149
0.0
 93
        0
 94
      127
282
     0
 72
     0
 77
     0
171
     0
175
     0
179
     0
273
     0
  0
XRECORD
  5
11F6
102
{ACAD_REACTORS
330
11F4
102
}
330
11F4
100
AcDbXrecord
280
     1
270
     1
271
     1
  0
XRECORD
  5
11F5
102
{ACAD_REACTORS
330
11F4
102
}
330
11F4
100
AcDbXrecord
280
     1
270
     1
271
     1
  0
XRECORD
  5
11F9
102
{ACAD_REACTORS
330
11F4
102
}
330
11F4
100
AcDbXrecord
280
     1
270
     1
271
     1
  0
XRECORD
  5
11F8
102
{ACAD_REACTORS
330
11F4
102
}
330
11F4
100
AcDbXrecord
280
     1
270
     1
271
     1
  0
XRECORD
  5
11FA
102
{ACAD_REACTORS
330
11F4
102
}
330
11F4
100
AcDbXrecord
280
     1
270
     1
271
     1
  0
XRECORD
  5
11F7
102
{ACAD_REACTORS
330
11F4
102
}
330
11F4
100
AcDbXrecord
280
     1
270
     1
271
     1
  0
XRECORD
  5
1A2C
102
{ACAD_REACTORS
330
1204
102
}
330
1204
100
AcDbXrecord
280
     1
102
MATERIAL
148
0.0
149
0.0
149
0.0
 93
        0
 94
      127
282
     0
 72
     0
 77
     0
171
     0
175
     0
179
     0
273
     0
  0
XRECORD
  5
1206
102
{ACAD_REACTORS
330
1204
102
}
330
1204
100
AcDbXrecord
280
     1
270
     1
271
     1
  0
XRECORD
  5
1205
102
{ACAD_REACTORS
330
1204
102
}
330
1204
100
AcDbXrecord
280
     1
270
     1
271
     1
  0
XRECORD
  5
1209
102
{ACAD_REACTORS
330
1204
102
}
330
1204
100
AcDbXrecord
280
     1
270
     1
271
     1
  0
XRECORD
  5
1208
102
{ACAD_REACTORS
330
1204
102
}
330
1204
100
AcDbXrecord
280
     1
270
     1
271
     1
  0
XRECORD
  5
120A
102
{ACAD_REACTORS
330
1204
102
}
330
1204
100
AcDbXrecord
280
     1
270
     1
271
     1
  0
XRECORD
  5
1207
102
{ACAD_REACTORS
330
1204
102
}
330
1204
100
AcDbXrecord
280
     1
270
     1
271
     1
  0
CELLSTYLEMAP
  5
1A25
102
{ACAD_REACTORS
330
12BA
102
}
330
12BA
100
AcDbCellStyleMap
 90
        3
300
CELLSTYLE
  1
TABLEFORMAT_BEGIN
 90
        5
170
     1
 91
        0
 92
    32768
 62
   257
 93
        1
300
CONTENTFORMAT
  1
CONTENTFORMAT_BEGIN
 90
        0
 91
        0
 92
      512
 93
        0
300

 40
0.0
140
1.0
 94
        5
 62
     0
340
10B4
144
0.25
309
CONTENTFORMAT_END
171
     0
 94
        0
309
TABLEFORMAT_END
  1
CELLSTYLE_BEGIN
 90
        1
 91
        1
300
_TITLE
309
CELLSTYLE_END
300
CELLSTYLE
  1
TABLEFORMAT_BEGIN
 90
        5
170
     1
 91
        0
 92
        0
 62
   257
 93
        1
300
CONTENTFORMAT
  1
CONTENTFORMAT_BEGIN
 90
        0
 91
        0
 92
      512
 93
        0
300

 40
0.0
140
1.0
 94
        5
 62
     0
340
10B4
144
0.18
309
CONTENTFORMAT_END
171
     0
 94
        0
309
TABLEFORMAT_END
  1
CELLSTYLE_BEGIN
 90
        2
 91
        1
300
_HEADER
309
CELLSTYLE_END
300
CELLSTYLE
  1
TABLEFORMAT_BEGIN
 90
        5
170
     1
 91
        0
 92
        0
 62
   257
 93
        1
300
CONTENTFORMAT
  1
CONTENTFORMAT_BEGIN
 90
        0
 91
        0
 92
      512
 93
        0
300

 40
0.0
140
1.0
 94
        2
 62
     0
340
10B4
144
0.18
309
CONTENTFORMAT_END
171
     0
 94
        0
309
TABLEFORMAT_END
  1
CELLSTYLE_BEGIN
 90
        3
 91
        2
300
_DATA
309
CELLSTYLE_END
  0
XRECORD
  5
1A2D
102
{ACAD_REACTORS
330
12BA
102
}
330
12BA
100
AcDbXrecord
280
     1
102
ACAD_ROUNDTRIP_PRE2007_TABLESTYLE
 90
      512
 91
        0
  1

 92
      512
 93
        0
  2

 94
      512
 95
        0
  3

  0
ENDSEC
  0
EOF
