  0
SECTION
  2
HEADER
  9
$ACADVER
  1
AC1018
  9
$ACADMAINTVER
 70
   104
  9
$DWGCODEPAGE
  3
ANSI_1252
  9
$LASTSAVEDBY
  1
dweyer
  9
$INSBASE
 10
0.0
 20
0.0
 30
0.0
  9
$EXTMIN
 10
-0.4984554492313005
 20
-2.162528984183523
 30
0.0
  9
$EXTMAX
 10
9.836131975556137
 20
8.277471015816477
 30
0.03
  9
$LIMMIN
 10
0.0
 20
0.0
  9
$LIMMAX
 10
12.0
 20
9.0
  9
$ORTHOMODE
 70
     1
  9
$REGENMODE
 70
     1
  9
$FILLMODE
 70
     1
  9
$QTEXTMODE
 70
     0
  9
$MIRRTEXT
 70
     0
  9
$LTSCALE
 40
1.0
  9
$ATTMODE
 70
     1
  9
$TEXTSIZE
 40
0.125
  9
$TRACEWID
 40
0.05
  9
$TEXTSTYLE
  7
ROMANS
  9
$CLAYER
  8
0
  9
$CELTYPE
  6
ByLayer
  9
$CECOLOR
 62
   256
  9
$CELTSCALE
 40
1.0
  9
$DISPSILH
 70
     0
  9
$DIMSCALE
 40
1.0
  9
$DIMASZ
 40
0.18
  9
$DIMEXO
 40
0.0625
  9
$DIMDLI
 40
0.38
  9
$DIMRND
 40
0.0
  9
$DIMDLE
 40
0.0
  9
$DIMEXE
 40
0.125
  9
$DIMTP
 40
0.0
  9
$DIMTM
 40
0.0
  9
$DIMTXT
 40
0.125
  9
$DIMCEN
 40
0.09
  9
$DIMTSZ
 40
0.0
  9
$DIMTOL
 70
     0
  9
$DIMLIM
 70
     0
  9
$DIMTIH
 70
     1
  9
$DIMTOH
 70
     1
  9
$DIMSE1
 70
     0
  9
$DIMSE2
 70
     0
  9
$DIMTAD
 70
     0
  9
$DIMZIN
 70
     0
  9
$DIMBLK
  1

  9
$DIMASO
 70
     1
  9
$DIMSHO
 70
     1
  9
$DIMPOST
  1

  9
$DIMAPOST
  1

  9
$DIMALT
 70
     0
  9
$DIMALTD
 70
     2
  9
$DIMALTF
 40
25.4
  9
$DIMLFAC
 40
1.0
  9
$DIMTOFL
 70
     0
  9
$DIMTVP
 40
0.0
  9
$DIMTIX
 70
     0
  9
$DIMSOXD
 70
     0
  9
$DIMSAH
 70
     0
  9
$DIMBLK1
  1

  9
$DIMBLK2
  1

  9
$DIMSTYLE
  2
STANDARD
  9
$DIMCLRD
 70
   256
  9
$DIMCLRE
 70
   256
  9
$DIMCLRT
 70
   256
  9
$DIMTFAC
 40
1.0
  9
$DIMGAP
 40
0.09
  9
$DIMJUST
 70
     0
  9
$DIMSD1
 70
     0
  9
$DIMSD2
 70
     0
  9
$DIMTOLJ
 70
     1
  9
$DIMTZIN
 70
     0
  9
$DIMALTZ
 70
     0
  9
$DIMALTTZ
 70
     0
  9
$DIMUPT
 70
     0
  9
$DIMDEC
 70
     4
  9
$DIMTDEC
 70
     4
  9
$DIMALTU
 70
     2
  9
$DIMALTTD
 70
     2
  9
$DIMTXSTY
  7
Arial
  9
$DIMAUNIT
 70
     0
  9
$DIMADEC
 70
     0
  9
$DIMALTRND
 40
0.0
  9
$DIMAZIN
 70
     0
  9
$DIMDSEP
 70
    46
  9
$DIMATFIT
 70
     3
  9
$DIMFRAC
 70
     0
  9
$DIMLDRBLK
  1

  9
$DIMLUNIT
 70
     2
  9
$DIMLWD
 70
    -1
  9
$DIMLWE
 70
    -1
  9
$DIMTMOVE
 70
     2
  9
$LUNITS
 70
     2
  9
$LUPREC
 70
     3
  9
$SKETCHINC
 40
0.1
  9
$FILLETRAD
 40
0.0
  9
$AUNITS
 70
     0
  9
$AUPREC
 70
     0
  9
$MENU
  1
ACAD
  9
$ELEVATION
 40
0.0
  9
$PELEVATION
 40
0.0
  9
$THICKNESS
 40
0.0
  9
$LIMCHECK
 70
     0
  9
$CHAMFERA
 40
0.0
  9
$CHAMFERB
 40
0.0
  9
$CHAMFERC
 40
0.0
  9
$CHAMFERD
 40
0.0
  9
$SKPOLY
 70
     0
  9
$TDCREATE
 40
2451605.558833901
  9
$TDUCREATE
 40
2451605.850500568
  9
$TDUPDATE
 40
2455210.452331366
  9
$TDUUPDATE
 40
2455210.743998033
  9
$TDINDWG
 40
0.2333676736
  9
$TDUSRTIMER
 40
0.2333676736
  9
$USRTIMER
 70
     1
  9
$ANGBASE
 50
0.0
  9
$ANGDIR
 70
     0
  9
$PDMODE
 70
     0
  9
$PDSIZE
 40
0.0
  9
$PLINEWID
 40
0.0
  9
$SPLFRAME
 70
     0
  9
$SPLINETYPE
 70
     6
  9
$SPLINESEGS
 70
     8
  9
$HANDSEED
  5
15BE
  9
$SURFTAB1
 70
     6
  9
$SURFTAB2
 70
     6
  9
$SURFTYPE
 70
     6
  9
$SURFU
 70
     6
  9
$SURFV
 70
     6
  9
$UCSBASE
  2

  9
$UCSNAME
  2

  9
$UCSORG
 10
0.0
 20
0.0
 30
0.0
  9
$UCSXDIR
 10
1.0
 20
0.0
 30
0.0
  9
$UCSYDIR
 10
0.0
 20
1.0
 30
0.0
  9
$UCSORTHOREF
  2

  9
$UCSORTHOVIEW
 70
     0
  9
$UCSORGTOP
 10
0.0
 20
0.0
 30
0.0
  9
$UCSORGBOTTOM
 10
0.0
 20
0.0
 30
0.0
  9
$UCSORGLEFT
 10
0.0
 20
0.0
 30
0.0
  9
$UCSORGRIGHT
 10
0.0
 20
0.0
 30
0.0
  9
$UCSORGFRONT
 10
0.0
 20
0.0
 30
0.0
  9
$UCSORGBACK
 10
0.0
 20
0.0
 30
0.0
  9
$PUCSBASE
  2

  9
$PUCSNAME
  2

  9
$PUCSORG
 10
0.0
 20
0.0
 30
0.0
  9
$PUCSXDIR
 10
1.0
 20
0.0
 30
0.0
  9
$PUCSYDIR
 10
0.0
 20
1.0
 30
0.0
  9
$PUCSORTHOREF
  2

  9
$PUCSORTHOVIEW
 70
     0
  9
$PUCSORGTOP
 10
0.0
 20
0.0
 30
0.0
  9
$PUCSORGBOTTOM
 10
0.0
 20
0.0
 30
0.0
  9
$PUCSORGLEFT
 10
0.0
 20
0.0
 30
0.0
  9
$PUCSORGRIGHT
 10
0.0
 20
0.0
 30
0.0
  9
$PUCSORGFRONT
 10
0.0
 20
0.0
 30
0.0
  9
$PUCSORGBACK
 10
0.0
 20
0.0
 30
0.0
  9
$USERI1
 70
     0
  9
$USERI2
 70
     0
  9
$USERI3
 70
     0
  9
$USERI4
 70
     0
  9
$USERI5
 70
     0
  9
$USERR1
 40
0.0
  9
$USERR2
 40
0.0
  9
$USERR3
 40
0.0
  9
$USERR4
 40
0.0
  9
$USERR5
 40
0.0
  9
$WORLDVIEW
 70
     1
  9
$SHADEDGE
 70
     3
  9
$SHADEDIF
 70
    70
  9
$TILEMODE
 70
     1
  9
$MAXACTVP
 70
    16
  9
$PINSBASE
 10
0.0
 20
0.0
 30
0.0
  9
$PLIMCHECK
 70
     0
  9
$PEXTMIN
 10
1.000000000000000E+20
 20
1.000000000000000E+20
 30
1.000000000000000E+20
  9
$PEXTMAX
 10
-1.000000000000000E+20
 20
-1.000000000000000E+20
 30
-1.000000000000000E+20
  9
$PLIMMIN
 10
0.0
 20
0.0
  9
$PLIMMAX
 10
12.0
 20
9.0
  9
$UNITMODE
 70
     0
  9
$VISRETAIN
 70
     0
  9
$PLINEGEN
 70
     1
  9
$PSLTSCALE
 70
     1
  9
$TREEDEPTH
 70
  3020
  9
$CMLSTYLE
  2
Standard
  9
$CMLJUST
 70
     0
  9
$CMLSCALE
 40
1.0
  9
$PROXYGRAPHICS
 70
     1
  9
$MEASUREMENT
 70
     0
  9
$CELWEIGHT
370
    -1
  9
$ENDCAPS
280
     0
  9
$JOINSTYLE
280
     0
  9
$LWDISPLAY
290
     0
  9
$INSUNITS
 70
     0
  9
$HYPERLINKBASE
  1

  9
$STYLESHEET
  1
pdf bw shaded.ctb
  9
$XEDIT
290
     1
  9
$CEPSNTYPE
380
     0
  9
$PSTYLEMODE
290
     1
  9
$FINGERPRINTGUID
  2
{809E942E-D3FA-4AF4-BE5E-39ACFC237699}
  9
$VERSIONGUID
  2
{B69C1891-293C-4F1F-A13D-E3324D36685E}
  9
$EXTNAMES
290
     1
  9
$PSVPSCALE
 40
0.0
  9
$OLESTARTUP
290
     1
  9
$SORTENTS
280
    48
  9
$INDEXCTL
280
     0
  9
$HIDETEXT
280
     1
  9
$XCLIPFRAME
290
     0
  9
$HALOGAP
280
     0
  9
$OBSCOLOR
 70
   257
  9
$OBSLTYPE
280
     0
  9
$INTERSECTIONDISPLAY
280
     0
  9
$INTERSECTIONCOLOR
 70
   257
  9
$DIMASSOC
280
     1
  9
$PROJECTNAME
  1

  0
ENDSEC
  0
SECTION
  2
CLASSES
  0
CLASS
  1
ACDBDICTIONARYWDFLT
  2
AcDbDictionaryWithDefault
  3
ObjectDBX Classes
 90
        0
 91
        1
280
     0
281
     0
  0
CLASS
  1
DICTIONARYVAR
  2
AcDbDictionaryVar
  3
ObjectDBX Classes
 90
        0
 91
       11
280
     0
281
     0
  0
CLASS
  1
MATERIAL
  2
AcDbMaterial
  3
ObjectDBX Classes
 90
     1153
 91
        3
280
     0
281
     0
  0
CLASS
  1
VISUALSTYLE
  2
AcDbVisualStyle
  3
ObjectDBX Classes
 90
     4095
 91
       16
280
     0
281
     0
  0
CLASS
  1
TABLESTYLE
  2
AcDbTableStyle
  3
ObjectDBX Classes
 90
     4095
 91
        1
280
     0
281
     0
  0
CLASS
  1
SCALE
  2
AcDbScale
  3
ObjectDBX Classes
 90
     1153
 91
       33
280
     0
281
     0
  0
CLASS
  1
MLEADERSTYLE
  2
AcDbMLeaderStyle
  3
ACDB_MLEADERSTYLE_CLASS
 90
     4095
 91
        1
280
     0
281
     0
  0
CLASS
  1
EXACXREFPANELOBJECT
  2
ExAcXREFPanelObject
  3
EXAC_ESW
 90
     1025
 91
        0
280
     0
281
     0
  0
CLASS
  1
NPOCOLLECTION
  2
AcDbImpNonPersistentObjectsCollection
  3
ObjectDBX Classes
 90
     1153
 91
        0
280
     0
281
     0
  0
CLASS
  1
PLOTSETTINGS
  2
AcDbPlotSettings
  3
ObjectDBX Classes
 90
        0
 91
       76
280
     0
281
     0
  0
CLASS
  1
LAYER_INDEX
  2
AcDbLayerIndex
  3
ObjectDBX Classes
 90
        0
 91
        0
280
     0
281
     0
  0
CLASS
  1
SPATIAL_INDEX
  2
AcDbSpatialIndex
  3
ObjectDBX Classes
 90
        0
 91
        0
280
     0
281
     0
  0
CLASS
  1
IDBUFFER
  2
AcDbIdBuffer
  3
ObjectDBX Classes
 90
        0
 91
        0
280
     0
281
     0
  0
CLASS
  1
CELLSTYLEMAP
  2
AcDbCellStyleMap
  3
ObjectDBX Classes
 90
     1152
 91
        5
280
     0
281
     0
  0
CLASS
  1
AEC_REFEDIT_STATUS_TRACKER
  2
AecDbRefEditStatusTracker
  3
AecArchBase50|Product Desc: Autodesk Architectural Desktop 2007 |Company: Autodesk,Inc. |WEB Address: www.autodesk.com
 90
      129
 91
        0
280
     0
281
     0
  0
CLASS
  1
SORTENTSTABLE
  2
AcDbSortentsTable
  3
ObjectDBX Classes
 90
        0
 91
        1
280
     0
281
     0
  0
ENDSEC
  0
SECTION
  2
TABLES
  0
TABLE
  2
VPORT
  5
10AB
330
0
100
AcDbSymbolTable
 70
     1
  0
VPORT
  5
11F0
330
10AB
100
AcDbSymbolTableRecord
100
AcDbViewportTableRecord
  2
*Active
 70
     0
 10
0.0
 20
0.0
 11
1.0
 21
1.0
 12
4.668838263162419
 22
3.057471015816476
 13
0.0
 23
0.0
 14
0.14
 24
0.14
 15
0.14
 25
0.14
 16
0.0
 26
0.0
 36
1.0
 17
0.0
 27
0.0
 37
0.0
 40
10.53266272189349
 41
2.308148148148148
 42
50.0
 43
0.0
 44
0.0
 50
0.0
 51
0.0
 71
     0
 72
  4000
 73
     1
 74
     1
 75
     0
 76
     0
 77
     0
 78
     0
281
     0
 65
     1
110
0.0
120
0.0
130
0.0
111
1.0
121
0.0
131
0.0
112
0.0
122
1.0
132
0.0
 79
     0
146
0.0
  0
ENDTAB
  0
TABLE
  2
LTYPE
  5
10A8
330
0
100
AcDbSymbolTable
 70
     1
  0
LTYPE
  5
10B6
330
10A8
100
AcDbSymbolTableRecord
100
AcDbLinetypeTableRecord
  2
ByBlock
 70
     0
  3

 72
    65
 73
     0
 40
0.0
  0
LTYPE
  5
10B7
330
10A8
100
AcDbSymbolTableRecord
100
AcDbLinetypeTableRecord
  2
ByLayer
 70
     0
  3

 72
    65
 73
     0
 40
0.0
  0
LTYPE
  5
10B8
330
10A8
100
AcDbSymbolTableRecord
100
AcDbLinetypeTableRecord
  2
CONTINUOUS
 70
     0
  3
Solid line
 72
    65
 73
     0
 40
0.0
  0
ENDTAB
  0
TABLE
  2
LAYER
  5
10A5
102
{ACAD_XDICTIONARY
360
10EB
102
}
330
0
100
AcDbSymbolTable
 70
     5
  0
LAYER
  5
10B3
330
10A5
100
AcDbSymbolTableRecord
100
AcDbLayerTableRecord
  2
0
 70
     0
 62
     7
  6
CONTINUOUS
370
    -3
390
10B2
  0
LAYER
  5
10CC
330
10A5
100
AcDbSymbolTableRecord
100
AcDbLayerTableRecord
  2
text_bubbles
 70
     0
 62
     6
  6
CONTINUOUS
370
    -3
390
10B2
  0
LAYER
  5
10CD
330
10A5
100
AcDbSymbolTableRecord
100
AcDbLayerTableRecord
  2
image
 70
     0
 62
     7
  6
CONTINUOUS
370
    -3
390
10B2
  0
LAYER
  5
118F
330
10A5
100
AcDbSymbolTableRecord
100
AcDbLayerTableRecord
  2
title
 70
     0
 62
     4
  6
CONTINUOUS
370
    -3
390
10B2
  0
ENDTAB
  0
TABLE
  2
STYLE
  5
10A6
330
0
100
AcDbSymbolTable
 70
     7
  0
STYLE
  5
10B4
330
10A6
100
AcDbSymbolTableRecord
100
AcDbTextStyleTableRecord
  2
STANDARD
 70
     0
 40
0.0
 41
1.0
 50
0.0
 71
     0
 42
0.2
  3
txt
  4

  0
STYLE
  5
10C7
330
10A6
100
AcDbSymbolTableRecord
100
AcDbTextStyleTableRecord
  2
ROMANS
 70
     0
 40
0.0
 41
1.0
 50
0.0
 71
     0
 42
0.125
  3
ROMANS.SHX
  4

  0
STYLE
  5
10C8
330
10A6
100
AcDbSymbolTableRecord
100
AcDbTextStyleTableRecord
  2
SIMPLEX
 70
     0
 40
0.0
 41
1.0
 50
0.0
 71
     0
 42
0.125
  3
SIMPLEX
  4

  0
STYLE
  5
1190
330
10A6
100
AcDbSymbolTableRecord
100
AcDbTextStyleTableRecord
  2
L100
 70
     0
 40
0.1
 41
1.0
 50
0.0
 71
     0
 42
0.1
  3
romans.shx
  4

  0
STYLE
  5
1191
330
10A6
100
AcDbSymbolTableRecord
100
AcDbTextStyleTableRecord
  2
L200
 70
     0
 40
0.2
 41
1.0
 50
0.0
 71
     0
 42
0.081
  3
ARIAL.TTF
  4

1001
ACAD
1000
Arial
1071
       34
  0
STYLE
  5
1192
330
10A6
100
AcDbSymbolTableRecord
100
AcDbTextStyleTableRecord
  2
L80
 70
     0
 40
0.08
 41
1.0
 50
0.0
 71
     0
 42
0.08
  3
ROMANS
  4

  0
STYLE
  5
1345
330
10A6
100
AcDbSymbolTableRecord
100
AcDbTextStyleTableRecord
  2
Arial
 70
     0
 40
0.0
 41
1.0
 50
0.0
 71
     0
 42
0.125
  3
ARIAL.TTF
  4

1001
ACAD
1000
Arial
1071
       34
  0
ENDTAB
  0
TABLE
  2
VIEW
  5
10A9
330
0
100
AcDbSymbolTable
 70
     0
  0
ENDTAB
  0
TABLE
  2
UCS
  5
10AA
330
0
100
AcDbSymbolTable
 70
     0
  0
ENDTAB
  0
TABLE
  2
APPID
  5
10AC
330
0
100
AcDbSymbolTable
 70
    15
  0
APPID
  5
10B5
330
10AC
100
AcDbSymbolTableRecord
100
AcDbRegAppTableRecord
  2
ACAD
 70
     0
  0
APPID
  5
10CA
330
10AC
100
AcDbSymbolTableRecord
100
AcDbRegAppTableRecord
  2
ABNSLEADERTOOLS
 70
     0
  0
APPID
  5
1193
330
10AC
100
AcDbSymbolTableRecord
100
AcDbRegAppTableRecord
  2
RAK
 70
     0
  0
APPID
  5
1194
330
10AC
100
AcDbSymbolTableRecord
100
AcDbRegAppTableRecord
  2
DCO15
 70
     0
  0
APPID
  5
1243
330
10AC
100
AcDbSymbolTableRecord
100
AcDbRegAppTableRecord
  2
ACAD_MLEADERVER
 70
     0
  0
APPID
  5
1257
330
10AC
100
AcDbSymbolTableRecord
100
AcDbRegAppTableRecord
  2
ACAD_PSEXT
 70
     0
  0
APPID
  5
12D8
330
10AC
100
AcDbSymbolTableRecord
100
AcDbRegAppTableRecord
  2
ACAD_EXEMPT_FROM_CAD_STANDARDS
 70
     0
  0
APPID
  5
1346
330
10AC
100
AcDbSymbolTableRecord
100
AcDbRegAppTableRecord
  2
BBSI_PltSel
 70
     0
  0
APPID
  5
1347
330
10AC
100
AcDbSymbolTableRecord
100
AcDbRegAppTableRecord
  2
BBSI_Plots
 70
     0
  0
APPID
  5
1348
330
10AC
100
AcDbSymbolTableRecord
100
AcDbRegAppTableRecord
  2
BBSI_Bookmarks
 70
     0
  0
APPID
  5
1349
330
10AC
100
AcDbSymbolTableRecord
100
AcDbRegAppTableRecord
  2
BBSI_BookmarksEx
 70
     0
  0
APPID
  5
135A
330
10AC
100
AcDbSymbolTableRecord
100
AcDbRegAppTableRecord
  2
BBSI_StampsEx
 70
     0
  0
APPID
  5
135B
330
10AC
100
AcDbSymbolTableRecord
100
AcDbRegAppTableRecord
  2
BBSI_Attachs
 70
     0
  0
APPID
  5
135C
330
10AC
100
AcDbSymbolTableRecord
100
AcDbRegAppTableRecord
  2
BBSI_DigSigs
 70
     0
  0
APPID
  5
13B4
330
10AC
100
AcDbSymbolTableRecord
100
AcDbRegAppTableRecord
  2
BBSI_Stamp
 70
     0
  0
ENDTAB
  0
TABLE
  2
DIMSTYLE
  5
10AD
330
0
100
AcDbSymbolTable
 70
     1
100
AcDbDimStyleTable
 71
     1
340
10CB
  0
DIMSTYLE
105
10CB
330
10AD
100
AcDbSymbolTableRecord
100
AcDbDimStyleTableRecord
  2
STANDARD
 70
     0
279
     2
340
10B4
  0
ENDTAB
  0
TABLE
  2
BLOCK_RECORD
  5
10A4
330
0
100
AcDbSymbolTable
 70
     2
  0
BLOCK_RECORD
  5
10C1
102
{ACAD_XDICTIONARY
360
12AB
102
}
330
10A4
100
AcDbSymbolTableRecord
100
AcDbBlockTableRecord
  2
*Model_Space
340
10C4
  0
BLOCK_RECORD
  5
10BD
330
10A4
100
AcDbSymbolTableRecord
100
AcDbBlockTableRecord
  2
*Paper_Space
340
10C0
  0
BLOCK_RECORD
  5
10C5
330
10A4
100
AcDbSymbolTableRecord
100
AcDbBlockTableRecord
  2
*U0
340
0
102
{BLKREFS
331
9BB
102
}
  0
BLOCK_RECORD
  5
1195
102
{ACAD_XDICTIONARY
360
1316
102
}
330
10A4
100
AcDbSymbolTableRecord
100
AcDbBlockTableRecord
  2
titleblock
340
0
102
{BLKREFS
331
11A4
102
}
  0
ENDTAB
  0
ENDSEC
  0
SECTION
  2
BLOCKS
  0
BLOCK
  5
10D6
330
10C1
100
AcDbEntity
  8
0
100
AcDbBlockBegin
  2
*Model_Space
 70
     0
 10
0.0
 20
0.0
 30
0.0
  3
*Model_Space
  1

  0
ENDBLK
  5
10D7
330
10C1
100
AcDbEntity
  8
0
100
AcDbBlockEnd
  0
BLOCK
  5
10D4
330
10BD
100
AcDbEntity
 67
     1
  8
0
100
AcDbBlockBegin
  2
*Paper_Space
 70
     0
 10
0.0
 20
0.0
 30
0.0
  3
*Paper_Space
  1

  0
ENDBLK
  5
10D5
330
10BD
100
AcDbEntity
 67
     1
  8
0
100
AcDbBlockEnd
  0
BLOCK
  5
1009
330
10C5
100
AcDbEntity
  8
0
100
AcDbBlockBegin
  2
*U0
 70
     1
 10
0.0
 20
0.0
 30
0.0
  3
*U0
  1

  0
SOLID
  5
F89
330
10C5
100
AcDbEntity
  8
0
  6
Continuous
100
AcDbTrace
 10
3.52560214138319
 20
4.743065616962137
 30
0.0
 11
3.533975430180516
 21
4.742719295175727
 31
0.0
 12
3.545766839806102
 22
4.743062390154575
 32
0.0
 13
3.545766839806102
 23
4.743062390154575
 33
0.0
  0
SOLID
  5
F8A
330
10C5
100
AcDbEntity
  8
0
  6
Continuous
100
AcDbTrace
 10
3.557518351033997
 20
4.744090514166313
 30
0.0
 11
3.52560214138319
 21
4.743065616962137
 31
0.0
 12
3.545766839806102
 22
4.743062390154575
 32
0.0
 13
3.545766839806102
 23
4.743062390154575
 33
0.0
  0
SOLID
  5
F8B
330
10C5
100
AcDbEntity
  8
0
  6
Continuous
100
AcDbTrace
 10
3.517286050638753
 20
4.744102216592396
 30
0.0
 11
3.52560214138319
 21
4.743065616962137
 31
0.0
 12
3.557518351033997
 22
4.744090514166313
 32
0.0
 13
3.557518351033997
 23
4.744090514166313
 33
0.0
  0
SOLID
  5
F8C
330
10C5
100
AcDbEntity
  8
0
  6
Continuous
100
AcDbTrace
 10
3.569190200470061
 20
4.745800188364732
 30
0.0
 11
3.517286050638753
 21
4.744102216592396
 31
0.0
 12
3.557518351033997
 22
4.744090514166313
 32
0.0
 13
3.557518351033997
 23
4.744090514166313
 33
0.0
  0
SOLID
  5
F8D
330
10C5
100
AcDbEntity
  8
0
  6
Continuous
100
AcDbTrace
 10
3.509083965279394
 20
4.745822013039933
 30
0.0
 11
3.517286050638753
 21
4.744102216592396
 31
0.0
 12
3.569190200470061
 22
4.745800188364732
 32
0.0
 13
3.569190200470061
 23
4.745800188364732
 33
0.0
  0
SOLID
  5
F8E
330
10C5
100
AcDbEntity
  8
0
  6
Continuous
100
AcDbTrace
 10
3.580742894270437
 20
4.748185627753528
 30
0.0
 11
3.509083965279394
 21
4.745822013039933
 31
0.0
 12
3.569190200470061
 22
4.745800188364732
 32
0.0
 13
3.569190200470061
 23
4.745800188364732
 33
0.0
  0
SOLID
  5
F8F
330
10C5
100
AcDbEntity
  8
0
  6
Continuous
100
AcDbTrace
 10
3.501051913864924
 20
4.74821325835116
 30
0.0
 11
3.509083965279394
 21
4.745822013039933
 31
0.0
 12
3.580742894270437
 22
4.748185627753528
 32
0.0
 13
3.580742894270437
 23
4.748185627753528
 33
0.0
  0
SOLID
  5
F90
330
10C5
100
AcDbEntity
  8
0
  6
Continuous
100
AcDbTrace
 10
3.592137341776225
 20
4.751238760760903
 30
0.0
 11
3.501051913864924
 21
4.74821325835116
 31
0.0
 12
3.580742894270437
 22
4.748185627753528
 32
0.0
 13
3.580742894270437
 23
4.748185627753528
 33
0.0
  0
SOLID
  5
F91
330
10C5
100
AcDbEntity
  8
0
  6
Continuous
100
AcDbTrace
 10
3.493244763450895
 20
4.751259617895911
 30
0.0
 11
3.501051913864924
 21
4.74821325835116
 31
0.0
 12
3.592137341776225
 22
4.751238760760903
 32
0.0
 13
3.592137341776225
 23
4.751238760760903
 33
0.0
  0
SOLID
  5
F92
330
10C5
100
AcDbEntity
  8
0
  6
Continuous
100
AcDbTrace
 10
3.485715844790982
 20
4.754940281949528
 30
0.0
 11
3.493244763450895
 21
4.751259617895911
 31
0.0
 12
3.592137341776225
 22
4.751238760760903
 32
0.0
 13
3.592137341776225
 23
4.751238760760903
 33
0.0
  0
SOLID
  5
F93
330
10C5
100
AcDbEntity
  8
0
  6
Continuous
100
AcDbTrace
 10
3.603334987783891
 20
4.754949256551205
 30
0.0
 11
3.485715844790982
 21
4.754940281949528
 31
0.0
 12
3.592137341776225
 22
4.751238760760903
 32
0.0
 13
3.592137341776225
 23
4.751238760760903
 33
0.0
  0
SOLID
  5
F94
330
10C5
100
AcDbEntity
  8
0
  6
Continuous
100
AcDbTrace
 10
3.478516588033856
 20
4.759230107844379
 30
0.0
 11
3.485715844790982
 21
4.754940281949528
 31
0.0
 12
3.603334987783891
 22
4.754949256551205
 32
0.0
 13
3.603334987783891
 23
4.754949256551205
 33
0.0
  0
SOLID
  5
F95
330
10C5
100
AcDbEntity
  8
0
  6
Continuous
100
AcDbTrace
 10
3.614297943003879
 20
4.759304559981211
 30
0.0
 11
3.478516588033856
 21
4.759230107844379
 31
0.0
 12
3.603334987783891
 22
4.754949256551205
 32
0.0
 13
3.603334987783891
 23
4.754949256551205
 33
0.0
  0
SOLID
  5
F96
330
10C5
100
AcDbEntity
  8
0
  6
Continuous
100
AcDbTrace
 10
3.471696171403118
 20
4.764099791719776
 30
0.0
 11
3.478516588033856
 21
4.759230107844379
 31
0.0
 12
3.614297943003879
 22
4.759304559981211
 32
0.0
 13
3.614297943003879
 23
4.759304559981211
 33
0.0
  0
SOLID
  5
F97
330
10C5
100
AcDbEntity
  8
0
  6
Continuous
100
AcDbTrace
 10
3.624989112265963
 20
4.764289934082753
 30
0.0
 11
3.471696171403118
 21
4.764099791719776
 31
0.0
 12
3.614297943003879
 22
4.759304559981211
 32
0.0
 13
3.614297943003879
 23
4.759304559981211
 33
0.0
  0
SOLID
  5
F98
330
10C5
100
AcDbEntity
  8
0
  6
Continuous
100
AcDbTrace
 10
3.465301185260166
 20
4.769516068697058
 30
0.0
 11
3.471696171403118
 21
4.764099791719776
 31
0.0
 12
3.624989112265963
 22
4.764289934082753
 32
0.0
 13
3.624989112265963
 23
4.764289934082753
 33
0.0
  0
SOLID
  5
F99
330
10C5
100
AcDbEntity
  8
0
  6
Continuous
100
AcDbTrace
 10
3.635372320037573
 20
4.769888509927953
 30
0.0
 11
3.465301185260166
 21
4.769516068697058
 31
0.0
 12
3.624989112265963
 22
4.764289934082753
 32
0.0
 13
3.624989112265963
 23
4.764289934082753
 33
0.0
  0
SOLID
  5
F9A
330
10C5
100
AcDbEntity
  8
0
  6
Continuous
100
AcDbTrace
 10
3.459375313844789
 20
4.775441940112435
 30
0.0
 11
3.465301185260166
 21
4.769516068697058
 31
0.0
 12
3.635372320037573
 22
4.769888509927953
 32
0.0
 13
3.635372320037573
 23
4.769888509927953
 33
0.0
  0
SOLID
  5
F9B
330
10C5
100
AcDbEntity
  8
0
  6
Continuous
100
AcDbTrace
 10
3.645412432830335
 20
4.776081343708339
 30
0.0
 11
3.459375313844789
 21
4.775441940112435
 31
0.0
 12
3.635372320037573
 22
4.769888509927953
 32
0.0
 13
3.635372320037573
 23
4.769888509927953
 33
0.0
  0
SOLID
  5
F9C
330
10C5
100
AcDbEntity
  8
0
  6
Continuous
100
AcDbTrace
 10
3.453959036867508
 20
4.781836926255386
 30
0.0
 11
3.459375313844789
 21
4.775441940112435
 31
0.0
 12
3.645412432830335
 22
4.776081343708339
 32
0.0
 13
3.645412432830335
 23
4.776081343708339
 33
0.0
  0
SOLID
  5
F9D
330
10C5
100
AcDbEntity
  8
0
  6
Continuous
100
AcDbTrace
 10
3.655075478080681
 20
4.782847480834693
 30
0.0
 11
3.453959036867508
 21
4.781836926255386
 31
0.0
 12
3.645412432830335
 22
4.776081343708339
 32
0.0
 13
3.645412432830335
 23
4.776081343708339
 33
0.0
  0
SOLID
  5
F9E
330
10C5
100
AcDbEntity
  8
0
  6
Continuous
100
AcDbTrace
 10
3.44908935299211
 20
4.788657342886125
 30
0.0
 11
3.453959036867508
 21
4.781836926255386
 31
0.0
 12
3.655075478080681
 22
4.782847480834693
 32
0.0
 13
3.655075478080681
 23
4.782847480834693
 33
0.0
  0
SOLID
  5
F9F
330
10C5
100
AcDbEntity
  8
0
  6
Continuous
100
AcDbTrace
 10
3.66432875910225
 20
4.79016402684075
 30
0.0
 11
3.44908935299211
 21
4.788657342886125
 31
0.0
 12
3.655075478080681
 22
4.782847480834693
 32
0.0
 13
3.655075478080681
 23
4.782847480834693
 33
0.0
  0
SOLID
  5
FA0
330
10C5
100
AcDbEntity
  8
0
  6
Continuous
100
AcDbTrace
 10
3.444799527097258
 20
4.795856599643251
 30
0.0
 11
3.44908935299211
 21
4.788657342886125
 31
0.0
 12
3.66432875910225
 22
4.79016402684075
 32
0.0
 13
3.66432875910225
 23
4.79016402684075
 33
0.0
  0
SOLID
  5
FA1
330
10C5
100
AcDbEntity
  8
0
  6
Continuous
100
AcDbTrace
 10
3.673140965721121
 20
4.798006224850824
 30
0.0
 11
3.444799527097258
 21
4.795856599643251
 31
0.0
 12
3.66432875910225
 22
4.79016402684075
 32
0.0
 13
3.66432875910225
 23
4.79016402684075
 33
0.0
  0
SOLID
  5
FA2
330
10C5
100
AcDbEntity
  8
0
  6
Continuous
100
AcDbTrace
 10
3.441118863043642
 20
4.803385518303164
 30
0.0
 11
3.444799527097258
 21
4.795856599643251
 31
0.0
 12
3.673140965721121
 22
4.798006224850824
 32
0.0
 13
3.673140965721121
 23
4.798006224850824
 33
0.0
  0
SOLID
  5
FA3
330
10C5
100
AcDbEntity
  8
0
  6
Continuous
100
AcDbTrace
 10
3.681482280219534
 20
4.806347539349236
 30
0.0
 11
3.441118863043642
 21
4.803385518303164
 31
0.0
 12
3.673140965721121
 22
4.798006224850824
 32
0.0
 13
3.673140965721121
 23
4.798006224850824
 33
0.0
  0
SOLID
  5
FA4
330
10C5
100
AcDbEntity
  8
0
  6
Continuous
100
AcDbTrace
 10
3.438072503498891
 20
4.811192668717192
 30
0.0
 11
3.441118863043642
 21
4.803385518303164
 31
0.0
 12
3.681482280219534
 22
4.806347539349236
 32
0.0
 13
3.681482280219534
 23
4.806347539349236
 33
0.0
  0
SOLID
  5
FA5
330
10C5
100
AcDbEntity
  8
0
  6
Continuous
100
AcDbTrace
 10
3.689324478229607
 20
4.815159745968108
 30
0.0
 11
3.438072503498891
 21
4.811192668717192
 31
0.0
 12
3.681482280219534
 22
4.806347539349236
 32
0.0
 13
3.681482280219534
 23
4.806347539349236
 33
0.0
  0
SOLID
  5
FA6
330
10C5
100
AcDbEntity
  8
0
  6
Continuous
100
AcDbTrace
 10
3.435681258187664
 20
4.819224720131663
 30
0.0
 11
3.438072503498891
 21
4.811192668717192
 31
0.0
 12
3.689324478229607
 22
4.815159745968108
 32
0.0
 13
3.689324478229607
 23
4.815159745968108
 33
0.0
  0
SOLID
  5
FA7
330
10C5
100
AcDbEntity
  8
0
  6
Continuous
100
AcDbTrace
 10
3.696641024235664
 20
4.824413026989676
 30
0.0
 11
3.435681258187664
 21
4.819224720131663
 31
0.0
 12
3.689324478229607
 22
4.815159745968108
 32
0.0
 13
3.689324478229607
 23
4.815159745968108
 33
0.0
  0
SOLID
  5
FA8
330
10C5
100
AcDbEntity
  8
0
  6
Continuous
100
AcDbTrace
 10
3.433961461740127
 20
4.827426805491022
 30
0.0
 11
3.435681258187664
 21
4.819224720131663
 31
0.0
 12
3.696641024235664
 22
4.824413026989676
 32
0.0
 13
3.696641024235664
 23
4.824413026989676
 33
0.0
  0
SOLID
  5
FA9
330
10C5
100
AcDbEntity
  8
0
  6
Continuous
100
AcDbTrace
 10
3.703407161362018
 20
4.834076072240022
 30
0.0
 11
3.433961461740127
 21
4.827426805491022
 31
0.0
 12
3.696641024235664
 22
4.824413026989676
 32
0.0
 13
3.696641024235664
 23
4.824413026989676
 33
0.0
  0
SOLID
  5
FAA
330
10C5
100
AcDbEntity
  8
0
  6
Continuous
100
AcDbTrace
 10
3.432924862109867
 20
4.835742896235458
 30
0.0
 11
3.433961461740127
 21
4.827426805491022
 31
0.0
 12
3.703407161362018
 22
4.834076072240022
 32
0.0
 13
3.703407161362018
 23
4.834076072240022
 33
0.0
  0
SOLID
  5
FAB
330
10C5
100
AcDbEntity
  8
0
  6
Continuous
100
AcDbTrace
 10
3.709599995142404
 20
4.844116185032785
 30
0.0
 11
3.432924862109867
 21
4.835742896235458
 31
0.0
 12
3.703407161362018
 22
4.834076072240022
 32
0.0
 13
3.703407161362018
 23
4.834076072240022
 33
0.0
  0
SOLID
  5
FAC
330
10C5
100
AcDbEntity
  8
0
  6
Continuous
100
AcDbTrace
 10
3.432578540323459
 20
4.844116185032785
 30
0.0
 11
3.432924862109867
 21
4.835742896235458
 31
0.0
 12
3.709599995142404
 22
4.844116185032785
 32
0.0
 13
3.709599995142404
 23
4.844116185032785
 33
0.0
  0
SOLID
  5
FAD
330
10C5
100
AcDbEntity
  8
0
  6
Continuous
100
AcDbTrace
 10
3.432924862109867
 20
4.852489473830111
 30
0.0
 11
3.432578540323459
 21
4.844116185032785
 31
0.0
 12
3.709599995142404
 22
4.844116185032785
 32
0.0
 13
3.709599995142404
 23
4.844116185032785
 33
0.0
  0
SOLID
  5
FAE
330
10C5
100
AcDbEntity
  8
0
  6
Continuous
100
AcDbTrace
 10
3.715198570987604
 20
4.854499392804394
 30
0.0
 11
3.432924862109867
 21
4.852489473830111
 31
0.0
 12
3.709599995142404
 22
4.844116185032785
 32
0.0
 13
3.709599995142404
 23
4.844116185032785
 33
0.0
  0
SOLID
  5
FAF
330
10C5
100
AcDbEntity
  8
0
  6
Continuous
100
AcDbTrace
 10
3.433961461740127
 20
4.860805564574548
 30
0.0
 11
3.432924862109867
 21
4.852489473830111
 31
0.0
 12
3.715198570987604
 22
4.854499392804394
 32
0.0
 13
3.715198570987604
 23
4.854499392804394
 33
0.0
  0
SOLID
  5
FB0
330
10C5
100
AcDbEntity
  8
0
  6
Continuous
100
AcDbTrace
 10
3.720183945089146
 20
4.865190562066478
 30
0.0
 11
3.433961461740127
 21
4.860805564574548
 31
0.0
 12
3.715198570987604
 22
4.854499392804394
 32
0.0
 13
3.715198570987604
 23
4.854499392804394
 33
0.0
  0
SOLID
  5
FB1
330
10C5
100
AcDbEntity
  8
0
  6
Continuous
100
AcDbTrace
 10
3.435681258187664
 20
4.869007649933906
 30
0.0
 11
3.433961461740127
 21
4.860805564574548
 31
0.0
 12
3.720183945089146
 22
4.865190562066478
 32
0.0
 13
3.720183945089146
 23
4.865190562066478
 33
0.0
  0
SOLID
  5
FB2
330
10C5
100
AcDbEntity
  8
0
  6
Continuous
100
AcDbTrace
 10
3.724539248519152
 20
4.876153517286466
 30
0.0
 11
3.435681258187664
 21
4.869007649933906
 31
0.0
 12
3.720183945089146
 22
4.865190562066478
 32
0.0
 13
3.720183945089146
 23
4.865190562066478
 33
0.0
  0
SOLID
  5
FB3
330
10C5
100
AcDbEntity
  8
0
  6
Continuous
100
AcDbTrace
 10
3.438072503498891
 20
4.877039701348377
 30
0.0
 11
3.435681258187664
 21
4.869007649933906
 31
0.0
 12
3.724539248519152
 22
4.876153517286466
 32
0.0
 13
3.724539248519152
 23
4.876153517286466
 33
0.0
  0
SOLID
  5
FB4
330
10C5
100
AcDbEntity
  8
0
  6
Continuous
100
AcDbTrace
 10
3.441118863043642
 20
4.884846851762405
 30
0.0
 11
3.438072503498891
 21
4.877039701348377
 31
0.0
 12
3.724539248519152
 22
4.876153517286466
 32
0.0
 13
3.724539248519152
 23
4.876153517286466
 33
0.0
  0
SOLID
  5
FB5
330
10C5
100
AcDbEntity
  8
0
  6
Continuous
100
AcDbTrace
 10
3.728249744309455
 20
4.887351163294133
 30
0.0
 11
3.441118863043642
 21
4.884846851762405
 31
0.0
 12
3.724539248519152
 22
4.876153517286466
 32
0.0
 13
3.724539248519152
 23
4.876153517286466
 33
0.0
  0
SOLID
  5
FB6
330
10C5
100
AcDbEntity
  8
0
  6
Continuous
100
AcDbTrace
 10
3.444799527097258
 20
4.892375770422319
 30
0.0
 11
3.441118863043642
 21
4.884846851762405
 31
0.0
 12
3.728249744309455
 22
4.887351163294133
 32
0.0
 13
3.728249744309455
 23
4.887351163294133
 33
0.0
  0
SOLID
  5
FB7
330
10C5
100
AcDbEntity
  8
0
  6
Continuous
100
AcDbTrace
 10
3.73130287731683
 20
4.89874561079992
 30
0.0
 11
3.444799527097258
 21
4.892375770422319
 31
0.0
 12
3.728249744309455
 22
4.887351163294133
 32
0.0
 13
3.728249744309455
 23
4.887351163294133
 33
0.0
  0
SOLID
  5
FB8
330
10C5
100
AcDbEntity
  8
0
  6
Continuous
100
AcDbTrace
 10
3.44908935299211
 20
4.899575027179444
 30
0.0
 11
3.444799527097258
 21
4.892375770422319
 31
0.0
 12
3.73130287731683
 22
4.89874561079992
 32
0.0
 13
3.73130287731683
 23
4.89874561079992
 33
0.0
  0
SOLID
  5
FB9
330
10C5
100
AcDbEntity
  8
0
  6
Continuous
100
AcDbTrace
 10
3.453959036867508
 20
4.906395443810183
 30
0.0
 11
3.44908935299211
 21
4.899575027179444
 31
0.0
 12
3.73130287731683
 22
4.89874561079992
 32
0.0
 13
3.73130287731683
 23
4.89874561079992
 33
0.0
  0
SOLID
  5
FBA
330
10C5
100
AcDbEntity
  8
0
  6
Continuous
100
AcDbTrace
 10
3.733688316705626
 20
4.910298304600297
 30
0.0
 11
3.453959036867508
 21
4.906395443810183
 31
0.0
 12
3.73130287731683
 22
4.89874561079992
 32
0.0
 13
3.73130287731683
 23
4.89874561079992
 33
0.0
  0
SOLID
  5
FBB
330
10C5
100
AcDbEntity
  8
0
  6
Continuous
100
AcDbTrace
 10
3.459375313844789
 20
4.912790429953135
 30
0.0
 11
3.453959036867508
 21
4.906395443810183
 31
0.0
 12
3.733688316705626
 22
4.910298304600297
 32
0.0
 13
3.733688316705626
 23
4.910298304600297
 33
0.0
  0
SOLID
  5
FBC
330
10C5
100
AcDbEntity
  8
0
  6
Continuous
100
AcDbTrace
 10
3.465301185260166
 20
4.918716301368512
 30
0.0
 11
3.459375313844789
 21
4.912790429953135
 31
0.0
 12
3.733688316705626
 22
4.910298304600297
 32
0.0
 13
3.733688316705626
 23
4.910298304600297
 33
0.0
  0
SOLID
  5
FBD
330
10C5
100
AcDbEntity
  8
0
  6
Continuous
100
AcDbTrace
 10
3.735397990904044
 20
4.92197015403636
 30
0.0
 11
3.465301185260166
 21
4.918716301368512
 31
0.0
 12
3.733688316705626
 22
4.910298304600297
 32
0.0
 13
3.733688316705626
 23
4.910298304600297
 33
0.0
  0
SOLID
  5
FBE
330
10C5
100
AcDbEntity
  8
0
  6
Continuous
100
AcDbTrace
 10
3.471696171403118
 20
4.924132578345793
 30
0.0
 11
3.465301185260166
 21
4.918716301368512
 31
0.0
 12
3.735397990904044
 22
4.92197015403636
 32
0.0
 13
3.735397990904044
 23
4.92197015403636
 33
0.0
  0
SOLID
  5
FBF
330
10C5
100
AcDbEntity
  8
0
  6
Continuous
100
AcDbTrace
 10
3.478516588033856
 20
4.929002262221191
 30
0.0
 11
3.471696171403118
 21
4.924132578345793
 31
0.0
 12
3.735397990904044
 22
4.92197015403636
 32
0.0
 13
3.735397990904044
 23
4.92197015403636
 33
0.0
  0
SOLID
  5
FC0
330
10C5
100
AcDbEntity
  8
0
  6
Continuous
100
AcDbTrace
 10
3.485715844790982
 20
4.933292088116042
 30
0.0
 11
3.478516588033856
 21
4.929002262221191
 31
0.0
 12
3.735397990904044
 22
4.92197015403636
 32
0.0
 13
3.735397990904044
 23
4.92197015403636
 33
0.0
  0
SOLID
  5
FC1
330
10C5
100
AcDbEntity
  8
0
  6
Continuous
100
AcDbTrace
 10
3.736426114915783
 20
4.933721665264256
 30
0.0
 11
3.485715844790982
 21
4.933292088116042
 31
0.0
 12
3.735397990904044
 22
4.92197015403636
 32
0.0
 13
3.735397990904044
 23
4.92197015403636
 33
0.0
  0
SOLID
  5
FC2
330
10C5
100
AcDbEntity
  8
0
  6
Continuous
100
AcDbTrace
 10
3.493244763450895
 20
4.936972752169658
 30
0.0
 11
3.485715844790982
 21
4.933292088116042
 31
0.0
 12
3.736426114915783
 22
4.933721665264256
 32
0.0
 13
3.736426114915783
 23
4.933721665264256
 33
0.0
  0
SOLID
  5
FC3
330
10C5
100
AcDbEntity
  8
0
  6
Continuous
100
AcDbTrace
 10
3.501051913864924
 20
4.94001911171441
 30
0.0
 11
3.493244763450895
 21
4.936972752169658
 31
0.0
 12
3.736426114915783
 22
4.933721665264256
 32
0.0
 13
3.736426114915783
 23
4.933721665264256
 33
0.0
  0
SOLID
  5
FC4
330
10C5
100
AcDbEntity
  8
0
  6
Continuous
100
AcDbTrace
 10
3.509083965279394
 20
4.942410357025637
 30
0.0
 11
3.501051913864924
 21
4.94001911171441
 31
0.0
 12
3.736426114915783
 22
4.933721665264256
 32
0.0
 13
3.736426114915783
 23
4.933721665264256
 33
0.0
  0
SOLID
  5
FC5
330
10C5
100
AcDbEntity
  8
0
  6
Continuous
100
AcDbTrace
 10
3.517286050638753
 20
4.944130153473174
 30
0.0
 11
3.509083965279394
 21
4.942410357025637
 31
0.0
 12
3.736426114915783
 22
4.933721665264256
 32
0.0
 13
3.736426114915783
 23
4.933721665264256
 33
0.0
  0
SOLID
  5
FC6
330
10C5
100
AcDbEntity
  8
0
  6
Continuous
100
AcDbTrace
 10
3.52560214138319
 20
4.945166753103433
 30
0.0
 11
3.517286050638753
 21
4.944130153473174
 31
0.0
 12
3.736426114915783
 22
4.933721665264256
 32
0.0
 13
3.736426114915783
 23
4.933721665264256
 33
0.0
  0
SOLID
  5
FC7
330
10C5
100
AcDbEntity
  8
0
  6
Continuous
100
AcDbTrace
 10
3.73676920989463
 20
4.945513074889841
 30
0.0
 11
3.52560214138319
 21
4.945166753103433
 31
0.0
 12
3.736426114915783
 22
4.933721665264256
 32
0.0
 13
3.736426114915783
 23
4.933721665264256
 33
0.0
  0
SOLID
  5
FC8
330
10C5
100
AcDbEntity
  8
0
  6
Continuous
100
AcDbTrace
 10
3.533975430180516
 20
4.945513074889842
 30
0.0
 11
3.52560214138319
 21
4.945166753103433
 31
0.0
 12
3.73676920989463
 22
4.945513074889841
 32
0.0
 13
3.73676920989463
 23
4.945513074889841
 33
0.0
  0
SOLID
  5
FC9
330
10C5
100
AcDbEntity
  8
0
  6
Continuous
100
AcDbTrace
 10
3.542348718977842
 20
4.945859396676252
 30
0.0
 11
3.533975430180516
 21
4.945513074889842
 31
0.0
 12
3.73676920989463
 22
4.945513074889841
 32
0.0
 13
3.73676920989463
 23
4.945513074889841
 33
0.0
  0
SOLID
  5
FCA
330
10C5
100
AcDbEntity
  8
0
  6
Continuous
100
AcDbTrace
 10
3.550664809722279
 20
4.946895996306511
 30
0.0
 11
3.542348718977842
 21
4.945859396676252
 31
0.0
 12
3.73676920989463
 22
4.945513074889841
 32
0.0
 13
3.73676920989463
 23
4.945513074889841
 33
0.0
  0
SOLID
  5
FCB
330
10C5
100
AcDbEntity
  8
0
  6
Continuous
100
AcDbTrace
 10
3.558866895081638
 20
4.948615792754048
 30
0.0
 11
3.550664809722279
 21
4.946895996306511
 31
0.0
 12
3.73676920989463
 22
4.945513074889841
 32
0.0
 13
3.73676920989463
 23
4.945513074889841
 33
0.0
  0
SOLID
  5
FCC
330
10C5
100
AcDbEntity
  8
0
  6
Continuous
100
AcDbTrace
 10
3.566898946496108
 20
4.951007038065275
 30
0.0
 11
3.558866895081638
 21
4.948615792754048
 31
0.0
 12
3.73676920989463
 22
4.945513074889841
 32
0.0
 13
3.73676920989463
 23
4.945513074889841
 33
0.0
  0
SOLID
  5
FCD
330
10C5
100
AcDbEntity
  8
0
  6
Continuous
100
AcDbTrace
 10
3.574706096910137
 20
4.954053397610026
 30
0.0
 11
3.566898946496108
 21
4.951007038065275
 31
0.0
 12
3.73676920989463
 22
4.945513074889841
 32
0.0
 13
3.73676920989463
 23
4.945513074889841
 33
0.0
  0
SOLID
  5
FCE
330
10C5
100
AcDbEntity
  8
0
  6
Continuous
100
AcDbTrace
 10
3.736426114915783
 20
4.957304484515427
 30
0.0
 11
3.574706096910137
 21
4.954053397610026
 31
0.0
 12
3.73676920989463
 22
4.945513074889841
 32
0.0
 13
3.73676920989463
 23
4.945513074889841
 33
0.0
  0
SOLID
  5
FCF
330
10C5
100
AcDbEntity
  8
0
  6
Continuous
100
AcDbTrace
 10
3.582235015570049
 20
4.957734061663643
 30
0.0
 11
3.574706096910137
 21
4.954053397610026
 31
0.0
 12
3.736426114915783
 22
4.957304484515427
 32
0.0
 13
3.736426114915783
 23
4.957304484515427
 33
0.0
  0
SOLID
  5
FD0
330
10C5
100
AcDbEntity
  8
0
  6
Continuous
100
AcDbTrace
 10
3.589434272327176
 20
4.962023887558494
 30
0.0
 11
3.582235015570049
 21
4.957734061663643
 31
0.0
 12
3.736426114915783
 22
4.957304484515427
 32
0.0
 13
3.736426114915783
 23
4.957304484515427
 33
0.0
  0
SOLID
  5
FD1
330
10C5
100
AcDbEntity
  8
0
  6
Continuous
100
AcDbTrace
 10
3.596254688957915
 20
4.966893571433891
 30
0.0
 11
3.589434272327176
 21
4.962023887558494
 31
0.0
 12
3.736426114915783
 22
4.957304484515427
 32
0.0
 13
3.736426114915783
 23
4.957304484515427
 33
0.0
  0
SOLID
  5
FD2
330
10C5
100
AcDbEntity
  8
0
  6
Continuous
100
AcDbTrace
 10
3.735397990904044
 20
4.969055995743323
 30
0.0
 11
3.596254688957915
 21
4.966893571433891
 31
0.0
 12
3.736426114915783
 22
4.957304484515427
 32
0.0
 13
3.736426114915783
 23
4.957304484515427
 33
0.0
  0
SOLID
  5
FD3
330
10C5
100
AcDbEntity
  8
0
  6
Continuous
100
AcDbTrace
 10
3.602649675100866
 20
4.972309848411173
 30
0.0
 11
3.596254688957915
 21
4.966893571433891
 31
0.0
 12
3.735397990904044
 22
4.969055995743323
 32
0.0
 13
3.735397990904044
 23
4.969055995743323
 33
0.0
  0
SOLID
  5
FD4
330
10C5
100
AcDbEntity
  8
0
  6
Continuous
100
AcDbTrace
 10
3.608575546516243
 20
4.97823571982655
 30
0.0
 11
3.602649675100866
 21
4.972309848411173
 31
0.0
 12
3.735397990904044
 22
4.969055995743323
 32
0.0
 13
3.735397990904044
 23
4.969055995743323
 33
0.0
  0
SOLID
  5
FD5
330
10C5
100
AcDbEntity
  8
0
  6
Continuous
100
AcDbTrace
 10
3.733688316705626
 20
4.980727845179386
 30
0.0
 11
3.608575546516243
 21
4.97823571982655
 31
0.0
 12
3.735397990904044
 22
4.969055995743323
 32
0.0
 13
3.735397990904044
 23
4.969055995743323
 33
0.0
  0
SOLID
  5
FD6
330
10C5
100
AcDbEntity
  8
0
  6
Continuous
100
AcDbTrace
 10
3.613991823493524
 20
4.984630705969501
 30
0.0
 11
3.608575546516243
 21
4.97823571982655
 31
0.0
 12
3.733688316705626
 22
4.980727845179386
 32
0.0
 13
3.733688316705626
 23
4.980727845179386
 33
0.0
  0
SOLID
  5
FD7
330
10C5
100
AcDbEntity
  8
0
  6
Continuous
100
AcDbTrace
 10
3.618861507368922
 20
4.99145112260024
 30
0.0
 11
3.613991823493524
 21
4.984630705969501
 31
0.0
 12
3.733688316705626
 22
4.980727845179386
 32
0.0
 13
3.733688316705626
 23
4.980727845179386
 33
0.0
  0
SOLID
  5
FD8
330
10C5
100
AcDbEntity
  8
0
  6
Continuous
100
AcDbTrace
 10
3.73130287731683
 20
4.992280538979763
 30
0.0
 11
3.618861507368922
 21
4.99145112260024
 31
0.0
 12
3.733688316705626
 22
4.980727845179386
 32
0.0
 13
3.733688316705626
 23
4.980727845179386
 33
0.0
  0
SOLID
  5
FD9
330
10C5
100
AcDbEntity
  8
0
  6
Continuous
100
AcDbTrace
 10
3.623151333263773
 20
4.998650379357366
 30
0.0
 11
3.618861507368922
 21
4.99145112260024
 31
0.0
 12
3.73130287731683
 22
4.992280538979763
 32
0.0
 13
3.73130287731683
 23
4.992280538979763
 33
0.0
  0
SOLID
  5
FDA
330
10C5
100
AcDbEntity
  8
0
  6
Continuous
100
AcDbTrace
 10
3.728249744309455
 20
5.00367498648555
 30
0.0
 11
3.623151333263773
 21
4.998650379357366
 31
0.0
 12
3.73130287731683
 22
4.992280538979763
 32
0.0
 13
3.73130287731683
 23
4.992280538979763
 33
0.0
  0
SOLID
  5
FDB
330
10C5
100
AcDbEntity
  8
0
  6
Continuous
100
AcDbTrace
 10
3.62683199731739
 20
5.006179298017279
 30
0.0
 11
3.623151333263773
 21
4.998650379357366
 31
0.0
 12
3.728249744309455
 22
5.00367498648555
 32
0.0
 13
3.728249744309455
 23
5.00367498648555
 33
0.0
  0
SOLID
  5
FDC
330
10C5
100
AcDbEntity
  8
0
  6
Continuous
100
AcDbTrace
 10
3.629878356862141
 20
5.013986448431308
 30
0.0
 11
3.62683199731739
 21
5.006179298017279
 31
0.0
 12
3.728249744309455
 22
5.00367498648555
 32
0.0
 13
3.728249744309455
 23
5.00367498648555
 33
0.0
  0
SOLID
  5
FDD
330
10C5
100
AcDbEntity
  8
0
  6
Continuous
100
AcDbTrace
 10
3.724539248519152
 20
5.014872632493217
 30
0.0
 11
3.629878356862141
 21
5.013986448431308
 31
0.0
 12
3.728249744309455
 22
5.00367498648555
 32
0.0
 13
3.728249744309455
 23
5.00367498648555
 33
0.0
  0
SOLID
  5
FDE
330
10C5
100
AcDbEntity
  8
0
  6
Continuous
100
AcDbTrace
 10
3.632269602173368
 20
5.022018499845779
 30
0.0
 11
3.629878356862141
 21
5.013986448431308
 31
0.0
 12
3.724539248519152
 22
5.014872632493217
 32
0.0
 13
3.724539248519152
 23
5.014872632493217
 33
0.0
  0
SOLID
  5
FDF
330
10C5
100
AcDbEntity
  8
0
  6
Continuous
100
AcDbTrace
 10
3.720183945089146
 20
5.025835587713204
 30
0.0
 11
3.632269602173368
 21
5.022018499845779
 31
0.0
 12
3.724539248519152
 22
5.014872632493217
 32
0.0
 13
3.724539248519152
 23
5.014872632493217
 33
0.0
  0
SOLID
  5
FE0
330
10C5
100
AcDbEntity
  8
0
  6
Continuous
100
AcDbTrace
 10
3.633989398620905
 20
5.030220585205137
 30
0.0
 11
3.632269602173368
 21
5.022018499845779
 31
0.0
 12
3.720183945089146
 22
5.025835587713204
 32
0.0
 13
3.720183945089146
 23
5.025835587713204
 33
0.0
  0
SOLID
  5
FE1
330
10C5
100
AcDbEntity
  8
0
  6
Continuous
100
AcDbTrace
 10
3.715198570987604
 20
5.036526756975289
 30
0.0
 11
3.633989398620905
 21
5.030220585205137
 31
0.0
 12
3.720183945089146
 22
5.025835587713204
 32
0.0
 13
3.720183945089146
 23
5.025835587713204
 33
0.0
  0
SOLID
  5
FE2
330
10C5
100
AcDbEntity
  8
0
  6
Continuous
100
AcDbTrace
 10
3.635025998251165
 20
5.038536675949574
 30
0.0
 11
3.633989398620905
 21
5.030220585205137
 31
0.0
 12
3.715198570987604
 22
5.036526756975289
 32
0.0
 13
3.715198570987604
 23
5.036526756975289
 33
0.0
  0
SOLID
  5
FE3
330
10C5
100
AcDbEntity
  8
0
  6
Continuous
100
AcDbTrace
 10
3.709599995142404
 20
5.046909964746898
 30
0.0
 11
3.635025998251165
 21
5.038536675949574
 31
0.0
 12
3.715198570987604
 22
5.036526756975289
 32
0.0
 13
3.715198570987604
 23
5.036526756975289
 33
0.0
  0
SOLID
  5
FE4
330
10C5
100
AcDbEntity
  8
0
  6
Continuous
100
AcDbTrace
 10
3.635372320037573
 20
5.0469099647469
 30
0.0
 11
3.635025998251165
 21
5.038536675949574
 31
0.0
 12
3.709599995142404
 22
5.046909964746898
 32
0.0
 13
3.709599995142404
 23
5.046909964746898
 33
0.0
  0
SOLID
  5
FE5
330
10C5
100
AcDbEntity
  8
0
  6
Continuous
100
AcDbTrace
 10
3.635025998251165
 20
5.055283253544226
 30
0.0
 11
3.635372320037573
 21
5.0469099647469
 31
0.0
 12
3.709599995142404
 22
5.046909964746898
 32
0.0
 13
3.709599995142404
 23
5.046909964746898
 33
0.0
  0
SOLID
  5
FE6
330
10C5
100
AcDbEntity
  8
0
  6
Continuous
100
AcDbTrace
 10
3.703407161362018
 20
5.056950077539661
 30
0.0
 11
3.635025998251165
 21
5.055283253544226
 31
0.0
 12
3.709599995142404
 22
5.046909964746898
 32
0.0
 13
3.709599995142404
 23
5.046909964746898
 33
0.0
  0
SOLID
  5
FE7
330
10C5
100
AcDbEntity
  8
0
  6
Continuous
100
AcDbTrace
 10
3.633989398620905
 20
5.063599344288663
 30
0.0
 11
3.635025998251165
 21
5.055283253544226
 31
0.0
 12
3.703407161362018
 22
5.056950077539661
 32
0.0
 13
3.703407161362018
 23
5.056950077539661
 33
0.0
  0
SOLID
  5
FE8
330
10C5
100
AcDbEntity
  8
0
  6
Continuous
100
AcDbTrace
 10
3.696641024235664
 20
5.066613122790007
 30
0.0
 11
3.633989398620905
 21
5.063599344288663
 31
0.0
 12
3.703407161362018
 22
5.056950077539661
 32
0.0
 13
3.703407161362018
 23
5.056950077539661
 33
0.0
  0
SOLID
  5
FE9
330
10C5
100
AcDbEntity
  8
0
  6
Continuous
100
AcDbTrace
 10
3.632269602173368
 20
5.071801429648021
 30
0.0
 11
3.633989398620905
 21
5.063599344288663
 31
0.0
 12
3.696641024235664
 22
5.066613122790007
 32
0.0
 13
3.696641024235664
 23
5.066613122790007
 33
0.0
  0
SOLID
  5
FEA
330
10C5
100
AcDbEntity
  8
0
  6
Continuous
100
AcDbTrace
 10
3.689324478229607
 20
5.075866403811575
 30
0.0
 11
3.632269602173368
 21
5.071801429648021
 31
0.0
 12
3.696641024235664
 22
5.066613122790007
 32
0.0
 13
3.696641024235664
 23
5.066613122790007
 33
0.0
  0
SOLID
  5
FEB
330
10C5
100
AcDbEntity
  8
0
  6
Continuous
100
AcDbTrace
 10
3.629878356862141
 20
5.079833481062492
 30
0.0
 11
3.632269602173368
 21
5.071801429648021
 31
0.0
 12
3.689324478229607
 22
5.075866403811575
 32
0.0
 13
3.689324478229607
 23
5.075866403811575
 33
0.0
  0
SOLID
  5
FEC
330
10C5
100
AcDbEntity
  8
0
  6
Continuous
100
AcDbTrace
 10
3.681482280219534
 20
5.084678610430446
 30
0.0
 11
3.629878356862141
 21
5.079833481062492
 31
0.0
 12
3.689324478229607
 22
5.075866403811575
 32
0.0
 13
3.689324478229607
 23
5.075866403811575
 33
0.0
  0
SOLID
  5
FED
330
10C5
100
AcDbEntity
  8
0
  6
Continuous
100
AcDbTrace
 10
3.62683199731739
 20
5.087640631476521
 30
0.0
 11
3.629878356862141
 21
5.079833481062492
 31
0.0
 12
3.681482280219534
 22
5.084678610430446
 32
0.0
 13
3.681482280219534
 23
5.084678610430446
 33
0.0
  0
SOLID
  5
FEE
330
10C5
100
AcDbEntity
  8
0
  6
Continuous
100
AcDbTrace
 10
3.673140965721121
 20
5.093019924928859
 30
0.0
 11
3.62683199731739
 21
5.087640631476521
 31
0.0
 12
3.681482280219534
 22
5.084678610430446
 32
0.0
 13
3.681482280219534
 23
5.084678610430446
 33
0.0
  0
SOLID
  5
FEF
330
10C5
100
AcDbEntity
  8
0
  6
Continuous
100
AcDbTrace
 10
3.623151333263773
 20
5.095169550136434
 30
0.0
 11
3.62683199731739
 21
5.087640631476521
 31
0.0
 12
3.673140965721121
 22
5.093019924928859
 32
0.0
 13
3.673140965721121
 23
5.093019924928859
 33
0.0
  0
SOLID
  5
FF0
330
10C5
100
AcDbEntity
  8
0
  6
Continuous
100
AcDbTrace
 10
3.66432875910225
 20
5.100862122938933
 30
0.0
 11
3.623151333263773
 21
5.095169550136434
 31
0.0
 12
3.673140965721121
 22
5.093019924928859
 32
0.0
 13
3.673140965721121
 23
5.093019924928859
 33
0.0
  0
SOLID
  5
FF1
330
10C5
100
AcDbEntity
  8
0
  6
Continuous
100
AcDbTrace
 10
3.618861507368922
 20
5.10236880689356
 30
0.0
 11
3.623151333263773
 21
5.095169550136434
 31
0.0
 12
3.66432875910225
 22
5.100862122938933
 32
0.0
 13
3.66432875910225
 23
5.100862122938933
 33
0.0
  0
SOLID
  5
FF2
330
10C5
100
AcDbEntity
  8
0
  6
Continuous
100
AcDbTrace
 10
3.655075478080681
 20
5.10817866894499
 30
0.0
 11
3.618861507368922
 21
5.10236880689356
 31
0.0
 12
3.66432875910225
 22
5.100862122938933
 32
0.0
 13
3.66432875910225
 23
5.100862122938933
 33
0.0
  0
SOLID
  5
FF3
330
10C5
100
AcDbEntity
  8
0
  6
Continuous
100
AcDbTrace
 10
3.613991823493524
 20
5.109189223524299
 30
0.0
 11
3.618861507368922
 21
5.10236880689356
 31
0.0
 12
3.655075478080681
 22
5.10817866894499
 32
0.0
 13
3.655075478080681
 23
5.10817866894499
 33
0.0
  0
SOLID
  5
FF4
330
10C5
100
AcDbEntity
  8
0
  6
Continuous
100
AcDbTrace
 10
3.645412432830335
 20
5.114944806071344
 30
0.0
 11
3.613991823493524
 21
5.109189223524299
 31
0.0
 12
3.655075478080681
 22
5.10817866894499
 32
0.0
 13
3.655075478080681
 23
5.10817866894499
 33
0.0
  0
SOLID
  5
FF5
330
10C5
100
AcDbEntity
  8
0
  6
Continuous
100
AcDbTrace
 10
3.608575546516243
 20
5.11558420966725
 30
0.0
 11
3.613991823493524
 21
5.109189223524299
 31
0.0
 12
3.645412432830335
 22
5.114944806071344
 32
0.0
 13
3.645412432830335
 23
5.114944806071344
 33
0.0
  0
SOLID
  5
FF6
330
10C5
100
AcDbEntity
  8
0
  6
Continuous
100
AcDbTrace
 10
3.635372320037573
 20
5.121137639851729
 30
0.0
 11
3.608575546516243
 21
5.11558420966725
 31
0.0
 12
3.645412432830335
 22
5.114944806071344
 32
0.0
 13
3.645412432830335
 23
5.114944806071344
 33
0.0
  0
SOLID
  5
FF7
330
10C5
100
AcDbEntity
  8
0
  6
Continuous
100
AcDbTrace
 10
3.602649675100866
 20
5.121510081082627
 30
0.0
 11
3.608575546516243
 21
5.11558420966725
 31
0.0
 12
3.635372320037573
 22
5.121137639851729
 32
0.0
 13
3.635372320037573
 23
5.121137639851729
 33
0.0
  0
SOLID
  5
FF8
330
10C5
100
AcDbEntity
  8
0
  6
Continuous
100
AcDbTrace
 10
3.624989112265963
 20
5.126736215696929
 30
0.0
 11
3.602649675100866
 21
5.121510081082627
 31
0.0
 12
3.635372320037573
 22
5.121137639851729
 32
0.0
 13
3.635372320037573
 23
5.121137639851729
 33
0.0
  0
SOLID
  5
FF9
330
10C5
100
AcDbEntity
  8
0
  6
Continuous
100
AcDbTrace
 10
3.596254688957914
 20
5.126926358059908
 30
0.0
 11
3.602649675100866
 21
5.121510081082627
 31
0.0
 12
3.624989112265963
 22
5.126736215696929
 32
0.0
 13
3.624989112265963
 23
5.126736215696929
 33
0.0
  0
SOLID
  5
FFA
330
10C5
100
AcDbEntity
  8
0
  6
Continuous
100
AcDbTrace
 10
3.614297943003879
 20
5.131721589798472
 30
0.0
 11
3.596254688957914
 21
5.126926358059908
 31
0.0
 12
3.624989112265963
 22
5.126736215696929
 32
0.0
 13
3.624989112265963
 23
5.126736215696929
 33
0.0
  0
SOLID
  5
FFB
330
10C5
100
AcDbEntity
  8
0
  6
Continuous
100
AcDbTrace
 10
3.589434272327176
 20
5.131796041935306
 30
0.0
 11
3.596254688957914
 21
5.126926358059908
 31
0.0
 12
3.614297943003879
 22
5.131721589798472
 32
0.0
 13
3.614297943003879
 23
5.131721589798472
 33
0.0
  0
SOLID
  5
FFC
330
10C5
100
AcDbEntity
  8
0
  6
Continuous
100
AcDbTrace
 10
3.603334987783891
 20
5.136076893228477
 30
0.0
 11
3.589434272327176
 21
5.131796041935306
 31
0.0
 12
3.614297943003879
 22
5.131721589798472
 32
0.0
 13
3.614297943003879
 23
5.131721589798472
 33
0.0
  0
SOLID
  5
FFD
330
10C5
100
AcDbEntity
  8
0
  6
Continuous
100
AcDbTrace
 10
3.582235015570049
 20
5.136085867830157
 30
0.0
 11
3.589434272327176
 21
5.131796041935306
 31
0.0
 12
3.603334987783891
 22
5.136076893228477
 32
0.0
 13
3.603334987783891
 23
5.136076893228477
 33
0.0
  0
SOLID
  5
FFE
330
10C5
100
AcDbEntity
  8
0
  6
Continuous
100
AcDbTrace
 10
3.574706096910137
 20
5.139766531883774
 30
0.0
 11
3.582235015570049
 21
5.136085867830157
 31
0.0
 12
3.603334987783891
 22
5.136076893228477
 32
0.0
 13
3.603334987783891
 23
5.136076893228477
 33
0.0
  0
SOLID
  5
FFF
330
10C5
100
AcDbEntity
  8
0
  6
Continuous
100
AcDbTrace
 10
3.592137341776225
 20
5.13978738901878
 30
0.0
 11
3.574706096910137
 21
5.139766531883774
 31
0.0
 12
3.603334987783891
 22
5.136076893228477
 32
0.0
 13
3.603334987783891
 23
5.136076893228477
 33
0.0
  0
SOLID
  5
1000
330
10C5
100
AcDbEntity
  8
0
  6
Continuous
100
AcDbTrace
 10
3.566898946496108
 20
5.142812891428525
 30
0.0
 11
3.574706096910137
 21
5.139766531883774
 31
0.0
 12
3.592137341776225
 22
5.13978738901878
 32
0.0
 13
3.592137341776225
 23
5.13978738901878
 33
0.0
  0
SOLID
  5
1001
330
10C5
100
AcDbEntity
  8
0
  6
Continuous
100
AcDbTrace
 10
3.580742894270437
 20
5.142840522026155
 30
0.0
 11
3.566898946496108
 21
5.142812891428525
 31
0.0
 12
3.592137341776225
 22
5.13978738901878
 32
0.0
 13
3.592137341776225
 23
5.13978738901878
 33
0.0
  0
SOLID
  5
1002
330
10C5
100
AcDbEntity
  8
0
  6
Continuous
100
AcDbTrace
 10
3.558866895081638
 20
5.145204136739752
 30
0.0
 11
3.566898946496108
 21
5.142812891428525
 31
0.0
 12
3.580742894270437
 22
5.142840522026155
 32
0.0
 13
3.580742894270437
 23
5.142840522026155
 33
0.0
  0
SOLID
  5
1003
330
10C5
100
AcDbEntity
  8
0
  6
Continuous
100
AcDbTrace
 10
3.569190200470061
 20
5.145225961414951
 30
0.0
 11
3.558866895081638
 21
5.145204136739752
 31
0.0
 12
3.580742894270437
 22
5.142840522026155
 32
0.0
 13
3.580742894270437
 23
5.142840522026155
 33
0.0
  0
SOLID
  5
1004
330
10C5
100
AcDbEntity
  8
0
  6
Continuous
100
AcDbTrace
 10
3.550664809722279
 20
5.146923933187289
 30
0.0
 11
3.558866895081638
 21
5.145204136739752
 31
0.0
 12
3.569190200470061
 22
5.145225961414951
 32
0.0
 13
3.569190200470061
 23
5.145225961414951
 33
0.0
  0
SOLID
  5
1005
330
10C5
100
AcDbEntity
  8
0
  6
Continuous
100
AcDbTrace
 10
3.557518351033997
 20
5.146935635613369
 30
0.0
 11
3.550664809722279
 21
5.146923933187289
 31
0.0
 12
3.569190200470061
 22
5.145225961414951
 32
0.0
 13
3.569190200470061
 23
5.145225961414951
 33
0.0
  0
SOLID
  5
1006
330
10C5
100
AcDbEntity
  8
0
  6
Continuous
100
AcDbTrace
 10
3.542348718977842
 20
5.147960532817548
 30
0.0
 11
3.550664809722279
 21
5.146923933187289
 31
0.0
 12
3.557518351033997
 22
5.146935635613369
 32
0.0
 13
3.557518351033997
 23
5.146935635613369
 33
0.0
  0
SOLID
  5
1007
330
10C5
100
AcDbEntity
  8
0
  6
Continuous
100
AcDbTrace
 10
3.545766839806102
 20
5.147963759625108
 30
0.0
 11
3.542348718977842
 21
5.147960532817548
 31
0.0
 12
3.557518351033997
 22
5.146935635613369
 32
0.0
 13
3.557518351033997
 23
5.146935635613369
 33
0.0
  0
SOLID
  5
1008
330
10C5
100
AcDbEntity
  8
0
  6
Continuous
100
AcDbTrace
 10
3.533975430180516
 20
5.148306854603958
 30
0.0
 11
3.542348718977842
 21
5.147960532817548
 31
0.0
 12
3.545766839806102
 22
5.147963759625108
 32
0.0
 13
3.545766839806102
 23
5.147963759625108
 33
0.0
  0
ENDBLK
  5
100A
330
10C5
100
AcDbEntity
  8
0
100
AcDbBlockEnd
  0
BLOCK
  5
11A1
330
1195
100
AcDbEntity
  8
0
100
AcDbBlockBegin
  2
titleblock
 70
     2
 10
0.0
 20
0.0
 30
0.0
  3
titleblock
  1

  0
LWPOLYLINE
  5
1196
330
1195
100
AcDbEntity
  8
0
100
AcDbPolyline
 90
        4
 70
     1
 43
0.0
 10
0.0
 20
0.0
 10
10.33458742478744
 20
0.0000000000000002
 10
10.33458742478744
 20
10.44
 10
0.0
 20
10.44
  0
ATTDEF
  5
1197
330
1195
100
AcDbEntity
  8
title
100
AcDbText
 10
0.5055556038023421
 20
0.7842270964783673
 30
0.0
 40
0.2
  1
D
  7
L200
 72
     4
 11
0.6064423705144839
 21
0.8842270964783672
 31
0.0
100
AcDbAttributeDefinition
  3
#
  2
D
 70
     0
  0
ATTDEF
  5
1198
330
1195
100
AcDbEntity
  8
title
100
AcDbText
 10
1.231442370514484
 20
1.34371230274675
 30
0.0
 40
0.2
  1

  7
L200
100
AcDbAttributeDefinition
  3
DETAIL TITLE TOP LINE
  2
TITLE1
 70
     0
  0
ATTDEF
  5
1199
330
1195
100
AcDbEntity
  8
title
100
AcDbText
 10
1.231442370514484
 20
0.9842270964783674
 30
0.0
 40
0.2
  1
TITLE
  7
L200
100
AcDbAttributeDefinition
  3
DETAIL TITLE TOP 2ND LINE
  2
TITLE2
 70
     0
  0
ATTDEF
  5
119A
330
1195
100
AcDbEntity
  8
title
100
AcDbText
 10
2.713645751168312
 20
0.5927927664583189
 30
0.0
 40
0.2
  1
TITLE2
  7
L200
100
AcDbAttributeDefinition
  3
DETAIL TITLE BOTTOM 1
  2
TITLE3
 70
     0
  0
ATTDEF
  5
119B
330
1195
100
AcDbEntity
  8
title
100
AcDbText
 10
2.713645751168312
 20
0.2692560808167741
 30
0.0
 40
0.2
  1

  7
L200
100
AcDbAttributeDefinition
  3
DETAIL TITLE BOTTOM 2
  2
TITLE4
 70
     0
  0
ATTDEF
  5
119C
330
1195
100
AcDbEntity
  8
title
 62
     7
100
AcDbText
 10
8.177214829966379
 20
0.9696027915446398
 30
0.0
 40
0.08
  1
-
  7
L80
 72
     2
 11
8.261024353775903
 21
0.9696027915446398
 31
0.0
100
AcDbAttributeDefinition
  3
REVISION DATE
  2
REVISED
 70
     0
  0
ATTDEF
  5
119D
330
1195
100
AcDbEntity
  8
title
 62
     7
100
AcDbText
 10
0.2639423705144838
 20
0.0847116480207213
 30
0.0
 40
0.08
  1
-
  7
L80
100
AcDbAttributeDefinition
  3
DWG-NAME
  2
DWG-NAME
 70
     0
  0
LWPOLYLINE
  5
119E
330
1195
100
AcDbEntity
  8
title
 62
     3
100
AcDbPolyline
 90
        2
 70
     1
 43
0.03
 10
0.6064423705144839
 20
0.5417270964783675
 42
0.9999999999999998
 10
0.6064423705144839
 20
1.226727096478367
 42
0.9999999999999998
  0
ATTDEF
  5
119F
330
1195
100
AcDbEntity
  8
title
 62
     7
100
AcDbText
 10
1.231442370514484
 20
0.7005637793954894
 30
0.0
 40
0.1
  1
N.T.S.
  7
L100
100
AcDbAttributeDefinition
  3
SCALE
  2
SCALE
 70
     0
  0
LWPOLYLINE
  5
11A0
330
1195
100
AcDbEntity
  8
title
 62
     3
100
AcDbPolyline
 90
        2
 70
     0
 43
0.04
 39
0.03
 10
0.9489423705144833
 20
0.8842270964783672
 10
8.261024353775903
 20
0.8842270964783672
  0
ENDBLK
  5
11A2
330
1195
100
AcDbEntity
  8
0
100
AcDbBlockEnd
  0
ENDSEC
  0
SECTION
  2
ENTITIES
  0
LINE
  5
3B5
330
10C1
100
AcDbEntity
  8
image
100
AcDbLine
 10
2.048309214340962
 20
6.487347712471945
 30
0.0
 11
1.749674538734556
 21
6.487347712471947
 31
0.0
  0
LINE
  5
3CC
330
10C1
100
AcDbEntity
  8
image
100
AcDbLine
 10
2.048309214340958
 20
6.487347712471945
 30
0.0
 11
2.346943889947359
 21
6.487347712471946
 31
0.0
  0
LWPOLYLINE
  5
433
330
10C1
100
AcDbEntity
  8
image
100
AcDbPolyline
 90
        2
 70
     0
 43
0.0
 10
2.337668676074201
 20
2.877843623877035
 10
2.404141058914288
 20
2.839461269326443
  0
POLYLINE
  5
447
330
10C1
100
AcDbEntity
  8
image
100
AcDb2dPolyline
 66
     1
 10
0.0
 20
0.0
 30
0.0
 70
     4
 75
     6
  0
VERTEX
  5
448
330
447
100
AcDbEntity
  8
image
100
AcDbVertex
100
AcDb2dVertex
 10
2.404141058914288
 20
2.839461269326443
 30
0.0
 70
    16
  0
VERTEX
  5
454
330
447
100
AcDbEntity
  8
image
100
AcDbVertex
100
AcDb2dVertex
 10
2.404141058914288
 20
2.839461269326443
 30
0.0
 70
     8
  0
VERTEX
  5
455
330
447
100
AcDbEntity
  8
image
100
AcDbVertex
100
AcDb2dVertex
 10
2.406219772542501
 20
2.842426234890529
 30
0.0
 70
     8
  0
VERTEX
  5
456
330
447
100
AcDbEntity
  8
image
100
AcDbVertex
100
AcDb2dVertex
 10
2.407882871910425
 20
2.844791679414209
 30
0.0
 70
     8
  0
VERTEX
  5
457
330
447
100
AcDbEntity
  8
image
100
AcDbVertex
100
AcDb2dVertex
 10
2.409188259911318
 20
2.846636881949955
 30
0.0
 70
     8
  0
VERTEX
  5
458
330
447
100
AcDbEntity
  8
image
100
AcDbVertex
100
AcDb2dVertex
 10
2.410193839438436
 20
2.848041121550242
 30
0.0
 70
     8
  0
VERTEX
  5
459
330
447
100
AcDbEntity
  8
image
100
AcDbVertex
100
AcDb2dVertex
 10
2.410957513385035
 20
2.849083677267546
 30
0.0
 70
     8
  0
VERTEX
  5
45A
330
447
100
AcDbEntity
  8
image
100
AcDbVertex
100
AcDb2dVertex
 10
2.411537184644374
 20
2.849843828154343
 30
0.0
 70
     8
  0
VERTEX
  5
45B
330
447
100
AcDbEntity
  8
image
100
AcDbVertex
100
AcDb2dVertex
 10
2.411990756109707
 20
2.850400853263106
 30
0.0
 70
     8
  0
VERTEX
  5
45C
330
447
100
AcDbEntity
  8
image
100
AcDbVertex
100
AcDb2dVertex
 10
2.412376130674292
 20
2.850834031646313
 30
0.0
 70
     8
  0
VERTEX
  5
45D
330
447
100
AcDbEntity
  8
image
100
AcDbVertex
100
AcDb2dVertex
 10
2.412742061152319
 20
2.851210214827038
 30
0.0
 70
     8
  0
VERTEX
  5
45E
330
447
100
AcDbEntity
  8
image
100
AcDbVertex
100
AcDb2dVertex
 10
2.413100700041705
 20
2.851546544210762
 30
0.0
 70
     8
  0
VERTEX
  5
45F
330
447
100
AcDbEntity
  8
image
100
AcDbVertex
100
AcDb2dVertex
 10
2.413455049761303
 20
2.851847733673567
 30
0.0
 70
     8
  0
VERTEX
  5
460
330
447
100
AcDbEntity
  8
image
100
AcDbVertex
100
AcDb2dVertex
 10
2.413808112729965
 20
2.852118497091533
 30
0.0
 70
     8
  0
VERTEX
  5
461
330
447
100
AcDbEntity
  8
image
100
AcDbVertex
100
AcDb2dVertex
 10
2.414162891366542
 20
2.852363548340741
 30
0.0
 70
     8
  0
VERTEX
  5
462
330
447
100
AcDbEntity
  8
image
100
AcDbVertex
100
AcDb2dVertex
 10
2.414522388089887
 20
2.852587601297273
 30
0.0
 70
     8
  0
VERTEX
  5
463
330
447
100
AcDbEntity
  8
image
100
AcDbVertex
100
AcDb2dVertex
 10
2.414889605318849
 20
2.852795369837211
 30
0.0
 70
     8
  0
VERTEX
  5
464
330
447
100
AcDbEntity
  8
image
100
AcDbVertex
100
AcDb2dVertex
 10
2.415267545472282
 20
2.852991567836634
 30
0.0
 70
     8
  0
VERTEX
  5
465
330
447
100
AcDbEntity
  8
image
100
AcDbVertex
100
AcDb2dVertex
 10
2.415658567593569
 20
2.853179980685163
 30
0.0
 70
     8
  0
VERTEX
  5
466
330
447
100
AcDbEntity
  8
image
100
AcDbVertex
100
AcDb2dVertex
 10
2.41606245722422
 20
2.853360679826563
 30
0.0
 70
     8
  0
VERTEX
  5
467
330
447
100
AcDbEntity
  8
image
100
AcDbVertex
100
AcDb2dVertex
 10
2.416478356530278
 20
2.853532808218139
 30
0.0
 70
     8
  0
VERTEX
  5
468
330
447
100
AcDbEntity
  8
image
100
AcDbVertex
100
AcDb2dVertex
 10
2.416905407677786
 20
2.853695508817193
 30
0.0
 70
     8
  0
VERTEX
  5
469
330
447
100
AcDbEntity
  8
image
100
AcDbVertex
100
AcDb2dVertex
 10
2.417342752832784
 20
2.853847924581033
 30
0.0
 70
     8
  0
VERTEX
  5
46A
330
447
100
AcDbEntity
  8
image
100
AcDbVertex
100
AcDb2dVertex
 10
2.417789534161316
 20
2.853989198466958
 30
0.0
 70
     8
  0
VERTEX
  5
46B
330
447
100
AcDbEntity
  8
image
100
AcDbVertex
100
AcDb2dVertex
 10
2.418244893829426
 20
2.854118473432276
 30
0.0
 70
     8
  0
VERTEX
  5
46C
330
447
100
AcDbEntity
  8
image
100
AcDbVertex
100
AcDb2dVertex
 10
2.418707974003153
 20
2.854234892434289
 30
0.0
 70
     8
  0
VERTEX
  5
46D
330
447
100
AcDbEntity
  8
image
100
AcDbVertex
100
AcDb2dVertex
 10
2.419177630903888
 20
2.854338026955012
 30
0.0
 70
     8
  0
VERTEX
  5
46E
330
447
100
AcDbEntity
  8
image
100
AcDbVertex
100
AcDb2dVertex
 10
2.419651576974413
 20
2.854429162575305
 30
0.0
 70
     8
  0
VERTEX
  5
46F
330
447
100
AcDbEntity
  8
image
100
AcDbVertex
100
AcDb2dVertex
 10
2.420127238712852
 20
2.854510013400742
 30
0.0
 70
     8
  0
VERTEX
  5
470
330
447
100
AcDbEntity
  8
image
100
AcDbVertex
100
AcDb2dVertex
 10
2.420602042617333
 20
2.854582293536888
 30
0.0
 70
     8
  0
VERTEX
  5
471
330
447
100
AcDbEntity
  8
image
100
AcDbVertex
100
AcDb2dVertex
 10
2.421073415185984
 20
2.85464771708932
 30
0.0
 70
     8
  0
VERTEX
  5
472
330
447
100
AcDbEntity
  8
image
100
AcDbVertex
100
AcDb2dVertex
 10
2.421538782916931
 20
2.854707998163606
 30
0.0
 70
     8
  0
VERTEX
  5
473
330
447
100
AcDbEntity
  8
image
100
AcDbVertex
100
AcDb2dVertex
 10
2.421995572308302
 20
2.854764850865318
 30
0.0
 70
     8
  0
VERTEX
  5
474
330
447
100
AcDbEntity
  8
image
100
AcDbVertex
100
AcDb2dVertex
 10
2.422441209858224
 20
2.854819989300026
 30
0.0
 70
     8
  0
VERTEX
  5
475
330
447
100
AcDbEntity
  8
image
100
AcDbVertex
100
AcDb2dVertex
 10
2.422874122871109
 20
2.854874841895768
 30
0.0
 70
     8
  0
VERTEX
  5
476
330
447
100
AcDbEntity
  8
image
100
AcDbVertex
100
AcDb2dVertex
 10
2.4232967418765
 20
2.854929694370436
 30
0.0
 70
     8
  0
VERTEX
  5
477
330
447
100
AcDbEntity
  8
image
100
AcDbVertex
100
AcDb2dVertex
 10
2.423712498210232
 20
2.854984546764387
 30
0.0
 70
     8
  0
VERTEX
  5
478
330
447
100
AcDbEntity
  8
image
100
AcDbVertex
100
AcDb2dVertex
 10
2.424124823208133
 20
2.85503939911798
 30
0.0
 70
     8
  0
VERTEX
  5
479
330
447
100
AcDbEntity
  8
image
100
AcDbVertex
100
AcDb2dVertex
 10
2.424537148206033
 20
2.855094251471573
 30
0.0
 70
     8
  0
VERTEX
  5
47A
330
447
100
AcDbEntity
  8
image
100
AcDbVertex
100
AcDb2dVertex
 10
2.424952904539765
 20
2.855149103865524
 30
0.0
 70
     8
  0
VERTEX
  5
47B
330
447
100
AcDbEntity
  8
image
100
AcDbVertex
100
AcDb2dVertex
 10
2.425375523545157
 20
2.855203956340192
 30
0.0
 70
     8
  0
VERTEX
  5
47C
330
447
100
AcDbEntity
  8
image
100
AcDbVertex
100
AcDb2dVertex
 10
2.425808436558041
 20
2.855258808935933
 30
0.0
 70
     8
  0
VERTEX
  5
47D
330
447
100
AcDbEntity
  8
image
100
AcDbVertex
100
AcDb2dVertex
 10
2.426253931135637
 20
2.855314090214454
 30
0.0
 70
     8
  0
VERTEX
  5
47E
330
447
100
AcDbEntity
  8
image
100
AcDbVertex
100
AcDb2dVertex
 10
2.426709719720724
 20
2.855371942822854
 30
0.0
 70
     8
  0
VERTEX
  5
47F
330
447
100
AcDbEntity
  8
image
100
AcDbVertex
100
AcDb2dVertex
 10
2.427172370977472
 20
2.855434937929577
 30
0.0
 70
     8
  0
VERTEX
  5
480
330
447
100
AcDbEntity
  8
image
100
AcDbVertex
100
AcDb2dVertex
 10
2.42763845357005
 20
2.855505646703072
 30
0.0
 70
     8
  0
VERTEX
  5
481
330
447
100
AcDbEntity
  8
image
100
AcDbVertex
100
AcDb2dVertex
 10
2.42810453616263
 20
2.855586640311781
 30
0.0
 70
     8
  0
VERTEX
  5
482
330
447
100
AcDbEntity
  8
image
100
AcDbVertex
100
AcDb2dVertex
 10
2.428567187419378
 20
2.855680489924155
 30
0.0
 70
     8
  0
VERTEX
  5
483
330
447
100
AcDbEntity
  8
image
100
AcDbVertex
100
AcDb2dVertex
 10
2.429022976004465
 20
2.855789766708637
 30
0.0
 70
     8
  0
VERTEX
  5
484
330
447
100
AcDbEntity
  8
image
100
AcDbVertex
100
AcDb2dVertex
 10
2.429468470582062
 20
2.855917041833675
 30
0.0
 70
     8
  0
VERTEX
  5
485
330
447
100
AcDbEntity
  8
image
100
AcDbVertex
100
AcDb2dVertex
 10
2.429901383585582
 20
2.856065600711999
 30
0.0
 70
     8
  0
VERTEX
  5
486
330
447
100
AcDbEntity
  8
image
100
AcDbVertex
100
AcDb2dVertex
 10
2.430324002525432
 20
2.856241585733488
 30
0.0
 70
     8
  0
VERTEX
  5
487
330
447
100
AcDbEntity
  8
image
100
AcDbVertex
100
AcDb2dVertex
 10
2.430739758681259
 20
2.856451853532306
 30
0.0
 70
     8
  0
VERTEX
  5
488
330
447
100
AcDbEntity
  8
image
100
AcDbVertex
100
AcDb2dVertex
 10
2.431152083332715
 20
2.856703260742616
 30
0.0
 70
     8
  0
VERTEX
  5
489
330
447
100
AcDbEntity
  8
image
100
AcDbVertex
100
AcDb2dVertex
 10
2.431564407759452
 20
2.857002663998583
 30
0.0
 70
     8
  0
VERTEX
  5
48A
330
447
100
AcDbEntity
  8
image
100
AcDbVertex
100
AcDb2dVertex
 10
2.431980163241117
 20
2.857356919934371
 30
0.0
 70
     8
  0
VERTEX
  5
48B
330
447
100
AcDbEntity
  8
image
100
AcDbVertex
100
AcDb2dVertex
 10
2.432402781057362
 20
2.857772885184143
 30
0.0
 70
     8
  0
VERTEX
  5
48C
330
447
100
AcDbEntity
  8
image
100
AcDbVertex
100
AcDb2dVertex
 10
2.432835692487838
 20
2.858257416382063
 30
0.0
 70
     8
  0
VERTEX
  5
48D
330
447
100
AcDbEntity
  8
image
100
AcDbVertex
100
AcDb2dVertex
 10
2.433311533685056
 20
2.858949314775617
 30
0.0
 70
     8
  0
VERTEX
  5
48E
330
447
100
AcDbEntity
  8
image
100
AcDbVertex
100
AcDb2dVertex
 10
2.433979760292977
 20
2.860515160065579
 30
0.0
 70
     8
  0
VERTEX
  5
48F
330
447
100
AcDbEntity
  8
image
100
AcDbVertex
100
AcDb2dVertex
 10
2.435019032828424
 20
2.863753476566048
 30
0.0
 70
     8
  0
VERTEX
  5
490
330
447
100
AcDbEntity
  8
image
100
AcDbVertex
100
AcDb2dVertex
 10
2.436608011808219
 20
2.869462788591119
 30
0.0
 70
     8
  0
VERTEX
  5
491
330
447
100
AcDbEntity
  8
image
100
AcDbVertex
100
AcDb2dVertex
 10
2.438925357749186
 20
2.878441620454889
 30
0.0
 70
     8
  0
VERTEX
  5
492
330
447
100
AcDbEntity
  8
image
100
AcDbVertex
100
AcDb2dVertex
 10
2.442149731168147
 20
2.891488496471454
 30
0.0
 70
     8
  0
VERTEX
  5
493
330
447
100
AcDbEntity
  8
image
100
AcDbVertex
100
AcDb2dVertex
 10
2.446459792581923
 20
2.909401940954913
 30
0.0
 70
     8
  0
VERTEX
  5
494
330
447
100
AcDbEntity
  8
image
100
AcDbVertex
100
AcDb2dVertex
 10
2.452034202507339
 20
2.932980478219359
 30
0.0
 70
     8
  0
VERTEX
  5
449
330
447
100
AcDbEntity
  8
image
100
AcDbVertex
100
AcDb2dVertex
 10
2.41028991684169
 20
2.848237675820086
 30
0.0
 70
    16
  0
VERTEX
  5
44A
330
447
100
AcDbEntity
  8
image
100
AcDbVertex
100
AcDb2dVertex
 10
2.412485933420868
 20
2.851309420159191
 30
0.0
 70
    16
  0
VERTEX
  5
44B
330
447
100
AcDbEntity
  8
image
100
AcDbVertex
100
AcDb2dVertex
 10
2.41512114181018
 20
2.853064705590579
 30
0.0
 70
    16
  0
VERTEX
  5
44C
330
447
100
AcDbEntity
  8
image
100
AcDbVertex
100
AcDb2dVertex
 10
2.418634772172103
 20
2.854381164498296
 30
0.0
 70
    16
  0
VERTEX
  5
44D
330
447
100
AcDbEntity
  8
image
100
AcDbVertex
100
AcDb2dVertex
 10
2.422587613520326
 20
2.854819991021968
 30
0.0
 70
    16
  0
VERTEX
  5
44E
330
447
100
AcDbEntity
  8
image
100
AcDbVertex
100
AcDb2dVertex
 10
2.425662032895939
 20
2.855258807213991
 30
0.0
 70
    16
  0
VERTEX
  5
44F
330
447
100
AcDbEntity
  8
image
100
AcDbVertex
100
AcDb2dVertex
 10
2.429614874244163
 20
2.855697633737664
 30
0.0
 70
    16
  0
VERTEX
  5
450
330
447
100
AcDbEntity
  8
image
100
AcDbVertex
100
AcDb2dVertex
 10
2.432689293619779
 20
2.857452908837401
 30
0.0
 70
    16
  0
VERTEX
  5
451
330
447
100
AcDbEntity
  8
image
100
AcDbVertex
100
AcDb2dVertex
 10
2.435324502009091
 20
2.861841122415873
 30
0.0
 70
    16
  0
VERTEX
  5
452
330
447
100
AcDbEntity
  8
image
100
AcDbVertex
100
AcDb2dVertex
 10
2.452034202507339
 20
2.932980478219359
 30
0.0
 70
    16
  0
SEQEND
  5
453
330
447
100
AcDbEntity
  8
image
  0
POLYLINE
  5
495
330
10C1
100
AcDbEntity
  8
image
100
AcDb2dPolyline
 66
     1
 10
0.0
 20
0.0
 30
0.0
 70
     4
 75
     6
  0
VERTEX
  5
4E3
330
495
100
AcDbEntity
  8
image
100
AcDbVertex
100
AcDb2dVertex
 10
2.337668676074201
 20
2.877843623877035
 30
0.0
 70
    16
  0
VERTEX
  5
4E4
330
495
100
AcDbEntity
  8
image
100
AcDbVertex
100
AcDb2dVertex
 10
2.337668676074201
 20
2.877843623877035
 30
0.0
 70
     8
  0
VERTEX
  5
4E5
330
495
100
AcDbEntity
  8
image
100
AcDbVertex
100
AcDb2dVertex
 10
2.337809879502696
 20
2.878140932153271
 30
0.0
 70
     8
  0
VERTEX
  5
4E6
330
495
100
AcDbEntity
  8
image
100
AcDbVertex
100
AcDb2dVertex
 10
2.338119432477778
 20
2.878792836907761
 30
0.0
 70
     8
  0
VERTEX
  5
4E7
330
495
100
AcDbEntity
  8
image
100
AcDbVertex
100
AcDb2dVertex
 10
2.338561434649969
 20
2.879723919486568
 30
0.0
 70
     8
  0
VERTEX
  5
4E8
330
495
100
AcDbEntity
  8
image
100
AcDbVertex
100
AcDb2dVertex
 10
2.33909998566979
 20
2.880858761235749
 30
0.0
 70
     8
  0
VERTEX
  5
4E9
330
495
100
AcDbEntity
  8
image
100
AcDbVertex
100
AcDb2dVertex
 10
2.339699185187762
 20
2.882121943501369
 30
0.0
 70
     8
  0
VERTEX
  5
4EA
330
495
100
AcDbEntity
  8
image
100
AcDbVertex
100
AcDb2dVertex
 10
2.340323132854408
 20
2.883438047629485
 30
0.0
 70
     8
  0
VERTEX
  5
4EB
330
495
100
AcDbEntity
  8
image
100
AcDbVertex
100
AcDb2dVertex
 10
2.340935928320249
 20
2.88473165496616
 30
0.0
 70
     8
  0
VERTEX
  5
4EC
330
495
100
AcDbEntity
  8
image
100
AcDbVertex
100
AcDb2dVertex
 10
2.341501671235805
 20
2.885927346857455
 30
0.0
 70
     8
  0
VERTEX
  5
4ED
330
495
100
AcDbEntity
  8
image
100
AcDbVertex
100
AcDb2dVertex
 10
2.341991729568576
 20
2.886965798363082
 30
0.0
 70
     8
  0
VERTEX
  5
4EE
330
495
100
AcDbEntity
  8
image
100
AcDbVertex
100
AcDb2dVertex
 10
2.342406544553954
 20
2.887852059397376
 30
0.0
 70
     8
  0
VERTEX
  5
4EF
330
495
100
AcDbEntity
  8
image
100
AcDbVertex
100
AcDb2dVertex
 10
2.342753825744312
 20
2.888607273588323
 30
0.0
 70
     8
  0
VERTEX
  5
4F0
330
495
100
AcDbEntity
  8
image
100
AcDbVertex
100
AcDb2dVertex
 10
2.343041282692016
 20
2.88925258456391
 30
0.0
 70
     8
  0
VERTEX
  5
4F1
330
495
100
AcDbEntity
  8
image
100
AcDbVertex
100
AcDb2dVertex
 10
2.34327662494944
 20
2.889809135952122
 30
0.0
 70
     8
  0
VERTEX
  5
4F2
330
495
100
AcDbEntity
  8
image
100
AcDbVertex
100
AcDb2dVertex
 10
2.343467562068951
 20
2.890298071380949
 30
0.0
 70
     8
  0
VERTEX
  5
4F3
330
495
100
AcDbEntity
  8
image
100
AcDbVertex
100
AcDb2dVertex
 10
2.343621803602919
 20
2.890740534478374
 30
0.0
 70
     8
  0
VERTEX
  5
4F4
330
495
100
AcDbEntity
  8
image
100
AcDbVertex
100
AcDb2dVertex
 10
2.343747059103717
 20
2.891157668872386
 30
0.0
 70
     8
  0
VERTEX
  5
4F5
330
495
100
AcDbEntity
  8
image
100
AcDbVertex
100
AcDb2dVertex
 10
2.343849931083296
 20
2.891567359615415
 30
0.0
 70
     8
  0
VERTEX
  5
4F6
330
495
100
AcDbEntity
  8
image
100
AcDbVertex
100
AcDb2dVertex
 10
2.343932593891945
 20
2.891974457457655
 30
0.0
 70
     8
  0
VERTEX
  5
4F7
330
495
100
AcDbEntity
  8
image
100
AcDbVertex
100
AcDb2dVertex
 10
2.343996114839539
 20
2.892380554573745
 30
0.0
 70
     8
  0
VERTEX
  5
4F8
330
495
100
AcDbEntity
  8
image
100
AcDbVertex
100
AcDb2dVertex
 10
2.34404156123595
 20
2.892787243138323
 30
0.0
 70
     8
  0
VERTEX
  5
4F9
330
495
100
AcDbEntity
  8
image
100
AcDbVertex
100
AcDb2dVertex
 10
2.344070000391052
 20
2.89319611532603
 30
0.0
 70
     8
  0
VERTEX
  5
4FA
330
495
100
AcDbEntity
  8
image
100
AcDbVertex
100
AcDb2dVertex
 10
2.344082499614717
 20
2.893608763311503
 30
0.0
 70
     8
  0
VERTEX
  5
4FB
330
495
100
AcDbEntity
  8
image
100
AcDbVertex
100
AcDb2dVertex
 10
2.344080126216819
 20
2.894026779269381
 30
0.0
 70
     8
  0
VERTEX
  5
4FC
330
495
100
AcDbEntity
  8
image
100
AcDbVertex
100
AcDb2dVertex
 10
2.344063947507231
 20
2.894451755374302
 30
0.0
 70
     8
  0
VERTEX
  5
4FD
330
495
100
AcDbEntity
  8
image
100
AcDbVertex
100
AcDb2dVertex
 10
2.344034799255358
 20
2.894884823590913
 30
0.0
 70
     8
  0
VERTEX
  5
4FE
330
495
100
AcDbEntity
  8
image
100
AcDbVertex
100
AcDb2dVertex
 10
2.343992591068737
 20
2.895325275043894
 30
0.0
 70
     8
  0
VERTEX
  5
4FF
330
495
100
AcDbEntity
  8
image
100
AcDbVertex
100
AcDb2dVertex
 10
2.343937001014436
 20
2.89577194064793
 30
0.0
 70
     8
  0
VERTEX
  5
500
330
495
100
AcDbEntity
  8
image
100
AcDbVertex
100
AcDb2dVertex
 10
2.343867707159526
 20
2.896223651317709
 30
0.0
 70
     8
  0
VERTEX
  5
501
330
495
100
AcDbEntity
  8
image
100
AcDbVertex
100
AcDb2dVertex
 10
2.343784387571073
 20
2.896679237967917
 30
0.0
 70
     8
  0
VERTEX
  5
502
330
495
100
AcDbEntity
  8
image
100
AcDbVertex
100
AcDb2dVertex
 10
2.343686720316148
 20
2.89713753151324
 30
0.0
 70
     8
  0
VERTEX
  5
503
330
495
100
AcDbEntity
  8
image
100
AcDbVertex
100
AcDb2dVertex
 10
2.34357438346182
 20
2.897597362868367
 30
0.0
 70
     8
  0
VERTEX
  5
504
330
495
100
AcDbEntity
  8
image
100
AcDbVertex
100
AcDb2dVertex
 10
2.343447055075156
 20
2.898057562947983
 30
0.0
 70
     8
  0
VERTEX
  5
505
330
495
100
AcDbEntity
  8
image
100
AcDbVertex
100
AcDb2dVertex
 10
2.343304927048783
 20
2.898516925504024
 30
0.0
 70
     8
  0
VERTEX
  5
506
330
495
100
AcDbEntity
  8
image
100
AcDbVertex
100
AcDb2dVertex
 10
2.34315024657755
 20
2.898974095637422
 30
0.0
 70
     8
  0
VERTEX
  5
507
330
495
100
AcDbEntity
  8
image
100
AcDbVertex
100
AcDb2dVertex
 10
2.342985774681865
 20
2.899427681286355
 30
0.0
 70
     8
  0
VERTEX
  5
508
330
495
100
AcDbEntity
  8
image
100
AcDbVertex
100
AcDb2dVertex
 10
2.342814272382136
 20
2.899876290389004
 30
0.0
 70
     8
  0
VERTEX
  5
509
330
495
100
AcDbEntity
  8
image
100
AcDbVertex
100
AcDb2dVertex
 10
2.342638500698766
 20
2.900318530883549
 30
0.0
 70
     8
  0
VERTEX
  5
50A
330
495
100
AcDbEntity
  8
image
100
AcDbVertex
100
AcDb2dVertex
 10
2.342461220652166
 20
2.900753010708169
 30
0.0
 70
     8
  0
VERTEX
  5
50B
330
495
100
AcDbEntity
  8
image
100
AcDbVertex
100
AcDb2dVertex
 10
2.342285193262742
 20
2.901178337801043
 30
0.0
 70
     8
  0
VERTEX
  5
50C
330
495
100
AcDbEntity
  8
image
100
AcDbVertex
100
AcDb2dVertex
 10
2.342113179550898
 20
2.901593120100352
 30
0.0
 70
     8
  0
VERTEX
  5
50D
330
495
100
AcDbEntity
  8
image
100
AcDbVertex
100
AcDb2dVertex
 10
2.341947198087893
 20
2.901996694923555
 30
0.0
 70
     8
  0
VERTEX
  5
50E
330
495
100
AcDbEntity
  8
image
100
AcDbVertex
100
AcDb2dVertex
 10
2.341786297648382
 20
2.902391317105219
 30
0.0
 70
     8
  0
VERTEX
  5
50F
330
495
100
AcDbEntity
  8
image
100
AcDbVertex
100
AcDb2dVertex
 10
2.341628784557864
 20
2.902779970859189
 30
0.0
 70
     8
  0
VERTEX
  5
510
330
495
100
AcDbEntity
  8
image
100
AcDbVertex
100
AcDb2dVertex
 10
2.341472965141843
 20
2.903165640399313
 30
0.0
 70
     8
  0
VERTEX
  5
511
330
495
100
AcDbEntity
  8
image
100
AcDbVertex
100
AcDb2dVertex
 10
2.341317145725822
 20
2.903551309939437
 30
0.0
 70
     8
  0
VERTEX
  5
512
330
495
100
AcDbEntity
  8
image
100
AcDbVertex
100
AcDb2dVertex
 10
2.341159632635303
 20
2.903939963693408
 30
0.0
 70
     8
  0
VERTEX
  5
513
330
495
100
AcDbEntity
  8
image
100
AcDbVertex
100
AcDb2dVertex
 10
2.340998732195791
 20
2.904334585875071
 30
0.0
 70
     8
  0
VERTEX
  5
514
330
495
100
AcDbEntity
  8
image
100
AcDbVertex
100
AcDb2dVertex
 10
2.340832750732786
 20
2.904738160698273
 30
0.0
 70
     8
  0
VERTEX
  5
515
330
495
100
AcDbEntity
  8
image
100
AcDbVertex
100
AcDb2dVertex
 10
2.340660931821823
 20
2.905152889163968
 30
0.0
 70
     8
  0
VERTEX
  5
516
330
495
100
AcDbEntity
  8
image
100
AcDbVertex
100
AcDb2dVertex
 10
2.340486268038557
 20
2.905577839421539
 30
0.0
 70
     8
  0
VERTEX
  5
517
330
495
100
AcDbEntity
  8
image
100
AcDbVertex
100
AcDb2dVertex
 10
2.340312689208673
 20
2.906011296407476
 30
0.0
 70
     8
  0
VERTEX
  5
518
330
495
100
AcDbEntity
  8
image
100
AcDbVertex
100
AcDb2dVertex
 10
2.340144125157856
 20
2.906451545058271
 30
0.0
 70
     8
  0
VERTEX
  5
519
330
495
100
AcDbEntity
  8
image
100
AcDbVertex
100
AcDb2dVertex
 10
2.339984505711791
 20
2.906896870310412
 30
0.0
 70
     8
  0
VERTEX
  5
51A
330
495
100
AcDbEntity
  8
image
100
AcDbVertex
100
AcDb2dVertex
 10
2.339837760696167
 20
2.907345557100392
 30
0.0
 70
     8
  0
VERTEX
  5
51B
330
495
100
AcDbEntity
  8
image
100
AcDbVertex
100
AcDb2dVertex
 10
2.339707819936665
 20
2.907795890364701
 30
0.0
 70
     8
  0
VERTEX
  5
51C
330
495
100
AcDbEntity
  8
image
100
AcDbVertex
100
AcDb2dVertex
 10
2.339598613258974
 20
2.908246155039829
 30
0.0
 70
     8
  0
VERTEX
  5
51D
330
495
100
AcDbEntity
  8
image
100
AcDbVertex
100
AcDb2dVertex
 10
2.339514127093703
 20
2.908695983336876
 30
0.0
 70
     8
  0
VERTEX
  5
51E
330
495
100
AcDbEntity
  8
image
100
AcDbVertex
100
AcDb2dVertex
 10
2.339458574291171
 20
2.909150396565379
 30
0.0
 70
     8
  0
VERTEX
  5
51F
330
495
100
AcDbEntity
  8
image
100
AcDbVertex
100
AcDb2dVertex
 10
2.33943622430662
 20
2.909615763309483
 30
0.0
 70
     8
  0
VERTEX
  5
520
330
495
100
AcDbEntity
  8
image
100
AcDbVertex
100
AcDb2dVertex
 10
2.339451346595292
 20
2.910098452153337
 30
0.0
 70
     8
  0
VERTEX
  5
521
330
495
100
AcDbEntity
  8
image
100
AcDbVertex
100
AcDb2dVertex
 10
2.33950821061243
 20
2.910604831681085
 30
0.0
 70
     8
  0
VERTEX
  5
522
330
495
100
AcDbEntity
  8
image
100
AcDbVertex
100
AcDb2dVertex
 10
2.339611085813276
 20
2.911141270476873
 30
0.0
 70
     8
  0
VERTEX
  5
523
330
495
100
AcDbEntity
  8
image
100
AcDbVertex
100
AcDb2dVertex
 10
2.339764241653075
 20
2.911714137124847
 30
0.0
 70
     8
  0
VERTEX
  5
524
330
495
100
AcDbEntity
  8
image
100
AcDbVertex
100
AcDb2dVertex
 10
2.339971947587067
 20
2.912329800209154
 30
0.0
 70
     8
  0
VERTEX
  5
525
330
495
100
AcDbEntity
  8
image
100
AcDbVertex
100
AcDb2dVertex
 10
2.340338683389023
 20
2.913085169426655
 30
0.0
 70
     8
  0
VERTEX
  5
526
330
495
100
AcDbEntity
  8
image
100
AcDbVertex
100
AcDb2dVertex
 10
2.341369770106816
 20
2.914439318925071
 30
0.0
 70
     8
  0
VERTEX
  5
527
330
495
100
AcDbEntity
  8
image
100
AcDbVertex
100
AcDb2dVertex
 10
2.343670739106849
 20
2.916941863964839
 30
0.0
 70
     8
  0
VERTEX
  5
528
330
495
100
AcDbEntity
  8
image
100
AcDbVertex
100
AcDb2dVertex
 10
2.347847121755523
 20
2.921142419806397
 30
0.0
 70
     8
  0
VERTEX
  5
529
330
495
100
AcDbEntity
  8
image
100
AcDbVertex
100
AcDb2dVertex
 10
2.354504449419239
 20
2.927590601710179
 30
0.0
 70
     8
  0
VERTEX
  5
52A
330
495
100
AcDbEntity
  8
image
100
AcDbVertex
100
AcDb2dVertex
 10
2.364248253464396
 20
2.936836024936623
 30
0.0
 70
     8
  0
VERTEX
  5
52B
330
495
100
AcDbEntity
  8
image
100
AcDbVertex
100
AcDb2dVertex
 10
2.377684065257398
 20
2.949428304746167
 30
0.0
 70
     8
  0
VERTEX
  5
52C
330
495
100
AcDbEntity
  8
image
100
AcDbVertex
100
AcDb2dVertex
 10
2.395417416164643
 20
2.965917056399245
 30
0.0
 70
     8
  0
VERTEX
  5
496
330
495
100
AcDbEntity
  8
image
100
AcDbVertex
100
AcDb2dVertex
 10
2.337788841066315
 20
2.878096611839155
 30
0.0
 70
    16
  0
VERTEX
  5
4D8
330
495
100
AcDbEntity
  8
image
100
AcDbVertex
100
AcDb2dVertex
 10
2.342386502166597
 20
2.887776243916873
 30
0.0
 70
    16
  0
VERTEX
  5
4D9
330
495
100
AcDbEntity
  8
image
100
AcDbVertex
100
AcDb2dVertex
 10
2.343974008232272
 20
2.891202309676939
 30
0.0
 70
    16
  0
VERTEX
  5
4DA
330
495
100
AcDbEntity
  8
image
100
AcDbVertex
100
AcDb2dVertex
 10
2.344199819526613
 20
2.894360530609693
 30
0.0
 70
    16
  0
VERTEX
  5
4DB
330
495
100
AcDbEntity
  8
image
100
AcDbVertex
100
AcDb2dVertex
 10
2.34361039870466
 20
2.898066100130101
 30
0.0
 70
    16
  0
VERTEX
  5
4DC
330
495
100
AcDbEntity
  8
image
100
AcDbVertex
100
AcDb2dVertex
 10
2.342040916105682
 20
2.901720446557797
 30
0.0
 70
    16
  0
VERTEX
  5
4DD
330
495
100
AcDbEntity
  8
image
100
AcDbVertex
100
AcDb2dVertex
 10
2.340905014178003
 20
2.904610834240829
 30
0.0
 70
    16
  0
VERTEX
  5
4DE
330
495
100
AcDbEntity
  8
image
100
AcDbVertex
100
AcDb2dVertex
 10
2.339335531579026
 20
2.908265180668524
 30
0.0
 70
    16
  0
VERTEX
  5
4DF
330
495
100
AcDbEntity
  8
image
100
AcDbVertex
100
AcDb2dVertex
 10
2.339344539059739
 20
2.911805373324047
 30
0.0
 70
    16
  0
VERTEX
  5
4E0
330
495
100
AcDbEntity
  8
image
100
AcDbVertex
100
AcDb2dVertex
 10
2.341860178156193
 20
2.91626320930149
 30
0.0
 70
    16
  0
VERTEX
  5
4E1
330
495
100
AcDbEntity
  8
image
100
AcDbVertex
100
AcDb2dVertex
 10
2.395417416164643
 20
2.965917056399246
 30
0.0
 70
    16
  0
SEQEND
  5
4E2
330
495
100
AcDbEntity
  8
image
  0
POLYLINE
  5
830
330
10C1
100
AcDbEntity
  8
image
100
AcDb2dPolyline
 66
     1
 10
0.0
 20
0.0
 30
0.0
 70
     4
 75
     6
  0
VERTEX
  5
831
330
830
100
AcDbEntity
  8
image
100
AcDbVertex
100
AcDb2dVertex
 10
3.169330791420523
 20
6.184766957812544
 30
0.0
 70
    16
  0
VERTEX
  5
832
330
830
100
AcDbEntity
  8
image
100
AcDbVertex
100
AcDb2dVertex
 10
3.169330791420523
 20
6.184766957812544
 30
0.0
 70
     8
  0
VERTEX
  5
833
330
830
100
AcDbEntity
  8
image
100
AcDbVertex
100
AcDb2dVertex
 10
3.169003013247774
 20
6.184737089956796
 30
0.0
 70
     8
  0
VERTEX
  5
834
330
830
100
AcDbEntity
  8
image
100
AcDbVertex
100
AcDb2dVertex
 10
3.168284329197715
 20
6.18467154539562
 30
0.0
 70
     8
  0
VERTEX
  5
835
330
830
100
AcDbEntity
  8
image
100
AcDbVertex
100
AcDb2dVertex
 10
3.16725792854502
 20
6.184577830994781
 30
0.0
 70
     8
  0
VERTEX
  5
836
330
830
100
AcDbEntity
  8
image
100
AcDbVertex
100
AcDb2dVertex
 10
3.166007000564365
 20
6.184463453620051
 30
0.0
 70
     8
  0
VERTEX
  5
837
330
830
100
AcDbEntity
  8
image
100
AcDbVertex
100
AcDb2dVertex
 10
3.164614734530425
 20
6.184335920137197
 30
0.0
 70
     8
  0
VERTEX
  5
838
330
830
100
AcDbEntity
  8
image
100
AcDbVertex
100
AcDb2dVertex
 10
3.163164319717875
 20
6.184202737411989
 30
0.0
 70
     8
  0
VERTEX
  5
839
330
830
100
AcDbEntity
  8
image
100
AcDbVertex
100
AcDb2dVertex
 10
3.16173894540139
 20
6.184071412310196
 30
0.0
 70
     8
  0
VERTEX
  5
83A
330
830
100
AcDbEntity
  8
image
100
AcDbVertex
100
AcDb2dVertex
 10
3.160421800855647
 20
6.183949451697587
 30
0.0
 70
     8
  0
VERTEX
  5
83B
330
830
100
AcDbEntity
  8
image
100
AcDbVertex
100
AcDb2dVertex
 10
3.15927852333165
 20
6.183842422719354
 30
0.0
 70
     8
  0
VERTEX
  5
83C
330
830
100
AcDbEntity
  8
image
100
AcDbVertex
100
AcDb2dVertex
 10
3.158304541985722
 20
6.1837481336384
 30
0.0
 70
     8
  0
VERTEX
  5
83D
330
830
100
AcDbEntity
  8
image
100
AcDbVertex
100
AcDb2dVertex
 10
3.157477733950517
 20
6.183662452997048
 30
0.0
 70
     8
  0
VERTEX
  5
83E
330
830
100
AcDbEntity
  8
image
100
AcDbVertex
100
AcDb2dVertex
 10
3.156775976358686
 20
6.183581249337623
 30
0.0
 70
     8
  0
VERTEX
  5
83F
330
830
100
AcDbEntity
  8
image
100
AcDbVertex
100
AcDb2dVertex
 10
3.156177146342882
 20
6.18350039120245
 30
0.0
 70
     8
  0
VERTEX
  5
840
330
830
100
AcDbEntity
  8
image
100
AcDbVertex
100
AcDb2dVertex
 10
3.155659121035759
 20
6.183415747133853
 30
0.0
 70
     8
  0
VERTEX
  5
841
330
830
100
AcDbEntity
  8
image
100
AcDbVertex
100
AcDb2dVertex
 10
3.155199777569969
 20
6.18332318567416
 30
0.0
 70
     8
  0
VERTEX
  5
842
330
830
100
AcDbEntity
  8
image
100
AcDbVertex
100
AcDb2dVertex
 10
3.154776993078165
 20
6.183218575365691
 30
0.0
 70
     8
  0
VERTEX
  5
843
330
830
100
AcDbEntity
  8
image
100
AcDbVertex
100
AcDb2dVertex
 10
3.154372012874541
 20
6.183098491296062
 30
0.0
 70
     8
  0
VERTEX
  5
844
330
830
100
AcDbEntity
  8
image
100
AcDbVertex
100
AcDb2dVertex
 10
3.153979554999468
 20
6.182962334734037
 30
0.0
 70
     8
  0
VERTEX
  5
845
330
830
100
AcDbEntity
  8
image
100
AcDbVertex
100
AcDb2dVertex
 10
3.153597705674854
 20
6.182810213493666
 30
0.0
 70
     8
  0
VERTEX
  5
846
330
830
100
AcDbEntity
  8
image
100
AcDbVertex
100
AcDb2dVertex
 10
3.153224551122611
 20
6.182642235389002
 30
0.0
 70
     8
  0
VERTEX
  5
847
330
830
100
AcDbEntity
  8
image
100
AcDbVertex
100
AcDb2dVertex
 10
3.152858177564648
 20
6.1824585082341
 30
0.0
 70
     8
  0
VERTEX
  5
848
330
830
100
AcDbEntity
  8
image
100
AcDbVertex
100
AcDb2dVertex
 10
3.152496671222878
 20
6.182259139843007
 30
0.0
 70
     8
  0
VERTEX
  5
849
330
830
100
AcDbEntity
  8
image
100
AcDbVertex
100
AcDb2dVertex
 10
3.152138118319209
 20
6.182044238029776
 30
0.0
 70
     8
  0
VERTEX
  5
84A
330
830
100
AcDbEntity
  8
image
100
AcDbVertex
100
AcDb2dVertex
 10
3.151780605075554
 20
6.181813910608463
 30
0.0
 70
     8
  0
VERTEX
  5
84B
330
830
100
AcDbEntity
  8
image
100
AcDbVertex
100
AcDb2dVertex
 10
3.151422731692609
 20
6.181568300464931
 30
0.0
 70
     8
  0
VERTEX
  5
84C
330
830
100
AcDbEntity
  8
image
100
AcDbVertex
100
AcDb2dVertex
 10
3.151065154286214
 20
6.181307690772315
 30
0.0
 70
     8
  0
VERTEX
  5
84D
330
830
100
AcDbEntity
  8
image
100
AcDbVertex
100
AcDb2dVertex
 10
3.150709042950996
 20
6.181032399775557
 30
0.0
 70
     8
  0
VERTEX
  5
84E
330
830
100
AcDbEntity
  8
image
100
AcDbVertex
100
AcDb2dVertex
 10
3.150355567781582
 20
6.180742745719608
 30
0.0
 70
     8
  0
VERTEX
  5
84F
330
830
100
AcDbEntity
  8
image
100
AcDbVertex
100
AcDb2dVertex
 10
3.150005898872599
 20
6.180439046849413
 30
0.0
 70
     8
  0
VERTEX
  5
850
330
830
100
AcDbEntity
  8
image
100
AcDbVertex
100
AcDb2dVertex
 10
3.149661206318674
 20
6.180121621409918
 30
0.0
 70
     8
  0
VERTEX
  5
851
330
830
100
AcDbEntity
  8
image
100
AcDbVertex
100
AcDb2dVertex
 10
3.149322660214432
 20
6.17979078764607
 30
0.0
 70
     8
  0
VERTEX
  5
852
330
830
100
AcDbEntity
  8
image
100
AcDbVertex
100
AcDb2dVertex
 10
3.148991430654501
 20
6.17944686380282
 30
0.0
 70
     8
  0
VERTEX
  5
853
330
830
100
AcDbEntity
  8
image
100
AcDbVertex
100
AcDb2dVertex
 10
3.148668458070612
 20
6.179090629267957
 30
0.0
 70
     8
  0
VERTEX
  5
854
330
830
100
AcDbEntity
  8
image
100
AcDbVertex
100
AcDb2dVertex
 10
3.148353764242903
 20
6.178724708000668
 30
0.0
 70
     8
  0
VERTEX
  5
855
330
830
100
AcDbEntity
  8
image
100
AcDbVertex
100
AcDb2dVertex
 10
3.148047141288621
 20
6.178352185102989
 30
0.0
 70
     8
  0
VERTEX
  5
856
330
830
100
AcDbEntity
  8
image
100
AcDbVertex
100
AcDb2dVertex
 10
3.147748381325008
 20
6.177976145676951
 30
0.0
 70
     8
  0
VERTEX
  5
857
330
830
100
AcDbEntity
  8
image
100
AcDbVertex
100
AcDb2dVertex
 10
3.147457276469309
 20
6.17759967482459
 30
0.0
 70
     8
  0
VERTEX
  5
858
330
830
100
AcDbEntity
  8
image
100
AcDbVertex
100
AcDb2dVertex
 10
3.147173618838768
 20
6.177225857647939
 30
0.0
 70
     8
  0
VERTEX
  5
859
330
830
100
AcDbEntity
  8
image
100
AcDbVertex
100
AcDb2dVertex
 10
3.146897200550627
 20
6.176857779249031
 30
0.0
 70
     8
  0
VERTEX
  5
85A
330
830
100
AcDbEntity
  8
image
100
AcDbVertex
100
AcDb2dVertex
 10
3.146627813722133
 20
6.1764985247299
 30
0.0
 70
     8
  0
VERTEX
  5
85B
330
830
100
AcDbEntity
  8
image
100
AcDbVertex
100
AcDb2dVertex
 10
3.146365000801949
 20
6.176150168801331
 30
0.0
 70
     8
  0
VERTEX
  5
85C
330
830
100
AcDbEntity
  8
image
100
AcDbVertex
100
AcDb2dVertex
 10
3.146107305564433
 20
6.175810744609122
 30
0.0
 70
     8
  0
VERTEX
  5
85D
330
830
100
AcDbEntity
  8
image
100
AcDbVertex
100
AcDb2dVertex
 10
3.145853022115361
 20
6.175477274907817
 30
0.0
 70
     8
  0
VERTEX
  5
85E
330
830
100
AcDbEntity
  8
image
100
AcDbVertex
100
AcDb2dVertex
 10
3.145600444560512
 20
6.175146782451966
 30
0.0
 70
     8
  0
VERTEX
  5
85F
330
830
100
AcDbEntity
  8
image
100
AcDbVertex
100
AcDb2dVertex
 10
3.145347867005663
 20
6.174816289996113
 30
0.0
 70
     8
  0
VERTEX
  5
860
330
830
100
AcDbEntity
  8
image
100
AcDbVertex
100
AcDb2dVertex
 10
3.145093583556592
 20
6.174482820294808
 30
0.0
 70
     8
  0
VERTEX
  5
861
330
830
100
AcDbEntity
  8
image
100
AcDbVertex
100
AcDb2dVertex
 10
3.144835888319077
 20
6.174143396102598
 30
0.0
 70
     8
  0
VERTEX
  5
862
330
830
100
AcDbEntity
  8
image
100
AcDbVertex
100
AcDb2dVertex
 10
3.144573075398892
 20
6.173795040174031
 30
0.0
 70
     8
  0
VERTEX
  5
863
330
830
100
AcDbEntity
  8
image
100
AcDbVertex
100
AcDb2dVertex
 10
3.144303635706643
 20
6.173435980721206
 30
0.0
 70
     8
  0
VERTEX
  5
864
330
830
100
AcDbEntity
  8
image
100
AcDbVertex
100
AcDb2dVertex
 10
3.144026847372213
 20
6.173069267786448
 30
0.0
 70
     8
  0
VERTEX
  5
865
330
830
100
AcDbEntity
  8
image
100
AcDbVertex
100
AcDb2dVertex
 10
3.143742185330316
 20
6.172699156869634
 30
0.0
 70
     8
  0
VERTEX
  5
866
330
830
100
AcDbEntity
  8
image
100
AcDbVertex
100
AcDb2dVertex
 10
3.143449124515664
 20
6.172329903470639
 30
0.0
 70
     8
  0
VERTEX
  5
867
330
830
100
AcDbEntity
  8
image
100
AcDbVertex
100
AcDb2dVertex
 10
3.143147139862966
 20
6.171965763089341
 30
0.0
 70
     8
  0
VERTEX
  5
868
330
830
100
AcDbEntity
  8
image
100
AcDbVertex
100
AcDb2dVertex
 10
3.142835706306934
 20
6.171610991225617
 30
0.0
 70
     8
  0
VERTEX
  5
869
330
830
100
AcDbEntity
  8
image
100
AcDbVertex
100
AcDb2dVertex
 10
3.142514298782278
 20
6.171269843379342
 30
0.0
 70
     8
  0
VERTEX
  5
86A
330
830
100
AcDbEntity
  8
image
100
AcDbVertex
100
AcDb2dVertex
 10
3.142182392223708
 20
6.170946575050399
 30
0.0
 70
     8
  0
VERTEX
  5
86B
330
830
100
AcDbEntity
  8
image
100
AcDbVertex
100
AcDb2dVertex
 10
3.14183827322286
 20
6.170644804405368
 30
0.0
 70
     8
  0
VERTEX
  5
86C
330
830
100
AcDbEntity
  8
image
100
AcDbVertex
100
AcDb2dVertex
 10
3.141475474999054
 20
6.170365600277692
 30
0.0
 70
     8
  0
VERTEX
  5
86D
330
830
100
AcDbEntity
  8
image
100
AcDbVertex
100
AcDb2dVertex
 10
3.141086342428535
 20
6.17010939416752
 30
0.0
 70
     8
  0
VERTEX
  5
86E
330
830
100
AcDbEntity
  8
image
100
AcDbVertex
100
AcDb2dVertex
 10
3.140663220387548
 20
6.169876617575002
 30
0.0
 70
     8
  0
VERTEX
  5
86F
330
830
100
AcDbEntity
  8
image
100
AcDbVertex
100
AcDb2dVertex
 10
3.140198453752335
 20
6.169667702000285
 30
0.0
 70
     8
  0
VERTEX
  5
870
330
830
100
AcDbEntity
  8
image
100
AcDbVertex
100
AcDb2dVertex
 10
3.139684387399141
 20
6.169483078943518
 30
0.0
 70
     8
  0
VERTEX
  5
871
330
830
100
AcDbEntity
  8
image
100
AcDbVertex
100
AcDb2dVertex
 10
3.13911336620421
 20
6.169323179904854
 30
0.0
 70
     8
  0
VERTEX
  5
872
330
830
100
AcDbEntity
  8
image
100
AcDbVertex
100
AcDb2dVertex
 10
3.138477735043785
 20
6.169188436384441
 30
0.0
 70
     8
  0
VERTEX
  5
873
330
830
100
AcDbEntity
  8
image
100
AcDbVertex
100
AcDb2dVertex
 10
3.137640887044804
 20
6.169119420228471
 30
0.0
 70
     8
  0
VERTEX
  5
874
330
830
100
AcDbEntity
  8
image
100
AcDbVertex
100
AcDb2dVertex
 10
3.135950408336957
 20
6.169317264667323
 30
0.0
 70
     8
  0
VERTEX
  5
875
330
830
100
AcDbEntity
  8
image
100
AcDbVertex
100
AcDb2dVertex
 10
3.132624933300624
 20
6.170023243277417
 30
0.0
 70
     8
  0
VERTEX
  5
876
330
830
100
AcDbEntity
  8
image
100
AcDbVertex
100
AcDb2dVertex
 10
3.126883096316187
 20
6.171478629635172
 30
0.0
 70
     8
  0
VERTEX
  5
877
330
830
100
AcDbEntity
  8
image
100
AcDbVertex
100
AcDb2dVertex
 10
3.11794353176403
 20
6.173924697317013
 30
0.0
 70
     8
  0
VERTEX
  5
878
330
830
100
AcDbEntity
  8
image
100
AcDbVertex
100
AcDb2dVertex
 10
3.105024874024532
 20
6.177602719899356
 30
0.0
 70
     8
  0
VERTEX
  5
879
330
830
100
AcDbEntity
  8
image
100
AcDbVertex
100
AcDb2dVertex
 10
3.087345757478077
 20
6.182753970958624
 30
0.0
 70
     8
  0
VERTEX
  5
87A
330
830
100
AcDbEntity
  8
image
100
AcDbVertex
100
AcDb2dVertex
 10
3.064124816505044
 20
6.189619724071238
 30
0.0
 70
     8
  0
VERTEX
  5
87B
330
830
100
AcDbEntity
  8
image
100
AcDbVertex
100
AcDb2dVertex
 10
3.169051870151543
 20
6.184741551907364
 30
0.0
 70
    16
  0
VERTEX
  5
87C
330
830
100
AcDbEntity
  8
image
100
AcDbVertex
100
AcDb2dVertex
 10
3.158379997704536
 20
6.183769490578093
 30
0.0
 70
    16
  0
VERTEX
  5
87D
330
830
100
AcDbEntity
  8
image
100
AcDbVertex
100
AcDb2dVertex
 10
3.154623007940687
 20
6.183391165301143
 30
0.0
 70
    16
  0
VERTEX
  5
87E
330
830
100
AcDbEntity
  8
image
100
AcDbVertex
100
AcDb2dVertex
 10
3.151789929001701
 20
6.181977300411482
 30
0.0
 70
    16
  0
VERTEX
  5
87F
330
830
100
AcDbEntity
  8
image
100
AcDbVertex
100
AcDb2dVertex
 10
3.148900906505832
 20
6.179583096703713
 30
0.0
 70
    16
  0
VERTEX
  5
880
330
830
100
AcDbEntity
  8
image
100
AcDbVertex
100
AcDb2dVertex
 10
3.146555028901979
 20
6.176371495590585
 30
0.0
 70
    16
  0
VERTEX
  5
881
330
830
100
AcDbEntity
  8
image
100
AcDbVertex
100
AcDb2dVertex
 10
3.144645860219045
 20
6.173922069313344
 30
0.0
 70
    16
  0
VERTEX
  5
882
330
830
100
AcDbEntity
  8
image
100
AcDbVertex
100
AcDb2dVertex
 10
3.142299982615193
 20
6.170710468200217
 30
0.0
 70
    16
  0
VERTEX
  5
883
330
830
100
AcDbEntity
  8
image
100
AcDbVertex
100
AcDb2dVertex
 10
3.139248562662434
 20
6.168915508188174
 30
0.0
 70
    16
  0
VERTEX
  5
884
330
830
100
AcDbEntity
  8
image
100
AcDbVertex
100
AcDb2dVertex
 10
3.134130972219336
 20
6.168810580965208
 30
0.0
 70
    16
  0
VERTEX
  5
885
330
830
100
AcDbEntity
  8
image
100
AcDbVertex
100
AcDb2dVertex
 10
3.064124816505044
 20
6.189619724071238
 30
0.0
 70
    16
  0
SEQEND
  5
886
330
830
100
AcDbEntity
  8
image
  0
LWPOLYLINE
  5
887
330
10C1
100
AcDbEntity
  8
image
100
AcDbPolyline
 90
        2
 70
     0
 43
0.0
 10
3.169330791420523
 20
6.184766957812544
 10
3.168515597550603
 20
6.261520578445324
  0
LWPOLYLINE
  5
96A
330
10C1
100
AcDbEntity
  8
image
100
AcDbPolyline
 90
       65
 70
     0
 43
0.0
 10
3.168515597550603
 20
6.261520578445325
 10
3.164905320007035
 20
6.261799804523515
 10
3.162022650754904
 20
6.262026620054317
 10
3.159769874122259
 20
6.262210488687328
 10
3.158049274437146
 20
6.262360874072141
 10
3.156763136027613
 20
6.26248723985835
 10
3.155813743221708
 20
6.262599049695553
 10
3.155103380347476
 20
6.262705767233343
 10
3.154534331732967
 20
6.262816856121312
 10
3.154024236680964
 20
6.262940233340161
 10
3.153552154393207
 20
6.263077629194985
 10
3.153112499046175
 20
6.263229227321984
 10
3.152699684816345
 20
6.26339521135736
 10
3.152308125880198
 20
6.26357576493731
 10
3.151932236414209
 20
6.263771071698035
 10
3.151566430594859
 20
6.263981315275734
 10
3.151205122598623
 20
6.264206679306608
 10
3.150843853310218
 20
6.264447266509262
 10
3.150482670447299
 20
6.264702855931941
 10
3.150122748435757
 20
6.264973145705282
 10
3.149765261701485
 20
6.265257833959938
 10
3.149411384670374
 20
6.265556618826555
 10
3.149062291768315
 20
6.265869198435779
 10
3.148719157421201
 20
6.266195270918255
 10
3.148383156054922
 20
6.266534534404631
 10
3.148055238896387
 20
6.266886222719636
 10
3.147735464376557
 20
6.26724771246433
 10
3.147423667727406
 20
6.267615915933851
 10
3.147119684180915
 20
6.267987745423341
 10
3.146823348969057
 20
6.268360113227942
 10
3.146534497323812
 20
6.268729931642794
 10
3.146252964477153
 20
6.269094112963037
 10
3.14597858566106
 20
6.269449569483812
 10
3.145710932349572
 20
6.269794220305417
 10
3.145448520984992
 20
6.270130011748779
 10
3.145189604251681
 20
6.270459896939978
 10
3.144932434834006
 20
6.270786829005092
 10
3.144675265416331
 20
6.271113761070209
 10
3.14441634868302
 20
6.271443646261407
 10
3.144153937318439
 20
6.271779437704767
 10
3.143886284006952
 20
6.272124088526375
 10
3.143611855057058
 20
6.272479349261444
 10
3.143329971273791
 20
6.272842160081742
 10
3.14304016708632
 20
6.273208258568171
 10
3.142741976923814
 20
6.273573382301636
 10
3.142434935215444
 20
6.273933268863038
 10
3.142118576390375
 20
6.27428365583328
 10
3.14179243487778
 20
6.274620280793264
 10
3.141456045106824
 20
6.274938881323894
 10
3.141107744376911
 20
6.275235815677728
 10
3.140741081468361
 20
6.275509924793961
 10
3.140348408031734
 20
6.275760670283443
 10
3.139922075717583
 20
6.275987513757025
 10
3.139454436176466
 20
6.276189916825556
 10
3.138937841058938
 20
6.276367341099886
 10
3.138364642015556
 20
6.276519248190868
 10
3.137727190696873
 20
6.276645099709351
 10
3.136889410371949
 20
6.276702304247153
 10
3.135201510783858
 20
6.276480058319969
 10
3.131885273294169
 20
6.275725505424457
 10
3.126162479264458
 20
6.274185789057281
 10
3.117254910056296
 20
6.271608052715104
 10
3.10438434703126
 20
6.267739439894584
 10
3.086772571550921
 20
6.262327094092384
 10
3.064317433317336
 20
6.255328858273029
  0
LWPOLYLINE
  5
9B0
330
10C1
100
AcDbEntity
  8
image
100
AcDbPolyline
 90
        4
 70
     1
 43
0.0
 10
3.168923194485563
 20
6.393434983149141
 10
3.319490630930837
 20
6.393434983149141
 10
3.319490630930837
 20
6.052852553108725
 10
3.168923194485563
 20
6.052852553108725
  0
LWPOLYLINE
  5
9B4
330
10C1
100
AcDbEntity
  8
image
100
AcDbPolyline
 90
        2
 70
     0
 43
0.0
 10
3.334846398180119
 20
6.261522742910989
 10
3.319490630930837
 20
6.261522742910989
  0
LWPOLYLINE
  5
9B5
330
10C1
100
AcDbEntity
  8
image
100
AcDbPolyline
 90
        2
 70
     0
 43
0.0
 10
3.334846398180119
 20
6.184764793346878
 10
3.319490630930837
 20
6.184764793346878
  0
ARC
  5
9B8
330
10C1
100
AcDbEntity
  8
image
100
AcDbCircle
 10
3.533975430180516
 20
6.223143768128934
 30
0.0
 40
0.2027937797141143
100
AcDbArc
 50
270.0
 51
90.0
  0
ARC
  5
9B9
330
10C1
100
AcDbEntity
  8
image
100
AcDbCircle
 10
3.533975430180516
 20
6.223143768128934
 30
0.0
 40
0.2027937797141145
100
AcDbArc
 50
90.0
 51
270.0
  0
LWPOLYLINE
  5
9BA
330
10C1
100
AcDbEntity
  8
image
100
AcDbPolyline
 90
        3
 70
     0
 43
0.0
 10
3.533975430180516
 20
6.425937547843048
 42
-1.0
 10
3.533975430180516
 20
6.223143768128934
 42
0.9999999999999998
 10
3.533975430180516
 20
6.02034998841482
 42
0.9999999999999998
  0
INSERT
  5
9BB
330
10C1
100
AcDbEntity
  8
image
  6
Continuous
100
AcDbBlockReference
  2
*U0
 10
0.0
 20
1.27763069323909
 30
0.0
1001
ACAD
1002
{
1000
R14_HATCH_DATA
1000
9BB
1011
1.0
1021
1.27763069323909
1031
0.0
1011
0.0
1021
2.27763069323909
1031
0.0
1011
0.0
1021
1.27763069323909
1031
1.0
1040
0.0
1010
0.0
1020
0.0
1030
1.0
1000
SOLID
1070
     1
1070
     0
1071
        1
1071
        1
1071
        3
1070
     2
1040
3.533975430180516
1040
4.945513074889841
1040
0.2027937797141143
1040
4.712388980384689
1040
7.853981633974482
1070
     1
1070
     2
1040
3.533975430180516
1040
5.0469099647469
1040
0.1013968898570573
1040
4.712388980384689
1040
7.853981633974482
1070
     0
1070
     2
1040
3.533975430180516
1040
4.844116185032785
1040
0.1013968898570573
1040
1.570796326794896
1040
4.712388980384689
1070
     1
1071
        0
1070
     0
1070
     1
1071
        1
1040
0.6842136253258577
1040
1.521370937345172
1040
0.0
1002
}
  0
LWPOLYLINE
  5
9BC
330
10C1
100
AcDbEntity
  8
image
100
AcDbPolyline
 90
        2
 70
     0
 43
0.0
 10
2.360833874859288
 20
6.487347712471948
 10
3.814352274246394
 20
6.487347712471948
  0
LWPOLYLINE
  5
9BD
330
10C1
100
AcDbEntity
  8
image
100
AcDbPolyline
 90
        2
 70
     0
 43
0.0
 10
1.73578455382263
 20
6.487347712471947
 10
0.7751655625014121
 20
6.487347712471947
  0
ARC
  5
A34
330
10C1
100
AcDbEntity
  8
image
100
AcDbCircle
 10
1.558780132813374
 20
6.781319265209493
 30
0.0
 40
0.1065815326392652
100
AcDbArc
 50
116.0563205359582
 51
205.254994024374
  0
ARC
  5
A35
330
10C1
100
AcDbEntity
  8
image
100
AcDbCircle
 10
1.415569469940392
 20
6.831595386739182
 30
0.0
 40
0.1065815326392652
100
AcDbArc
 50
296.0563205359582
 51
25.2549940243739
  0
ARC
  5
A36
330
10C1
100
AcDbEntity
  8
image
100
AcDbCircle
 10
1.09855095765238
 20
6.741515693404971
 30
0.0
 40
0.1065815326392652
100
AcDbArc
 50
116.0563205359582
 51
205.254994024374
  0
ARC
  5
A37
330
10C1
100
AcDbEntity
  8
image
100
AcDbCircle
 10
0.9553402947793996
 20
6.79179181493466
 30
0.0
 40
0.1065815326392652
100
AcDbArc
 50
296.0563205359582
 51
25.2549940243739
  0
ARC
  5
A38
330
10C1
100
AcDbEntity
  8
image
100
AcDbCircle
 10
1.160744089430893
 20
7.040042481938884
 30
0.0
 40
0.1065815326392652
100
AcDbArc
 50
116.0563205359582
 51
205.254994024374
  0
ARC
  5
A39
330
10C1
100
AcDbEntity
  8
image
100
AcDbCircle
 10
1.017533426557912
 20
7.090318603468574
 30
0.0
 40
0.1065815326392652
100
AcDbArc
 50
296.0563205359582
 51
25.2549940243739
  0
ARC
  5
A3A
330
10C1
100
AcDbEntity
  8
image
100
AcDbCircle
 10
1.170694990515456
 20
7.147014581163537
 30
0.0
 40
0.1065815326392652
100
AcDbArc
 50
116.0563205359582
 51
205.254994024374
  0
ARC
  5
A3B
330
10C1
100
AcDbEntity
  8
image
100
AcDbCircle
 10
1.027484327642473
 20
7.197290702693225
 30
0.0
 40
0.1065815326392652
100
AcDbArc
 50
296.0563205359582
 51
25.2549940243739
  0
ARC
  5
A3C
330
10C1
100
AcDbEntity
  8
image
100
AcDbCircle
 10
1.282642627716778
 20
7.020140696036624
 30
0.0
 40
0.1065815326392652
100
AcDbArc
 50
116.0563205359582
 51
205.254994024374
  0
ARC
  5
A3D
330
10C1
100
AcDbEntity
  8
image
100
AcDbCircle
 10
1.139431964843796
 20
7.070416817566312
 30
0.0
 40
0.1065815326392652
100
AcDbArc
 50
296.0563205359582
 51
25.2549940243739
  0
ARC
  5
A3E
330
10C1
100
AcDbEntity
  8
image
100
AcDbCircle
 10
1.464246572510035
 20
7.010189803085494
 30
0.0
 40
0.1065815326392652
100
AcDbArc
 50
116.0563205359582
 51
205.254994024374
  0
ARC
  5
A3F
330
10C1
100
AcDbEntity
  8
image
100
AcDbCircle
 10
1.321035909637053
 20
7.060465924615183
 30
0.0
 40
0.1065815326392652
100
AcDbArc
 50
296.0563205359582
 51
25.2549940243739
  0
ARC
  5
A40
330
10C1
100
AcDbEntity
  8
image
100
AcDbCircle
 10
1.424442968171788
 20
6.878340471483014
 30
0.0
 40
0.1065815326392652
100
AcDbArc
 50
116.0563205359582
 51
205.254994024374
  0
ARC
  5
A41
330
10C1
100
AcDbEntity
  8
image
100
AcDbCircle
 10
1.281232305298805
 20
6.928616593012704
 30
0.0
 40
0.1065815326392652
100
AcDbArc
 50
296.0563205359582
 51
25.2549940243739
  0
ARC
  5
A42
330
10C1
100
AcDbEntity
  8
image
100
AcDbCircle
 10
1.643362792032152
 20
6.734052523691623
 30
0.0
 40
0.1065815326392652
100
AcDbArc
 50
116.0563205359582
 51
205.254994024374
  0
ARC
  5
A43
330
10C1
100
AcDbEntity
  8
image
100
AcDbCircle
 10
1.500152129159169
 20
6.784328645221312
 30
0.0
 40
0.1065815326392652
100
AcDbArc
 50
296.0563205359582
 51
25.2549940243739
  0
ARC
  5
A44
330
10C1
100
AcDbEntity
  8
image
100
AcDbCircle
 10
1.133379111448348
 20
6.890779087671927
 30
0.0
 40
0.1065815326392652
100
AcDbArc
 50
116.0563205359582
 51
205.254994024374
  0
ARC
  5
A45
330
10C1
100
AcDbEntity
  8
image
100
AcDbCircle
 10
0.9901684485753657
 20
6.941055209201616
 30
0.0
 40
0.1065815326392652
100
AcDbArc
 50
296.0563205359582
 51
25.2549940243739
  0
ARC
  5
A46
330
10C1
100
AcDbEntity
  8
image
100
AcDbCircle
 10
1.359762111122133
 20
6.669371719509274
 30
0.0
 40
0.1065815326392652
100
AcDbArc
 50
116.0563205359582
 51
205.254994024374
  0
ARC
  5
A47
330
10C1
100
AcDbEntity
  8
image
100
AcDbCircle
 10
1.216551448249152
 20
6.719647841038965
 30
0.0
 40
0.1065815326392652
100
AcDbArc
 50
296.0563205359582
 51
25.2549940243739
  0
ARC
  5
A48
330
10C1
100
AcDbEntity
  8
image
100
AcDbCircle
 10
1.374688462748977
 20
6.564887343522406
 30
0.0
 40
0.1065815326392652
100
AcDbArc
 50
116.0563205359582
 51
205.254994024374
  0
ARC
  5
A49
330
10C1
100
AcDbEntity
  8
image
100
AcDbCircle
 10
1.231477799875996
 20
6.615163465052094
 30
0.0
 40
0.1065815326392652
100
AcDbArc
 50
296.0563205359582
 51
25.2549940243739
  0
ARC
  5
A4A
330
10C1
100
AcDbEntity
  8
image
100
AcDbCircle
 10
1.48912382522144
 20
6.67434716598484
 30
0.0
 40
0.1065815326392652
100
AcDbArc
 50
116.0563205359582
 51
205.254994024374
  0
ARC
  5
A4B
330
10C1
100
AcDbEntity
  8
image
100
AcDbCircle
 10
1.345913162348458
 20
6.724623287514529
 30
0.0
 40
0.1065815326392652
100
AcDbArc
 50
296.0563205359582
 51
25.2549940243739
  0
ARC
  5
A4C
330
10C1
100
AcDbEntity
  8
image
100
AcDbCircle
 10
1.669227861068147
 20
6.582029116870255
 30
0.0
 40
0.1065815326392652
100
AcDbArc
 50
143.5307656099477
 51
232.7294390983635
  0
ARC
  5
A4D
330
10C1
100
AcDbEntity
  8
image
100
AcDbCircle
 10
1.518973933633769
 20
6.560564270093915
 30
0.0
 40
0.1065815326392652
100
AcDbArc
 50
323.5307656099477
 51
52.72943909836342
  0
ARC
  5
A4E
330
10C1
100
AcDbEntity
  8
image
100
AcDbCircle
 10
1.33995091288473
 20
7.156767062790401
 30
0.0
 40
0.1065815326392652
100
AcDbArc
 50
143.5307656099477
 51
232.7294390983635
  0
ARC
  5
A4F
330
10C1
100
AcDbEntity
  8
image
100
AcDbCircle
 10
1.189696985450352
 20
7.135302216014062
 30
0.0
 40
0.1065815326392652
100
AcDbArc
 50
323.5307656099477
 51
52.72943909836342
  0
ARC
  5
A52
330
10C1
100
AcDbEntity
  8
image
100
AcDbCircle
 10
1.208240133611362
 20
6.941240333070346
 30
0.0
 40
0.1065815326392652
100
AcDbArc
 50
143.5307656099477
 51
232.7294390983635
  0
ARC
  5
A53
330
10C1
100
AcDbEntity
  8
image
100
AcDbCircle
 10
1.057986206176986
 20
6.919775486294007
 30
0.0
 40
0.1065815326392652
100
AcDbArc
 50
323.5307656099477
 51
52.72943909836342
  0
ARC
  5
A54
330
10C1
100
AcDbEntity
  8
image
100
AcDbCircle
 10
1.148371597578014
 20
6.671831920920277
 30
0.0
 40
0.1065815326392652
100
AcDbArc
 50
143.5307656099477
 51
232.7294390983635
  0
ARC
  5
A55
330
10C1
100
AcDbEntity
  8
image
100
AcDbCircle
 10
0.9981176701436364
 20
6.650367074143939
 30
0.0
 40
0.1065815326392652
100
AcDbArc
 50
323.5307656099477
 51
52.72943909836342
  0
ARC
  5
A56
330
10C1
100
AcDbEntity
  8
image
100
AcDbCircle
 10
1.11843732956134
 20
6.588015970473589
 30
0.0
 40
0.1065815326392652
100
AcDbArc
 50
143.5307656099477
 51
232.7294390983635
  0
ARC
  5
A57
330
10C1
100
AcDbEntity
  8
image
100
AcDbCircle
 10
0.9681834021269628
 20
6.566551123697249
 30
0.0
 40
0.1065815326392652
100
AcDbArc
 50
323.5307656099477
 51
52.72943909836342
  0
ARC
  5
A58
330
10C1
100
AcDbEntity
  8
image
100
AcDbCircle
 10
1.220213840818033
 20
6.576042263266919
 30
0.0
 40
0.1065815326392652
100
AcDbArc
 50
143.5307656099477
 51
232.7294390983635
  0
ARC
  5
A59
330
10C1
100
AcDbEntity
  8
image
100
AcDbCircle
 10
1.069959913383656
 20
6.554577416490581
 30
0.0
 40
0.1065815326392652
100
AcDbArc
 50
323.5307656099477
 51
52.72943909836342
  0
ARC
  5
A5A
330
10C1
100
AcDbEntity
  8
image
100
AcDbCircle
 10
1.274095523248046
 20
6.815516407400314
 30
0.0
 40
0.1065815326392652
100
AcDbArc
 50
143.5307656099477
 51
232.7294390983635
  0
ARC
  5
A5B
330
10C1
100
AcDbEntity
  8
image
100
AcDbCircle
 10
1.123841595813669
 20
6.794051560623974
 30
0.0
 40
0.1065815326392652
100
AcDbArc
 50
323.5307656099477
 51
52.72943909836342
  0
ARC
  5
A5C
330
10C1
100
AcDbEntity
  8
image
100
AcDbCircle
 10
1.369885180901404
 20
6.899332357847002
 30
0.0
 40
0.1065815326392652
100
AcDbArc
 50
143.5307656099477
 51
232.7294390983635
  0
ARC
  5
A5D
330
10C1
100
AcDbEntity
  8
image
100
AcDbCircle
 10
1.219631253467027
 20
6.877867511070664
 30
0.0
 40
0.1065815326392652
100
AcDbArc
 50
323.5307656099477
 51
52.72943909836342
  0
ARC
  5
A5E
330
10C1
100
AcDbEntity
  8
image
100
AcDbCircle
 10
1.585411910621459
 20
6.989135161897025
 30
0.0
 40
0.1065815326392652
100
AcDbArc
 50
143.5307656099477
 51
232.7294390983635
  0
ARC
  5
A5F
330
10C1
100
AcDbEntity
  8
image
100
AcDbCircle
 10
1.435157983187081
 20
6.967670315120685
 30
0.0
 40
0.1065815326392652
100
AcDbArc
 50
323.5307656099477
 51
52.72943909836342
  0
ARC
  5
A60
330
10C1
100
AcDbEntity
  8
image
100
AcDbCircle
 10
1.555477642604785
 20
6.929266625863676
 30
0.0
 40
0.1065815326392652
100
AcDbArc
 50
143.5307656099477
 51
232.7294390983635
  0
ARC
  5
A61
330
10C1
100
AcDbEntity
  8
image
100
AcDbCircle
 10
1.405223715170407
 20
6.907801779087337
 30
0.0
 40
0.1065815326392652
100
AcDbArc
 50
323.5307656099477
 51
52.72943909836342
  0
ARC
  5
A62
330
10C1
100
AcDbEntity
  8
image
100
AcDbCircle
 10
1.507582813778105
 20
6.821503261003649
 30
0.0
 40
0.1065815326392652
100
AcDbArc
 50
143.5307656099477
 51
232.7294390983635
  0
ARC
  5
A63
330
10C1
100
AcDbEntity
  8
image
100
AcDbCircle
 10
1.357328886343729
 20
6.80003841422731
 30
0.0
 40
0.1065815326392652
100
AcDbArc
 50
323.5307656099477
 51
52.72943909836342
  0
ARC
  5
A64
330
10C1
100
AcDbEntity
  8
image
100
AcDbCircle
 10
1.423766863331417
 20
6.671831920920277
 30
0.0
 40
0.1065815326392652
100
AcDbArc
 50
143.5307656099477
 51
232.7294390983635
  0
ARC
  5
A65
330
10C1
100
AcDbEntity
  8
image
100
AcDbCircle
 10
1.27351293589704
 20
6.650367074143939
 30
0.0
 40
0.1065815326392652
100
AcDbArc
 50
323.5307656099477
 51
52.72943909836342
  0
ARC
  5
A66
330
10C1
100
AcDbEntity
  8
image
100
AcDbCircle
 10
1.298042937661385
 20
6.576042263266919
 30
0.0
 40
0.1065815326392652
100
AcDbArc
 50
143.5307656099477
 51
232.7294390983635
  0
ARC
  5
A67
330
10C1
100
AcDbEntity
  8
image
100
AcDbCircle
 10
1.147789010227009
 20
6.554577416490581
 30
0.0
 40
0.1065815326392652
100
AcDbArc
 50
323.5307656099477
 51
52.72943909836342
  0
ARC
  5
A68
330
10C1
100
AcDbEntity
  8
image
100
AcDbCircle
 10
1.495609106571435
 20
6.56406855606025
 30
0.0
 40
0.1065815326392652
100
AcDbArc
 50
143.5307656099477
 51
232.7294390983635
  0
ARC
  5
A69
330
10C1
100
AcDbEntity
  8
image
100
AcDbCircle
 10
1.345355179137058
 20
6.542603709283911
 30
0.0
 40
0.1065815326392652
100
AcDbArc
 50
323.5307656099477
 51
52.72943909836342
  0
ARC
  5
A6A
330
10C1
100
AcDbEntity
  8
image
100
AcDbCircle
 10
1.603372471431463
 20
6.59998967768026
 30
0.0
 40
0.1065815326392652
100
AcDbArc
 50
143.5307656099477
 51
232.7294390983635
  0
ARC
  5
A6B
330
10C1
100
AcDbEntity
  8
image
100
AcDbCircle
 10
1.453118543997087
 20
6.578524830903919
 30
0.0
 40
0.1065815326392652
100
AcDbArc
 50
323.5307656099477
 51
52.72943909836342
  0
ARC
  5
A6C
330
10C1
100
AcDbEntity
  8
image
100
AcDbCircle
 10
1.699162129084821
 20
6.815516407400314
 30
0.0
 40
0.1065815326392652
100
AcDbArc
 50
143.5307656099477
 51
232.7294390983635
  0
ARC
  5
A6D
330
10C1
100
AcDbEntity
  8
image
100
AcDbCircle
 10
1.548908201650444
 20
6.794051560623974
 30
0.0
 40
0.1065815326392652
100
AcDbArc
 50
323.5307656099477
 51
52.72943909836342
  0
ARC
  5
A70
330
10C1
100
AcDbEntity
  8
image
100
AcDbCircle
 10
1.435740570538088
 20
7.144793355583732
 30
0.0
 40
0.1065815326392652
100
AcDbArc
 50
143.5307656099477
 51
232.7294390983635
  0
ARC
  5
A71
330
10C1
100
AcDbEntity
  8
image
100
AcDbCircle
 10
1.28548664310371
 20
7.123328508807392
 30
0.0
 40
0.1065815326392652
100
AcDbArc
 50
323.5307656099477
 51
52.72943909836342
  0
ARC
  5
A72
330
10C1
100
AcDbEntity
  8
image
100
AcDbCircle
 10
1.519556520984777
 20
7.007095722707028
 30
0.0
 40
0.1065815326392652
100
AcDbArc
 50
143.5307656099477
 51
232.7294390983635
  0
ARC
  5
A73
330
10C1
100
AcDbEntity
  8
image
100
AcDbCircle
 10
1.369302593550398
 20
6.985630875930691
 30
0.0
 40
0.1065815326392652
100
AcDbArc
 50
323.5307656099477
 51
52.72943909836342
  0
ARC
  5
A74
330
10C1
100
AcDbEntity
  8
image
100
AcDbCircle
 10
1.208240133611362
 20
7.066964258740378
 30
0.0
 40
0.1065815326392652
100
AcDbArc
 50
143.5307656099477
 51
232.7294390983635
  0
ARC
  5
A75
330
10C1
100
AcDbEntity
  8
image
100
AcDbCircle
 10
1.057986206176986
 20
7.045499411964038
 30
0.0
 40
0.1065815326392652
100
AcDbArc
 50
323.5307656099477
 51
52.72943909836342
  0
ARC
  5
A76
330
10C1
100
AcDbEntity
  8
image
100
AcDbCircle
 10
1.694605913566497
 20
6.706705171646008
 30
0.0
 40
0.1065815326392652
100
AcDbArc
 50
159.7199718669748
 51
248.9186453553905
  0
ARC
  5
A77
330
10C1
100
AcDbEntity
  8
image
100
AcDbCircle
 10
1.556294739412418
 20
6.644199160249454
 30
0.0
 40
0.1065815326392652
100
AcDbArc
 50
339.7199718669747
 51
68.91864535539045
  0
ARC
  5
A78
330
10C1
100
AcDbEntity
  8
image
100
AcDbCircle
 10
1.592829402309806
 20
6.862363365332715
 30
0.0
 40
0.1065815326392652
100
AcDbArc
 50
159.7199718669748
 51
248.9186453553905
  0
ARC
  5
A79
330
10C1
100
AcDbEntity
  8
image
100
AcDbCircle
 10
1.454518228155725
 20
6.799857353936158
 30
0.0
 40
0.1065815326392652
100
AcDbArc
 50
339.7199718669747
 51
68.91864535539045
  0
ARC
  5
A7A
330
10C1
100
AcDbEntity
  8
image
100
AcDbCircle
 10
1.347368404573076
 20
6.826442243712706
 30
0.0
 40
0.1065815326392652
100
AcDbArc
 50
159.7199718669748
 51
248.9186453553905
  0
ARC
  5
A7B
330
10C1
100
AcDbEntity
  8
image
100
AcDbCircle
 10
1.209057230418995
 20
6.763936232316149
 30
0.0
 40
0.1065815326392652
100
AcDbArc
 50
339.7199718669747
 51
68.91864535539045
  0
ARC
  5
A7C
330
10C1
100
AcDbEntity
  8
image
100
AcDbCircle
 10
1.305460429349732
 20
6.724665732456013
 30
0.0
 40
0.1065815326392652
100
AcDbArc
 50
159.7199718669748
 51
248.9186453553905
  0
ARC
  5
A7D
330
10C1
100
AcDbEntity
  8
image
100
AcDbCircle
 10
1.167149255195651
 20
6.662159721059457
 30
0.0
 40
0.1065815326392652
100
AcDbArc
 50
339.7199718669747
 51
68.91864535539045
  0
ARC
  5
A7E
330
10C1
100
AcDbEntity
  8
image
100
AcDbCircle
 10
1.183960816904644
 20
6.807069792381988
 30
0.0
 40
0.1065815326392652
100
AcDbArc
 50
159.7199718669748
 51
248.9186453553905
  0
ARC
  5
A7F
330
10C1
100
AcDbEntity
  8
image
100
AcDbCircle
 10
1.045649642750563
 20
6.744563780985433
 30
0.0
 40
0.1065815326392652
100
AcDbArc
 50
339.7199718669747
 51
68.91864535539045
  0
ARC
  5
A80
330
10C1
100
AcDbEntity
  8
image
100
AcDbCircle
 10
1.347368404573076
 20
7.00604785181275
 30
0.0
 40
0.1065815326392652
100
AcDbArc
 50
159.7199718669748
 51
248.9186453553905
  0
ARC
  5
A81
330
10C1
100
AcDbEntity
  8
image
100
AcDbCircle
 10
1.209057230418995
 20
6.943541840416195
 30
0.0
 40
0.1065815326392652
100
AcDbArc
 50
339.7199718669747
 51
68.91864535539045
  0
ARC
  5
A82
330
10C1
100
AcDbEntity
  8
image
100
AcDbCircle
 10
1.544934573483127
 20
7.143745484689453
 30
0.0
 40
0.1065815326392652
100
AcDbArc
 50
159.7199718669748
 51
248.9186453553905
  0
ARC
  5
A83
330
10C1
100
AcDbEntity
  8
image
100
AcDbCircle
 10
1.406623399329045
 20
7.081239473292898
 30
0.0
 40
0.1065815326392652
100
AcDbArc
 50
339.7199718669747
 51
68.91864535539045
  0
ARC
  5
A84
330
10C1
100
AcDbEntity
  8
image
100
AcDbCircle
 10
1.455131769433104
 20
6.970126730192742
 30
0.0
 40
0.1065815326392652
100
AcDbArc
 50
159.7199718669748
 51
248.9186453553905
  0
ARC
  5
A85
330
10C1
100
AcDbEntity
  8
image
100
AcDbCircle
 10
1.316820595279024
 20
6.907620718796186
 30
0.0
 40
0.1065815326392652
100
AcDbArc
 50
339.7199718669747
 51
68.91864535539045
  0
ARC
  5
A88
330
10C1
100
AcDbEntity
  8
image
100
AcDbCircle
 10
1.544934573483127
 20
6.682757757232667
 30
0.0
 40
0.1065815326392652
100
AcDbArc
 50
159.7199718669748
 51
248.9186453553905
  0
ARC
  5
A89
330
10C1
100
AcDbEntity
  8
image
100
AcDbCircle
 10
1.406623399329045
 20
6.620251745836114
 30
0.0
 40
0.1065815326392652
100
AcDbArc
 50
339.7199718669747
 51
68.91864535539045
  0
ARC
  5
A8A
330
10C1
100
AcDbEntity
  8
image
100
AcDbCircle
 10
1.580855695103136
 20
6.730652586059347
 30
0.0
 40
0.1065815326392652
100
AcDbArc
 50
159.7199718669748
 51
248.9186453553905
  0
ARC
  5
A8B
330
10C1
100
AcDbEntity
  8
image
100
AcDbCircle
 10
1.442544520949055
 20
6.668146574662793
 30
0.0
 40
0.1065815326392652
100
AcDbArc
 50
339.7199718669747
 51
68.91864535539045
  0
ARC
  5
A8C
330
10C1
100
AcDbEntity
  8
image
100
AcDbCircle
 10
1.281513014936393
 20
7.155719191896122
 30
0.0
 40
0.1065815326392652
100
AcDbArc
 50
159.7199718669748
 51
248.9186453553905
  0
ARC
  5
A8D
330
10C1
100
AcDbEntity
  8
image
100
AcDbCircle
 10
1.143201840782312
 20
7.093213180499567
 30
0.0
 40
0.1065815326392652
100
AcDbArc
 50
339.7199718669747
 51
68.91864535539045
  0
ARC
  5
A8E
330
10C1
100
AcDbEntity
  8
image
100
AcDbCircle
 10
1.269539307729723
 20
6.964139876589407
 30
0.0
 40
0.1065815326392652
100
AcDbArc
 50
159.7199718669748
 51
248.9186453553905
  0
ARC
  5
A8F
330
10C1
100
AcDbEntity
  8
image
100
AcDbCircle
 10
1.131228133575643
 20
6.901633865192851
 30
0.0
 40
0.1065815326392652
100
AcDbArc
 50
339.7199718669747
 51
68.91864535539045
  0
ARC
  5
A90
330
10C1
100
AcDbEntity
  8
image
100
AcDbCircle
 10
1.310998804765626
 20
6.6069734748039
 30
0.0
 40
0.1065815326392652
100
AcDbArc
 50
278.5307656099479
 51
7.729439098363567
  0
ARC
  5
A91
330
10C1
100
AcDbEntity
  8
image
100
AcDbCircle
 10
1.432422314467065
 20
6.51590584252782
 30
0.0
 40
0.1065815326392652
100
AcDbArc
 50
98.53076560994791
 51
187.7294390983636
  0
ARC
  5
A92
330
10C1
100
AcDbEntity
  8
image
100
AcDbCircle
 10
1.077511514235567
 20
6.690789425250588
 30
0.0
 40
0.1065815326392652
100
AcDbArc
 50
278.5307656099479
 51
7.729439098363567
  0
ARC
  5
A93
330
10C1
100
AcDbEntity
  8
image
100
AcDbCircle
 10
1.198935023937006
 20
6.599721792974507
 30
0.0
 40
0.1065815326392652
100
AcDbArc
 50
98.53076560994791
 51
187.7294390983636
  0
ARC
  5
A94
330
10C1
100
AcDbEntity
  8
image
100
AcDbCircle
 10
0.9502228413169575
 20
7.039512558360705
 30
0.0
 40
0.1065815326392652
100
AcDbArc
 50
323.5307656099477
 51
52.72943909836342
  0
ARC
  5
A95
330
10C1
100
AcDbEntity
  8
image
100
AcDbCircle
 10
1.100476768751334
 20
7.060977405137043
 30
0.0
 40
0.1065815326392652
100
AcDbArc
 50
143.5307656099477
 51
232.7294390983635
  0
ARC
  5
A98
330
10C1
100
AcDbEntity
  8
image
100
AcDbCircle
 10
1.298860034469017
 20
6.757949378712816
 30
0.0
 40
0.1065815326392652
100
AcDbArc
 50
339.7199718669747
 51
68.91864535539045
  0
ARC
  5
A99
330
10C1
100
AcDbEntity
  8
image
100
AcDbCircle
 10
1.437171208623098
 20
6.82045539010937
 30
0.0
 40
0.1065815326392652
100
AcDbArc
 50
159.7199718669748
 51
248.9186453553905
  0
ARC
  5
A9A
330
10C1
100
AcDbEntity
  8
image
100
AcDbCircle
 10
1.239156561525608
 20
7.067961202260684
 30
0.0
 40
0.1065815326392652
100
AcDbArc
 50
278.5307656099479
 51
7.729439098363567
  0
ARC
  5
A9B
330
10C1
100
AcDbEntity
  8
image
100
AcDbCircle
 10
1.360580071227046
 20
6.976893569984604
 30
0.0
 40
0.1065815326392652
100
AcDbArc
 50
98.53076560994791
 51
187.7294390983636
  0
ARC
  5
B08
330
10C1
100
AcDbEntity
  8
image
100
AcDbCircle
 10
0.9731922626733155
 20
6.76099893912888
 30
0.0
 40
0.1065815326392652
100
AcDbArc
 50
116.0563205359582
 51
205.254994024374
  0
ARC
  5
B09
330
10C1
100
AcDbEntity
  8
image
100
AcDbCircle
 10
0.8299815998003332
 20
6.811275060658569
 30
0.0
 40
0.1065815326392652
100
AcDbArc
 50
296.0563205359582
 51
25.2549940243739
  0
ARC
  5
B0A
330
10C1
100
AcDbEntity
  8
image
100
AcDbCircle
 10
1.148736828268981
 20
6.834999653124222
 30
0.0
 40
0.1065815326392652
100
AcDbArc
 50
143.5307656099477
 51
232.7294390983635
  0
ARC
  5
B0B
330
10C1
100
AcDbEntity
  8
image
100
AcDbCircle
 10
0.9984829008346039
 20
6.813534806347884
 30
0.0
 40
0.1065815326392652
100
AcDbArc
 50
323.5307656099477
 51
52.72943909836342
  0
ARC
  5
B0C
330
10C1
100
AcDbEntity
  8
image
100
AcDbCircle
 10
1.058602121925579
 20
6.826553038105896
 30
0.0
 40
0.1065815326392652
100
AcDbArc
 50
159.7199718669748
 51
248.9186453553905
  0
ARC
  5
B0D
330
10C1
100
AcDbEntity
  8
image
100
AcDbCircle
 10
0.920290947771498
 20
6.764047026709341
 30
0.0
 40
0.1065815326392652
100
AcDbArc
 50
339.7199718669747
 51
68.91864535539045
  0
ARC
  5
B0E
330
10C1
100
AcDbEntity
  8
image
100
AcDbCircle
 10
1.023012902598949
 20
6.691315166644186
 30
0.0
 40
0.1065815326392652
100
AcDbArc
 50
143.5307656099477
 51
232.7294390983635
  0
ARC
  5
B0F
330
10C1
100
AcDbEntity
  8
image
100
AcDbCircle
 10
0.9930786345822737
 20
6.607499216197497
 30
0.0
 40
0.1065815326392652
100
AcDbArc
 50
143.5307656099477
 51
232.7294390983635
  0
ARC
  5
B10
330
10C1
100
AcDbEntity
  8
image
100
AcDbCircle
 10
0.8428247071478976
 20
6.586034369421159
 30
0.0
 40
0.1065815326392652
100
AcDbArc
 50
323.5307656099477
 51
52.72943909836342
  0
ARC
  5
B11
330
10C1
100
AcDbEntity
  8
image
100
AcDbCircle
 10
1.094855145838966
 20
6.595525508990827
 30
0.0
 40
0.1065815326392652
100
AcDbArc
 50
143.5307656099477
 51
232.7294390983635
  0
ARC
  5
B12
330
10C1
100
AcDbEntity
  8
image
100
AcDbCircle
 10
0.9446012184045901
 20
6.574060662214489
 30
0.0
 40
0.1065815326392652
100
AcDbArc
 50
323.5307656099477
 51
52.72943909836342
  0
ARC
  5
B14
330
10C1
100
AcDbEntity
  8
image
100
AcDbCircle
 10
0.9521528192565007
 20
6.710272670974496
 30
0.0
 40
0.1065815326392652
100
AcDbArc
 50
278.5307656099479
 51
7.729439098363567
  0
ARC
  5
B15
330
10C1
100
AcDbEntity
  8
image
100
AcDbCircle
 10
0.8727589751645712
 20
6.669850319867848
 30
0.0
 40
0.1065815326392652
100
AcDbArc
 50
323.5307656099477
 51
52.72943909836342
  0
ARC
  5
B16
330
10C1
100
AcDbEntity
  8
image
100
AcDbCircle
 10
1.07357632895794
 20
6.619205038698417
 30
0.0
 40
0.1065815326392652
100
AcDbArc
 50
98.53076560994791
 51
187.7294390983636
  0
ARC
  5
B17
330
10C1
100
AcDbEntity
  8
image
100
AcDbCircle
 10
1.008020416469281
 20
6.910262333395836
 30
0.0
 40
0.1065815326392652
100
AcDbArc
 50
116.0563205359582
 51
205.254994024374
  0
ARC
  5
B18
330
10C1
100
AcDbEntity
  8
image
100
AcDbCircle
 10
0.8648097535963003
 20
6.960538454925525
 30
0.0
 40
0.1065815326392652
100
AcDbArc
 50
296.0563205359582
 51
25.2549940243739
  0
ARC
  5
B19
330
10C1
100
AcDbEntity
  8
image
100
AcDbCircle
 10
0.923267683847165
 20
6.90816767540605
 30
0.0
 40
0.1065815326392652
100
AcDbArc
 50
323.5307656099477
 51
52.72943909836342
  0
ARC
  5
B1A
330
10C1
100
AcDbEntity
  8
image
100
AcDbCircle
 10
1.073521611281541
 20
6.929632522182388
 30
0.0
 40
0.1065815326392652
100
AcDbArc
 50
143.5307656099477
 51
232.7294390983635
  0
ARC
  5
B1B
330
10C1
100
AcDbEntity
  8
image
100
AcDbCircle
 10
3.181124972990892
 20
6.769970718896872
 30
0.0
 40
0.1065815326392652
100
AcDbArc
 50
111.0813546446095
 51
200.2800281330253
  0
ARC
  5
B1C
330
10C1
100
AcDbEntity
  8
image
100
AcDbCircle
 10
3.042813798836812
 20
6.832476730293427
 30
0.0
 40
0.1065815326392652
100
AcDbArc
 50
291.0813546446095
 51
20.28002813302522
  0
ARC
  5
B1D
330
10C1
100
AcDbEntity
  8
image
100
AcDbCircle
 10
3.102933019927787
 20
6.819458498535413
 30
0.0
 40
0.1065815326392652
100
AcDbArc
 50
127.2705609016365
 51
216.4692343900523
  0
ARC
  5
B1E
330
10C1
100
AcDbEntity
  8
image
100
AcDbCircle
 10
2.952679092493409
 20
6.840923345311753
 30
0.0
 40
0.1065815326392652
100
AcDbArc
 50
307.2705609016365
 51
36.46923439005223
  0
ARC
  5
B1F
330
10C1
100
AcDbEntity
  8
image
100
AcDbCircle
 10
3.271434320962058
 20
6.8171987528461
 30
0.0
 40
0.1065815326392652
100
AcDbArc
 50
154.7450059756261
 51
243.9436794640418
  0
ARC
  5
B20
330
10C1
100
AcDbEntity
  8
image
100
AcDbCircle
 10
3.128223658089075
 20
6.76692263131641
 30
0.0
 40
0.1065815326392652
100
AcDbArc
 50
334.745005975626
 51
63.94367946404176
  0
ARC
  5
B21
330
10C1
100
AcDbEntity
  8
image
100
AcDbCircle
 10
2.542635787949017
 20
6.787242957397023
 30
0.0
 40
0.1065815326392652
100
AcDbArc
 50
334.745005975626
 51
63.94367946404176
  0
ARC
  5
B22
330
10C1
100
AcDbEntity
  8
image
100
AcDbCircle
 10
2.685846450821999
 20
6.837519078926711
 30
0.0
 40
0.1065815326392652
100
AcDbArc
 50
154.7450059756261
 51
243.9436794640418
  0
ARC
  5
B23
330
10C1
100
AcDbEntity
  8
image
100
AcDbCircle
 10
3.002864963110011
 20
6.747439385592501
 30
0.0
 40
0.1065815326392652
100
AcDbArc
 50
334.745005975626
 51
63.94367946404176
  0
ARC
  5
B24
330
10C1
100
AcDbEntity
  8
image
100
AcDbCircle
 10
3.146075625982992
 20
6.79771550712219
 30
0.0
 40
0.1065815326392652
100
AcDbArc
 50
154.7450059756261
 51
243.9436794640418
  0
ARC
  5
B25
330
10C1
100
AcDbEntity
  8
image
100
AcDbCircle
 10
2.458053128730239
 20
6.739976215879154
 30
0.0
 40
0.1065815326392652
100
AcDbArc
 50
334.745005975626
 51
63.94367946404176
  0
ARC
  5
B26
330
10C1
100
AcDbEntity
  8
image
100
AcDbCircle
 10
2.60126379160322
 20
6.790252337408842
 30
0.0
 40
0.1065815326392652
100
AcDbArc
 50
154.7450059756261
 51
243.9436794640418
  0
ARC
  5
B27
330
10C1
100
AcDbEntity
  8
image
100
AcDbCircle
 10
2.827320397514345
 20
6.821440099587843
 30
0.0
 40
0.1065815326392652
100
AcDbArc
 50
307.2705609016365
 51
36.46923439005223
  0
ARC
  5
B28
330
10C1
100
AcDbEntity
  8
image
100
AcDbCircle
 10
2.977574324948721
 20
6.799975252811504
 30
0.0
 40
0.1065815326392652
100
AcDbArc
 50
127.2705609016365
 51
216.4692343900523
  0
ARC
  5
B29
330
10C1
100
AcDbEntity
  8
image
100
AcDbCircle
 10
2.731530739860987
 20
6.905256050034532
 30
0.0
 40
0.1065815326392652
100
AcDbArc
 50
307.2705609016365
 51
36.46923439005223
  0
ARC
  5
B2A
330
10C1
100
AcDbEntity
  8
image
100
AcDbCircle
 10
2.593833106984285
 20
6.827426953191179
 30
0.0
 40
0.1065815326392652
100
AcDbArc
 50
307.2705609016365
 51
36.46923439005223
  0
ARC
  5
B2B
330
10C1
100
AcDbEntity
  8
image
100
AcDbCircle
 10
2.744087034418662
 20
6.80596210641484
 30
0.0
 40
0.1065815326392652
100
AcDbArc
 50
127.2705609016365
 51
216.4692343900523
  0
ARC
  5
B2C
330
10C1
100
AcDbEntity
  8
image
100
AcDbCircle
 10
2.402253791677569
 20
6.821440099587843
 30
0.0
 40
0.1065815326392652
100
AcDbArc
 50
307.2705609016365
 51
36.46923439005223
  0
ARC
  5
B2D
330
10C1
100
AcDbEntity
  8
image
100
AcDbCircle
 10
2.552507719111945
 20
6.799975252811504
 30
0.0
 40
0.1065815326392652
100
AcDbArc
 50
127.2705609016365
 51
216.4692343900523
  0
ARC
  5
B2E
330
10C1
100
AcDbEntity
  8
image
100
AcDbCircle
 10
2.508586518452585
 20
6.868287057520245
 30
0.0
 40
0.1065815326392652
100
AcDbArc
 50
291.0813546446095
 51
20.28002813302522
  0
ARC
  5
B2F
330
10C1
100
AcDbEntity
  8
image
100
AcDbCircle
 10
2.646897692606666
 20
6.805781046123689
 30
0.0
 40
0.1065815326392652
100
AcDbArc
 50
111.0813546446095
 51
200.2800281330253
  0
ARC
  5
B30
330
10C1
100
AcDbEntity
  8
image
100
AcDbCircle
 10
2.754047516189313
 20
6.832365935900235
 30
0.0
 40
0.1065815326392652
100
AcDbArc
 50
291.0813546446095
 51
20.28002813302522
  0
ARC
  5
B31
330
10C1
100
AcDbEntity
  8
image
100
AcDbCircle
 10
2.892358690343395
 20
6.76985992450368
 30
0.0
 40
0.1065815326392652
100
AcDbArc
 50
111.0813546446095
 51
200.2800281330253
  0
ARC
  5
B32
330
10C1
100
AcDbEntity
  8
image
100
AcDbCircle
 10
2.917455103857747
 20
6.812993484569519
 30
0.0
 40
0.1065815326392652
100
AcDbArc
 50
291.0813546446095
 51
20.28002813302522
  0
ARC
  5
B33
330
10C1
100
AcDbEntity
  8
image
100
AcDbCircle
 10
3.055766278011827
 20
6.750487473172962
 30
0.0
 40
0.1065815326392652
100
AcDbArc
 50
111.0813546446095
 51
200.2800281330253
  0
ARC
  5
B34
330
10C1
100
AcDbEntity
  8
image
100
AcDbCircle
 10
2.802555886293372
 20
6.763873070900346
 30
0.0
 40
0.1065815326392652
100
AcDbArc
 50
111.0813546446095
 51
200.2800281330253
  0
ARC
  5
B35
330
10C1
100
AcDbEntity
  8
image
100
AcDbCircle
 10
2.664244712139292
 20
6.826379082296901
 30
0.0
 40
0.1065815326392652
100
AcDbArc
 50
291.0813546446095
 51
20.28002813302522
  0
ARC
  5
B36
330
10C1
100
AcDbEntity
  8
image
100
AcDbCircle
 10
2.61229209554095
 20
6.68027085817237
 30
0.0
 40
0.1065815326392652
100
AcDbArc
 50
334.745005975626
 51
63.94367946404176
  0
ARC
  5
B37
330
10C1
100
AcDbEntity
  8
image
100
AcDbCircle
 10
2.82790298486535
 20
6.656290766331468
 30
0.0
 40
0.1065815326392652
100
AcDbArc
 50
127.2705609016365
 51
216.4692343900523
  0
ARC
  5
B38
330
10C1
100
AcDbEntity
  8
image
100
AcDbCircle
 10
2.790417115996764
 20
6.612897166991429
 30
0.0
 40
0.1065815326392652
100
AcDbArc
 50
172.2705609016364
 51
261.4692343900521
  0
ARC
  5
B39
330
10C1
100
AcDbEntity
  8
image
100
AcDbCircle
 10
2.668993606295325
 20
6.52182953471535
 30
0.0
 40
0.1065815326392652
100
AcDbArc
 50
352.2705609016364
 51
81.4692343900521
  0
ARC
  5
B3A
330
10C1
100
AcDbEntity
  8
image
100
AcDbCircle
 10
3.027839591804451
 20
6.625128730885948
 30
0.0
 40
0.1065815326392652
100
AcDbArc
 50
352.2705609016364
 51
81.4692343900521
  0
ARC
  5
B3B
330
10C1
100
AcDbEntity
  8
image
100
AcDbCircle
 10
3.149263101505891
 20
6.716196363162026
 30
0.0
 40
0.1065815326392652
100
AcDbArc
 50
172.2705609016364
 51
261.4692343900521
  0
ARC
  5
B3C
330
10C1
100
AcDbEntity
  8
image
100
AcDbCircle
 10
3.1568147023578
 20
6.57998435440202
 30
0.0
 40
0.1065815326392652
100
AcDbArc
 50
127.2705609016365
 51
216.4692343900523
  0
ARC
  5
B3D
330
10C1
100
AcDbEntity
  8
image
100
AcDbCircle
 10
2.953044323184375
 20
6.677755613107808
 30
0.0
 40
0.1065815326392652
100
AcDbArc
 50
307.2705609016365
 51
36.46923439005223
  0
ARC
  5
B3E
330
10C1
100
AcDbEntity
  8
image
100
AcDbCircle
 10
2.982978591201051
 20
6.593939662661119
 30
0.0
 40
0.1065815326392652
100
AcDbArc
 50
307.2705609016365
 51
36.46923439005223
  0
ARC
  5
B3F
330
10C1
100
AcDbEntity
  8
image
100
AcDbCircle
 10
3.133232518635427
 20
6.572474815884779
 30
0.0
 40
0.1065815326392652
100
AcDbArc
 50
127.2705609016365
 51
216.4692343900523
  0
ARC
  5
B40
330
10C1
100
AcDbEntity
  8
image
100
AcDbCircle
 10
3.006560774923424
 20
6.601449201178358
 30
0.0
 40
0.1065815326392652
100
AcDbArc
 50
307.2705609016365
 51
36.46923439005223
  0
ARC
  5
B41
330
10C1
100
AcDbEntity
  8
image
100
AcDbCircle
 10
3.258591213614494
 20
6.591958061608689
 30
0.0
 40
0.1065815326392652
100
AcDbArc
 50
127.2705609016365
 51
216.4692343900523
  0
ARC
  5
B42
330
10C1
100
AcDbEntity
  8
image
100
AcDbCircle
 10
3.108337286180116
 20
6.613422908385027
 30
0.0
 40
0.1065815326392652
100
AcDbArc
 50
307.2705609016365
 51
36.46923439005223
  0
ARC
  5
B43
330
10C1
100
AcDbEntity
  8
image
100
AcDbCircle
 10
3.228656945597819
 20
6.675774012055378
 30
0.0
 40
0.1065815326392652
100
AcDbArc
 50
127.2705609016365
 51
216.4692343900523
  0
ARC
  5
B44
330
10C1
100
AcDbEntity
  8
image
100
AcDbCircle
 10
3.078403018163442
 20
6.697238858831717
 30
0.0
 40
0.1065815326392652
100
AcDbArc
 50
307.2705609016365
 51
36.46923439005223
  0
ARC
  5
B45
330
10C1
100
AcDbEntity
  8
image
100
AcDbCircle
 10
2.726727458013413
 20
6.570811035709936
 30
0.0
 40
0.1065815326392652
100
AcDbArc
 50
334.745005975626
 51
63.94367946404176
  0
ARC
  5
B46
330
10C1
100
AcDbEntity
  8
image
100
AcDbCircle
 10
2.869938120886395
 20
6.621087157239625
 30
0.0
 40
0.1065815326392652
100
AcDbArc
 50
154.7450059756261
 51
243.9436794640418
  0
ARC
  5
B47
330
10C1
100
AcDbEntity
  8
image
100
AcDbCircle
 10
2.881202079944358
 20
6.58196595545445
 30
0.0
 40
0.1065815326392652
100
AcDbArc
 50
307.2705609016365
 51
36.46923439005223
  0
ARC
  5
B48
330
10C1
100
AcDbEntity
  8
image
100
AcDbCircle
 10
3.031456007378735
 20
6.560501108678112
 30
0.0
 40
0.1065815326392652
100
AcDbArc
 50
127.2705609016365
 51
216.4692343900523
  0
ARC
  5
B49
330
10C1
100
AcDbEntity
  8
image
100
AcDbCircle
 10
2.803372983101005
 20
6.58196595545445
 30
0.0
 40
0.1065815326392652
100
AcDbArc
 50
307.2705609016365
 51
36.46923439005223
  0
ARC
  5
B4A
330
10C1
100
AcDbEntity
  8
image
100
AcDbCircle
 10
2.953626910535382
 20
6.560501108678112
 30
0.0
 40
0.1065815326392652
100
AcDbArc
 50
127.2705609016365
 51
216.4692343900523
  0
ARC
  5
B4B
330
10C1
100
AcDbEntity
  8
image
100
AcDbCircle
 10
3.023904406526824
 20
6.696713117438118
 30
0.0
 40
0.1065815326392652
100
AcDbArc
 50
172.2705609016364
 51
261.4692343900521
  0
ARC
  5
B4C
330
10C1
100
AcDbEntity
  8
image
100
AcDbCircle
 10
2.795955491412659
 20
6.730589424643543
 30
0.0
 40
0.1065815326392652
100
AcDbArc
 50
291.0813546446095
 51
20.28002813302522
  0
ARC
  5
B4D
330
10C1
100
AcDbEntity
  8
image
100
AcDbCircle
 10
3.103298250618753
 20
6.656290766331468
 30
0.0
 40
0.1065815326392652
100
AcDbArc
 50
127.2705609016365
 51
216.4692343900523
  0
ARC
  5
B4E
330
10C1
100
AcDbEntity
  8
image
100
AcDbCircle
 10
2.902480896825385
 20
6.605645485162037
 30
0.0
 40
0.1065815326392652
100
AcDbArc
 50
352.2705609016364
 51
81.4692343900521
  0
ARC
  5
B4F
330
10C1
100
AcDbEntity
  8
image
100
AcDbCircle
 10
2.741653809640258
 20
6.675295411696804
 30
0.0
 40
0.1065815326392652
100
AcDbArc
 50
334.745005975626
 51
63.94367946404176
  0
ARC
  5
B50
330
10C1
100
AcDbEntity
  8
image
100
AcDbCircle
 10
2.884864472513238
 20
6.725571533226496
 30
0.0
 40
0.1065815326392652
100
AcDbArc
 50
154.7450059756261
 51
243.9436794640418
  0
ARC
  5
B51
330
10C1
100
AcDbEntity
  8
image
100
AcDbCircle
 10
2.677649057430973
 20
6.677755613107808
 30
0.0
 40
0.1065815326392652
100
AcDbArc
 50
307.2705609016365
 51
36.46923439005223
  0
ARC
  5
B52
330
10C1
100
AcDbEntity
  8
image
100
AcDbCircle
 10
2.934266665566738
 20
6.668083413246987
 30
0.0
 40
0.1065815326392652
100
AcDbArc
 50
111.0813546446095
 51
200.2800281330253
  0
ARC
  5
B53
330
10C1
100
AcDbEntity
  8
image
100
AcDbCircle
 10
2.432188059694243
 20
6.587952809057784
 30
0.0
 40
0.1065815326392652
100
AcDbArc
 50
307.2705609016365
 51
36.46923439005223
  0
ARC
  5
B54
330
10C1
100
AcDbEntity
  8
image
100
AcDbCircle
 10
2.582441987128621
 20
6.566487962281446
 30
0.0
 40
0.1065815326392652
100
AcDbArc
 50
127.2705609016365
 51
216.4692343900523
  0
ARC
  5
B55
330
10C1
100
AcDbEntity
  8
image
100
AcDbCircle
 10
2.570646629434781
 20
6.552845764944694
 30
0.0
 40
0.0852652261114122
100
AcDbArc
 50
307.2705609016365
 51
36.46923439005223
  0
ARC
  5
B56
330
10C1
100
AcDbEntity
  8
image
100
AcDbCircle
 10
2.690849771382283
 20
6.535673887523623
 30
0.0
 40
0.0852652261114122
100
AcDbArc
 50
127.2705609016365
 51
216.4692343900523
  0
ARC
  5
B57
330
10C1
100
AcDbEntity
  8
image
100
AcDbCircle
 10
2.498043449330928
 20
6.605913369867789
 30
0.0
 40
0.1065815326392652
100
AcDbArc
 50
307.2705609016365
 51
36.46923439005223
  0
ARC
  5
B58
330
10C1
100
AcDbEntity
  8
image
100
AcDbCircle
 10
2.648297376765303
 20
6.58444852309145
 30
0.0
 40
0.1065815326392652
100
AcDbArc
 50
127.2705609016365
 51
216.4692343900523
  0
ARC
  5
B59
330
10C1
100
AcDbEntity
  8
image
100
AcDbCircle
 10
2.694792521433345
 20
6.626175438023644
 30
0.0
 40
0.1065815326392652
100
AcDbArc
 50
111.0813546446095
 51
200.2800281330253
  0
ARC
  5
B5A
330
10C1
100
AcDbEntity
  8
image
100
AcDbCircle
 10
2.520560225659254
 20
6.736576278246878
 30
0.0
 40
0.1065815326392652
100
AcDbArc
 50
291.0813546446095
 51
20.28002813302522
  0
ARC
  5
B5B
330
10C1
100
AcDbEntity
  8
image
100
AcDbCircle
 10
2.658871399813335
 20
6.674070266850323
 30
0.0
 40
0.1065815326392652
100
AcDbArc
 50
111.0813546446095
 51
200.2800281330253
  0
ARC
  5
B5C
330
10C1
100
AcDbEntity
  8
image
100
AcDbCircle
 10
2.755502758413931
 20
6.730546979702059
 30
0.0
 40
0.1065815326392652
100
AcDbArc
 50
154.7450059756261
 51
243.9436794640418
  0
ARC
  5
B5D
330
10C1
100
AcDbEntity
  8
image
100
AcDbCircle
 10
2.556481347279262
 20
6.688681449420197
 30
0.0
 40
0.1065815326392652
100
AcDbArc
 50
291.0813546446095
 51
20.28002813302522
  0
ARC
  5
B5E
330
10C1
100
AcDbEntity
  8
image
100
AcDbCircle
 10
2.406810007195892
 20
6.712628863833539
 30
0.0
 40
0.1065815326392652
100
AcDbArc
 50
291.0813546446095
 51
20.28002813302522
  0
ARC
  5
B5F
330
10C1
100
AcDbEntity
  8
image
100
AcDbCircle
 10
2.545121181349973
 20
6.650122852436984
 30
0.0
 40
0.1065815326392652
100
AcDbArc
 50
111.0813546446095
 51
200.2800281330253
  0
ARC
  5
B60
330
10C1
100
AcDbEntity
  8
image
100
AcDbCircle
 10
2.637169348252355
 20
7.016113495273025
 30
0.0
 40
0.1065815326392652
100
AcDbArc
 50
334.745005975626
 51
63.94367946404176
  0
ARC
  5
B61
330
10C1
100
AcDbEntity
  8
image
100
AcDbCircle
 10
2.676972952590603
 20
6.884264163670545
 30
0.0
 40
0.1065815326392652
100
AcDbArc
 50
334.745005975626
 51
63.94367946404176
  0
ARC
  5
B62
330
10C1
100
AcDbEntity
  8
image
100
AcDbCircle
 10
2.820183615463585
 20
6.934540285200235
 30
0.0
 40
0.1065815326392652
100
AcDbArc
 50
154.7450059756261
 51
243.9436794640418
  0
ARC
  5
B63
330
10C1
100
AcDbEntity
  8
image
100
AcDbCircle
 10
2.665675350224303
 20
7.150717047771262
 30
0.0
 40
0.1065815326392652
100
AcDbArc
 50
307.2705609016365
 51
36.46923439005223
  0
ARC
  5
B64
330
10C1
100
AcDbEntity
  8
image
100
AcDbCircle
 10
2.81592927765868
 20
7.129252200994923
 30
0.0
 40
0.1065815326392652
100
AcDbArc
 50
127.2705609016365
 51
216.4692343900523
  0
ARC
  5
B65
330
10C1
100
AcDbEntity
  8
image
100
AcDbCircle
 10
2.646284151329287
 20
6.976050422380272
 30
0.0
 40
0.1065815326392652
100
AcDbArc
 50
291.0813546446095
 51
20.28002813302522
  0
ARC
  5
B66
330
10C1
100
AcDbEntity
  8
image
100
AcDbCircle
 10
2.784595325483368
 20
6.913544410983717
 30
0.0
 40
0.1065815326392652
100
AcDbArc
 50
111.0813546446095
 51
200.2800281330253
  0
ARC
  5
B67
330
10C1
100
AcDbEntity
  8
image
100
AcDbCircle
 10
2.862259359236783
 20
7.073884894448213
 30
0.0
 40
0.1065815326392652
100
AcDbArc
 50
172.2705609016364
 51
261.4692343900521
  0
ARC
  5
B68
330
10C1
100
AcDbEntity
  8
image
100
AcDbCircle
 10
3.178148236915226
 20
6.91409136759358
 30
0.0
 40
0.1065815326392652
100
AcDbArc
 50
127.2705609016365
 51
216.4692343900523
  0
ARC
  5
B69
330
10C1
100
AcDbEntity
  8
image
100
AcDbCircle
 10
2.940671831331497
 20
7.045966174126415
 30
0.0
 40
0.1065815326392652
100
AcDbArc
 50
334.745005975626
 51
63.94367946404176
  0
ARC
  5
B6A
330
10C1
100
AcDbEntity
  8
image
100
AcDbCircle
 10
2.968036809314043
 20
6.896702779859457
 30
0.0
 40
0.1065815326392652
100
AcDbArc
 50
334.745005975626
 51
63.94367946404176
  0
ARC
  5
B6B
330
10C1
100
AcDbEntity
  8
image
100
AcDbCircle
 10
3.111247472187025
 20
6.946978901389146
 30
0.0
 40
0.1065815326392652
100
AcDbArc
 50
154.7450059756261
 51
243.9436794640418
  0
ARC
  5
B6C
330
10C1
100
AcDbEntity
  8
image
100
AcDbCircle
 10
3.151193079445434
 20
7.045436250548235
 30
0.0
 40
0.1065815326392652
100
AcDbArc
 50
127.2705609016365
 51
216.4692343900523
  0
ARC
  5
B6D
330
10C1
100
AcDbEntity
  8
image
100
AcDbCircle
 10
3.000939152011055
 20
7.066901097324573
 30
0.0
 40
0.1065815326392652
100
AcDbArc
 50
307.2705609016365
 51
36.46923439005223
  0
ARC
  5
B6E
330
10C1
100
AcDbEntity
  8
image
100
AcDbCircle
 10
3.02789430948085
 20
6.935556214369918
 30
0.0
 40
0.1065815326392652
100
AcDbArc
 50
307.2705609016365
 51
36.46923439005223
  0
ARC
  5
B6F
330
10C1
100
AcDbEntity
  8
image
100
AcDbCircle
 10
3.236606167166091
 20
6.966462147113055
 30
0.0
 40
0.1065815326392652
100
AcDbArc
 50
154.7450059756261
 51
243.9436794640418
  0
ARC
  5
B70
330
10C1
100
AcDbEntity
  8
image
100
AcDbCircle
 10
3.093395504293108
 20
6.916186025583367
 30
0.0
 40
0.1065815326392652
100
AcDbArc
 50
334.745005975626
 51
63.94367946404176
  0
ARC
  5
B71
330
10C1
100
AcDbEntity
  8
image
100
AcDbCircle
 10
3.083882494204479
 20
7.096242295656105
 30
0.0
 40
0.1065815326392652
100
AcDbArc
 50
154.7450059756261
 51
243.9436794640418
  0
ARC
  5
B72
330
10C1
100
AcDbEntity
  8
image
100
AcDbCircle
 10
2.818773293045612
 20
7.026064388224154
 30
0.0
 40
0.1065815326392652
100
AcDbArc
 50
334.745005975626
 51
63.94367946404176
  0
ARC
  5
B73
330
10C1
100
AcDbEntity
  8
image
100
AcDbCircle
 10
2.961983955918594
 20
7.076340509753842
 30
0.0
 40
0.1065815326392652
100
AcDbArc
 50
154.7450059756261
 51
243.9436794640418
  0
ARC
  5
B74
330
10C1
100
AcDbEntity
  8
image
100
AcDbCircle
 10
2.893175787151028
 20
7.072887950927909
 30
0.0
 40
0.1065815326392652
100
AcDbArc
 50
307.2705609016365
 51
36.46923439005223
  0
ARC
  5
B75
330
10C1
100
AcDbEntity
  8
image
100
AcDbCircle
 10
3.043429714585405
 20
7.051423104151568
 30
0.0
 40
0.1065815326392652
100
AcDbArc
 50
127.2705609016365
 51
216.4692343900523
  0
ARC
  5
B76
330
10C1
100
AcDbEntity
  8
image
100
AcDbCircle
 10
2.819902905825998
 20
7.161642884083653
 30
0.0
 40
0.1065815326392652
100
AcDbArc
 50
291.0813546446095
 51
20.28002813302522
  0
ARC
  5
B77
330
10C1
100
AcDbEntity
  8
image
100
AcDbCircle
 10
2.740835849535343
 20
6.982817262172134
 30
0.0
 40
0.1065815326392652
100
AcDbArc
 50
352.2705609016364
 51
81.4692343900521
  0
ARC
  5
B78
330
10C1
100
AcDbEntity
  8
image
100
AcDbCircle
 10
2.831876613032667
 20
6.970063568776938
 30
0.0
 40
0.1065815326392652
100
AcDbArc
 50
291.0813546446095
 51
20.28002813302522
  0
ARC
  5
B79
330
10C1
100
AcDbEntity
  8
image
100
AcDbCircle
 10
2.970187787186747
 20
6.907557557380382
 30
0.0
 40
0.1065815326392652
100
AcDbArc
 50
111.0813546446095
 51
200.2800281330253
  0
ARC
  5
B7A
330
10C1
100
AcDbEntity
  8
image
100
AcDbCircle
 10
2.893175787151028
 20
6.947164025257876
 30
0.0
 40
0.1065815326392652
100
AcDbArc
 50
307.2705609016365
 51
36.46923439005223
  0
ARC
  5
B7B
330
10C1
100
AcDbEntity
  8
image
100
AcDbCircle
 10
3.043429714585405
 20
6.925699178481537
 30
0.0
 40
0.1065815326392652
100
AcDbArc
 50
127.2705609016365
 51
216.4692343900523
  0
ARC
  5
B7C
330
10C1
100
AcDbEntity
  8
image
100
AcDbCircle
 10
2.881784667295363
 20
6.883791203258194
 30
0.0
 40
0.1065815326392652
100
AcDbArc
 50
127.2705609016365
 51
216.4692343900523
  0
ARC
  5
B7D
330
10C1
100
AcDbEntity
  8
image
100
AcDbCircle
 10
2.754047516189313
 20
7.011971544000281
 30
0.0
 40
0.1065815326392652
100
AcDbArc
 50
291.0813546446095
 51
20.28002813302522
  0
ARC
  5
B7E
330
10C1
100
AcDbEntity
  8
image
100
AcDbCircle
 10
2.892358690343395
 20
6.949465532603725
 30
0.0
 40
0.1065815326392652
100
AcDbArc
 50
111.0813546446095
 51
200.2800281330253
  0
ARC
  5
B7F
330
10C1
100
AcDbEntity
  8
image
100
AcDbCircle
 10
2.958214079980078
 20
7.099136872687098
 30
0.0
 40
0.1065815326392652
100
AcDbArc
 50
111.0813546446095
 51
200.2800281330253
  0
ARC
  5
B80
330
10C1
100
AcDbEntity
  8
image
100
AcDbCircle
 10
2.930720930246935
 20
7.152938273351067
 30
0.0
 40
0.1065815326392652
100
AcDbArc
 50
334.745005975626
 51
63.94367946404176
  0
ARC
  5
B81
330
10C1
100
AcDbEntity
  8
image
100
AcDbCircle
 10
3.073931593119916
 20
7.203214394880755
 30
0.0
 40
0.1065815326392652
100
AcDbArc
 50
154.7450059756261
 51
243.9436794640418
  0
ARC
  5
B82
330
10C1
100
AcDbEntity
  8
image
100
AcDbCircle
 10
2.761465007877661
 20
7.162690754977932
 30
0.0
 40
0.1065815326392652
100
AcDbArc
 50
307.2705609016365
 51
36.46923439005223
  0
ARC
  5
B83
330
10C1
100
AcDbEntity
  8
image
100
AcDbCircle
 10
2.911718935312038
 20
7.141225908201593
 30
0.0
 40
0.1065815326392652
100
AcDbArc
 50
127.2705609016365
 51
216.4692343900523
  0
ARC
  5
B84
330
10C1
100
AcDbEntity
  8
image
100
AcDbCircle
 10
2.780380011125337
 20
7.066389616802713
 30
0.0
 40
0.1065815326392652
100
AcDbArc
 50
154.7450059756261
 51
243.9436794640418
  0
ARC
  5
B85
330
10C1
100
AcDbEntity
  8
image
100
AcDbCircle
 10
2.666257937575309
 20
6.973594007308215
 30
0.0
 40
0.1065815326392652
100
AcDbArc
 50
127.2705609016365
 51
216.4692343900523
  0
ARC
  5
B86
330
10C1
100
AcDbEntity
  8
image
100
AcDbCircle
 10
2.581859399777614
 20
7.013019414894559
 30
0.0
 40
0.1065815326392652
100
AcDbArc
 50
307.2705609016365
 51
36.46923439005223
  0
ARC
  5
B87
330
10C1
100
AcDbEntity
  8
image
100
AcDbCircle
 10
2.732113327211991
 20
6.991554568118221
 30
0.0
 40
0.1065815326392652
100
AcDbArc
 50
127.2705609016365
 51
216.4692343900523
  0
ARC
  5
B88
330
10C1
100
AcDbEntity
  8
image
100
AcDbCircle
 10
2.556481347279262
 20
7.149669176876983
 30
0.0
 40
0.1065815326392652
100
AcDbArc
 50
291.0813546446095
 51
20.28002813302522
  0
ARC
  5
B89
330
10C1
100
AcDbEntity
  8
image
100
AcDbCircle
 10
2.694792521433345
 20
7.087163165480428
 30
0.0
 40
0.1065815326392652
100
AcDbArc
 50
111.0813546446095
 51
200.2800281330253
  0
ARC
  5
B8A
330
10C1
100
AcDbEntity
  8
image
100
AcDbCircle
 10
2.516004010140931
 20
6.995058854084555
 30
0.0
 40
0.1065815326392652
100
AcDbArc
 50
307.2705609016365
 51
36.46923439005223
  0
ARC
  5
B8B
330
10C1
100
AcDbEntity
  8
image
100
AcDbCircle
 10
2.545938278157606
 20
6.935190318051207
 30
0.0
 40
0.1065815326392652
100
AcDbArc
 50
307.2705609016365
 51
36.46923439005223
  0
ARC
  5
B8C
330
10C1
100
AcDbEntity
  8
image
100
AcDbCircle
 10
2.696192205591984
 20
6.913725471274868
 30
0.0
 40
0.1065815326392652
100
AcDbArc
 50
127.2705609016365
 51
216.4692343900523
  0
ARC
  5
B8D
330
10C1
100
AcDbEntity
  8
image
100
AcDbCircle
 10
0.8034306124507326
 20
6.542603709283911
 30
0.0
 40
0.1065815326392652
100
AcDbArc
 50
323.5307656099477
 51
52.72943909836342
  0
ARC
  5
B8E
330
10C1
100
AcDbEntity
  8
image
100
AcDbCircle
 10
1.092432145898077
 20
6.552845764944694
 30
0.0
 40
0.0852652261114122
100
AcDbArc
 50
143.5307656099477
 51
232.7294390983635
  0
ARC
  5
B8F
330
10C1
100
AcDbEntity
  8
image
100
AcDbCircle
 10
0.9146319408556056
 20
6.583172704068874
 30
0.0
 40
0.1065815326392652
100
AcDbArc
 50
278.5307656099479
 51
7.729439098363567
  0
ARC
  5
B90
330
10C1
100
AcDbEntity
  8
image
100
AcDbCircle
 10
1.036055450557044
 20
6.492105071792793
 30
0.0
 40
0.1065815326392652
100
AcDbArc
 50
98.53076560994791
 51
187.7294390983636
  0
ARC
  5
B91
330
10C1
100
AcDbEntity
  8
image
100
AcDbCircle
 10
3.090566226655779
 20
6.488584834713189
 30
0.0
 40
0.1065815326392652
100
AcDbArc
 50
352.2705609016364
 51
81.4692343900521
  0
ARC
  5
B92
330
10C1
100
AcDbEntity
  8
image
100
AcDbCircle
 10
3.211989736357217
 20
6.579652466989267
 30
0.0
 40
0.1065815326392652
100
AcDbArc
 50
172.2705609016364
 51
261.4692343900521
  0
LINE
  5
CA9
330
10C1
100
AcDbEntity
  8
image
100
AcDbLine
 10
2.403896466254497
 20
3.460360415755602
 30
0.0
 11
2.415426007337428
 21
5.859371506777868
 31
0.0
  0
LINE
  5
CAA
330
10C1
100
AcDbEntity
  8
image
100
AcDbLine
 10
1.691202722435311
 20
3.460360415755602
 30
0.0
 11
1.678625774014972
 21
5.975750099823321
 31
0.0
  0
LINE
  5
CAB
330
10C1
100
AcDbEntity
  8
image
100
AcDbLine
 10
1.700984793428906
 20
3.438001396341667
 30
0.0
 11
1.795809568287577
 21
3.438001396341667
 31
0.0
  0
LINE
  5
CAC
330
10C1
100
AcDbEntity
  8
image
100
AcDbLine
 10
1.691202722435311
 20
3.460360415755602
 30
0.0
 11
2.403896466254497
 21
3.460360415755602
 31
0.0
  0
ARC
  5
CAD
330
10C1
100
AcDbEntity
  8
image
100
AcDbCircle
 10
1.707118464166621
 20
3.454004215026234
 30
0.0
 40
0.0171380314671728
100
AcDbArc
 50
158.2299291778305
 51
249.0288262834868
  0
LINE
  5
CAE
330
10C1
100
AcDbEntity
  8
image
100
AcDbLine
 10
1.764149023273273
 20
3.151805947843295
 30
0.0
 11
2.330950165416536
 21
3.151805947843294
 31
0.0
  0
LINE
  5
CAF
330
10C1
100
AcDbEntity
  8
image
100
AcDbLine
 10
1.764149023273273
 20
3.151805947843295
 30
0.0
 11
1.764149023273273
 21
3.438001396341667
 31
0.0
  0
LINE
  5
CB0
330
10C1
100
AcDbEntity
  8
image
100
AcDbLine
 10
2.330950165416535
 20
3.151805947843295
 30
0.0
 11
2.330950165416535
 21
3.438001396341667
 31
0.0
  0
ARC
  5
CB1
330
10C1
100
AcDbEntity
  8
image
100
AcDbCircle
 10
2.387980724523186
 20
3.454004215026234
 30
0.0
 40
0.0171380314671728
100
AcDbArc
 50
290.9711737165133
 51
21.77007082216947
  0
LINE
  5
CB2
330
10C1
100
AcDbEntity
  8
image
100
AcDbLine
 10
2.047549594344906
 20
6.48721266891709
 30
0.0
 11
1.747100270970146
 21
6.487212668917092
 31
0.0
  0
LINE
  5
CB3
330
10C1
100
AcDbEntity
  8
image
100
AcDbLine
 10
1.777087556227662
 20
6.229288992061031
 30
0.0
 11
1.737636439143001
 21
6.229288992061026
 31
0.0
  0
LINE
  5
CB4
330
10C1
100
AcDbEntity
  8
image
100
AcDbLine
 10
2.047549594344904
 20
6.272007107057963
 30
0.0
 11
1.633907735187102
 21
6.272007107057968
 31
0.0
  0
LINE
  5
CB5
330
10C1
100
AcDbEntity
  8
image
100
AcDbLine
 10
1.58639481893249
 20
6.017673261224449
 30
0.0
 11
2.508704369757319
 21
6.017673261224449
 31
0.0
  0
LINE
  5
CB6
330
10C1
100
AcDbEntity
  8
image
100
AcDbLine
 10
1.58639481893249
 20
5.975750099823321
 30
0.0
 11
2.508704369757319
 21
5.975750099823321
 31
0.0
  0
LINE
  5
CB7
330
10C1
100
AcDbEntity
  8
image
100
AcDbLine
 10
1.605862096860379
 20
6.229288992061024
 30
0.0
 11
1.605862096860381
 21
6.017673261224449
 31
0.0
  0
LINE
  5
CB8
330
10C1
100
AcDbEntity
  8
image
100
AcDbLine
 10
1.627286417216135
 20
6.229288992061024
 30
0.0
 11
1.627286417216135
 21
6.017673261224449
 31
0.0
  0
LINE
  5
CB9
330
10C1
100
AcDbEntity
  8
image
100
AcDbLine
 10
1.737636439142997
 20
6.017673261224454
 30
0.0
 11
1.737636439143001
 21
6.229288992061031
 31
0.0
  0
LINE
  5
CBA
330
10C1
100
AcDbEntity
  8
image
100
AcDbLine
 10
1.686861311862625
 20
6.017673261224455
 30
0.0
 11
1.68686131186263
 21
6.229288992061032
 31
0.0
  0
LINE
  5
CBB
330
10C1
100
AcDbEntity
  8
image
100
AcDbLine
 10
1.658020874487544
 20
6.017673261224455
 30
0.0
 11
1.658020874487547
 21
6.229288992061032
 31
0.0
  0
LINE
  5
CBC
330
10C1
100
AcDbEntity
  8
image
100
AcDbLine
 10
1.58639481893249
 20
5.975750099823321
 30
0.0
 11
1.58639481893249
 21
6.216109558523124
 31
0.0
  0
LINE
  5
CBD
330
10C1
100
AcDbEntity
  8
image
100
AcDbLine
 10
1.633907735187102
 20
6.272007107057968
 30
0.0
 11
1.747100270970148
 21
6.487212668917094
 31
0.0
  0
LINE
  5
CBE
330
10C1
100
AcDbEntity
  8
image
100
AcDbLine
 10
1.747100270970148
 20
6.272007107057967
 30
0.0
 11
1.747100270970148
 21
6.487212668917094
 31
0.0
  0
LINE
  5
CBF
330
10C1
100
AcDbEntity
  8
image
100
AcDbLine
 10
1.633907735187102
 20
6.272007107057968
 30
0.0
 11
1.586394818932487
 21
6.216109558523124
 31
0.0
  0
LINE
  5
CC0
330
10C1
100
AcDbEntity
  8
image
100
AcDbLine
 10
1.627286417216135
 20
6.229288992061024
 30
0.0
 11
1.605862096860379
 21
6.229288992061024
 31
0.0
  0
LINE
  5
CC1
330
10C1
100
AcDbEntity
  8
image
100
AcDbLine
 10
1.605862096860377
 20
6.216109558523128
 30
0.0
 11
1.58639481893249
 21
6.216109558523127
 31
0.0
  0
LINE
  5
CC2
330
10C1
100
AcDbEntity
  8
image
100
AcDbLine
 10
1.686861311862627
 20
6.22928899206103
 30
0.0
 11
1.658020874487545
 21
6.229288992061028
 31
0.0
  0
LINE
  5
CC3
330
10C1
100
AcDbEntity
  8
image
100
AcDbLine
 10
1.658020874487545
 20
6.216109558523128
 30
0.0
 11
1.627286417216135
 21
6.216109558523128
 31
0.0
  0
LINE
  5
CC4
330
10C1
100
AcDbEntity
  8
image
100
AcDbLine
 10
1.737636439142999
 20
6.216109558523124
 30
0.0
 11
1.686861311862627
 21
6.216109558523126
 31
0.0
  0
LINE
  5
CC5
330
10C1
100
AcDbEntity
  8
image
100
AcDbLine
 10
2.299088562751675
 20
6.509571688331027
 30
0.0
 11
2.299088562751675
 21
6.487212668917092
 31
0.0
  0
LINE
  5
CC6
330
10C1
100
AcDbEntity
  8
image
100
AcDbLine
 10
1.796010625938133
 20
6.487212668917092
 30
0.0
 11
1.796010625938133
 21
6.509571688331027
 31
0.0
  0
LINE
  5
CC7
330
10C1
100
AcDbEntity
  8
image
100
AcDbLine
 10
2.23139320484806
 20
6.487212668917092
 30
0.0
 11
2.291934058913524
 21
6.272007107057965
 31
0.0
  0
LINE
  5
CC8
330
10C1
100
AcDbEntity
  8
image
100
AcDbLine
 10
2.24551677994176
 20
6.487212668917092
 30
0.0
 11
2.306057634007223
 21
6.272007107057967
 31
0.0
  0
LINE
  5
CC9
330
10C1
100
AcDbEntity
  8
image
100
AcDbLine
 10
2.047549594344902
 20
6.48721266891709
 30
0.0
 11
2.347998917719658
 21
6.487212668917092
 31
0.0
  0
LINE
  5
CCA
330
10C1
100
AcDbEntity
  8
image
100
AcDbLine
 10
2.047549594344904
 20
6.272007107057963
 30
0.0
 11
2.461191453502706
 21
6.272007107057968
 31
0.0
  0
LINE
  5
CCB
330
10C1
100
AcDbEntity
  8
image
100
AcDbLine
 10
2.256880994316894
 20
6.216109558523127
 30
0.0
 11
2.318011632462147
 21
6.216109558523126
 31
0.0
  0
LINE
  5
CCC
330
10C1
100
AcDbEntity
  8
image
100
AcDbLine
 10
1.777087556227659
 20
6.017673261224453
 30
0.0
 11
1.777087556227662
 21
6.229288992061031
 31
0.0
  0
LINE
  5
CCD
330
10C1
100
AcDbEntity
  8
image
100
AcDbLine
 10
1.953921200549046
 20
6.01767326122445
 30
0.0
 11
1.95392120054905
 21
6.229288992061028
 31
0.0
  0
LINE
  5
CCE
330
10C1
100
AcDbEntity
  8
image
100
AcDbLine
 10
1.885875627046342
 20
6.017673261224451
 30
0.0
 11
1.885875627046345
 21
6.229288992061029
 31
0.0
  0
LINE
  5
CCF
330
10C1
100
AcDbEntity
  8
image
100
AcDbLine
 10
1.838218194372912
 20
6.017673261224453
 30
0.0
 11
1.838218194372917
 21
6.22928899206103
 31
0.0
  0
LINE
  5
CD0
330
10C1
100
AcDbEntity
  8
image
100
AcDbLine
 10
2.256880994316896
 20
6.017673261224453
 30
0.0
 11
2.256880994316892
 21
6.22928899206103
 31
0.0
  0
LINE
  5
CD1
330
10C1
100
AcDbEntity
  8
image
100
AcDbLine
 10
2.209223561643467
 20
6.017673261224451
 30
0.0
 11
2.209223561643463
 21
6.229288992061029
 31
0.0
  0
LINE
  5
CD2
330
10C1
100
AcDbEntity
  8
image
100
AcDbLine
 10
2.141177988140762
 20
6.01767326122445
 30
0.0
 11
2.141177988140759
 21
6.229288992061028
 31
0.0
  0
LINE
  5
CD3
330
10C1
100
AcDbEntity
  8
image
100
AcDbLine
 10
2.009818749083891
 20
6.017673261224449
 30
0.0
 11
2.009818749083891
 21
6.229288992061026
 31
0.0
  0
LINE
  5
CD4
330
10C1
100
AcDbEntity
  8
image
100
AcDbLine
 10
2.085280439605924
 20
6.017673261224449
 30
0.0
 11
2.085280439605919
 21
6.229288992061026
 31
0.0
  0
LINE
  5
CD5
330
10C1
100
AcDbEntity
  8
image
100
AcDbLine
 10
2.009818749083889
 20
6.216109558523124
 30
0.0
 11
2.085280439605921
 21
6.216109558523126
 31
0.0
  0
LINE
  5
CD6
330
10C1
100
AcDbEntity
  8
image
100
AcDbLine
 10
1.849582408748052
 20
6.487212668917092
 30
0.0
 11
1.789041554682588
 21
6.272007107057967
 31
0.0
  0
LINE
  5
CD7
330
10C1
100
AcDbEntity
  8
image
100
AcDbLine
 10
1.863705983841752
 20
6.487212668917092
 30
0.0
 11
1.803165129776289
 21
6.272007107057965
 31
0.0
  0
LINE
  5
CD8
330
10C1
100
AcDbEntity
  8
image
100
AcDbLine
 10
1.863705983841752
 20
6.487212668917092
 30
0.0
 11
1.86370598384175
 21
6.272007107057966
 31
0.0
  0
LINE
  5
CD9
330
10C1
100
AcDbEntity
  8
image
100
AcDbLine
 10
1.953921200549046
 20
6.216109558523126
 30
0.0
 11
1.885875627046347
 21
6.216109558523128
 31
0.0
  0
LINE
  5
CDA
330
10C1
100
AcDbEntity
  8
image
100
AcDbLine
 10
1.838218194372915
 20
6.216109558523127
 30
0.0
 11
1.777087556227661
 21
6.216109558523126
 31
0.0
  0
LINE
  5
CDB
330
10C1
100
AcDbEntity
  8
image
100
AcDbLine
 10
1.885875627046345
 20
6.229288992061029
 30
0.0
 11
1.838218194372917
 21
6.229288992061024
 31
0.0
  0
LINE
  5
CDC
330
10C1
100
AcDbEntity
  8
image
100
AcDbLine
 10
2.009818749083889
 20
6.229288992061026
 30
0.0
 11
1.953921200549052
 21
6.229288992061026
 31
0.0
  0
LINE
  5
CDD
330
10C1
100
AcDbEntity
  8
image
100
AcDbLine
 10
2.23139320484806
 20
6.487212668917092
 30
0.0
 11
2.231393204848062
 21
6.272007107057966
 31
0.0
  0
LINE
  5
CDE
330
10C1
100
AcDbEntity
  8
image
100
AcDbLine
 10
2.064318858905356
 20
6.272007107057963
 30
0.0
 11
2.064318858905356
 21
6.48721266891709
 31
0.0
  0
LINE
  5
CDF
330
10C1
100
AcDbEntity
  8
image
100
AcDbLine
 10
2.030780329784452
 20
6.272007107057963
 30
0.0
 11
2.030780329784452
 21
6.48721266891709
 31
0.0
  0
LINE
  5
CE0
330
10C1
100
AcDbEntity
  8
image
100
AcDbLine
 10
2.141177988140762
 20
6.216109558523126
 30
0.0
 11
2.209223561643461
 21
6.216109558523128
 31
0.0
  0
LINE
  5
CE1
330
10C1
100
AcDbEntity
  8
image
100
AcDbLine
 10
2.085280439605919
 20
6.229288992061026
 30
0.0
 11
2.141177988140756
 21
6.229288992061026
 31
0.0
  0
LINE
  5
CE2
330
10C1
100
AcDbEntity
  8
image
100
AcDbLine
 10
2.209223561643463
 20
6.229288992061029
 30
0.0
 11
2.256880994316892
 21
6.229288992061024
 31
0.0
  0
LINE
  5
CE3
330
10C1
100
AcDbEntity
  8
image
100
AcDbLine
 10
2.437078314202265
 20
6.017673261224455
 30
0.0
 11
2.437078314202261
 21
6.229288992061032
 31
0.0
  0
LINE
  5
CE4
330
10C1
100
AcDbEntity
  8
image
100
AcDbLine
 10
2.408237876827183
 20
6.017673261224455
 30
0.0
 11
2.408237876827179
 21
6.229288992061032
 31
0.0
  0
LINE
  5
CE5
330
10C1
100
AcDbEntity
  8
image
100
AcDbLine
 10
2.357462749546811
 20
6.017673261224454
 30
0.0
 11
2.357462749546806
 21
6.229288992061031
 31
0.0
  0
LINE
  5
CE6
330
10C1
100
AcDbEntity
  8
image
100
AcDbLine
 10
2.31801163246215
 20
6.017673261224453
 30
0.0
 11
2.318011632462146
 21
6.229288992061031
 31
0.0
  0
LINE
  5
CE7
330
10C1
100
AcDbEntity
  8
image
100
AcDbLine
 10
2.467812771473674
 20
6.229288992061024
 30
0.0
 11
2.467812771473674
 21
6.017673261224449
 31
0.0
  0
LINE
  5
CE8
330
10C1
100
AcDbEntity
  8
image
100
AcDbLine
 10
2.48923709182943
 20
6.229288992061024
 30
0.0
 11
2.489237091829427
 21
6.017673261224449
 31
0.0
  0
LINE
  5
CE9
330
10C1
100
AcDbEntity
  8
image
100
AcDbLine
 10
2.508704369757319
 20
5.975750099823321
 30
0.0
 11
2.508704369757319
 21
6.216109558523123
 31
0.0
  0
LINE
  5
CEA
330
10C1
100
AcDbEntity
  8
image
100
AcDbLine
 10
2.34799891771966
 20
6.487212668917094
 30
0.0
 11
2.461191453502706
 21
6.272007107057968
 31
0.0
  0
LINE
  5
CEB
330
10C1
100
AcDbEntity
  8
image
100
AcDbLine
 10
2.34799891771966
 20
6.272007107057967
 30
0.0
 11
2.34799891771966
 21
6.487212668917094
 31
0.0
  0
LINE
  5
CEC
330
10C1
100
AcDbEntity
  8
image
100
AcDbLine
 10
2.408237876827181
 20
6.22928899206103
 30
0.0
 11
2.437078314202263
 21
6.229288992061028
 31
0.0
  0
LINE
  5
CED
330
10C1
100
AcDbEntity
  8
image
100
AcDbLine
 10
2.318011632462146
 20
6.229288992061031
 30
0.0
 11
2.357462749546806
 21
6.229288992061026
 31
0.0
  0
LINE
  5
CEE
330
10C1
100
AcDbEntity
  8
image
100
AcDbLine
 10
2.357462749546809
 20
6.216109558523124
 30
0.0
 11
2.408237876827181
 21
6.216109558523126
 31
0.0
  0
LINE
  5
CEF
330
10C1
100
AcDbEntity
  8
image
100
AcDbLine
 10
2.467812771473674
 20
6.229288992061024
 30
0.0
 11
2.48923709182943
 21
6.229288992061024
 31
0.0
  0
LINE
  5
CF0
330
10C1
100
AcDbEntity
  8
image
100
AcDbLine
 10
2.461191453502706
 20
6.272007107057968
 30
0.0
 11
2.508704369757321
 21
6.216109558523124
 31
0.0
  0
LINE
  5
CF1
330
10C1
100
AcDbEntity
  8
image
100
AcDbLine
 10
2.437078314202263
 20
6.216109558523128
 30
0.0
 11
2.467812771473674
 21
6.216109558523128
 31
0.0
  0
LINE
  5
CF2
330
10C1
100
AcDbEntity
  8
image
100
AcDbLine
 10
2.489237091829432
 20
6.216109558523128
 30
0.0
 11
2.508704369757319
 21
6.216109558523127
 31
0.0
  0
LINE
  5
CF3
330
10C1
100
AcDbEntity
  8
image
100
AcDbLine
 10
2.047549594344902
 20
6.509571688331025
 30
0.0
 11
2.299088562751675
 21
6.509571688331027
 31
0.0
  0
LINE
  5
CF4
330
10C1
100
AcDbEntity
  8
image
100
AcDbLine
 10
2.047549594344906
 20
6.509571688331025
 30
0.0
 11
1.796010625938133
 21
6.509571688331027
 31
0.0
  0
LWPOLYLINE
  5
CF5
330
10C1
100
AcDbEntity
  8
image
100
AcDbPolyline
 90
        4
 70
     1
 43
0.0
 10
1.699694537355055
 20
5.859371506777869
 10
1.699694537355055
 20
5.968371726420803
 10
2.390588237245655
 20
5.968371726420803
 10
2.390588237245655
 20
5.859371506777869
  0
LWPOLYLINE
  5
CF6
330
10C1
100
AcDbEntity
  8
image
100
AcDbPolyline
 90
        3
 70
     0
 43
0.0
 10
2.390588237245655
 20
5.968371726420803
 10
2.58622965711759
 20
5.968371726420803
 10
2.58622965711759
 20
5.927846003733046
  0
LWPOLYLINE
  5
CF7
330
10C1
100
AcDbEntity
  8
image
100
AcDbPolyline
 90
        4
 70
     1
 43
0.0
 10
2.488408947181623
 20
5.927846003733046
 10
2.488408947181623
 20
5.899897229465627
 10
2.865717399791781
 20
5.899897229465627
 10
2.865717399791781
 20
5.927846003733046
  0
LWPOLYLINE
  5
CF8
330
10C1
100
AcDbEntity
  8
image
100
AcDbPolyline
 90
        3
 70
     0
 43
0.0
 10
2.58622965711759
 20
5.899897229465627
 10
2.58622965711759
 20
5.859371506777869
 10
2.390588237245655
 20
5.859371506777869
  0
LINE
  5
CF9
330
10C1
100
AcDbEntity
  8
image
100
AcDbLine
 10
2.416407009314214
 20
5.968371726420803
 30
0.0
 11
2.416473414674836
 21
5.975750099823321
 31
0.0
  0
LINE
  5
CFA
330
10C1
100
AcDbEntity
  8
image
100
AcDbLine
 10
2.299133093464279
 20
3.204579161194162
 30
0.0
 11
2.299133093464281
 21
3.460360415755602
 31
0.0
  0
LINE
  5
CFB
330
10C1
100
AcDbEntity
  8
image
100
AcDbLine
 10
2.234728118467635
 20
3.154271367512807
 30
0.0
 11
2.234728118467635
 21
3.438001396341667
 31
0.0
  0
LINE
  5
CFC
330
10C1
100
AcDbEntity
  8
image
100
AcDbLine
 10
2.299133093464279
 20
3.204579161194162
 30
0.0
 11
2.282241034722248
 21
3.204579161194161
 31
0.0
  0
LWPOLYLINE
  5
CFD
330
10C1
100
AcDbEntity
  8
image
100
AcDbPolyline
 90
        2
 70
     0
 43
0.0
 10
1.748497709683521
 20
3.095908399308457
 10
2.34660147900629
 20
3.095908399308457
  0
LWPOLYLINE
  5
CFE
330
10C1
100
AcDbEntity
  8
image
100
AcDbPolyline
 90
        2
 70
     0
 43
0.0
 10
1.748497709683521
 20
3.095908399308457
 10
1.764149023273273
 20
3.151805947843295
  0
LWPOLYLINE
  5
CFF
330
10C1
100
AcDbEntity
  8
image
100
AcDbPolyline
 90
        2
 70
     0
 43
0.0
 10
2.34660147900629
 20
3.095908399308457
 10
2.330950165416536
 20
3.151805947843294
  0
LWPOLYLINE
  5
D00
330
10C1
100
AcDbEntity
  8
image
100
AcDbPolyline
 90
        2
 70
     0
 43
0.0
 10
2.07046758924419
 20
3.095908399308457
 10
2.07046758924419
 20
2.387127483886708
  0
LWPOLYLINE
  5
D01
330
10C1
100
AcDbEntity
  8
image
100
AcDbPolyline
 90
        2
 70
     0
 43
0.0
 10
2.024631599445622
 20
3.095908399308457
 10
2.024631599445622
 20
2.387127483886708
  0
LWPOLYLINE
  5
D02
330
10C1
100
AcDbEntity
  8
image
100
AcDbPolyline
 90
        2
 70
     0
 43
0.0
 10
1.843523542192745
 20
3.095908399308457
 10
2.251575646497065
 20
3.095908399308457
  0
LWPOLYLINE
  5
D03
330
10C1
100
AcDbEntity
  8
image
100
AcDbPolyline
 90
        2
 70
     0
 43
0.0
 10
2.251575646497065
 20
3.095908399308457
 10
2.23116690493039
 20
2.697780948438536
  0
LWPOLYLINE
  5
D04
330
10C1
100
AcDbEntity
  8
image
100
AcDbPolyline
 90
        2
 70
     0
 43
0.0
 10
1.843523542192745
 20
3.095908399308457
 10
1.863932283759422
 20
2.697780948438536
  0
LWPOLYLINE
  5
D05
330
10C1
100
AcDbEntity
  8
image
100
AcDbPolyline
 90
        2
 70
     0
 43
0.0
 10
1.825915814404273
 20
2.341291494088141
 10
2.269183374285539
 20
2.341291494088141
  0
LWPOLYLINE
  5
D06
330
10C1
100
AcDbEntity
  8
image
100
AcDbPolyline
 90
        2
 70
     0
 43
0.0
 10
1.813444378401231
 20
2.387127483886708
 10
2.296877341908904
 20
2.387127483886708
  0
LWPOLYLINE
  5
D07
330
10C1
100
AcDbEntity
  8
image
100
AcDbPolyline
 90
        3
 70
     0
 43
0.0
 10
2.242087416204562
 20
2.910814922217757
 10
2.242087416204562
 20
2.910814922217757
 10
2.34660147900629
 20
3.095908399308457
  0
LWPOLYLINE
  5
D08
330
10C1
100
AcDbEntity
  8
image
100
AcDbPolyline
 90
        2
 70
     0
 43
0.0
 10
2.621692146741772
 20
2.924724995489979
 10
2.269183374285539
 20
2.341291494088141
  0
LWPOLYLINE
  5
D09
330
10C1
100
AcDbEntity
  8
image
100
AcDbPolyline
 90
        2
 70
     0
 43
0.0
 10
2.456879266251498
 20
2.651944958639969
 10
2.07046758924419
 20
2.651944958639969
  0
LWPOLYLINE
  5
D0A
330
10C1
100
AcDbEntity
  8
image
100
AcDbPolyline
 90
        2
 70
     0
 43
0.0
 10
1.825915814404273
 20
2.341291494088141
 10
1.728919209002527
 20
2.697780948438536
  0
LWPOLYLINE
  5
D0B
330
10C1
100
AcDbEntity
  8
image
100
AcDbPolyline
 90
        2
 70
     0
 43
0.0
 10
2.424489694528805
 20
2.697780948438536
 10
2.07046758924419
 20
2.697780948438536
  0
LWPOLYLINE
  5
D0C
330
10C1
100
AcDbEntity
  8
image
100
AcDbPolyline
 90
        2
 70
     0
 43
0.0
 10
2.024631599445622
 20
2.697780948438536
 10
1.728919209002527
 20
2.697780948438536
  0
LWPOLYLINE
  5
D0D
330
10C1
100
AcDbEntity
  8
image
100
AcDbPolyline
 90
        2
 70
     0
 43
0.0
 10
2.024631599445622
 20
2.651944958639969
 10
1.741390645005569
 20
2.651944958639969
  0
ARC
  5
D0E
330
10C1
100
AcDbEntity
  8
image
100
AcDbCircle
 10
2.364440181081809
 20
2.866073399716404
 30
0.0
 40
0.657426235489358
100
AcDbArc
 50
159.5372614874052
 51
194.8320667203905
  0
LWPOLYLINE
  5
D0F
330
10C1
100
AcDbEntity
  8
image
100
AcDbPolyline
 90
        2
 70
     0
 43
0.0
 10
1.866281920460452
 20
2.651944958639969
 10
1.879856948740391
 20
2.387127483886708
  0
LWPOLYLINE
  5
D10
330
10C1
100
AcDbEntity
  8
image
100
AcDbPolyline
 90
        2
 70
     0
 43
0.0
 10
2.223806632433594
 20
2.554199017270274
 10
2.215242239949421
 20
2.387127483886708
  0
LWPOLYLINE
  5
D11
330
10C1
100
AcDbEntity
  8
image
100
AcDbPolyline
 90
        2
 70
     0
 43
0.0
 10
2.561608607395713
 20
2.924724995489979
 10
2.424489694528805
 20
2.697780948438536
  0
LWPOLYLINE
  5
D12
330
10C1
100
AcDbEntity
  8
image
100
AcDbPolyline
 90
        2
 70
     0
 43
0.0
 10
2.561608607395713
 20
2.924724995489979
 10
2.621692146741772
 20
2.924724995489979
  0
LWPOLYLINE
  5
D17
330
10C1
100
AcDbEntity
  8
image
100
AcDbPolyline
 90
        2
 70
     0
 43
0.0
 10
2.343056603865473
 20
2.874732537047561
 10
2.321848687651686
 20
2.839631541608979
  0
LWPOLYLINE
  5
D18
330
10C1
100
AcDbEntity
  8
image
100
AcDbPolyline
 90
        2
 70
     0
 43
0.0
 10
2.398225141319597
 20
2.842877227005557
 10
2.376363321752407
 20
2.806693963116189
  0
LWPOLYLINE
  5
D19
330
10C1
100
AcDbEntity
  8
image
100
AcDbPolyline
 90
        2
 70
     0
 43
0.0
 10
2.234422397890759
 20
2.761288103419285
 10
2.321848687651686
 20
2.839631541608978
  0
LWPOLYLINE
  5
D1A
330
10C1
100
AcDbEntity
  8
image
100
AcDbPolyline
 90
        2
 70
     0
 43
0.0
 10
2.357676221400792
 20
2.697780948438536
 10
2.376363321752407
 20
2.806693963116189
  0
LWPOLYLINE
  5
D1B
330
10C1
100
AcDbEntity
  8
image
100
AcDbPolyline
 90
        2
 70
     0
 43
0.0
 10
2.282864437174017
 20
2.651944958639968
 10
2.223806632433594
 20
2.554199017270268
  0
ARC
  5
D1C
330
10C1
100
AcDbEntity
  8
image
100
AcDbCircle
 10
2.575989389030946
 20
2.585146882659014
 30
0.0
 40
0.3535399049847557
100
AcDbArc
 50
169.1090290672645
 51
185.0219351923089
  0
LWPOLYLINE
  5
D1D
330
10C1
100
AcDbEntity
  8
image
100
AcDbPolyline
 90
        2
 70
     0
 43
0.0
 10
2.299133093464278
 20
3.204579161194162
 10
2.251620177209665
 20
3.154271367512808
  0
LINE
  5
D1E
330
10C1
100
AcDbEntity
  8
image
100
AcDbLine
 10
2.335948286823663
 20
3.438001396341667
 30
0.0
 11
2.394114395260901
 21
3.438001396341667
 31
0.0
  0
LINE
  5
D1F
330
10C1
100
AcDbEntity
  8
image
100
AcDbLine
 10
1.860214543284218
 20
3.154271367512807
 30
0.0
 11
1.860214543284218
 21
3.438001396341668
 31
0.0
  0
LINE
  5
D20
330
10C1
100
AcDbEntity
  8
image
100
AcDbLine
 10
1.795809568287577
 20
3.204579161194162
 30
0.0
 11
1.795809568287577
 21
3.460360415755602
 31
0.0
  0
LWPOLYLINE
  5
D21
330
10C1
100
AcDbEntity
  8
image
100
AcDbPolyline
 90
        2
 70
     0
 43
0.0
 10
1.795809568287576
 20
3.204579161194162
 10
1.84332248454219
 20
3.154271367512808
  0
LINE
  5
D22
330
10C1
100
AcDbEntity
  8
image
100
AcDbLine
 10
1.795809568287577
 20
3.204579161194162
 30
0.0
 11
1.812701627029605
 21
3.204579161194161
 31
0.0
  0
LINE
  5
D23
330
10C1
100
AcDbEntity
  8
image
100
AcDbLine
 10
2.299133093464279
 20
3.438001396341667
 30
0.0
 11
2.335948286823663
 21
3.438001396341667
 31
0.0
  0
LINE
  5
D24
330
10C1
100
AcDbEntity
  8
image
100
AcDbLine
 10
2.282241034722248
 20
3.204579161194162
 30
0.0
 11
2.282241034722248
 21
3.450115775595628
 31
0.0
  0
LINE
  5
D25
330
10C1
100
AcDbEntity
  8
image
100
AcDbLine
 10
1.812701627029607
 20
3.204579161194162
 30
0.0
 11
1.812701627029607
 21
3.45011577559563
 31
0.0
  0
LWPOLYLINE
  5
D26
330
10C1
100
AcDbEntity
  8
image
100
AcDbPolyline
 90
        2
 70
     0
 43
0.0
 10
2.282241034722248
 20
3.204579161194161
 10
2.234728118467635
 20
3.154271367512807
  0
LWPOLYLINE
  5
D27
330
10C1
100
AcDbEntity
  8
image
100
AcDbPolyline
 90
        2
 70
     0
 43
0.0
 10
1.812701627029605
 20
3.204579161194161
 10
1.860214543284218
 20
3.154271367512807
  0
LINE
  5
D28
330
10C1
100
AcDbEntity
  8
image
100
AcDbLine
 10
2.251620177209665
 20
3.154271367512808
 30
0.0
 11
2.234728118467635
 21
3.154271367512807
 31
0.0
  0
LINE
  5
D29
330
10C1
100
AcDbEntity
  8
image
100
AcDbLine
 10
1.84332248454219
 20
3.154271367512808
 30
0.0
 11
1.860214543284218
 21
3.154271367512807
 31
0.0
  0
LINE
  5
D2A
330
10C1
100
AcDbEntity
  8
image
100
AcDbLine
 10
1.86021454328422
 20
3.438001396341668
 30
0.0
 11
2.234728118467637
 21
3.438001396341667
 31
0.0
  0
ARC
  5
D2B
330
10C1
100
AcDbEntity
  8
image
100
AcDbCircle
 10
1.864734669423222
 20
3.554960098299317
 30
0.0
 40
0.1170460144726449
100
AcDbArc
 50
233.9230091132946
 51
267.7867801058023
  0
ARC
  5
D2C
330
10C1
100
AcDbEntity
  8
image
100
AcDbCircle
 10
2.230207992328635
 20
3.554960098299317
 30
0.0
 40
0.1170460144726449
100
AcDbArc
 50
272.2132198941957
 51
306.0769908867054
  0
CIRCLE
  5
EA8
330
10C1
100
AcDbEntity
  8
text_bubbles
100
AcDbCircle
 10
0.5382963848290605
 20
5.999159874629095
 30
0.0
 40
0.15625
  0
TEXT
  5
EAB
330
10C1
100
AcDbEntity
  8
text_bubbles
100
AcDbText
 10
4.947793607510662
 20
5.582375243653899
 30
0.0
 40
0.125
  1
3
  7
ROMANS
 72
     4
 11
5.007317417034472
 21
5.644875243653899
 31
0.0
100
AcDbText
  0
CIRCLE
  5
EAC
330
10C1
100
AcDbEntity
  8
text_bubbles
100
AcDbCircle
 10
5.007317417034472
 20
5.644875243653899
 30
0.0
 40
0.15625
  0
CIRCLE
  5
EBB
330
10C1
100
AcDbEntity
  8
text_bubbles
100
AcDbCircle
 10
0.5300876479845967
 20
4.910698291955048
 30
0.0
 40
0.15625
  0
TEXT
  5
EBC
330
10C1
100
AcDbEntity
  8
text_bubbles
100
AcDbText
 10
0.4705638384607873
 20
4.848198291955048
 30
0.0
 40
0.125
  1
3
  7
ROMANS
 72
     4
 11
0.5300876479845967
 21
4.910698291955048
 31
0.0
100
AcDbText
  0
TEXT
  5
EC2
330
10C1
100
AcDbEntity
  8
text_bubbles
100
AcDbText
 10
4.944817417034472
 20
3.631906431148069
 30
0.0
 40
0.125
  1
6
  7
ROMANS
 72
     4
 11
5.007317417034472
 21
3.694406431148069
 31
0.0
100
AcDbText
  0
CIRCLE
  5
EC3
330
10C1
100
AcDbEntity
  8
text_bubbles
100
AcDbCircle
 10
5.007317417034472
 20
3.694406431148069
 30
0.0
 40
0.15625
  0
CIRCLE
  5
ECE
330
10C1
100
AcDbEntity
  8
text_bubbles
100
AcDbCircle
 10
5.007317417034472
 20
5.235850925470312
 30
0.0
 40
0.15625
  0
CIRCLE
  5
ECF
330
10C1
100
AcDbEntity
  8
text_bubbles
100
AcDbCircle
 10
5.007317417034472
 20
4.553204299741906
 30
0.0
 40
0.15625
  0
CIRCLE
  5
ED1
330
10C1
100
AcDbEntity
  8
text_bubbles
100
AcDbCircle
 10
4.162795164287159
 20
4.323105310391063
 30
0.0
 40
0.15625
  0
TEXT
  5
ED2
330
10C1
100
AcDbEntity
  8
text_bubbles
100
AcDbText
 10
4.103271354763349
 20
4.260605310391063
 30
0.0
 40
0.125
  1
7
  7
ROMANS
 72
     4
 11
4.162795164287159
 21
4.323105310391063
 31
0.0
100
AcDbText
  0
CIRCLE
  5
ED4
330
10C1
100
AcDbEntity
  8
text_bubbles
100
AcDbCircle
 10
4.162746984740806
 20
6.607071370050098
 30
0.0
 40
0.15625
  0
TEXT
  5
ED5
330
10C1
100
AcDbEntity
  8
text_bubbles
100
AcDbText
 10
4.103223175216997
 20
6.544571370050098
 30
0.0
 40
0.125
  1
5
  7
ROMANS
 72
     4
 11
4.162746984740806
 21
6.607071370050098
 31
0.0
100
AcDbText
  0
TEXT
  5
ED6
330
10C1
100
AcDbEntity
  8
text_bubbles
100
AcDbText
 10
4.947793607510662
 20
4.490704299741906
 30
0.0
 40
0.125
  1
5
  7
ROMANS
 72
     4
 11
5.007317417034472
 21
4.553204299741906
 31
0.0
100
AcDbText
  0
TEXT
  5
ED7
330
10C1
100
AcDbEntity
  8
text_bubbles
100
AcDbText
 10
4.944817417034472
 20
5.173350925470312
 30
0.0
 40
0.125
  1
4
  7
ROMANS
 72
     4
 11
5.007317417034472
 21
5.235850925470312
 31
0.0
100
AcDbText
  0
CIRCLE
  5
EDC
330
10C1
100
AcDbEntity
  8
text_bubbles
100
AcDbCircle
 10
0.5298379315888742
 20
6.592434217149252
 30
0.0
 40
0.15625
  0
TEXT
  5
EDD
330
10C1
100
AcDbEntity
  8
text_bubbles
100
AcDbText
 10
0.478772575305251
 20
5.936659874629095
 30
0.0
 40
0.125
  1
2
  7
ROMANS
 72
     4
 11
0.5382963848290605
 21
5.999159874629095
 31
0.0
100
AcDbText
  0
TEXT
  5
EDE
330
10C1
100
AcDbEntity
  8
text_bubbles
100
AcDbText
 10
0.4792426934936361
 20
6.529934217149252
 30
0.0
 40
0.125
  1
1
  7
ROMANS
 72
     4
 11
0.5298379315888742
 21
6.592434217149252
 31
0.0
100
AcDbText
  0
CIRCLE
  5
EDF
330
10C1
100
AcDbEntity
  8
text_bubbles
100
AcDbCircle
 10
5.007317417034472
 20
6.059651025052054
 30
0.0
 40
0.15625
  0
CIRCLE
  5
EE0
330
10C1
100
AcDbEntity
  8
text_bubbles
100
AcDbCircle
 10
5.007317417034472
 20
6.480720812704074
 30
0.0
 40
0.15625
  0
TEXT
  5
EE1
330
10C1
100
AcDbEntity
  8
text_bubbles
100
AcDbText
 10
4.947793607510662
 20
5.997151025052054
 30
0.0
 40
0.125
  1
2
  7
ROMANS
 72
     4
 11
5.007317417034472
 21
6.059651025052054
 31
0.0
100
AcDbText
  0
TEXT
  5
EE2
330
10C1
100
AcDbEntity
  8
text_bubbles
100
AcDbText
 10
4.956722178939234
 20
6.418220812704074
 30
0.0
 40
0.125
  1
1
  7
ROMANS
 72
     4
 11
5.007317417034472
 21
6.480720812704074
 31
0.0
100
AcDbText
  0
LEADER
  5
1149
330
10C1
100
AcDbEntity
  8
text_bubbles
100
AcDbLeader
  3
STANDARD
 76
     2
 10
0.9211546182521173
 20
6.487347712471947
 30
0.0
 10
0.6521529046424028
 20
6.10616807709972
 30
0.0
  0
LEADER
  5
114A
330
10C1
100
AcDbEntity
  8
text_bubbles
100
AcDbLeader
  3
STANDARD
 76
     2
 10
1.024242718219613
 20
6.726152533585726
 30
0.0
 10
0.6859867176031483
 20
6.586811128472342
 30
0.0
  0
LEADER
  5
114D
330
10C1
100
AcDbEntity
  8
text_bubbles
100
AcDbLeader
  3
STANDARD
 76
     2
 10
2.570996219207269
 20
4.639187101196285
 30
0.0
 10
4.007002049946633
 20
4.335045495652609
 30
0.0
  0
LEADER
  5
114E
330
10C1
100
AcDbEntity
  8
text_bubbles
100
AcDbLeader
  3
STANDARD
 76
     2
 10
1.684914248225141
 20
4.718055257789462
 30
0.0
 10
0.6849878520202579
 20
4.890204651729101
 30
0.0
  0
LEADER
  5
1150
330
10C1
100
AcDbEntity
  8
text_bubbles
100
AcDbLeader
  3
STANDARD
 76
     2
 10
3.260178666080706
 20
6.052852553108725
 30
0.0
 10
4.005087745516646
 20
5.635947411057102
 30
0.0
  0
LEADER
  5
1151
330
10C1
100
AcDbEntity
  8
text_bubbles
100
AcDbLeader
  3
STANDARD
 76
     2
 10
3.733688316705626
 20
6.258358538418477
 30
0.0
 10
4.059683329074204
 20
6.489632256545966
 30
0.0
  0
TEXT
  5
118C
330
10C1
100
AcDbEntity
  8
text_bubbles
100
AcDbText
 10
4.096598170904775
 20
5.547087377450005
 30
0.0
 40
0.125
  1
6
  7
ROMANS
 72
     4
 11
4.159098170904775
 21
5.609587377450005
 31
0.0
100
AcDbText
  0
CIRCLE
  5
118D
330
10C1
100
AcDbEntity
  8
text_bubbles
100
AcDbCircle
 10
4.159098170904775
 20
5.609587377450005
 30
0.0
 40
0.15625
  0
INSERT
  5
11A4
330
10C1
100
AcDbEntity
  8
title
100
AcDbBlockReference
 66
     1
  2
titleblock
 10
-0.4984554492313005
 20
-2.162528984183523
 30
0.0
  0
ATTRIB
  5
11A5
330
11A4
100
AcDbEntity
  8
title
100
AcDbText
 10
0.0071001545710415
 20
-1.378301887705155
 30
0.0
 40
0.2
  1
D
  7
L200
 72
     4
 11
0.1079869212831834
 21
-1.278301887705155
 31
0.0
100
AcDbAttribute
  2
D
 70
     0
  0
ATTRIB
  5
11A6
330
11A4
100
AcDbEntity
  8
title
100
AcDbText
 10
0.7329869212831837
 20
-0.8188166814367722
 30
0.0
 40
0.2
  1
SQ NOZZLE ON XERI-POP FROM BARB
  7
L200
100
AcDbAttribute
  2
TITLE1
 70
     0
  0
ATTRIB
  5
11A7
330
11A4
100
AcDbEntity
  8
title
100
AcDbText
 10
0.7329869212831837
 20
-1.178301887705155
 30
0.0
 40
0.2
  1
CONNECTOR TO 1/2" POLYETHYLENE TUBING
  7
L200
100
AcDbAttribute
  2
TITLE2
 70
     0
  0
ATTRIB
  5
11A8
330
11A4
100
AcDbEntity
  8
title
100
AcDbText
 10
2.215190301937012
 20
-1.569736217725203
 30
0.0
 40
0.2
  1
OPTION 2
  7
L200
100
AcDbAttribute
  2
TITLE3
 70
     0
  0
ATTRIB
  5
11A9
330
11A4
100
AcDbEntity
  8
title
100
AcDbText
 10
2.215190301937012
 20
-1.893272903366748
 30
0.0
 40
0.2
  1

  7
L200
100
AcDbAttribute
  2
TITLE4
 70
     0
  0
ATTRIB
  5
11AA
330
11A4
100
AcDbEntity
  8
title
 62
     7
100
AcDbText
 10
7.194949856925555
 20
-1.192926192638882
 30
0.0
 40
0.08
  1
1-13-10
  7
L80
 72
     2
 11
7.762568904544602
 21
-1.192926192638882
 31
0.0
100
AcDbAttribute
  2
REVISED
 70
     0
  0
ATTRIB
  5
11AB
330
11A4
100
AcDbEntity
  8
title
 62
     7
100
AcDbText
 10
-0.2345130787168166
 20
-2.077817336162801
 30
0.0
 40
0.08
  1
SQ Nozzle Option 2.dwg
  7
L80
100
AcDbAttribute
  2
DWG-NAME
 70
     0
  0
ATTRIB
  5
11AC
330
11A4
100
AcDbEntity
  8
title
 62
     7
100
AcDbText
 10
0.7329869212831837
 20
-1.461965204788033
 30
0.0
 40
0.1
  1
N.T.S.
  7
L100
100
AcDbAttribute
  2
SCALE
 70
     0
  0
SEQEND
  5
11AD
330
11A4
100
AcDbEntity
  8
title
  0
MTEXT
  5
12DA
102
{ACAD_XDICTIONARY
360
15B6
102
}
330
10C1
100
AcDbEntity
  8
text_bubbles
100
AcDbMText
 10
5.296680084347973
 20
6.53936234323909
 30
0.0
 40
0.125
 41
4.202295919515166
 71
     1
 72
     5
  3
\A1;PLANT MATERIAL \P\PFINISH GRADE \P\P\pi-0.25,l0.25;MICRO-SPRAY POP-UP:\P\pt0.25;^IRAIN BIRD XERI-POP XP-400X\P\ptz;{\Fromans|c0;LOW VOLUME SPRAY NOZZLE:\P  RAIN BIRD SQ SQUARE SERIES NOZZLE (FORMERLY KNOWN AS XPCN)\P\pi0,l0;\H0.7x;\S1#2;\H1.4286x;
  3
" POLYETHYLENE TUBING:\P\pi-0.25,l0.25;  RAIN BIRD XF SERIES TUBING OR\P\pi0,l0;  RAIN BIRD XT-700 XERI-TUBE OR\P  RAIN BIRD XBS BLACK STRIPE TUBING \H0.99998x;\P\Fsimplex|c0;\H0.7x;\S1#4;}" SELF-PIERCING BARB CONNECTOR:\P\pt0.25;^IRAIN BIRD SPB-025  
  1
 \P\pi-0.25,l0.25,tz;{\Fromans|c0;\H0.7x;\S1#4;\H1.4286x;" DISTRIBUTION TUBING:  \P  RAIN BIRD XQ TUBING\P  (LENGTH AS REQUIRED)}
  7
SIMPLEX
 73
     1
 44
1.0
  0
LINE
  5
13CD
330
10C1
100
AcDbEntity
  8
image
100
AcDbLine
 10
2.052053220983981
 20
7.857988413509696
 30
0.0
 11
1.87251534962377
 21
7.857988413509696
 31
0.0
  0
LINE
  5
13CE
330
10C1
100
AcDbEntity
  8
image
100
AcDbLine
 10
2.052053220983981
 20
7.560098468202999
 30
0.0
 11
1.88974689391794
 21
7.560098468202999
 31
0.0
  0
LINE
  5
13CF
330
10C1
100
AcDbEntity
  8
image
100
AcDbLine
 10
2.052053220983981
 20
7.837723796743642
 30
0.0
 11
1.87251534962377
 21
7.837723796743642
 31
0.0
  0
LINE
  5
13D0
330
10C1
100
AcDbEntity
  8
image
100
AcDbLine
 10
1.88974689391794
 20
7.83772379674364
 30
0.0
 11
1.88974689391794
 21
6.509571683439761
 31
0.0
  0
LINE
  5
13D1
330
10C1
100
AcDbEntity
  8
image
100
AcDbLine
 10
1.87251534962377
 20
7.857988413509696
 30
0.0
 11
1.87251534962377
 21
7.837723796743642
 31
0.0
  0
LINE
  5
13D2
330
10C1
100
AcDbEntity
  8
image
100
AcDbLine
 10
2.030640067985038
 20
7.560098468202999
 30
0.0
 11
2.030640067985038
 21
7.719617952276124
 31
0.0
  0
LINE
  5
13D3
330
10C1
100
AcDbEntity
  8
image
100
AcDbLine
 10
2.030640067985038
 20
7.719617952276124
 30
0.0
 11
2.052053220983981
 21
7.719617952276124
 31
0.0
  0
LINE
  5
13D4
330
10C1
100
AcDbEntity
  8
image
100
AcDbLine
 10
2.030640067985038
 20
7.719617952276124
 30
0.0
 11
2.030640067985038
 21
7.73481639968803
 31
0.0
  0
LINE
  5
13D5
330
10C1
100
AcDbEntity
  8
image
100
AcDbLine
 10
2.030640067985038
 20
7.73481639968803
 30
0.0
 11
2.052053220983981
 21
7.73481639968803
 31
0.0
  0
LINE
  5
13D6
330
10C1
100
AcDbEntity
  8
image
100
AcDbLine
 10
2.073466373982927
 20
7.560098468202999
 30
0.0
 11
2.073466373982927
 21
7.719617952276124
 31
0.0
  0
LINE
  5
13D7
330
10C1
100
AcDbEntity
  8
image
100
AcDbLine
 10
2.214359548050025
 20
7.83772379674364
 30
0.0
 11
2.214359548050025
 21
6.509571683439761
 31
0.0
  0
LINE
  5
13D8
330
10C1
100
AcDbEntity
  8
image
100
AcDbLine
 10
2.052053220983981
 20
7.560098468202999
 30
0.0
 11
2.214359548050025
 21
7.560098468202999
 31
0.0
  0
LINE
  5
13D9
330
10C1
100
AcDbEntity
  8
image
100
AcDbLine
 10
2.052053220983981
 20
7.837723796743642
 30
0.0
 11
2.231591092344195
 21
7.837723796743642
 31
0.0
  0
LINE
  5
13DA
330
10C1
100
AcDbEntity
  8
image
100
AcDbLine
 10
2.052053220983981
 20
7.857988413509696
 30
0.0
 11
2.231591092344195
 21
7.857988413509696
 31
0.0
  0
LINE
  5
13DB
330
10C1
100
AcDbEntity
  8
image
100
AcDbLine
 10
2.231591092344195
 20
7.857988413509696
 30
0.0
 11
2.231591092344195
 21
7.837723796743642
 31
0.0
  0
LINE
  5
13DC
330
10C1
100
AcDbEntity
  8
image
100
AcDbLine
 10
2.073466373982927
 20
7.73481639968803
 30
0.0
 11
2.052053220983981
 21
7.73481639968803
 31
0.0
  0
LINE
  5
13DD
330
10C1
100
AcDbEntity
  8
image
100
AcDbLine
 10
2.073466373982927
 20
7.719617952276124
 30
0.0
 11
2.073466373982927
 21
7.73481639968803
 31
0.0
  0
LINE
  5
13DE
330
10C1
100
AcDbEntity
  8
image
100
AcDbLine
 10
2.073466373982927
 20
7.719617952276124
 30
0.0
 11
2.052053220983981
 21
7.719617952276124
 31
0.0
  0
MTEXT
  5
13EA
102
{ACAD_XDICTIONARY
360
15B8
102
}
330
10C1
100
AcDbEntity
  8
image
100
AcDbMText
 10
0.5511069684311134
 20
1.996004214674785
 30
0.0
 40
0.125
 41
8.095199960418199
 71
     1
 72
     5
  3
\A1;NOTES: \P\pi-0.375,l0.375,t0.375;1. USE RAIN BIRD XERIMAN TOOL XM-TOOL TO INSERT BARB CONNECTOR DIRECTLY INTO {\H0.7x;\S1#2;}" POLYETHYLENE TUBING.\P2. RAIN BIRD SQ SQUARE NOZZLE SERIES ARE AVAILABLE IN THE FOLLOWING MODELS:\P^ISQ QTR - QUARTER PA
  1
TTERN - 7.4 GPH MAX\P^ISQ HLF - HALF PATTERN - 13.7 GPH MAX\P^ISQ FUL - FULL PATTERN - 27.3 GPH MAX\P3. SQ NOZZLES CAN BE ADJUSTED FROM 2.5' THROW TO 4' THROW BY TURNING THE NOZZLE.
  7
ROMANS
 73
     1
 44
1.0
  0
CIRCLE
  5
13EB
330
10C1
100
AcDbEntity
  8
text_bubbles
100
AcDbCircle
 10
2.883754679603737
 20
7.838238198229256
 30
0.0
 40
0.15625
  0
TEXT
  5
13EC
330
10C1
100
AcDbEntity
  8
text_bubbles
100
AcDbText
 10
2.821254679603737
 20
7.775738198229256
 30
0.0
 40
0.125
  1
4
  7
ROMANS
 72
     4
 11
2.883754679603737
 21
7.838238198229256
 31
0.0
100
AcDbText
  0
LEADER
  5
13EF
330
10C1
100
AcDbEntity
  8
text_bubbles
100
AcDbLeader
  3
STANDARD
 76
     2
 10
2.214359548050025
 20
7.646473581085461
 30
0.0
 10
2.733546762230293
 20
7.795207464348315
 30
0.0
1001
ACAD
1000
DSTYLE
1002
{
1070
    44
1040
0.125
1070
   140
1040
0.125
1070
   176
1070
   256
1070
   177
1070
   256
1070
   178
1070
   256
1070
   340
1005
1345
1070
   371
1070
    -1
1070
   372
1070
    -1
1002
}
  0
TEXT
  5
13F7
330
10C1
100
AcDbEntity
  8
text_bubbles
100
AcDbText
 10
4.947793607510662
 20
3.193604125637992
 30
0.0
 40
0.125
  1
7
  7
ROMANS
 72
     4
 11
5.007317417034472
 21
3.256104125637992
 31
0.0
100
AcDbText
  0
CIRCLE
  5
13F8
330
10C1
100
AcDbEntity
  8
text_bubbles
100
AcDbCircle
 10
5.007317417034472
 20
3.256104125637992
 30
0.0
 40
0.15625
  0
POLYLINE
  5
143C
330
10C1
100
AcDbEntity
  8
image
100
AcDb2dPolyline
 66
     1
 10
0.0
 20
0.0
 30
0.0
 70
     4
 75
     6
  0
VERTEX
  5
143F
330
143C
100
AcDbEntity
  8
image
100
AcDbVertex
100
AcDb2dVertex
 10
2.575758605864669
 20
5.968371726420803
 30
0.0
 70
    16
  0
VERTEX
  5
1446
330
143C
100
AcDbEntity
  8
image
100
AcDbVertex
100
AcDb2dVertex
 10
2.575758605864669
 20
5.968371726420802
 30
0.0
 70
     8
  0
VERTEX
  5
1447
330
143C
100
AcDbEntity
  8
image
100
AcDbVertex
100
AcDb2dVertex
 10
2.584050255367575
 20
5.991147233307151
 30
0.0
 70
     8
  0
VERTEX
  5
1448
330
143C
100
AcDbEntity
  8
image
100
AcDbVertex
100
AcDb2dVertex
 10
2.593731185648128
 20
6.011425017872155
 30
0.0
 70
     8
  0
VERTEX
  5
1449
330
143C
100
AcDbEntity
  8
image
100
AcDbVertex
100
AcDb2dVertex
 10
2.604659985030502
 20
6.029437892286005
 30
0.0
 70
     8
  0
VERTEX
  5
144A
330
143C
100
AcDbEntity
  8
image
100
AcDbVertex
100
AcDb2dVertex
 10
2.616695241838874
 20
6.045418668718892
 30
0.0
 70
     8
  0
VERTEX
  5
144B
330
143C
100
AcDbEntity
  8
image
100
AcDbVertex
100
AcDb2dVertex
 10
2.629695544397418
 20
6.059600159341004
 30
0.0
 70
     8
  0
VERTEX
  5
144C
330
143C
100
AcDbEntity
  8
image
100
AcDbVertex
100
AcDb2dVertex
 10
2.643519481030311
 20
6.072215176322529
 30
0.0
 70
     8
  0
VERTEX
  5
144D
330
143C
100
AcDbEntity
  8
image
100
AcDbVertex
100
AcDb2dVertex
 10
2.658025640061726
 20
6.08349653183366
 30
0.0
 70
     8
  0
VERTEX
  5
144E
330
143C
100
AcDbEntity
  8
image
100
AcDbVertex
100
AcDb2dVertex
 10
2.673072609815839
 20
6.093677038044586
 30
0.0
 70
     8
  0
VERTEX
  5
144F
330
143C
100
AcDbEntity
  8
image
100
AcDbVertex
100
AcDb2dVertex
 10
2.688555412641134
 20
6.102964665967653
 30
0.0
 70
     8
  0
VERTEX
  5
1450
330
143C
100
AcDbEntity
  8
image
100
AcDbVertex
100
AcDb2dVertex
 10
2.704514806983319
 20
6.111468021983845
 30
0.0
 70
     8
  0
VERTEX
  5
1451
330
143C
100
AcDbEntity
  8
image
100
AcDbVertex
100
AcDb2dVertex
 10
2.721027985312413
 20
6.119270871316302
 30
0.0
 70
     8
  0
VERTEX
  5
1452
330
143C
100
AcDbEntity
  8
image
100
AcDbVertex
100
AcDb2dVertex
 10
2.738172140098433
 20
6.126456979188167
 30
0.0
 70
     8
  0
VERTEX
  5
1453
330
143C
100
AcDbEntity
  8
image
100
AcDbVertex
100
AcDb2dVertex
 10
2.756024463811396
 20
6.133110110822578
 30
0.0
 70
     8
  0
VERTEX
  5
1454
330
143C
100
AcDbEntity
  8
image
100
AcDbVertex
100
AcDb2dVertex
 10
2.774662148921319
 20
6.139314031442679
 30
0.0
 70
     8
  0
VERTEX
  5
1455
330
143C
100
AcDbEntity
  8
image
100
AcDbVertex
100
AcDb2dVertex
 10
2.794162387898221
 20
6.145152506271609
 30
0.0
 70
     8
  0
VERTEX
  5
1456
330
143C
100
AcDbEntity
  8
image
100
AcDbVertex
100
AcDb2dVertex
 10
2.814602373212118
 20
6.15070930053251
 30
0.0
 70
     8
  0
VERTEX
  5
1457
330
143C
100
AcDbEntity
  8
image
100
AcDbVertex
100
AcDb2dVertex
 10
2.836143103185075
 20
6.156057524649937
 30
0.0
 70
     8
  0
VERTEX
  5
1458
330
143C
100
AcDbEntity
  8
image
100
AcDbVertex
100
AcDb2dVertex
 10
2.85928079954734
 20
6.161227669854097
 30
0.0
 70
     8
  0
VERTEX
  5
1459
330
143C
100
AcDbEntity
  8
image
100
AcDbVertex
100
AcDb2dVertex
 10
2.884595489881212
 20
6.166239572576611
 30
0.0
 70
     8
  0
VERTEX
  5
145A
330
143C
100
AcDbEntity
  8
image
100
AcDbVertex
100
AcDb2dVertex
 10
2.912667201768987
 20
6.171113069249101
 30
0.0
 70
     8
  0
VERTEX
  5
145B
330
143C
100
AcDbEntity
  8
image
100
AcDbVertex
100
AcDb2dVertex
 10
2.944075962792961
 20
6.175867996303187
 30
0.0
 70
     8
  0
VERTEX
  5
145C
330
143C
100
AcDbEntity
  8
image
100
AcDbVertex
100
AcDb2dVertex
 10
2.979401800535431
 20
6.180524190170491
 30
0.0
 70
     8
  0
VERTEX
  5
145D
330
143C
100
AcDbEntity
  8
image
100
AcDbVertex
100
AcDb2dVertex
 10
3.019224742578693
 20
6.185101487282635
 30
0.0
 70
     8
  0
VERTEX
  5
145E
330
143C
100
AcDbEntity
  8
image
100
AcDbVertex
100
AcDb2dVertex
 10
3.064124816505045
 20
6.189619724071238
 30
0.0
 70
     8
  0
VERTEX
  5
1440
330
143C
100
AcDbEntity
  8
image
100
AcDbVertex
100
AcDb2dVertex
 10
2.595891597568156
 20
6.032643652030801
 30
0.0
 70
    16
  0
VERTEX
  5
1441
330
143C
100
AcDbEntity
  8
image
100
AcDbVertex
100
AcDb2dVertex
 10
2.668812353315853
 20
6.102936100764761
 30
0.0
 70
    16
  0
VERTEX
  5
1442
330
143C
100
AcDbEntity
  8
image
100
AcDbVertex
100
AcDb2dVertex
 10
2.803755025937315
 20
6.152820397544649
 30
0.0
 70
    16
  0
VERTEX
  5
1443
330
143C
100
AcDbEntity
  8
image
100
AcDbVertex
100
AcDb2dVertex
 10
2.93710619678417
 20
6.177632207349353
 30
0.0
 70
    16
  0
VERTEX
  5
1444
330
143C
100
AcDbEntity
  8
image
100
AcDbVertex
100
AcDb2dVertex
 10
3.064124816505045
 20
6.189619724071238
 30
0.0
 70
    16
  0
SEQEND
  5
1445
330
143C
100
AcDbEntity
  8
image
  0
POLYLINE
  5
143E
330
10C1
100
AcDbEntity
  8
image
100
AcDb2dPolyline
 66
     1
 10
0.0
 20
0.0
 30
0.0
 70
     4
 75
     6
  0
VERTEX
  5
145F
330
143E
100
AcDbEntity
  8
image
100
AcDbVertex
100
AcDb2dVertex
 10
2.509832537446802
 20
5.968371726420803
 30
0.0
 70
    16
  0
VERTEX
  5
1467
330
143E
100
AcDbEntity
  8
image
100
AcDbVertex
100
AcDb2dVertex
 10
2.509832537446802
 20
5.968371726420802
 30
0.0
 70
     8
  0
VERTEX
  5
1468
330
143E
100
AcDbEntity
  8
image
100
AcDbVertex
100
AcDb2dVertex
 10
2.522044786136296
 20
6.003068358600356
 30
0.0
 70
     8
  0
VERTEX
  5
1469
330
143E
100
AcDbEntity
  8
image
100
AcDbVertex
100
AcDb2dVertex
 10
2.535693926109928
 20
6.033289866093938
 30
0.0
 70
     8
  0
VERTEX
  5
146A
330
143E
100
AcDbEntity
  8
image
100
AcDbVertex
100
AcDb2dVertex
 10
2.550540909200396
 20
6.059476943767728
 30
0.0
 70
     8
  0
VERTEX
  5
146B
330
143E
100
AcDbEntity
  8
image
100
AcDbVertex
100
AcDb2dVertex
 10
2.566346687240395
 20
6.0820702864879
 30
0.0
 70
     8
  0
VERTEX
  5
146C
330
143E
100
AcDbEntity
  8
image
100
AcDbVertex
100
AcDb2dVertex
 10
2.582872212062623
 20
6.101510589120633
 30
0.0
 70
     8
  0
VERTEX
  5
146D
330
143E
100
AcDbEntity
  8
image
100
AcDbVertex
100
AcDb2dVertex
 10
2.599878435499774
 20
6.118238546532103
 30
0.0
 70
     8
  0
VERTEX
  5
146E
330
143E
100
AcDbEntity
  8
image
100
AcDbVertex
100
AcDb2dVertex
 10
2.617126309384546
 20
6.132694853588488
 30
0.0
 70
     8
  0
VERTEX
  5
146F
330
143E
100
AcDbEntity
  8
image
100
AcDbVertex
100
AcDb2dVertex
 10
2.634376785549634
 20
6.145320205155964
 30
0.0
 70
     8
  0
VERTEX
  5
1470
330
143E
100
AcDbEntity
  8
image
100
AcDbVertex
100
AcDb2dVertex
 10
2.651437620609752
 20
6.156503758324237
 30
0.0
 70
     8
  0
VERTEX
  5
1471
330
143E
100
AcDbEntity
  8
image
100
AcDbVertex
100
AcDb2dVertex
 10
2.668303790307687
 20
6.166428519077132
 30
0.0
 70
     8
  0
VERTEX
  5
1472
330
143E
100
AcDbEntity
  8
image
100
AcDbVertex
100
AcDb2dVertex
 10
2.685017075168238
 20
6.175225955621997
 30
0.0
 70
     8
  0
VERTEX
  5
1473
330
143E
100
AcDbEntity
  8
image
100
AcDbVertex
100
AcDb2dVertex
 10
2.701619255716212
 20
6.183027536166188
 30
0.0
 70
     8
  0
VERTEX
  5
1474
330
143E
100
AcDbEntity
  8
image
100
AcDbVertex
100
AcDb2dVertex
 10
2.718152112476408
 20
6.189964728917055
 30
0.0
 70
     8
  0
VERTEX
  5
1475
330
143E
100
AcDbEntity
  8
image
100
AcDbVertex
100
AcDb2dVertex
 10
2.734657425973631
 20
6.196169002081951
 30
0.0
 70
     8
  0
VERTEX
  5
1476
330
143E
100
AcDbEntity
  8
image
100
AcDbVertex
100
AcDb2dVertex
 10
2.751176976732682
 20
6.201771823868228
 30
0.0
 70
     8
  0
VERTEX
  5
1477
330
143E
100
AcDbEntity
  8
image
100
AcDbVertex
100
AcDb2dVertex
 10
2.767752545278366
 20
6.206904662483238
 30
0.0
 70
     8
  0
VERTEX
  5
1478
330
143E
100
AcDbEntity
  8
image
100
AcDbVertex
100
AcDb2dVertex
 10
2.784429137852239
 20
6.211680845553137
 30
0.0
 70
     8
  0
VERTEX
  5
1479
330
143E
100
AcDbEntity
  8
image
100
AcDbVertex
100
AcDb2dVertex
 10
2.801264663562886
 20
6.216141138379296
 30
0.0
 70
     8
  0
VERTEX
  5
147A
330
143E
100
AcDbEntity
  8
image
100
AcDbVertex
100
AcDb2dVertex
 10
2.818320257235644
 20
6.220308165681891
 30
0.0
 70
     8
  0
VERTEX
  5
147B
330
143E
100
AcDbEntity
  8
image
100
AcDbVertex
100
AcDb2dVertex
 10
2.835657053695853
 20
6.224204552181097
 30
0.0
 70
     8
  0
VERTEX
  5
147C
330
143E
100
AcDbEntity
  8
image
100
AcDbVertex
100
AcDb2dVertex
 10
2.853336187768852
 20
6.227852922597089
 30
0.0
 70
     8
  0
VERTEX
  5
147D
330
143E
100
AcDbEntity
  8
image
100
AcDbVertex
100
AcDb2dVertex
 10
2.871418794279978
 20
6.231275901650044
 30
0.0
 70
     8
  0
VERTEX
  5
147E
330
143E
100
AcDbEntity
  8
image
100
AcDbVertex
100
AcDb2dVertex
 10
2.889966008054571
 20
6.234496114060135
 30
0.0
 70
     8
  0
VERTEX
  5
147F
330
143E
100
AcDbEntity
  8
image
100
AcDbVertex
100
AcDb2dVertex
 10
2.909038963917969
 20
6.237536184547539
 30
0.0
 70
     8
  0
VERTEX
  5
1480
330
143E
100
AcDbEntity
  8
image
100
AcDbVertex
100
AcDb2dVertex
 10
2.928652765305384
 20
6.240413351607083
 30
0.0
 70
     8
  0
VERTEX
  5
1481
330
143E
100
AcDbEntity
  8
image
100
AcDbVertex
100
AcDb2dVertex
 10
2.948638390091514
 20
6.243123308832203
 30
0.0
 70
     8
  0
VERTEX
  5
1482
330
143E
100
AcDbEntity
  8
image
100
AcDbVertex
100
AcDb2dVertex
 10
2.968780784760932
 20
6.245656363590989
 30
0.0
 70
     8
  0
VERTEX
  5
1483
330
143E
100
AcDbEntity
  8
image
100
AcDbVertex
100
AcDb2dVertex
 10
2.988864895798209
 20
6.248002823251531
 30
0.0
 70
     8
  0
VERTEX
  5
1484
330
143E
100
AcDbEntity
  8
image
100
AcDbVertex
100
AcDb2dVertex
 10
3.008675669687916
 20
6.250152995181917
 30
0.0
 70
     8
  0
VERTEX
  5
1485
330
143E
100
AcDbEntity
  8
image
100
AcDbVertex
100
AcDb2dVertex
 10
3.027998052914625
 20
6.252097186750235
 30
0.0
 70
     8
  0
VERTEX
  5
1486
330
143E
100
AcDbEntity
  8
image
100
AcDbVertex
100
AcDb2dVertex
 10
3.046616991962908
 20
6.253825705324577
 30
0.0
 70
     8
  0
VERTEX
  5
1487
330
143E
100
AcDbEntity
  8
image
100
AcDbVertex
100
AcDb2dVertex
 10
3.064317433317337
 20
6.255328858273029
 30
0.0
 70
     8
  0
VERTEX
  5
1460
330
143E
100
AcDbEntity
  8
image
100
AcDbVertex
100
AcDb2dVertex
 10
2.540270191646773
 20
6.067254640584174
 30
0.0
 70
    16
  0
VERTEX
  5
1461
330
143E
100
AcDbEntity
  8
image
100
AcDbVertex
100
AcDb2dVertex
 10
2.636898875010832
 20
6.160149651798437
 30
0.0
 70
    16
  0
VERTEX
  5
1462
330
143E
100
AcDbEntity
  8
image
100
AcDbVertex
100
AcDb2dVertex
 10
2.766709363289733
 20
6.210515488764997
 30
0.0
 70
    16
  0
VERTEX
  5
1463
330
143E
100
AcDbEntity
  8
image
100
AcDbVertex
100
AcDb2dVertex
 10
2.902778943500431
 20
6.239216368041003
 30
0.0
 70
    16
  0
VERTEX
  5
1464
330
143E
100
AcDbEntity
  8
image
100
AcDbVertex
100
AcDb2dVertex
 10
3.018532078644382
 20
6.251629553584484
 30
0.0
 70
    16
  0
VERTEX
  5
1465
330
143E
100
AcDbEntity
  8
image
100
AcDbVertex
100
AcDb2dVertex
 10
3.064317433317336
 20
6.255328858273029
 30
0.0
 70
    16
  0
SEQEND
  5
1466
330
143E
100
AcDbEntity
  8
image
  0
POLYLINE
  5
1488
330
10C1
100
AcDbEntity
  8
image
100
AcDb2dPolyline
 66
     1
 10
0.0
 20
0.0
 30
0.0
 70
     4
 75
     6
  0
VERTEX
  5
148A
330
1488
100
AcDbEntity
  8
image
100
AcDbVertex
100
AcDb2dVertex
 10
2.452378233302757
 20
2.932780339745921
 30
0.0
 70
    16
  0
VERTEX
  5
149A
330
1488
100
AcDbEntity
  8
image
100
AcDbVertex
100
AcDb2dVertex
 10
2.452378233302757
 20
2.932780339745921
 30
0.0
 70
     8
  0
VERTEX
  5
149B
330
1488
100
AcDbEntity
  8
image
100
AcDbVertex
100
AcDb2dVertex
 10
2.47895119013975
 20
2.976324617231797
 30
0.0
 70
     8
  0
VERTEX
  5
149C
330
1488
100
AcDbEntity
  8
image
100
AcDbVertex
100
AcDb2dVertex
 10
2.501064654353757
 20
3.015353554073995
 30
0.0
 70
     8
  0
VERTEX
  5
149D
330
1488
100
AcDbEntity
  8
image
100
AcDbVertex
100
AcDb2dVertex
 10
2.519241334420485
 20
3.050370534539302
 30
0.0
 70
     8
  0
VERTEX
  5
149E
330
1488
100
AcDbEntity
  8
image
100
AcDbVertex
100
AcDb2dVertex
 10
2.534003938815641
 20
3.081878942894505
 30
0.0
 70
     8
  0
VERTEX
  5
149F
330
1488
100
AcDbEntity
  8
image
100
AcDbVertex
100
AcDb2dVertex
 10
2.545875176014932
 20
3.11038216340639
 30
0.0
 70
     8
  0
VERTEX
  5
14A0
330
1488
100
AcDbEntity
  8
image
100
AcDbVertex
100
AcDb2dVertex
 10
2.555377754494066
 20
3.136383580341743
 30
0.0
 70
     8
  0
VERTEX
  5
14A1
330
1488
100
AcDbEntity
  8
image
100
AcDbVertex
100
AcDb2dVertex
 10
2.56303438272875
 20
3.16038657796735
 30
0.0
 70
     8
  0
VERTEX
  5
14A2
330
1488
100
AcDbEntity
  8
image
100
AcDbVertex
100
AcDb2dVertex
 10
2.569367769194692
 20
3.182894540549998
 30
0.0
 70
     8
  0
VERTEX
  5
14A3
330
1488
100
AcDbEntity
  8
image
100
AcDbVertex
100
AcDb2dVertex
 10
2.574820850436218
 20
3.204345090629413
 30
0.0
 70
     8
  0
VERTEX
  5
14A4
330
1488
100
AcDbEntity
  8
image
100
AcDbVertex
100
AcDb2dVertex
 10
2.579517475272137
 20
3.224912803837076
 30
0.0
 70
     8
  0
VERTEX
  5
14A5
330
1488
100
AcDbEntity
  8
image
100
AcDbVertex
100
AcDb2dVertex
 10
2.583501720589876
 20
3.244706494077409
 30
0.0
 70
     8
  0
VERTEX
  5
14A6
330
1488
100
AcDbEntity
  8
image
100
AcDbVertex
100
AcDb2dVertex
 10
2.586817663276862
 20
3.263834975254831
 30
0.0
 70
     8
  0
VERTEX
  5
14A7
330
1488
100
AcDbEntity
  8
image
100
AcDbVertex
100
AcDb2dVertex
 10
2.589509380220524
 20
3.282407061273765
 30
0.0
 70
     8
  0
VERTEX
  5
14A8
330
1488
100
AcDbEntity
  8
image
100
AcDbVertex
100
AcDb2dVertex
 10
2.591620948308289
 20
3.300531566038631
 30
0.0
 70
     8
  0
VERTEX
  5
14A9
330
1488
100
AcDbEntity
  8
image
100
AcDbVertex
100
AcDb2dVertex
 10
2.593196444427583
 20
3.31831730345385
 30
0.0
 70
     8
  0
VERTEX
  5
14AA
330
1488
100
AcDbEntity
  8
image
100
AcDbVertex
100
AcDb2dVertex
 10
2.594279945465836
 20
3.335873087423844
 30
0.0
 70
     8
  0
VERTEX
  5
14AB
330
1488
100
AcDbEntity
  8
image
100
AcDbVertex
100
AcDb2dVertex
 10
2.594914690997016
 20
3.353292603148613
 30
0.0
 70
     8
  0
VERTEX
  5
14AC
330
1488
100
AcDbEntity
  8
image
100
AcDbVertex
100
AcDb2dVertex
 10
2.595140571341265
 20
3.370609021010487
 30
0.0
 70
     8
  0
VERTEX
  5
14AD
330
1488
100
AcDbEntity
  8
image
100
AcDbVertex
100
AcDb2dVertex
 10
2.594996639505264
 20
3.387840382687371
 30
0.0
 70
     8
  0
VERTEX
  5
14AE
330
1488
100
AcDbEntity
  8
image
100
AcDbVertex
100
AcDb2dVertex
 10
2.594521948495696
 20
3.405004729857175
 30
0.0
 70
     8
  0
VERTEX
  5
14AF
330
1488
100
AcDbEntity
  8
image
100
AcDbVertex
100
AcDb2dVertex
 10
2.593755551319243
 20
3.422120104197808
 30
0.0
 70
     8
  0
VERTEX
  5
14B0
330
1488
100
AcDbEntity
  8
image
100
AcDbVertex
100
AcDb2dVertex
 10
2.592736500982589
 20
3.439204547387177
 30
0.0
 70
     8
  0
VERTEX
  5
14B1
330
1488
100
AcDbEntity
  8
image
100
AcDbVertex
100
AcDb2dVertex
 10
2.591503850492415
 20
3.456276101103191
 30
0.0
 70
     8
  0
VERTEX
  5
14B2
330
1488
100
AcDbEntity
  8
image
100
AcDbVertex
100
AcDb2dVertex
 10
2.590096652855404
 20
3.473352807023758
 30
0.0
 70
     8
  0
VERTEX
  5
14B3
330
1488
100
AcDbEntity
  8
image
100
AcDbVertex
100
AcDb2dVertex
 10
2.588550521720926
 20
3.490447021401952
 30
0.0
 70
     8
  0
VERTEX
  5
14B4
330
1488
100
AcDbEntity
  8
image
100
AcDbVertex
100
AcDb2dVertex
 10
2.586887313309094
 20
3.507548358791517
 30
0.0
 70
     8
  0
VERTEX
  5
14B5
330
1488
100
AcDbEntity
  8
image
100
AcDbVertex
100
AcDb2dVertex
 10
2.58512544448271
 20
3.524640748321361
 30
0.0
 70
     8
  0
VERTEX
  5
14B6
330
1488
100
AcDbEntity
  8
image
100
AcDbVertex
100
AcDb2dVertex
 10
2.583283332104576
 20
3.541708119120393
 30
0.0
 70
     8
  0
VERTEX
  5
14B7
330
1488
100
AcDbEntity
  8
image
100
AcDbVertex
100
AcDb2dVertex
 10
2.581379393037491
 20
3.558734400317522
 30
0.0
 70
     8
  0
VERTEX
  5
14B8
330
1488
100
AcDbEntity
  8
image
100
AcDbVertex
100
AcDb2dVertex
 10
2.579432044144258
 20
3.575703521041658
 30
0.0
 70
     8
  0
VERTEX
  5
14B9
330
1488
100
AcDbEntity
  8
image
100
AcDbVertex
100
AcDb2dVertex
 10
2.577459702287677
 20
3.592599410421708
 30
0.0
 70
     8
  0
VERTEX
  5
14BA
330
1488
100
AcDbEntity
  8
image
100
AcDbVertex
100
AcDb2dVertex
 10
2.57548078433055
 20
3.609405997586584
 30
0.0
 70
     8
  0
VERTEX
  5
14BB
330
1488
100
AcDbEntity
  8
image
100
AcDbVertex
100
AcDb2dVertex
 10
2.573510390965671
 20
3.62611642082251
 30
0.0
 70
     8
  0
VERTEX
  5
14BC
330
1488
100
AcDbEntity
  8
image
100
AcDbVertex
100
AcDb2dVertex
 10
2.571550358205808
 20
3.642760655044988
 30
0.0
 70
     8
  0
VERTEX
  5
14BD
330
1488
100
AcDbEntity
  8
image
100
AcDbVertex
100
AcDb2dVertex
 10
2.569599205893724
 20
3.659377884326836
 30
0.0
 70
     8
  0
VERTEX
  5
14BE
330
1488
100
AcDbEntity
  8
image
100
AcDbVertex
100
AcDb2dVertex
 10
2.56765545387218
 20
3.676007292740872
 30
0.0
 70
     8
  0
VERTEX
  5
14BF
330
1488
100
AcDbEntity
  8
image
100
AcDbVertex
100
AcDb2dVertex
 10
2.565717621983937
 20
3.692688064359915
 30
0.0
 70
     8
  0
VERTEX
  5
14C0
330
1488
100
AcDbEntity
  8
image
100
AcDbVertex
100
AcDb2dVertex
 10
2.563784230071759
 20
3.709459383256783
 30
0.0
 70
     8
  0
VERTEX
  5
14C1
330
1488
100
AcDbEntity
  8
image
100
AcDbVertex
100
AcDb2dVertex
 10
2.561853797978406
 20
3.726360433504294
 30
0.0
 70
     8
  0
VERTEX
  5
14C2
330
1488
100
AcDbEntity
  8
image
100
AcDbVertex
100
AcDb2dVertex
 10
2.55992484554664
 20
3.743430399175267
 30
0.0
 70
     8
  0
VERTEX
  5
14C3
330
1488
100
AcDbEntity
  8
image
100
AcDbVertex
100
AcDb2dVertex
 10
2.557997849148053
 20
3.760698053747052
 30
0.0
 70
     8
  0
VERTEX
  5
14C4
330
1488
100
AcDbEntity
  8
image
100
AcDbVertex
100
AcDb2dVertex
 10
2.556081111269559
 20
3.778150528315132
 30
0.0
 70
     8
  0
VERTEX
  5
14C5
330
1488
100
AcDbEntity
  8
image
100
AcDbVertex
100
AcDb2dVertex
 10
2.5541848909269
 20
3.795764543379521
 30
0.0
 70
     8
  0
VERTEX
  5
14C6
330
1488
100
AcDbEntity
  8
image
100
AcDbVertex
100
AcDb2dVertex
 10
2.552319447135822
 20
3.813516819440234
 30
0.0
 70
     8
  0
VERTEX
  5
14C7
330
1488
100
AcDbEntity
  8
image
100
AcDbVertex
100
AcDb2dVertex
 10
2.550495038912066
 20
3.831384076997285
 30
0.0
 70
     8
  0
VERTEX
  5
14C8
330
1488
100
AcDbEntity
  8
image
100
AcDbVertex
100
AcDb2dVertex
 10
2.548721925271377
 20
3.849343036550689
 30
0.0
 70
     8
  0
VERTEX
  5
14C9
330
1488
100
AcDbEntity
  8
image
100
AcDbVertex
100
AcDb2dVertex
 10
2.547010365229497
 20
3.867370418600461
 30
0.0
 70
     8
  0
VERTEX
  5
14CA
330
1488
100
AcDbEntity
  8
image
100
AcDbVertex
100
AcDb2dVertex
 10
2.545370617802172
 20
3.885442943646614
 30
0.0
 70
     8
  0
VERTEX
  5
14CB
330
1488
100
AcDbEntity
  8
image
100
AcDbVertex
100
AcDb2dVertex
 10
2.543813777025537
 20
3.903540309918996
 30
0.0
 70
     8
  0
VERTEX
  5
14CC
330
1488
100
AcDbEntity
  8
image
100
AcDbVertex
100
AcDb2dVertex
 10
2.542354277017306
 20
3.921654126566773
 30
0.0
 70
     8
  0
VERTEX
  5
14CD
330
1488
100
AcDbEntity
  8
image
100
AcDbVertex
100
AcDb2dVertex
 10
2.541007386915586
 20
3.939778980468947
 30
0.0
 70
     8
  0
VERTEX
  5
14CE
330
1488
100
AcDbEntity
  8
image
100
AcDbVertex
100
AcDb2dVertex
 10
2.539788375858484
 20
3.957909458504516
 30
0.0
 70
     8
  0
VERTEX
  5
14CF
330
1488
100
AcDbEntity
  8
image
100
AcDbVertex
100
AcDb2dVertex
 10
2.538712512984106
 20
3.976040147552481
 30
0.0
 70
     8
  0
VERTEX
  5
14D0
330
1488
100
AcDbEntity
  8
image
100
AcDbVertex
100
AcDb2dVertex
 10
2.537795067430559
 20
3.994165634491841
 30
0.0
 70
     8
  0
VERTEX
  5
14D1
330
1488
100
AcDbEntity
  8
image
100
AcDbVertex
100
AcDb2dVertex
 10
2.537051308335951
 20
4.012280506201595
 30
0.0
 70
     8
  0
VERTEX
  5
14D2
330
1488
100
AcDbEntity
  8
image
100
AcDbVertex
100
AcDb2dVertex
 10
2.536496504838388
 20
4.030379349560744
 30
0.0
 70
     8
  0
VERTEX
  5
14D3
330
1488
100
AcDbEntity
  8
image
100
AcDbVertex
100
AcDb2dVertex
 10
2.536142767269971
 20
4.048463686782894
 30
0.0
 70
     8
  0
VERTEX
  5
14D4
330
1488
100
AcDbEntity
  8
image
100
AcDbVertex
100
AcDb2dVertex
 10
2.535989570738768
 20
4.066562781420078
 30
0.0
 70
     8
  0
VERTEX
  5
14D5
330
1488
100
AcDbEntity
  8
image
100
AcDbVertex
100
AcDb2dVertex
 10
2.536033231546846
 20
4.084712832358933
 30
0.0
 70
     8
  0
VERTEX
  5
14D6
330
1488
100
AcDbEntity
  8
image
100
AcDbVertex
100
AcDb2dVertex
 10
2.536270065996266
 20
4.102950038486101
 30
0.0
 70
     8
  0
VERTEX
  5
14D7
330
1488
100
AcDbEntity
  8
image
100
AcDbVertex
100
AcDb2dVertex
 10
2.536696390389093
 20
4.12131059868822
 30
0.0
 70
     8
  0
VERTEX
  5
14D8
330
1488
100
AcDbEntity
  8
image
100
AcDbVertex
100
AcDb2dVertex
 10
2.53730852102739
 20
4.139830711851929
 30
0.0
 70
     8
  0
VERTEX
  5
14D9
330
1488
100
AcDbEntity
  8
image
100
AcDbVertex
100
AcDb2dVertex
 10
2.53810277421322
 20
4.158546576863868
 30
0.0
 70
     8
  0
VERTEX
  5
14DA
330
1488
100
AcDbEntity
  8
image
100
AcDbVertex
100
AcDb2dVertex
 10
2.539075466248648
 20
4.177494392610674
 30
0.0
 70
     8
  0
VERTEX
  5
14DB
330
1488
100
AcDbEntity
  8
image
100
AcDbVertex
100
AcDb2dVertex
 10
2.540219032947869
 20
4.196691945333845
 30
0.0
 70
     8
  0
VERTEX
  5
14DC
330
1488
100
AcDbEntity
  8
image
100
AcDbVertex
100
AcDb2dVertex
 10
2.541510388173609
 20
4.216083370694293
 30
0.0
 70
     8
  0
VERTEX
  5
14DD
330
1488
100
AcDbEntity
  8
image
100
AcDbVertex
100
AcDb2dVertex
 10
2.542922565300727
 20
4.235594391707787
 30
0.0
 70
     8
  0
VERTEX
  5
14DE
330
1488
100
AcDbEntity
  8
image
100
AcDbVertex
100
AcDb2dVertex
 10
2.544428597704079
 20
4.2551507313901
 30
0.0
 70
     8
  0
VERTEX
  5
14DF
330
1488
100
AcDbEntity
  8
image
100
AcDbVertex
100
AcDb2dVertex
 10
2.546001518758524
 20
4.274678112756998
 30
0.0
 70
     8
  0
VERTEX
  5
14E0
330
1488
100
AcDbEntity
  8
image
100
AcDbVertex
100
AcDb2dVertex
 10
2.547614361838921
 20
4.294102258824251
 30
0.0
 70
     8
  0
VERTEX
  5
14E1
330
1488
100
AcDbEntity
  8
image
100
AcDbVertex
100
AcDb2dVertex
 10
2.549240160320127
 20
4.31334889260763
 30
0.0
 70
     8
  0
VERTEX
  5
14E2
330
1488
100
AcDbEntity
  8
image
100
AcDbVertex
100
AcDb2dVertex
 10
2.550851947577001
 20
4.332343737122905
 30
0.0
 70
     8
  0
VERTEX
  5
14E3
330
1488
100
AcDbEntity
  8
image
100
AcDbVertex
100
AcDb2dVertex
 10
2.552426909927897
 20
4.351033346859709
 30
0.0
 70
     8
  0
VERTEX
  5
14E4
330
1488
100
AcDbEntity
  8
image
100
AcDbVertex
100
AcDb2dVertex
 10
2.553958845465165
 20
4.369447602203139
 30
0.0
 70
     8
  0
VERTEX
  5
14E5
330
1488
100
AcDbEntity
  8
image
100
AcDbVertex
100
AcDb2dVertex
 10
2.555445705224649
 20
4.387637215012158
 30
0.0
 70
     8
  0
VERTEX
  5
14E6
330
1488
100
AcDbEntity
  8
image
100
AcDbVertex
100
AcDb2dVertex
 10
2.556885440242196
 20
4.405652897145723
 30
0.0
 70
     8
  0
VERTEX
  5
14E7
330
1488
100
AcDbEntity
  8
image
100
AcDbVertex
100
AcDb2dVertex
 10
2.558276001553651
 20
4.4235453604628
 30
0.0
 70
     8
  0
VERTEX
  5
14E8
330
1488
100
AcDbEntity
  8
image
100
AcDbVertex
100
AcDb2dVertex
 10
2.559615340194859
 20
4.441365316822348
 30
0.0
 70
     8
  0
VERTEX
  5
14E9
330
1488
100
AcDbEntity
  8
image
100
AcDbVertex
100
AcDb2dVertex
 10
2.560901407201666
 20
4.459163478083328
 30
0.0
 70
     8
  0
VERTEX
  5
14EA
330
1488
100
AcDbEntity
  8
image
100
AcDbVertex
100
AcDb2dVertex
 10
2.562132153609918
 20
4.476990556104703
 30
0.0
 70
     8
  0
VERTEX
  5
14EB
330
1488
100
AcDbEntity
  8
image
100
AcDbVertex
100
AcDb2dVertex
 10
2.563305229206982
 20
4.494865984220943
 30
0.0
 70
     8
  0
VERTEX
  5
14EC
330
1488
100
AcDbEntity
  8
image
100
AcDbVertex
100
AcDb2dVertex
 10
2.564417078786313
 20
4.512684081668567
 30
0.0
 70
     8
  0
VERTEX
  5
14ED
330
1488
100
AcDbEntity
  8
image
100
AcDbVertex
100
AcDb2dVertex
 10
2.565463845892889
 20
4.530307889159599
 30
0.0
 70
     8
  0
VERTEX
  5
14EE
330
1488
100
AcDbEntity
  8
image
100
AcDbVertex
100
AcDb2dVertex
 10
2.566441674071685
 20
4.54760044740607
 30
0.0
 70
     8
  0
VERTEX
  5
14EF
330
1488
100
AcDbEntity
  8
image
100
AcDbVertex
100
AcDb2dVertex
 10
2.567346706867679
 20
4.564424797120004
 30
0.0
 70
     8
  0
VERTEX
  5
14F0
330
1488
100
AcDbEntity
  8
image
100
AcDbVertex
100
AcDb2dVertex
 10
2.568175087825848
 20
4.580643979013429
 30
0.0
 70
     8
  0
VERTEX
  5
14F1
330
1488
100
AcDbEntity
  8
image
100
AcDbVertex
100
AcDb2dVertex
 10
2.568922960491169
 20
4.596121033798373
 30
0.0
 70
     8
  0
VERTEX
  5
14F2
330
1488
100
AcDbEntity
  8
image
100
AcDbVertex
100
AcDb2dVertex
 10
2.569586468408618
 20
4.610719002186862
 30
0.0
 70
     8
  0
VERTEX
  5
14F3
330
1488
100
AcDbEntity
  8
image
100
AcDbVertex
100
AcDb2dVertex
 10
2.570170300802947
 20
4.626605516653254
 30
0.0
 70
     8
  0
VERTEX
  5
14F4
330
1488
100
AcDbEntity
  8
image
100
AcDbVertex
100
AcDb2dVertex
 10
2.570713329618008
 20
4.655166576721216
 30
0.0
 70
     8
  0
VERTEX
  5
14F5
330
1488
100
AcDbEntity
  8
image
100
AcDbVertex
100
AcDb2dVertex
 10
2.571262972477427
 20
4.710092773676747
 30
0.0
 70
     8
  0
VERTEX
  5
14F6
330
1488
100
AcDbEntity
  8
image
100
AcDbVertex
100
AcDb2dVertex
 10
2.57186664700483
 20
4.805074698805845
 30
0.0
 70
     8
  0
VERTEX
  5
14F7
330
1488
100
AcDbEntity
  8
image
100
AcDbVertex
100
AcDb2dVertex
 10
2.572571770823843
 20
4.953802943394508
 30
0.0
 70
     8
  0
VERTEX
  5
14F8
330
1488
100
AcDbEntity
  8
image
100
AcDbVertex
100
AcDb2dVertex
 10
2.573425761558092
 20
5.169968098728734
 30
0.0
 70
     8
  0
VERTEX
  5
14F9
330
1488
100
AcDbEntity
  8
image
100
AcDbVertex
100
AcDb2dVertex
 10
2.574476036831203
 20
5.467260756094522
 30
0.0
 70
     8
  0
VERTEX
  5
14FA
330
1488
100
AcDbEntity
  8
image
100
AcDbVertex
100
AcDb2dVertex
 10
2.575770014266804
 20
5.859371506777869
 30
0.0
 70
     8
  0
VERTEX
  5
148B
330
1488
100
AcDbEntity
  8
image
100
AcDbVertex
100
AcDb2dVertex
 10
2.529650071454907
 20
3.055366319914746
 30
0.0
 70
    16
  0
VERTEX
  5
148C
330
1488
100
AcDbEntity
  8
image
100
AcDbVertex
100
AcDb2dVertex
 10
2.577906790987066
 20
3.193472148829174
 30
0.0
 70
    16
  0
VERTEX
  5
148D
330
1488
100
AcDbEntity
  8
image
100
AcDbVertex
100
AcDb2dVertex
 10
2.599057739531057
 20
3.337165242525763
 30
0.0
 70
    16
  0
VERTEX
  5
148E
330
1488
100
AcDbEntity
  8
image
100
AcDbVertex
100
AcDb2dVertex
 10
2.591541923683718
 20
3.473105405610839
 30
0.0
 70
    16
  0
VERTEX
  5
148F
330
1488
100
AcDbEntity
  8
image
100
AcDbVertex
100
AcDb2dVertex
 10
2.575354482866499
 20
3.610529977173429
 30
0.0
 70
    16
  0
VERTEX
  5
1490
330
1488
100
AcDbEntity
  8
image
100
AcDbVertex
100
AcDb2dVertex
 10
2.559924850833584
 20
3.741210671214947
 30
0.0
 70
    16
  0
VERTEX
  5
1491
330
1488
100
AcDbEntity
  8
image
100
AcDbVertex
100
AcDb2dVertex
 10
2.544495187079004
 20
3.885209733018383
 30
0.0
 70
    16
  0
VERTEX
  5
1492
330
1488
100
AcDbEntity
  8
image
100
AcDbVertex
100
AcDb2dVertex
 10
2.534318107663432
 20
4.030608058591206
 30
0.0
 70
    16
  0
VERTEX
  5
1493
330
1488
100
AcDbEntity
  8
image
100
AcDbVertex
100
AcDb2dVertex
 10
2.537211411297598
 20
4.174634129981257
 30
0.0
 70
    16
  0
VERTEX
  5
1494
330
1488
100
AcDbEntity
  8
image
100
AcDbVertex
100
AcDb2dVertex
 10
2.551289044638062
 20
4.335821777147815
 30
0.0
 70
    16
  0
VERTEX
  5
1495
330
1488
100
AcDbEntity
  8
image
100
AcDbVertex
100
AcDb2dVertex
 10
2.562744095612154
 20
4.476141184164912
 30
0.0
 70
    16
  0
VERTEX
  5
1496
330
1488
100
AcDbEntity
  8
image
100
AcDbVertex
100
AcDb2dVertex
 10
2.570527494572827
 20
4.621556822820751
 30
0.0
 70
    16
  0
VERTEX
  5
1497
330
1488
100
AcDbEntity
  8
image
100
AcDbVertex
100
AcDb2dVertex
 10
2.571952322556439
 20
4.675149299389088
 30
0.0
 70
    16
  0
VERTEX
  5
1498
330
1488
100
AcDbEntity
  8
image
100
AcDbVertex
100
AcDb2dVertex
 10
2.575770014266804
 20
5.859371506777869
 30
0.0
 70
    16
  0
SEQEND
  5
1499
330
1488
100
AcDbEntity
  8
image
  0
POLYLINE
  5
1489
330
10C1
100
AcDbEntity
  8
image
100
AcDb2dPolyline
 66
     1
 10
0.0
 20
0.0
 30
0.0
 70
     4
 75
     6
  0
VERTEX
  5
14FB
330
1489
100
AcDbEntity
  8
image
100
AcDbVertex
100
AcDb2dVertex
 10
2.395761446960061
 20
2.965716917925808
 30
0.0
 70
    16
  0
VERTEX
  5
150E
330
1489
100
AcDbEntity
  8
image
100
AcDbVertex
100
AcDb2dVertex
 10
2.395761446960061
 20
2.965716917925808
 30
0.0
 70
     8
  0
VERTEX
  5
150F
330
1489
100
AcDbEntity
  8
image
100
AcDbVertex
100
AcDb2dVertex
 10
2.422764166332626
 20
3.010564021846476
 30
0.0
 70
     8
  0
VERTEX
  5
1510
330
1489
100
AcDbEntity
  8
image
100
AcDbVertex
100
AcDb2dVertex
 10
2.44503362564172
 20
3.050573580883054
 30
0.0
 70
     8
  0
VERTEX
  5
1511
330
1489
100
AcDbEntity
  8
image
100
AcDbVertex
100
AcDb2dVertex
 10
2.463127598217286
 20
3.08630436198898
 30
0.0
 70
     8
  0
VERTEX
  5
1512
330
1489
100
AcDbEntity
  8
image
100
AcDbVertex
100
AcDb2dVertex
 10
2.477603857389266
 20
3.118315132117694
 30
0.0
 70
     8
  0
VERTEX
  5
1513
330
1489
100
AcDbEntity
  8
image
100
AcDbVertex
100
AcDb2dVertex
 10
2.489020176487606
 20
3.147164658222635
 30
0.0
 70
     8
  0
VERTEX
  5
1514
330
1489
100
AcDbEntity
  8
image
100
AcDbVertex
100
AcDb2dVertex
 10
2.497934328842246
 20
3.17341170725724
 30
0.0
 70
     8
  0
VERTEX
  5
1515
330
1489
100
AcDbEntity
  8
image
100
AcDbVertex
100
AcDb2dVertex
 10
2.504904087783131
 20
3.19761504617495
 30
0.0
 70
     8
  0
VERTEX
  5
1516
330
1489
100
AcDbEntity
  8
image
100
AcDbVertex
100
AcDb2dVertex
 10
2.510487226640204
 20
3.220333441929202
 30
0.0
 70
     8
  0
VERTEX
  5
1517
330
1489
100
AcDbEntity
  8
image
100
AcDbVertex
100
AcDb2dVertex
 10
2.515156866885366
 20
3.242050684272172
 30
0.0
 70
     8
  0
VERTEX
  5
1518
330
1489
100
AcDbEntity
  8
image
100
AcDbVertex
100
AcDb2dVertex
 10
2.519047522558351
 20
3.262950654150976
 30
0.0
 70
     8
  0
VERTEX
  5
1519
330
1489
100
AcDbEntity
  8
image
100
AcDbVertex
100
AcDb2dVertex
 10
2.522209055840854
 20
3.283142255311469
 30
0.0
 70
     8
  0
VERTEX
  5
151A
330
1489
100
AcDbEntity
  8
image
100
AcDbVertex
100
AcDb2dVertex
 10
2.524691328914566
 20
3.302734391499503
 30
0.0
 70
     8
  0
VERTEX
  5
151B
330
1489
100
AcDbEntity
  8
image
100
AcDbVertex
100
AcDb2dVertex
 10
2.526544203961181
 20
3.321835966460932
 30
0.0
 70
     8
  0
VERTEX
  5
151C
330
1489
100
AcDbEntity
  8
image
100
AcDbVertex
100
AcDb2dVertex
 10
2.52781754316239
 20
3.340555883941609
 30
0.0
 70
     8
  0
VERTEX
  5
151D
330
1489
100
AcDbEntity
  8
image
100
AcDbVertex
100
AcDb2dVertex
 10
2.528561208699889
 20
3.359003047687387
 30
0.0
 70
     8
  0
VERTEX
  5
151E
330
1489
100
AcDbEntity
  8
image
100
AcDbVertex
100
AcDb2dVertex
 10
2.528825062755368
 20
3.377286361444119
 30
0.0
 70
     8
  0
VERTEX
  5
151F
330
1489
100
AcDbEntity
  8
image
100
AcDbVertex
100
AcDb2dVertex
 10
2.528658345937004
 20
3.395498018711511
 30
0.0
 70
     8
  0
VERTEX
  5
1520
330
1489
100
AcDbEntity
  8
image
100
AcDbVertex
100
AcDb2dVertex
 10
2.528107812558903
 20
3.413663372004678
 30
0.0
 70
     8
  0
VERTEX
  5
1521
330
1489
100
AcDbEntity
  8
image
100
AcDbVertex
100
AcDb2dVertex
 10
2.527219595361656
 20
3.431791063592586
 30
0.0
 70
     8
  0
VERTEX
  5
1522
330
1489
100
AcDbEntity
  8
image
100
AcDbVertex
100
AcDb2dVertex
 10
2.526039827085852
 20
3.449889735744203
 30
0.0
 70
     8
  0
VERTEX
  5
1523
330
1489
100
AcDbEntity
  8
image
100
AcDbVertex
100
AcDb2dVertex
 10
2.524614640472079
 20
3.467968030728496
 30
0.0
 70
     8
  0
VERTEX
  5
1524
330
1489
100
AcDbEntity
  8
image
100
AcDbVertex
100
AcDb2dVertex
 10
2.522990168260929
 20
3.486034590814431
 30
0.0
 70
     8
  0
VERTEX
  5
1525
330
1489
100
AcDbEntity
  8
image
100
AcDbVertex
100
AcDb2dVertex
 10
2.52121254319299
 20
3.504098058270976
 30
0.0
 70
     8
  0
VERTEX
  5
1526
330
1489
100
AcDbEntity
  8
image
100
AcDbVertex
100
AcDb2dVertex
 10
2.519327898008853
 20
3.522167075367097
 30
0.0
 70
     8
  0
VERTEX
  5
1527
330
1489
100
AcDbEntity
  8
image
100
AcDbVertex
100
AcDb2dVertex
 10
2.517376718358789
 20
3.540243768375966
 30
0.0
 70
     8
  0
VERTEX
  5
1528
330
1489
100
AcDbEntity
  8
image
100
AcDbVertex
100
AcDb2dVertex
 10
2.515376901531801
 20
3.558304199587571
 30
0.0
 70
     8
  0
VERTEX
  5
1529
330
1489
100
AcDbEntity
  8
image
100
AcDbVertex
100
AcDb2dVertex
 10
2.513340697726574
 20
3.576317915296105
 30
0.0
 70
     8
  0
VERTEX
  5
152A
330
1489
100
AcDbEntity
  8
image
100
AcDbVertex
100
AcDb2dVertex
 10
2.511280357141794
 20
3.594254461795761
 30
0.0
 70
     8
  0
VERTEX
  5
152B
330
1489
100
AcDbEntity
  8
image
100
AcDbVertex
100
AcDb2dVertex
 10
2.509208129976145
 20
3.612083385380731
 30
0.0
 70
     8
  0
VERTEX
  5
152C
330
1489
100
AcDbEntity
  8
image
100
AcDbVertex
100
AcDb2dVertex
 10
2.507136266428314
 20
3.629774232345208
 30
0.0
 70
     8
  0
VERTEX
  5
152D
330
1489
100
AcDbEntity
  8
image
100
AcDbVertex
100
AcDb2dVertex
 10
2.505077016696984
 20
3.647296548983384
 30
0.0
 70
     8
  0
VERTEX
  5
152E
330
1489
100
AcDbEntity
  8
image
100
AcDbVertex
100
AcDb2dVertex
 10
2.503042630980842
 20
3.664619881589453
 30
0.0
 70
     8
  0
VERTEX
  5
152F
330
1489
100
AcDbEntity
  8
image
100
AcDbVertex
100
AcDb2dVertex
 10
2.5010428428167
 20
3.681728386404168
 30
0.0
 70
     8
  0
VERTEX
  5
1530
330
1489
100
AcDbEntity
  8
image
100
AcDbVertex
100
AcDb2dVertex
 10
2.499077319093883
 20
3.698664659454529
 30
0.0
 70
     8
  0
VERTEX
  5
1531
330
1489
100
AcDbEntity
  8
image
100
AcDbVertex
100
AcDb2dVertex
 10
2.49714321003984
 20
3.715485906714095
 30
0.0
 70
     8
  0
VERTEX
  5
1532
330
1489
100
AcDbEntity
  8
image
100
AcDbVertex
100
AcDb2dVertex
 10
2.495237665882023
 20
3.732249334156427
 30
0.0
 70
     8
  0
VERTEX
  5
1533
330
1489
100
AcDbEntity
  8
image
100
AcDbVertex
100
AcDb2dVertex
 10
2.493357836847883
 20
3.749012147755085
 30
0.0
 70
     8
  0
VERTEX
  5
1534
330
1489
100
AcDbEntity
  8
image
100
AcDbVertex
100
AcDb2dVertex
 10
2.491500873164871
 20
3.76583155348363
 30
0.0
 70
     8
  0
VERTEX
  5
1535
330
1489
100
AcDbEntity
  8
image
100
AcDbVertex
100
AcDb2dVertex
 10
2.489663925060439
 20
3.782764757315622
 30
0.0
 70
     8
  0
VERTEX
  5
1536
330
1489
100
AcDbEntity
  8
image
100
AcDbVertex
100
AcDb2dVertex
 10
2.487844142762038
 20
3.79986896522462
 30
0.0
 70
     8
  0
VERTEX
  5
1537
330
1489
100
AcDbEntity
  8
image
100
AcDbVertex
100
AcDb2dVertex
 10
2.486041829927301
 20
3.817187262670232
 30
0.0
 70
     8
  0
VERTEX
  5
1538
330
1489
100
AcDbEntity
  8
image
100
AcDbVertex
100
AcDb2dVertex
 10
2.484269903934593
 20
3.834706253056239
 30
0.0
 70
     8
  0
VERTEX
  5
1539
330
1489
100
AcDbEntity
  8
image
100
AcDbVertex
100
AcDb2dVertex
 10
2.482544435592462
 20
3.852398419272471
 30
0.0
 70
     8
  0
VERTEX
  5
153A
330
1489
100
AcDbEntity
  8
image
100
AcDbVertex
100
AcDb2dVertex
 10
2.480881495709455
 20
3.870236244208757
 30
0.0
 70
     8
  0
VERTEX
  5
153B
330
1489
100
AcDbEntity
  8
image
100
AcDbVertex
100
AcDb2dVertex
 10
2.47929715509412
 20
3.888192210754923
 30
0.0
 70
     8
  0
VERTEX
  5
153C
330
1489
100
AcDbEntity
  8
image
100
AcDbVertex
100
AcDb2dVertex
 10
2.477807484555004
 20
3.906238801800799
 30
0.0
 70
     8
  0
VERTEX
  5
153D
330
1489
100
AcDbEntity
  8
image
100
AcDbVertex
100
AcDb2dVertex
 10
2.476428554900655
 20
3.924348500236214
 30
0.0
 70
     8
  0
VERTEX
  5
153E
330
1489
100
AcDbEntity
  8
image
100
AcDbVertex
100
AcDb2dVertex
 10
2.47517643693962
 20
3.942493788950996
 30
0.0
 70
     8
  0
VERTEX
  5
153F
330
1489
100
AcDbEntity
  8
image
100
AcDbVertex
100
AcDb2dVertex
 10
2.4740656096705
 20
3.960651262510605
 30
0.0
 70
     8
  0
VERTEX
  5
1540
330
1489
100
AcDbEntity
  8
image
100
AcDbVertex
100
AcDb2dVertex
 10
2.473104184852116
 20
3.978813962183031
 30
0.0
 70
     8
  0
VERTEX
  5
1541
330
1489
100
AcDbEntity
  8
image
100
AcDbVertex
100
AcDb2dVertex
 10
2.47229868243334
 20
3.996979040911893
 30
0.0
 70
     8
  0
VERTEX
  5
1542
330
1489
100
AcDbEntity
  8
image
100
AcDbVertex
100
AcDb2dVertex
 10
2.471655622363047
 20
4.015143651640814
 30
0.0
 70
     8
  0
VERTEX
  5
1543
330
1489
100
AcDbEntity
  8
image
100
AcDbVertex
100
AcDb2dVertex
 10
2.47118152459011
 20
4.033304947313413
 30
0.0
 70
     8
  0
VERTEX
  5
1544
330
1489
100
AcDbEntity
  8
image
100
AcDbVertex
100
AcDb2dVertex
 10
2.470882909063402
 20
4.051460080873312
 30
0.0
 70
     8
  0
VERTEX
  5
1545
330
1489
100
AcDbEntity
  8
image
100
AcDbVertex
100
AcDb2dVertex
 10
2.470766295731797
 20
4.069606205264131
 30
0.0
 70
     8
  0
VERTEX
  5
1546
330
1489
100
AcDbEntity
  8
image
100
AcDbVertex
100
AcDb2dVertex
 10
2.47083820454417
 20
4.087740473429492
 30
0.0
 70
     8
  0
VERTEX
  5
1547
330
1489
100
AcDbEntity
  8
image
100
AcDbVertex
100
AcDb2dVertex
 10
2.471101480975661
 20
4.10585837471276
 30
0.0
 70
     8
  0
VERTEX
  5
1548
330
1489
100
AcDbEntity
  8
image
100
AcDbVertex
100
AcDb2dVertex
 10
2.471544272606491
 20
4.123948744056286
 30
0.0
 70
     8
  0
VERTEX
  5
1549
330
1489
100
AcDbEntity
  8
image
100
AcDbVertex
100
AcDb2dVertex
 10
2.472151052543148
 20
4.141998752802162
 30
0.0
 70
     8
  0
VERTEX
  5
154A
330
1489
100
AcDbEntity
  8
image
100
AcDbVertex
100
AcDb2dVertex
 10
2.472906293892121
 20
4.159995572292485
 30
0.0
 70
     8
  0
VERTEX
  5
154B
330
1489
100
AcDbEntity
  8
image
100
AcDbVertex
100
AcDb2dVertex
 10
2.473794469759898
 20
4.177926373869348
 30
0.0
 70
     8
  0
VERTEX
  5
154C
330
1489
100
AcDbEntity
  8
image
100
AcDbVertex
100
AcDb2dVertex
 10
2.474800053252967
 20
4.195778328874845
 30
0.0
 70
     8
  0
VERTEX
  5
154D
330
1489
100
AcDbEntity
  8
image
100
AcDbVertex
100
AcDb2dVertex
 10
2.475907517477818
 20
4.213538608651072
 30
0.0
 70
     8
  0
VERTEX
  5
154E
330
1489
100
AcDbEntity
  8
image
100
AcDbVertex
100
AcDb2dVertex
 10
2.477101335540937
 20
4.231194384540122
 30
0.0
 70
     8
  0
VERTEX
  5
154F
330
1489
100
AcDbEntity
  8
image
100
AcDbVertex
100
AcDb2dVertex
 10
2.478365068313571
 20
4.248721899692046
 30
0.0
 70
     8
  0
VERTEX
  5
1550
330
1489
100
AcDbEntity
  8
image
100
AcDbVertex
100
AcDb2dVertex
 10
2.479678627725993
 20
4.266053684488719
 30
0.0
 70
     8
  0
VERTEX
  5
1551
330
1489
100
AcDbEntity
  8
image
100
AcDbVertex
100
AcDb2dVertex
 10
2.481021013473232
 20
4.283111341119967
 30
0.0
 70
     8
  0
VERTEX
  5
1552
330
1489
100
AcDbEntity
  8
image
100
AcDbVertex
100
AcDb2dVertex
 10
2.482371225250317
 20
4.299816471775623
 30
0.0
 70
     8
  0
VERTEX
  5
1553
330
1489
100
AcDbEntity
  8
image
100
AcDbVertex
100
AcDb2dVertex
 10
2.483708262752278
 20
4.316090678645514
 30
0.0
 70
     8
  0
VERTEX
  5
1554
330
1489
100
AcDbEntity
  8
image
100
AcDbVertex
100
AcDb2dVertex
 10
2.485011125674145
 20
4.331855563919472
 30
0.0
 70
     8
  0
VERTEX
  5
1555
330
1489
100
AcDbEntity
  8
image
100
AcDbVertex
100
AcDb2dVertex
 10
2.486258813710948
 20
4.347032729787322
 30
0.0
 70
     8
  0
VERTEX
  5
1556
330
1489
100
AcDbEntity
  8
image
100
AcDbVertex
100
AcDb2dVertex
 10
2.487430326557717
 20
4.361543778438898
 30
0.0
 70
     8
  0
VERTEX
  5
1557
330
1489
100
AcDbEntity
  8
image
100
AcDbVertex
100
AcDb2dVertex
 10
2.488509311079566
 20
4.375338211408134
 30
0.0
 70
     8
  0
VERTEX
  5
1558
330
1489
100
AcDbEntity
  8
image
100
AcDbVertex
100
AcDb2dVertex
 10
2.489498002821955
 20
4.388477127605399
 30
0.0
 70
     8
  0
VERTEX
  5
1559
330
1489
100
AcDbEntity
  8
image
100
AcDbVertex
100
AcDb2dVertex
 10
2.49040328450043
 20
4.401049525285166
 30
0.0
 70
     8
  0
VERTEX
  5
155A
330
1489
100
AcDbEntity
  8
image
100
AcDbVertex
100
AcDb2dVertex
 10
2.491232038830538
 20
4.413144402701911
 30
0.0
 70
     8
  0
VERTEX
  5
155B
330
1489
100
AcDbEntity
  8
image
100
AcDbVertex
100
AcDb2dVertex
 10
2.491991148527822
 20
4.424850758110109
 30
0.0
 70
     8
  0
VERTEX
  5
155C
330
1489
100
AcDbEntity
  8
image
100
AcDbVertex
100
AcDb2dVertex
 10
2.492687496307829
 20
4.436257589764234
 30
0.0
 70
     8
  0
VERTEX
  5
155D
330
1489
100
AcDbEntity
  8
image
100
AcDbVertex
100
AcDb2dVertex
 10
2.493327964886105
 20
4.447453895918759
 30
0.0
 70
     8
  0
VERTEX
  5
155E
330
1489
100
AcDbEntity
  8
image
100
AcDbVertex
100
AcDb2dVertex
 10
2.493919436978195
 20
4.458528674828161
 30
0.0
 70
     8
  0
VERTEX
  5
155F
330
1489
100
AcDbEntity
  8
image
100
AcDbVertex
100
AcDb2dVertex
 10
2.49446851637436
 20
4.469572123634473
 30
0.0
 70
     8
  0
VERTEX
  5
1560
330
1489
100
AcDbEntity
  8
image
100
AcDbVertex
100
AcDb2dVertex
 10
2.494980691163724
 20
4.480679235029958
 30
0.0
 70
     8
  0
VERTEX
  5
1561
330
1489
100
AcDbEntity
  8
image
100
AcDbVertex
100
AcDb2dVertex
 10
2.495461170510127
 20
4.491946200594441
 30
0.0
 70
     8
  0
VERTEX
  5
1562
330
1489
100
AcDbEntity
  8
image
100
AcDbVertex
100
AcDb2dVertex
 10
2.495915163577407
 20
4.503469211907743
 30
0.0
 70
     8
  0
VERTEX
  5
1563
330
1489
100
AcDbEntity
  8
image
100
AcDbVertex
100
AcDb2dVertex
 10
2.496347879529404
 20
4.515344460549689
 30
0.0
 70
     8
  0
VERTEX
  5
1564
330
1489
100
AcDbEntity
  8
image
100
AcDbVertex
100
AcDb2dVertex
 10
2.496764527529959
 20
4.527668138100101
 30
0.0
 70
     8
  0
VERTEX
  5
1565
330
1489
100
AcDbEntity
  8
image
100
AcDbVertex
100
AcDb2dVertex
 10
2.49717031674291
 20
4.540536436138801
 30
0.0
 70
     8
  0
VERTEX
  5
1566
330
1489
100
AcDbEntity
  8
image
100
AcDbVertex
100
AcDb2dVertex
 10
2.497570456332095
 20
4.554045546245614
 30
0.0
 70
     8
  0
VERTEX
  5
1567
330
1489
100
AcDbEntity
  8
image
100
AcDbVertex
100
AcDb2dVertex
 10
2.497969238781786
 20
4.568280207988403
 30
0.0
 70
     8
  0
VERTEX
  5
1568
330
1489
100
AcDbEntity
  8
image
100
AcDbVertex
100
AcDb2dVertex
 10
2.498367289857965
 20
4.5832793528872
 30
0.0
 70
     8
  0
VERTEX
  5
1569
330
1489
100
AcDbEntity
  8
image
100
AcDbVertex
100
AcDb2dVertex
 10
2.498764318647046
 20
4.599070460450078
 30
0.0
 70
     8
  0
VERTEX
  5
156A
330
1489
100
AcDbEntity
  8
image
100
AcDbVertex
100
AcDb2dVertex
 10
2.499160034235445
 20
4.615681010185107
 30
0.0
 70
     8
  0
VERTEX
  5
156B
330
1489
100
AcDbEntity
  8
image
100
AcDbVertex
100
AcDb2dVertex
 10
2.499554145709575
 20
4.633138481600362
 30
0.0
 70
     8
  0
VERTEX
  5
156C
330
1489
100
AcDbEntity
  8
image
100
AcDbVertex
100
AcDb2dVertex
 10
2.499946362155849
 20
4.651470354203914
 30
0.0
 70
     8
  0
VERTEX
  5
156D
330
1489
100
AcDbEntity
  8
image
100
AcDbVertex
100
AcDb2dVertex
 10
2.500336392660682
 20
4.670704107503837
 30
0.0
 70
     8
  0
VERTEX
  5
156E
330
1489
100
AcDbEntity
  8
image
100
AcDbVertex
100
AcDb2dVertex
 10
2.500723946310487
 20
4.690867221008201
 30
0.0
 70
     8
  0
VERTEX
  5
156F
330
1489
100
AcDbEntity
  8
image
100
AcDbVertex
100
AcDb2dVertex
 10
2.50110873219168
 20
4.711987174225082
 30
0.0
 70
     8
  0
VERTEX
  5
1570
330
1489
100
AcDbEntity
  8
image
100
AcDbVertex
100
AcDb2dVertex
 10
2.501490459390672
 20
4.73409144666255
 30
0.0
 70
     8
  0
VERTEX
  5
1571
330
1489
100
AcDbEntity
  8
image
100
AcDbVertex
100
AcDb2dVertex
 10
2.501868836993879
 20
4.757207517828678
 30
0.0
 70
     8
  0
VERTEX
  5
1572
330
1489
100
AcDbEntity
  8
image
100
AcDbVertex
100
AcDb2dVertex
 10
2.502243574087715
 20
4.781362867231539
 30
0.0
 70
     8
  0
VERTEX
  5
1573
330
1489
100
AcDbEntity
  8
image
100
AcDbVertex
100
AcDb2dVertex
 10
2.502614379758592
 20
4.806584974379204
 30
0.0
 70
     8
  0
VERTEX
  5
1574
330
1489
100
AcDbEntity
  8
image
100
AcDbVertex
100
AcDb2dVertex
 10
2.502980963092927
 20
4.832901318779748
 30
0.0
 70
     8
  0
VERTEX
  5
1575
330
1489
100
AcDbEntity
  8
image
100
AcDbVertex
100
AcDb2dVertex
 10
2.503343033177131
 20
4.860339379941242
 30
0.0
 70
     8
  0
VERTEX
  5
1576
330
1489
100
AcDbEntity
  8
image
100
AcDbVertex
100
AcDb2dVertex
 10
2.50370029909762
 20
4.888926637371759
 30
0.0
 70
     8
  0
VERTEX
  5
1577
330
1489
100
AcDbEntity
  8
image
100
AcDbVertex
100
AcDb2dVertex
 10
2.50405282802345
 20
4.918749229190364
 30
0.0
 70
     8
  0
VERTEX
  5
1578
330
1489
100
AcDbEntity
  8
image
100
AcDbVertex
100
AcDb2dVertex
 10
2.504402119454255
 20
4.950127927960097
 30
0.0
 70
     8
  0
VERTEX
  5
1579
330
1489
100
AcDbEntity
  8
image
100
AcDbVertex
100
AcDb2dVertex
 10
2.504750030972309
 20
4.983442164854989
 30
0.0
 70
     8
  0
VERTEX
  5
157A
330
1489
100
AcDbEntity
  8
image
100
AcDbVertex
100
AcDb2dVertex
 10
2.505098420159888
 20
5.019071371049073
 30
0.0
 70
     8
  0
VERTEX
  5
157B
330
1489
100
AcDbEntity
  8
image
100
AcDbVertex
100
AcDb2dVertex
 10
2.505449144599269
 20
5.057394977716381
 30
0.0
 70
     8
  0
VERTEX
  5
157C
330
1489
100
AcDbEntity
  8
image
100
AcDbVertex
100
AcDb2dVertex
 10
2.505804061872726
 20
5.098792416030945
 30
0.0
 70
     8
  0
VERTEX
  5
157D
330
1489
100
AcDbEntity
  8
image
100
AcDbVertex
100
AcDb2dVertex
 10
2.506165029562535
 20
5.143643117166797
 30
0.0
 70
     8
  0
VERTEX
  5
157E
330
1489
100
AcDbEntity
  8
image
100
AcDbVertex
100
AcDb2dVertex
 10
2.506533905250973
 20
5.192326512297969
 30
0.0
 70
     8
  0
VERTEX
  5
157F
330
1489
100
AcDbEntity
  8
image
100
AcDbVertex
100
AcDb2dVertex
 10
2.506912218191097
 20
5.245405761326454
 30
0.0
 70
     8
  0
VERTEX
  5
1580
330
1489
100
AcDbEntity
  8
image
100
AcDbVertex
100
AcDb2dVertex
 10
2.507300184319094
 20
5.304178939066078
 30
0.0
 70
     8
  0
VERTEX
  5
1581
330
1489
100
AcDbEntity
  8
image
100
AcDbVertex
100
AcDb2dVertex
 10
2.507697691241934
 20
5.370127849058629
 30
0.0
 70
     8
  0
VERTEX
  5
1582
330
1489
100
AcDbEntity
  8
image
100
AcDbVertex
100
AcDb2dVertex
 10
2.508104626566585
 20
5.444734294845897
 30
0.0
 70
     8
  0
VERTEX
  5
1583
330
1489
100
AcDbEntity
  8
image
100
AcDbVertex
100
AcDb2dVertex
 10
2.508520877900016
 20
5.529480079969667
 30
0.0
 70
     8
  0
VERTEX
  5
1584
330
1489
100
AcDbEntity
  8
image
100
AcDbVertex
100
AcDb2dVertex
 10
2.508946332849198
 20
5.625847007971727
 30
0.0
 70
     8
  0
VERTEX
  5
1585
330
1489
100
AcDbEntity
  8
image
100
AcDbVertex
100
AcDb2dVertex
 10
2.509380879021099
 20
5.735316882393866
 30
0.0
 70
     8
  0
VERTEX
  5
1586
330
1489
100
AcDbEntity
  8
image
100
AcDbVertex
100
AcDb2dVertex
 10
2.509824404022688
 20
5.859371506777869
 30
0.0
 70
     8
  0
VERTEX
  5
14FC
330
1489
100
AcDbEntity
  8
image
100
AcDbVertex
100
AcDb2dVertex
 10
2.474575510553702
 20
3.092255936629432
 30
0.0
 70
    16
  0
VERTEX
  5
14FD
330
1489
100
AcDbEntity
  8
image
100
AcDbVertex
100
AcDb2dVertex
 10
2.519328258681474
 20
3.230212654836066
 30
0.0
 70
    16
  0
VERTEX
  5
14FE
330
1489
100
AcDbEntity
  8
image
100
AcDbVertex
100
AcDb2dVertex
 10
2.533411188625512
 20
3.377872454704837
 30
0.0
 70
    16
  0
VERTEX
  5
14FF
330
1489
100
AcDbEntity
  8
image
100
AcDbVertex
100
AcDb2dVertex
 10
2.519977363348685
 20
3.5220156950093
 30
0.0
 70
    16
  0
VERTEX
  5
1500
330
1489
100
AcDbEntity
  8
image
100
AcDbVertex
100
AcDb2dVertex
 10
2.502646746032867
 20
3.667067217460547
 30
0.0
 70
    16
  0
VERTEX
  5
1501
330
1489
100
AcDbEntity
  8
image
100
AcDbVertex
100
AcDb2dVertex
 10
2.487691438404899
 20
3.797434724685233
 30
0.0
 70
    16
  0
VERTEX
  5
1502
330
1489
100
AcDbEntity
  8
image
100
AcDbVertex
100
AcDb2dVertex
 10
2.473652356919763
 20
3.942407675146246
 30
0.0
 70
    16
  0
VERTEX
  5
1503
330
1489
100
AcDbEntity
  8
image
100
AcDbVertex
100
AcDb2dVertex
 10
2.468757755553767
 20
4.087897308435762
 30
0.0
 70
    16
  0
VERTEX
  5
1504
330
1489
100
AcDbEntity
  8
image
100
AcDbVertex
100
AcDb2dVertex
 10
2.476345848130188
 20
4.232445931687661
 30
0.0
 70
    16
  0
VERTEX
  5
1505
330
1489
100
AcDbEntity
  8
image
100
AcDbVertex
100
AcDb2dVertex
 10
2.488466865171105
 20
4.369485272054327
 30
0.0
 70
    16
  0
VERTEX
  5
1506
330
1489
100
AcDbEntity
  8
image
100
AcDbVertex
100
AcDb2dVertex
 10
2.494368650531692
 20
4.458875650728417
 30
0.0
 70
    16
  0
VERTEX
  5
1507
330
1489
100
AcDbEntity
  8
image
100
AcDbVertex
100
AcDb2dVertex
 10
2.497575154571296
 20
4.546184174000973
 30
0.0
 70
    16
  0
VERTEX
  5
1508
330
1489
100
AcDbEntity
  8
image
100
AcDbVertex
100
AcDb2dVertex
 10
2.500753469175697
 20
4.680660930741374
 30
0.0
 70
    16
  0
VERTEX
  5
1509
330
1489
100
AcDbEntity
  8
image
100
AcDbVertex
100
AcDb2dVertex
 10
2.50375464658884
 20
4.876375429082743
 30
0.0
 70
    16
  0
VERTEX
  5
150A
330
1489
100
AcDbEntity
  8
image
100
AcDbVertex
100
AcDb2dVertex
 10
2.506429739054665
 20
5.147397177158208
 30
0.0
 70
    16
  0
VERTEX
  5
150B
330
1489
100
AcDbEntity
  8
image
100
AcDbVertex
100
AcDb2dVertex
 10
2.508629798817116
 20
5.507795683100894
 30
0.0
 70
    16
  0
VERTEX
  5
150C
330
1489
100
AcDbEntity
  8
image
100
AcDbVertex
100
AcDb2dVertex
 10
2.509824404022688
 20
5.859371506777869
 30
0.0
 70
    16
  0
SEQEND
  5
150D
330
1489
100
AcDbEntity
  8
image
  0
ENDSEC
  0
SECTION
  2
OBJECTS
  0
DICTIONARY
  5
10AF
330
0
100
AcDbDictionary
281
     1
  3
ACAD_COLOR
350
121C
  3
ACAD_GROUP
350
10B0
  3
ACAD_LAYOUT
350
10BC
  3
ACAD_MATERIAL
350
11F2
  3
ACAD_MLEADERSTYLE
350
1241
  3
ACAD_MLINESTYLE
350
10B9
  3
ACAD_PLOTSETTINGS
350
10BB
  3
ACAD_PLOTSTYLENAME
350
10B1
  3
ACAD_SCALELIST
350
121F
  3
ACAD_TABLESTYLE
350
121D
  3
ACAD_VISUALSTYLE
350
120B
  3
ACDB_RECOMPOSE_DATA
350
12BC
  3
AcDbVariableDictionary
350
10DD
  3
AEC_PROPERTY_SET_DEFS
350
1350
1001
BBSI_PltSel
1000
1
1000

1001
BBSI_Bookmarks
1000
1
1000
1
1000
0
1000
1
1000
0
1000
0
1000
0
1000
0
1000
0
1000
0
1000
0
1001
BBSI_BookmarksEx
1000
0
1000
0
1000

1000
0
1001
BBSI_Plots
1000

1000
ANSI_A_(11.00_x_8.50_Inches)
1000
279.399993896484
1000
215.899993896484
1000
0
1000
1
1000
1
1000
1.513528885555E-14
1000
17.9871359092673
1000
1
1000
0
1000
1
1000
1.56885758041751
1000
0
1000
1
1000
PDF BW Shaded.ctb
1000
0
1000
0
1000
1
1000
1
1000
0
1000
0
1000
0
1000
0
1000
0
1000
0
1000

1000

  0
DICTIONARY
  5
10EB
330
10A5
100
AcDbDictionary
280
     1
281
     1
  3
ACAD_LAYERFILTERS
360
1592
  3
ACAD_LAYERSTATES
360
10EC
  0
DICTIONARY
  5
12AB
330
10C1
100
AcDbDictionary
280
     1
281
     1
  0
DICTIONARY
  5
1316
330
1195
100
AcDbDictionary
280
     1
281
     1
  3
ACAD_SORTENTS
360
1344
  0
DICTIONARY
  5
15B6
330
12DA
100
AcDbDictionary
280
     1
281
     1
  3
ACAD_MTEXT_2008_RT
360
15B7
  0
DICTIONARY
  5
15B8
330
13EA
100
AcDbDictionary
280
     1
281
     1
  3
ACAD_MTEXT_2008_RT
360
15B9
  0
DICTIONARY
  5
121C
102
{ACAD_REACTORS
330
10AF
102
}
330
10AF
100
AcDbDictionary
281
     1
  0
DICTIONARY
  5
10B0
102
{ACAD_REACTORS
330
10AF
102
}
330
10AF
100
AcDbDictionary
281
     1
  0
DICTIONARY
  5
10BC
102
{ACAD_REACTORS
330
10AF
102
}
330
10AF
100
AcDbDictionary
281
     1
  3
Layout1
350
10C0
  3
Model
350
10C4
  0
DICTIONARY
  5
11F2
102
{ACAD_REACTORS
330
10AF
102
}
330
10AF
100
AcDbDictionary
281
     1
  3
ByBlock
350
11FB
  3
ByLayer
350
11F3
  3
Global
350
1203
  0
DICTIONARY
  5
1241
102
{ACAD_REACTORS
330
10AF
102
}
330
10AF
100
AcDbDictionary
281
     1
  3
Standard
350
1242
  0
DICTIONARY
  5
10B9
102
{ACAD_REACTORS
330
10AF
102
}
330
10AF
100
AcDbDictionary
281
     1
  3
Standard
350
10BA
  0
DICTIONARY
  5
10BB
102
{ACAD_REACTORS
330
10AF
102
}
330
10AF
100
AcDbDictionary
281
     1
  3
1055 24x36 BW
350
1256
  3
1055 24x36 BW Final
350
1258
  3
1055 24x36 Color
350
1259
  3
1055 24x36 Color Shaded
350
125A
  3
1055 30x42 BW
350
125B
  3
1055 30x42 BW Final
350
125C
  3
1055 B&W Draft
350
125D
  3
1055 B&W Final
350
125E
  3
1055 BW Half
350
125F
  3
1055 Color Draft
350
1260
  3
1055 Color Final
350
1261
  3
1055+ 24x36 BW
350
1262
  3
1055+ 24x36 BW Final
350
1263
  3
1055+ 24x36 Color
350
1264
  3
1055+ 24x36 Color Shaded
350
1265
  3
1055+ 30x42 BW
350
1266
  3
1055+ 30x42 BW Final
350
1267
  3
1055+ B&W Draft
350
1268
  3
1055+ B&W Final
350
1269
  3
1055+ BW Half
350
126A
  3
1055+ Color Draft
350
126B
  3
1055+ Color Final
350
126C
  3
_1055 22x34 True Centered BW
350
126D
  3
_1055 24x36 True Centered BW
350
126E
  3
_1055 24x36 True Centered BW Final
350
126F
  3
_1055 24x36 True Centered Color
350
1270
  3
_1055 30x42 True Centered BW
350
1271
  3
_1055+ 22x34 True Centered BW
350
1272
  3
_1055+ 24x36 True Centered BW
350
1273
  3
_1055+ 24x36 True Centered BW Final
350
1274
  3
_1055+ 24x36 True Centered Color
350
1275
  3
DWF BW 11x17 Fit
350
1276
  3
DWF BW 11x17 Half
350
1277
  3
DWF BW 22x34
350
1278
  3
DWF BW 24x36
350
1279
  3
DWF BW 30x42
350
127A
  3
DWF BW 36x48
350
127B
  3
Laser5 11x17 Fit
350
127C
  3
Laser5 11x17 Full
350
127D
  3
Laser5 11x17 Half
350
127E
  3
Laser5 8x11 Fit
350
127F
  3
Laser5 8x11 Half
350
1280
  3
Laser5 8x11 Portrait Fit
350
1281
  3
LaserJet5 11x17
350
1282
  3
LaserJet5 8.5x11
350
1283
  3
Oki9500 11x17 BW Fit
350
1284
  3
Oki9500 11x17 BW Full
350
1285
  3
Oki9500 11x17 BW Half
350
1286
  3
Oki9500 11x17 Color Fit
350
1287
  3
Oki9500 11x17 Color Full
350
1288
  3
Oki9500 11x17 Color Half
350
1289
  3
Oki9500 8x11 BW Fit
350
128A
  3
Oki9500 8x11 BW Portrait Fit
350
128B
  3
Oki9500 8x11 Color Fit
350
128C
  3
Oki9500 8x11 Color Portrait Fit
350
128D
  3
OKI9500 B&W 11x17
350
128E
  3
OKI9500 B&W 8.5x11
350
128F
  3
OKI9500 Color 11x17
350
1290
  3
OKI9500 Color 8.5x11
350
1291
  3
Oki9600 11x17 BW Fit
350
1292
  3
Oki9600 11x17 BW Full
350
1293
  3
Oki9600 11x17 BW Half
350
1294
  3
Oki9600 11x17 Color Fit
350
1295
  3
Oki9600 11x17 Color Full
350
1296
  3
Oki9600 11x17 Color Half
350
1297
  3
Oki9600 8x11 BW Fit
350
1298
  3
Oki9600 8x11 BW Portrait Fit
350
1299
  3
Oki9600 8x11 Color Fit
350
129A
  3
Oki9600 8x11 Color Portrait Fit
350
129B
  3
OKI9600 B&W 11x17
350
129C
  3
OKI9600 B&W 8.5x11
350
129D
  3
OKI9600 Color 11x17
350
129E
  3
OKI9600 Color 8.5x11
350
129F
  3
PHX Kyocera 11x17 Fit
350
12A0
  3
PHX Oki9500 11x17 BW Fit
350
12A1
  3
PHX Oki9500 11x17 BW Half
350
12A2
  0
ACDBDICTIONARYWDFLT
  5
10B1
102
{ACAD_REACTORS
330
10AF
102
}
330
10AF
100
AcDbDictionary
281
     1
  3
Normal
350
10B2
100
AcDbDictionaryWithDefault
340
10B2
  0
DICTIONARY
  5
121F
102
{ACAD_REACTORS
330
10AF
102
}
330
10AF
100
AcDbDictionary
281
     1
  3
A0
350
1220
  3
A1
350
1221
  3
A2
350
1222
  3
A3
350
1223
  3
A4
350
1224
  3
A5
350
1225
  3
A6
350
1226
  3
A7
350
1227
  3
A8
350
1228
  3
A9
350
1229
  3
B0
350
122A
  3
B1
350
122B
  3
B2
350
122C
  3
B3
350
122D
  3
B4
350
122E
  3
B5
350
122F
  3
B6
350
1230
  3
B7
350
1231
  3
B8
350
1232
  3
B9
350
1233
  3
C0
350
1234
  3
C1
350
1235
  3
C2
350
1236
  3
C3
350
1237
  3
C4
350
1238
  3
C5
350
1239
  3
C6
350
123A
  3
C7
350
123B
  3
C8
350
123C
  3
C9
350
123D
  3
D0
350
123E
  3
D1
350
123F
  3
D2
350
1240
  0
DICTIONARY
  5
121D
102
{ACAD_REACTORS
330
10AF
102
}
330
10AF
100
AcDbDictionary
281
     1
  3
Standard
350
121E
  0
DICTIONARY
  5
120B
102
{ACAD_REACTORS
330
10AF
102
}
330
10AF
100
AcDbDictionary
281
     1
  3
2dWireframe
350
1211
  3
3D Hidden
350
1213
  3
3dWireframe
350
1212
  3
Basic
350
1210
  3
Brighten
350
1217
  3
ColorChange
350
121B
  3
Conceptual
350
1214
  3
Dim
350
1216
  3
Facepattern
350
121A
  3
Flat
350
120C
  3
FlatWithEdges
350
120D
  3
Gouraud
350
120E
  3
GouraudWithEdges
350
120F
  3
Linepattern
350
1219
  3
Realistic
350
1215
  3
Thicken
350
1218
  0
XRECORD
  5
12BC
102
{ACAD_REACTORS
330
10AF
102
}
330
10AF
100
AcDbXrecord
280
     1
 90
        1
330
121E
330
12DA
330
13EA
  0
DICTIONARY
  5
10DD
102
{ACAD_REACTORS
330
10AF
102
}
330
10AF
100
AcDbDictionary
281
     1
  3
CANNOSCALE
350
12C0
  3
CMLEADERSTYLE
350
12BE
  3
CTABLESTYLE
350
12BD
  3
DIMASSOC
350
10E0
  3
HIDETEXT
350
10DF
  3
LAYEREVAL
350
15B4
  3
LAYERNOTIFY
350
12C2
  3
LIGHTINGUNITS
350
12C1
  3
MSLTSCALE
350
12BF
  3
SORTENTS
350
10DE
  0
DICTIONARY
  5
1350
102
{ACAD_REACTORS
330
10AF
102
}
330
10AF
100
AcDbDictionary
281
     1
  0
DICTIONARY
  5
1592
102
{ACAD_REACTORS
330
10EB
102
}
330
10EB
100
AcDbDictionary
281
     1
  3
_0100-
350
1595
  3
_0280-
350
1594
  3
_Color 253
350
1598
  3
_Color 8
350
1596
  3
_Color 84
350
1597
  3
_Contours
350
159D
  3
_Existing
350
1599
  3
_Hardscape
350
159C
  3
_NoXref
350
1593
  3
_Row
350
159A
  3
_Utility
350
159B
  0
DICTIONARY
  5
10EC
102
{ACAD_REACTORS
330
10EB
102
}
330
10EB
100
AcDbDictionary
281
     1
  0
SORTENTSTABLE
  5
1344
102
{ACAD_REACTORS
330
1316
102
}
330
1316
100
AcDbSortentsTable
330
1195
  0
XRECORD
  5
15B7
102
{ACAD_REACTORS
330
15B6
102
}
330
15B6
100
AcDbXrecord
280
     1
 40
13793507.0
  1
\A1;PLANT MATERIAL \P\PFINISH GRADE \P\P\pxi-2,l2;MICRO-SPRAY POP-UP:\P\pt2;^IRAIN BIRD XERI-POP XP-400X\P\ptz;{\Fromans|c0;LOW VOLUME SPRAY NOZZLE:\P  RAIN BIRD SQ SQUARE SERIES NOZZLE (FORMERLY KNOWN AS XPCN)\P\pi0,l0;\H0.7x;\S1#2;\H1.4286x;" POLYET
  1
HYLENE TUBING:\P\pi-2,l2;  RAIN BIRD XF SERIES TUBING OR\P\pi0,l0;  RAIN BIRD XT-700 XERI-TUBE OR\P  RAIN BIRD XBS BLACK STRIPE TUBING \H0.99998x;\P\Fsimplex|c0;\H0.7x;\S1#4;}" SELF-PIERCING BARB CONNECTOR:\P\pt2;^IRAIN BIRD SPB-025   \P\pi-2,l2,tz;{\
  1
Fromans|c0;\H0.7x;\S1#4;\H1.4286x;" DISTRIBUTION TUBING:  \P  RAIN BIRD XQ TUBING\P  (LENGTH AS REQUIRED)}
  0
XRECORD
  5
15B9
102
{ACAD_REACTORS
330
15B8
102
}
330
15B8
100
AcDbXrecord
280
     1
 40
6045226.0
  1
\A1;NOTES: \P\pxi-3,l3,t3;1. USE RAIN BIRD XERIMAN TOOL XM-TOOL TO INSERT BARB CONNECTOR DIRECTLY INTO {\H0.7x;\S1#2;}" POLYETHYLENE TUBING.\P2. RAIN BIRD SQ SQUARE NOZZLE SERIES ARE AVAILABLE IN THE FOLLOWING MODELS:\P^ISQ QTR - QUARTER PATTERN - 7.4
  1
 GPH MAX\P^ISQ HLF - HALF PATTERN - 13.7 GPH MAX\P^ISQ FUL - FULL PATTERN - 27.3 GPH MAX\P3. SQ NOZZLES CAN BE ADJUSTED FROM 2.5' THROW TO 4' THROW BY TURNING THE NOZZLE.
  0
LAYOUT
  5
10C0
102
{ACAD_REACTORS
330
10BC
102
}
330
10BC
100
AcDbPlotSettings
  1

  2
S:\AutoCAD 2002\Plotters\1055B&WDraftShaded.pc3
  4

  6

 40
0.0
 41
0.0
 42
0.0
 43
0.0
 44
0.0
 45
0.0
 46
0.0
 47
0.0
 48
0.0
 49
0.0
140
0.0
141
0.0
142
1.0
143
1.0
 70
   688
 72
     0
 73
     0
 74
     5
  7
TRexLJ5Shaded2.ctb
 75
    16
147
1.0
 76
     0
 77
     2
 78
   300
148
0.0
149
0.0
100
AcDbLayout
  1
Layout1
 70
     1
 71
     1
 10
0.0
 20
0.0
 11
12.0
 21
9.0
 12
0.0
 22
0.0
 32
0.0
 14
1.000000000000000E+20
 24
1.000000000000000E+20
 34
1.000000000000000E+20
 15
-1.000000000000000E+20
 25
-1.000000000000000E+20
 35
-1.000000000000000E+20
146
0.0
 13
0.0
 23
0.0
 33
0.0
 16
1.0
 26
0.0
 36
0.0
 17
0.0
 27
1.0
 37
0.0
 76
     0
330
10BD
  0
LAYOUT
  5
10C4
102
{ACAD_REACTORS
330
10BC
102
}
330
10BC
100
AcDbPlotSettings
  1
LaserJet5 8.5x11
  2
LaserJet5Shaded-8x11.pc3
  4
Letter
  6

 40
5.873749732971191
 41
5.873734951019287
 42
6.55108642578125
 43
5.027084350585937
 44
279.3999938964844
 45
215.8999938964844
 46
32.02292887556891
 47
0.000000000000005
 48
0.0
 49
0.0
140
0.0
141
0.0
142
1.0
143
1.293546671707545
 70
 11956
 72
     0
 73
     0
 74
     1
  7
laserjet5shaded.ctb
 75
     0
147
0.7730683568455637
 76
     0
 77
     2
 78
   300
148
12.66076841047503
149
54.92823619826149
100
AcDbLayout
  1
Model
 70
     1
 71
     0
 10
0.0
 20
0.0
 11
12.0
 21
9.0
 12
0.0
 22
0.0
 32
0.0
 14
0.0
 24
0.0
 34
0.0
 15
0.0
 25
0.0
 35
0.0
146
0.0
 13
0.0
 23
0.0
 33
0.0
 16
1.0
 26
0.0
 36
0.0
 17
0.0
 27
1.0
 37
0.0
 76
     0
330
10C1
331
11F0
1001
ACAD_PSEXT
1000
LaserJet5Shaded-8x11.pc3
1000
HP LaserJet 5Si
1000
CAD Area
1000

1070
     0
  0
MATERIAL
  5
11FB
102
{ACAD_XDICTIONARY
360
11FC
102
}
102
{ACAD_REACTORS
330
11F2
102
}
330
11F2
100
AcDbMaterial
  1
ByBlock
 72
     0
 43
0.0208333333333333
 43
0.0
 43
0.0
 43
0.0
 43
0.0
 43
0.0208333333333333
 43
0.0
 43
0.0
 43
0.0
 43
0.0
 43
1.0
 43
0.0
 43
0.0
 43
0.0
 43
0.0
 43
1.0
 77
     0
 47
0.0208333333333333
 47
0.0
 47
0.0
 47
0.0
 47
0.0
 47
0.0208333333333333
 47
0.0
 47
0.0
 47
0.0
 47
0.0
 47
1.0
 47
0.0
 47
0.0
 47
0.0
 47
0.0
 47
1.0
171
     0
 49
0.0208333333333333
 49
0.0
 49
0.0
 49
0.0
 49
0.0
 49
0.0208333333333333
 49
0.0
 49
0.0
 49
0.0
 49
0.0
 49
1.0
 49
0.0
 49
0.0
 49
0.0
 49
0.0
 49
1.0
175
     0
142
0.0208333333333333
142
0.0
142
0.0
142
0.0
142
0.0
142
0.0208333333333333
142
0.0
142
0.0
142
0.0
142
0.0
142
1.0
142
0.0
142
0.0
142
0.0
142
0.0
142
1.0
179
     0
144
0.0208333333333333
144
0.0
144
0.0
144
0.0
144
0.0
144
0.0208333333333333
144
0.0
144
0.0
144
0.0
144
0.0
144
1.0
144
0.0
144
0.0
144
0.0
144
0.0
144
1.0
147
0.0208333333333333
147
0.0
147
0.0
147
0.0
147
0.0
147
0.0208333333333333
147
0.0
147
0.0
147
0.0
147
0.0
147
1.0
147
0.0
147
0.0
147
0.0
147
0.0
147
1.0
  0
MATERIAL
  5
11F3
102
{ACAD_XDICTIONARY
360
11F4
102
}
102
{ACAD_REACTORS
330
11F2
102
}
330
11F2
100
AcDbMaterial
  1
ByLayer
 72
     0
 43
0.0208333333333333
 43
0.0
 43
0.0
 43
0.0
 43
0.0
 43
0.0208333333333333
 43
0.0
 43
0.0
 43
0.0
 43
0.0
 43
1.0
 43
0.0
 43
0.0
 43
0.0
 43
0.0
 43
1.0
 77
     0
 47
0.0208333333333333
 47
0.0
 47
0.0
 47
0.0
 47
0.0
 47
0.0208333333333333
 47
0.0
 47
0.0
 47
0.0
 47
0.0
 47
1.0
 47
0.0
 47
0.0
 47
0.0
 47
0.0
 47
1.0
171
     0
 49
0.0208333333333333
 49
0.0
 49
0.0
 49
0.0
 49
0.0
 49
0.0208333333333333
 49
0.0
 49
0.0
 49
0.0
 49
0.0
 49
1.0
 49
0.0
 49
0.0
 49
0.0
 49
0.0
 49
1.0
175
     0
142
0.0208333333333333
142
0.0
142
0.0
142
0.0
142
0.0
142
0.0208333333333333
142
0.0
142
0.0
142
0.0
142
0.0
142
1.0
142
0.0
142
0.0
142
0.0
142
0.0
142
1.0
179
     0
144
0.0208333333333333
144
0.0
144
0.0
144
0.0
144
0.0
144
0.0208333333333333
144
0.0
144
0.0
144
0.0
144
0.0
144
1.0
144
0.0
144
0.0
144
0.0
144
0.0
144
1.0
147
0.0208333333333333
147
0.0
147
0.0
147
0.0
147
0.0
147
0.0208333333333333
147
0.0
147
0.0
147
0.0
147
0.0
147
1.0
147
0.0
147
0.0
147
0.0
147
0.0
147
1.0
  0
MATERIAL
  5
1203
102
{ACAD_XDICTIONARY
360
1204
102
}
102
{ACAD_REACTORS
330
11F2
102
}
330
11F2
100
AcDbMaterial
  1
Global
 72
     0
 43
0.0208333333333333
 43
0.0
 43
0.0
 43
0.0
 43
0.0
 43
0.0208333333333333
 43
0.0
 43
0.0
 43
0.0
 43
0.0
 43
1.0
 43
0.0
 43
0.0
 43
0.0
 43
0.0
 43
1.0
 77
     0
 47
0.0208333333333333
 47
0.0
 47
0.0
 47
0.0
 47
0.0
 47
0.0208333333333333
 47
0.0
 47
0.0
 47
0.0
 47
0.0
 47
1.0
 47
0.0
 47
0.0
 47
0.0
 47
0.0
 47
1.0
171
     0
 49
0.0208333333333333
 49
0.0
 49
0.0
 49
0.0
 49
0.0
 49
0.0208333333333333
 49
0.0
 49
0.0
 49
0.0
 49
0.0
 49
1.0
 49
0.0
 49
0.0
 49
0.0
 49
0.0
 49
1.0
175
     0
142
0.0208333333333333
142
0.0
142
0.0
142
0.0
142
0.0
142
0.0208333333333333
142
0.0
142
0.0
142
0.0
142
0.0
142
1.0
142
0.0
142
0.0
142
0.0
142
0.0
142
1.0
179
     0
144
0.0208333333333333
144
0.0
144
0.0
144
0.0
144
0.0
144
0.0208333333333333
144
0.0
144
0.0
144
0.0
144
0.0
144
1.0
144
0.0
144
0.0
144
0.0
144
0.0
144
1.0
147
0.0208333333333333
147
0.0
147
0.0
147
0.0
147
0.0
147
0.0208333333333333
147
0.0
147
0.0
147
0.0
147
0.0
147
1.0
147
0.0
147
0.0
147
0.0
147
0.0
147
1.0
  0
MLEADERSTYLE
  5
1242
102
{ACAD_REACTORS
330
1241
102
}
330
1241
100
AcDbMLeaderStyle
170
     2
171
     1
172
     0
 90
        2
 40
0.0
 41
0.0
173
     1
 91
-1056964608
340
10B6
 92
       -2
290
     1
 42
0.09
291
     1
 43
0.36
  3
Standard
 44
0.18
300

342
10B4
174
     1
178
     6
175
     1
176
     0
 93
-1056964608
 45
0.18
292
     0
297
     0
 46
0.18
 94
-1056964608
 47
1.0
 49
1.0
140
1.0
293
     1
141
0.0
294
     1
177
     0
142
1.0
295
     0
296
     0
143
0.125
1001
ACAD_MLEADERVER
1070
     2
  0
MLINESTYLE
  5
10BA
102
{ACAD_REACTORS
330
10B9
102
}
330
10B9
100
AcDbMlineStyle
  2
STANDARD
 70
     0
  3

 62
   256
 51
90.0
 52
90.0
 71
     2
 49
0.5
 62
   256
  6
BYLAYER
 49
-0.5
 62
   256
  6
BYLAYER
  0
PLOTSETTINGS
  5
1256
102
{ACAD_REACTORS
330
10BB
102
}
330
10BB
100
AcDbPlotSettings
  1
1055 24x36 BW
  2
1055B&WDraftShaded.pc3
  4
User257
  6

 40
14.98600006103515
 41
8.297271728515625
 42
14.9859619140625
 43
8.29736328125
 44
914.3153076171875
 45
1269.915283203125
 46
0.0
 47
0.0
 48
0.0
 49
0.0
140
0.0
141
0.0
142
1.0
143
1.0
 70
  2800
 72
     0
 73
     2
 74
     1
  7
1055B&WFullDraftShaded.ctb
 75
    16
147
1.0
 76
     0
 77
     2
 78
   300
148
-75.74468520391772
149
-27.53050504688192
1001
ACAD_PSEXT
1000
1055B&WDraftShaded.pc3
1000
HP DesignJet 1055CM by HP
1000
FRONT
1000

1070
     0
  0
PLOTSETTINGS
  5
1258
102
{ACAD_REACTORS
330
10BB
102
}
330
10BB
100
AcDbPlotSettings
  1
1055 24x36 BW Final
  2
1055B&WFinalShaded.pc3
  4
User257
  6

 40
14.98600006103515
 41
8.297271728515625
 42
14.9859619140625
 43
8.29736328125
 44
914.357666015625
 45
1269.957641601562
 46
0.0
 47
0.0
 48
0.0
 49
0.0
140
0.0
141
0.0
142
1.0
143
1.0
 70
  2800
 72
     0
 73
     2
 74
     1
  7
1055B&WFullFinalShaded.ctb
 75
    16
147
1.0
 76
     0
 77
     2
 78
   300
148
-75.74468520391772
149
-27.53050504688192
1001
ACAD_PSEXT
1000
1055B&WFinalShaded.pc3
1000
HP DesignJet 1055CM by HP
1000
FRONT
1000

1070
     0
  0
PLOTSETTINGS
  5
1259
102
{ACAD_REACTORS
330
10BB
102
}
330
10BB
100
AcDbPlotSettings
  1
1055 24x36 Color
  2
1055ColorDraftShaded.pc3
  4
User257
  6

 40
14.98600006103515
 41
8.297271728515625
 42
14.9859619140625
 43
8.29736328125
 44
914.3153076171875
 45
1269.915283203125
 46
0.0
 47
0.0
 48
0.0
 49
0.0
140
0.0
141
0.0
142
1.0
143
1.0
 70
  2800
 72
     0
 73
     2
 74
     1
  7
Color.ctb
 75
    16
147
1.0
 76
     0
 77
     2
 78
   300
148
-75.74468520391772
149
-27.53050504688192
1001
ACAD_PSEXT
1000
1055ColorDraftShaded.pc3
1000
HP DesignJet 1055CM by HP
1000
FRONT
1000

1070
     0
  0
PLOTSETTINGS
  5
125A
102
{ACAD_REACTORS
330
10BB
102
}
330
10BB
100
AcDbPlotSettings
  1
1055 24x36 Color Shaded
  2
1055ColorDraftShaded.pc3
  4
User257
  6

 40
14.98600006103515
 41
8.297271728515625
 42
14.9859619140625
 43
8.29736328125
 44
914.3153076171875
 45
1269.915283203125
 46
0.0
 47
0.0
 48
0.0
 49
0.0
140
0.0
141
0.0
142
1.0
143
1.0
 70
  2800
 72
     0
 73
     2
 74
     1
  7
1055ColorFullDraftShaded.ctb
 75
    16
147
1.0
 76
     0
 77
     2
 78
   300
148
-75.74468520391772
149
-27.53050504688192
1001
ACAD_PSEXT
1000
1055ColorDraftShaded.pc3
1000
HP DesignJet 1055CM by HP
1000
FRONT
1000

1070
     0
  0
PLOTSETTINGS
  5
125B
102
{ACAD_REACTORS
330
10BB
102
}
330
10BB
100
AcDbPlotSettings
  1
1055 30x42 BW
  2
1055B&WDraftShaded.pc3
  4
User257
  6

 40
14.98600006103515
 41
8.297271728515625
 42
14.9859619140625
 43
8.29736328125
 44
914.3153076171875
 45
1269.915283203125
 46
0.0
 47
0.0
 48
0.0
 49
0.0
140
0.0
141
0.0
142
1.0
143
1.0
 70
  2800
 72
     0
 73
     1
 74
     1
  7
1055B&WFullDraftShaded.ctb
 75
    16
147
1.0
 76
     0
 77
     2
 78
   300
148
-75.74468520391772
149
-27.53050504688192
1001
ACAD_PSEXT
1000
1055B&WDraftShaded.pc3
1000
HP DesignJet 1055CM by HP
1000
FRONT
1000

1070
     0
  0
PLOTSETTINGS
  5
125C
102
{ACAD_REACTORS
330
10BB
102
}
330
10BB
100
AcDbPlotSettings
  1
1055 30x42 BW Final
  2
1055B&WFinalShaded.pc3
  4
User257
  6

 40
14.98600006103515
 41
8.297271728515625
 42
14.9859619140625
 43
8.29736328125
 44
914.357666015625
 45
1269.957641601562
 46
0.0
 47
0.0
 48
0.0
 49
0.0
140
0.0
141
0.0
142
1.0
143
1.0
 70
  2800
 72
     0
 73
     1
 74
     1
  7
1055B&WFullFinalShaded.ctb
 75
    16
147
1.0
 76
     0
 77
     2
 78
   300
148
-75.74468520391772
149
-27.53050504688192
1001
ACAD_PSEXT
1000
1055B&WFinalShaded.pc3
1000
HP DesignJet 1055CM by HP
1000
FRONT
1000

1070
     0
  0
PLOTSETTINGS
  5
125D
102
{ACAD_REACTORS
330
10BB
102
}
330
10BB
100
AcDbPlotSettings
  1
1055 B&W Draft
  2
1055B&WDraftShaded.pc3
  4
User257
  6

 40
4.995333194732666
 41
8.297271728515625
 42
4.99530029296875
 43
8.29736328125
 44
914.3153076171875
 45
1269.915283203125
 46
0.0
 47
0.0
 48
0.0
 49
0.0
140
0.0
141
0.0
142
1.0
143
30.0
 70
 11936
 72
     0
 73
     2
 74
     1
  7
1055B&WFullDraftShaded.ctb
 75
     0
147
3.484472351238056
 76
     0
 77
     2
 78
   300
148
-119.4582094169044
149
-58.17053554795709
1001
ACAD_PSEXT
1000
1055B&WDraftShaded.pc3
1000
HP DesignJet 1055CM by HP
1000
\\aqua-srv01
1000

1070
     0
  0
PLOTSETTINGS
  5
125E
102
{ACAD_REACTORS
330
10BB
102
}
330
10BB
100
AcDbPlotSettings
  1
1055 B&W Final
  2
1055B&WFinalShaded.pc3
  4
User257
  6

 40
4.995333194732666
 41
8.297271728515625
 42
4.99530029296875
 43
8.29736328125
 44
914.357666015625
 45
1269.957641601562
 46
0.0
 47
0.0
 48
0.0
 49
0.0
140
0.0
141
0.0
142
1.0
143
30.0
 70
 11936
 72
     0
 73
     2
 74
     1
  7
1055B&WFullFinalShaded.ctb
 75
     0
147
3.484472351238056
 76
     0
 77
     2
 78
   300
148
-119.4582094169044
149
-58.17053554795709
1001
ACAD_PSEXT
1000
1055B&WFinalShaded.pc3
1000
HP DesignJet 1055CM by HP
1000
\\aqua-srv01
1000

1070
     0
  0
PLOTSETTINGS
  5
125F
102
{ACAD_REACTORS
330
10BB
102
}
330
10BB
100
AcDbPlotSettings
  1
1055 BW Half
  2
1055B&WDraftShaded.pc3
  4
User257
  6

 40
14.98600006103515
 41
8.297271728515625
 42
14.9859619140625
 43
8.29736328125
 44
914.3153076171875
 45
1269.915283203125
 46
0.0
 47
0.0
 48
0.0
 49
0.0
140
0.0
141
0.0
142
1.0
143
2.0
 70
  2800
 72
     0
 73
     2
 74
     1
  7
1055B&WFullDraftShaded.ctb
 75
    17
147
0.5
 76
     0
 77
     2
 78
   300
148
-75.74468520391772
149
-27.53050504688192
1001
ACAD_PSEXT
1000
1055B&WDraftShaded.pc3
1000
HP DesignJet 1055CM by HP
1000
FRONT
1000

1070
     0
  0
PLOTSETTINGS
  5
1260
102
{ACAD_REACTORS
330
10BB
102
}
330
10BB
100
AcDbPlotSettings
  1
1055 Color Draft
  2
1055ColorDraftShaded.pc3
  4
User257
  6

 40
4.995333194732666
 41
8.297271728515625
 42
4.99530029296875
 43
8.29736328125
 44
914.3153076171875
 45
1269.915283203125
 46
0.0
 47
0.0
 48
0.0
 49
0.0
140
0.0
141
0.0
142
1.0
143
30.0
 70
 11936
 72
     0
 73
     2
 74
     1
  7
1055ColorFullDraftShaded.ctb
 75
     0
147
3.484472351238056
 76
     0
 77
     2
 78
   300
148
-119.4582094169044
149
-58.17053554795709
1001
ACAD_PSEXT
1000
1055ColorDraftShaded.pc3
1000
HP DesignJet 1055CM by HP
1000
\\aqua-srv01
1000

1070
     0
  0
PLOTSETTINGS
  5
1261
102
{ACAD_REACTORS
330
10BB
102
}
330
10BB
100
AcDbPlotSettings
  1
1055 Color Final
  2
1055ColorFinalShaded.pc3
  4
User257
  6

 40
4.995333194732666
 41
8.297271728515625
 42
4.99530029296875
 43
8.29736328125
 44
914.357666015625
 45
1269.957641601562
 46
0.0
 47
0.0
 48
0.0
 49
0.0
140
0.0
141
0.0
142
1.0
143
30.0
 70
 11936
 72
     0
 73
     2
 74
     1
  7
1055ColorFullFinalShaded.ctb
 75
     0
147
3.484472351238056
 76
     0
 77
     2
 78
   300
148
-119.4582094169044
149
-58.17053554795709
1001
ACAD_PSEXT
1000
1055ColorFinalShaded.pc3
1000
HP DesignJet 1055CM by HP
1000
\\aqua-srv01
1000

1070
     0
  0
PLOTSETTINGS
  5
1262
102
{ACAD_REACTORS
330
10BB
102
}
330
10BB
100
AcDbPlotSettings
  1
1055+ 24x36 BW
  2
1055_PLUS_B&WDraftShaded.pc3
  4
User257
  6

 40
14.98600006103515
 41
8.297271728515625
 42
14.9859619140625
 43
8.29736328125
 44
914.3153076171875
 45
1269.915283203125
 46
0.0
 47
0.0
 48
0.0
 49
0.0
140
0.0
141
0.0
142
1.0
143
1.0
 70
  2800
 72
     0
 73
     2
 74
     1
  7
1055B&WFullDraftShaded.ctb
 75
    16
147
1.0
 76
     0
 77
     2
 78
   300
148
-75.74468520391772
149
-27.53050504688192
1001
ACAD_PSEXT
1000
1055_PLUS_B&WDraftShaded.pc3
1000
HP DesignJet 1055CM by HP
1000
FRONT
1000

1070
     0
  0
PLOTSETTINGS
  5
1263
102
{ACAD_REACTORS
330
10BB
102
}
330
10BB
100
AcDbPlotSettings
  1
1055+ 24x36 BW Final
  2
1055_PLUS_B&WFinalShaded.pc3
  4
User257
  6

 40
14.98600006103515
 41
8.297271728515625
 42
14.9859619140625
 43
8.29736328125
 44
914.357666015625
 45
1269.957641601562
 46
0.0
 47
0.0
 48
0.0
 49
0.0
140
0.0
141
0.0
142
1.0
143
1.0
 70
  2800
 72
     0
 73
     2
 74
     1
  7
1055B&WFullFinalShaded.ctb
 75
    16
147
1.0
 76
     0
 77
     2
 78
   300
148
-75.74468520391772
149
-27.53050504688192
1001
ACAD_PSEXT
1000
1055_PLUS_B&WFinalShaded.pc3
1000
HP DesignJet 1055CM by HP
1000
FRONT
1000

1070
     0
  0
PLOTSETTINGS
  5
1264
102
{ACAD_REACTORS
330
10BB
102
}
330
10BB
100
AcDbPlotSettings
  1
1055+ 24x36 Color
  2
1055_PLUS_ColorDraftShaded.pc3
  4
User257
  6

 40
14.98600006103515
 41
8.297271728515625
 42
14.9859619140625
 43
8.29736328125
 44
914.3153076171875
 45
1269.915283203125
 46
0.0
 47
0.0
 48
0.0
 49
0.0
140
0.0
141
0.0
142
1.0
143
1.0
 70
  2800
 72
     0
 73
     2
 74
     1
  7
Color.ctb
 75
    16
147
1.0
 76
     0
 77
     2
 78
   300
148
-75.74468520391772
149
-27.53050504688192
1001
ACAD_PSEXT
1000
1055_PLUS_ColorDraftShaded.pc3
1000
HP DesignJet 1055CM by HP
1000
FRONT
1000

1070
     0
  0
PLOTSETTINGS
  5
1265
102
{ACAD_REACTORS
330
10BB
102
}
330
10BB
100
AcDbPlotSettings
  1
1055+ 24x36 Color Shaded
  2
1055_PLUS_ColorDraftShaded.pc3
  4
User257
  6

 40
14.98600006103515
 41
8.297271728515625
 42
14.9859619140625
 43
8.29736328125
 44
914.3153076171875
 45
1269.915283203125
 46
0.0
 47
0.0
 48
0.0
 49
0.0
140
0.0
141
0.0
142
1.0
143
1.0
 70
  2800
 72
     0
 73
     2
 74
     1
  7
1055ColorFullDraftShaded.ctb
 75
    16
147
1.0
 76
     0
 77
     2
 78
   300
148
-75.74468520391772
149
-27.53050504688192
1001
ACAD_PSEXT
1000
1055_PLUS_ColorDraftShaded.pc3
1000
HP DesignJet 1055CM by HP
1000
FRONT
1000

1070
     0
  0
PLOTSETTINGS
  5
1266
102
{ACAD_REACTORS
330
10BB
102
}
330
10BB
100
AcDbPlotSettings
  1
1055+ 30x42 BW
  2
1055_PLUS_B&WDraftShaded.pc3
  4
User257
  6

 40
14.98600006103515
 41
8.297271728515625
 42
14.9859619140625
 43
8.29736328125
 44
914.3153076171875
 45
1269.915283203125
 46
0.0
 47
0.0
 48
0.0
 49
0.0
140
0.0
141
0.0
142
1.0
143
1.0
 70
  2800
 72
     0
 73
     1
 74
     1
  7
1055B&WFullDraftShaded.ctb
 75
    16
147
1.0
 76
     0
 77
     2
 78
   300
148
-75.74468520391772
149
-27.53050504688192
1001
ACAD_PSEXT
1000
1055_PLUS_B&WDraftShaded.pc3
1000
HP DesignJet 1055CM by HP
1000
FRONT
1000

1070
     0
  0
PLOTSETTINGS
  5
1267
102
{ACAD_REACTORS
330
10BB
102
}
330
10BB
100
AcDbPlotSettings
  1
1055+ 30x42 BW Final
  2
1055_PLUS_B&WFinalShaded.pc3
  4
User257
  6

 40
14.98600006103515
 41
8.297271728515625
 42
14.9859619140625
 43
8.29736328125
 44
914.357666015625
 45
1269.957641601562
 46
0.0
 47
0.0
 48
0.0
 49
0.0
140
0.0
141
0.0
142
1.0
143
1.0
 70
  2800
 72
     0
 73
     1
 74
     1
  7
1055B&WFullFinalShaded.ctb
 75
    16
147
1.0
 76
     0
 77
     2
 78
   300
148
-75.74468520391772
149
-27.53050504688192
1001
ACAD_PSEXT
1000
1055_PLUS_B&WFinalShaded.pc3
1000
HP DesignJet 1055CM by HP
1000
FRONT
1000

1070
     0
  0
PLOTSETTINGS
  5
1268
102
{ACAD_REACTORS
330
10BB
102
}
330
10BB
100
AcDbPlotSettings
  1
1055+ B&W Draft
  2
1055_PLUS_B&WDraftShaded.pc3
  4
User257
  6

 40
4.995333194732666
 41
13.2926607131958
 42
4.99530029296875
 43
13.292724609375
 44
914.3153076171875
 45
1269.915283203125
 46
0.0
 47
0.0
 48
0.0
 49
0.0
140
0.0
141
0.0
142
1.0
143
30.0
 70
 11936
 72
     0
 73
     2
 74
     1
  7
1055B&WFullDraftShaded.ctb
 75
     0
147
3.484472351238056
 76
     0
 77
     2
 78
   300
148
-119.4582094169044
149
-58.17053554795709
1001
ACAD_PSEXT
1000
1055_PLUS_B&WDraftShaded.pc3
1000
HP DesignJet 1055CM by HP
1000
\\aqua-srv01
1000

1070
     0
  0
PLOTSETTINGS
  5
1269
102
{ACAD_REACTORS
330
10BB
102
}
330
10BB
100
AcDbPlotSettings
  1
1055+ B&W Final
  2
1055_PLUS_B&WFinalShaded.pc3
  4
User257
  6

 40
4.995333194732666
 41
13.2926607131958
 42
4.99530029296875
 43
13.292724609375
 44
914.357666015625
 45
1269.957641601562
 46
0.0
 47
0.0
 48
0.0
 49
0.0
140
0.0
141
0.0
142
1.0
143
30.0
 70
 11936
 72
     0
 73
     2
 74
     1
  7
1055B&WFullFinalShaded.ctb
 75
     0
147
3.484472351238056
 76
     0
 77
     2
 78
   300
148
-119.4582094169044
149
-58.17053554795709
1001
ACAD_PSEXT
1000
1055_PLUS_B&WFinalShaded.pc3
1000
HP DesignJet 1055CM by HP
1000
\\aqua-srv01
1000

1070
     0
  0
PLOTSETTINGS
  5
126A
102
{ACAD_REACTORS
330
10BB
102
}
330
10BB
100
AcDbPlotSettings
  1
1055+ BW Half
  2
1055_PLUS_B&WDraftShaded.pc3
  4
User257
  6

 40
14.98600006103515
 41
8.297271728515625
 42
14.9859619140625
 43
8.29736328125
 44
914.3153076171875
 45
1269.915283203125
 46
0.0
 47
0.0
 48
0.0
 49
0.0
140
0.0
141
0.0
142
1.0
143
2.0
 70
  2800
 72
     0
 73
     2
 74
     1
  7
1055B&WFullDraftShaded.ctb
 75
    17
147
0.5
 76
     0
 77
     2
 78
   300
148
-75.74468520391772
149
-27.53050504688192
1001
ACAD_PSEXT
1000
1055_PLUS_B&WDraftShaded.pc3
1000
HP DesignJet 1055CM by HP
1000
FRONT
1000

1070
     0
  0
PLOTSETTINGS
  5
126B
102
{ACAD_REACTORS
330
10BB
102
}
330
10BB
100
AcDbPlotSettings
  1
1055+ Color Draft
  2
1055_PLUS_ColorDraftShaded.pc3
  4
User257
  6

 40
4.995333194732666
 41
8.297271728515625
 42
4.99530029296875
 43
8.29736328125
 44
914.3153076171875
 45
1269.915283203125
 46
0.0
 47
0.0
 48
0.0
 49
0.0
140
0.0
141
0.0
142
1.0
143
30.0
 70
 11936
 72
     0
 73
     2
 74
     1
  7
1055ColorFullDraftShaded.ctb
 75
     0
147
3.484472351238056
 76
     0
 77
     2
 78
   300
148
-119.4582094169044
149
-58.17053554795709
1001
ACAD_PSEXT
1000
1055_PLUS_ColorDraftShaded.pc3
1000
HP DesignJet 1055CM by HP
1000
\\aqua-srv01
1000

1070
     0
  0
PLOTSETTINGS
  5
126C
102
{ACAD_REACTORS
330
10BB
102
}
330
10BB
100
AcDbPlotSettings
  1
1055+ Color Final
  2
1055_PLUS_ColorFinalShaded.pc3
  4
User257
  6

 40
4.995333194732666
 41
13.2926607131958
 42
4.99530029296875
 43
13.292724609375
 44
914.357666015625
 45
1269.957641601562
 46
0.0
 47
0.0
 48
0.0
 49
0.0
140
0.0
141
0.0
142
1.0
143
30.0
 70
 11936
 72
     0
 73
     2
 74
     1
  7
1055ColorFullFinalShaded.ctb
 75
     0
147
3.484472351238056
 76
     0
 77
     2
 78
   300
148
-119.4582094169044
149
-58.17053554795709
1001
ACAD_PSEXT
1000
1055_PLUS_ColorFinalShaded.pc3
1000
HP DesignJet 1055CM by HP
1000
\\aqua-srv01
1000

1070
     0
  0
PLOTSETTINGS
  5
126D
102
{ACAD_REACTORS
330
10BB
102
}
330
10BB
100
AcDbPlotSettings
  1
_1055 22x34 True Centered BW
  2
1055B&WDraftShaded 24x36 true.pc3
  4
User1639
  6

 40
0.0
 41
0.0
 42
0.0
 43
0.0
 44
863.6000366210938
 45
558.7999877929687
 46
379.1860116761152
 47
224.9166389522296
 48
0.0
 49
0.0
140
0.0
141
0.0
142
1.0
143
1.0
 70
  2804
 72
     0
 73
     0
 74
     1
  7
1055B&WFullDraftShaded.ctb
 75
    16
147
1.0
 76
     0
 77
     2
 78
   300
148
-75.74468520391772
149
-27.53050504688192
1001
ACAD_PSEXT
1000
1055B&WDraftShaded 24x36 true.pc3
1000
HP DesignJet 1055CM by HP
1000
FRONT
1000

1070
     0
  0
PLOTSETTINGS
  5
126E
102
{ACAD_REACTORS
330
10BB
102
}
330
10BB
100
AcDbPlotSettings
  1
_1055 24x36 True Centered BW
  2
1055B&WDraftShaded 24x36 true.pc3
  4
User1308
  6

 40
14.98600006103515
 41
8.297332763671875
 42
14.9859619140625
 43
8.29736328125
 44
914.3153076171875
 45
609.5153198242187
 46
389.5576661866133
 47
241.9769569453936
 48
0.0
 49
0.0
140
0.0
141
0.0
142
1.0
143
1.0
 70
  2804
 72
     0
 73
     0
 74
     1
  7
1055B&WFullDraftShaded.ctb
 75
    16
147
1.0
 76
     0
 77
     2
 78
   300
148
-75.74468520391772
149
-27.53050504688192
1001
ACAD_PSEXT
1000
1055B&WDraftShaded 24x36 true.pc3
1000
HP DesignJet 1055CM by HP
1000
FRONT
1000

1070
     0
  0
PLOTSETTINGS
  5
126F
102
{ACAD_REACTORS
330
10BB
102
}
330
10BB
100
AcDbPlotSettings
  1
_1055 24x36 True Centered BW Final
  2
1055B&WFinalShaded 24x36 true.pc3
  4
User1308
  6

 40
14.98600006103515
 41
8.297332763671875
 42
14.9859619140625
 43
8.29736328125
 44
914.357666015625
 45
609.5576782226562
 46
389.578845385832
 47
241.9981361446124
 48
0.0
 49
0.0
140
0.0
141
0.0
142
1.0
143
1.0
 70
  2804
 72
     0
 73
     0
 74
     1
  7
1055B&WFullFinalShaded.ctb
 75
    16
147
1.0
 76
     0
 77
     2
 78
   300
148
-75.74468520391772
149
-27.53050504688192
1001
ACAD_PSEXT
1000
1055B&WFinalShaded 24x36 true.pc3
1000
HP DesignJet 1055CM by HP
1000
FRONT
1000

1070
     0
  0
PLOTSETTINGS
  5
1270
102
{ACAD_REACTORS
330
10BB
102
}
330
10BB
100
AcDbPlotSettings
  1
_1055 24x36 True Centered Color
  2
1055ColorDraftShaded 24x36 true.pc3
  4
User1308
  6

 40
14.98600006103515
 41
8.297332763671875
 42
14.9859619140625
 43
8.29736328125
 44
914.3153076171875
 45
609.5153198242187
 46
389.5576661866133
 47
241.9769569453936
 48
0.0
 49
0.0
140
0.0
141
0.0
142
1.0
143
1.0
 70
  2804
 72
     0
 73
     0
 74
     1
  7
1055ColorFullDraftShaded.ctb
 75
    16
147
1.0
 76
     0
 77
     2
 78
   300
148
-75.74468520391772
149
-27.53050504688192
1001
ACAD_PSEXT
1000
1055ColorDraftShaded 24x36 true.pc3
1000
HP DesignJet 1055CM by HP
1000
FRONT
1000

1070
     0
  0
PLOTSETTINGS
  5
1271
102
{ACAD_REACTORS
330
10BB
102
}
330
10BB
100
AcDbPlotSettings
  1
_1055 30x42 True Centered BW
  2
1055B&WDraftShaded 30x42 true.pc3
  4
User286
  6

 40
0.0
 41
0.0
 42
-0.08465576171875
 43
-0.084716796875
 44
761.9153442382812
 45
1066.71533203125
 46
326.5166450557452
 47
480.7860177796309
 48
0.0
 49
0.0
140
0.0
141
0.0
142
1.0
143
1.0
 70
  2804
 72
     0
 73
     1
 74
     1
  7
1055B&WFullDraftShaded.ctb
 75
    16
147
1.0
 76
     0
 77
     2
 78
   300
148
-75.74468520391772
149
-27.53050504688192
1001
ACAD_PSEXT
1000
1055B&WDraftShaded 30x42 true.pc3
1000
HP DesignJet 1055CM by HP
1000
FRONT
1000

1070
     0
  0
PLOTSETTINGS
  5
1272
102
{ACAD_REACTORS
330
10BB
102
}
330
10BB
100
AcDbPlotSettings
  1
_1055+ 22x34 True Centered BW
  2
1055_PLUS_B&WDraftShaded 24x36 true.pc3
  4
User1639
  6

 40
0.0
 41
0.0
 42
0.0
 43
0.0
 44
863.6000366210938
 45
558.7999877929687
 46
379.1860116761152
 47
224.9166389522296
 48
0.0
 49
0.0
140
0.0
141
0.0
142
1.0
143
1.0
 70
  2804
 72
     0
 73
     0
 74
     1
  7
1055B&WFullDraftShaded.ctb
 75
    16
147
1.0
 76
     0
 77
     2
 78
   300
148
-75.74468520391772
149
-27.53050504688192
1001
ACAD_PSEXT
1000
1055_PLUS_B&WDraftShaded 24x36 true.pc3
1000
HP DesignJet 1055CM by HP
1000
FRONT
1000

1070
     0
  0
PLOTSETTINGS
  5
1273
102
{ACAD_REACTORS
330
10BB
102
}
330
10BB
100
AcDbPlotSettings
  1
_1055+ 24x36 True Centered BW
  2
1055_PLUS_B&WDraftShaded 24x36 true.pc3
  4
User1308
  6

 40
14.98600006103515
 41
8.297332763671875
 42
14.9859619140625
 43
8.29736328125
 44
914.3153076171875
 45
609.5153198242187
 46
389.5576661866133
 47
241.9769569453936
 48
0.0
 49
0.0
140
0.0
141
0.0
142
1.0
143
1.0
 70
  2804
 72
     0
 73
     0
 74
     1
  7
1055B&WFullDraftShaded.ctb
 75
    16
147
1.0
 76
     0
 77
     2
 78
   300
148
-75.74468520391772
149
-27.53050504688192
1001
ACAD_PSEXT
1000
1055_PLUS_B&WDraftShaded 24x36 true.pc3
1000
HP DesignJet 1055CM by HP
1000
FRONT
1000

1070
     0
  0
PLOTSETTINGS
  5
1274
102
{ACAD_REACTORS
330
10BB
102
}
330
10BB
100
AcDbPlotSettings
  1
_1055+ 24x36 True Centered BW Final
  2
1055_PLUS_B&WFinalShaded 24x36 true.pc3
  4
User1308
  6

 40
14.98600006103515
 41
8.297332763671875
 42
14.9859619140625
 43
8.29736328125
 44
914.357666015625
 45
609.5576782226562
 46
389.578845385832
 47
241.9981361446124
 48
0.0
 49
0.0
140
0.0
141
0.0
142
1.0
143
1.0
 70
  2804
 72
     0
 73
     0
 74
     1
  7
1055B&WFullFinalShaded.ctb
 75
    16
147
1.0
 76
     0
 77
     2
 78
   300
148
-75.74468520391772
149
-27.53050504688192
1001
ACAD_PSEXT
1000
1055_PLUS_B&WFinalShaded 24x36 true.pc3
1000
HP DesignJet 1055CM by HP
1000
FRONT
1000

1070
     0
  0
PLOTSETTINGS
  5
1275
102
{ACAD_REACTORS
330
10BB
102
}
330
10BB
100
AcDbPlotSettings
  1
_1055+ 24x36 True Centered Color
  2
1055_PLUS_ColorDraftShaded 24x36 true.pc3
  4
User1308
  6

 40
14.98600006103515
 41
8.297332763671875
 42
14.9859619140625
 43
8.29736328125
 44
914.3153076171875
 45
609.5153198242187
 46
389.5576661866133
 47
241.9769569453936
 48
0.0
 49
0.0
140
0.0
141
0.0
142
1.0
143
1.0
 70
  2804
 72
     0
 73
     0
 74
     1
  7
1055ColorFullDraftShaded.ctb
 75
    16
147
1.0
 76
     0
 77
     2
 78
   300
148
-75.74468520391772
149
-27.53050504688192
1001
ACAD_PSEXT
1000
1055_PLUS_ColorDraftShaded 24x36 true.pc3
1000
HP DesignJet 1055CM by HP
1000
FRONT
1000

1070
     0
  0
PLOTSETTINGS
  5
1276
102
{ACAD_REACTORS
330
10BB
102
}
330
10BB
100
AcDbPlotSettings
  1
DWF BW 11x17 Fit
  2
DWF-BW_11x17.pc3
  4
UserDefinedImperial (17.00 x 11.00Inches)
  6

 40
0.0
 41
0.0
 42
0.0
 43
0.0
 44
431.7999877929687
 45
279.3999938964844
 46
80.99316641155249
 47
0.000000000000005
 48
0.0
 49
0.0
140
0.0
141
0.0
142
1.0
143
0.3900025492802298
 70
  2740
 72
     0
 73
     0
 74
     1
  7
1055B&WFullFinalShaded.ctb
 75
     0
147
2.564085803658341
 76
     0
 77
     2
 78
   300
148
-75.74468520391772
149
-27.53050504688192
1001
ACAD_PSEXT
1000
DWF-BW_11x17.pc3
1000
DWF eView (optimized for viewing)
1000
File
1000

1070
     0
  0
PLOTSETTINGS
  5
1277
102
{ACAD_REACTORS
330
10BB
102
}
330
10BB
100
AcDbPlotSettings
  1
DWF BW 11x17 Half
  2
DWF-BW_11x17.pc3
  4
UserDefinedImperial (17.00 x 11.00Inches)
  6

 40
0.0
 41
0.0
 42
0.0
 43
0.0
 44
431.7999877929687
 45
279.3999938964844
 46
189.5929905792686
 47
112.4583194761148
 48
0.0
 49
0.0
140
0.0
141
0.0
142
1.0
143
2.0
 70
  2740
 72
     0
 73
     0
 74
     1
  7
1055B&WFullFinalShaded.ctb
 75
    17
147
0.5
 76
     0
 77
     2
 78
   300
148
-75.74468520391772
149
-27.53050504688192
1001
ACAD_PSEXT
1000
DWF-BW_11x17.pc3
1000
DWF eView (optimized for viewing)
1000
File
1000

1070
     0
  0
PLOTSETTINGS
  5
1278
102
{ACAD_REACTORS
330
10BB
102
}
330
10BB
100
AcDbPlotSettings
  1
DWF BW 22x34
  2
DWF-BW_22x34.pc3
  4
UserDefinedImperial (34.00 x 22.00Inches)
  6

 40
0.0
 41
0.0
 42
0.0
 43
0.0
 44
863.5999755859375
 45
558.7999877929687
 46
379.1859811585372
 47
224.9166389522296
 48
0.0
 49
0.0
140
0.0
141
0.0
142
1.0
143
1.0
 70
  2740
 72
     0
 73
     0
 74
     1
  7
1055B&WFullFinalShaded.ctb
 75
    16
147
1.0
 76
     0
 77
     2
 78
   300
148
-75.74468520391772
149
-27.53050504688192
1001
ACAD_PSEXT
1000
DWF-BW_22x34.pc3
1000
DWF eView (optimized for viewing)
1000
File
1000

1070
     0
  0
PLOTSETTINGS
  5
1279
102
{ACAD_REACTORS
330
10BB
102
}
330
10BB
100
AcDbPlotSettings
  1
DWF BW 24x36
  2
DWF-BW_24x36.pc3
  4
UserDefinedImperial (36.00 x 24.00Inches)
  6

 40
0.0
 41
0.0
 42
0.0
 43
0.0
 44
914.4000244140626
 45
609.5999755859375
 46
404.5860055725996
 47
250.3166328487139
 48
0.0
 49
0.0
140
0.0
141
0.0
142
1.0
143
1.0
 70
  2740
 72
     0
 73
     0
 74
     1
  7
1055B&WFullFinalShaded.ctb
 75
    16
147
1.0
 76
     0
 77
     2
 78
   300
148
-75.74468520391772
149
-27.53050504688192
1001
ACAD_PSEXT
1000
DWF-BW_24x36.pc3
1000
DWF eView (optimized for viewing)
1000
File
1000

1070
     0
  0
PLOTSETTINGS
  5
127A
102
{ACAD_REACTORS
330
10BB
102
}
330
10BB
100
AcDbPlotSettings
  1
DWF BW 30x42
  2
DWF-BW_30x42.pc3
  4
UserDefinedImperial (42.00 x 30.00Inches)
  6

 40
0.0
 41
0.0
 42
0.0
 43
0.0
 44
1066.800048828125
 45
762.0
 46
480.7860177796309
 47
326.5166450557452
 48
0.0
 49
0.0
140
0.0
141
0.0
142
1.0
143
1.0
 70
  2740
 72
     0
 73
     0
 74
     1
  7
1055B&WFullFinalShaded.ctb
 75
    16
147
1.0
 76
     0
 77
     2
 78
   300
148
-75.74468520391772
149
-27.53050504688192
1001
ACAD_PSEXT
1000
DWF-BW_30x42.pc3
1000
DWF eView (optimized for viewing)
1000
File
1000

1070
     0
  0
PLOTSETTINGS
  5
127B
102
{ACAD_REACTORS
330
10BB
102
}
330
10BB
100
AcDbPlotSettings
  1
DWF BW 36x48
  2
DWF-BW_36x48.pc3
  4
UserDefinedImperial (48.00 x 36.00Inches)
  6

 40
0.0
 41
0.0
 42
0.0
 43
0.0
 44
1219.199951171875
 45
914.4000244140626
 46
556.9859689515058
 47
402.7166572627765
 48
0.0
 49
0.0
140
0.0
141
0.0
142
1.0
143
1.0
 70
  2740
 72
     0
 73
     0
 74
     1
  7
1055B&WFullFinalShaded.ctb
 75
    16
147
1.0
 76
     0
 77
     2
 78
   300
148
-75.74468520391772
149
-27.53050504688192
1001
ACAD_PSEXT
1000
DWF-BW_36x48.pc3
1000
DWF eView (optimized for viewing)
1000
File
1000

1070
     0
  0
PLOTSETTINGS
  5
127C
102
{ACAD_REACTORS
330
10BB
102
}
330
10BB
100
AcDbPlotSettings
  1
Laser5 11x17 Fit
  2
LaserJet5Shaded.pc3
  4
11x17
  6

 40
5.873749732971191
 41
5.027085304260253
 42
5.873748779296875
 43
5.027069091796875
 44
431.7999877929687
 45
279.3999938964844
 46
79.97401308328474
 47
0.0
 48
0.0
 49
0.0
140
0.0
141
0.0
142
1.0
143
0.4045605831172927
 70
  2740
 72
     0
 73
     0
 74
     1
  7
LaserJet5Shaded.ctb
 75
     0
147
2.471817675104729
 76
     0
 77
     2
 78
   300
148
-75.74468520391772
149
-27.53050504688192
1001
ACAD_PSEXT
1000
LaserJet5Shaded.pc3
1000
HP LaserJet 5Si
1000
\\aqua-srv01
1000

1070
     0
  0
PLOTSETTINGS
  5
127D
102
{ACAD_REACTORS
330
10BB
102
}
330
10BB
100
AcDbPlotSettings
  1
Laser5 11x17 Full
  2
LaserJet5Shaded.pc3
  4
11x17
  6

 40
5.873749732971191
 41
5.027085304260253
 42
5.873748779296875
 43
5.027069091796875
 44
431.7999877929687
 45
279.3999938964844
 46
157.4122380059187
 47
80.18956480595884
 48
0.0
 49
0.0
140
0.0
141
0.0
142
1.0
143
1.0
 70
  2724
 72
     0
 73
     0
 74
     1
  7
LaserJet5Shaded.ctb
 75
     0
147
2.433550528115671
 76
     0
 77
     2
 78
   300
148
-75.74468520391772
149
-27.53050504688192
1001
ACAD_PSEXT
1000
LaserJet5Shaded.pc3
1000
HP LaserJet 5Si
1000
\\aqua-srv01
1000

1070
     0
  0
PLOTSETTINGS
  5
127E
102
{ACAD_REACTORS
330
10BB
102
}
330
10BB
100
AcDbPlotSettings
  1
Laser5 11x17 Half
  2
LaserJet5Shaded.pc3
  4
11x17
  6

 40
5.873749732971191
 41
5.027085304260253
 42
5.873748779296875
 43
5.027069091796875
 44
431.7999877929687
 45
279.3999938964844
 46
183.7192413231345
 47
107.4312422780862
 48
0.0
 49
0.0
140
0.0
141
0.0
142
1.0
143
2.0
 70
  2740
 72
     0
 73
     0
 74
     1
  7
LaserJet5Shaded.ctb
 75
    17
147
0.5
 76
     0
 77
     2
 78
   300
148
-75.74468520391772
149
-27.53050504688192
1001
ACAD_PSEXT
1000
LaserJet5Shaded.pc3
1000
HP LaserJet 5Si
1000
\\aqua-srv01
1000

1070
     0
  0
PLOTSETTINGS
  5
127F
102
{ACAD_REACTORS
330
10BB
102
}
330
10BB
100
AcDbPlotSettings
  1
Laser5 8x11 Fit
  2
LaserJet5Shaded-8x11.pc3
  4
Letter
  6

 40
5.873749732971191
 41
5.027085304260253
 42
5.873748779296875
 43
5.027084350585937
 44
279.3999938964844
 45
215.8999938964844
 46
34.4346667826652
 47
0.0
 48
0.0
 49
0.0
140
0.0
141
0.0
142
1.0
143
0.5293607985003172
 70
  2740
 72
     0
 73
     0
 74
     1
  7
LaserJet5Shaded.ctb
 75
     0
147
1.889070748784206
 76
     0
 77
     2
 78
   300
148
-75.74468520391772
149
-27.53050504688192
1001
ACAD_PSEXT
1000
LaserJet5Shaded-8x11.pc3
1000
HP LaserJet 5Si
1000
\\aqua-srv01
1000

1070
     0
  0
PLOTSETTINGS
  5
1280
102
{ACAD_REACTORS
330
10BB
102
}
330
10BB
100
AcDbPlotSettings
  1
Laser5 8x11 Half
  2
LaserJet5Shaded-8x11.pc3
  4
Letter
  6

 40
5.873749732971191
 41
5.027085304260253
 42
5.873748779296875
 43
5.027084350585937
 44
279.3999938964844
 45
215.8999938964844
 46
107.5192443748923
 47
75.68123464869171
 48
0.0
 49
0.0
140
0.0
141
0.0
142
1.0
143
2.0
 70
  2740
 72
     0
 73
     0
 74
     1
  7
LaserJet5Shaded.ctb
 75
    17
147
0.5
 76
     0
 77
     2
 78
   300
148
-75.74468520391772
149
-27.53050504688192
1001
ACAD_PSEXT
1000
LaserJet5Shaded-8x11.pc3
1000
HP LaserJet 5Si
1000
\\aqua-srv01
1000

1070
     0
  0
PLOTSETTINGS
  5
1281
102
{ACAD_REACTORS
330
10BB
102
}
330
10BB
100
AcDbPlotSettings
  1
Laser5 8x11 Portrait Fit
  2
LaserJet5Shaded-8x11.pc3
  4
Letter
  6

 40
5.873749732971191
 41
5.027085304260253
 42
5.873748779296875
 43
5.027084350585937
 44
279.3999938964844
 45
215.8999938964844
 46
27.24653799736659
 47
0.0000000000000029
 48
0.0
 49
0.0
140
0.0
141
0.0
142
1.0
143
0.5111981924167587
 70
  2740
 72
     0
 73
     1
 74
     1
  7
LaserJet5Shaded.ctb
 75
     0
147
1.956188450652308
 76
     0
 77
     2
 78
   300
148
-75.74468520391772
149
-27.53050504688192
1001
ACAD_PSEXT
1000
LaserJet5Shaded-8x11.pc3
1000
HP LaserJet 5Si
1000
\\aqua-srv01
1000

1070
     0
  0
PLOTSETTINGS
  5
1282
102
{ACAD_REACTORS
330
10BB
102
}
330
10BB
100
AcDbPlotSettings
  1
LaserJet5 11x17
  2
LaserJet5Shaded.pc3
  4
11x17
  6

 40
7.111999988555908
 41
5.079999923706054
 42
7.11199951171875
 43
5.079986572265625
 44
279.3999938964844
 45
431.7999877929687
 46
0.0
 47
74.88489939702606
 48
0.0
 49
0.0
140
0.0
141
0.0
142
1.0
143
0.3551636250563743
 70
 11956
 72
     0
 73
     1
 74
     1
  7
LaserJet5Shaded.ctb
 75
     0
147
2.815603652658045
 76
     0
 77
     2
 78
   300
148
-119.4582094169044
149
-58.17053554795709
1001
ACAD_PSEXT
1000
LaserJet5Shaded.pc3
1000
HP LaserJet 5Si
1000
\\aqua-srv01
1000

1070
     0
  0
PLOTSETTINGS
  5
1283
102
{ACAD_REACTORS
330
10BB
102
}
330
10BB
100
AcDbPlotSettings
  1
LaserJet5 8.5x11
  2
LaserJet5Shaded-8x11.pc3
  4
Letter
  6

 40
5.873749732971191
 41
5.873734951019287
 42
6.55108642578125
 43
5.027084350585937
 44
279.3999938964844
 45
215.8999938964844
 46
28.40045128601757
 47
0.0000000000000046
 48
0.0
 49
0.0
140
0.0
141
0.0
142
1.0
143
0.4594207153946231
 70
 11956
 72
     0
 73
     0
 74
     1
  7
LaserJet5Shaded.ctb
 75
     0
147
2.176654135286525
 76
     0
 77
     2
 78
   300
148
-119.4582094169044
149
-58.17053554795709
1001
ACAD_PSEXT
1000
LaserJet5Shaded-8x11.pc3
1000
HP LaserJet 5Si
1000
CAD Area
1000

1070
     0
  0
PLOTSETTINGS
  5
1284
102
{ACAD_REACTORS
330
10BB
102
}
330
10BB
100
AcDbPlotSettings
  1
Oki9500 11x17 BW Fit
  2
OKI DOKI Color Laser.pc3
  4
Tabloid
  6

 40
5.027083396911621
 41
5.027085304260253
 42
5.027099609375
 43
5.027069091796875
 44
431.7999877929687
 45
279.3999938964844
 46
80.82067083627547
 47
0.0
 48
0.0
 49
0.0
140
0.0
141
0.0
142
1.0
143
0.4045605831172927
 70
  2740
 72
     0
 73
     0
 74
     1
  7
OKIB&WShaded.ctb
 75
     0
147
2.471817675104729
 76
     0
 77
     2
 78
   300
148
-75.74468520391772
149
-27.53050504688192
1001
ACAD_PSEXT
1000
OKI DOKI Color Laser.pc3
1000
OKI C9500(PCL)
1000
FRONT
1000

1070
     0
  0
PLOTSETTINGS
  5
1285
102
{ACAD_REACTORS
330
10BB
102
}
330
10BB
100
AcDbPlotSettings
  1
Oki9500 11x17 BW Full
  2
OKI DOKI Color Laser.pc3
  4
Tabloid
  6

 40
5.027083396911621
 41
5.027085304260253
 42
5.027099609375
 43
5.027069091796875
 44
431.7999877929687
 45
279.3999938964844
 46
158.2588957589094
 47
80.18956480595884
 48
0.0
 49
0.0
140
0.0
141
0.0
142
1.0
143
1.0
 70
  2724
 72
     0
 73
     0
 74
     1
  7
OKIB&WShaded.ctb
 75
     0
147
2.471817675104729
 76
     0
 77
     2
 78
   300
148
-75.74468520391772
149
-27.53050504688192
1001
ACAD_PSEXT
1000
OKI DOKI Color Laser.pc3
1000
OKI C9500(PCL)
1000
FRONT
1000

1070
     0
  0
PLOTSETTINGS
  5
1286
102
{ACAD_REACTORS
330
10BB
102
}
330
10BB
100
AcDbPlotSettings
  1
Oki9500 11x17 BW Half
  2
OKI DOKI Color Laser.pc3
  4
Tabloid
  6

 40
5.027083396911621
 41
5.027085304260253
 42
5.027099609375
 43
5.027069091796875
 44
431.7999877929687
 45
279.3999938964844
 46
184.5658990761252
 47
107.4312422780862
 48
0.0
 49
0.0
140
0.0
141
0.0
142
1.0
143
2.0
 70
  2740
 72
     0
 73
     0
 74
     1
  7
OKIB&WShaded.ctb
 75
    17
147
0.5
 76
     0
 77
     2
 78
   300
148
-75.74468520391772
149
-27.53050504688192
1001
ACAD_PSEXT
1000
OKI DOKI Color Laser.pc3
1000
OKI C9500(PCL)
1000
FRONT
1000

1070
     0
  0
PLOTSETTINGS
  5
1287
102
{ACAD_REACTORS
330
10BB
102
}
330
10BB
100
AcDbPlotSettings
  1
Oki9500 11x17 Color Fit
  2
OKI DOKI Color Laser.pc3
  4
Tabloid
  6

 40
5.027083396911621
 41
5.027085304260253
 42
5.027099609375
 43
5.027069091796875
 44
431.7999877929687
 45
279.3999938964844
 46
80.82067083627547
 47
0.0
 48
0.0
 49
0.0
140
0.0
141
0.0
142
1.0
143
0.4045605831172927
 70
  2740
 72
     0
 73
     0
 74
     1
  7
OKIColorShaded.ctb
 75
     0
147
2.471817675104729
 76
     0
 77
     2
 78
   300
148
-75.74468520391772
149
-27.53050504688192
1001
ACAD_PSEXT
1000
OKI DOKI Color Laser.pc3
1000
OKI C9500(PCL)
1000
FRONT
1000

1070
     0
  0
PLOTSETTINGS
  5
1288
102
{ACAD_REACTORS
330
10BB
102
}
330
10BB
100
AcDbPlotSettings
  1
Oki9500 11x17 Color Full
  2
OKI DOKI Color Laser.pc3
  4
Tabloid
  6

 40
5.027082920074462
 41
5.027085781097412
 42
5.027099609375
 43
5.027069091796875
 44
431.7999877929687
 45
279.3999938964844
 46
158.258895997328
 47
80.18956456754025
 48
0.0
 49
0.0
140
0.0
141
0.0
142
1.0
143
1.0
 70
  2724
 72
     0
 73
     0
 74
     1
  7
OKIColorShaded.ctb
 75
     0
147
2.471817675104729
 76
     0
 77
     2
 78
   300
148
-75.74468520391772
149
-27.53050504688192
1001
ACAD_PSEXT
1000
OKI DOKI Color Laser.pc3
1000
OKI C9600(PCL)
1000
FRONT
1000

1070
     0
  0
PLOTSETTINGS
  5
1289
102
{ACAD_REACTORS
330
10BB
102
}
330
10BB
100
AcDbPlotSettings
  1
Oki9500 11x17 Color Half
  2
OKI DOKI Color Laser.pc3
  4
Tabloid
  6

 40
5.027083396911621
 41
5.027085304260253
 42
5.027099609375
 43
5.027069091796875
 44
431.7999877929687
 45
279.3999938964844
 46
184.5658990761252
 47
107.4312422780862
 48
0.0
 49
0.0
140
0.0
141
0.0
142
1.0
143
2.0
 70
  2740
 72
     0
 73
     0
 74
     1
  7
OKIColorShaded.ctb
 75
    17
147
0.5
 76
     0
 77
     2
 78
   300
148
-75.74468520391772
149
-27.53050504688192
1001
ACAD_PSEXT
1000
OKI DOKI Color Laser.pc3
1000
OKI C9500(PCL)
1000
FRONT
1000

1070
     0
  0
PLOTSETTINGS
  5
128A
102
{ACAD_REACTORS
330
10BB
102
}
330
10BB
100
AcDbPlotSettings
  1
Oki9500 8x11 BW Fit
  2
OKI DOKI Color Laser8x11.pc3
  4
Letter
  6

 40
5.027083396911621
 41
5.027085304260253
 42
5.027099609375
 43
5.027084350585937
 44
279.3999938964844
 45
215.8999938964844
 46
35.28132453565591
 47
0.0
 48
0.0
 49
0.0
140
0.0
141
0.0
142
1.0
143
0.5293607985003172
 70
  2740
 72
     0
 73
     0
 74
     1
  7
OKIB&WShaded.ctb
 75
     0
147
1.889070748784206
 76
     0
 77
     2
 78
   300
148
-75.74468520391772
149
-27.53050504688192
1001
ACAD_PSEXT
1000
OKI DOKI Color Laser8x11.pc3
1000
OKI C9500(PCL)
1000
FRONT
1000

1070
     0
  0
PLOTSETTINGS
  5
128B
102
{ACAD_REACTORS
330
10BB
102
}
330
10BB
100
AcDbPlotSettings
  1
Oki9500 8x11 BW Portrait Fit
  2
OKI DOKI Color Laser8x11.pc3
  4
Letter
  6

 40
5.027083396911621
 41
5.027085304260253
 42
5.027099609375
 43
5.027084350585937
 44
279.3999938964844
 45
215.8999938964844
 46
28.0931957503573
 47
0.0000000000000029
 48
0.0
 49
0.0
140
0.0
141
0.0
142
1.0
143
0.5111981924167587
 70
  2740
 72
     0
 73
     1
 74
     1
  7
OKIB&WShaded.ctb
 75
     0
147
1.956188450652308
 76
     0
 77
     2
 78
   300
148
-75.74468520391772
149
-27.53050504688192
1001
ACAD_PSEXT
1000
OKI DOKI Color Laser8x11.pc3
1000
OKI C9500(PCL)
1000
FRONT
1000

1070
     0
  0
PLOTSETTINGS
  5
128C
102
{ACAD_REACTORS
330
10BB
102
}
330
10BB
100
AcDbPlotSettings
  1
Oki9500 8x11 Color Fit
  2
OKI DOKI Color Laser8x11.pc3
  4
Letter
  6

 40
5.027083396911621
 41
5.027085304260253
 42
5.027099609375
 43
5.027084350585937
 44
279.3999938964844
 45
215.8999938964844
 46
35.28132453565591
 47
0.0
 48
0.0
 49
0.0
140
0.0
141
0.0
142
1.0
143
0.5293607985003172
 70
  2740
 72
     0
 73
     0
 74
     1
  7
OKIColorShaded.ctb
 75
     0
147
1.889070748784206
 76
     0
 77
     2
 78
   300
148
-75.74468520391772
149
-27.53050504688192
1001
ACAD_PSEXT
1000
OKI DOKI Color Laser8x11.pc3
1000
OKI C9500(PCL)
1000
FRONT
1000

1070
     0
  0
PLOTSETTINGS
  5
128D
102
{ACAD_REACTORS
330
10BB
102
}
330
10BB
100
AcDbPlotSettings
  1
Oki9500 8x11 Color Portrait Fit
  2
OKI DOKI Color Laser8x11.pc3
  4
Letter
  6

 40
5.027083396911621
 41
5.027085304260253
 42
5.027099609375
 43
5.027084350585937
 44
279.3999938964844
 45
215.8999938964844
 46
28.0931957503573
 47
0.0000000000000029
 48
0.0
 49
0.0
140
0.0
141
0.0
142
1.0
143
0.5111981924167587
 70
  2740
 72
     0
 73
     1
 74
     1
  7
OKIColorShaded.ctb
 75
     0
147
1.956188450652308
 76
     0
 77
     2
 78
   300
148
-75.74468520391772
149
-27.53050504688192
1001
ACAD_PSEXT
1000
OKI DOKI Color Laser8x11.pc3
1000
OKI C9500(PCL)
1000
FRONT
1000

1070
     0
  0
PLOTSETTINGS
  5
128E
102
{ACAD_REACTORS
330
10BB
102
}
330
10BB
100
AcDbPlotSettings
  1
OKI9500 B&W 11x17
  2
OKI DOKI Color Laser.pc3
  4
11x17
  6

 40
5.873749732971191
 41
5.873734951019287
 42
5.873748779296875
 43
5.027069091796875
 44
431.7999877929687
 45
279.3999938964844
 46
72.38759962724653
 47
0.0000000000000057
 48
0.0
 49
0.0
140
0.0
141
0.0
142
1.0
143
0.3507677900220671
 70
 11956
 72
     0
 73
     0
 74
     1
  7
OKIB&WShaded.ctb
 75
     0
147
2.850888902704233
 76
     0
 77
     2
 78
   300
148
-119.4582094169044
149
-58.17053554795709
1001
ACAD_PSEXT
1000
OKI DOKI Color Laser.pc3
1000
HP LaserJet 5Si
1000
CAD Area
1000

1070
     0
  0
PLOTSETTINGS
  5
128F
102
{ACAD_REACTORS
330
10BB
102
}
330
10BB
100
AcDbPlotSettings
  1
OKI9500 B&W 8.5x11
  2
OKI DOKI Color Laser8x11.pc3
  4
Letter
  6

 40
5.873749732971191
 41
5.873734951019287
 42
6.55108642578125
 43
5.027084350585937
 44
279.3999938964844
 45
215.8999938964844
 46
28.40045128601757
 47
0.0000000000000046
 48
0.0
 49
0.0
140
0.0
141
0.0
142
1.0
143
0.4594207153946231
 70
 11956
 72
     0
 73
     0
 74
     1
  7
OKIB&WShaded.ctb
 75
     0
147
2.176654135286525
 76
     0
 77
     2
 78
   300
148
-119.4582094169044
149
-58.17053554795709
1001
ACAD_PSEXT
1000
OKI DOKI Color Laser8x11.pc3
1000
HP LaserJet 5Si
1000
CAD Area
1000

1070
     0
  0
PLOTSETTINGS
  5
1290
102
{ACAD_REACTORS
330
10BB
102
}
330
10BB
100
AcDbPlotSettings
  1
OKI9500 Color 11x17
  2
OKI DOKI Color Laser.pc3
  4
Tabloid
  6

 40
5.027083396911621
 41
5.027085304260253
 42
5.027099609375
 43
5.027069091796875
 44
431.7999877929687
 45
279.3999938964844
 46
72.80024597690952
 47
0.0
 48
0.0
 49
0.0
140
0.0
141
0.0
142
1.0
143
0.349665202263268
 70
 11956
 72
     0
 73
     0
 74
     1
  7
OKIColorShaded.ctb
 75
     0
147
2.859878516727796
 76
     0
 77
     2
 78
   300
148
-119.4582094169044
149
-58.17053554795709
1001
ACAD_PSEXT
1000
OKI DOKI Color Laser.pc3
1000
OKI C9500(PCL)
1000
FRONT
1000

1070
     0
  0
PLOTSETTINGS
  5
1291
102
{ACAD_REACTORS
330
10BB
102
}
330
10BB
100
AcDbPlotSettings
  1
OKI9500 Color 8.5x11
  2
OKI DOKI Color Laser8x11.pc3
  4
Letter
  6

 40
5.873749732971191
 41
5.873734951019287
 42
6.55108642578125
 43
5.027084350585937
 44
279.3999938964844
 45
215.8999938964844
 46
28.40045128601757
 47
0.0000000000000046
 48
0.0
 49
0.0
140
0.0
141
0.0
142
1.0
143
0.4594207153946231
 70
 11956
 72
     0
 73
     0
 74
     1
  7
OKIColorShaded.ctb
 75
     0
147
2.176654135286525
 76
     0
 77
     2
 78
   300
148
-119.4582094169044
149
-58.17053554795709
1001
ACAD_PSEXT
1000
OKI DOKI Color Laser8x11.pc3
1000
HP LaserJet 5Si
1000
CAD Area
1000

1070
     0
  0
PLOTSETTINGS
  5
1292
102
{ACAD_REACTORS
330
10BB
102
}
330
10BB
100
AcDbPlotSettings
  1
Oki9600 11x17 BW Fit
  2
9600 BW 11x17.pc3
  4
Tabloid
  6

 40
5.027082920074462
 41
5.027085781097412
 42
5.027099609375
 43
5.027069091796875
 44
431.7999877929687
 45
279.3999938964844
 46
80.82067130493244
 47
0.000000000000007
 48
0.0
 49
0.0
140
0.0
141
0.0
142
1.0
143
0.4045605838335077
 70
  2804
 72
     0
 73
     0
 74
     1
  7
OKIB&WShaded.ctb
 75
     0
147
2.47181767072874
 76
     0
 77
     2
 78
   300
148
-75.74468520391772
149
-27.53050504688192
1001
ACAD_PSEXT
1000
9600 BW 11x17.pc3
1000
OKI C9600(PCL)
1000
Expansion Area
1000

1070
     0
  0
PLOTSETTINGS
  5
1293
102
{ACAD_REACTORS
330
10BB
102
}
330
10BB
100
AcDbPlotSettings
  1
Oki9600 11x17 BW Full
  2
9600 BW 11x17.pc3
  4
Tabloid
  6

 40
5.027082920074462
 41
5.027085781097412
 42
5.027099609375
 43
5.027069091796875
 44
431.7999877929687
 45
279.3999938964844
 46
158.258895997328
 47
80.18956456754025
 48
0.0
 49
0.0
140
0.0
141
0.0
142
1.0
143
1.0
 70
  2788
 72
     0
 73
     0
 74
     1
  7
OKIB&WShaded.ctb
 75
     0
147
2.47181767072874
 76
     0
 77
     2
 78
   300
148
-75.74468520391772
149
-27.53050504688192
1001
ACAD_PSEXT
1000
9600 BW 11x17.pc3
1000
OKI C9600(PCL)
1000
Expansion Area
1000

1070
     0
  0
PLOTSETTINGS
  5
1294
102
{ACAD_REACTORS
330
10BB
102
}
330
10BB
100
AcDbPlotSettings
  1
Oki9600 11x17 BW Half
  2
9600 BW 11x17.pc3
  4
Tabloid
  6

 40
5.027082920074462
 41
5.027085781097412
 42
5.027099609375
 43
5.027069091796875
 44
431.7999877929687
 45
279.3999938964844
 46
184.5658993145439
 47
107.4312420396676
 48
0.0
 49
0.0
140
0.0
141
0.0
142
1.0
143
2.0
 70
  2788
 72
     0
 73
     0
 74
     1
  7
OKIB&WShaded.ctb
 75
     0
147
2.47181767072874
 76
     0
 77
     2
 78
   300
148
-75.74468520391772
149
-27.53050504688192
1001
ACAD_PSEXT
1000
9600 BW 11x17.pc3
1000
OKI C9600(PCL)
1000
Expansion Area
1000

1070
     0
  0
PLOTSETTINGS
  5
1295
102
{ACAD_REACTORS
330
10BB
102
}
330
10BB
100
AcDbPlotSettings
  1
Oki9600 11x17 Color Fit
  2
9600 Color 11x17.pc3
  4
Tabloid
  6

 40
5.027082920074462
 41
5.027085781097412
 42
5.027099609375
 43
5.027069091796875
 44
431.7999877929687
 45
279.3999938964844
 46
80.82067130493244
 47
0.000000000000007
 48
0.0
 49
0.0
140
0.0
141
0.0
142
1.0
143
0.4045605838335077
 70
  2804
 72
     0
 73
     0
 74
     1
  7
OKIColorShaded.ctb
 75
     0
147
2.47181767072874
 76
     0
 77
     2
 78
   300
148
-75.74468520391772
149
-27.53050504688192
1001
ACAD_PSEXT
1000
9600 Color 11x17.pc3
1000
OKI C9600(PCL)
1000
Expansion Area
1000

1070
     0
  0
PLOTSETTINGS
  5
1296
102
{ACAD_REACTORS
330
10BB
102
}
330
10BB
100
AcDbPlotSettings
  1
Oki9600 11x17 Color Full
  2
9600 Color 11x17.pc3
  4
Tabloid
  6

 40
5.027082920074462
 41
5.027085781097412
 42
5.027099609375
 43
5.027069091796875
 44
431.7999877929687
 45
279.3999938964844
 46
158.258895997328
 47
80.18956456754025
 48
0.0
 49
0.0
140
0.0
141
0.0
142
1.0
143
1.0
 70
  2788
 72
     0
 73
     0
 74
     1
  7
OKIColorShaded.ctb
 75
     0
147
2.47181767072874
 76
     0
 77
     2
 78
   300
148
-75.74468520391772
149
-27.53050504688192
1001
ACAD_PSEXT
1000
9600 Color 11x17.pc3
1000
OKI C9600(PCL)
1000
Expansion Area
1000

1070
     0
  0
PLOTSETTINGS
  5
1297
102
{ACAD_REACTORS
330
10BB
102
}
330
10BB
100
AcDbPlotSettings
  1
Oki9600 11x17 Color Half
  2
9600 Color 11x17.pc3
  4
Tabloid
  6

 40
5.027082920074462
 41
5.027085781097412
 42
5.027099609375
 43
5.027069091796875
 44
431.7999877929687
 45
279.3999938964844
 46
184.5658993145439
 47
107.4312420396676
 48
0.0
 49
0.0
140
0.0
141
0.0
142
1.0
143
2.0
 70
  2788
 72
     0
 73
     0
 74
     1
  7
OKIColorShaded.ctb
 75
     0
147
2.47181767072874
 76
     0
 77
     2
 78
   300
148
-75.74468520391772
149
-27.53050504688192
1001
ACAD_PSEXT
1000
9600 Color 11x17.pc3
1000
OKI C9600(PCL)
1000
Expansion Area
1000

1070
     0
  0
PLOTSETTINGS
  5
1298
102
{ACAD_REACTORS
330
10BB
102
}
330
10BB
100
AcDbPlotSettings
  1
Oki9600 8x11 BW Fit
  2
9600 BW 8.5x11.pc3
  4
Letter
  6

 40
5.027082920074462
 41
5.027070522308349
 42
5.027099609375
 43
5.027084350585937
 44
279.3999938964844
 45
215.8999938964844
 46
35.28131763668624
 47
0.0000000000000033
 48
0.0
 49
0.0
140
0.0
141
0.0
142
1.0
143
0.5293607604865011
 70
  2804
 72
     0
 73
     0
 74
     1
  7
OKIB&WShaded.ctb
 75
     0
147
1.889070884439876
 76
     0
 77
     2
 78
   300
148
-75.74468520391772
149
-27.53050504688192
1001
ACAD_PSEXT
1000
9600 BW 8.5x11.pc3
1000
OKI C9600(PCL)
1000
Expansion Area
1000

1070
     0
  0
PLOTSETTINGS
  5
1299
102
{ACAD_REACTORS
330
10BB
102
}
330
10BB
100
AcDbPlotSettings
  1
Oki9600 8x11 BW Portrait Fit
  2
9600 BW 8.5x11.pc3
  4
Letter
  6

 40
5.027082920074462
 41
5.027070522308349
 42
5.027099609375
 43
5.027084350585937
 44
279.3999938964844
 45
215.8999938964844
 46
28.09318833520237
 47
-0.0000000000000029
 48
0.0
 49
0.0
140
0.0
141
0.0
142
1.0
143
0.5111981557072135
 70
  2804
 72
     0
 73
     1
 74
     1
  7
OKIB&WShaded.ctb
 75
     0
147
1.956188591127753
 76
     0
 77
     2
 78
   300
148
-75.74468520391772
149
-27.53050504688192
1001
ACAD_PSEXT
1000
9600 BW 8.5x11.pc3
1000
OKI C9600(PCL)
1000
Expansion Area
1000

1070
     0
  0
PLOTSETTINGS
  5
129A
102
{ACAD_REACTORS
330
10BB
102
}
330
10BB
100
AcDbPlotSettings
  1
Oki9600 8x11 Color Fit
  2
9600 Color 8.5x11.pc3
  4
Letter
  6

 40
5.027082920074462
 41
5.027070522308349
 42
5.027099609375
 43
5.027084350585937
 44
279.3999938964844
 45
215.8999938964844
 46
35.28131763668624
 47
0.0000000000000033
 48
0.0
 49
0.0
140
0.0
141
0.0
142
1.0
143
0.5293607604865011
 70
  2804
 72
     0
 73
     0
 74
     1
  7
OKIColorShaded.ctb
 75
     0
147
1.889070884439876
 76
     0
 77
     2
 78
   300
148
-75.74468520391772
149
-27.53050504688192
1001
ACAD_PSEXT
1000
9600 Color 8.5x11.pc3
1000
OKI C9600(PCL)
1000
Expansion Area
1000

1070
     0
  0
PLOTSETTINGS
  5
129B
102
{ACAD_REACTORS
330
10BB
102
}
330
10BB
100
AcDbPlotSettings
  1
Oki9600 8x11 Color Portrait Fit
  2
9600 Color 8.5x11.pc3
  4
Letter
  6

 40
5.027082920074462
 41
5.027070522308349
 42
5.027099609375
 43
5.027084350585937
 44
279.3999938964844
 45
215.8999938964844
 46
28.09318833520237
 47
-0.0000000000000029
 48
0.0
 49
0.0
140
0.0
141
0.0
142
1.0
143
0.5111981557072135
 70
  2804
 72
     0
 73
     1
 74
     1
  7
OKIColorShaded.ctb
 75
     0
147
1.956188591127753
 76
     0
 77
     2
 78
   300
148
-75.74468520391772
149
-27.53050504688192
1001
ACAD_PSEXT
1000
9600 Color 8.5x11.pc3
1000
OKI C9600(PCL)
1000
Expansion Area
1000

1070
     0
  0
PLOTSETTINGS
  5
129C
102
{ACAD_REACTORS
330
10BB
102
}
330
10BB
100
AcDbPlotSettings
  1
OKI9600 B&W 11x17
  2
9600 BW 11x17.pc3
  4
Tabloid
  6

 40
5.027082920074462
 41
5.027085781097412
 42
5.027099609375
 43
5.027069091796875
 44
431.7999877929687
 45
279.3999938964844
 46
72.80024645976547
 47
-0.0000000000000027
 48
0.0
 49
0.0
140
0.0
141
0.0
142
1.0
143
0.3496652028822988
 70
 11956
 72
     0
 73
     0
 74
     1
  7
OKIB&WShaded.ctb
 75
     0
147
2.859878511664802
 76
     0
 77
     2
 78
   300
148
-119.4582094169044
149
-58.17053554795709
1001
ACAD_PSEXT
1000
9600 BW 11x17.pc3
1000
OKI C9600(PCL)
1000
Expansion Area
1000

1070
     0
  0
PLOTSETTINGS
  5
129D
102
{ACAD_REACTORS
330
10BB
102
}
330
10BB
100
AcDbPlotSettings
  1
OKI9600 B&W 8.5x11
  2
9600 BW 8.5x11.pc3
  4
Letter
  6

 40
5.027082920074462
 41
5.027070522308349
 42
5.027099609375
 43
5.027084350585937
 44
279.3999938964844
 45
215.8999938964844
 46
29.15175911978468
 47
0.0000000000000065
 48
0.0
 49
0.0
140
0.0
141
0.0
142
1.0
143
0.4575310722549676
 70
 11956
 72
     0
 73
     0
 74
     1
  7
OKIB&WShaded.ctb
 75
     0
147
2.185643906262899
 76
     0
 77
     2
 78
   300
148
-119.4582094169044
149
-58.17053554795709
1001
ACAD_PSEXT
1000
9600 BW 8.5x11.pc3
1000
OKI C9600(PCL)
1000
Expansion Area
1000

1070
     0
  0
PLOTSETTINGS
  5
129E
102
{ACAD_REACTORS
330
10BB
102
}
330
10BB
100
AcDbPlotSettings
  1
OKI9600 Color 11x17
  2
9600 Color 11x17.pc3
  4
Tabloid
  6

 40
5.027082920074462
 41
5.027085781097412
 42
5.027099609375
 43
5.027069091796875
 44
431.7999877929687
 45
279.3999938964844
 46
72.80024645976547
 47
-0.0000000000000027
 48
0.0
 49
0.0
140
0.0
141
0.0
142
1.0
143
0.3496652028822988
 70
 11956
 72
     0
 73
     0
 74
     1
  7
OKIColorShaded.ctb
 75
     0
147
2.859878511664802
 76
     0
 77
     2
 78
   300
148
-119.4582094169044
149
-58.17053554795709
1001
ACAD_PSEXT
1000
9600 Color 11x17.pc3
1000
OKI C9600(PCL)
1000
Expansion Area
1000

1070
     0
  0
PLOTSETTINGS
  5
129F
102
{ACAD_REACTORS
330
10BB
102
}
330
10BB
100
AcDbPlotSettings
  1
OKI9600 Color 8.5x11
  2
9600 Color 8.5x11.pc3
  4
Letter
  6

 40
5.027082920074462
 41
5.027070522308349
 42
5.027099609375
 43
5.027084350585937
 44
279.3999938964844
 45
215.8999938964844
 46
29.15175911978468
 47
0.0000000000000065
 48
0.0
 49
0.0
140
0.0
141
0.0
142
1.0
143
0.4575310722549676
 70
 11956
 72
     0
 73
     0
 74
     1
  7
OKIColorShaded.ctb
 75
     0
147
2.185643906262899
 76
     0
 77
     2
 78
   300
148
-119.4582094169044
149
-58.17053554795709
1001
ACAD_PSEXT
1000
9600 Color 8.5x11.pc3
1000
OKI C9600(PCL)
1000
Expansion Area
1000

1070
     0
  0
PLOTSETTINGS
  5
12A0
102
{ACAD_REACTORS
330
10BB
102
}
330
10BB
100
AcDbPlotSettings
  1
PHX Kyocera 11x17 Fit
  2
PHX_Kyocera.pc3
  4
Tabloid
  6

 40
4.984749794006347
 41
5.069418907165527
 42
5.069427490234375
 43
4.9847412109375
 44
431.7999877929687
 45
279.3999938964844
 46
80.8206764601584
 47
-0.0000000000000226
 48
0.0
 49
0.0
140
0.0
141
0.0
142
1.0
143
0.4045605917118723
 70
  2740
 72
     0
 73
     0
 74
     1
  7
LaserJet5Shaded.ctb
 75
     0
147
2.471817622592858
 76
     0
 77
     2
 78
   300
148
-75.74468520391772
149
-27.53050504688192
1001
ACAD_PSEXT
1000
PHX_Kyocera.pc3
1000
Kyocera Mita KM-2050 KX
1000
Arizona
1000

1070
     0
  0
PLOTSETTINGS
  5
12A1
102
{ACAD_REACTORS
330
10BB
102
}
330
10BB
100
AcDbPlotSettings
  1
PHX Oki9500 11x17 BW Fit
  2
PHX OKI BW.pc3
  4
Tabloid
  6

 40
5.027082920074462
 41
5.027085781097412
 42
5.027099609375
 43
5.027069091796875
 44
431.7999877929687
 45
279.3999938964844
 46
80.82067130493246
 47
0.0
 48
0.0
 49
0.0
140
0.0
141
0.0
142
1.0
143
0.4045605838335077
 70
  2740
 72
     0
 73
     0
 74
     1
  7
OKIB&WShaded.ctb
 75
     0
147
2.47181767072874
 76
     0
 77
     2
 78
   300
148
-75.74468520391772
149
-27.53050504688192
1001
ACAD_PSEXT
1000
PHX OKI BW.pc3
1000
OKI C9500(PCL)
1000
Arizona
1000

1070
     0
  0
PLOTSETTINGS
  5
12A2
102
{ACAD_REACTORS
330
10BB
102
}
330
10BB
100
AcDbPlotSettings
  1
PHX Oki9500 11x17 BW Half
  2
PHX OKI BW.pc3
  4
Tabloid
  6

 40
5.027082920074462
 41
5.027085781097412
 42
5.027099609375
 43
5.027069091796875
 44
431.7999877929687
 45
279.3999938964844
 46
184.5658993145439
 47
107.4312420396676
 48
0.0
 49
0.0
140
0.0
141
0.0
142
1.0
143
2.0
 70
  2724
 72
     0
 73
     0
 74
     1
  7
OKIB&WShaded.ctb
 75
     0
147
2.47181767072874
 76
     0
 77
     2
 78
   300
148
-75.74468520391772
149
-27.53050504688192
1001
ACAD_PSEXT
1000
PHX OKI BW.pc3
1000
OKI C9500(PCL)
1000
Arizona
1000

1070
     0
  0
ACDBPLACEHOLDER
  5
10B2
102
{ACAD_REACTORS
330
10B1
102
}
330
10B1
  0
SCALE
  5
1220
102
{ACAD_REACTORS
330
121F
102
}
330
121F
100
AcDbScale
 70
     0
300
1:1
140
1.0
141
1.0
290
     1
  0
SCALE
  5
1221
102
{ACAD_REACTORS
330
121F
102
}
330
121F
100
AcDbScale
 70
     0
300
1:2
140
1.0
141
2.0
290
     0
  0
SCALE
  5
1222
102
{ACAD_REACTORS
330
121F
102
}
330
121F
100
AcDbScale
 70
     0
300
1:4
140
1.0
141
4.0
290
     0
  0
SCALE
  5
1223
102
{ACAD_REACTORS
330
121F
102
}
330
121F
100
AcDbScale
 70
     0
300
1:5
140
1.0
141
5.0
290
     0
  0
SCALE
  5
1224
102
{ACAD_REACTORS
330
121F
102
}
330
121F
100
AcDbScale
 70
     0
300
1:8
140
1.0
141
8.0
290
     0
  0
SCALE
  5
1225
102
{ACAD_REACTORS
330
121F
102
}
330
121F
100
AcDbScale
 70
     0
300
1:10
140
1.0
141
10.0
290
     0
  0
SCALE
  5
1226
102
{ACAD_REACTORS
330
121F
102
}
330
121F
100
AcDbScale
 70
     0
300
1:16
140
1.0
141
16.0
290
     0
  0
SCALE
  5
1227
102
{ACAD_REACTORS
330
121F
102
}
330
121F
100
AcDbScale
 70
     0
300
1:20
140
1.0
141
20.0
290
     0
  0
SCALE
  5
1228
102
{ACAD_REACTORS
330
121F
102
}
330
121F
100
AcDbScale
 70
     0
300
1:30
140
1.0
141
30.0
290
     0
  0
SCALE
  5
1229
102
{ACAD_REACTORS
330
121F
102
}
330
121F
100
AcDbScale
 70
     0
300
1:40
140
1.0
141
40.0
290
     0
  0
SCALE
  5
122A
102
{ACAD_REACTORS
330
121F
102
}
330
121F
100
AcDbScale
 70
     0
300
1:50
140
1.0
141
50.0
290
     0
  0
SCALE
  5
122B
102
{ACAD_REACTORS
330
121F
102
}
330
121F
100
AcDbScale
 70
     0
300
1:100
140
1.0
141
100.0
290
     0
  0
SCALE
  5
122C
102
{ACAD_REACTORS
330
121F
102
}
330
121F
100
AcDbScale
 70
     0
300
2:1
140
2.0
141
1.0
290
     0
  0
SCALE
  5
122D
102
{ACAD_REACTORS
330
121F
102
}
330
121F
100
AcDbScale
 70
     0
300
4:1
140
4.0
141
1.0
290
     0
  0
SCALE
  5
122E
102
{ACAD_REACTORS
330
121F
102
}
330
121F
100
AcDbScale
 70
     0
300
8:1
140
8.0
141
1.0
290
     0
  0
SCALE
  5
122F
102
{ACAD_REACTORS
330
121F
102
}
330
121F
100
AcDbScale
 70
     0
300
10:1
140
10.0
141
1.0
290
     0
  0
SCALE
  5
1230
102
{ACAD_REACTORS
330
121F
102
}
330
121F
100
AcDbScale
 70
     0
300
100:1
140
100.0
141
1.0
290
     0
  0
SCALE
  5
1231
102
{ACAD_REACTORS
330
121F
102
}
330
121F
100
AcDbScale
 70
     0
300
1/128" = 1'-0"
140
0.0078125
141
12.0
290
     0
  0
SCALE
  5
1232
102
{ACAD_REACTORS
330
121F
102
}
330
121F
100
AcDbScale
 70
     0
300
1/64" = 1'-0"
140
0.015625
141
12.0
290
     0
  0
SCALE
  5
1233
102
{ACAD_REACTORS
330
121F
102
}
330
121F
100
AcDbScale
 70
     0
300
1/32" = 1'-0"
140
0.03125
141
12.0
290
     0
  0
SCALE
  5
1234
102
{ACAD_REACTORS
330
121F
102
}
330
121F
100
AcDbScale
 70
     0
300
1/16" = 1'-0"
140
0.0625
141
12.0
290
     0
  0
SCALE
  5
1235
102
{ACAD_REACTORS
330
121F
102
}
330
121F
100
AcDbScale
 70
     0
300
3/32" = 1'-0"
140
0.09375
141
12.0
290
     0
  0
SCALE
  5
1236
102
{ACAD_REACTORS
330
121F
102
}
330
121F
100
AcDbScale
 70
     0
300
1/8" = 1'-0"
140
0.125
141
12.0
290
     0
  0
SCALE
  5
1237
102
{ACAD_REACTORS
330
121F
102
}
330
121F
100
AcDbScale
 70
     0
300
3/16" = 1'-0"
140
0.1875
141
12.0
290
     0
  0
SCALE
  5
1238
102
{ACAD_REACTORS
330
121F
102
}
330
121F
100
AcDbScale
 70
     0
300
1/4" = 1'-0"
140
0.25
141
12.0
290
     0
  0
SCALE
  5
1239
102
{ACAD_REACTORS
330
121F
102
}
330
121F
100
AcDbScale
 70
     0
300
3/8" = 1'-0"
140
0.375
141
12.0
290
     0
  0
SCALE
  5
123A
102
{ACAD_REACTORS
330
121F
102
}
330
121F
100
AcDbScale
 70
     0
300
1/2" = 1'-0"
140
0.5
141
12.0
290
     0
  0
SCALE
  5
123B
102
{ACAD_REACTORS
330
121F
102
}
330
121F
100
AcDbScale
 70
     0
300
3/4" = 1'-0"
140
0.75
141
12.0
290
     0
  0
SCALE
  5
123C
102
{ACAD_REACTORS
330
121F
102
}
330
121F
100
AcDbScale
 70
     0
300
1" = 1'-0"
140
1.0
141
12.0
290
     0
  0
SCALE
  5
123D
102
{ACAD_REACTORS
330
121F
102
}
330
121F
100
AcDbScale
 70
     0
300
1-1/2" = 1'-0"
140
1.5
141
12.0
290
     0
  0
SCALE
  5
123E
102
{ACAD_REACTORS
330
121F
102
}
330
121F
100
AcDbScale
 70
     0
300
3" = 1'-0"
140
3.0
141
12.0
290
     0
  0
SCALE
  5
123F
102
{ACAD_REACTORS
330
121F
102
}
330
121F
100
AcDbScale
 70
     0
300
6" = 1'-0"
140
6.0
141
12.0
290
     0
  0
SCALE
  5
1240
102
{ACAD_REACTORS
330
121F
102
}
330
121F
100
AcDbScale
 70
     0
300
1'-0" = 1'-0"
140
12.0
141
12.0
290
     0
  0
TABLESTYLE
  5
121E
102
{ACAD_XDICTIONARY
360
12BA
102
}
102
{ACAD_REACTORS
330
121D
102
}
330
121D
100
AcDbTableStyle
  3
Standard
 70
     0
 71
     0
 40
0.06
 41
0.06
280
     0
281
     0
  7
STANDARD
140
0.18
170
     2
 62
     0
 63
     7
283
     0
274
    -2
284
     1
 64
     0
275
    -2
285
     1
 65
     0
276
    -2
286
     1
 66
     0
277
    -2
287
     1
 67
     0
278
    -2
288
     1
 68
     0
279
    -2
289
     1
 69
     0
  7
STANDARD
140
0.25
170
     5
 62
     0
 63
     7
283
     0
274
    -2
284
     1
 64
     0
275
    -2
285
     1
 65
     0
276
    -2
286
     1
 66
     0
277
    -2
287
     1
 67
     0
278
    -2
288
     1
 68
     0
279
    -2
289
     1
 69
     0
  7
STANDARD
140
0.18
170
     5
 62
     0
 63
     7
283
     0
274
    -2
284
     1
 64
     0
275
    -2
285
     1
 65
     0
276
    -2
286
     1
 66
     0
277
    -2
287
     1
 67
     0
278
    -2
288
     1
 68
     0
279
    -2
289
     1
 69
     0
  0
VISUALSTYLE
  5
1211
102
{ACAD_REACTORS
330
120B
102
}
330
120B
100
AcDbVisualStyle
  2
2dWireframe
 70
     4
 71
     0
 72
     2
 73
     0
 90
        0
 40
-0.6
 41
-30.0
 62
     5
 63
     7
421
 16777215
 74
     1
 91
        4
 64
     7
 65
   257
 75
     1
175
     1
 42
1.0
 92
        0
 66
   257
 43
1.0
 76
     1
 77
     6
 78
     2
 67
     7
 79
     5
170
     0
171
     0
290
     0
174
     0
 93
        1
 44
0.0
173
     0
291
     0
 45
0.0
1001
ACAD
1000
AcDbSavedByObjectVersion
1070
     0
  0
VISUALSTYLE
  5
1213
102
{ACAD_REACTORS
330
120B
102
}
330
120B
100
AcDbVisualStyle
  2
3D Hidden
 70
     6
 71
     1
 72
     2
 73
     2
 90
        0
 40
-0.6
 41
-30.0
 62
     5
 63
     7
421
 16777215
 74
     2
 91
        2
 64
     7
 65
   257
 75
     2
175
     1
 42
40.0
 92
        0
 66
   257
 43
1.0
 76
     1
 77
     6
 78
     2
 67
     7
 79
     3
170
     0
171
     0
290
     0
174
     0
 93
        1
 44
0.0
173
     0
291
     0
 45
0.0
1001
ACAD
1000
AcDbSavedByObjectVersion
1070
     0
  0
VISUALSTYLE
  5
1212
102
{ACAD_REACTORS
330
120B
102
}
330
120B
100
AcDbVisualStyle
  2
3dWireframe
 70
     5
 71
     0
 72
     2
 73
     0
 90
        0
 40
-0.6
 41
-30.0
 62
     5
 63
     7
421
 16777215
 74
     1
 91
        4
 64
     7
 65
   257
 75
     1
175
     1
 42
1.0
 92
        0
 66
   257
 43
1.0
 76
     1
 77
     6
 78
     2
 67
     7
 79
     5
170
     0
171
     0
290
     0
174
     0
 93
        1
 44
0.0
173
     0
291
     0
 45
0.0
1001
ACAD
1000
AcDbSavedByObjectVersion
1070
     0
  0
VISUALSTYLE
  5
1210
102
{ACAD_REACTORS
330
120B
102
}
330
120B
100
AcDbVisualStyle
  2
Basic
 70
     7
 71
     1
 72
     0
 73
     1
 90
        0
 40
-0.6
 41
-30.0
 62
     5
 63
     7
421
 16777215
 74
     0
 91
        4
 64
     7
 65
   257
 75
     1
175
     1
 42
1.0
 92
        8
 66
     7
 43
1.0
 76
     1
 77
     6
 78
     2
 67
     7
 79
     5
170
     0
171
     0
290
     0
174
     0
 93
        1
 44
0.0
173
     0
291
     1
 45
0.0
1001
ACAD
1000
AcDbSavedByObjectVersion
1070
     0
  0
VISUALSTYLE
  5
1217
102
{ACAD_REACTORS
330
120B
102
}
330
120B
100
AcDbVisualStyle
  2
Brighten
 70
    12
 71
     2
 72
     2
 73
     0
 90
        0
 40
-0.6
 41
-30.0
 62
     5
 63
     7
421
 16777215
 74
     1
 91
        4
 64
     7
 65
   257
 75
     1
175
     1
 42
1.0
 92
        8
 66
     7
 43
1.0
 76
     1
 77
     6
 78
     2
 67
     7
 79
     5
170
     0
171
     0
290
     0
174
     0
 93
        1
 44
50.0
173
     0
291
     1
 45
0.0
1001
ACAD
1000
AcDbSavedByObjectVersion
1070
     0
  0
VISUALSTYLE
  5
121B
102
{ACAD_REACTORS
330
120B
102
}
330
120B
100
AcDbVisualStyle
  2
ColorChange
 70
    16
 71
     2
 72
     2
 73
     3
 90
        0
 40
-0.6
 41
-30.0
 62
     5
 63
     8
421
  8421504
 74
     1
 91
        4
 64
     7
 65
   257
 75
     1
175
     1
 42
1.0
 92
        8
 66
     8
424
  8421504
 43
1.0
 76
     1
 77
     6
 78
     2
 67
     7
 79
     5
170
     0
171
     0
290
     0
174
     0
 93
        1
 44
0.0
173
     0
291
     1
 45
0.0
1001
ACAD
1000
AcDbSavedByObjectVersion
1070
     0
  0
VISUALSTYLE
  5
1214
102
{ACAD_REACTORS
330
120B
102
}
330
120B
100
AcDbVisualStyle
  2
Conceptual
 70
     9
 71
     3
 72
     2
 73
     0
 90
        0
 40
-0.6
 41
-30.0
 62
     5
 63
     7
421
 16777215
 74
     2
 91
        2
 64
     7
 65
   257
 75
     1
175
     1
 42
40.0
 92
        8
 66
     7
 43
1.0
 76
     1
 77
     6
 78
     2
 67
     7
 79
     3
170
     0
171
     0
290
     0
174
     0
 93
        1
 44
0.0
173
     0
291
     0
 45
0.0
1001
ACAD
1000
AcDbSavedByObjectVersion
1070
     0
  0
VISUALSTYLE
  5
1216
102
{ACAD_REACTORS
330
120B
102
}
330
120B
100
AcDbVisualStyle
  2
Dim
 70
    11
 71
     2
 72
     2
 73
     0
 90
        0
 40
-0.6
 41
-30.0
 62
     5
 63
     7
421
 16777215
 74
     1
 91
        4
 64
     7
 65
   257
 75
     1
175
     1
 42
1.0
 92
        8
 66
     7
 43
1.0
 76
     1
 77
     6
 78
     2
 67
     7
 79
     5
170
     0
171
     0
290
     0
174
     0
 93
        1
 44
-50.0
173
     0
291
     1
 45
0.0
1001
ACAD
1000
AcDbSavedByObjectVersion
1070
     0
  0
VISUALSTYLE
  5
121A
102
{ACAD_REACTORS
330
120B
102
}
330
120B
100
AcDbVisualStyle
  2
Facepattern
 70
    15
 71
     2
 72
     2
 73
     0
 90
        0
 40
-0.6
 41
-30.0
 62
     5
 63
     7
421
 16777215
 74
     1
 91
        4
 64
     7
 65
   257
 75
     1
175
     1
 42
1.0
 92
        8
 66
     7
 43
1.0
 76
     1
 77
     6
 78
     2
 67
     7
 79
     5
170
     0
171
     0
290
     0
174
     0
 93
        1
 44
0.0
173
     0
291
     1
 45
0.0
1001
ACAD
1000
AcDbSavedByObjectVersion
1070
     0
  0
VISUALSTYLE
  5
120C
102
{ACAD_REACTORS
330
120B
102
}
330
120B
100
AcDbVisualStyle
  2
Flat
 70
     0
 71
     2
 72
     1
 73
     1
 90
        2
 40
-0.6
 41
30.0
 62
     5
 63
     7
421
 16777215
 74
     0
 91
        4
 64
     7
 65
   257
 75
     1
175
     1
 42
1.0
 92
        8
 66
     7
 43
1.0
 76
     1
 77
     6
 78
     2
 67
     7
 79
     5
170
     0
171
     0
290
     0
174
     0
 93
       13
 44
0.0
173
     0
291
     1
 45
0.0
1001
ACAD
1000
AcDbSavedByObjectVersion
1070
     0
  0
VISUALSTYLE
  5
120D
102
{ACAD_REACTORS
330
120B
102
}
330
120B
100
AcDbVisualStyle
  2
FlatWithEdges
 70
     1
 71
     2
 72
     1
 73
     1
 90
        2
 40
-0.6
 41
30.0
 62
     5
 63
     7
421
 16777215
 74
     1
 91
        4
 64
     7
 65
   257
 75
     1
175
     1
 42
1.0
 92
        0
 66
   257
 43
1.0
 76
     1
 77
     6
 78
     2
 67
     7
 79
     5
170
     0
171
     0
290
     0
174
     0
 93
       13
 44
0.0
173
     0
291
     1
 45
0.0
1001
ACAD
1000
AcDbSavedByObjectVersion
1070
     0
  0
VISUALSTYLE
  5
120E
102
{ACAD_REACTORS
330
120B
102
}
330
120B
100
AcDbVisualStyle
  2
Gouraud
 70
     2
 71
     2
 72
     2
 73
     1
 90
        2
 40
-0.6
 41
30.0
 62
     5
 63
     7
421
 16777215
 74
     0
 91
        4
 64
     7
 65
   257
 75
     1
175
     1
 42
1.0
 92
        0
 66
     7
 43
1.0
 76
     1
 77
     6
 78
     2
 67
     7
 79
     5
170
     0
171
     0
290
     0
174
     0
 93
       13
 44
0.0
173
     0
291
     1
 45
0.0
1001
ACAD
1000
AcDbSavedByObjectVersion
1070
     0
  0
VISUALSTYLE
  5
120F
102
{ACAD_REACTORS
330
120B
102
}
330
120B
100
AcDbVisualStyle
  2
GouraudWithEdges
 70
     3
 71
     2
 72
     2
 73
     1
 90
        2
 40
-0.6
 41
30.0
 62
     5
 63
     7
421
 16777215
 74
     1
 91
        4
 64
     7
 65
   257
 75
     1
175
     1
 42
1.0
 92
        0
 66
   257
 43
1.0
 76
     1
 77
     6
 78
     2
 67
     7
 79
     5
170
     0
171
     0
290
     0
174
     0
 93
       13
 44
0.0
173
     0
291
     1
 45
0.0
1001
ACAD
1000
AcDbSavedByObjectVersion
1070
     0
  0
VISUALSTYLE
  5
1219
102
{ACAD_REACTORS
330
120B
102
}
330
120B
100
AcDbVisualStyle
  2
Linepattern
 70
    14
 71
     2
 72
     2
 73
     0
 90
        0
 40
-0.6
 41
-30.0
 62
     5
 63
     7
421
 16777215
 74
     1
 91
        4
 64
     7
 65
   257
 75
     7
175
     7
 42
1.0
 92
        8
 66
     7
 43
1.0
 76
     1
 77
     6
 78
     2
 67
     7
 79
     5
170
     0
171
     0
290
     0
174
     0
 93
        1
 44
0.0
173
     0
291
     1
 45
0.0
1001
ACAD
1000
AcDbSavedByObjectVersion
1070
     0
  0
VISUALSTYLE
  5
1215
102
{ACAD_REACTORS
330
120B
102
}
330
120B
100
AcDbVisualStyle
  2
Realistic
 70
     8
 71
     2
 72
     2
 73
     0
 90
        0
 40
-0.6
 41
-30.0
 62
     5
 63
     7
421
 16777215
 74
     1
 91
        0
 64
     7
 65
   257
 75
     1
175
     1
 42
1.0
 92
        8
 66
     8
424
  7895160
 43
1.0
 76
     1
 77
     6
 78
     2
 67
     7
 79
     5
170
     0
171
     0
290
     0
174
     0
 93
       13
 44
0.0
173
     0
291
     0
 45
0.0
1001
ACAD
1000
AcDbSavedByObjectVersion
1070
     0
  0
VISUALSTYLE
  5
1218
102
{ACAD_REACTORS
330
120B
102
}
330
120B
100
AcDbVisualStyle
  2
Thicken
 70
    13
 71
     2
 72
     2
 73
     0
 90
        0
 40
-0.6
 41
-30.0
 62
     5
 63
     7
421
 16777215
 74
     1
 91
        4
 64
     7
 65
   257
 75
     1
175
     1
 42
1.0
 92
       12
 66
     7
 43
1.0
 76
     1
 77
     6
 78
     2
 67
     7
 79
     5
170
     0
171
     0
290
     0
174
     0
 93
        1
 44
0.0
173
     0
291
     1
 45
0.0
1001
ACAD
1000
AcDbSavedByObjectVersion
1070
     0
  0
DICTIONARYVAR
  5
12C0
102
{ACAD_REACTORS
330
10DD
102
}
330
10DD
100
DictionaryVariables
280
     0
  1
1:1
  0
DICTIONARYVAR
  5
12BE
102
{ACAD_REACTORS
330
10DD
102
}
330
10DD
100
DictionaryVariables
280
     0
  1
STANDARD
  0
DICTIONARYVAR
  5
12BD
102
{ACAD_REACTORS
330
10DD
102
}
330
10DD
100
DictionaryVariables
280
     0
  1
STANDARD
  0
DICTIONARYVAR
  5
10E0
102
{ACAD_REACTORS
330
10DD
102
}
330
10DD
100
DictionaryVariables
280
     0
  1
1
  0
DICTIONARYVAR
  5
10DF
102
{ACAD_REACTORS
330
10DD
102
}
330
10DD
100
DictionaryVariables
280
     0
  1
1
  0
DICTIONARYVAR
  5
15B4
102
{ACAD_REACTORS
330
10DD
102
}
330
10DD
100
DictionaryVariables
280
     0
  1
0
  0
DICTIONARYVAR
  5
12C2
102
{ACAD_REACTORS
330
10DD
102
}
330
10DD
100
DictionaryVariables
280
     0
  1
15
  0
DICTIONARYVAR
  5
12C1
102
{ACAD_REACTORS
330
10DD
102
}
330
10DD
100
DictionaryVariables
280
     0
  1
0
  0
DICTIONARYVAR
  5
12BF
102
{ACAD_REACTORS
330
10DD
102
}
330
10DD
100
DictionaryVariables
280
     0
  1
0
  0
DICTIONARYVAR
  5
10DE
102
{ACAD_REACTORS
330
10DD
102
}
330
10DD
100
DictionaryVariables
280
     0
  1
1
  0
XRECORD
  5
1595
102
{ACAD_REACTORS
330
1592
102
}
330
1592
100
AcDbXrecord
280
     1
  1
_0100-
  1
*0100-*
  1
*
  1
*
 70
     0
  1
*
  1
*
  0
XRECORD
  5
1594
102
{ACAD_REACTORS
330
1592
102
}
330
1592
100
AcDbXrecord
280
     1
  1
_0280-
  1
*0280-*
  1
*
  1
*
 70
     0
  1
*
  1
*
  0
XRECORD
  5
1598
102
{ACAD_REACTORS
330
1592
102
}
330
1592
100
AcDbXrecord
280
     1
  1
_Color 253
  1
*
  1
253
  1
*
 70
     0
  1
*
  1
*
  0
XRECORD
  5
1596
102
{ACAD_REACTORS
330
1592
102
}
330
1592
100
AcDbXrecord
280
     1
  1
_Color 8
  1
*
  1
8
  1
*
 70
     0
  1
*
  1
*
  0
XRECORD
  5
1597
102
{ACAD_REACTORS
330
1592
102
}
330
1592
100
AcDbXrecord
280
     1
  1
_Color 84
  1
*
  1
84
  1
*
 70
     0
  1
*
  1
*
  0
XRECORD
  5
159D
102
{ACAD_REACTORS
330
1592
102
}
330
1592
100
AcDbXrecord
280
     1
  1
_Contours
  1
*contour*,*cont-*,*cp cont*,*p-cont*
  1
*
  1
*
 70
     0
  1
*
  1
*
  0
XRECORD
  5
1599
102
{ACAD_REACTORS
330
1592
102
}
330
1592
100
AcDbXrecord
280
     1
  1
_Existing
  1
*exist*
  1
*
  1
*
 70
     0
  1
*
  1
*
  0
XRECORD
  5
159C
102
{ACAD_REACTORS
330
1592
102
}
330
1592
100
AcDbXrecord
280
     1
  1
_Hardscape
  1
*sidewalk*,*sw*,*curb*,*walk*,*-lip*,*tbc*
  1
*
  1
*
 70
     0
  1
*
  1
*
  0
XRECORD
  5
1593
102
{ACAD_REACTORS
330
1592
102
}
330
1592
100
AcDbXrecord
280
     1
  1
_NoXref
  1
~*|*
  1
*
  1
*
 70
     0
  1
*
  1
*
  0
XRECORD
  5
159A
102
{ACAD_REACTORS
330
1592
102
}
330
1592
100
AcDbXrecord
280
     1
  1
_Row
  1
*row*
  1
*
  1
*
 70
     0
  1
*
  1
*
  0
XRECORD
  5
159B
102
{ACAD_REACTORS
330
1592
102
}
330
1592
100
AcDbXrecord
280
     1
  1
_Utility
  1
*ut-*,*utility*,*wat*
  1
*
  1
*
 70
     0
  1
*
  1
*
  0
DICTIONARY
  5
11FC
330
11FB
100
AcDbDictionary
280
     1
281
     1
  3
ACAD_XREC_ROUNDTRIP
360
15BB
  3
BUMPTILE
360
11FE
  3
DIFFUSETILE
360
11FD
  3
OPACITYTILE
360
1201
  3
REFLECTIONTILE
360
1200
  3
REFRACTIONTILE
360
1202
  3
SPECULARTILE
360
11FF
  0
DICTIONARY
  5
11F4
330
11F3
100
AcDbDictionary
280
     1
281
     1
  3
ACAD_XREC_ROUNDTRIP
360
15BA
  3
BUMPTILE
360
11F6
  3
DIFFUSETILE
360
11F5
  3
OPACITYTILE
360
11F9
  3
REFLECTIONTILE
360
11F8
  3
REFRACTIONTILE
360
11FA
  3
SPECULARTILE
360
11F7
  0
DICTIONARY
  5
1204
330
1203
100
AcDbDictionary
280
     1
281
     1
  3
ACAD_XREC_ROUNDTRIP
360
15BC
  3
BUMPTILE
360
1206
  3
DIFFUSETILE
360
1205
  3
OPACITYTILE
360
1209
  3
REFLECTIONTILE
360
1208
  3
REFRACTIONTILE
360
120A
  3
SPECULARTILE
360
1207
  0
DICTIONARY
  5
12BA
330
121E
100
AcDbDictionary
280
     1
281
     1
  3
ACAD_ROUNDTRIP_2008_TABLESTYLE_CELLSTYLEMAP
360
15B5
  3
ACAD_XREC_ROUNDTRIP
360
15BD
  0
XRECORD
  5
15BB
102
{ACAD_REACTORS
330
11FC
102
}
330
11FC
100
AcDbXrecord
280
     1
102
MATERIAL
148
0.0
149
0.0
149
0.0
 93
        0
 94
      127
282
     0
 72
     0
 77
     0
171
     0
175
     0
179
     0
273
     0
  0
XRECORD
  5
11FE
102
{ACAD_REACTORS
330
11FC
102
}
330
11FC
100
AcDbXrecord
280
     1
270
     1
271
     1
  0
XRECORD
  5
11FD
102
{ACAD_REACTORS
330
11FC
102
}
330
11FC
100
AcDbXrecord
280
     1
270
     1
271
     1
  0
XRECORD
  5
1201
102
{ACAD_REACTORS
330
11FC
102
}
330
11FC
100
AcDbXrecord
280
     1
270
     1
271
     1
  0
XRECORD
  5
1200
102
{ACAD_REACTORS
330
11FC
102
}
330
11FC
100
AcDbXrecord
280
     1
270
     1
271
     1
  0
XRECORD
  5
1202
102
{ACAD_REACTORS
330
11FC
102
}
330
11FC
100
AcDbXrecord
280
     1
270
     1
271
     1
  0
XRECORD
  5
11FF
102
{ACAD_REACTORS
330
11FC
102
}
330
11FC
100
AcDbXrecord
280
     1
270
     1
271
     1
  0
XRECORD
  5
15BA
102
{ACAD_REACTORS
330
11F4
102
}
330
11F4
100
AcDbXrecord
280
     1
102
MATERIAL
148
0.0
149
0.0
149
0.0
 93
        0
 94
      127
282
     0
 72
     0
 77
     0
171
     0
175
     0
179
     0
273
     0
  0
XRECORD
  5
11F6
102
{ACAD_REACTORS
330
11F4
102
}
330
11F4
100
AcDbXrecord
280
     1
270
     1
271
     1
  0
XRECORD
  5
11F5
102
{ACAD_REACTORS
330
11F4
102
}
330
11F4
100
AcDbXrecord
280
     1
270
     1
271
     1
  0
XRECORD
  5
11F9
102
{ACAD_REACTORS
330
11F4
102
}
330
11F4
100
AcDbXrecord
280
     1
270
     1
271
     1
  0
XRECORD
  5
11F8
102
{ACAD_REACTORS
330
11F4
102
}
330
11F4
100
AcDbXrecord
280
     1
270
     1
271
     1
  0
XRECORD
  5
11FA
102
{ACAD_REACTORS
330
11F4
102
}
330
11F4
100
AcDbXrecord
280
     1
270
     1
271
     1
  0
XRECORD
  5
11F7
102
{ACAD_REACTORS
330
11F4
102
}
330
11F4
100
AcDbXrecord
280
     1
270
     1
271
     1
  0
XRECORD
  5
15BC
102
{ACAD_REACTORS
330
1204
102
}
330
1204
100
AcDbXrecord
280
     1
102
MATERIAL
148
0.0
149
0.0
149
0.0
 93
        0
 94
      127
282
     0
 72
     0
 77
     0
171
     0
175
     0
179
     0
273
     0
  0
XRECORD
  5
1206
102
{ACAD_REACTORS
330
1204
102
}
330
1204
100
AcDbXrecord
280
     1
270
     1
271
     1
  0
XRECORD
  5
1205
102
{ACAD_REACTORS
330
1204
102
}
330
1204
100
AcDbXrecord
280
     1
270
     1
271
     1
  0
XRECORD
  5
1209
102
{ACAD_REACTORS
330
1204
102
}
330
1204
100
AcDbXrecord
280
     1
270
     1
271
     1
  0
XRECORD
  5
1208
102
{ACAD_REACTORS
330
1204
102
}
330
1204
100
AcDbXrecord
280
     1
270
     1
271
     1
  0
XRECORD
  5
120A
102
{ACAD_REACTORS
330
1204
102
}
330
1204
100
AcDbXrecord
280
     1
270
     1
271
     1
  0
XRECORD
  5
1207
102
{ACAD_REACTORS
330
1204
102
}
330
1204
100
AcDbXrecord
280
     1
270
     1
271
     1
  0
CELLSTYLEMAP
  5
15B5
102
{ACAD_REACTORS
330
12BA
102
}
330
12BA
100
AcDbCellStyleMap
 90
        3
300
CELLSTYLE
  1
TABLEFORMAT_BEGIN
 90
        5
170
     1
 91
        0
 92
    32768
 62
   257
 93
        1
300
CONTENTFORMAT
  1
CONTENTFORMAT_BEGIN
 90
        0
 91
        0
 92
      512
 93
        0
300

 40
0.0
140
1.0
 94
        5
 62
     0
340
10B4
144
0.25
309
CONTENTFORMAT_END
171
     0
 94
        0
309
TABLEFORMAT_END
  1
CELLSTYLE_BEGIN
 90
        1
 91
        1
300
_TITLE
309
CELLSTYLE_END
300
CELLSTYLE
  1
TABLEFORMAT_BEGIN
 90
        5
170
     1
 91
        0
 92
        0
 62
   257
 93
        1
300
CONTENTFORMAT
  1
CONTENTFORMAT_BEGIN
 90
        0
 91
        0
 92
      512
 93
        0
300

 40
0.0
140
1.0
 94
        5
 62
     0
340
10B4
144
0.18
309
CONTENTFORMAT_END
171
     0
 94
        0
309
TABLEFORMAT_END
  1
CELLSTYLE_BEGIN
 90
        2
 91
        1
300
_HEADER
309
CELLSTYLE_END
300
CELLSTYLE
  1
TABLEFORMAT_BEGIN
 90
        5
170
     1
 91
        0
 92
        0
 62
   257
 93
        1
300
CONTENTFORMAT
  1
CONTENTFORMAT_BEGIN
 90
        0
 91
        0
 92
      512
 93
        0
300

 40
0.0
140
1.0
 94
        2
 62
     0
340
10B4
144
0.18
309
CONTENTFORMAT_END
171
     0
 94
        0
309
TABLEFORMAT_END
  1
CELLSTYLE_BEGIN
 90
        3
 91
        2
300
_DATA
309
CELLSTYLE_END
  0
XRECORD
  5
15BD
102
{ACAD_REACTORS
330
12BA
102
}
330
12BA
100
AcDbXrecord
280
     1
102
ACAD_ROUNDTRIP_PRE2007_TABLESTYLE
 90
      512
 91
        0
  1

 92
      512
 93
        0
  2

 94
      512
 95
        0
  3

  0
ENDSEC
  0
EOF
