  0
SECTION
  2
HEADER
  9
$ACADVER
  1
AC1015
  9
$ACADMAINTVER
 70
    13
  9
$DWGCODEPAGE
  3
ANSI_1252
  9
$INSBASE
 10
7.766678155251661
 20
2.043532764336107
 30
0.0
  9
$EXTMIN
 10
-0.00025144081073
 20
-0.0001591899371781
 30
-0.0000004574423482
  9
$EXTMAX
 10
16.49025167118743
 20
10.44015933579119
 30
0.030000457861469
  9
$LIMMIN
 10
0.0
 20
0.0
  9
$LIMMAX
 10
12.0
 20
9.0
  9
$ORTHOMODE
 70
     1
  9
$REGENMODE
 70
     1
  9
$FILLMODE
 70
     1
  9
$QTEXTMODE
 70
     0
  9
$MIRRTEXT
 70
     0
  9
$LTSCALE
 40
1.0
  9
$ATTMODE
 70
     1
  9
$TEXTSIZE
 40
0.1
  9
$TRACEWID
 40
0.05
  9
$TEXTSTYLE
  7
L200
  9
$CLAYER
  8
0
  9
$CELTYPE
  6
ByLayer
  9
$CECOLOR
 62
   256
  9
$CELTSCALE
 40
1.0
  9
$DISPSILH
 70
     0
  9
$DIMSCALE
 40
1.0
  9
$DIMASZ
 40
0.18
  9
$DIMEXO
 40
0.0625
  9
$DIMDLI
 40
0.38
  9
$DIMRND
 40
0.0
  9
$DIMDLE
 40
0.0
  9
$DIMEXE
 40
0.18
  9
$DIMTP
 40
0.0
  9
$DIMTM
 40
0.0
  9
$DIMTXT
 40
0.18
  9
$DIMCEN
 40
0.09
  9
$DIMTSZ
 40
0.0
  9
$DIMTOL
 70
     0
  9
$DIMLIM
 70
     0
  9
$DIMTIH
 70
     1
  9
$DIMTOH
 70
     1
  9
$DIMSE1
 70
     0
  9
$DIMSE2
 70
     0
  9
$DIMTAD
 70
     0
  9
$DIMZIN
 70
     0
  9
$DIMBLK
  1

  9
$DIMASO
 70
     1
  9
$DIMSHO
 70
     0
  9
$DIMPOST
  1

  9
$DIMAPOST
  1

  9
$DIMALT
 70
     0
  9
$DIMALTD
 70
     2
  9
$DIMALTF
 40
25.4
  9
$DIMLFAC
 40
1.0
  9
$DIMTOFL
 70
     0
  9
$DIMTVP
 40
0.0
  9
$DIMTIX
 70
     0
  9
$DIMSOXD
 70
     0
  9
$DIMSAH
 70
     0
  9
$DIMBLK1
  1

  9
$DIMBLK2
  1

  9
$DIMSTYLE
  2
Standard
  9
$DIMCLRD
 70
     0
  9
$DIMCLRE
 70
     0
  9
$DIMCLRT
 70
     0
  9
$DIMTFAC
 40
1.0
  9
$DIMGAP
 40
0.09
  9
$DIMJUST
 70
     0
  9
$DIMSD1
 70
     0
  9
$DIMSD2
 70
     0
  9
$DIMTOLJ
 70
     1
  9
$DIMTZIN
 70
     0
  9
$DIMALTZ
 70
     0
  9
$DIMALTTZ
 70
     0
  9
$DIMUPT
 70
     0
  9
$DIMDEC
 70
     4
  9
$DIMTDEC
 70
     4
  9
$DIMALTU
 70
     2
  9
$DIMALTTD
 70
     2
  9
$DIMTXSTY
  7
STANDARD
  9
$DIMAUNIT
 70
     0
  9
$DIMADEC
 70
     0
  9
$DIMALTRND
 40
0.0
  9
$DIMAZIN
 70
     0
  9
$DIMDSEP
 70
    46
  9
$DIMATFIT
 70
     3
  9
$DIMFRAC
 70
     0
  9
$DIMLDRBLK
  1

  9
$DIMLUNIT
 70
     2
  9
$DIMLWD
 70
    -2
  9
$DIMLWE
 70
    -2
  9
$DIMTMOVE
 70
     2
  9
$LUNITS
 70
     2
  9
$LUPREC
 70
     4
  9
$SKETCHINC
 40
0.1
  9
$FILLETRAD
 40
0.0
  9
$AUNITS
 70
     0
  9
$AUPREC
 70
     0
  9
$MENU
  1
acad
  9
$ELEVATION
 40
0.0
  9
$PELEVATION
 40
0.0
  9
$THICKNESS
 40
0.0
  9
$LIMCHECK
 70
     0
  9
$CHAMFERA
 40
0.0
  9
$CHAMFERB
 40
0.0
  9
$CHAMFERC
 40
0.0
  9
$CHAMFERD
 40
0.0
  9
$SKPOLY
 70
     0
  9
$TDCREATE
 40
2450446.311833449
  9
$TDUCREATE
 40
2450446.603500116
  9
$TDUPDATE
 40
2453021.563141759
  9
$TDUUPDATE
 40
2453021.854808426
  9
$TDINDWG
 40
0.1456420255
  9
$TDUSRTIMER
 40
0.1456420255
  9
$USRTIMER
 70
     1
  9
$ANGBASE
 50
0.0
  9
$ANGDIR
 70
     0
  9
$PDMODE
 70
     0
  9
$PDSIZE
 40
0.0
  9
$PLINEWID
 40
0.0
  9
$SPLFRAME
 70
     0
  9
$SPLINETYPE
 70
     6
  9
$SPLINESEGS
 70
     8
  9
$HANDSEED
  5
1DB8
  9
$SURFTAB1
 70
     6
  9
$SURFTAB2
 70
     6
  9
$SURFTYPE
 70
     6
  9
$SURFU
 70
     6
  9
$SURFV
 70
     6
  9
$UCSBASE
  2

  9
$UCSNAME
  2

  9
$UCSORG
 10
0.0
 20
0.0
 30
0.0
  9
$UCSXDIR
 10
1.0
 20
0.0
 30
0.0
  9
$UCSYDIR
 10
0.0
 20
1.0
 30
0.0
  9
$UCSORTHOREF
  2

  9
$UCSORTHOVIEW
 70
     0
  9
$UCSORGTOP
 10
0.0
 20
0.0
 30
0.0
  9
$UCSORGBOTTOM
 10
0.0
 20
0.0
 30
0.0
  9
$UCSORGLEFT
 10
0.0
 20
0.0
 30
0.0
  9
$UCSORGRIGHT
 10
0.0
 20
0.0
 30
0.0
  9
$UCSORGFRONT
 10
0.0
 20
0.0
 30
0.0
  9
$UCSORGBACK
 10
0.0
 20
0.0
 30
0.0
  9
$PUCSBASE
  2

  9
$PUCSNAME
  2

  9
$PUCSORG
 10
0.0
 20
0.0
 30
0.0
  9
$PUCSXDIR
 10
1.0
 20
0.0
 30
0.0
  9
$PUCSYDIR
 10
0.0
 20
1.0
 30
0.0
  9
$PUCSORTHOREF
  2

  9
$PUCSORTHOVIEW
 70
     0
  9
$PUCSORGTOP
 10
0.0
 20
0.0
 30
0.0
  9
$PUCSORGBOTTOM
 10
0.0
 20
0.0
 30
0.0
  9
$PUCSORGLEFT
 10
0.0
 20
0.0
 30
0.0
  9
$PUCSORGRIGHT
 10
0.0
 20
0.0
 30
0.0
  9
$PUCSORGFRONT
 10
0.0
 20
0.0
 30
0.0
  9
$PUCSORGBACK
 10
0.0
 20
0.0
 30
0.0
  9
$USERI1
 70
     0
  9
$USERI2
 70
     0
  9
$USERI3
 70
     0
  9
$USERI4
 70
     0
  9
$USERI5
 70
     0
  9
$USERR1
 40
1.0
  9
$USERR2
 40
1.0
  9
$USERR3
 40
0.0
  9
$USERR4
 40
0.0
  9
$USERR5
 40
0.0
  9
$WORLDVIEW
 70
     1
  9
$SHADEDGE
 70
     3
  9
$SHADEDIF
 70
    70
  9
$TILEMODE
 70
     1
  9
$MAXACTVP
 70
    16
  9
$PINSBASE
 10
0.0
 20
0.0
 30
0.0
  9
$PLIMCHECK
 70
     0
  9
$PEXTMIN
 10
1.000000000000000E+20
 20
1.000000000000000E+20
 30
1.000000000000000E+20
  9
$PEXTMAX
 10
-1.000000000000000E+20
 20
-1.000000000000000E+20
 30
-1.000000000000000E+20
  9
$PLIMMIN
 10
0.0
 20
0.0
  9
$PLIMMAX
 10
12.0
 20
9.0
  9
$UNITMODE
 70
     0
  9
$VISRETAIN
 70
     0
  9
$PLINEGEN
 70
     1
  9
$PSLTSCALE
 70
     0
  9
$TREEDEPTH
 70
  3020
  9
$CMLSTYLE
  2
Standard
  9
$CMLJUST
 70
     0
  9
$CMLSCALE
 40
1.0
  9
$PROXYGRAPHICS
 70
     1
  9
$MEASUREMENT
 70
     0
  9
$CELWEIGHT
370
    -1
  9
$ENDCAPS
280
     0
  9
$JOINSTYLE
280
     0
  9
$LWDISPLAY
290
     0
  9
$INSUNITS
 70
     0
  9
$HYPERLINKBASE
  1

  9
$STYLESHEET
  1
8500ColorShaded.ctb
  9
$XEDIT
290
     1
  9
$CEPSNTYPE
380
     0
  9
$PSTYLEMODE
290
     1
  9
$FINGERPRINTGUID
  2
{5E4B541F-ADE9-4EE1-B34F-F985BF4E4CED}
  9
$VERSIONGUID
  2
{2FD22795-CD42-4EEA-985A-B208CDC6E359}
  9
$EXTNAMES
290
     1
  9
$PSVPSCALE
 40
0.0
  9
$OLESTARTUP
290
     0
  0
ENDSEC
  0
SECTION
  2
CLASSES
  0
CLASS
  1
ACDBDICTIONARYWDFLT
  2
AcDbDictionaryWithDefault
  3
AutoCAD 2000
 90
        0
280
     0
281
     0
  0
CLASS
  1
ACDBPLACEHOLDER
  2
AcDbPlaceHolder
  3
AutoCAD 2000
 90
        0
280
     0
281
     0
  0
CLASS
  1
LAYOUT
  2
AcDbLayout
  3
AutoCAD 2000
 90
        0
280
     0
281
     0
  0
CLASS
  1
DICTIONARYVAR
  2
AcDbDictionaryVar
  3
AutoCAD 2000
 90
        0
280
     0
281
     0
  0
CLASS
  1
PLOTSETTINGS
  2
AcDbPlotSettings
  3
AutoCAD 2000
 90
        0
280
     0
281
     0
  0
ENDSEC
  0
SECTION
  2
TABLES
  0
TABLE
  2
VPORT
  5
8
330
0
100
AcDbSymbolTable
 70
     4
  0
VPORT
  5
1DB7
330
8
100
AcDbSymbolTableRecord
100
AcDbViewportTableRecord
  2
*Active
 70
     0
 10
0.0
 20
0.0
 11
1.0
 21
1.0
 12
8.245000115188354
 22
5.220000072927007
 13
0.0
 23
0.0
 14
1.0
 24
1.0
 15
0.0
 25
0.0
 16
0.0
 26
0.0
 36
1.0
 17
0.0
 27
0.0
 37
0.0
 40
10.52660214990794
 41
1.609655172413793
 42
50.0
 43
0.0
 44
0.0
 50
0.0
 51
0.0
 71
     0
 72
  1000
 73
     1
 74
     0
 75
     0
 76
     0
 77
     0
 78
     0
281
     0
 65
     1
110
0.0
120
0.0
130
0.0
111
1.0
121
0.0
131
0.0
112
0.0
122
1.0
132
0.0
 79
     0
146
0.0
  0
ENDTAB
  0
TABLE
  2
LTYPE
  5
5
330
0
100
AcDbSymbolTable
 70
     1
  0
LTYPE
  5
13
330
5
100
AcDbSymbolTableRecord
100
AcDbLinetypeTableRecord
  2
ByBlock
 70
     0
  3

 72
    65
 73
     0
 40
0.0
  0
LTYPE
  5
14
330
5
100
AcDbSymbolTableRecord
100
AcDbLinetypeTableRecord
  2
ByLayer
 70
     0
  3

 72
    65
 73
     0
 40
0.0
  0
LTYPE
  5
15
330
5
100
AcDbSymbolTableRecord
100
AcDbLinetypeTableRecord
  2
CONTINUOUS
 70
     0
  3
Solid line
 72
    65
 73
     0
 40
0.0
  0
ENDTAB
  0
TABLE
  2
LAYER
  5
2
102
{ACAD_XDICTIONARY
360
1DB6
102
}
330
0
100
AcDbSymbolTable
 70
     4
  0
LAYER
  5
10
330
2
100
AcDbSymbolTableRecord
100
AcDbLayerTableRecord
  2
0
 70
     0
 62
     7
  6
CONTINUOUS
370
    -3
390
F
  0
LAYER
  5
3C
330
2
100
AcDbSymbolTableRecord
100
AcDbLayerTableRecord
  2
TITLE
 70
     0
 62
     7
  6
CONTINUOUS
370
    -3
390
F
  0
LAYER
  5
18BE
330
2
100
AcDbSymbolTableRecord
100
AcDbLayerTableRecord
  2
IMAGE
 70
     0
 62
     7
  6
CONTINUOUS
370
    -3
390
F
  0
LAYER
  5
18BF
330
2
100
AcDbSymbolTableRecord
100
AcDbLayerTableRecord
  2
TEXT_BUBBLES
 70
     0
 62
     7
  6
CONTINUOUS
370
    -3
390
F
  0
ENDTAB
  0
TABLE
  2
STYLE
  5
3
330
0
100
AcDbSymbolTable
 70
     5
  0
STYLE
  5
11
330
3
100
AcDbSymbolTableRecord
100
AcDbTextStyleTableRecord
  2
STANDARD
 70
     0
 40
0.0
 41
1.0
 50
0.0
 71
     0
 42
0.2
  3
txt
  4

  0
STYLE
  5
30
330
3
100
AcDbSymbolTableRecord
100
AcDbTextStyleTableRecord
  2
L100
 70
     0
 40
0.07
 41
1.0
 50
0.0
 71
     0
 42
0.07
  3
SIMPLEX
  4

  0
STYLE
  5
31
330
3
100
AcDbSymbolTableRecord
100
AcDbTextStyleTableRecord
  2
L200
 70
     0
 40
0.2
 41
1.0
 50
0.0
 71
     0
 42
0.1
  3
ARIAL.TTF
  4

1001
ACAD
1000
Arial
1071
       34
  0
STYLE
  5
32
330
3
100
AcDbSymbolTableRecord
100
AcDbTextStyleTableRecord
  2
L80
 70
     0
 40
0.08
 41
1.0
 50
0.0
 71
     0
 42
0.08
  3
simplex
  4

  0
STYLE
  5
18C0
330
3
100
AcDbSymbolTableRecord
100
AcDbTextStyleTableRecord
  2
ROMANS
 70
     0
 40
0.0
 41
1.0
 50
0.0
 71
     0
 42
0.1
  3
romans
  4

  0
ENDTAB
  0
TABLE
  2
VIEW
  5
6
330
0
100
AcDbSymbolTable
 70
     1
  0
VIEW
  5
1A63
330
6
100
AcDbSymbolTableRecord
100
AcDbViewTableRecord
  2
ps1
 70
     0
 40
10.43999999999999
 10
8.244999999999999
 20
5.219999999999998
 41
16.49
 11
0.0
 21
0.0
 31
1.0
 12
0.0
 22
0.0
 32
0.0
 42
50.0
 43
0.0
 44
0.0
 50
0.0
 71
     0
281
     0
 72
     1
110
0.0
120
0.0
130
0.0
111
1.0
121
0.0
131
0.0
112
0.0
122
1.0
132
0.0
 79
     0
146
0.0
  0
ENDTAB
  0
TABLE
  2
UCS
  5
7
330
0
100
AcDbSymbolTable
 70
     0
  0
ENDTAB
  0
TABLE
  2
APPID
  5
9
330
0
100
AcDbSymbolTable
 70
    28
  0
APPID
  5
12
330
9
100
AcDbSymbolTableRecord
100
AcDbRegAppTableRecord
  2
ACAD
 70
     0
  0
APPID
  5
35
330
9
100
AcDbSymbolTableRecord
100
AcDbRegAppTableRecord
  2
CLSI_CADWRITER
 70
     0
  0
APPID
  5
1A16
330
9
100
AcDbSymbolTableRecord
100
AcDbRegAppTableRecord
  2
RAK
 70
     0
  0
APPID
  5
1A7A
330
9
100
AcDbSymbolTableRecord
100
AcDbRegAppTableRecord
  2
WID_Sprinkler
 70
     0
  0
APPID
  5
1A7B
330
9
100
AcDbSymbolTableRecord
100
AcDbRegAppTableRecord
  2
WID_Valve
 70
     0
  0
APPID
  5
1A7C
330
9
100
AcDbSymbolTableRecord
100
AcDbRegAppTableRecord
  2
WID_Fitting
 70
     0
  0
APPID
  5
1A7D
330
9
100
AcDbSymbolTableRecord
100
AcDbRegAppTableRecord
  2
WID_HPNode
 70
     0
  0
APPID
  5
1A7E
330
9
100
AcDbSymbolTableRecord
100
AcDbRegAppTableRecord
  2
WID_Node
 70
     0
  0
APPID
  5
1A7F
330
9
100
AcDbSymbolTableRecord
100
AcDbRegAppTableRecord
  2
WID_Conduit
 70
     0
  0
APPID
  5
1A80
330
9
100
AcDbSymbolTableRecord
100
AcDbRegAppTableRecord
  2
WID_SprinklerSection
 70
     0
  0
APPID
  5
1A81
330
9
100
AcDbSymbolTableRecord
100
AcDbRegAppTableRecord
  2
WID_MainLineSection
 70
     0
  0
APPID
  5
1A82
330
9
100
AcDbSymbolTableRecord
100
AcDbRegAppTableRecord
  2
WID_ManifoldSection
 70
     0
  0
APPID
  5
1A83
330
9
100
AcDbSymbolTableRecord
100
AcDbRegAppTableRecord
  2
WID_DripSection
 70
     0
  0
APPID
  5
1A84
330
9
100
AcDbSymbolTableRecord
100
AcDbRegAppTableRecord
  2
WID_HPSection
 70
     0
  0
APPID
  5
1A85
330
9
100
AcDbSymbolTableRecord
100
AcDbRegAppTableRecord
  2
WID_Sleeve
 70
     0
  0
APPID
  5
1A86
330
9
100
AcDbSymbolTableRecord
100
AcDbRegAppTableRecord
  2
WID_Layout
 70
     0
  0
APPID
  5
1A87
330
9
100
AcDbSymbolTableRecord
100
AcDbRegAppTableRecord
  2
WID_Island
 70
     0
  0
APPID
  5
1A88
330
9
100
AcDbSymbolTableRecord
100
AcDbRegAppTableRecord
  2
WID_Controller
 70
     0
  0
APPID
  5
1A89
330
9
100
AcDbSymbolTableRecord
100
AcDbRegAppTableRecord
  2
WID_SprinklerLateral
 70
     0
  0
APPID
  5
1A8A
330
9
100
AcDbSymbolTableRecord
100
AcDbRegAppTableRecord
  2
WID_HPDripLateral
 70
     0
  0
APPID
  5
1A8B
330
9
100
AcDbSymbolTableRecord
100
AcDbRegAppTableRecord
  2
WID_LabelPipeSize
 70
     0
  0
APPID
  5
1A8C
330
9
100
AcDbSymbolTableRecord
100
AcDbRegAppTableRecord
  2
WID_LabelPipeSegment
 70
     0
  0
APPID
  5
1A8D
330
9
100
AcDbSymbolTableRecord
100
AcDbRegAppTableRecord
  2
WID_LabelValveDesignator
 70
     0
  0
APPID
  5
1A8E
330
9
100
AcDbSymbolTableRecord
100
AcDbRegAppTableRecord
  2
WID_CheckArc
 70
     0
  0
APPID
  5
1A8F
330
9
100
AcDbSymbolTableRecord
100
AcDbRegAppTableRecord
  2
WID_ObjectType
 70
     0
  0
APPID
  5
1A90
330
9
100
AcDbSymbolTableRecord
100
AcDbRegAppTableRecord
  2
WID_DripLateral
 70
     0
  0
APPID
  5
1A91
330
9
100
AcDbSymbolTableRecord
100
AcDbRegAppTableRecord
  2
ABNSLEADERTOOLS
 70
     0
  0
APPID
  5
1A92
330
9
100
AcDbSymbolTableRecord
100
AcDbRegAppTableRecord
  2
DCO15
 70
     0
  0
ENDTAB
  0
TABLE
  2
DIMSTYLE
  5
A
330
0
100
AcDbSymbolTable
 70
     1
100
AcDbDimStyleTable
 71
     0
  0
DIMSTYLE
105
18B8
330
A
100
AcDbSymbolTableRecord
100
AcDbDimStyleTableRecord
  2
Standard
 70
     0
340
11
  0
ENDTAB
  0
TABLE
  2
BLOCK_RECORD
  5
1
330
0
100
AcDbSymbolTable
 70
     5
  0
BLOCK_RECORD
  5
1E
330
1
100
AcDbSymbolTableRecord
100
AcDbBlockTableRecord
  2
*Model_Space
340
21
  0
BLOCK_RECORD
  5
1A
330
1
100
AcDbSymbolTableRecord
100
AcDbBlockTableRecord
  2
*Paper_Space
340
1D
  0
BLOCK_RECORD
  5
24
330
1
100
AcDbSymbolTableRecord
100
AcDbBlockTableRecord
  2
TITLBLK
340
0
102
{BLKREFS
331
1A3A
102
}
  0
BLOCK_RECORD
  5
18BA
330
1
100
AcDbSymbolTableRecord
100
AcDbBlockTableRecord
  2
IDAEP
340
0
102
{BLKREFS
331
1D0F
331
1D0B
331
1D5F
331
1D60
102
}
  0
BLOCK_RECORD
  5
1A6A
330
1
100
AcDbSymbolTableRecord
100
AcDbBlockTableRecord
  2
PlotLayout2002
340
0
102
{BLKREFS
331
1AAC
102
}
  0
BLOCK_RECORD
  5
1AAB
330
1
100
AcDbSymbolTableRecord
100
AcDbBlockTableRecord
  2
pagesetups
340
0
102
{BLKREFS
331
1AB1
102
}
  0
BLOCK_RECORD
  5
1B2E
330
1
100
AcDbSymbolTableRecord
100
AcDbBlockTableRecord
  2
bubble
340
0
310
2800000020000000200000000100080000000000000400000000000000000000000000000000000000000000000080000080000000808000800000008000800080800000C0C0C000C0DCC000F0CAA6000020400000206000002080000020A0000020C0000020E00000400000004020000040400000406000004080000040A0
310
000040C0000040E00000600000006020000060400000606000006080000060A0000060C0000060E00000800000008020000080400000806000008080000080A0000080C0000080E00000A0000000A0200000A0400000A0600000A0800000A0A00000A0C00000A0E00000C0000000C0200000C0400000C0600000C0800000C0
310
A00000C0C00000C0E00000E0000000E0200000E0400000E0600000E0800000E0A00000E0C00000E0E00040000000400020004000400040006000400080004000A0004000C0004000E00040200000402020004020400040206000402080004020A0004020C0004020E000404000004040200040404000404060004040800040
310
40A0004040C0004040E00040600000406020004060400040606000406080004060A0004060C0004060E00040800000408020004080400040806000408080004080A0004080C0004080E00040A0000040A0200040A0400040A0600040A0800040A0A00040A0C00040A0E00040C0000040C0200040C0400040C0600040C08000
310
40C0A00040C0C00040C0E00040E0000040E0200040E0400040E0600040E0800040E0A00040E0C00040E0E00080000000800020008000400080006000800080008000A0008000C0008000E00080200000802020008020400080206000802080008020A0008020C0008020E00080400000804020008040400080406000804080
310
008040A0008040C0008040E00080600000806020008060400080606000806080008060A0008060C0008060E00080800000808020008080400080806000808080008080A0008080C0008080E00080A0000080A0200080A0400080A0600080A0800080A0A00080A0C00080A0E00080C0000080C0200080C0400080C0600080C0
310
800080C0A00080C0C00080C0E00080E0000080E0200080E0400080E0600080E0800080E0A00080E0C00080E0E000C0000000C0002000C0004000C0006000C0008000C000A000C000C000C000E000C0200000C0202000C0204000C0206000C0208000C020A000C020C000C020E000C0400000C0402000C0404000C0406000C0
310
408000C040A000C040C000C040E000C0600000C0602000C0604000C0606000C0608000C060A000C060C000C060E000C0800000C0802000C0804000C0806000C0808000C080A000C080C000C080E000C0A00000C0A02000C0A04000C0A06000C0A08000C0A0A000C0A0C000C0A0E000C0C00000C0C02000C0C04000C0C06000
310
C0C08000C0C0A000F0FBFF00A4A0A000808080000000FF0000FF000000FFFF00FF000000FF00FF00FFFF0000FFFFFF0008080808080808080808080808080808080808080808080808080808080808080808080808080808080808080808080808080808080808080808080808080808080808080808080808080808FDFDFD
310
08080808080808080808080808080808080808080808080808080808FD080808FDFDFDFDFDFD0808080808080808080808080808080808080808FDFD08080808080808080808FDFDFDFD080808080808080808080808080808FD08080808080808080808080808080808FD08080808080808080808080808FD080808080808
310
0808080808080808080808FD0808080808080808080808FDFD08080808080808080808080808080808080808FD080808080808080808FD080808080808080808080808080808080808080808FD0808080808080808FD08FD0808080808080808FD0808FD0808080808080808FDFD08080808080808FD0808FD080808080808
310
FD08080808FD080808080808FD08FD08080808080808FD0808FD080808080808FD08080808FD080808080808FD0808FD080808080808FD080808FD08080808FD080808080808FD08080808FD080808FD080808080808FD08080808FD0808FD0808080808080808FD0808FD0808080808FD0808080808FD08080808FD0808FD
310
0808080808080808FD0808FD0808080808FD0808080808FD0808080808FDFD08080808080808080808FDFD08080808080808FD08080808FD0808080808FDFD08080808080808080808FDFD08080808080808FD08080808FD08080808FD0808FD0808080808080808FD0808FD0808080808FD0808080808FD08080808FD0808
310
FD0808080808080808FD0808FD0808080808FD0808080808FD080808FD08080808FD080808080808FD08080808FD080808FD080808080808FD0808FD080808080808FD08080808FD080808080808FD0808FD080808080808FD0808FD080808080808FD08080808FD080808080808FD08FD08080808080808FD08FD08080808
310
08080808FD0808FD0808080808080808FDFD0808080808080808FD080808080808080808080808080808080808080808FD08080808080808080808FDFD08080808080808080808080808080808080808FD080808080808080808080808FD0808080808080808080808080808080808FD0808080808080808080808080808FD
310
08080808080808080808080808080808FD080808080808080808080808080808FDFD0808080808080808080808FDFDFD080808080808080808080808080808080808FD08080808FDFDFDFDFDFD08080808080808080808080808080808080808080808FDFDFDFD080808080808080808080808080808080808080808080808
310
0808080808080808080808080808080808080808080808080808080808080808080808080808080808080808080808080808080808080808
102
{BLKREFS
331
1D08
102
}
  0
ENDTAB
  0
ENDSEC
  0
SECTION
  2
BLOCKS
  0
BLOCK
  5
48
330
1E
100
AcDbEntity
  8
0
100
AcDbBlockBegin
  2
*Model_Space
 70
     0
 10
0.0
 20
0.0
 30
0.0
  3
*Model_Space
  1

  0
ENDBLK
  5
49
330
1E
100
AcDbEntity
  8
0
100
AcDbBlockEnd
  0
BLOCK
  5
46
330
1A
100
AcDbEntity
 67
     1
  8
0
100
AcDbBlockBegin
  2
*Paper_Space
 70
     0
 10
0.0
 20
0.0
 30
0.0
  3
*Paper_Space
  1

  0
ENDBLK
  5
47
330
1A
100
AcDbEntity
 67
     1
  8
0
100
AcDbBlockEnd
  0
BLOCK
  5
15D
330
24
100
AcDbEntity
  8
0
100
AcDbBlockBegin
  2
TITLBLK
 70
     2
 10
0.0
 20
0.0
 30
0.0
  3
TITLBLK
  1

  0
LWPOLYLINE
  5
15E
330
24
100
AcDbEntity
  8
0
100
AcDbPolyline
 90
        2
 70
     0
 43
0.04
 39
0.03
 10
0.3424999999999994
 20
-0.0000000000000003
 10
7.654581983261419
 20
-0.0000000000000003
  0
ATTDEF
  5
162
330
24
100
AcDbEntity
  8
0
100
AcDbText
 10
0.625
 20
0.0999999999999998
 30
0.0
 40
0.2
  1
TITLE
  7
L200
100
AcDbAttributeDefinition
  3
DETAIL TITLE
  2
TITLE
 70
     0
  0
LWPOLYLINE
  5
164
330
24
100
AcDbEntity
  8
0
100
AcDbPolyline
 90
        2
 70
     1
 43
0.03
 10
0.0
 20
-0.3425000000000002
 42
0.9999999999999998
 10
0.0
 20
0.3425000000000002
 42
0.9999999999999998
  0
ATTDEF
  5
168
330
24
100
AcDbEntity
  8
0
100
AcDbText
 10
-0.0776944065484311
 20
-0.1000000000000003
 30
0.0
 40
0.2
  1
#
  7
L200
 72
     4
 11
0.0
 21
-0.0000000000000003
 31
0.0
100
AcDbAttributeDefinition
  3
#
  2
#
 70
     0
  0
ATTDEF
  5
169
330
24
100
AcDbEntity
  8
0
100
AcDbText
 10
0.625
 20
-0.1836633170828782
 30
0.0
 40
0.1
  1
N.T.S.
  7
L100
100
AcDbAttributeDefinition
  3
SCALE
  2
SCALE
 70
     0
  0
ATTDEF
  5
16A
330
24
100
AcDbEntity
  8
0
100
AcDbText
 10
2.107203380653828
 20
-0.2914343300200487
 30
0.0
 40
0.2
  1
TITLE2
  7
L200
100
AcDbAttributeDefinition
  3
DETAIL TITLE2
  2
TITLE2
 70
     0
  0
ATTDEF
  5
16B
330
24
100
AcDbEntity
  8
0
100
AcDbText
 10
7.58601055468999
 20
-0.1618486459795794
 30
0.0
 40
0.08
  1
-
  7
L80
 72
     2
 11
7.654581983261419
 21
-0.1618486459795794
 31
0.0
100
AcDbAttributeDefinition
  3
DWG-NAME
  2
DWG-NAME
 70
     0
  0
ATTDEF
  5
16C
330
24
100
AcDbEntity
  8
0
100
AcDbText
 10
7.58601055468999
 20
0.0853756950662722
 30
0.0
 40
0.08
  1
-
  7
L80
 72
     2
 11
7.654581983261419
 21
0.0853756950662722
 31
0.0
100
AcDbAttributeDefinition
  3
REVISION DATE
  2
REVISED
 70
     0
  0
ENDBLK
  5
16D
330
24
100
AcDbEntity
  8
0
100
AcDbBlockEnd
  0
BLOCK
  5
18BC
330
18BA
100
AcDbEntity
  8
0
100
AcDbBlockBegin
  2
IDAEP
 70
     0
 10
0.0
 20
0.0
 30
0.0
  3
IDAEP
  1

  0
LWPOLYLINE
  5
18BB
330
18BA
100
AcDbEntity
  8
0
100
AcDbPolyline
 90
        3
 70
     0
 43
0.0016666666666667
 10
0.0
 20
0.4999999999999981
 42
0.9999999999999998
 10
0.0
 20
0.0
 42
-0.9999999999999998
 10
0.0
 20
-0.4999999999999981
 42
5441543991412035
  0
ENDBLK
  5
18BD
330
18BA
100
AcDbEntity
  8
0
100
AcDbBlockEnd
  0
BLOCK
  5
1A6B
330
1A6A
100
AcDbEntity
  8
0
100
AcDbBlockBegin
  2
PlotLayout2002
 70
     0
 10
0.0
 20
0.0
 30
0.0
  3
PlotLayout2002
  1

  0
ENDBLK
  5
1A6C
330
1A6A
100
AcDbEntity
  8
0
100
AcDbBlockEnd
  0
BLOCK
  5
1AAD
330
1AAB
100
AcDbEntity
  8
0
100
AcDbBlockBegin
  2
pagesetups
 70
     0
 10
0.0
 20
0.0
 30
0.0
  3
pagesetups
  1

  0
INSERT
  5
1AAC
330
1AAB
100
AcDbEntity
  8
0
100
AcDbBlockReference
  2
PlotLayout2002
 10
0.0
 20
0.0
 30
0.0
  0
ENDBLK
  5
1AAE
330
1AAB
100
AcDbEntity
  8
0
100
AcDbBlockEnd
  0
BLOCK
  5
1B31
330
1B2E
100
AcDbEntity
  8
0
100
AcDbBlockBegin
  2
bubble
 70
     2
 10
0.0
 20
0.0
 30
0.0
  3
bubble
  1

  0
CIRCLE
  5
1B2F
330
1B2E
100
AcDbEntity
  8
0
100
AcDbCircle
 10
0.0
 20
0.0
 30
0.0
 40
0.1398891854377198
  0
ATTDEF
  5
1B30
330
1B2E
100
AcDbEntity
  8
0
100
AcDbText
 10
0.0
 20
0.0
 30
0.0
 40
0.125
  1

  7
ROMANS
 72
     4
 11
0.0
 21
0.0
 31
0.0
100
AcDbAttributeDefinition
  3
Number
  2
XX
 70
     0
  0
ENDBLK
  5
1B32
330
1B2E
100
AcDbEntity
  8
0
100
AcDbBlockEnd
  0
ENDSEC
  0
SECTION
  2
ENTITIES
  0
TEXT
  5
1A05
330
1E
100
AcDbEntity
  8
TEXT_BUBBLES
100
AcDbText
 10
10.99213996099788
 20
6.133757270327519
 30
0.0
 40
0.125
  1
A CHANNEL (1-28) DEC-SEN
  7
L100
100
AcDbText
  0
TEXT
  5
1A06
330
1E
100
AcDbEntity
  8
TEXT_BUBBLES
100
AcDbText
 10
10.73628005810121
 20
6.343933408190297
 30
0.0
 40
0.125
  1
SENSOR DECODER - SET TO
  7
L100
100
AcDbText
  0
TEXT
  5
1A07
330
1E
100
AcDbEntity
  8
TEXT_BUBBLES
100
AcDbText
 10
10.73628005810121
 20
5.816516919210517
 30
0.0
 40
0.125
  1
SENSOR WITH DRY CONTACT
  7
L100
100
AcDbText
  0
TEXT
  5
1A08
330
1E
100
AcDbEntity
  8
TEXT_BUBBLES
100
AcDbText
 10
10.73628005810121
 20
5.242490768635759
 30
0.0
 40
0.125
  1
SENSING DEVICE (I.E. MOISTURE,
  7
L100
100
AcDbText
  0
TEXT
  5
1A09
330
1E
100
AcDbEntity
  8
TEXT_BUBBLES
100
AcDbText
 10
10.99213996099788
 20
5.028205054350046
 30
0.0
 40
0.125
  1
RAIN SENSOR)
  7
L100
100
AcDbText
  0
TEXT
  5
1A0A
330
1E
100
AcDbEntity
  8
TEXT_BUBBLES
100
AcDbText
 10
10.41815500207501
 20
5.239165921788092
 30
0.0
 40
0.125
  1
3
  7
ROMANS
 72
     4
 11
10.47767881159882
 21
5.301665921788092
 31
0.0
100
AcDbText
  0
CIRCLE
  5
1A0B
330
1E
100
AcDbEntity
  8
TEXT_BUBBLES
100
AcDbCircle
 10
10.47767881159882
 20
5.301665921788092
 30
0.0
 40
0.15625
  0
CIRCLE
  5
1A0C
330
1E
100
AcDbEntity
  8
TEXT_BUBBLES
100
AcDbCircle
 10
10.47767881159882
 20
5.87569207236285
 30
0.0
 40
0.15625
  0
TEXT
  5
1A0D
330
1E
100
AcDbEntity
  8
TEXT_BUBBLES
100
AcDbText
 10
10.41815500207501
 20
5.81319207236285
 30
0.0
 40
0.125
  1
2
  7
ROMANS
 72
     4
 11
10.47767881159882
 21
5.87569207236285
 31
0.0
100
AcDbText
  0
TEXT
  5
1A0E
330
1E
100
AcDbEntity
  8
TEXT_BUBBLES
100
AcDbText
 10
10.99213996099788
 20
5.606340781347736
 30
0.0
 40
0.125
  1
CLOSING
  7
L100
100
AcDbText
  0
TEXT
  5
1A0F
330
1E
100
AcDbEntity
  8
TEXT_BUBBLES
100
AcDbText
 10
10.42708357350358
 20
6.34060856134263
 30
0.0
 40
0.125
  1
1
  7
ROMANS
 72
     4
 11
10.47767881159882
 21
6.40310856134263
 31
0.0
100
AcDbText
  0
CIRCLE
  5
1A10
330
1E
100
AcDbEntity
  8
TEXT_BUBBLES
100
AcDbCircle
 10
10.47767881159882
 20
6.40310856134263
 30
0.0
 40
0.15625
  0
LWPOLYLINE
  5
1A39
330
1E
100
AcDbEntity
  8
IMAGE
100
AcDbPolyline
 90
        4
 70
     1
 43
0.0
 10
0.0
 20
0.0
 10
16.49
 20
0.0
 10
16.49
 20
10.43999999999999
 10
0.0
 20
10.43999999999999
  0
INSERT
  5
1A3A
330
1E
100
AcDbEntity
  8
TEXT_BUBBLES
100
AcDbBlockReference
 66
     1
  2
TITLBLK
 10
0.6064423705144826
 20
0.8842270964783676
 30
0.0
  0
ATTRIB
  5
1A3B
330
1A3A
100
AcDbEntity
  8
TITLE
100
AcDbText
 10
1.231442370514482
 20
0.9842270964783672
 30
0.0
 40
0.2
  1
MAXICOM SENSOR MONITORING CONDITION
  7
L200
100
AcDbAttribute
  2
TITLE2
 70
     0
  0
ATTRIB
  5
1A3C
330
1A3A
100
AcDbEntity
  8
TITLE
100
AcDbText
 10
0.3733591508691892
 20
0.7855913529585859
 30
0.0
 40
0.2
  1
403
  7
L200
 72
     4
 11
0.6064423705144826
 21
0.8842270964783676
 31
0.0
100
AcDbAttribute
  2
#
 70
     0
  0
ATTRIB
  5
1A3D
330
1A3A
100
AcDbEntity
  8
TITLE
 62
     7
100
AcDbText
 10
1.231442370514482
 20
0.7005637793954893
 30
0.0
 40
0.1
  1
N.T.S.
  7
L100
100
AcDbAttribute
  2
SCALE
 70
     0
  0
ATTRIB
  5
1A3E
330
1A3A
100
AcDbEntity
  8
TITLE
100
AcDbText
 10
2.713645751168311
 20
0.5927927664583184
 30
0.0
 40
0.2
  1
TWO-WIRE COMMUNICATION
  7
L200
100
AcDbAttribute
  2
TITLE3
 70
     0
  0
ATTRIB
  5
1A3F
330
1A3A
100
AcDbEntity
  8
TITLE
 62
     7
100
AcDbText
 10
0.2629062238347424
 20
0.0483156324730211
 30
0.0
 40
0.08
  1
403-SENSOR MONITOR-TW.DWG
  7
L80
 72
     2
 11
2.18290622383474
 21
0.0483156324730211
 31
0.0
100
AcDbAttribute
  2
DWG-NAME
 70
     0
  0
ATTRIB
  5
1A40
330
1A3A
100
AcDbEntity
  8
TITLE
 62
     7
100
AcDbText
 10
7.731500544252091
 20
0.9696027915446396
 30
0.0
 40
0.08
  1
1-16-04
  7
L80
 72
     2
 11
8.261024353775901
 21
0.9696027915446396
 31
0.0
100
AcDbAttribute
  2
REVISED
 70
     0
  0
ATTRIB
  5
1A41
330
1A3A
100
AcDbEntity
  8
TITLE
100
AcDbText
 10
1.023879185805707
 20
1.34371230274675
 30
0.0
 40
0.2
  1

  7
L200
100
AcDbAttribute
  2
TITLE1
 70
     0
  0
ATTRIB
  5
1A42
330
1A3A
100
AcDbEntity
  8
TITLE
100
AcDbText
 10
2.713645751168311
 20
0.2692560808167741
 30
0.0
 40
0.2
  1

  7
L200
100
AcDbAttribute
  2
TITLE4
 70
     0
  0
SEQEND
  5
1A43
330
1A3A
100
AcDbEntity
  8
TEXT_BUBBLES
  0
INSERT
  5
1AB1
330
1E
100
AcDbEntity
  8
0
100
AcDbBlockReference
  2
pagesetups
 10
0.0
 20
0.0
 30
0.0
  0
TEXT
  5
1B25
330
1E
100
AcDbEntity
  8
TEXT_BUBBLES
100
AcDbText
 10
10.73628005810121
 20
3.974684580935567
 30
0.0
 40
0.125
  1
USE RAIN BIRD MSP-1 FOR PROPER 
  7
L100
100
AcDbText
1001
CLSI_CADWRITER
1002
{
1070
  4120
1070
     0
1002
}
1002
{
1070
  4120
1070
     0
1002
}
  0
TEXT
  5
1B26
330
1E
100
AcDbEntity
  8
TEXT_BUBBLES
100
AcDbText
 10
10.73628005810121
 20
3.749684580935566
 30
0.0
 40
0.125
  1
SURGE PROTECTION.
  7
L100
100
AcDbText
1001
CLSI_CADWRITER
1002
{
1070
  4120
1070
     0
1002
}
  0
TEXT
  5
1B27
330
1E
100
AcDbEntity
  8
TEXT_BUBBLES
100
AcDbText
 10
10.73628005810121
 20
4.199684580935569
 30
0.0
 40
0.125
  1
NOTE:
  7
L100
100
AcDbText
1001
CLSI_CADWRITER
1002
{
1070
  4120
1070
     0
1002
}
1002
{
1070
  4120
1070
     0
1002
}
  0
LINE
  5
1CFD
330
1E
100
AcDbEntity
  8
IMAGE
100
AcDbLine
 10
3.992409117433957
 20
5.944422822201092
 30
0.0
 11
2.221876060995128
 21
5.944422822201092
 31
0.0
  0
LINE
  5
1CFE
330
1E
100
AcDbEntity
  8
IMAGE
100
AcDbLine
 10
3.992409117433957
 20
6.770124872838154
 30
0.0
 11
2.221876060995121
 21
6.770124872838154
 31
0.0
  0
TEXT
  5
1CFF
330
1E
100
AcDbEntity
  8
IMAGE
100
AcDbText
 10
3.24437259787054
 20
7.542154461580311
 30
0.0
 40
0.125
  1
2 WIRE PATH
  7
ROMANS
100
AcDbText
  0
LWPOLYLINE
  5
1D00
330
1E
100
AcDbEntity
  8
IMAGE
100
AcDbPolyline
 90
        3
 70
     0
 43
0.01875
 10
5.257329414774922
 20
7.961957309177028
 10
5.257329414774922
 20
7.881339718101321
 10
2.891135451022424
 20
7.881339718101314
  0
LWPOLYLINE
  5
1D01
330
1E
100
AcDbEntity
  8
IMAGE
100
AcDbPolyline
 90
        3
 70
     0
 43
0.01875
 10
5.036573308718406
 20
7.299743348339431
 10
5.036573308718406
 20
7.21912575726372
 10
2.891135451022424
 20
7.219125757263716
  0
TEXT
  5
1D02
330
1E
100
AcDbEntity
  8
IMAGE
100
AcDbText
 10
3.24437259787054
 20
7.354785532637079
 30
0.0
 40
0.125
  1
(SEE NOTE)
  7
ROMANS
100
AcDbText
  0
LINE
  5
1D03
330
1E
100
AcDbEntity
  8
TEXT_BUBBLES
100
AcDbLine
 10
2.812654970376904
 20
6.86073584759187
 30
0.0
 11
2.391883185541008
 21
7.048849805847774
 31
0.0
  0
SOLID
  5
1D04
330
1E
100
AcDbEntity
  8
TEXT_BUBBLES
100
AcDbTrace
 10
2.827960151769101
 20
6.894970353905707
 30
0.0
 11
2.797349788984707
 21
6.826501341278037
 31
0.0
 12
3.018062008259907
 22
6.768904759238692
 32
0.0
 13
3.018062008259907
 23
6.768904759238692
 33
0.0
  0
LINE
  5
1D05
330
1E
100
AcDbEntity
  8
IMAGE
100
AcDbLine
 10
2.145246194189322
 20
6.021052689006891
 30
0.0
 11
2.145246194189319
 21
6.693495006032348
 31
0.0
  0
ARC
  5
1D06
330
1E
100
AcDbEntity
  8
IMAGE
100
AcDbCircle
 10
2.221876060995128
 20
6.021052689006891
 30
0.0
 40
0.0766298668058036
100
AcDbArc
 50
180.0000000000002
 51
270.0
  0
ARC
  5
1D07
330
1E
100
AcDbEntity
  8
IMAGE
100
AcDbCircle
 10
2.221876060995121
 20
6.693495006032348
 30
0.0
 40
0.0766298668058036
100
AcDbArc
 50
90.0
 51
180.0
  0
INSERT
  5
1D08
330
1E
100
AcDbEntity
  8
TEXT_BUBBLES
100
AcDbBlockReference
 66
     1
  2
bubble
 10
2.291525059386078
 20
7.154472002970562
 30
0.0
  0
ATTRIB
  5
1D09
330
1D08
100
AcDbEntity
  8
TEXT_BUBBLES
100
AcDbText
 10
2.24092982129084
 20
7.091972002970562
 30
0.0
 40
0.125
  1
1
  7
ROMANS
 72
     4
 11
2.291525059386078
 21
7.154472002970562
 31
0.0
100
AcDbAttribute
  2
XX
 70
     0
  0
SEQEND
  5
1D0A
330
1D08
100
AcDbEntity
  8
TEXT_BUBBLES
  0
INSERT
  5
1D0B
330
1E
100
AcDbEntity
  8
IMAGE
100
AcDbBlockReference
  2
IDAEP
 10
2.891135451022428
 20
7.219125757263716
 30
0.0
 41
0.1875
 42
0.1875000000000035
 43
0.1875
  0
LINE
  5
1D0C
330
1E
100
AcDbEntity
  8
IMAGE
100
AcDbLine
 10
3.027477270418412
 20
7.230139211791422
 30
0.0
 11
3.027477270418412
 21
7.607566424959008
 31
0.0
  0
SOLID
  5
1D0D
330
1E
100
AcDbEntity
  8
IMAGE
100
AcDbTrace
 10
3.064977270418413
 20
7.45513921179142
 30
0.0
 11
2.989977270418414
 21
7.45513921179142
 31
0.0
 12
3.027477270418412
 22
7.230139211791422
 32
0.0
 13
3.027477270418412
 23
7.230139211791422
 33
0.0
  0
LINE
  5
1D0E
330
1E
100
AcDbEntity
  8
IMAGE
100
AcDbLine
 10
3.027477270418412
 20
7.607566424959008
 30
0.0
 11
3.195542374833966
 21
7.607566424959008
 31
0.0
  0
INSERT
  5
1D0F
330
1E
100
AcDbEntity
  8
IMAGE
100
AcDbBlockReference
  2
IDAEP
 10
2.891135451022424
 20
7.881339718101314
 30
0.0
 41
0.1875
 42
0.1875000000000035
 43
0.1875
  0
LWPOLYLINE
  5
1D10
330
1E
100
AcDbEntity
  8
IMAGE
100
AcDbPolyline
 90
        7
 70
     0
 43
0.01875
 10
5.306534556641967
 20
7.961985264344866
 10
5.306534556641967
 20
7.881339718101314
 10
5.306534556641967
 20
7.260832304252614
 42
-1.0
 10
5.306534556641967
 20
7.177419210274825
 10
5.306534556641967
 20
6.424918255721978
 10
4.616681647583792
 20
6.424918255721978
 10
4.497554211395726
 20
6.398740337447035
  0
LWPOLYLINE
  5
1D11
330
1E
100
AcDbEntity
  8
IMAGE
100
AcDbPolyline
 90
        5
 70
     0
 43
0.01875
 10
4.497554211395726
 20
6.449787283237705
 10
4.616681647583792
 20
6.485127488372478
 10
5.085778450585454
 20
6.485127488372478
 10
5.085778450585454
 20
7.219125757263716
 10
5.085778450585454
 20
7.299771303507265
  0
LINE
  5
1D12
330
1E
100
AcDbEntity
  8
IMAGE
100
AcDbLine
 10
4.267717955914989
 20
5.858729930060571
 30
0.0
 11
4.267717955914971
 21
6.855817764978668
 31
0.0
  0
LINE
  5
1D13
330
1E
100
AcDbEntity
  8
IMAGE
100
AcDbLine
 10
4.304774671652683
 20
5.858729930060571
 30
0.0
 11
4.304774671652676
 21
6.855817764978668
 31
0.0
  0
LINE
  5
1D14
330
1E
100
AcDbEntity
  8
IMAGE
100
AcDbLine
 10
4.005487242305374
 20
5.931344697329679
 30
0.0
 11
4.005487242305374
 21
6.783202997709556
 31
0.0
  0
LINE
  5
1D15
330
1E
100
AcDbEntity
  8
IMAGE
100
AcDbLine
 10
3.992409117433957
 20
6.770124872838154
 30
0.0
 11
3.992409117433957
 21
5.944422822201092
 31
0.0
  0
LINE
  5
1D16
330
1E
100
AcDbEntity
  8
IMAGE
100
AcDbLine
 10
4.153826538591093
 20
5.858729930060571
 30
0.0
 11
4.153826538591093
 21
6.855817764978668
 31
0.0
  0
LINE
  5
1D17
330
1E
100
AcDbEntity
  8
IMAGE
100
AcDbLine
 10
4.30477467165268
 20
5.95841183116522
 30
0.0
 11
4.153826538591093
 21
5.95841183116522
 31
0.0
  0
LINE
  5
1D18
330
1E
100
AcDbEntity
  8
IMAGE
100
AcDbLine
 10
4.30477467165268
 20
5.858729930060571
 30
0.0
 11
4.153826538591093
 21
5.858729930060571
 31
0.0
  0
ARC
  5
1D19
330
1E
100
AcDbEntity
  8
IMAGE
100
AcDbCircle
 10
3.992409117433957
 20
5.931344697329679
 30
0.0
 40
0.0130781248714132
100
AcDbArc
 50
0.0
 51
90.0
  0
ARC
  5
1D1A
330
1E
100
AcDbEntity
  8
IMAGE
100
AcDbCircle
 10
4.169908027747641
 20
5.908570880612886
 30
0.0
 40
0.0354752241723299
100
AcDbArc
 50
134.9999999999998
 51
224.9999999999998
  0
LINE
  5
1D1B
330
1E
100
AcDbEntity
  8
IMAGE
100
AcDbLine
 10
4.153826538591093
 20
5.93365565218926
 30
0.0
 11
4.144823256171275
 21
5.93365565218926
 31
0.0
  0
LINE
  5
1D1C
330
1E
100
AcDbEntity
  8
IMAGE
100
AcDbLine
 10
4.153826538591093
 20
5.883486109036519
 30
0.0
 11
4.144823256171275
 21
5.883486109036519
 31
0.0
  0
ARC
  5
1D1D
330
1E
100
AcDbEntity
  8
IMAGE
100
AcDbCircle
 10
4.022692244637077
 20
5.928247431877933
 30
0.0
 40
0.0172050023317048
100
AcDbArc
 50
180.0000000000002
 51
270.0
  0
LINE
  5
1D1E
330
1E
100
AcDbEntity
  8
IMAGE
100
AcDbLine
 10
4.005487242305374
 20
5.928247431877933
 30
0.0
 11
4.005487242305374
 21
5.931344697329679
 31
0.0
  0
LINE
  5
1D1F
330
1E
100
AcDbEntity
  8
IMAGE
100
AcDbLine
 10
4.134519004365426
 20
5.911042429546222
 30
0.0
 11
4.022692244637077
 21
5.911042429546222
 31
0.0
  0
LINE
  5
1D20
330
1E
100
AcDbEntity
  8
IMAGE
100
AcDbLine
 10
4.304774671652676
 20
5.876170530416738
 30
0.0
 11
4.327005522087265
 21
5.876170530416738
 31
0.0
  0
LINE
  5
1D21
330
1E
100
AcDbEntity
  8
IMAGE
100
AcDbLine
 10
4.304774671652676
 20
5.940971230809049
 30
0.0
 11
4.327005522087265
 21
5.940971230809049
 31
0.0
  0
LINE
  5
1D22
330
1E
100
AcDbEntity
  8
IMAGE
100
AcDbLine
 10
4.327005522087265
 20
5.890732302207366
 30
0.0
 11
4.304774671652676
 21
5.890732302207366
 31
0.0
  0
LINE
  5
1D23
330
1E
100
AcDbEntity
  8
IMAGE
100
AcDbLine
 10
4.327005522087265
 20
5.926409459018424
 30
0.0
 11
4.304774671652676
 21
5.926409459018424
 31
0.0
  0
LINE
  5
1D24
330
1E
100
AcDbEntity
  8
IMAGE
100
AcDbLine
 10
4.327005522087265
 20
5.876170530416738
 30
0.0
 11
4.327005522087265
 21
5.940971230809049
 31
0.0
  0
LINE
  5
1D25
330
1E
100
AcDbEntity
  8
IMAGE
100
AcDbLine
 10
4.327005522087265
 20
5.89745314840753
 30
0.0
 11
4.35275827715402
 21
5.89745314840753
 31
0.0
  0
LINE
  5
1D26
330
1E
100
AcDbEntity
  8
IMAGE
100
AcDbLine
 10
4.327005522087265
 20
5.91968861281825
 30
0.0
 11
4.35275827715402
 21
5.91968861281825
 31
0.0
  0
LINE
  5
1D27
330
1E
100
AcDbEntity
  8
IMAGE
100
AcDbLine
 10
4.35275827715402
 20
5.89745314840753
 30
0.0
 11
4.35275827715402
 21
5.91968861281825
 31
0.0
  0
LINE
  5
1D28
330
1E
100
AcDbEntity
  8
IMAGE
100
AcDbLine
 10
4.30477467165268
 20
6.756135863874026
 30
0.0
 11
4.153826538591093
 21
6.756135863874026
 31
0.0
  0
LINE
  5
1D29
330
1E
100
AcDbEntity
  8
IMAGE
100
AcDbLine
 10
4.30477467165268
 20
6.855817764978668
 30
0.0
 11
4.153826538591093
 21
6.855817764978668
 31
0.0
  0
ARC
  5
1D2A
330
1E
100
AcDbEntity
  8
IMAGE
100
AcDbCircle
 10
3.992409117433957
 20
6.783202997709556
 30
0.0
 40
0.0130781248714132
100
AcDbArc
 50
270.0
 51
0.0
  0
ARC
  5
1D2B
330
1E
100
AcDbEntity
  8
IMAGE
100
AcDbCircle
 10
4.169908027747641
 20
6.805976814426353
 30
0.0
 40
0.0354752241723299
100
AcDbArc
 50
134.9999999999998
 51
224.9999999999998
  0
LINE
  5
1D2C
330
1E
100
AcDbEntity
  8
IMAGE
100
AcDbLine
 10
4.153826538591093
 20
6.780892042849986
 30
0.0
 11
4.144823256171275
 21
6.780892042849986
 31
0.0
  0
LINE
  5
1D2D
330
1E
100
AcDbEntity
  8
IMAGE
100
AcDbLine
 10
4.153826538591093
 20
6.83106158600272
 30
0.0
 11
4.144823256171275
 21
6.83106158600272
 31
0.0
  0
LINE
  5
1D2E
330
1E
100
AcDbEntity
  8
IMAGE
100
AcDbLine
 10
4.005487242305374
 20
6.786300263161306
 30
0.0
 11
4.005487242305374
 21
6.783202997709556
 31
0.0
  0
ARC
  5
1D2F
330
1E
100
AcDbEntity
  8
IMAGE
100
AcDbCircle
 10
4.022692244637077
 20
6.786300263161306
 30
0.0
 40
0.0172050023317048
100
AcDbArc
 50
90.0
 51
180.0
  0
LINE
  5
1D30
330
1E
100
AcDbEntity
  8
IMAGE
100
AcDbLine
 10
4.134519004365426
 20
6.803505265493017
 30
0.0
 11
4.022692244637077
 21
6.803505265493017
 31
0.0
  0
LINE
  5
1D31
330
1E
100
AcDbEntity
  8
IMAGE
100
AcDbLine
 10
4.497554211395726
 20
6.48857745102366
 30
0.0
 11
4.497554211395726
 21
6.225970244015579
 31
0.0
  0
LINE
  5
1D32
330
1E
100
AcDbEntity
  8
IMAGE
100
AcDbLine
 10
4.30477467165268
 20
6.225970244015579
 30
0.0
 11
4.497554211395726
 21
6.225970244015579
 31
0.0
  0
LINE
  5
1D33
330
1E
100
AcDbEntity
  8
IMAGE
100
AcDbLine
 10
4.30477467165268
 20
6.48857745102366
 30
0.0
 11
4.497554211395726
 21
6.48857745102366
 31
0.0
  0
LINE
  5
1D34
330
1E
100
AcDbEntity
  8
IMAGE
100
AcDbLine
 10
4.327005522087265
 20
6.788138236020815
 30
0.0
 11
4.304774671652676
 21
6.788138236020815
 31
0.0
  0
LINE
  5
1D35
330
1E
100
AcDbEntity
  8
IMAGE
100
AcDbLine
 10
4.327005522087265
 20
6.82381539283188
 30
0.0
 11
4.304774671652676
 21
6.82381539283188
 31
0.0
  0
LINE
  5
1D36
330
1E
100
AcDbEntity
  8
IMAGE
100
AcDbLine
 10
4.304774671652676
 20
6.773576464230186
 30
0.0
 11
4.327005522087265
 21
6.773576464230186
 31
0.0
  0
LINE
  5
1D37
330
1E
100
AcDbEntity
  8
IMAGE
100
AcDbLine
 10
4.304774671652676
 20
6.838377164622508
 30
0.0
 11
4.327005522087265
 21
6.838377164622508
 31
0.0
  0
LINE
  5
1D38
330
1E
100
AcDbEntity
  8
IMAGE
100
AcDbLine
 10
4.35275827715402
 20
6.817094546631706
 30
0.0
 11
4.35275827715402
 21
6.794859082220989
 31
0.0
  0
LINE
  5
1D39
330
1E
100
AcDbEntity
  8
IMAGE
100
AcDbLine
 10
4.327005522087265
 20
6.794859082220989
 30
0.0
 11
4.35275827715402
 21
6.794859082220989
 31
0.0
  0
LINE
  5
1D3A
330
1E
100
AcDbEntity
  8
IMAGE
100
AcDbLine
 10
4.327005522087265
 20
6.817094546631706
 30
0.0
 11
4.35275827715402
 21
6.817094546631706
 31
0.0
  0
LINE
  5
1D3B
330
1E
100
AcDbEntity
  8
IMAGE
100
AcDbLine
 10
4.327005522087265
 20
6.838377164622508
 30
0.0
 11
4.327005522087265
 21
6.773576464230186
 31
0.0
  0
TEXT
  5
1D3C
330
1E
100
AcDbEntity
  8
IMAGE
100
AcDbText
 10
4.029775907950759
 20
6.954553331245142
 30
0.0
 40
0.125
  1
BLACK
  7
ROMANS
 72
     2
 11
4.59525209842695
 21
6.954553331245142
 31
0.0
100
AcDbText
  0
LINE
  5
1D3D
330
1E
100
AcDbEntity
  8
IMAGE
100
AcDbLine
 10
4.714352931050036
 20
7.607566424959008
 30
0.0
 11
4.552512478461437
 21
7.607566424959008
 31
0.0
  0
LWPOLYLINE
  5
1D3E
330
1E
100
AcDbEntity
  8
IMAGE
100
AcDbPolyline
 90
        3
 70
     0
 43
0.01875
 10
5.355739698509015
 20
7.961957309177028
 10
5.355739698509015
 20
7.881339718101321
 10
7.522214524470602
 20
7.881339718101314
  0
LWPOLYLINE
  5
1D3F
330
1E
100
AcDbEntity
  8
IMAGE
100
AcDbPolyline
 90
        3
 70
     0
 43
0.01875
 10
5.134983592452503
 20
7.299743348339431
 10
5.134983592452503
 20
7.21912575726372
 10
7.522214524470602
 20
7.219125757263716
  0
LINE
  5
1D40
330
1E
100
AcDbEntity
  8
IMAGE
100
AcDbLine
 10
4.860778450585453
 20
7.022705287590488
 30
0.0
 11
4.636868355130825
 21
7.022705287590488
 31
0.0
  0
SOLID
  5
1D41
330
1E
100
AcDbEntity
  8
IMAGE
100
AcDbTrace
 10
4.676852931050039
 20
7.656339718101319
 30
0.0
 11
4.751852931050038
 21
7.656339718101319
 31
0.0
 12
4.714352931050036
 22
7.881339718101321
 32
0.0
 13
4.714352931050036
 23
7.881339718101321
 33
0.0
  0
LINE
  5
1D42
330
1E
100
AcDbEntity
  8
IMAGE
100
AcDbLine
 10
4.714352931050036
 20
7.656339718101319
 30
0.0
 11
4.714352931050036
 21
7.607566424959008
 31
0.0
  0
SOLID
  5
1D43
330
1E
100
AcDbEntity
  8
IMAGE
100
AcDbTrace
 10
5.531534556641968
 20
7.060205287590489
 30
0.0
 11
5.531534556641968
 21
6.985205287590494
 31
0.0
 12
5.306534556641967
 22
7.022705287590488
 32
0.0
 13
5.306534556641967
 23
7.022705287590488
 33
0.0
  0
SOLID
  5
1D44
330
1E
100
AcDbEntity
  8
IMAGE
100
AcDbTrace
 10
4.860778450585453
 20
7.060205287590489
 30
0.0
 11
4.860778450585453
 21
6.985205287590494
 31
0.0
 12
5.085778450585454
 22
7.022705287590488
 32
0.0
 13
5.085778450585454
 23
7.022705287590488
 33
0.0
  0
LINE
  5
1D45
330
1E
100
AcDbEntity
  8
IMAGE
100
AcDbLine
 10
5.141098222904865
 20
7.318969895774356
 30
0.0
 11
5.124357988871985
 21
7.482435095092251
 31
0.0
  0
LINE
  5
1D46
330
1E
100
AcDbEntity
  8
IMAGE
100
AcDbLine
 10
5.15551562141119
 20
7.299731683373257
 30
0.0
 11
5.016041279759718
 21
7.299810923641272
 31
0.0
  0
LINE
  5
1D47
330
1E
100
AcDbEntity
  8
IMAGE
100
AcDbLine
 10
5.155526546657632
 20
7.318961698537309
 30
0.0
 11
5.016052205006168
 21
7.319040938805331
 31
0.0
  0
LINE
  5
1D48
330
1E
100
AcDbEntity
  8
IMAGE
100
AcDbLine
 10
5.030480528758932
 20
7.319032741568276
 30
0.0
 11
5.047406492557456
 21
7.482478813937744
 31
0.0
  0
LINE
  5
1D49
330
1E
100
AcDbEntity
  8
IMAGE
100
AcDbLine
 10
5.094295893006307
 20
7.477352740789589
 30
0.0
 11
5.099832555977819
 21
7.318993340247869
 31
0.0
  0
LINE
  5
1D4A
330
1E
100
AcDbEntity
  8
IMAGE
100
AcDbLine
 10
5.110612958389285
 20
7.477343470492135
 30
0.0
 11
5.122901414574073
 21
7.318980234019752
 31
0.0
  0
LINE
  5
1D4B
330
1E
100
AcDbEntity
  8
IMAGE
100
AcDbLine
 10
5.061145728707622
 20
7.477371574561258
 30
0.0
 11
5.048677337089728
 21
7.319022403322895
 31
0.0
  0
LINE
  5
1D4C
330
1E
100
AcDbEntity
  8
IMAGE
100
AcDbLine
 10
5.077462794090607
 20
7.477362304263804
 30
0.0
 11
5.071746195685985
 21
7.319009297094774
 31
0.0
  0
LINE
  5
1D4D
330
1E
100
AcDbEntity
  8
IMAGE
100
AcDbLine
 10
5.016052205006168
 20
7.319040938805331
 30
0.0
 11
5.016041279759718
 21
7.299810923641272
 31
0.0
  0
ARC
  5
1D4E
330
1E
100
AcDbEntity
  8
IMAGE
100
AcDbCircle
 10
5.085878969098466
 20
7.476698436345712
 30
0.0
 40
0.0389042956022208
100
AcDbArc
 50
8.479507237339211
 51
171.4553892836566
  0
LINE
  5
1D4F
330
1E
100
AcDbEntity
  8
IMAGE
100
AcDbLine
 10
5.155526546657632
 20
7.318961698537309
 30
0.0
 11
5.15551562141119
 21
7.299731683373257
 31
0.0
  0
LINE
  5
1D50
330
1E
100
AcDbEntity
  8
IMAGE
100
AcDbLine
 10
5.531534556641968
 20
7.022705287590488
 30
0.0
 11
5.738455462056698
 21
7.022705287590488
 31
0.0
  0
TEXT
  5
1D51
330
1E
100
AcDbEntity
  8
IMAGE
100
AcDbText
 10
5.748447928244008
 20
6.954772113560457
 30
0.0
 40
0.125
  1
RED
  7
ROMANS
100
AcDbText
  0
LINE
  5
1D52
330
1E
100
AcDbEntity
  8
IMAGE
100
AcDbLine
 10
5.298218900147119
 20
8.139576265101402
 30
0.0
 11
5.292502301742498
 21
7.981223257932372
 31
0.0
  0
LINE
  5
1D53
330
1E
100
AcDbEntity
  8
IMAGE
100
AcDbLine
 10
5.281901834764138
 20
8.139585535398856
 30
0.0
 11
5.269433443146244
 21
7.981236364160492
 31
0.0
  0
LINE
  5
1D54
330
1E
100
AcDbEntity
  8
IMAGE
100
AcDbLine
 10
5.331369064445798
 20
8.139557431329736
 30
0.0
 11
5.343657520630586
 21
7.98119419485735
 31
0.0
  0
LINE
  5
1D55
330
1E
100
AcDbEntity
  8
IMAGE
100
AcDbLine
 10
5.31505199906282
 20
8.13956670162719
 30
0.0
 11
5.320588662034332
 21
7.981207301085467
 31
0.0
  0
LINE
  5
1D56
330
1E
100
AcDbEntity
  8
IMAGE
100
AcDbLine
 10
5.361854328961378
 20
7.981183856611957
 30
0.0
 11
5.345114094928501
 21
8.144649055929848
 31
0.0
  0
LINE
  5
1D57
330
1E
100
AcDbEntity
  8
IMAGE
100
AcDbLine
 10
5.251236634815448
 20
7.981246702405877
 30
0.0
 11
5.268162598613972
 21
8.144692774775345
 31
0.0
  0
LINE
  5
1D58
330
1E
100
AcDbEntity
  8
IMAGE
100
AcDbLine
 10
5.376282652714145
 20
7.98117565937491
 30
0.0
 11
5.236808311062681
 21
7.981254899642932
 31
0.0
  0
LINE
  5
1D59
330
1E
100
AcDbEntity
  8
IMAGE
100
AcDbLine
 10
5.376271727467706
 20
7.961945644210855
 30
0.0
 11
5.236797385816231
 21
7.962024884478873
 31
0.0
  0
LINE
  5
1D5A
330
1E
100
AcDbEntity
  8
IMAGE
100
AcDbLine
 10
5.236808311062681
 20
7.981254899642932
 30
0.0
 11
5.236797385816231
 21
7.962024884478873
 31
0.0
  0
LINE
  5
1D5B
330
1E
100
AcDbEntity
  8
IMAGE
100
AcDbLine
 10
5.376282652714145
 20
7.98117565937491
 30
0.0
 11
5.376271727467706
 21
7.961945644210855
 31
0.0
  0
ARC
  5
1D5C
330
1E
100
AcDbEntity
  8
IMAGE
100
AcDbCircle
 10
5.306635075154982
 20
8.138912397183309
 30
0.0
 40
0.0389042956022208
100
AcDbArc
 50
8.479507237339211
 51
171.4553892836566
  0
TEXT
  5
1D5D
330
1E
100
AcDbEntity
  8
IMAGE
100
AcDbText
 10
6.505468460794443
 20
7.259632374203194
 30
0.0
 40
0.125
  1
BLACK
  7
ROMANS
100
AcDbText
  0
TEXT
  5
1D5E
330
1E
100
AcDbEntity
  8
IMAGE
100
AcDbText
 10
6.505468460794443
 20
7.925785331827503
 30
0.0
 40
0.125
  1
RED
  7
ROMANS
100
AcDbText
  0
INSERT
  5
1D5F
330
1E
100
AcDbEntity
  8
IMAGE
100
AcDbBlockReference
  2
IDAEP
 10
7.522214524470602
 20
7.219125757263716
 30
0.0
 41
0.1875
 42
0.1875000000000035
 43
0.1875
 50
180.0
  0
INSERT
  5
1D60
330
1E
100
AcDbEntity
  8
IMAGE
100
AcDbBlockReference
  2
IDAEP
 10
7.522214524470602
 20
7.881339718101314
 30
0.0
 41
0.1875
 42
0.1875000000000035
 43
0.1875
 50
180.0
  0
LWPOLYLINE
  5
1D61
330
1E
100
AcDbEntity
  8
IMAGE
100
AcDbPolyline
 90
        4
 70
     0
 43
0.01875
 10
5.288588490668804
 20
4.800176930818917
 10
5.192412221702568
 20
4.800176930818917
 10
5.192412221702568
 20
4.320529807349405
 10
5.192412221702568
 20
4.320529807349405
  0
LWPOLYLINE
  5
1D62
330
1E
100
AcDbEntity
  8
IMAGE
100
AcDbPolyline
 90
        5
 70
     0
 43
0.01875
 10
4.990490885862531
 20
5.288358994492689
 10
5.086667154828766
 20
5.288358994492689
 10
5.086667154828766
 20
4.590397927785884
 10
3.033918547607868
 20
4.590397927785884
 10
3.03495466951082
 20
3.810196035661254
  0
LINE
  5
1D63
330
1E
100
AcDbEntity
  8
IMAGE
100
AcDbLine
 10
2.863423321534771
 20
3.9324492052622
 30
0.0
 11
4.172563195876996
 21
3.9324492052622
 31
0.0
  0
LWPOLYLINE
  5
1D64
330
1E
100
AcDbEntity
  8
IMAGE
100
AcDbPolyline
 90
        3
 70
     0
 43
0.01875
 10
5.192412221702568
 20
4.320529807349405
 10
3.503906106408958
 20
4.320529807349405
 10
3.504080183498341
 20
3.810196035661254
  0
LINE
  5
1D65
330
1E
100
AcDbEntity
  8
IMAGE
100
AcDbLine
 10
2.863423321534778
 20
3.150199243346543
 30
0.0
 11
4.172563195876996
 21
3.150199243346543
 31
0.0
  0
LWPOLYLINE
  5
1D66
330
1E
100
AcDbEntity
  8
IMAGE
100
AcDbPolyline
 90
        4
 70
     0
 43
0.00625
 10
3.03495466951082
 20
3.810196035661254
 10
2.876713800724498
 20
3.810196035661254
 10
2.876713800724498
 20
3.326086967704405
 10
4.642213577965936
 20
3.326086967704405
  0
LWPOLYLINE
  5
1D67
330
1E
100
AcDbEntity
  8
IMAGE
100
AcDbPolyline
 90
        4
 70
     0
 43
0.00625
 10
3.504080183498341
 20
3.810196035661254
 10
3.759463689345217
 20
3.810196035661254
 10
3.759463689345217
 20
3.478717171188881
 10
4.642213577965936
 20
3.478717171188881
  0
SOLID
  5
1D68
330
1E
100
AcDbEntity
  8
TEXT_BUBBLES
100
AcDbTrace
 10
3.269944219270854
 20
3.066416015567057
 30
0.0
 11
3.308549423042745
 21
3.002114862842313
 31
0.0
 12
3.482150279331033
 22
3.150081050520356
 32
0.0
 13
3.482150279331033
 23
3.150081050520356
 33
0.0
  0
CIRCLE
  5
1D69
330
1E
100
AcDbEntity
  8
TEXT_BUBBLES
100
AcDbCircle
 10
2.987084231964946
 20
2.855661788164281
 30
0.0
 40
0.15625
  0
TEXT
  5
1D6A
330
1E
100
AcDbEntity
  8
TEXT_BUBBLES
100
AcDbText
 10
2.927560422441136
 20
2.793161788164281
 30
0.0
 40
0.125
  1
2
  7
ROMANS
 72
     4
 11
2.987084231964946
 21
2.855661788164281
 31
0.0
100
AcDbText
  0
LINE
  5
1D6B
330
1E
100
AcDbEntity
  8
TEXT_BUBBLES
100
AcDbLine
 10
3.289246821156798
 20
3.034265439204686
 30
0.0
 11
3.122268727224358
 21
2.934014929399701
 31
0.0
  0
ARC
  5
1D6C
330
1E
100
AcDbEntity
  8
IMAGE
100
AcDbCircle
 10
2.863423321534771
 20
3.842765981773339
 30
0.0
 40
0.0896832234888614
100
AcDbArc
 50
90.0
 51
180.0000000000001
  0
LWPOLYLINE
  5
1D6D
330
1E
100
AcDbEntity
  8
IMAGE
100
AcDbPolyline
 90
        2
 70
     0
 43
0.03125
 10
3.504080183498341
 20
3.810196035661254
 10
3.065901367904395
 20
3.655043436485286
  0
ARC
  5
1D6F
330
1E
100
AcDbEntity
  8
IMAGE
100
AcDbCircle
 10
2.863423321534778
 20
3.239882466835403
 30
0.0
 40
0.0896832234888614
100
AcDbArc
 50
180.0
 51
270.0
  0
LWPOLYLINE
  5
1D70
330
1E
100
AcDbEntity
  8
IMAGE
100
AcDbPolyline
 90
        2
 70
     1
 43
0.0317613578807635
 10
3.01907399057044
 20
3.810196035661254
 42
1.0
 10
3.050835348451204
 20
3.810196035661254
 42
1.0
  0
LWPOLYLINE
  5
1D71
330
1E
100
AcDbEntity
  8
IMAGE
100
AcDbPolyline
 90
        2
 70
     1
 43
0.0317613578807635
 10
3.488199504557965
 20
3.810196035661254
 42
1.0
 10
3.519960862438725
 20
3.810196035661254
 42
1.0
  0
CIRCLE
  5
1D72
330
1E
100
AcDbEntity
  8
TEXT_BUBBLES
100
AcDbCircle
 10
5.667033679655279
 20
3.036525021642155
 30
0.0
 40
0.15625
  0
TEXT
  5
1D73
330
1E
100
AcDbEntity
  8
TEXT_BUBBLES
100
AcDbText
 10
5.609071350133572
 20
2.970312278901328
 30
0.0
 40
0.125
  1
3
  7
ROMANS
 72
     4
 11
5.668595159657382
 21
3.032812278901328
 31
0.0
100
AcDbText
  0
SOLID
  5
1D74
330
1E
100
AcDbEntity
  8
TEXT_BUBBLES
100
AcDbTrace
 10
5.380018850624988
 20
3.241585024332957
 30
0.0
 11
5.342706228846186
 21
3.176525295959777
 31
0.0
 12
5.166183354616048
 22
3.320993025482772
 32
0.0
 13
5.166183354616048
 23
3.320993025482772
 33
0.0
  0
ARC
  5
1D75
330
1E
100
AcDbEntity
  8
IMAGE
100
AcDbCircle
 10
4.172563195876996
 20
3.842765981773339
 30
0.0
 40
0.0896832234888614
100
AcDbArc
 50
0.0
 51
90.0
  0
LWPOLYLINE
  5
1D76
330
1E
100
AcDbEntity
  8
IMAGE
100
AcDbPolyline
 90
        8
 70
     1
 43
0.0375
 10
4.647461250470275
 20
3.478611786746036
 42
0.4142135623730959
 10
4.580331880671035
 20
3.411482416946794
 10
4.580331880671035
 20
3.393804444033682
 42
0.4142135623730951
 10
4.647461250470275
 20
3.326675074234442
 10
5.152184751088075
 20
3.326675074234442
 42
0.4142135623730951
 10
5.219314120887318
 20
3.393804444033682
 10
5.219314120887318
 20
3.411482416946794
 42
0.4142135623730951
 10
5.152184751088075
 20
3.478611786746034
  0
LINE
  5
1D77
330
1E
100
AcDbEntity
  8
IMAGE
100
AcDbLine
 10
4.262246419365858
 20
3.842765981773339
 30
0.0
 11
4.262246419365858
 21
3.239882466835403
 31
0.0
  0
ARC
  5
1D78
330
1E
100
AcDbEntity
  8
IMAGE
100
AcDbCircle
 10
4.172563195876996
 20
3.239882466835403
 30
0.0
 40
0.0896832234888614
100
AcDbArc
 50
270.0
 51
0.0
  0
LINE
  5
1D79
330
1E
100
AcDbEntity
  8
TEXT_BUBBLES
100
AcDbLine
 10
5.361362539735587
 20
3.209055160146368
 30
0.0
 11
5.530310513063842
 21
3.112161244559548
 31
0.0
  0
TEXT
  5
1D7A
330
1E
100
AcDbEntity
  8
IMAGE
100
AcDbText
 10
3.407324524602825
 20
4.853041739817568
 30
0.0
 40
0.125
  1
    YELLOW
  7
ROMANS
 72
     2
 11
4.591848334126634
 21
4.853041739817568
 31
0.0
100
AcDbText
  0
SOLID
  5
1D7B
330
1E
100
AcDbEntity
  8
IMAGE
100
AcDbTrace
 10
5.417412221702566
 20
5.348933661142064
 30
0.0
 11
5.417412221702566
 21
5.273933661142065
 31
0.0
 12
5.192412221702568
 22
5.311433661142064
 32
0.0
 13
5.192412221702568
 23
5.311433661142064
 33
0.0
  0
LWPOLYLINE
  5
1D7C
330
1E
100
AcDbEntity
  8
IMAGE
100
AcDbPolyline
 90
        5
 70
     0
 43
0.01875
 10
5.288588490668804
 20
4.870067261832922
 10
5.192412221702568
 20
4.870067261832922
 10
5.192412221702568
 20
6.324514463228062
 10
4.616681647583792
 20
6.324514463228062
 10
4.497554211395726
 20
6.340221229656631
  0
LWPOLYLINE
  5
1D7D
330
1E
100
AcDbEntity
  8
IMAGE
100
AcDbPolyline
 90
        5
 70
     0
 43
0.01875
 10
4.990490885862531
 20
5.358249325506694
 10
5.086667154828766
 20
5.358249325506694
 10
5.086667154828766
 20
6.260378558299922
 10
4.616681647583792
 20
6.260378558299922
 10
4.497554211395726
 20
6.281320887765343
  0
SOLID
  5
1D7E
330
1E
100
AcDbEntity
  8
IMAGE
100
AcDbTrace
 10
4.857374686285137
 20
4.958693696162917
 30
0.0
 11
4.857374686285137
 21
4.883693696162918
 31
0.0
 12
5.082374686285138
 22
4.921193696162918
 32
0.0
 13
5.082374686285138
 23
4.921193696162918
 33
0.0
  0
LINE
  5
1D7F
330
1E
100
AcDbEntity
  8
IMAGE
100
AcDbLine
 10
4.857374686285137
 20
4.921193696162918
 30
0.0
 11
4.633464590830513
 21
4.921193696162918
 31
0.0
  0
LINE
  5
1D80
330
1E
100
AcDbEntity
  8
IMAGE
100
AcDbLine
 10
4.812910468383382
 20
5.298671438121861
 30
0.0
 11
4.971259639621745
 21
5.286203046503965
 31
0.0
  0
LINE
  5
1D81
330
1E
100
AcDbEntity
  8
IMAGE
100
AcDbLine
 10
4.97124930137636
 20
5.268006238173171
 30
0.0
 11
4.807803229006893
 21
5.284932201971695
 31
0.0
  0
LINE
  5
1D82
330
1E
100
AcDbEntity
  8
IMAGE
100
AcDbLine
 10
4.812919738680836
 20
5.314988503504842
 30
0.0
 11
4.971272745849862
 21
5.309271905100221
 31
0.0
  0
LINE
  5
1D83
330
1E
100
AcDbEntity
  8
IMAGE
100
AcDbLine
 10
4.812938572452502
 20
5.348138667803521
 30
0.0
 11
4.971301808924888
 21
5.360427123988309
 31
0.0
  0
LINE
  5
1D84
330
1E
100
AcDbEntity
  8
IMAGE
100
AcDbLine
 10
4.812929302155044
 20
5.331821602420543
 30
0.0
 11
4.971288702696771
 21
5.337358265392056
 31
0.0
  0
LINE
  5
1D85
330
1E
100
AcDbEntity
  8
IMAGE
100
AcDbLine
 10
4.971312147170277
 20
5.378623932319102
 30
0.0
 11
4.807846947852386
 21
5.361883698286222
 31
0.0
  0
ARC
  5
1D86
330
1E
100
AcDbEntity
  8
IMAGE
100
AcDbCircle
 10
4.813583606598921
 20
5.323404678512703
 30
0.0
 40
0.0389042956022208
100
AcDbArc
 50
98.47950723733923
 51
261.4553892836565
  0
LINE
  5
1D87
330
1E
100
AcDbEntity
  8
IMAGE
100
AcDbLine
 10
4.971320344407327
 20
5.393052256071868
 30
0.0
 11
4.971241104139306
 21
5.253577914420404
 31
0.0
  0
LINE
  5
1D88
330
1E
100
AcDbEntity
  8
IMAGE
100
AcDbLine
 10
4.990550359571376
 20
5.393041330825427
 30
0.0
 11
4.990471119303361
 21
5.253566989173954
 31
0.0
  0
LINE
  5
1D89
330
1E
100
AcDbEntity
  8
IMAGE
100
AcDbLine
 10
4.971241104139306
 20
5.253577914420404
 30
0.0
 11
4.990471119303361
 21
5.253566989173954
 31
0.0
  0
LINE
  5
1D8A
330
1E
100
AcDbEntity
  8
IMAGE
100
AcDbLine
 10
4.971320344407327
 20
5.393052256071868
 30
0.0
 11
4.990550359571376
 21
5.393041330825427
 31
0.0
  0
TEXT
  5
1D8B
330
1E
100
AcDbEntity
  8
IMAGE
100
AcDbText
 10
5.634325593304605
 20
5.243500487112028
 30
0.0
 40
0.125
  1
YELLOW
  7
ROMANS
100
AcDbText
  0
LINE
  5
1D8C
330
1E
100
AcDbEntity
  8
IMAGE
100
AcDbLine
 10
5.466159637850498
 20
4.82680643983107
 30
0.0
 11
5.307806630681469
 21
4.821089841426449
 31
0.0
  0
LINE
  5
1D8D
330
1E
100
AcDbEntity
  8
IMAGE
100
AcDbLine
 10
5.466168908147952
 20
4.810489374448088
 30
0.0
 11
5.307819736909589
 21
4.798020982830193
 31
0.0
  0
LINE
  5
1D8E
330
1E
100
AcDbEntity
  8
IMAGE
100
AcDbLine
 10
5.466140804078833
 20
4.859956604129749
 30
0.0
 11
5.307777567606446
 21
4.872245060314536
 31
0.0
  0
LINE
  5
1D8F
330
1E
100
AcDbEntity
  8
IMAGE
100
AcDbLine
 10
5.46615007437629
 20
4.843639538746771
 30
0.0
 11
5.307790673834563
 21
4.849176201718284
 31
0.0
  0
LINE
  5
1D90
330
1E
100
AcDbEntity
  8
IMAGE
100
AcDbLine
 10
5.307767229361058
 20
4.89044186864533
 30
0.0
 11
5.471232428678945
 21
4.87370163461245
 31
0.0
  0
LINE
  5
1D91
330
1E
100
AcDbEntity
  8
IMAGE
100
AcDbLine
 10
5.307830075154974
 20
4.779824174499399
 30
0.0
 11
5.471276147524438
 21
4.796750138297923
 31
0.0
  0
LINE
  5
1D92
330
1E
100
AcDbEntity
  8
IMAGE
100
AcDbLine
 10
5.307838272392029
 20
4.765395850746632
 30
0.0
 11
5.288608257227974
 21
4.765384925500182
 31
0.0
  0
LINE
  5
1D93
330
1E
100
AcDbEntity
  8
IMAGE
100
AcDbLine
 10
5.307759032124003
 20
4.904870192398096
 30
0.0
 11
5.307838272392029
 21
4.765395850746632
 31
0.0
  0
LINE
  5
1D94
330
1E
100
AcDbEntity
  8
IMAGE
100
AcDbLine
 10
5.307759032124003
 20
4.904870192398096
 30
0.0
 11
5.288529016959955
 21
4.904859267151655
 31
0.0
  0
LINE
  5
1D95
330
1E
100
AcDbEntity
  8
IMAGE
100
AcDbLine
 10
5.288529016959955
 20
4.904859267151655
 30
0.0
 11
5.288608257227974
 21
4.765384925500182
 31
0.0
  0
ARC
  5
1D96
330
1E
100
AcDbEntity
  8
IMAGE
100
AcDbCircle
 10
5.465495769932413
 20
4.835222614838931
 30
0.0
 40
0.0389042956022208
100
AcDbArc
 50
278.5446107163433
 51
81.52049276266076
  0
LINE
  5
1D97
330
1E
100
AcDbEntity
  8
IMAGE
100
AcDbLine
 10
5.417412221702566
 20
5.311433661142064
 30
0.0
 11
5.624333127117296
 21
5.311433661142064
 31
0.0
  0
LINE
  5
1D98
330
1E
100
AcDbEntity
  8
IMAGE
100
AcDbLine
 10
2.773740098045912
 20
3.842765981773339
 30
0.0
 11
2.773740098045916
 21
3.239882466835403
 31
0.0
  0
ENDSEC
  0
SECTION
  2
OBJECTS
  0
DICTIONARY
  5
C
330
0
100
AcDbDictionary
281
     1
  3
ACAD_GROUP
350
D
  3
ACAD_LAYOUT
350
19
  3
ACAD_MLINESTYLE
350
16
  3
ACAD_PLOTSETTINGS
350
18
  3
ACAD_PLOTSTYLENAME
350
E
  3
AcDbVariableDictionary
350
1A48
  0
DICTIONARY
  5
1DB6
330
2
100
AcDbDictionary
280
     1
281
     1
  0
DICTIONARY
  5
D
102
{ACAD_REACTORS
330
C
102
}
330
C
100
AcDbDictionary
281
     1
  0
DICTIONARY
  5
19
102
{ACAD_REACTORS
330
C
102
}
330
C
100
AcDbDictionary
281
     1
  3
Layout1
350
1D
  3
Model
350
21
  0
DICTIONARY
  5
16
102
{ACAD_REACTORS
330
C
102
}
330
C
100
AcDbDictionary
281
     1
  3
Standard
350
17
  0
DICTIONARY
  5
18
102
{ACAD_REACTORS
330
C
102
}
330
C
100
AcDbDictionary
281
     1
  3
1055 B&W Full Shaded Draft
350
1A93
  3
1055 B&W Full Shaded Final
350
1A94
  3
1055 B&W Half Shaded Draft
350
1A95
  3
1055 B&W Half Shaded Final
350
1A96
  3
1055 Color Full Shaded Draft
350
1A97
  3
1055 Color Full Shaded Final
350
1A98
  3
1055 Color Half Shaded Draft
350
1A99
  3
1055 Color Half Shaded Final
350
1A9A
  3
1055-B&W-Shaded-Draft
350
1A9B
  3
1055-B&W-Shaded-Final
350
1A9C
  3
1055-Color-Shaded-Draft
350
1A9D
  3
1055-Color-Shaded-Final
350
1A9E
  3
8500 B&W Shaded 11x17
350
1A9F
  3
8500 B&W Shaded 8.5x11
350
1AA0
  3
8500 Color Shaded 11x17
350
1AA1
  3
8500 Color Shaded 8.5x11
350
1AA2
  3
8500-B&W-Shaded-11x17
350
1AA3
  3
8500-B&W-Shaded-8.5x11
350
1AA4
  3
8500-Color-Shaded-11x17
350
1AA5
  3
8500-Color-Shaded-8.5x11
350
1AA6
  3
8500ColorShaded11x17
350
1A52
  3
Laser Jet 5 Shaded 11x17
350
1AA7
  3
Laser Jet 5 Shaded 8.5x11
350
1AA8
  3
LaserJet5-Shaded-11x17
350
1AA9
  3
LaserJet5-Shaded-8.5x11
350
1AAA
  0
ACDBDICTIONARYWDFLT
  5
E
102
{ACAD_REACTORS
330
C
102
}
330
C
100
AcDbDictionary
281
     1
  3
Normal
350
F
100
AcDbDictionaryWithDefault
340
F
  0
DICTIONARY
  5
1A48
102
{ACAD_REACTORS
330
C
102
}
330
C
100
AcDbDictionary
281
     1
  3
DIMASSOC
350
1A4A
  3
HIDETEXT
350
1A49
  3
SORTENTS
350
1DAD
  0
LAYOUT
  5
1D
102
{ACAD_REACTORS
330
19
102
}
330
19
100
AcDbPlotSettings
  1

  2
\\AQUA\HP_LASER_5SI
  4

  6

 40
0.0
 41
0.0
 42
0.0
 43
0.0
 44
0.0
 45
0.0
 46
0.0
 47
0.0
 48
0.0
 49
0.0
140
0.0
141
0.0
142
1.0
143
1.0
 70
   688
 72
     0
 73
     0
 74
     5
  7

 75
    16
147
1.0
148
0.0
149
0.0
100
AcDbLayout
  1
Layout1
 70
     0
 71
     1
 10
0.0
 20
0.0
 11
12.0
 21
9.0
 12
0.0
 22
0.0
 32
0.0
 14
1.000000000000000E+20
 24
1.000000000000000E+20
 34
1.000000000000000E+20
 15
-1.000000000000000E+20
 25
-1.000000000000000E+20
 35
-1.000000000000000E+20
146
0.0
 13
0.0
 23
0.0
 33
0.0
 16
1.0
 26
0.0
 36
0.0
 17
0.0
 27
1.0
 37
0.0
 76
     0
330
1A
  0
LAYOUT
  5
21
102
{ACAD_REACTORS
330
19
102
}
330
19
100
AcDbPlotSettings
  1

  2
8500ColorShaded.pc3
  4
11x17
  6
ps1
 40
5.027083396911621
 41
5.027085304260253
 42
5.027099609375
 43
5.027069091796875
 44
279.3999938964843
 45
431.7999877929687
 46
0.254
 47
0.0
 48
-0.0364611788682652
 49
-0.088596904780573
140
16.56813857900526
141
10.50181977897792
142
1.0
143
1.0
 70
 11956
 72
     0
 73
     1
 74
     4
  7
8500ColorShaded.ctb
 75
    16
147
1.0
148
0.9261139432539351
149
2.250361381426554
100
AcDbLayout
  1
Model
 70
     1
 71
     0
 10
0.0
 20
0.0
 11
12.0
 21
9.0
 12
0.0
 22
0.0
 32
0.0
 14
0.0
 24
0.0
 34
0.0
 15
0.0
 25
0.0
 35
0.0
146
0.0
 13
0.0
 23
0.0
 33
0.0
 16
1.0
 26
0.0
 36
0.0
 17
0.0
 27
1.0
 37
0.0
 76
     0
330
1E
  0
MLINESTYLE
  5
17
102
{ACAD_REACTORS
330
16
102
}
330
16
100
AcDbMlineStyle
  2
STANDARD
 70
     0
  3

 62
   256
 51
90.0
 52
90.0
 71
     2
 49
0.5
 62
   256
  6
BYLAYER
 49
-0.5
 62
   256
  6
BYLAYER
  0
PLOTSETTINGS
  5
1A93
102
{ACAD_REACTORS
330
18
102
}
330
18
100
AcDbPlotSettings
  1
1055 B&W Full Shaded Draft
  2
1055B&WDraftShaded.pc3
  4
User607
  6
PS1
 40
0.0
 41
0.0
 42
0.0
 43
0.0
 44
901.7000122070312
 45
1155.700073242187
 46
0.0
 47
0.0
 48
180377.877572
 49
80019.819395
140
180380.8390819999
141
80022.26069
142
1.0
143
1.0
 70
   688
 72
     0
 73
     2
 74
     5
  7
1055B&WFullDraftShaded.ctb
 75
    16
147
1.0
148
-4581114.014650871
149
-2032337.537636779
  0
PLOTSETTINGS
  5
1A94
102
{ACAD_REACTORS
330
18
102
}
330
18
100
AcDbPlotSettings
  1
1055 B&W Full Shaded Final
  2
1055B&WFinalShaded.pc3
  4
User258
  6
PS1
 40
4.995333194732666
 41
8.297393798828125
 42
4.99530029296875
 43
8.29736328125
 44
761.9576416015624
 45
1066.757690429687
 46
0.0
 47
0.0
 48
180377.877572
 49
80019.819395
140
180380.8390819999
141
80022.26069
142
1.0
143
1.0
 70
   688
 72
     0
 73
     3
 74
     5
  7
1055B&WFullFinalShaded.ctb
 75
    16
147
1.0
148
-4581114.014650871
149
-2032337.537636779
  0
PLOTSETTINGS
  5
1A95
102
{ACAD_REACTORS
330
18
102
}
330
18
100
AcDbPlotSettings
  1
1055 B&W Half Shaded Draft
  2
1055B&WDraftShaded.pc3
  4
User607
  6
PS1
 40
0.0
 41
0.0
 42
0.0
 43
0.0
 44
901.7000122070312
 45
1155.700073242187
 46
0.0
 47
0.0
 48
180377.877572
 49
80019.819395
140
180380.8390819999
141
80022.26069
142
1.0
143
2.0
 70
   688
 72
     0
 73
     2
 74
     5
  7
1055B&WHalfDraftShaded.ctb
 75
    17
147
0.5
148
-4581114.014650871
149
-2032337.537636779
  0
PLOTSETTINGS
  5
1A96
102
{ACAD_REACTORS
330
18
102
}
330
18
100
AcDbPlotSettings
  1
1055 B&W Half Shaded Final
  2
1055B&WFinalShaded.pc3
  4
User258
  6
PS1
 40
4.995333194732666
 41
8.297393798828125
 42
4.99530029296875
 43
8.29736328125
 44
761.9576416015624
 45
1066.757690429687
 46
0.0
 47
0.0
 48
180377.877572
 49
80019.819395
140
180380.8390819999
141
80022.26069
142
1.0
143
2.0
 70
   688
 72
     0
 73
     3
 74
     5
  7
1055B&WHalfFinalShaded.ctb
 75
    17
147
0.5
148
-4581114.014650871
149
-2032337.537636779
  0
PLOTSETTINGS
  5
1A97
102
{ACAD_REACTORS
330
18
102
}
330
18
100
AcDbPlotSettings
  1
1055 Color Full Shaded Draft
  2
1055ColorDraftShaded.pc3
  4
User607
  6
PS1
 40
0.0
 41
0.0
 42
0.0
 43
0.0
 44
901.7000122070312
 45
1155.700073242187
 46
0.0
 47
0.0
 48
180377.877572
 49
80019.819395
140
180380.8390819999
141
80022.26069
142
1.0
143
1.0
 70
   688
 72
     0
 73
     2
 74
     5
  7
1055ColorFullDraftShaded.ctb
 75
    16
147
1.0
148
-4581114.014650871
149
-2032337.537636779
  0
PLOTSETTINGS
  5
1A98
102
{ACAD_REACTORS
330
18
102
}
330
18
100
AcDbPlotSettings
  1
1055 Color Full Shaded Final
  2
1055ColorFinalShaded.pc3
  4
User607
  6
PS1
 40
0.0
 41
0.0
 42
0.0
 43
0.0
 44
901.7000122070312
 45
1155.700073242187
 46
0.0
 47
0.0
 48
180377.877572
 49
80019.819395
140
180380.8390819999
141
80022.26069
142
1.0
143
1.0
 70
   688
 72
     0
 73
     2
 74
     5
  7
1055ColorFullFinalShaded.ctb
 75
    16
147
1.0
148
-4581114.014650871
149
-2032337.537636779
  0
PLOTSETTINGS
  5
1A99
102
{ACAD_REACTORS
330
18
102
}
330
18
100
AcDbPlotSettings
  1
1055 Color Half Shaded Draft
  2
1055ColorDraftShaded.pc3
  4
User607
  6
PS1
 40
0.0
 41
0.0
 42
0.0
 43
0.0
 44
901.7000122070312
 45
1155.700073242187
 46
0.0
 47
0.0
 48
180377.877572
 49
80019.819395
140
180380.8390819999
141
80022.26069
142
1.0
143
1.0
 70
   688
 72
     0
 73
     2
 74
     5
  7
1055ColorHalfDraftShaded.ctb
 75
    16
147
1.0
148
-4581114.014650871
149
-2032337.537636779
  0
PLOTSETTINGS
  5
1A9A
102
{ACAD_REACTORS
330
18
102
}
330
18
100
AcDbPlotSettings
  1
1055 Color Half Shaded Final
  2
1055ColorFinalShaded.pc3
  4
User607
  6
PS1
 40
0.0
 41
0.0
 42
0.0
 43
0.0
 44
901.7000122070312
 45
1155.700073242187
 46
0.0
 47
0.0
 48
180377.877572
 49
80019.819395
140
180380.8390819999
141
80022.26069
142
1.0
143
1.0
 70
   688
 72
     0
 73
     2
 74
     5
  7
1055ColorHalfFinalShaded.ctb
 75
    16
147
1.0
148
-4581114.014650871
149
-2032337.537636779
  0
PLOTSETTINGS
  5
1A9B
102
{ACAD_REACTORS
330
18
102
}
330
18
100
AcDbPlotSettings
  1
1055-B&W-Shaded-Draft
  2
1055B&WDraftShaded.pc3
  4
User257
  6

 40
4.995333194732666
 41
8.297393798828125
 42
4.99530029296875
 43
8.29736328125
 44
901.6152954101562
 45
1155.615356445312
 46
0.0
 47
0.0
 48
180360.0524337165
 49
80033.77936194791
140
180369.1574725906
141
80037.61796031875
142
1.0
143
1.0
 70
  1712
 72
     0
 73
     1
 74
     4
  7
1055B&WFullDraftShaded.ctb
 75
    16
147
1.0
148
-4581145.331816398
149
-2032857.995793476
  0
PLOTSETTINGS
  5
1A9C
102
{ACAD_REACTORS
330
18
102
}
330
18
100
AcDbPlotSettings
  1
1055-B&W-Shaded-Final
  2
1055B&WFinalShaded.pc3
  4
User607
  6

 40
0.0
 41
0.0
 42
0.0
 43
0.0
 44
901.7000122070312
 45
1155.700073242187
 46
0.0
 47
0.0
 48
180360.0524337165
 49
80033.77936194791
140
180369.1574725906
141
80037.61796031875
142
1.0
143
1.0
 70
  1712
 72
     0
 73
     1
 74
     4
  7
1055B&WFullFinalShaded.ctb
 75
    16
147
1.0
148
-4581145.331816398
149
-2032857.995793476
  0
PLOTSETTINGS
  5
1A9D
102
{ACAD_REACTORS
330
18
102
}
330
18
100
AcDbPlotSettings
  1
1055-Color-Shaded-Draft
  2
1055ColorDraftShaded.pc3
  4
User257
  6

 40
4.995333194732666
 41
8.297393798828125
 42
4.99530029296875
 43
8.29736328125
 44
901.6152954101562
 45
1155.615356445312
 46
0.0
 47
0.0
 48
180360.0524337165
 49
80033.77936194791
140
180369.1574725906
141
80037.61796031875
142
1.0
143
1.0
 70
  1712
 72
     0
 73
     1
 74
     4
  7
1055ColorFullDraftShaded.ctb
 75
    16
147
1.0
148
-4581145.331816398
149
-2032857.995793476
  0
PLOTSETTINGS
  5
1A9E
102
{ACAD_REACTORS
330
18
102
}
330
18
100
AcDbPlotSettings
  1
1055-Color-Shaded-Final
  2
1055ColorDraftShaded.pc3
  4
User257
  6

 40
4.995333194732666
 41
8.297393798828125
 42
4.99530029296875
 43
8.29736328125
 44
901.6152954101562
 45
1155.615356445312
 46
0.0
 47
0.0
 48
180360.0524337165
 49
80033.77936194791
140
180369.1574725906
141
80037.61796031875
142
1.0
143
1.0
 70
  1712
 72
     0
 73
     1
 74
     4
  7
1055ColorFullFinalShaded.ctb
 75
    16
147
1.0
148
-4581145.331816398
149
-2032857.995793476
  0
PLOTSETTINGS
  5
1A9F
102
{ACAD_REACTORS
330
18
102
}
330
18
100
AcDbPlotSettings
  1
8500 B&W Shaded 11x17
  2
8500B&WShaded.pc3
  4
11x17
  6
PS1
 40
5.027083396911621
 41
5.027085304260253
 42
5.027099609375
 43
5.027069091796875
 44
279.3999938964843
 45
431.7999877929687
 46
0.0
 47
5.588
 48
180377.877572
 49
80019.819395
140
180380.8390819999
141
80022.26069
142
1.0
143
0.8480629150589166
 70
   692
 72
     0
 73
     1
 74
     0
  7
8500B&WShaded.ctb
 75
     0
147
1.179157798605694
148
-4581114.014650871
149
-2032337.537636779
  0
PLOTSETTINGS
  5
1AA0
102
{ACAD_REACTORS
330
18
102
}
330
18
100
AcDbPlotSettings
  1
8500 B&W Shaded 8.5x11
  2
8500B&WShaded.pc3
  4
Letter
  6
PS1
 40
5.027083396911621
 41
5.027085304260253
 42
5.027084350585937
 43
5.027069091796875
 44
215.8999938964843
 45
279.3999938964843
 46
14.47799999999999
 47
0.0
 48
180377.877572
 49
80019.819395
140
180380.8390819999
141
80022.26069
142
1.0
143
1.292286209488803
 70
   692
 72
     0
 73
     1
 74
     0
  7
8500B&WShaded.ctb
 75
     0
147
0.7738223875309912
148
-4581114.014650871
149
-2032337.537636779
  0
PLOTSETTINGS
  5
1AA1
102
{ACAD_REACTORS
330
18
102
}
330
18
100
AcDbPlotSettings
  1
8500 Color Shaded 11x17
  2
8500ColorShaded.pc3
  4
11x17
  6
PS1
 40
5.027083396911621
 41
5.027085304260253
 42
5.027099609375
 43
5.027069091796875
 44
279.3999938964843
 45
431.7999877929687
 46
0.0
 47
5.588
 48
180377.877572
 49
80019.819395
140
180380.8390819999
141
80022.26069
142
1.0
143
0.8480629150589166
 70
   692
 72
     0
 73
     1
 74
     0
  7
8500ColorShaded.ctb
 75
     0
147
1.179157798605694
148
-4581114.014650871
149
-2032337.537636779
  0
PLOTSETTINGS
  5
1AA2
102
{ACAD_REACTORS
330
18
102
}
330
18
100
AcDbPlotSettings
  1
8500 Color Shaded 8.5x11
  2
8500ColorShaded.pc3
  4
Letter
  6
PS1
 40
5.027083396911621
 41
5.027085304260253
 42
5.027084350585937
 43
5.027069091796875
 44
215.8999938964843
 45
279.3999938964843
 46
14.47799999999999
 47
0.0
 48
180377.877572
 49
80019.819395
140
180380.8390819999
141
80022.26069
142
1.0
143
1.292286209488803
 70
   692
 72
     0
 73
     1
 74
     0
  7
8500ColorShaded.ctb
 75
     0
147
0.7738223875309912
148
-4581114.014650871
149
-2032337.537636779
  0
PLOTSETTINGS
  5
1AA3
102
{ACAD_REACTORS
330
18
102
}
330
18
100
AcDbPlotSettings
  1
8500-B&W-Shaded-11x17
  2
8500B&WShaded.pc3
  4
11x17
  6

 40
5.027083396911621
 41
5.027085304260253
 42
5.027099609375
 43
5.027069091796875
 44
279.3999938964843
 45
431.7999877929687
 46
0.0
 47
0.0
 48
180360.0524337165
 49
80033.77936194791
140
180369.1574725906
141
80037.61796031875
142
1.0
143
4.787622939151733
 70
  1712
 72
     0
 73
     1
 74
     0
  7
8500B&WShaded.ctb
 75
     0
147
0.2088719209322652
148
-4580581.320935756
149
-2032339.826086972
  0
PLOTSETTINGS
  5
1AA4
102
{ACAD_REACTORS
330
18
102
}
330
18
100
AcDbPlotSettings
  1
8500-B&W-Shaded-8.5x11
  2
8500B&WShaded.pc3
  4
Letter
  6

 40
5.027083396911621
 41
5.027085304260253
 42
5.027084350585937
 43
5.027069091796875
 44
215.8999938964843
 45
279.3999938964843
 46
0.0
 47
0.0
 48
180360.0524337165
 49
80033.77936194791
140
180369.1574725906
141
80037.61796031875
142
1.0
143
1.400341199009821
 70
  1712
 72
     0
 73
     1
 74
     0
  7
8500B&WShaded.ctb
 75
     0
147
0.7141116755738516
148
0.0
149
0.0
  0
PLOTSETTINGS
  5
1AA5
102
{ACAD_REACTORS
330
18
102
}
330
18
100
AcDbPlotSettings
  1
8500-Color-Shaded-11x17
  2
8500ColorShaded.pc3
  4
11x17
  6

 40
5.027083396911621
 41
5.027085304260253
 42
5.027099609375
 43
5.027069091796875
 44
279.3999938964843
 45
431.7999877929687
 46
0.0
 47
0.0
 48
180360.0524337165
 49
80033.77936194791
140
180369.1574725906
141
80037.61796031875
142
1.0
143
4.787622939151733
 70
  1712
 72
     0
 73
     1
 74
     0
  7
8500ColorShaded.ctb
 75
     0
147
0.2088719209322652
148
-4580581.320935756
149
-2032339.826086972
  0
PLOTSETTINGS
  5
1AA6
102
{ACAD_REACTORS
330
18
102
}
330
18
100
AcDbPlotSettings
  1
8500-Color-Shaded-8.5x11
  2
8500ColorShaded.pc3
  4
Letter
  6

 40
5.027083396911621
 41
5.027085304260253
 42
5.027084350585937
 43
5.027069091796875
 44
215.8999938964843
 45
279.3999938964843
 46
0.0
 47
0.0
 48
180360.0524337165
 49
80033.77936194791
140
180369.1574725906
141
80037.61796031875
142
1.0
143
1.400341199009821
 70
  1712
 72
     0
 73
     1
 74
     0
  7
8500ColorShaded.ctb
 75
     0
147
0.7141116755738516
148
0.0
149
0.0
  0
PLOTSETTINGS
  5
1A52
102
{ACAD_REACTORS
330
18
102
}
330
18
100
AcDbPlotSettings
  1
8500ColorShaded11x17
  2
8500ColorShaded.pc3
  4
11x17
  6

 40
5.027083396911621
 41
5.027085304260253
 42
5.027099609375
 43
5.027069091796875
 44
279.3999938964843
 45
431.7999877929687
 46
0.0
 47
0.0
 48
180360.0524337165
 49
80033.77936194791
140
180369.1574725906
141
80037.61796031875
142
1.0
143
4.787622939151733
 70
  1712
 72
     0
 73
     1
 74
     0
  7
8500ColorShaded.ctb
 75
     0
147
0.2088719209322652
148
-4580581.320935756
149
-2032339.826086972
  0
PLOTSETTINGS
  5
1AA7
102
{ACAD_REACTORS
330
18
102
}
330
18
100
AcDbPlotSettings
  1
Laser Jet 5 Shaded 11x17
  2
LaserJet5Shaded.pc3
  4
11x17
  6
PS1
 40
7.143749713897705
 41
5.873736858367919
 42
7.143768310546875
 43
7.14373779296875
 44
279.3999938964843
 45
431.7999877929687
 46
0.0
 47
7.365999999999998
 48
180377.877572
 49
80019.819395
140
180380.8390819999
141
80022.26069
142
1.0
143
0.8616048444762743
 70
   692
 72
     0
 73
     1
 74
     0
  7
LaserJet5Shaded.ctb
 75
     0
147
1.160624857683859
148
-4581114.014650871
149
-2032337.537636779
  0
PLOTSETTINGS
  5
1AA8
102
{ACAD_REACTORS
330
18
102
}
330
18
100
AcDbPlotSettings
  1
Laser Jet 5 Shaded 8.5x11
  2
LaserJet5Shaded.pc3
  4
Letter
  6
PS1
 40
7.143749713897705
 41
6.974400997161865
 42
7.14373779296875
 43
6.297088623046875
 44
215.8999938964843
 45
279.3999938964843
 46
13.462
 47
0.0
 48
180377.877572
 49
80019.819395
140
180380.8390819999
141
80022.26069
142
1.0
143
1.307909180627428
 70
   692
 72
     0
 73
     1
 74
     0
  7
LaserJet5Shaded.ctb
 75
     0
147
0.7645790814927086
148
-4581114.014650871
149
-2032337.537636779
  0
PLOTSETTINGS
  5
1AA9
102
{ACAD_REACTORS
330
18
102
}
330
18
100
AcDbPlotSettings
  1
LaserJet5-Shaded-11x17
  2
LaserJet5Shaded.pc3
  4
11x17
  6

 40
7.143749713897705
 41
5.873736858367919
 42
7.143768310546875
 43
7.14373779296875
 44
279.3999938964843
 45
431.7999877929687
 46
0.0
 47
0.0
 48
180360.0524337165
 49
80033.77936194791
140
180369.1574725906
141
80037.61796031875
142
1.0
143
4.864072045424008
 70
  1712
 72
     0
 73
     1
 74
     0
  7
LaserJet5Shaded.ctb
 75
     0
147
0.205589060084086
148
-4580581.320935756
149
-2032339.826086972
  0
PLOTSETTINGS
  5
1AAA
102
{ACAD_REACTORS
330
18
102
}
330
18
100
AcDbPlotSettings
  1
LaserJet5-Shaded-8.5x11
  2
LaserJet5Shaded.pc3
  4
Letter
  6

 40
7.143749713897705
 41
6.974400997161865
 42
7.14373779296875
 43
6.297088623046875
 44
215.8999938964843
 45
279.3999938964843
 46
0.0
 47
0.0
 48
180360.0524337165
 49
80033.77936194791
140
180369.1574725906
141
80037.61796031875
142
1.0
143
1.417270490660323
 70
  1712
 72
     0
 73
     1
 74
     0
  7
LaserJet5Shaded.ctb
 75
     0
147
0.7055816138061886
148
0.0
149
0.0
  0
ACDBPLACEHOLDER
  5
F
102
{ACAD_REACTORS
330
E
102
}
330
E
  0
DICTIONARYVAR
  5
1A4A
102
{ACAD_REACTORS
330
1A48
102
}
330
1A48
100
DictionaryVariables
280
     0
  1
1
  0
DICTIONARYVAR
  5
1A49
102
{ACAD_REACTORS
330
1A48
102
}
330
1A48
100
DictionaryVariables
280
     0
  1
1
  0
DICTIONARYVAR
  5
1DAD
102
{ACAD_REACTORS
330
1A48
102
}
330
1A48
100
DictionaryVariables
280
     0
  1
1
  0
ENDSEC
  0
EOF
