  0
SECTION
  2
HEADER
  9
$ACADVER
  1
AC1015
  9
$ACADMAINTVER
 70
    13
  9
$DWGCODEPAGE
  3
ANSI_1252
  9
$INSBASE
 10
7.766678155251661
 20
2.043532764336107
 30
0.0
  9
$EXTMIN
 10
-0.0005031964700948
 20
-0.0003185792084785
 30
-0.0000009154574956
  9
$EXTMAX
 10
16.49050327325763
 20
10.44031862782351
 30
0.030000915597194
  9
$LIMMIN
 10
0.0
 20
0.0
  9
$LIMMAX
 10
12.0
 20
9.0
  9
$ORTHOMODE
 70
     1
  9
$REGENMODE
 70
     1
  9
$FILLMODE
 70
     1
  9
$QTEXTMODE
 70
     0
  9
$MIRRTEXT
 70
     0
  9
$LTSCALE
 40
1.0
  9
$ATTMODE
 70
     1
  9
$TEXTSIZE
 40
0.1
  9
$TRACEWID
 40
0.05
  9
$TEXTSTYLE
  7
L200
  9
$CLAYER
  8
IMAGE
  9
$CELTYPE
  6
ByLayer
  9
$CECOLOR
 62
   256
  9
$CELTSCALE
 40
1.0
  9
$DISPSILH
 70
     0
  9
$DIMSCALE
 40
1.0
  9
$DIMASZ
 40
0.18
  9
$DIMEXO
 40
0.0625
  9
$DIMDLI
 40
0.38
  9
$DIMRND
 40
0.0
  9
$DIMDLE
 40
0.0
  9
$DIMEXE
 40
0.18
  9
$DIMTP
 40
0.0
  9
$DIMTM
 40
0.0
  9
$DIMTXT
 40
0.18
  9
$DIMCEN
 40
0.09
  9
$DIMTSZ
 40
0.0
  9
$DIMTOL
 70
     0
  9
$DIMLIM
 70
     0
  9
$DIMTIH
 70
     1
  9
$DIMTOH
 70
     1
  9
$DIMSE1
 70
     0
  9
$DIMSE2
 70
     0
  9
$DIMTAD
 70
     0
  9
$DIMZIN
 70
     0
  9
$DIMBLK
  1

  9
$DIMASO
 70
     1
  9
$DIMSHO
 70
     0
  9
$DIMPOST
  1

  9
$DIMAPOST
  1

  9
$DIMALT
 70
     0
  9
$DIMALTD
 70
     2
  9
$DIMALTF
 40
25.4
  9
$DIMLFAC
 40
1.0
  9
$DIMTOFL
 70
     0
  9
$DIMTVP
 40
0.0
  9
$DIMTIX
 70
     0
  9
$DIMSOXD
 70
     0
  9
$DIMSAH
 70
     0
  9
$DIMBLK1
  1

  9
$DIMBLK2
  1

  9
$DIMSTYLE
  2
Standard
  9
$DIMCLRD
 70
     0
  9
$DIMCLRE
 70
     0
  9
$DIMCLRT
 70
     0
  9
$DIMTFAC
 40
1.0
  9
$DIMGAP
 40
0.09
  9
$DIMJUST
 70
     0
  9
$DIMSD1
 70
     0
  9
$DIMSD2
 70
     0
  9
$DIMTOLJ
 70
     1
  9
$DIMTZIN
 70
     0
  9
$DIMALTZ
 70
     0
  9
$DIMALTTZ
 70
     0
  9
$DIMUPT
 70
     0
  9
$DIMDEC
 70
     4
  9
$DIMTDEC
 70
     4
  9
$DIMALTU
 70
     2
  9
$DIMALTTD
 70
     2
  9
$DIMTXSTY
  7
STANDARD
  9
$DIMAUNIT
 70
     0
  9
$DIMADEC
 70
     0
  9
$DIMALTRND
 40
0.0
  9
$DIMAZIN
 70
     0
  9
$DIMDSEP
 70
    46
  9
$DIMATFIT
 70
     3
  9
$DIMFRAC
 70
     0
  9
$DIMLDRBLK
  1

  9
$DIMLUNIT
 70
     2
  9
$DIMLWD
 70
    -2
  9
$DIMLWE
 70
    -2
  9
$DIMTMOVE
 70
     2
  9
$LUNITS
 70
     2
  9
$LUPREC
 70
     4
  9
$SKETCHINC
 40
0.1
  9
$FILLETRAD
 40
0.0
  9
$AUNITS
 70
     0
  9
$AUPREC
 70
     0
  9
$MENU
  1
acad
  9
$ELEVATION
 40
0.0
  9
$PELEVATION
 40
0.0
  9
$THICKNESS
 40
0.0
  9
$LIMCHECK
 70
     0
  9
$CHAMFERA
 40
0.0
  9
$CHAMFERB
 40
0.0
  9
$CHAMFERC
 40
0.0
  9
$CHAMFERD
 40
0.0
  9
$SKPOLY
 70
     0
  9
$TDCREATE
 40
2450446.311833449
  9
$TDUCREATE
 40
2450446.603500116
  9
$TDUPDATE
 40
2453021.563148264
  9
$TDUUPDATE
 40
2453021.854814930
  9
$TDINDWG
 40
0.1353249074
  9
$TDUSRTIMER
 40
0.1353249074
  9
$USRTIMER
 70
     1
  9
$ANGBASE
 50
0.0
  9
$ANGDIR
 70
     0
  9
$PDMODE
 70
     0
  9
$PDSIZE
 40
0.0
  9
$PLINEWID
 40
0.018
  9
$SPLFRAME
 70
     0
  9
$SPLINETYPE
 70
     6
  9
$SPLINESEGS
 70
     8
  9
$HANDSEED
  5
1C8A
  9
$SURFTAB1
 70
     6
  9
$SURFTAB2
 70
     6
  9
$SURFTYPE
 70
     6
  9
$SURFU
 70
     6
  9
$SURFV
 70
     6
  9
$UCSBASE
  2

  9
$UCSNAME
  2

  9
$UCSORG
 10
0.0
 20
0.0
 30
0.0
  9
$UCSXDIR
 10
1.0
 20
0.0
 30
0.0
  9
$UCSYDIR
 10
0.0
 20
1.0
 30
0.0
  9
$UCSORTHOREF
  2

  9
$UCSORTHOVIEW
 70
     0
  9
$UCSORGTOP
 10
0.0
 20
0.0
 30
0.0
  9
$UCSORGBOTTOM
 10
0.0
 20
0.0
 30
0.0
  9
$UCSORGLEFT
 10
0.0
 20
0.0
 30
0.0
  9
$UCSORGRIGHT
 10
0.0
 20
0.0
 30
0.0
  9
$UCSORGFRONT
 10
0.0
 20
0.0
 30
0.0
  9
$UCSORGBACK
 10
0.0
 20
0.0
 30
0.0
  9
$PUCSBASE
  2

  9
$PUCSNAME
  2

  9
$PUCSORG
 10
0.0
 20
0.0
 30
0.0
  9
$PUCSXDIR
 10
1.0
 20
0.0
 30
0.0
  9
$PUCSYDIR
 10
0.0
 20
1.0
 30
0.0
  9
$PUCSORTHOREF
  2

  9
$PUCSORTHOVIEW
 70
     0
  9
$PUCSORGTOP
 10
0.0
 20
0.0
 30
0.0
  9
$PUCSORGBOTTOM
 10
0.0
 20
0.0
 30
0.0
  9
$PUCSORGLEFT
 10
0.0
 20
0.0
 30
0.0
  9
$PUCSORGRIGHT
 10
0.0
 20
0.0
 30
0.0
  9
$PUCSORGFRONT
 10
0.0
 20
0.0
 30
0.0
  9
$PUCSORGBACK
 10
0.0
 20
0.0
 30
0.0
  9
$USERI1
 70
     0
  9
$USERI2
 70
     0
  9
$USERI3
 70
     0
  9
$USERI4
 70
     0
  9
$USERI5
 70
     0
  9
$USERR1
 40
1.0
  9
$USERR2
 40
1.0
  9
$USERR3
 40
0.0
  9
$USERR4
 40
0.0
  9
$USERR5
 40
0.0
  9
$WORLDVIEW
 70
     1
  9
$SHADEDGE
 70
     3
  9
$SHADEDIF
 70
    70
  9
$TILEMODE
 70
     1
  9
$MAXACTVP
 70
    16
  9
$PINSBASE
 10
0.0
 20
0.0
 30
0.0
  9
$PLIMCHECK
 70
     0
  9
$PEXTMIN
 10
1.000000000000000E+20
 20
1.000000000000000E+20
 30
1.000000000000000E+20
  9
$PEXTMAX
 10
-1.000000000000000E+20
 20
-1.000000000000000E+20
 30
-1.000000000000000E+20
  9
$PLIMMIN
 10
0.0
 20
0.0
  9
$PLIMMAX
 10
12.0
 20
9.0
  9
$UNITMODE
 70
     0
  9
$VISRETAIN
 70
     0
  9
$PLINEGEN
 70
     1
  9
$PSLTSCALE
 70
     0
  9
$TREEDEPTH
 70
  3020
  9
$CMLSTYLE
  2
Standard
  9
$CMLJUST
 70
     0
  9
$CMLSCALE
 40
1.0
  9
$PROXYGRAPHICS
 70
     1
  9
$MEASUREMENT
 70
     0
  9
$CELWEIGHT
370
    -1
  9
$ENDCAPS
280
     0
  9
$JOINSTYLE
280
     0
  9
$LWDISPLAY
290
     0
  9
$INSUNITS
 70
     0
  9
$HYPERLINKBASE
  1

  9
$STYLESHEET
  1
8500ColorShaded.ctb
  9
$XEDIT
290
     1
  9
$CEPSNTYPE
380
     0
  9
$PSTYLEMODE
290
     1
  9
$FINGERPRINTGUID
  2
{5E4B541F-ADE9-4EE1-B34F-F985BF4E4CED}
  9
$VERSIONGUID
  2
{D064A722-0D1B-454B-A44A-6DF1E750F637}
  9
$EXTNAMES
290
     1
  9
$PSVPSCALE
 40
0.0
  9
$OLESTARTUP
290
     0
  0
ENDSEC
  0
SECTION
  2
CLASSES
  0
CLASS
  1
ACDBDICTIONARYWDFLT
  2
AcDbDictionaryWithDefault
  3
AutoCAD 2000
 90
        0
280
     0
281
     0
  0
CLASS
  1
ACDBPLACEHOLDER
  2
AcDbPlaceHolder
  3
AutoCAD 2000
 90
        0
280
     0
281
     0
  0
CLASS
  1
LAYOUT
  2
AcDbLayout
  3
AutoCAD 2000
 90
        0
280
     0
281
     0
  0
CLASS
  1
DICTIONARYVAR
  2
AcDbDictionaryVar
  3
AutoCAD 2000
 90
        0
280
     0
281
     0
  0
CLASS
  1
PLOTSETTINGS
  2
AcDbPlotSettings
  3
AutoCAD 2000
 90
        0
280
     0
281
     0
  0
ENDSEC
  0
SECTION
  2
TABLES
  0
TABLE
  2
VPORT
  5
8
330
0
100
AcDbSymbolTable
 70
     4
  0
VPORT
  5
1C89
330
8
100
AcDbSymbolTableRecord
100
AcDbViewportTableRecord
  2
*Active
 70
     0
 10
0.0
 20
0.0
 11
1.0
 21
1.0
 12
8.245000038393772
 22
5.220000024307514
 13
0.0
 23
0.0
 14
1.0
 24
1.0
 15
0.0
 25
0.0
 16
0.0
 26
0.0
 36
1.0
 17
0.0
 27
0.0
 37
0.0
 40
10.52692346494134
 41
1.609655172413793
 42
50.0
 43
0.0
 44
0.0
 50
0.0
 51
0.0
 71
     0
 72
  1000
 73
     1
 74
     0
 75
     0
 76
     0
 77
     0
 78
     0
281
     0
 65
     1
110
0.0
120
0.0
130
0.0
111
1.0
121
0.0
131
0.0
112
0.0
122
1.0
132
0.0
 79
     0
146
0.0
  0
ENDTAB
  0
TABLE
  2
LTYPE
  5
5
330
0
100
AcDbSymbolTable
 70
     2
  0
LTYPE
  5
13
330
5
100
AcDbSymbolTableRecord
100
AcDbLinetypeTableRecord
  2
ByBlock
 70
     0
  3

 72
    65
 73
     0
 40
0.0
  0
LTYPE
  5
14
330
5
100
AcDbSymbolTableRecord
100
AcDbLinetypeTableRecord
  2
ByLayer
 70
     0
  3

 72
    65
 73
     0
 40
0.0
  0
LTYPE
  5
15
330
5
100
AcDbSymbolTableRecord
100
AcDbLinetypeTableRecord
  2
CONTINUOUS
 70
     0
  3
Solid line
 72
    65
 73
     0
 40
0.0
  0
ENDTAB
  0
TABLE
  2
LAYER
  5
2
102
{ACAD_XDICTIONARY
360
1C88
102
}
330
0
100
AcDbSymbolTable
 70
     4
  0
LAYER
  5
10
330
2
100
AcDbSymbolTableRecord
100
AcDbLayerTableRecord
  2
0
 70
     0
 62
     7
  6
CONTINUOUS
370
    -3
390
F
  0
LAYER
  5
3C
330
2
100
AcDbSymbolTableRecord
100
AcDbLayerTableRecord
  2
TITLE
 70
     0
 62
     7
  6
CONTINUOUS
370
    -3
390
F
  0
LAYER
  5
18BE
330
2
100
AcDbSymbolTableRecord
100
AcDbLayerTableRecord
  2
IMAGE
 70
     0
 62
     7
  6
CONTINUOUS
370
    -3
390
F
  0
LAYER
  5
18BF
330
2
100
AcDbSymbolTableRecord
100
AcDbLayerTableRecord
  2
TEXT_BUBBLES
 70
     0
 62
     7
  6
CONTINUOUS
370
    -3
390
F
  0
ENDTAB
  0
TABLE
  2
STYLE
  5
3
330
0
100
AcDbSymbolTable
 70
     6
  0
STYLE
  5
11
330
3
100
AcDbSymbolTableRecord
100
AcDbTextStyleTableRecord
  2
STANDARD
 70
     0
 40
0.0
 41
1.0
 50
0.0
 71
     0
 42
0.2
  3
txt
  4

  0
STYLE
  5
30
330
3
100
AcDbSymbolTableRecord
100
AcDbTextStyleTableRecord
  2
L100
 70
     0
 40
0.07
 41
1.0
 50
0.0
 71
     0
 42
0.07
  3
SIMPLEX
  4

  0
STYLE
  5
31
330
3
100
AcDbSymbolTableRecord
100
AcDbTextStyleTableRecord
  2
L200
 70
     0
 40
0.2
 41
1.0
 50
0.0
 71
     0
 42
0.1
  3
ARIAL.TTF
  4

1001
ACAD
1000
Arial
1071
       34
  0
STYLE
  5
32
330
3
100
AcDbSymbolTableRecord
100
AcDbTextStyleTableRecord
  2
L80
 70
     0
 40
0.08
 41
1.0
 50
0.0
 71
     0
 42
0.08
  3
simplex
  4

  0
STYLE
  5
18C0
330
3
100
AcDbSymbolTableRecord
100
AcDbTextStyleTableRecord
  2
ROMANS
 70
     0
 40
0.0
 41
1.0
 50
0.0
 71
     0
 42
0.1
  3
romans
  4

  0
STYLE
  5
18C1
330
3
100
AcDbSymbolTableRecord
100
AcDbTextStyleTableRecord
  2
SIMPLEX
 70
     0
 40
0.0
 41
1.0
 50
0.0
 71
     0
 42
0.1
  3
SIMPLEX
  4

  0
ENDTAB
  0
TABLE
  2
VIEW
  5
6
330
0
100
AcDbSymbolTable
 70
     1
  0
VIEW
  5
1C24
330
6
100
AcDbSymbolTableRecord
100
AcDbViewTableRecord
  2
ps1
 70
     0
 40
10.43999999999999
 10
8.244999999999999
 20
5.219999999999998
 41
16.49
 11
0.0
 21
0.0
 31
1.0
 12
0.0
 22
0.0
 32
0.0
 42
50.0
 43
0.0
 44
0.0
 50
0.0
 71
     0
281
     0
 72
     1
110
0.0
120
0.0
130
0.0
111
1.0
121
0.0
131
0.0
112
0.0
122
1.0
132
0.0
 79
     0
146
0.0
  0
ENDTAB
  0
TABLE
  2
UCS
  5
7
330
0
100
AcDbSymbolTable
 70
     0
  0
ENDTAB
  0
TABLE
  2
APPID
  5
9
330
0
100
AcDbSymbolTable
 70
     3
  0
APPID
  5
12
330
9
100
AcDbSymbolTableRecord
100
AcDbRegAppTableRecord
  2
ACAD
 70
     0
  0
APPID
  5
35
330
9
100
AcDbSymbolTableRecord
100
AcDbRegAppTableRecord
  2
CLSI_CADWRITER
 70
     0
  0
APPID
  5
1A16
330
9
100
AcDbSymbolTableRecord
100
AcDbRegAppTableRecord
  2
RAK
 70
     0
  0
ENDTAB
  0
TABLE
  2
DIMSTYLE
  5
A
330
0
100
AcDbSymbolTable
 70
     1
100
AcDbDimStyleTable
 71
     0
  0
DIMSTYLE
105
18B8
330
A
100
AcDbSymbolTableRecord
100
AcDbDimStyleTableRecord
  2
Standard
 70
     0
340
11
  0
ENDTAB
  0
TABLE
  2
BLOCK_RECORD
  5
1
330
0
100
AcDbSymbolTable
 70
     4
  0
BLOCK_RECORD
  5
1E
330
1
100
AcDbSymbolTableRecord
100
AcDbBlockTableRecord
  2
*Model_Space
340
21
  0
BLOCK_RECORD
  5
1A
330
1
100
AcDbSymbolTableRecord
100
AcDbBlockTableRecord
  2
*Paper_Space
340
1D
  0
BLOCK_RECORD
  5
24
330
1
100
AcDbSymbolTableRecord
100
AcDbBlockTableRecord
  2
TITLBLK
340
0
102
{BLKREFS
331
1C65
102
}
  0
BLOCK_RECORD
  5
1A4F
330
1
100
AcDbSymbolTableRecord
100
AcDbBlockTableRecord
  2
bubble
340
0
310
2800000020000000200000000100080000000000000400000000000000000000000000000000000000000000000080000080000000808000800000008000800080800000C0C0C000C0DCC000F0CAA6000020400000206000002080000020A0000020C0000020E00000400000004020000040400000406000004080000040A0
310
000040C0000040E00000600000006020000060400000606000006080000060A0000060C0000060E00000800000008020000080400000806000008080000080A0000080C0000080E00000A0000000A0200000A0400000A0600000A0800000A0A00000A0C00000A0E00000C0000000C0200000C0400000C0600000C0800000C0
310
A00000C0C00000C0E00000E0000000E0200000E0400000E0600000E0800000E0A00000E0C00000E0E00040000000400020004000400040006000400080004000A0004000C0004000E00040200000402020004020400040206000402080004020A0004020C0004020E000404000004040200040404000404060004040800040
310
40A0004040C0004040E00040600000406020004060400040606000406080004060A0004060C0004060E00040800000408020004080400040806000408080004080A0004080C0004080E00040A0000040A0200040A0400040A0600040A0800040A0A00040A0C00040A0E00040C0000040C0200040C0400040C0600040C08000
310
40C0A00040C0C00040C0E00040E0000040E0200040E0400040E0600040E0800040E0A00040E0C00040E0E00080000000800020008000400080006000800080008000A0008000C0008000E00080200000802020008020400080206000802080008020A0008020C0008020E00080400000804020008040400080406000804080
310
008040A0008040C0008040E00080600000806020008060400080606000806080008060A0008060C0008060E00080800000808020008080400080806000808080008080A0008080C0008080E00080A0000080A0200080A0400080A0600080A0800080A0A00080A0C00080A0E00080C0000080C0200080C0400080C0600080C0
310
800080C0A00080C0C00080C0E00080E0000080E0200080E0400080E0600080E0800080E0A00080E0C00080E0E000C0000000C0002000C0004000C0006000C0008000C000A000C000C000C000E000C0200000C0202000C0204000C0206000C0208000C020A000C020C000C020E000C0400000C0402000C0404000C0406000C0
310
408000C040A000C040C000C040E000C0600000C0602000C0604000C0606000C0608000C060A000C060C000C060E000C0800000C0802000C0804000C0806000C0808000C080A000C080C000C080E000C0A00000C0A02000C0A04000C0A06000C0A08000C0A0A000C0A0C000C0A0E000C0C00000C0C02000C0C04000C0C06000
310
C0C08000C0C0A000F0FBFF00A4A0A000808080000000FF0000FF000000FFFF00FF000000FF00FF00FFFF0000FFFFFF0008080808080808080808080808080808080808080808080808080808080808080808080808080808080808080808080808080808080808080808080808080808080808080808080808080808FDFDFD
310
08080808080808080808080808080808080808080808080808080808FD080808FDFDFDFDFDFD0808080808080808080808080808080808080808FDFD08080808080808080808FDFDFDFD080808080808080808080808080808FD08080808080808080808080808080808FD08080808080808080808080808FD080808080808
310
0808080808080808080808FD0808080808080808080808FDFD08080808080808080808080808080808080808FD080808080808080808FD080808080808080808080808080808080808080808FD0808080808080808FD08FD0808080808080808FD0808FD0808080808080808FDFD08080808080808FD0808FD080808080808
310
FD08080808FD080808080808FD08FD08080808080808FD0808FD080808080808FD08080808FD080808080808FD0808FD080808080808FD080808FD08080808FD080808080808FD08080808FD080808FD080808080808FD08080808FD0808FD0808080808080808FD0808FD0808080808FD0808080808FD08080808FD0808FD
310
0808080808080808FD0808FD0808080808FD0808080808FD0808080808FDFD08080808080808080808FDFD08080808080808FD08080808FD0808080808FDFD08080808080808080808FDFD08080808080808FD08080808FD08080808FD0808FD0808080808080808FD0808FD0808080808FD0808080808FD08080808FD0808
310
FD0808080808080808FD0808FD0808080808FD0808080808FD080808FD08080808FD080808080808FD08080808FD080808FD080808080808FD0808FD080808080808FD08080808FD080808080808FD0808FD080808080808FD0808FD080808080808FD08080808FD080808080808FD08FD08080808080808FD08FD08080808
310
08080808FD0808FD0808080808080808FDFD0808080808080808FD080808080808080808080808080808080808080808FD08080808080808080808FDFD08080808080808080808080808080808080808FD080808080808080808080808FD0808080808080808080808080808080808FD0808080808080808080808080808FD
310
08080808080808080808080808080808FD080808080808080808080808080808FDFD0808080808080808080808FDFDFD080808080808080808080808080808080808FD08080808FDFDFDFDFDFD08080808080808080808080808080808080808080808FDFDFDFD080808080808080808080808080808080808080808080808
310
0808080808080808080808080808080808080808080808080808080808080808080808080808080808080808080808080808080808080808
102
{BLKREFS
331
1ACE
331
1C44
331
1C47
331
1C4A
102
}
  0
BLOCK_RECORD
  5
1B44
330
1
100
AcDbSymbolTableRecord
100
AcDbBlockTableRecord
  2
32767
340
0
102
{BLKREFS
331
1B49
102
}
  0
BLOCK_RECORD
  5
1B48
330
1
100
AcDbSymbolTableRecord
100
AcDbBlockTableRecord
  2
7
340
0
102
{BLKREFS
331
1BC0
331
1BC8
331
1BD0
331
1BD8
331
1BE5
331
1BE6
331
1BFB
331
1C08
102
}
  0
ENDTAB
  0
ENDSEC
  0
SECTION
  2
BLOCKS
  0
BLOCK
  5
48
330
1E
100
AcDbEntity
  8
0
100
AcDbBlockBegin
  2
*Model_Space
 70
     0
 10
0.0
 20
0.0
 30
0.0
  3
*Model_Space
  1

  0
ENDBLK
  5
49
330
1E
100
AcDbEntity
  8
0
100
AcDbBlockEnd
  0
BLOCK
  5
46
330
1A
100
AcDbEntity
 67
     1
  8
0
100
AcDbBlockBegin
  2
*Paper_Space
 70
     0
 10
0.0
 20
0.0
 30
0.0
  3
*Paper_Space
  1

  0
ENDBLK
  5
47
330
1A
100
AcDbEntity
 67
     1
  8
0
100
AcDbBlockEnd
  0
BLOCK
  5
15D
330
24
100
AcDbEntity
  8
0
100
AcDbBlockBegin
  2
TITLBLK
 70
     2
 10
0.0
 20
0.0
 30
0.0
  3
TITLBLK
  1

  0
LWPOLYLINE
  5
15E
330
24
100
AcDbEntity
  8
0
100
AcDbPolyline
 90
        2
 70
     0
 43
0.04
 39
0.03
 10
0.3424999999999994
 20
-0.0000000000000003
 10
7.654581983261419
 20
-0.0000000000000003
  0
ATTDEF
  5
162
330
24
100
AcDbEntity
  8
0
100
AcDbText
 10
0.625
 20
0.0999999999999998
 30
0.0
 40
0.2
  1
TITLE
  7
L200
100
AcDbAttributeDefinition
  3
DETAIL TITLE
  2
TITLE
 70
     0
  0
LWPOLYLINE
  5
164
330
24
100
AcDbEntity
  8
0
100
AcDbPolyline
 90
        2
 70
     1
 43
0.03
 10
0.0
 20
-0.3425000000000002
 42
0.9999999999999998
 10
0.0
 20
0.3425000000000002
 42
0.9999999999999998
  0
ATTDEF
  5
168
330
24
100
AcDbEntity
  8
0
100
AcDbText
 10
-0.0776944065484311
 20
-0.1000000000000003
 30
0.0
 40
0.2
  1
#
  7
L200
 72
     4
 11
0.0
 21
-0.0000000000000003
 31
0.0
100
AcDbAttributeDefinition
  3
#
  2
#
 70
     0
  0
ATTDEF
  5
169
330
24
100
AcDbEntity
  8
0
100
AcDbText
 10
0.625
 20
-0.1836633170828782
 30
0.0
 40
0.1
  1
N.T.S.
  7
L100
100
AcDbAttributeDefinition
  3
SCALE
  2
SCALE
 70
     0
  0
ATTDEF
  5
16A
330
24
100
AcDbEntity
  8
0
100
AcDbText
 10
2.107203380653828
 20
-0.2914343300200487
 30
0.0
 40
0.2
  1
TITLE2
  7
L200
100
AcDbAttributeDefinition
  3
DETAIL TITLE2
  2
TITLE2
 70
     0
  0
ATTDEF
  5
16B
330
24
100
AcDbEntity
  8
0
100
AcDbText
 10
7.58601055468999
 20
-0.1618486459795794
 30
0.0
 40
0.08
  1
-
  7
L80
 72
     2
 11
7.654581983261419
 21
-0.1618486459795794
 31
0.0
100
AcDbAttributeDefinition
  3
DWG-NAME
  2
DWG-NAME
 70
     0
  0
ATTDEF
  5
16C
330
24
100
AcDbEntity
  8
0
100
AcDbText
 10
7.58601055468999
 20
0.0853756950662722
 30
0.0
 40
0.08
  1
-
  7
L80
 72
     2
 11
7.654581983261419
 21
0.0853756950662722
 31
0.0
100
AcDbAttributeDefinition
  3
REVISION DATE
  2
REVISED
 70
     0
  0
ENDBLK
  5
16D
330
24
100
AcDbEntity
  8
0
100
AcDbBlockEnd
  0
BLOCK
  5
1A52
330
1A4F
100
AcDbEntity
  8
0
100
AcDbBlockBegin
  2
bubble
 70
     2
 10
0.0
 20
0.0
 30
0.0
  3
bubble
  1

  0
CIRCLE
  5
1A50
330
1A4F
100
AcDbEntity
  8
0
100
AcDbCircle
 10
0.0
 20
0.0
 30
0.0
 40
0.1398891854377198
  0
ATTDEF
  5
1A51
330
1A4F
100
AcDbEntity
  8
0
100
AcDbText
 10
0.0
 20
0.0
 30
0.0
 40
0.125
  1

  7
ROMANS
 72
     4
 11
0.0
 21
0.0
 31
0.0
100
AcDbAttributeDefinition
  3
Number
  2
XX
 70
     0
  0
ENDBLK
  5
1A53
330
1A4F
100
AcDbEntity
  8
0
100
AcDbBlockEnd
  0
BLOCK
  5
1B46
330
1B44
100
AcDbEntity
  8
0
100
AcDbBlockBegin
  2
32767
 70
     0
 10
0.0
 20
0.0
 30
0.0
  3
32767
  1

  0
LWPOLYLINE
  5
1B45
330
1B44
100
AcDbEntity
  8
0
100
AcDbPolyline
 90
        2
 70
     1
 43
0.5
 10
-0.25
 20
0.0
 42
1.0
 10
0.25
 20
0.0
 42
1.0
  0
ENDBLK
  5
1B47
330
1B44
100
AcDbEntity
  8
0
100
AcDbBlockEnd
  0
BLOCK
  5
1B4A
330
1B48
100
AcDbEntity
  8
0
100
AcDbBlockBegin
  2
7
 70
     0
 10
0.0
 20
0.0
 30
0.0
  3
7
  1

  0
INSERT
  5
1B49
330
1B48
100
AcDbEntity
  8
0
100
AcDbBlockReference
  2
32767
 10
0.0
 20
0.0
 30
0.0
 41
0.158
 42
0.158
  0
ENDBLK
  5
1B4B
330
1B48
100
AcDbEntity
  8
0
100
AcDbBlockEnd
  0
ENDSEC
  0
SECTION
  2
ENTITIES
  0
LWPOLYLINE
  5
196E
330
1E
100
AcDbEntity
  8
IMAGE
100
AcDbPolyline
 90
        4
 70
     0
 43
0.00625
 10
4.939030471998059
 20
4.320186854251375
 10
5.194413977844934
 20
4.320186854251375
 10
5.194413977844934
 20
3.988707989779
 10
6.077163866465653
 20
3.988707989779
  0
LWPOLYLINE
  5
196F
330
1E
100
AcDbEntity
  8
IMAGE
100
AcDbPolyline
 90
        4
 70
     0
 43
0.00625
 10
4.469904958010538
 20
4.320186854251375
 10
4.311664089224215
 20
4.320186854251375
 10
4.311664089224215
 20
3.836077786294526
 10
6.077163866465653
 20
3.836077786294526
  0
LINE
  5
1970
330
1E
100
AcDbEntity
  8
IMAGE
100
AcDbLine
 10
5.697196707865575
 20
4.35275680036346
 30
0.0
 11
5.697196707865575
 21
3.749873285425524
 31
0.0
  0
LINE
  5
1971
330
1E
100
AcDbEntity
  8
IMAGE
100
AcDbLine
 10
4.208690386545629
 20
4.35275680036346
 30
0.0
 11
4.208690386545633
 21
3.749873285425524
 31
0.0
  0
ARC
  5
1972
330
1E
100
AcDbEntity
  8
IMAGE
100
AcDbCircle
 10
5.607513484376713
 20
3.749873285425524
 30
0.0
 40
0.0896832234888614
100
AcDbArc
 50
270.0
 51
0.0
  0
TEXT
  5
1973
330
1E
100
AcDbEntity
  8
TEXT_BUBBLES
100
AcDbText
 10
4.362510710940854
 20
3.303152606754401
 30
0.0
 40
0.125
  1
2
  7
ROMANS
 72
     4
 11
4.422034520464663
 21
3.365652606754401
 31
0.0
100
AcDbText
  0
SOLID
  5
1974
330
1E
100
AcDbEntity
  8
TEXT_BUBBLES
100
AcDbTrace
 10
4.704894507770571
 20
3.576406834157177
 30
0.0
 11
4.743499711542462
 21
3.512105681432433
 31
0.0
 12
4.91710056783075
 22
3.660071869110476
 32
0.0
 13
4.91710056783075
 23
3.660071869110476
 33
0.0
  0
LINE
  5
1975
330
1E
100
AcDbEntity
  8
TEXT_BUBBLES
100
AcDbLine
 10
4.724197109656515
 20
3.544256257794807
 30
0.0
 11
4.557219015724076
 21
3.444005747989822
 31
0.0
  0
CIRCLE
  5
1976
330
1E
100
AcDbEntity
  8
TEXT_BUBBLES
100
AcDbCircle
 10
4.422034520464663
 20
3.365652606754401
 30
0.0
 40
0.15625
  0
ARC
  5
1977
330
1E
100
AcDbEntity
  8
IMAGE
100
AcDbCircle
 10
4.298373610034495
 20
3.749873285425524
 30
0.0
 40
0.0896832234888614
100
AcDbArc
 50
180.0
 51
270.0
  0
LINE
  5
1978
330
1E
100
AcDbEntity
  8
IMAGE
100
AcDbLine
 10
4.298373610034495
 20
3.660190061936663
 30
0.0
 11
5.607513484376713
 21
3.660190061936663
 31
0.0
  0
LWPOLYLINE
  5
1979
330
1E
100
AcDbEntity
  8
IMAGE
100
AcDbPolyline
 90
        8
 70
     1
 43
0.0375
 10
6.082411538969992
 20
3.988602605336156
 42
0.4142135623730959
 10
6.015282169170752
 20
3.921473235536915
 10
6.015282169170752
 20
3.903795262623801
 42
0.4142135623730951
 10
6.082411538969992
 20
3.836665892824561
 10
6.587135039587792
 20
3.836665892824561
 42
0.4142135623730951
 10
6.654264409387035
 20
3.903795262623801
 10
6.654264409387035
 20
3.921473235536913
 42
0.4142135623730951
 10
6.587135039587792
 20
3.988602605336155
  0
LINE
  5
197A
330
1E
100
AcDbEntity
  8
TEXT_BUBBLES
100
AcDbLine
 10
6.796312828235304
 20
3.719045978736488
 30
0.0
 11
6.965260801563559
 21
3.622152063149668
 31
0.0
  0
SOLID
  5
197B
330
1E
100
AcDbEntity
  8
TEXT_BUBBLES
100
AcDbTrace
 10
6.814969139124706
 20
3.751575842923078
 30
0.0
 11
6.777656517345903
 21
3.686516114549898
 31
0.0
 12
6.601133643115765
 22
3.830983844072893
 32
0.0
 13
6.601133643115765
 23
3.830983844072893
 33
0.0
  0
TEXT
  5
197C
330
1E
100
AcDbEntity
  8
TEXT_BUBBLES
100
AcDbText
 10
7.04402163863329
 20
3.480303097491449
 30
0.0
 40
0.125
  1
3
  7
ROMANS
 72
     4
 11
7.103545448157099
 21
3.542803097491449
 31
0.0
100
AcDbText
  0
CIRCLE
  5
197D
330
1E
100
AcDbEntity
  8
TEXT_BUBBLES
100
AcDbCircle
 10
7.101983968154996
 20
3.546515840232276
 30
0.0
 40
0.15625
  0
ARC
  5
198C
330
1E
100
AcDbEntity
  8
IMAGE
100
AcDbCircle
 10
5.607513484376713
 20
4.35275680036346
 30
0.0
 40
0.0896832234888614
100
AcDbArc
 50
0.0
 51
90.0
  0
LWPOLYLINE
  5
1991
330
1E
100
AcDbEntity
  8
IMAGE
100
AcDbPolyline
 90
        2
 70
     0
 43
0.03125
 10
4.939030471998059
 20
4.320186854251375
 10
4.500851656404112
 20
4.165034255075406
  0
LWPOLYLINE
  5
1992
330
1E
100
AcDbEntity
  8
IMAGE
100
AcDbPolyline
 90
        2
 70
     1
 43
0.0317613578807635
 10
4.454024279070157
 20
4.320186854251375
 42
1.0
 10
4.485785636950922
 20
4.320186854251375
 42
1.0
  0
LWPOLYLINE
  5
1993
330
1E
100
AcDbEntity
  8
IMAGE
100
AcDbPolyline
 90
        2
 70
     1
 43
0.0317613578807635
 10
4.923149793057682
 20
4.320186854251375
 42
1.0
 10
4.954911150938443
 20
4.320186854251375
 42
1.0
  0
ARC
  5
1994
330
1E
100
AcDbEntity
  8
IMAGE
100
AcDbCircle
 10
4.298373610034488
 20
4.35275680036346
 30
0.0
 40
0.0896832234888614
100
AcDbArc
 50
90.0
 51
180.0000000000001
  0
LINE
  5
1995
330
1E
100
AcDbEntity
  8
IMAGE
100
AcDbLine
 10
4.298373610034488
 20
4.44244002385232
 30
0.0
 11
5.607513484376713
 21
4.44244002385232
 31
0.0
  0
LWPOLYLINE
  5
1A39
330
1E
100
AcDbEntity
  8
IMAGE
100
AcDbPolyline
 90
        4
 70
     1
 43
0.0
 10
0.0
 20
0.0
 10
16.49
 20
0.0
 10
16.49
 20
10.43999999999999
 10
0.0
 20
10.43999999999999
  0
LINE
  5
1AC9
330
1E
100
AcDbEntity
  8
IMAGE
100
AcDbLine
 10
4.919512217708359
 20
5.776286330686506
 30
0.0
 11
1.936197757520137
 21
5.776286330686506
 31
0.0
  0
LINE
  5
1ACD
330
1E
100
AcDbEntity
  8
TEXT_BUBBLES
100
AcDbLine
 10
3.387517296009768
 20
6.528879549072843
 30
0.0
 11
3.090706726532115
 21
6.804973323643071
 31
0.0
  0
INSERT
  5
1ACE
330
1E
100
AcDbEntity
  8
TEXT_BUBBLES
100
AcDbBlockReference
 66
     1
  2
bubble
 10
3.02600478555615
 20
6.930578786969803
 30
0.0
  0
ATTRIB
  5
1ACF
330
1ACE
100
AcDbEntity
  8
TEXT_BUBBLES
100
AcDbText
 10
2.975409547460912
 20
6.868078786969803
 30
0.0
 40
0.125
  1
1
  7
ROMANS
 72
     4
 11
3.02600478555615
 21
6.930578786969803
 31
0.0
100
AcDbAttribute
  2
XX
 70
     0
  0
SEQEND
  5
1AD0
330
1ACE
100
AcDbEntity
  8
TEXT_BUBBLES
  0
SOLID
  5
1ADA
330
1E
100
AcDbEntity
  8
TEXT_BUBBLES
100
AcDbTrace
 10
3.246019604455682
 20
6.70779196698972
 30
0.0
 11
3.195642479269348
 21
6.652229882273964
 31
0.0
 12
3.387517296009768
 22
6.528879549072843
 32
0.0
 13
3.387517296009768
 23
6.528879549072843
 33
0.0
  0
LINE
  5
1B34
330
1E
100
AcDbEntity
  8
IMAGE
100
AcDbLine
 10
4.919512217708359
 20
7.580567069646139
 30
0.0
 11
4.919512217708359
 21
5.776286330686506
 31
0.0
  0
TEXT
  5
1B38
330
1E
100
AcDbEntity
  8
IMAGE
100
AcDbText
 10
3.633169462153304
 20
5.193176340961118
 30
0.0
 40
0.125
  1
RED
  7
L100
100
AcDbText
  0
TEXT
  5
1B39
330
1E
100
AcDbEntity
  8
IMAGE
100
AcDbText
 10
4.08899372319971
 20
5.494164899859429
 30
0.0
 40
0.125
  1
BLACK
  7
L100
100
AcDbText
  0
LWPOLYLINE
  5
1B3C
330
1E
100
AcDbEntity
  8
IMAGE
100
AcDbPolyline
 90
        4
 70
     0
 43
0.018
 10
3.803137827187857
 20
6.319954070883158
 10
3.803137827187857
 20
5.440141314759483
 10
4.946561493628212
 20
5.440141314759483
 10
4.946561493628212
 20
4.321081235404564
  0
LWPOLYLINE
  5
1B3D
330
1E
100
AcDbEntity
  8
IMAGE
100
AcDbPolyline
 90
        4
 70
     0
 43
0.018
 10
3.494104424980545
 20
6.327671721450277
 10
3.494104424980545
 20
5.139152755861172
 10
4.475285506856206
 20
5.139152755861172
 10
4.475285506856206
 20
4.328798917101787
  0
INSERT
  5
1BC0
330
1E
100
AcDbEntity
  8
IMAGE
100
AcDbBlockReference
  2
7
 10
4.093599982534843
 20
6.703936736757142
 30
0.0
 41
0.7476407267618513
 42
0.747640726761853
 43
0.7476407267618525
  0
LINE
  5
1BC1
330
1E
100
AcDbEntity
  8
IMAGE
100
AcDbLine
 10
3.927115293723993
 20
6.439138254872831
 30
0.0
 11
4.640194438605718
 21
6.439138254872831
 31
0.0
  0
LINE
  5
1BC2
330
1E
100
AcDbEntity
  8
IMAGE
100
AcDbLine
 10
3.927115293723993
 20
6.609226520211153
 30
0.0
 11
4.640194438605718
 21
6.609226520211153
 31
0.0
  0
LINE
  5
1BC3
330
1E
100
AcDbEntity
  8
IMAGE
100
AcDbLine
 10
3.416850497709027
 20
6.803613109169235
 30
0.0
 11
4.640194438605718
 21
6.803613109169235
 31
0.0
  0
LINE
  5
1BC4
330
1E
100
AcDbEntity
  8
IMAGE
100
AcDbLine
 10
3.392552174089267
 20
6.973701374507555
 30
0.0
 11
4.640194438605718
 21
6.973701374507555
 31
0.0
  0
LINE
  5
1BC5
330
1E
100
AcDbEntity
  8
IMAGE
100
AcDbLine
 10
4.010019184603667
 20
6.048495851959126
 30
0.0
 11
4.25385700860653
 21
6.048495851959126
 31
0.0
  0
LINE
  5
1BC6
330
1E
100
AcDbEntity
  8
IMAGE
100
AcDbLine
 10
3.392552174089267
 20
6.244751665914751
 30
0.0
 11
4.640194438605718
 21
6.244751665914751
 31
0.0
  0
TEXT
  5
1BC7
330
1E
100
AcDbEntity
  8
IMAGE
100
AcDbText
 10
3.727749905499251
 20
5.892118354329813
 30
0.0
 40
0.1121461090142779
  1
SENSOR
  7
L100
100
AcDbText
  0
INSERT
  5
1BC8
330
1E
100
AcDbEntity
  8
IMAGE
100
AcDbBlockReference
  2
7
 10
4.097609895421793
 20
6.341445463005189
 30
0.0
 41
0.7476407267618513
 42
0.747640726761853
 43
0.7476407267618525
  0
LINE
  5
1BC9
330
1E
100
AcDbEntity
  8
IMAGE
100
AcDbLine
 10
3.392552174089267
 20
6.244751665914751
 30
0.0
 11
3.392552174089267
 21
6.973701374507555
 31
0.0
  0
LINE
  5
1BCA
330
1E
100
AcDbEntity
  8
IMAGE
100
AcDbLine
 10
3.416850497709027
 20
6.244751665914751
 30
0.0
 11
3.416850497709027
 21
6.973701374507555
 31
0.0
  0
LINE
  5
1BCB
330
1E
100
AcDbEntity
  8
IMAGE
100
AcDbLine
 10
3.70843038114615
 20
6.244751665914751
 30
0.0
 11
3.70843038114615
 21
6.973701374507555
 31
0.0
  0
LINE
  5
1BCC
330
1E
100
AcDbEntity
  8
IMAGE
100
AcDbLine
 10
4.00001026458327
 20
6.244751665914751
 30
0.0
 11
4.00001026458327
 21
6.973701374507555
 31
0.0
  0
LINE
  5
1BCD
330
1E
100
AcDbEntity
  8
IMAGE
100
AcDbLine
 10
3.416850497709027
 20
6.439138254872831
 30
0.0
 11
3.70843038114615
 21
6.439138254872831
 31
0.0
  0
LINE
  5
1BCE
330
1E
100
AcDbEntity
  8
IMAGE
100
AcDbLine
 10
3.416850497709027
 20
6.609226520211153
 30
0.0
 11
3.70843038114615
 21
6.609226520211153
 31
0.0
  0
LINE
  5
1BCF
330
1E
100
AcDbEntity
  8
IMAGE
100
AcDbLine
 10
3.423053969941609
 20
6.048495851959126
 30
0.0
 11
3.674089092158986
 21
6.048495851959126
 31
0.0
  0
INSERT
  5
1BD0
330
1E
100
AcDbEntity
  8
IMAGE
100
AcDbBlockReference
  2
7
 10
3.512297757019933
 20
6.3400230064049
 30
0.0
 41
0.7476407267618513
 42
0.747640726761853
 43
0.7476407267618525
  0
LINE
  5
1BD1
330
1E
100
AcDbEntity
  8
IMAGE
100
AcDbLine
 10
3.423053969941609
 20
6.048495851959126
 30
0.0
 11
3.423053969941609
 21
6.123259924635311
 31
0.0
  0
TEXT
  5
1BD2
330
1E
100
AcDbEntity
  8
IMAGE
100
AcDbText
 10
3.716894564015035
 20
6.045073425606753
 30
0.0
 40
0.1121461090142779
  1
1
  7
L100
100
AcDbText
  0
LINE
  5
1BD3
330
1E
100
AcDbEntity
  8
IMAGE
100
AcDbLine
 10
4.010019184603667
 20
6.048495851959126
 30
0.0
 11
4.010019184603667
 21
6.123259924635311
 31
0.0
  0
LINE
  5
1BD4
330
1E
100
AcDbEntity
  8
IMAGE
100
AcDbLine
 10
4.010811206535361
 20
6.048495851959126
 30
0.0
 11
4.010811206535361
 21
6.123259924635311
 31
0.0
  0
LINE
  5
1BD5
330
1E
100
AcDbEntity
  8
IMAGE
100
AcDbLine
 10
3.798154644568523
 20
6.048495851959126
 30
0.0
 11
4.010811206535361
 21
6.048495851959126
 31
0.0
  0
LINE
  5
1BD6
330
1E
100
AcDbEntity
  8
IMAGE
100
AcDbLine
 10
3.635535410286866
 20
6.609226520211153
 30
0.0
 11
4.00001026458327
 21
6.609226520211153
 31
0.0
  0
LINE
  5
1BD7
330
1E
100
AcDbEntity
  8
IMAGE
100
AcDbLine
 10
3.635535410286866
 20
6.439138254872831
 30
0.0
 11
4.00001026458327
 21
6.439138254872831
 31
0.0
  0
INSERT
  5
1BD8
330
1E
100
AcDbEntity
  8
IMAGE
100
AcDbBlockReference
  2
7
 10
3.805665232874986
 20
6.3400230064049
 30
0.0
 41
0.7476407267618513
 42
0.747640726761853
 43
0.7476407267618525
  0
LINE
  5
1BD9
330
1E
100
AcDbEntity
  8
IMAGE
100
AcDbLine
 10
3.68413205752639
 20
6.196155018675231
 30
0.0
 11
3.68413205752639
 21
6.244751665914751
 31
0.0
  0
LINE
  5
1BDA
330
1E
100
AcDbEntity
  8
IMAGE
100
AcDbLine
 10
3.68413205752639
 20
6.171856695055467
 30
0.0
 11
3.68413205752639
 21
6.196155018675231
 31
0.0
  0
LINE
  5
1BDB
330
1E
100
AcDbEntity
  8
IMAGE
100
AcDbLine
 10
3.65983373390663
 20
6.171856695055467
 30
0.0
 11
3.65983373390663
 21
6.196155018675231
 31
0.0
  0
LINE
  5
1BDC
330
1E
100
AcDbEntity
  8
IMAGE
100
AcDbLine
 10
3.65983373390663
 20
6.171856695055467
 30
0.0
 11
3.68413205752639
 21
6.171856695055467
 31
0.0
  0
LINE
  5
1BDD
330
1E
100
AcDbEntity
  8
IMAGE
100
AcDbLine
 10
3.562640439427589
 20
6.196155018675231
 30
0.0
 11
3.562640439427589
 21
6.244751665914751
 31
0.0
  0
LINE
  5
1BDE
330
1E
100
AcDbEntity
  8
IMAGE
100
AcDbLine
 10
3.562640439427589
 20
6.196155018675231
 30
0.0
 11
3.68413205752639
 21
6.196155018675231
 31
0.0
  0
LINE
  5
1BDF
330
1E
100
AcDbEntity
  8
IMAGE
100
AcDbLine
 10
3.854220322864712
 20
6.196155018675231
 30
0.0
 11
3.975711940963513
 21
6.196155018675231
 31
0.0
  0
LINE
  5
1BE0
330
1E
100
AcDbEntity
  8
IMAGE
100
AcDbLine
 10
3.854220322864712
 20
6.196155018675231
 30
0.0
 11
3.854220322864712
 21
6.244751665914751
 31
0.0
  0
LINE
  5
1BE1
330
1E
100
AcDbEntity
  8
IMAGE
100
AcDbLine
 10
3.975711940963513
 20
6.196155018675231
 30
0.0
 11
3.975711940963513
 21
6.244751665914751
 31
0.0
  0
LINE
  5
1BE2
330
1E
100
AcDbEntity
  8
IMAGE
100
AcDbLine
 10
3.951413617343749
 20
6.171856695055467
 30
0.0
 11
3.975711940963513
 21
6.171856695055467
 31
0.0
  0
LINE
  5
1BE3
330
1E
100
AcDbEntity
  8
IMAGE
100
AcDbLine
 10
3.951413617343749
 20
6.171856695055467
 30
0.0
 11
3.951413617343749
 21
6.196155018675231
 31
0.0
  0
LINE
  5
1BE4
330
1E
100
AcDbEntity
  8
IMAGE
100
AcDbLine
 10
3.975711940963513
 20
6.171856695055467
 30
0.0
 11
3.975711940963513
 21
6.196155018675231
 31
0.0
  0
INSERT
  5
1BE5
330
1E
100
AcDbEntity
  8
IMAGE
100
AcDbBlockReference
  2
7
 10
3.512297757019933
 20
6.703936736757142
 30
0.0
 41
0.7476407267618513
 42
0.747640726761853
 43
0.7476407267618525
  0
INSERT
  5
1BE6
330
1E
100
AcDbEntity
  8
IMAGE
100
AcDbBlockReference
  2
7
 10
3.805665232874986
 20
6.703936736757142
 30
0.0
 41
0.7476407267618513
 42
0.747640726761853
 43
0.7476407267618525
  0
LINE
  5
1BE7
330
1E
100
AcDbEntity
  8
IMAGE
100
AcDbLine
 10
3.68413205752639
 20
6.852209756408756
 30
0.0
 11
3.68413205752639
 21
6.900806403648275
 31
0.0
  0
LINE
  5
1BE8
330
1E
100
AcDbEntity
  8
IMAGE
100
AcDbLine
 10
3.65983373390663
 20
6.925104727268035
 30
0.0
 11
3.68413205752639
 21
6.925104727268035
 31
0.0
  0
LINE
  5
1BE9
330
1E
100
AcDbEntity
  8
IMAGE
100
AcDbLine
 10
3.65983373390663
 20
6.900806403648275
 30
0.0
 11
3.65983373390663
 21
6.925104727268035
 31
0.0
  0
LINE
  5
1BEA
330
1E
100
AcDbEntity
  8
IMAGE
100
AcDbLine
 10
3.68413205752639
 20
6.900806403648275
 30
0.0
 11
3.68413205752639
 21
6.925104727268035
 31
0.0
  0
LINE
  5
1BEB
330
1E
100
AcDbEntity
  8
IMAGE
100
AcDbLine
 10
3.562640439427589
 20
6.852209756408756
 30
0.0
 11
3.562640439427589
 21
6.900806403648275
 31
0.0
  0
LINE
  5
1BEC
330
1E
100
AcDbEntity
  8
IMAGE
100
AcDbLine
 10
3.562640439427589
 20
6.852209756408756
 30
0.0
 11
3.68413205752639
 21
6.852209756408756
 31
0.0
  0
LINE
  5
1BED
330
1E
100
AcDbEntity
  8
IMAGE
100
AcDbLine
 10
3.562640439427589
 20
6.900806403648275
 30
0.0
 11
3.68413205752639
 21
6.900806403648275
 31
0.0
  0
LINE
  5
1BEE
330
1E
100
AcDbEntity
  8
IMAGE
100
AcDbLine
 10
3.854220322864712
 20
6.852209756408756
 30
0.0
 11
3.975711940963513
 21
6.852209756408756
 31
0.0
  0
LINE
  5
1BEF
330
1E
100
AcDbEntity
  8
IMAGE
100
AcDbLine
 10
3.854220322864712
 20
6.900806403648275
 30
0.0
 11
3.975711940963513
 21
6.900806403648275
 31
0.0
  0
LINE
  5
1BF0
330
1E
100
AcDbEntity
  8
IMAGE
100
AcDbLine
 10
3.854220322864712
 20
6.852209756408756
 30
0.0
 11
3.854220322864712
 21
6.900806403648275
 31
0.0
  0
LINE
  5
1BF1
330
1E
100
AcDbEntity
  8
IMAGE
100
AcDbLine
 10
3.951413617343749
 20
6.925104727268035
 30
0.0
 11
3.975711940963513
 21
6.925104727268035
 31
0.0
  0
LINE
  5
1BF2
330
1E
100
AcDbEntity
  8
IMAGE
100
AcDbLine
 10
3.951413617343749
 20
6.900806403648275
 30
0.0
 11
3.951413617343749
 21
6.925104727268035
 31
0.0
  0
LINE
  5
1BF3
330
1E
100
AcDbEntity
  8
IMAGE
100
AcDbLine
 10
3.975711940963513
 20
6.852209756408756
 30
0.0
 11
3.975711940963513
 21
6.900806403648275
 31
0.0
  0
LINE
  5
1BF4
330
1E
100
AcDbEntity
  8
IMAGE
100
AcDbLine
 10
3.975711940963513
 20
6.900806403648275
 30
0.0
 11
3.975711940963513
 21
6.925104727268035
 31
0.0
  0
LINE
  5
1BF5
330
1E
100
AcDbEntity
  8
IMAGE
100
AcDbLine
 10
4.291590148020393
 20
6.244751665914751
 30
0.0
 11
4.291590148020393
 21
6.973701374507555
 31
0.0
  0
LINE
  5
1BF6
330
1E
100
AcDbEntity
  8
IMAGE
100
AcDbLine
 10
4.640194438605718
 20
6.244751665914751
 30
0.0
 11
4.640194438605718
 21
6.973701374507555
 31
0.0
  0
LINE
  5
1BF7
330
1E
100
AcDbEntity
  8
IMAGE
100
AcDbLine
 10
4.593258454709818
 20
6.244751665914751
 30
0.0
 11
4.593258454709818
 21
6.973701374507555
 31
0.0
  0
TEXT
  5
1BF8
330
1E
100
AcDbEntity
  8
IMAGE
100
AcDbText
 10
4.298076302344441
 20
6.045073425606753
 30
0.0
 40
0.1121461090142779
  1
2
  7
L100
100
AcDbText
  0
LINE
  5
1BF9
330
1E
100
AcDbEntity
  8
IMAGE
100
AcDbLine
 10
4.423254209555679
 20
6.048495851959126
 30
0.0
 11
4.660611146320057
 21
6.048495851959126
 31
0.0
  0
LINE
  5
1BFA
330
1E
100
AcDbEntity
  8
IMAGE
100
AcDbLine
 10
4.660611146320057
 20
6.048495851959126
 30
0.0
 11
4.660611146320057
 21
6.123259924635311
 31
0.0
  0
INSERT
  5
1BFB
330
1E
100
AcDbEntity
  8
IMAGE
100
AcDbBlockReference
  2
7
 10
4.390850442202538
 20
6.341445463005189
 30
0.0
 41
0.7476407267618513
 42
0.747640726761853
 43
0.7476407267618525
  0
LINE
  5
1BFC
330
1E
100
AcDbEntity
  8
IMAGE
100
AcDbLine
 10
4.267291824400636
 20
6.196155018675231
 30
0.0
 11
4.267291824400636
 21
6.244751665914751
 31
0.0
  0
LINE
  5
1BFD
330
1E
100
AcDbEntity
  8
IMAGE
100
AcDbLine
 10
4.267291824400636
 20
6.171856695055467
 30
0.0
 11
4.267291824400636
 21
6.196155018675231
 31
0.0
  0
LINE
  5
1BFE
330
1E
100
AcDbEntity
  8
IMAGE
100
AcDbLine
 10
4.242993500780873
 20
6.171856695055467
 30
0.0
 11
4.242993500780873
 21
6.196155018675231
 31
0.0
  0
LINE
  5
1BFF
330
1E
100
AcDbEntity
  8
IMAGE
100
AcDbLine
 10
4.242993500780873
 20
6.171856695055467
 30
0.0
 11
4.267291824400636
 21
6.171856695055467
 31
0.0
  0
LINE
  5
1C00
330
1E
100
AcDbEntity
  8
IMAGE
100
AcDbLine
 10
4.145800206301835
 20
6.196155018675231
 30
0.0
 11
4.145800206301835
 21
6.244751665914751
 31
0.0
  0
LINE
  5
1C01
330
1E
100
AcDbEntity
  8
IMAGE
100
AcDbLine
 10
4.145800206301835
 20
6.196155018675231
 30
0.0
 11
4.267291824400636
 21
6.196155018675231
 31
0.0
  0
LINE
  5
1C02
330
1E
100
AcDbEntity
  8
IMAGE
100
AcDbLine
 10
4.56053237118138
 20
6.196155018675231
 30
0.0
 11
4.56053237118138
 21
6.244751665914751
 31
0.0
  0
LINE
  5
1C03
330
1E
100
AcDbEntity
  8
IMAGE
100
AcDbLine
 10
4.53623404756162
 20
6.171856695055467
 30
0.0
 11
4.56053237118138
 21
6.171856695055467
 31
0.0
  0
LINE
  5
1C04
330
1E
100
AcDbEntity
  8
IMAGE
100
AcDbLine
 10
4.53623404756162
 20
6.171856695055467
 30
0.0
 11
4.53623404756162
 21
6.196155018675231
 31
0.0
  0
LINE
  5
1C05
330
1E
100
AcDbEntity
  8
IMAGE
100
AcDbLine
 10
4.56053237118138
 20
6.171856695055467
 30
0.0
 11
4.56053237118138
 21
6.196155018675231
 31
0.0
  0
LINE
  5
1C06
330
1E
100
AcDbEntity
  8
IMAGE
100
AcDbLine
 10
4.439040753082583
 20
6.196155018675231
 30
0.0
 11
4.439040753082583
 21
6.244751665914751
 31
0.0
  0
LINE
  5
1C07
330
1E
100
AcDbEntity
  8
IMAGE
100
AcDbLine
 10
4.439040753082583
 20
6.196155018675231
 30
0.0
 11
4.56053237118138
 21
6.196155018675231
 31
0.0
  0
INSERT
  5
1C08
330
1E
100
AcDbEntity
  8
IMAGE
100
AcDbBlockReference
  2
7
 10
4.386840529315588
 20
6.703936736757142
 30
0.0
 41
0.7476407267618513
 42
0.747640726761853
 43
0.7476407267618525
  0
LINE
  5
1C09
330
1E
100
AcDbEntity
  8
IMAGE
100
AcDbLine
 10
4.267291824400636
 20
6.852209756408756
 30
0.0
 11
4.267291824400636
 21
6.900806403648275
 31
0.0
  0
LINE
  5
1C0A
330
1E
100
AcDbEntity
  8
IMAGE
100
AcDbLine
 10
4.267291824400636
 20
6.900806403648275
 30
0.0
 11
4.267291824400636
 21
6.925104727268035
 31
0.0
  0
LINE
  5
1C0B
330
1E
100
AcDbEntity
  8
IMAGE
100
AcDbLine
 10
4.242993500780873
 20
6.900806403648275
 30
0.0
 11
4.242993500780873
 21
6.925104727268035
 31
0.0
  0
LINE
  5
1C0C
330
1E
100
AcDbEntity
  8
IMAGE
100
AcDbLine
 10
4.242993500780873
 20
6.925104727268035
 30
0.0
 11
4.267291824400636
 21
6.925104727268035
 31
0.0
  0
LINE
  5
1C0D
330
1E
100
AcDbEntity
  8
IMAGE
100
AcDbLine
 10
4.145800206301835
 20
6.852209756408756
 30
0.0
 11
4.145800206301835
 21
6.900806403648275
 31
0.0
  0
LINE
  5
1C0E
330
1E
100
AcDbEntity
  8
IMAGE
100
AcDbLine
 10
4.145800206301835
 20
6.852209756408756
 30
0.0
 11
4.267291824400636
 21
6.852209756408756
 31
0.0
  0
LINE
  5
1C0F
330
1E
100
AcDbEntity
  8
IMAGE
100
AcDbLine
 10
4.145800206301835
 20
6.900806403648275
 30
0.0
 11
4.267291824400636
 21
6.900806403648275
 31
0.0
  0
LINE
  5
1C10
330
1E
100
AcDbEntity
  8
IMAGE
100
AcDbLine
 10
4.53623404756162
 20
6.925104727268035
 30
0.0
 11
4.56053237118138
 21
6.925104727268035
 31
0.0
  0
LINE
  5
1C11
330
1E
100
AcDbEntity
  8
IMAGE
100
AcDbLine
 10
4.53623404756162
 20
6.900806403648275
 30
0.0
 11
4.53623404756162
 21
6.925104727268035
 31
0.0
  0
LINE
  5
1C12
330
1E
100
AcDbEntity
  8
IMAGE
100
AcDbLine
 10
4.56053237118138
 20
6.900806403648275
 30
0.0
 11
4.56053237118138
 21
6.925104727268035
 31
0.0
  0
LINE
  5
1C13
330
1E
100
AcDbEntity
  8
IMAGE
100
AcDbLine
 10
4.56053237118138
 20
6.852209756408756
 30
0.0
 11
4.56053237118138
 21
6.900806403648275
 31
0.0
  0
LINE
  5
1C14
330
1E
100
AcDbEntity
  8
IMAGE
100
AcDbLine
 10
4.439040753082583
 20
6.852209756408756
 30
0.0
 11
4.439040753082583
 21
6.900806403648275
 31
0.0
  0
LINE
  5
1C15
330
1E
100
AcDbEntity
  8
IMAGE
100
AcDbLine
 10
4.439040753082583
 20
6.900806403648275
 30
0.0
 11
4.56053237118138
 21
6.900806403648275
 31
0.0
  0
LINE
  5
1C16
330
1E
100
AcDbEntity
  8
IMAGE
100
AcDbLine
 10
4.439040753082583
 20
6.852209756408756
 30
0.0
 11
4.56053237118138
 21
6.852209756408756
 31
0.0
  0
TEXT
  5
1C17
330
1E
100
AcDbEntity
  8
IMAGE
100
AcDbText
 10
3.535261651744388
 20
6.074582720364794
 30
0.0
 40
0.1121461090142779
  1
+
  7
L100
100
AcDbText
  0
TEXT
  5
1C18
330
1E
100
AcDbEntity
  8
IMAGE
100
AcDbText
 10
3.85668902253305
 20
6.074582720364794
 30
0.0
 40
0.1121461090142779
  1
-
  7
L100
100
AcDbText
  0
TEXT
  5
1C19
330
1E
100
AcDbEntity
  8
IMAGE
100
AcDbText
 10
4.128371702457499
 20
6.074582720364794
 30
0.0
 40
0.1121461090142779
  1
+
  7
L100
100
AcDbText
  0
TEXT
  5
1C1A
330
1E
100
AcDbEntity
  8
IMAGE
100
AcDbText
 10
4.411533832669213
 20
6.074582720364794
 30
0.0
 40
0.1121461090142779
  1
-
  7
L100
100
AcDbText
  0
MTEXT
  5
1C39
330
1E
100
AcDbEntity
  8
TEXT_BUBBLES
100
AcDbMText
 10
10.27756716152547
 20
7.065214837857219
 30
0.0
 40
0.125
 41
3.0893
 71
     1
 72
     5
  1
ESP-SAT-LINK OR ESP-SITE-SAT SENSOR INPUT \P\PSENSOR WITH DRY CONTACT CLOSING \P\PSENSING DEVICE (I.E. MOISTURE, RAIN SENSOR, ETC.)
  7
SIMPLEX
 73
     1
 44
1.0
  0
INSERT
  5
1C44
330
1E
100
AcDbEntity
  8
TEXT_BUBBLES
100
AcDbBlockReference
 66
     1
  2
bubble
 10
9.960005302771961
 20
6.999389991009552
 30
0.0
  0
ATTRIB
  5
1C45
330
1C44
100
AcDbEntity
  8
TEXT_BUBBLES
100
AcDbText
 10
9.909410064676723
 20
6.936889991009552
 30
0.0
 40
0.125
  1
1
  7
ROMANS
 72
     4
 11
9.960005302771961
 21
6.999389991009552
 31
0.0
100
AcDbAttribute
  2
XX
 70
     0
  0
SEQEND
  5
1C46
330
1C44
100
AcDbEntity
  8
TEXT_BUBBLES
  0
INSERT
  5
1C47
330
1E
100
AcDbEntity
  8
TEXT_BUBBLES
100
AcDbBlockReference
 66
     1
  2
bubble
 10
9.960005302771961
 20
6.376609265698927
 30
0.0
  0
ATTRIB
  5
1C48
330
1C47
100
AcDbEntity
  8
TEXT_BUBBLES
100
AcDbText
 10
9.90048149324815
 20
6.314109265698927
 30
0.0
 40
0.125
  1
2
  7
ROMANS
 72
     4
 11
9.960005302771961
 21
6.376609265698927
 31
0.0
100
AcDbAttribute
  2
XX
 70
     0
  0
SEQEND
  5
1C49
330
1C47
100
AcDbEntity
  8
TEXT_BUBBLES
  0
INSERT
  5
1C4A
330
1E
100
AcDbEntity
  8
TEXT_BUBBLES
100
AcDbBlockReference
 66
     1
  2
bubble
 10
9.960005302771961
 20
5.730423436359298
 30
0.0
  0
ATTRIB
  5
1C4B
330
1C4A
100
AcDbEntity
  8
TEXT_BUBBLES
100
AcDbText
 10
9.90048149324815
 20
5.667923436359298
 30
0.0
 40
0.125
  1
3
  7
ROMANS
 72
     4
 11
9.960005302771961
 21
5.730423436359298
 31
0.0
100
AcDbAttribute
  2
XX
 70
     0
  0
SEQEND
  5
1C4C
330
1C4A
100
AcDbEntity
  8
TEXT_BUBBLES
  0
INSERT
  5
1C65
330
1E
100
AcDbEntity
  8
TEXT_BUBBLES
100
AcDbBlockReference
 66
     1
  2
TITLBLK
 10
0.6064423705144826
 20
0.8842270964783676
 30
0.0
  0
ATTRIB
  5
1C66
330
1C65
100
AcDbEntity
  8
TITLE
100
AcDbText
 10
1.231442370514482
 20
0.9842270964783672
 30
0.0
 40
0.2
  1
MONITORING CONDITION
  7
L200
100
AcDbAttribute
  2
TITLE2
 70
     0
  0
ATTRIB
  5
1C67
330
1C65
100
AcDbEntity
  8
TITLE
100
AcDbText
 10
0.3733591508691892
 20
0.785523140134575
 30
0.0
 40
0.2
  1
404
  7
L200
 72
     4
 11
0.6064423705144826
 21
0.8842270964783676
 31
0.0
100
AcDbAttribute
  2
#
 70
     0
  0
ATTRIB
  5
1C68
330
1C65
100
AcDbEntity
  8
TITLE
 62
     7
100
AcDbText
 10
1.231442370514482
 20
0.7005637793954893
 30
0.0
 40
0.1
  1
N.T.S.
  7
L100
100
AcDbAttribute
  2
SCALE
 70
     0
  0
ATTRIB
  5
1C69
330
1C65
100
AcDbEntity
  8
TITLE
100
AcDbText
 10
2.713645751168309
 20
0.5927927664583184
 30
0.0
 40
0.2
  1
MAXILINK OR ESP-SITE-SAT
  7
L200
100
AcDbAttribute
  2
TITLE3
 70
     0
  0
ATTRIB
  5
1C6A
330
1C65
100
AcDbEntity
  8
TITLE
 62
     7
100
AcDbText
 10
0.2657564878418146
 20
0.0359752084200152
 30
0.0
 40
0.08
  1
404-SENSOR MONITOR-LINK.DWG
  7
L80
 72
     2
 11
2.284804106889432
 21
0.0359752084200152
 31
0.0
100
AcDbAttribute
  2
DWG-NAME
 70
     0
  0
ATTRIB
  5
1C6B
330
1C65
100
AcDbEntity
  8
TITLE
 62
     7
100
AcDbText
 10
7.731500544252091
 20
0.9696027915446396
 30
0.0
 40
0.08
  1
1-16-04
  7
L80
 72
     2
 11
8.261024353775901
 21
0.9696027915446396
 31
0.0
100
AcDbAttribute
  2
REVISED
 70
     0
  0
ATTRIB
  5
1C6C
330
1C65
100
AcDbEntity
  8
TITLE
100
AcDbText
 10
1.231442370514482
 20
1.34371230274675
 30
0.0
 40
0.2
  1
MAXICOM SENSOR 
  7
L200
100
AcDbAttribute
  2
TITLE1
 70
     0
  0
ATTRIB
  5
1C6D
330
1C65
100
AcDbEntity
  8
TITLE
100
AcDbText
 10
2.713645751168309
 20
0.2692560808167741
 30
0.0
 40
0.2
  1
COMMUNICATION
  7
L200
100
AcDbAttribute
  2
TITLE4
 70
     0
  0
SEQEND
  5
1C6E
330
1C65
100
AcDbEntity
  8
TEXT_BUBBLES
  0
ENDSEC
  0
SECTION
  2
OBJECTS
  0
DICTIONARY
  5
C
330
0
100
AcDbDictionary
281
     1
  3
ACAD_GROUP
350
D
  3
ACAD_LAYOUT
350
19
  3
ACAD_MLINESTYLE
350
16
  3
ACAD_PLOTSETTINGS
350
18
  3
ACAD_PLOTSTYLENAME
350
E
  3
AcDbVariableDictionary
350
1A48
  0
DICTIONARY
  5
1C88
330
2
100
AcDbDictionary
280
     1
281
     1
  0
DICTIONARY
  5
D
102
{ACAD_REACTORS
330
C
102
}
330
C
100
AcDbDictionary
281
     1
  0
DICTIONARY
  5
19
102
{ACAD_REACTORS
330
C
102
}
330
C
100
AcDbDictionary
281
     1
  3
Layout1
350
1D
  3
Model
350
21
  0
DICTIONARY
  5
16
102
{ACAD_REACTORS
330
C
102
}
330
C
100
AcDbDictionary
281
     1
  3
Standard
350
17
  0
DICTIONARY
  5
18
102
{ACAD_REACTORS
330
C
102
}
330
C
100
AcDbDictionary
281
     1
  3
8500ColorShaded11x17
350
1BB9
  0
ACDBDICTIONARYWDFLT
  5
E
102
{ACAD_REACTORS
330
C
102
}
330
C
100
AcDbDictionary
281
     1
  3
Normal
350
F
100
AcDbDictionaryWithDefault
340
F
  0
DICTIONARY
  5
1A48
102
{ACAD_REACTORS
330
C
102
}
330
C
100
AcDbDictionary
281
     1
  3
DIMASSOC
350
1A4A
  3
HIDETEXT
350
1A49
  3
SORTENTS
350
1C7F
  0
LAYOUT
  5
1D
102
{ACAD_REACTORS
330
19
102
}
330
19
100
AcDbPlotSettings
  1

  2
\\AQUA\HP_LASER_5SI
  4

  6

 40
0.0
 41
0.0
 42
0.0
 43
0.0
 44
0.0
 45
0.0
 46
0.0
 47
0.0
 48
0.0
 49
0.0
140
0.0
141
0.0
142
1.0
143
1.0
 70
   688
 72
     0
 73
     0
 74
     5
  7

 75
    16
147
1.0
148
0.0
149
0.0
100
AcDbLayout
  1
Layout1
 70
     0
 71
     1
 10
0.0
 20
0.0
 11
12.0
 21
9.0
 12
0.0
 22
0.0
 32
0.0
 14
1.000000000000000E+20
 24
1.000000000000000E+20
 34
1.000000000000000E+20
 15
-1.000000000000000E+20
 25
-1.000000000000000E+20
 35
-1.000000000000000E+20
146
0.0
 13
0.0
 23
0.0
 33
0.0
 16
1.0
 26
0.0
 36
0.0
 17
0.0
 27
1.0
 37
0.0
 76
     0
330
1A
  0
LAYOUT
  5
21
102
{ACAD_REACTORS
330
19
102
}
330
19
100
AcDbPlotSettings
  1

  2
8500ColorShaded.pc3
  4
11x17
  6
ps1
 40
5.027083396911621
 41
5.027085304260253
 42
5.027099609375
 43
5.027069091796875
 44
279.3999938964843
 45
431.7999877929687
 46
-0.254
 47
-0.254
 48
-0.0492560862833429
 49
-0.1186961309896368
140
16.5769122751333
141
10.50341307131828
142
1.0
143
1.0
 70
 11956
 72
     0
 73
     1
 74
     4
  7
8500ColorShaded.ctb
 75
    16
147
1.0
148
1.251104591596909
149
3.014881727136775
100
AcDbLayout
  1
Model
 70
     1
 71
     0
 10
0.0
 20
0.0
 11
12.0
 21
9.0
 12
0.0
 22
0.0
 32
0.0
 14
0.0
 24
0.0
 34
0.0
 15
0.0
 25
0.0
 35
0.0
146
0.0
 13
0.0
 23
0.0
 33
0.0
 16
1.0
 26
0.0
 36
0.0
 17
0.0
 27
1.0
 37
0.0
 76
     0
330
1E
  0
MLINESTYLE
  5
17
102
{ACAD_REACTORS
330
16
102
}
330
16
100
AcDbMlineStyle
  2
STANDARD
 70
     0
  3

 62
   256
 51
90.0
 52
90.0
 71
     2
 49
0.5
 62
   256
  6
BYLAYER
 49
-0.5
 62
   256
  6
BYLAYER
  0
PLOTSETTINGS
  5
1BB9
102
{ACAD_REACTORS
330
18
102
}
330
18
100
AcDbPlotSettings
  1
8500ColorShaded11x17
  2
8500ColorShaded.pc3
  4
11x17
  6

 40
5.027083396911621
 41
5.027085304260253
 42
5.027099609375
 43
5.027069091796875
 44
279.3999938964843
 45
431.7999877929687
 46
0.0
 47
0.0
 48
180360.0524337165
 49
80033.77936194791
140
180369.1574725906
141
80037.61796031875
142
1.0
143
4.787622939151733
 70
  1712
 72
     0
 73
     1
 74
     0
  7
8500ColorShaded.ctb
 75
     0
147
0.2088719209322652
148
-4580581.320935756
149
-2032339.826086972
  0
ACDBPLACEHOLDER
  5
F
102
{ACAD_REACTORS
330
E
102
}
330
E
  0
DICTIONARYVAR
  5
1A4A
102
{ACAD_REACTORS
330
1A48
102
}
330
1A48
100
DictionaryVariables
280
     0
  1
1
  0
DICTIONARYVAR
  5
1A49
102
{ACAD_REACTORS
330
1A48
102
}
330
1A48
100
DictionaryVariables
280
     0
  1
1
  0
DICTIONARYVAR
  5
1C7F
102
{ACAD_REACTORS
330
1A48
102
}
330
1A48
100
DictionaryVariables
280
     0
  1
1
  0
ENDSEC
  0
EOF
