  0
SECTION
  2
HEADER
  9
$ACADVER
  1
AC1021
  9
$ACADMAINTVER
 70
    53
  9
$DWGCODEPAGE
  3
ANSI_1252
  9
$LASTSAVEDBY
  1
rperez
  9
$INSBASE
 10
0.0
 20
0.0
 30
0.0
  9
$EXTMIN
 10
0.0
 20
0.0
 30
0.0
  9
$EXTMAX
 10
16.48999999999999
 20
10.44
 30
0.03
  9
$LIMMIN
 10
0.0
 20
0.0
  9
$LIMMAX
 10
12.0
 20
9.0
  9
$ORTHOMODE
 70
     1
  9
$REGENMODE
 70
     1
  9
$FILLMODE
 70
     1
  9
$QTEXTMODE
 70
     0
  9
$MIRRTEXT
 70
     0
  9
$LTSCALE
 40
1.0
  9
$ATTMODE
 70
     1
  9
$TEXTSIZE
 40
0.125
  9
$TRACEWID
 40
0.05
  9
$TEXTSTYLE
  7
ROMANS
  9
$CLAYER
  8
0
  9
$CELTYPE
  6
ByLayer
  9
$CECOLOR
 62
   256
  9
$CELTSCALE
 40
1.0
  9
$DISPSILH
 70
     0
  9
$DIMSCALE
 40
1.0
  9
$DIMASZ
 40
0.18
  9
$DIMEXO
 40
0.0625
  9
$DIMDLI
 40
0.38
  9
$DIMRND
 40
0.0
  9
$DIMDLE
 40
0.0
  9
$DIMEXE
 40
0.125
  9
$DIMTP
 40
0.0
  9
$DIMTM
 40
0.0
  9
$DIMTXT
 40
0.125
  9
$DIMCEN
 40
0.09
  9
$DIMTSZ
 40
0.0
  9
$DIMTOL
 70
     0
  9
$DIMLIM
 70
     0
  9
$DIMTIH
 70
     1
  9
$DIMTOH
 70
     1
  9
$DIMSE1
 70
     0
  9
$DIMSE2
 70
     0
  9
$DIMTAD
 70
     0
  9
$DIMZIN
 70
     0
  9
$DIMBLK
  1

  9
$DIMASO
 70
     1
  9
$DIMSHO
 70
     1
  9
$DIMPOST
  1

  9
$DIMAPOST
  1

  9
$DIMALT
 70
     0
  9
$DIMALTD
 70
     2
  9
$DIMALTF
 40
25.4
  9
$DIMLFAC
 40
1.0
  9
$DIMTOFL
 70
     0
  9
$DIMTVP
 40
0.0
  9
$DIMTIX
 70
     0
  9
$DIMSOXD
 70
     0
  9
$DIMSAH
 70
     0
  9
$DIMBLK1
  1

  9
$DIMBLK2
  1

  9
$DIMSTYLE
  2
STANDARD
  9
$DIMCLRD
 70
   256
  9
$DIMCLRE
 70
   256
  9
$DIMCLRT
 70
   256
  9
$DIMTFAC
 40
1.0
  9
$DIMGAP
 40
0.09
  9
$DIMJUST
 70
     0
  9
$DIMSD1
 70
     0
  9
$DIMSD2
 70
     0
  9
$DIMTOLJ
 70
     1
  9
$DIMTZIN
 70
     0
  9
$DIMALTZ
 70
     0
  9
$DIMALTTZ
 70
     0
  9
$DIMUPT
 70
     0
  9
$DIMDEC
 70
     4
  9
$DIMTDEC
 70
     4
  9
$DIMALTU
 70
     2
  9
$DIMALTTD
 70
     2
  9
$DIMTXSTY
  7
arial
  9
$DIMAUNIT
 70
     0
  9
$DIMADEC
 70
     0
  9
$DIMALTRND
 40
0.0
  9
$DIMAZIN
 70
     0
  9
$DIMDSEP
 70
    46
  9
$DIMATFIT
 70
     3
  9
$DIMFRAC
 70
     0
  9
$DIMLDRBLK
  1

  9
$DIMLUNIT
 70
     2
  9
$DIMLWD
 70
    -1
  9
$DIMLWE
 70
    -1
  9
$DIMTMOVE
 70
     2
  9
$DIMFXL
 40
1.0
  9
$DIMFXLON
 70
     0
  9
$DIMJOGANG
 40
0.7853981633974483
  9
$DIMTFILL
 70
     0
  9
$DIMTFILLCLR
 70
     0
  9
$DIMARCSYM
 70
     0
  9
$DIMLTYPE
  6

  9
$DIMLTEX1
  6

  9
$DIMLTEX2
  6

  9
$LUNITS
 70
     2
  9
$LUPREC
 70
     3
  9
$SKETCHINC
 40
0.1
  9
$FILLETRAD
 40
0.0
  9
$AUNITS
 70
     0
  9
$AUPREC
 70
     0
  9
$MENU
  1
ACAD
  9
$ELEVATION
 40
0.0
  9
$PELEVATION
 40
0.0
  9
$THICKNESS
 40
0.0
  9
$LIMCHECK
 70
     0
  9
$CHAMFERA
 40
0.0
  9
$CHAMFERB
 40
0.0
  9
$CHAMFERC
 40
0.0
  9
$CHAMFERD
 40
0.0
  9
$SKPOLY
 70
     0
  9
$TDCREATE
 40
2451471.427491794
  9
$TDUCREATE
 40
2451471.677491794
  9
$TDUPDATE
 40
2455852.531511794
  9
$TDUUPDATE
 40
2455852.781511794
  9
$TDINDWG
 40
0.2559666319
  9
$TDUSRTIMER
 40
0.2559666319
  9
$USRTIMER
 70
     1
  9
$ANGBASE
 50
0.0
  9
$ANGDIR
 70
     0
  9
$PDMODE
 70
     0
  9
$PDSIZE
 40
0.0
  9
$PLINEWID
 40
0.0
  9
$SPLFRAME
 70
     0
  9
$SPLINETYPE
 70
     6
  9
$SPLINESEGS
 70
     8
  9
$HANDSEED
  5
39C
  9
$SURFTAB1
 70
     6
  9
$SURFTAB2
 70
     6
  9
$SURFTYPE
 70
     6
  9
$SURFU
 70
     6
  9
$SURFV
 70
     6
  9
$UCSBASE
  2

  9
$UCSNAME
  2

  9
$UCSORG
 10
0.0
 20
0.0
 30
0.0
  9
$UCSXDIR
 10
1.0
 20
0.0
 30
0.0
  9
$UCSYDIR
 10
0.0
 20
1.0
 30
0.0
  9
$UCSORTHOREF
  2

  9
$UCSORTHOVIEW
 70
     0
  9
$UCSORGTOP
 10
0.0
 20
0.0
 30
0.0
  9
$UCSORGBOTTOM
 10
0.0
 20
0.0
 30
0.0
  9
$UCSORGLEFT
 10
0.0
 20
0.0
 30
0.0
  9
$UCSORGRIGHT
 10
0.0
 20
0.0
 30
0.0
  9
$UCSORGFRONT
 10
0.0
 20
0.0
 30
0.0
  9
$UCSORGBACK
 10
0.0
 20
0.0
 30
0.0
  9
$PUCSBASE
  2

  9
$PUCSNAME
  2

  9
$PUCSORG
 10
0.0
 20
0.0
 30
0.0
  9
$PUCSXDIR
 10
1.0
 20
0.0
 30
0.0
  9
$PUCSYDIR
 10
0.0
 20
1.0
 30
0.0
  9
$PUCSORTHOREF
  2

  9
$PUCSORTHOVIEW
 70
     0
  9
$PUCSORGTOP
 10
0.0
 20
0.0
 30
0.0
  9
$PUCSORGBOTTOM
 10
0.0
 20
0.0
 30
0.0
  9
$PUCSORGLEFT
 10
0.0
 20
0.0
 30
0.0
  9
$PUCSORGRIGHT
 10
0.0
 20
0.0
 30
0.0
  9
$PUCSORGFRONT
 10
0.0
 20
0.0
 30
0.0
  9
$PUCSORGBACK
 10
0.0
 20
0.0
 30
0.0
  9
$USERI1
 70
     0
  9
$USERI2
 70
     0
  9
$USERI3
 70
     0
  9
$USERI4
 70
     0
  9
$USERI5
 70
     0
  9
$USERR1
 40
0.0
  9
$USERR2
 40
0.0
  9
$USERR3
 40
0.0
  9
$USERR4
 40
0.0
  9
$USERR5
 40
0.0
  9
$WORLDVIEW
 70
     1
  9
$SHADEDGE
 70
     3
  9
$SHADEDIF
 70
    70
  9
$TILEMODE
 70
     1
  9
$MAXACTVP
 70
    16
  9
$PINSBASE
 10
0.0
 20
0.0
 30
0.0
  9
$PLIMCHECK
 70
     0
  9
$PEXTMIN
 10
1.000000000000000E+20
 20
1.000000000000000E+20
 30
1.000000000000000E+20
  9
$PEXTMAX
 10
-1.000000000000000E+20
 20
-1.000000000000000E+20
 30
-1.000000000000000E+20
  9
$PLIMMIN
 10
0.0
 20
0.0
  9
$PLIMMAX
 10
12.0
 20
9.0
  9
$UNITMODE
 70
     0
  9
$VISRETAIN
 70
     0
  9
$PLINEGEN
 70
     1
  9
$PSLTSCALE
 70
     1
  9
$TREEDEPTH
 70
  3020
  9
$CMLSTYLE
  2
Standard
  9
$CMLJUST
 70
     0
  9
$CMLSCALE
 40
1.0
  9
$PROXYGRAPHICS
 70
     1
  9
$MEASUREMENT
 70
     0
  9
$CELWEIGHT
370
    -1
  9
$ENDCAPS
280
     0
  9
$JOINSTYLE
280
     0
  9
$LWDISPLAY
290
     0
  9
$INSUNITS
 70
     0
  9
$HYPERLINKBASE
  1

  9
$STYLESHEET
  1
full_b&w.ctb
  9
$XEDIT
290
     1
  9
$CEPSNTYPE
380
     0
  9
$PSTYLEMODE
290
     1
  9
$FINGERPRINTGUID
  2
{6CA14B88-2EAB-4048-8BF8-164872D996EC}
  9
$VERSIONGUID
  2
{2A4FB82F-BD16-4F21-B133-57CD1E8108B0}
  9
$EXTNAMES
290
     1
  9
$PSVPSCALE
 40
0.0
  9
$OLESTARTUP
290
     1
  9
$SORTENTS
280
    48
  9
$INDEXCTL
280
     0
  9
$HIDETEXT
280
     1
  9
$XCLIPFRAME
290
     0
  9
$HALOGAP
280
     0
  9
$OBSCOLOR
 70
   257
  9
$OBSLTYPE
280
     0
  9
$INTERSECTIONDISPLAY
280
     0
  9
$INTERSECTIONCOLOR
 70
   257
  9
$DIMASSOC
280
     1
  9
$PROJECTNAME
  1

  9
$CAMERADISPLAY
290
     0
  9
$LENSLENGTH
 40
50.0
  9
$CAMERAHEIGHT
 40
0.0
  9
$STEPSPERSEC
 40
2.0
  9
$STEPSIZE
 40
6.0
  9
$3DDWFPREC
 40
2.0
  9
$PSOLWIDTH
 40
0.25
  9
$PSOLHEIGHT
 40
4.0
  9
$LOFTANG1
 40
1.570796326794896
  9
$LOFTANG2
 40
1.570796326794896
  9
$LOFTMAG1
 40
0.0
  9
$LOFTMAG2
 40
0.0
  9
$LOFTPARAM
 70
     7
  9
$LOFTNORMALS
280
     1
  9
$LATITUDE
 40
37.795
  9
$LONGITUDE
 40
-122.394
  9
$NORTHDIRECTION
 40
0.0
  9
$TIMEZONE
 70
 -8000
  9
$LIGHTGLYPHDISPLAY
280
     1
  9
$TILEMODELIGHTSYNCH
280
     1
  9
$CMATERIAL
347
31A
  9
$SOLIDHIST
280
     1
  9
$SHOWHIST
280
     1
  9
$DWFFRAME
280
     2
  9
$DGNFRAME
280
     0
  9
$REALWORLDSCALE
290
     1
  9
$INTERFERECOLOR
 62
     1
  9
$INTERFEREOBJVS
345
33E
  9
$INTERFEREVPVS
346
33F
  9
$CSHADOW
280
     0
  9
$SHADOWPLANELOCATION
 40
0.0
  0
ENDSEC
  0
SECTION
  2
CLASSES
  0
CLASS
  1
ACDBDICTIONARYWDFLT
  2
AcDbDictionaryWithDefault
  3
ObjectDBX Classes
 90
        0
 91
        1
280
     0
281
     0
  0
CLASS
  1
DICTIONARYVAR
  2
AcDbDictionaryVar
  3
ObjectDBX Classes
 90
        0
 91
       13
280
     0
281
     0
  0
CLASS
  1
MATERIAL
  2
AcDbMaterial
  3
ObjectDBX Classes
 90
     1153
 91
        3
280
     0
281
     0
  0
CLASS
  1
VISUALSTYLE
  2
AcDbVisualStyle
  3
ObjectDBX Classes
 90
     4095
 91
       16
280
     0
281
     0
  0
CLASS
  1
TABLESTYLE
  2
AcDbTableStyle
  3
ObjectDBX Classes
 90
     4095
 91
        1
280
     0
281
     0
  0
CLASS
  1
SCALE
  2
AcDbScale
  3
ObjectDBX Classes
 90
     1153
 91
       33
280
     0
281
     0
  0
CLASS
  1
MLEADERSTYLE
  2
AcDbMLeaderStyle
  3
ACDB_MLEADERSTYLE_CLASS
 90
     4095
 91
        1
280
     0
281
     0
  0
CLASS
  1
EXACXREFPANELOBJECT
  2
ExAcXREFPanelObject
  3
EXAC_ESW
 90
     1025
 91
        0
280
     0
281
     0
  0
CLASS
  1
NPOCOLLECTION
  2
AcDbImpNonPersistentObjectsCollection
  3
ObjectDBX Classes
 90
     1153
 91
        0
280
     0
281
     0
  0
CLASS
  1
CELLSTYLEMAP
  2
AcDbCellStyleMap
  3
ObjectDBX Classes
 90
     1152
 91
        4
280
     0
281
     0
  0
CLASS
  1
SORTENTSTABLE
  2
AcDbSortentsTable
  3
ObjectDBX Classes
 90
        0
 91
        0
280
     0
281
     0
  0
CLASS
  1
PLOTSETTINGS
  2
AcDbPlotSettings
  3
ObjectDBX Classes
 90
        0
 91
        0
280
     0
281
     0
  0
ENDSEC
  0
SECTION
  2
TABLES
  0
TABLE
  2
VPORT
  5
310
330
0
100
AcDbSymbolTable
 70
     1
  0
VPORT
  5
311
330
310
100
AcDbSymbolTableRecord
100
AcDbViewportTableRecord
  2
*Active
 70
     0
 10
0.0
 20
0.0
 11
1.0
 21
1.0
 12
8.244999999999997
 22
5.219999999999999
 13
0.0
 23
0.0
 14
0.14
 24
0.14
 15
0.0
 25
0.0
 16
0.0
 26
0.0
 36
1.0
 17
0.0
 27
0.0
 37
0.0
 40
10.51791044776119
 41
2.348692403486924
 42
50.0
 43
0.0
 44
0.0
 50
0.0
 51
0.0
 71
     0
 72
  1000
 73
     1
 74
     1
 75
     0
 76
     0
 77
     0
 78
     0
281
     0
 65
     1
110
0.0
120
0.0
130
0.0
111
1.0
121
0.0
131
0.0
112
0.0
122
1.0
132
0.0
 79
     0
146
0.0
348
312
 60
     3
 61
     5
292
     1
282
     1
141
0.0
142
0.0
 63
   250
421
  3355443
  0
ENDTAB
  0
TABLE
  2
LTYPE
  5
30B
330
0
100
AcDbSymbolTable
 70
     1
  0
LTYPE
  5
30C
330
30B
100
AcDbSymbolTableRecord
100
AcDbLinetypeTableRecord
  2
ByBlock
 70
     0
  3

 72
    65
 73
     0
 40
0.0
  0
LTYPE
  5
30D
330
30B
100
AcDbSymbolTableRecord
100
AcDbLinetypeTableRecord
  2
ByLayer
 70
     0
  3

 72
    65
 73
     0
 40
0.0
  0
LTYPE
  5
14
330
30B
100
AcDbSymbolTableRecord
100
AcDbLinetypeTableRecord
  2
CONTINUOUS
 70
     0
  3
Solid line
 72
    65
 73
     0
 40
0.0
  0
ENDTAB
  0
TABLE
  2
LAYER
  5
305
102
{ACAD_XDICTIONARY
360
306
102
}
330
0
100
AcDbSymbolTable
 70
    29
  0
LAYER
  5
4
330
305
100
AcDbSymbolTableRecord
100
AcDbLayerTableRecord
  2
0
 70
     0
 62
     7
  6
CONTINUOUS
370
    -3
390
5
347
B
  0
LAYER
  5
16
330
305
100
AcDbSymbolTableRecord
100
AcDbLayerTableRecord
  2
text_bubbles
 70
     0
 62
     6
  6
CONTINUOUS
370
    -3
390
5
347
B
  0
LAYER
  5
A0
330
305
100
AcDbSymbolTableRecord
100
AcDbLayerTableRecord
  2
image
 70
     0
 62
     7
  6
CONTINUOUS
370
    -3
390
5
347
B
  0
LAYER
  5
3B
330
305
100
AcDbSymbolTableRecord
100
AcDbLayerTableRecord
  2
text_leaders
 70
     1
 62
    -5
  6
CONTINUOUS
370
    -3
390
5
347
B
  0
LAYER
  5
257
330
305
100
AcDbSymbolTableRecord
100
AcDbLayerTableRecord
  2
instruct-option
 70
     0
 62
     7
  6
CONTINUOUS
370
    -3
390
5
347
B
  0
LAYER
  5
25C
330
305
100
AcDbSymbolTableRecord
100
AcDbLayerTableRecord
  2
instruct-callout
 70
     0
 62
     4
  6
CONTINUOUS
370
    -3
390
5
347
B
  0
LAYER
  5
38
330
305
100
AcDbSymbolTableRecord
100
AcDbLayerTableRecord
  2
text-sa-leaders
 70
     1
 62
    -1
  6
CONTINUOUS
370
    -3
390
5
347
B
  0
LAYER
  5
1A
330
305
100
AcDbSymbolTableRecord
100
AcDbLayerTableRecord
  2
text-sa-bubbles
 70
     1
 62
    -1
  6
CONTINUOUS
370
    -3
390
5
347
B
  0
LAYER
  5
42
330
305
100
AcDbSymbolTableRecord
100
AcDbLayerTableRecord
  2
option-sa
 70
     1
 62
    -1
  6
CONTINUOUS
370
    -3
390
5
347
B
  0
LAYER
  5
6D
330
305
100
AcDbSymbolTableRecord
100
AcDbLayerTableRecord
  2
text-rb-sa-bubbles
 70
     0
 62
     1
  6
CONTINUOUS
370
    -3
390
5
347
B
  0
LAYER
  5
6B
330
305
100
AcDbSymbolTableRecord
100
AcDbLayerTableRecord
  2
option-rb-sa
 70
     0
 62
     1
  6
CONTINUOUS
370
    -3
390
5
347
B
  0
LAYER
  5
78
330
305
100
AcDbSymbolTableRecord
100
AcDbLayerTableRecord
  2
text-rb-sa-leaders
 70
     1
 62
    -1
  6
CONTINUOUS
370
    -3
390
5
347
B
  0
LAYER
  5
9C
330
305
100
AcDbSymbolTableRecord
100
AcDbLayerTableRecord
  2
title
 70
     0
 62
     4
  6
CONTINUOUS
370
    -3
390
5
347
B
  0
LAYER
  5
245
330
305
100
AcDbSymbolTableRecord
100
AcDbLayerTableRecord
  2
option-sam
 70
     1
 62
    -1
  6
CONTINUOUS
370
    -3
390
5
347
B
  0
LAYER
  5
24B
330
305
100
AcDbSymbolTableRecord
100
AcDbLayerTableRecord
  2
option-sam-prs
 70
     1
 62
    -1
  6
CONTINUOUS
370
    -3
390
5
347
B
  0
LAYER
  5
23D
330
305
100
AcDbSymbolTableRecord
100
AcDbLayerTableRecord
  2
option-noz-van
 70
     1
 62
    -1
  6
CONTINUOUS
370
    -3
390
5
347
B
  0
LAYER
  5
23B
330
305
100
AcDbSymbolTableRecord
100
AcDbLayerTableRecord
  2
option-noz-u-series
 70
     1
 62
    -1
  6
CONTINUOUS
370
    -3
390
5
347
B
  0
LAYER
  5
239
330
305
100
AcDbSymbolTableRecord
100
AcDbLayerTableRecord
  2
option-noz-mpr
 70
     1
 62
    -1
  6
CONTINUOUS
370
    -3
390
5
347
B
  0
LAYER
  5
24D
330
305
100
AcDbSymbolTableRecord
100
AcDbLayerTableRecord
  2
option-np
 70
     1
 62
    -1
  6
CONTINUOUS
370
    -3
390
5
347
B
  0
LAYER
  5
24F
330
305
100
AcDbSymbolTableRecord
100
AcDbLayerTableRecord
  2
option-sam-np
 70
     1
 62
    -1
  6
CONTINUOUS
370
    -3
390
5
347
B
  0
LAYER
  5
243
330
305
100
AcDbSymbolTableRecord
100
AcDbLayerTableRecord
  2
option-noz-rotary
 70
     1
 62
    -1
  6
CONTINUOUS
370
    -3
390
5
347
B
  0
LAYER
  5
23F
330
305
100
AcDbSymbolTableRecord
100
AcDbLayerTableRecord
  2
option-noz-hevan
 70
     1
 62
    -1
  6
CONTINUOUS
370
    -3
390
5
347
B
  0
LAYER
  5
241
330
305
100
AcDbSymbolTableRecord
100
AcDbLayerTableRecord
  2
option-noz-sq
 70
     1
 62
    -1
  6
CONTINUOUS
370
    -3
390
5
347
B
  0
LAYER
  5
247
330
305
100
AcDbSymbolTableRecord
100
AcDbLayerTableRecord
  2
option-prs-f
 70
     1
 62
    -1
  6
CONTINUOUS
370
    -3
390
5
347
B
  0
LAYER
  5
249
330
305
100
AcDbSymbolTableRecord
100
AcDbLayerTableRecord
  2
option-prs-f-np
 70
     1
 62
    -1
  6
CONTINUOUS
370
    -3
390
5
347
B
  0
LAYER
  5
251
330
305
100
AcDbSymbolTableRecord
100
AcDbLayerTableRecord
  2
option-sam-prs-f
 70
     1
 62
    -1
  6
CONTINUOUS
370
    -3
390
5
347
B
  0
LAYER
  5
253
330
305
100
AcDbSymbolTableRecord
100
AcDbLayerTableRecord
  2
option-sam-prs-f-np
 70
     1
 62
    -1
  6
CONTINUOUS
370
    -3
390
5
347
B
  0
LAYER
  5
255
330
305
100
AcDbSymbolTableRecord
100
AcDbLayerTableRecord
  2
option-sam-p45-f-np
 70
     1
 62
    -1
  6
CONTINUOUS
370
    -3
390
5
347
B
  0
LAYER
  5
259
330
305
100
AcDbSymbolTableRecord
100
AcDbLayerTableRecord
  2
option-sam-p45-f
 70
     1
 62
    -1
  6
CONTINUOUS
370
    -3
390
5
347
B
1001
AcAecLayerStandard
1000

1000

  0
ENDTAB
  0
TABLE
  2
STYLE
  5
309
330
0
100
AcDbSymbolTable
 70
     7
  0
STYLE
  5
BB
330
309
100
AcDbSymbolTableRecord
100
AcDbTextStyleTableRecord
  2
STANDARD
 70
     0
 40
0.0
 41
1.0
 50
0.0
 71
     0
 42
0.2
  3
txt
  4

  0
STYLE
  5
17
330
309
100
AcDbSymbolTableRecord
100
AcDbTextStyleTableRecord
  2
ROMANS
 70
     0
 40
0.0
 41
1.0
 50
0.0
 71
     0
 42
0.125
  3
ROMANS.SHX
  4

  0
STYLE
  5
40
330
309
100
AcDbSymbolTableRecord
100
AcDbTextStyleTableRecord
  2
SIMPLEX
 70
     0
 40
0.0
 41
1.0
 50
0.0
 71
     0
 42
0.125
  3
SIMPLEX
  4

  0
STYLE
  5
AD
330
309
100
AcDbSymbolTableRecord
100
AcDbTextStyleTableRecord
  2
L100
 70
     0
 40
0.1
 41
1.0
 50
0.0
 71
     0
 42
0.1
  3
romans.shx
  4

  0
STYLE
  5
A2
330
309
100
AcDbSymbolTableRecord
100
AcDbTextStyleTableRecord
  2
L200
 70
     0
 40
0.2
 41
1.0
 50
0.0
 71
     0
 42
0.081
  3
arial.ttf
  4

1001
ACAD
1000
Arial
1071
       34
  0
STYLE
  5
A9
330
309
100
AcDbSymbolTableRecord
100
AcDbTextStyleTableRecord
  2
L80
 70
     0
 40
0.08
 41
1.0
 50
0.0
 71
     0
 42
0.08
  3
ROMANS
  4

  0
STYLE
  5
339
330
309
100
AcDbSymbolTableRecord
100
AcDbTextStyleTableRecord
  2
arial
 70
     0
 40
0.0
 41
1.0
 50
0.0
 71
     0
 42
0.2
  3
arial.ttf
  4

1001
ACAD
1000
Arial
1071
       34
  0
ENDTAB
  0
TABLE
  2
VIEW
  5
30E
330
0
100
AcDbSymbolTable
 70
     0
  0
ENDTAB
  0
TABLE
  2
UCS
  5
30F
330
0
100
AcDbSymbolTable
 70
     0
  0
ENDTAB
  0
TABLE
  2
APPID
  5
314
330
0
100
AcDbSymbolTable
 70
     7
  0
APPID
  5
A3
330
314
100
AcDbSymbolTableRecord
100
AcDbRegAppTableRecord
  2
ACAD
 70
     0
  0
APPID
  5
300
330
314
100
AcDbSymbolTableRecord
100
AcDbRegAppTableRecord
  2
ACAD_PSEXT
 70
     0
  0
APPID
  5
25A
330
314
100
AcDbSymbolTableRecord
100
AcDbRegAppTableRecord
  2
AcAecLayerStandard
 70
     0
  0
APPID
  5
A
330
314
100
AcDbSymbolTableRecord
100
AcDbRegAppTableRecord
  2
BBSI_PltSel
 70
     0
  0
APPID
  5
8
330
314
100
AcDbSymbolTableRecord
100
AcDbRegAppTableRecord
  2
BBSI_Bookmarks
 70
     0
  0
APPID
  5
9
330
314
100
AcDbSymbolTableRecord
100
AcDbRegAppTableRecord
  2
BBSI_BookmarksEx
 70
     0
  0
APPID
  5
371
330
314
100
AcDbSymbolTableRecord
100
AcDbRegAppTableRecord
  2
ACAD_MLEADERVER
 70
     0
  0
ENDTAB
  0
TABLE
  2
DIMSTYLE
  5
315
330
0
100
AcDbSymbolTable
 70
     1
100
AcDbDimStyleTable
 71
     1
340
BA
  0
DIMSTYLE
105
BA
330
315
100
AcDbSymbolTableRecord
100
AcDbDimStyleTableRecord
  2
STANDARD
 70
     0
279
     2
340
BB
  0
ENDTAB
  0
TABLE
  2
BLOCK_RECORD
  5
1
330
0
100
AcDbSymbolTable
 70
     4
  0
BLOCK_RECORD
  5
2
330
1
100
AcDbSymbolTableRecord
100
AcDbBlockTableRecord
  2
*Model_Space
340
2FE
 70
     0
280
     1
281
     0
  0
BLOCK_RECORD
  5
301
330
1
100
AcDbSymbolTableRecord
100
AcDbBlockTableRecord
  2
*Paper_Space
340
304
 70
     0
280
     1
281
     0
  0
BLOCK_RECORD
  5
9D
330
1
100
AcDbSymbolTableRecord
100
AcDbBlockTableRecord
  2
titleblock
340
0
102
{BLKREFS
331
9B
102
}
 70
     0
280
     1
281
     0
  0
BLOCK_RECORD
  5
D0
330
1
100
AcDbSymbolTableRecord
100
AcDbBlockTableRecord
  2
*X1
340
0
102
{BLKREFS
331
CF
102
}
 70
     0
280
     1
281
     0
  0
BLOCK_RECORD
  5
22F
330
1
100
AcDbSymbolTableRecord
100
AcDbBlockTableRecord
  2
RD
340
0
310
2800000020000000200000000100080000000000000400000000000000000000000000000000000000000000000080000080000000808000800000008000800080800000C0C0C000C0DCC000F0CAA6000020400000206000002080000020A0000020C0000020E00000400000004020000040400000406000004080000040A0
310
000040C0000040E00000600000006020000060400000606000006080000060A0000060C0000060E00000800000008020000080400000806000008080000080A0000080C0000080E00000A0000000A0200000A0400000A0600000A0800000A0A00000A0C00000A0E00000C0000000C0200000C0400000C0600000C0800000C0
310
A00000C0C00000C0E00000E0000000E0200000E0400000E0600000E0800000E0A00000E0C00000E0E00040000000400020004000400040006000400080004000A0004000C0004000E00040200000402020004020400040206000402080004020A0004020C0004020E000404000004040200040404000404060004040800040
310
40A0004040C0004040E00040600000406020004060400040606000406080004060A0004060C0004060E00040800000408020004080400040806000408080004080A0004080C0004080E00040A0000040A0200040A0400040A0600040A0800040A0A00040A0C00040A0E00040C0000040C0200040C0400040C0600040C08000
310
40C0A00040C0C00040C0E00040E0000040E0200040E0400040E0600040E0800040E0A00040E0C00040E0E00080000000800020008000400080006000800080008000A0008000C0008000E00080200000802020008020400080206000802080008020A0008020C0008020E00080400000804020008040400080406000804080
310
008040A0008040C0008040E00080600000806020008060400080606000806080008060A0008060C0008060E00080800000808020008080400080806000808080008080A0008080C0008080E00080A0000080A0200080A0400080A0600080A0800080A0A00080A0C00080A0E00080C0000080C0200080C0400080C0600080C0
310
800080C0A00080C0C00080C0E00080E0000080E0200080E0400080E0600080E0800080E0A00080E0C00080E0E000C0000000C0002000C0004000C0006000C0008000C000A000C000C000C000E000C0200000C0202000C0204000C0206000C0208000C020A000C020C000C020E000C0400000C0402000C0404000C0406000C0
310
408000C040A000C040C000C040E000C0600000C0602000C0604000C0606000C0608000C060A000C060C000C060E000C0800000C0802000C0804000C0806000C0808000C080A000C080C000C080E000C0A00000C0A02000C0A04000C0A06000C0A08000C0A0A000C0A0C000C0A0E000C0C00000C0C02000C0C04000C0C06000
310
C0C08000C0C0A000F0FBFF00A4A0A000808080000000FF0000FF000000FFFF00FF000000FF00FF00FFFF0000FFFFFF0000000000000000000000000000000000000000000000000000000000000000000000000000000000000000000000000000000000000000000000000000000000000000000000000000000000000000
310
00000000000000000000000000000000000000000000000000000000000000000000000000000000000000000000000000000000000000000000000000000000000000000000000000000000000000000000000000000000000000000000000000000000000000000000000000000000000000000000000000000000000000
310
00000000000000000000000000000000000000000000000000000000000000000000000000000000000000000000000000000000000000000000000000000000000000000000000000000000000000000000000000000000000000000000000000000000000000000000000000000000000000000000000000000000000000
310
0000000000000000000000000000000000000000000000000000FFFFFFFFFFFFFFFFFFFFFFFFFFFFFFFFFFFF00000000000000000000000000FFFF000000000000FF0000FF000000000000FFFF0000000000000000000000FFFF00000000000000FF0000FF00000000000000FFFFFF00000000000000FFFF00FF0000000000
310
0000FF0000FF00000000000000FF0000FF0000000000FF0000FF0000000000000000FF0000FF0000000000000000FF0000FF000000FF0000FF000000000000000000FFFFFFFF000000000000000000FF0000FF0000FF00FF00000000000000000000FF0000FF00000000000000000000FF00FF0000FF00FF00000000000000
310
000000FF0000FF00000000000000000000FF00FF0000FFFF0000000000000000000000FF0000FF0000000000000000000000FFFF0000FFFFFFFFFFFFFFFFFFFFFFFFFFFFFFFFFFFFFFFFFFFFFFFFFFFFFFFFFFFF00000000000000000000000000000000000000000000000000000000000000000000000000000000000000
310
00000000000000000000000000000000000000000000000000000000000000000000000000000000000000000000000000000000000000000000000000000000000000000000000000000000000000000000000000000000000000000000000000000000000000000000000000000000000000000000000000000000000000
310
00000000000000000000000000000000000000000000000000000000000000000000000000000000000000000000000000000000000000000000000000000000000000000000000000000000000000000000000000000000000000000000000000000000000000000000000000000000000000000000000000000000000000
310
0000000000000000000000000000000000000000000000000000000000000000000000000000000000000000000000000000000000000000
102
{BLKREFS
331
22E
102
}
 70
     0
280
     1
281
     0
  0
BLOCK_RECORD
  5
26C
330
1
100
AcDbSymbolTableRecord
100
AcDbBlockTableRecord
  2
rb_logo
340
0
310
2800000020000000200000000100080000000000000400000000000000000000000000000000000000000000000080000080000000808000800000008000800080800000C0C0C000C0DCC000F0CAA6000020400000206000002080000020A0000020C0000020E00000400000004020000040400000406000004080000040A0
310
000040C0000040E00000600000006020000060400000606000006080000060A0000060C0000060E00000800000008020000080400000806000008080000080A0000080C0000080E00000A0000000A0200000A0400000A0600000A0800000A0A00000A0C00000A0E00000C0000000C0200000C0400000C0600000C0800000C0
310
A00000C0C00000C0E00000E0000000E0200000E0400000E0600000E0800000E0A00000E0C00000E0E00040000000400020004000400040006000400080004000A0004000C0004000E00040200000402020004020400040206000402080004020A0004020C0004020E000404000004040200040404000404060004040800040
310
40A0004040C0004040E00040600000406020004060400040606000406080004060A0004060C0004060E00040800000408020004080400040806000408080004080A0004080C0004080E00040A0000040A0200040A0400040A0600040A0800040A0A00040A0C00040A0E00040C0000040C0200040C0400040C0600040C08000
310
40C0A00040C0C00040C0E00040E0000040E0200040E0400040E0600040E0800040E0A00040E0C00040E0E00080000000800020008000400080006000800080008000A0008000C0008000E00080200000802020008020400080206000802080008020A0008020C0008020E00080400000804020008040400080406000804080
310
008040A0008040C0008040E00080600000806020008060400080606000806080008060A0008060C0008060E00080800000808020008080400080806000808080008080A0008080C0008080E00080A0000080A0200080A0400080A0600080A0800080A0A00080A0C00080A0E00080C0000080C0200080C0400080C0600080C0
310
800080C0A00080C0C00080C0E00080E0000080E0200080E0400080E0600080E0800080E0A00080E0C00080E0E000C0000000C0002000C0004000C0006000C0008000C000A000C000C000C000E000C0200000C0202000C0204000C0206000C0208000C020A000C020C000C020E000C0400000C0402000C0404000C0406000C0
310
408000C040A000C040C000C040E000C0600000C0602000C0604000C0606000C0608000C060A000C060C000C060E000C0800000C0802000C0804000C0806000C0808000C080A000C080C000C080E000C0A00000C0A02000C0A04000C0A06000C0A08000C0A0A000C0A0C000C0A0E000C0C00000C0C02000C0C04000C0C06000
310
C0C08000C0C0A000F0FBFF00A4A0A000808080000000FF0000FF000000FFFF00FF000000FF00FF00FFFF0000FFFFFF000000000000000000000000000000000000000000000000000000000000000000000000000000000000000000000000000000FF00000000000000000000000000000000000000000000000000000000
310
00FFFFFF000000000000000000000000000000000000000000000000000000FFFF00FFFF000000000000000000000000000000000000000000000000000000FFFFFFFFFF000000000000000000000000000000000000000000000000000000FFFFFFFFFF000000000000000000000000000000000000000000000000000000
310
00FFFFFFFF00000000000000000000000000000000000000000000000000000000FFFFFFFF00000000000000000000000000000000000000000000000000000000FFFFFFFF00000000000000000000000000000000000000000000000000000000FFFFFFFF0000000000000000000000000000000000000000000000000000
310
0000FFFFFFFF00000000000000000000000000000000000000000000000000000000FF00FFFF00000000000000000000000000000000000000000000000000000000FFFFFFFF000000000000000000000000000000000000000000000000000000FFFFFFFF0000000000000000000000000000000000000000000000000000
310
00FFFFFFFFFFFF000000000000000000000000000000000000000000000000000000FFFFFFFFFF0000000000000000000000000000000000000000000000000000FFFFFFFFFFFF000000000000000000000000000000000000000000000000000000FFFFFFFF00000000000000000000000000000000000000000000000000
310
000000FFFFFFFFFF0000000000000000000000000000000000000000000000000000000000FFFFFF000000000000000000000000000000000000000000000000000000FFFFFFFFFF000000000000000000000000000000000000000000000000000000FFFFFFFFFF0000000000000000000000000000000000000000000000
310
00000000FFFFFFFFFF00000000000000000000000000000000000000000000000000000000FFFFFFFF00000000000000000000000000000000000000000000000000000000FFFFFFFF00000000000000000000000000000000000000000000000000000000FFFFFFFF00000000000000000000000000000000000000000000
310
000000000000FFFFFFFF00000000000000000000000000000000000000000000000000000000FFFFFFFF00000000000000000000000000000000000000000000000000000000FFFFFFFF00000000000000000000000000000000000000000000000000000000FFFFFFFF000000000000000000000000000000000000000000
310
00000000000000000000FF000000000000000000000000000000000000000000000000000000000000000000000000000000000000000000
102
{BLKREFS
331
26B
102
}
 70
     0
280
     1
281
     0
  0
ENDTAB
  0
ENDSEC
  0
SECTION
  2
BLOCKS
  0
BLOCK
  5
3
330
2
100
AcDbEntity
  8
0
100
AcDbBlockBegin
  2
*Model_Space
 70
     0
 10
0.0
 20
0.0
 30
0.0
  3
*Model_Space
  1

  0
ENDBLK
  5
2FD
330
2
100
AcDbEntity
  8
0
100
AcDbBlockEnd
  0
BLOCK
  5
302
330
301
100
AcDbEntity
 67
     1
  8
0
100
AcDbBlockBegin
  2
*Paper_Space
 70
     0
 10
0.0
 20
0.0
 30
0.0
  3
*Paper_Space
  1

  0
ENDBLK
  5
303
330
301
100
AcDbEntity
 67
     1
  8
0
100
AcDbBlockEnd
  0
BLOCK
  5
9E
330
9D
100
AcDbEntity
  8
0
100
AcDbBlockBegin
  2
titleblock
 70
     2
 10
0.0
 20
0.0
 30
0.0
  3
titleblock
  1

  0
LWPOLYLINE
  5
9F
330
9D
100
AcDbEntity
  8
image
100
AcDbPolyline
 90
        4
 70
     1
 43
0.0
 10
0.0
 20
0.0
 10
16.48999999999999
 20
0.0000000000000001
 10
16.48999999999999
 20
10.44
 10
0.0
 20
10.44
  0
ATTDEF
  5
A1
330
9D
100
AcDbEntity
  8
title
100
AcDbText
 10
0.5055556038023421
 20
0.7842270964783673
 30
0.0
 40
0.2
  1
D
  7
L200
 72
     4
 11
0.6064423705144839
 21
0.8842270964783672
 31
0.0
100
AcDbAttributeDefinition
  3
#
  2
D
 70
     0
280
     0
  0
ATTDEF
  5
A4
330
9D
100
AcDbEntity
  8
title
100
AcDbText
 10
1.231442370514484
 20
1.34371230274675
 30
0.0
 40
0.2
  1

  7
L200
100
AcDbAttributeDefinition
  3
DETAIL TITLE TOP LINE
  2
TITLE1
 70
     0
280
     0
  0
ATTDEF
  5
A5
330
9D
100
AcDbEntity
  8
title
100
AcDbText
 10
1.231442370514484
 20
0.9842270964783674
 30
0.0
 40
0.2
  1
TITLE
  7
L200
100
AcDbAttributeDefinition
  3
DETAIL TITLE TOP 2ND LINE
  2
TITLE2
 70
     0
280
     0
  0
ATTDEF
  5
A6
330
9D
100
AcDbEntity
  8
title
100
AcDbText
 10
2.713645751168312
 20
0.5927927664583189
 30
0.0
 40
0.2
  1
TITLE2
  7
L200
100
AcDbAttributeDefinition
  3
DETAIL TITLE BOTTOM 1
  2
TITLE3
 70
     0
280
     0
  0
ATTDEF
  5
A7
330
9D
100
AcDbEntity
  8
title
100
AcDbText
 10
2.713645751168312
 20
0.2692560808167741
 30
0.0
 40
0.2
  1

  7
L200
100
AcDbAttributeDefinition
  3
DETAIL TITLE BOTTOM 2
  2
TITLE4
 70
     0
280
     0
  0
ATTDEF
  5
A8
330
9D
100
AcDbEntity
  8
title
 62
     7
100
AcDbText
 10
8.177214829966379
 20
0.9696027915446398
 30
0.0
 40
0.08
  1
-
  7
L80
 72
     2
 11
8.261024353775903
 21
0.9696027915446398
 31
0.0
100
AcDbAttributeDefinition
  3
REVISION DATE
  2
REVISED
 70
     0
280
     0
  0
ATTDEF
  5
AA
330
9D
100
AcDbEntity
  8
title
 62
     7
100
AcDbText
 10
0.2639423705144838
 20
0.0847116480207214
 30
0.0
 40
0.08
  1
-
  7
L80
100
AcDbAttributeDefinition
  3
DWG-NAME
  2
DWG-NAME
 70
     0
280
     0
  0
LWPOLYLINE
  5
AB
330
9D
100
AcDbEntity
  8
title
 62
     3
100
AcDbPolyline
 90
        2
 70
     1
 43
0.03
 10
0.6064423705144839
 20
0.5417270964783675
 42
0.9999999999999998
 10
0.6064423705144839
 20
1.226727096478367
 42
0.9999999999999998
  0
ATTDEF
  5
AC
330
9D
100
AcDbEntity
  8
title
 62
     7
100
AcDbText
 10
1.231442370514484
 20
0.7005637793954894
 30
0.0
 40
0.1
  1
N.T.S.
  7
L100
100
AcDbAttributeDefinition
  3
SCALE
  2
SCALE
 70
     0
280
     0
  0
LWPOLYLINE
  5
AE
330
9D
100
AcDbEntity
  8
title
 62
     3
100
AcDbPolyline
 90
        2
 70
     0
 43
0.04
 39
0.03
 10
0.9489423705144833
 20
0.8842270964783672
 10
8.261024353775903
 20
0.8842270964783672
  0
ENDBLK
  5
AF
330
9D
100
AcDbEntity
  8
0
100
AcDbBlockEnd
  0
BLOCK
  5
D1
330
D0
100
AcDbEntity
  8
0
100
AcDbBlockBegin
  2
*X1
 70
     1
 10
0.0
 20
0.0
 30
0.0
  3
*X1
  1

  0
LINE
  5
D2
330
D0
100
AcDbEntity
  8
0
 62
     0
100
AcDbLine
 10
2.911631938146284
 20
5.522220300407497
 30
0.0
 11
2.872621298570345
 21
5.561230939983436
 31
0.0
  0
LINE
  5
D3
330
D0
100
AcDbEntity
  8
0
 62
     0
100
AcDbLine
 10
2.757716446627531
 20
5.446326088040622
 30
0.0
 11
2.642811594684717
 21
5.561230939983436
 31
0.0
  0
LINE
  5
D4
330
D0
100
AcDbEntity
  8
0
 62
     0
100
AcDbLine
 10
2.527906742741903
 20
5.446326088040622
 30
0.0
 11
2.413001890799089
 21
5.561230939983436
 31
0.0
  0
LINE
  5
D5
330
D0
100
AcDbEntity
  8
0
 62
     0
100
AcDbLine
 10
2.687352761876121
 20
5.286880068906404
 30
0.0
 11
2.642811594684717
 21
5.331421236097808
 31
0.0
  0
LINE
  5
D6
330
D0
100
AcDbEntity
  8
0
 62
     0
100
AcDbLine
 10
2.298097038856274
 20
5.446326088040622
 30
0.0
 11
2.250118920714844
 21
5.494304206182053
 31
0.0
  0
LINE
  5
D7
330
D0
100
AcDbEntity
  8
0
 62
     0
100
AcDbLine
 10
2.515047740144412
 20
5.229375386752485
 30
0.0
 11
2.413001890799089
 21
5.331421236097808
 31
0.0
  0
LINE
  5
D8
330
D0
100
AcDbEntity
  8
0
 62
     0
100
AcDbLine
 10
2.298097038856275
 20
5.216516384154994
 30
0.0
 11
2.183192186913461
 21
5.331421236097808
 31
0.0
  0
LINE
  5
D9
330
D0
100
AcDbEntity
  8
0
 62
     0
100
AcDbLine
 10
2.247357190806718
 20
5.037446528318922
 30
0.0
 11
2.183192186913461
 21
5.10161153221218
 31
0.0
  0
LINE
  5
DA
330
D0
100
AcDbEntity
  8
0
 62
     0
100
AcDbLine
 10
1.608667927199391
 20
5.446326088040622
 30
0.0
 11
1.493763075256577
 21
5.561230939983436
 31
0.0
  0
LINE
  5
DB
330
D0
100
AcDbEntity
  8
0
 62
     0
100
AcDbLine
 10
1.737275681255463
 20
5.31771833398455
 30
0.0
 11
1.723572779142205
 21
5.331421236097808
 31
0.0
  0
LINE
  5
DC
330
D0
100
AcDbEntity
  8
0
 62
     0
100
AcDbLine
 10
1.378858223313763
 20
5.446326088040623
 30
0.0
 11
1.263953371370949
 21
5.561230939983437
 31
0.0
  0
LINE
  5
DD
330
D0
100
AcDbEntity
  8
0
 62
     0
100
AcDbLine
 10
1.608667927199391
 20
5.216516384154995
 30
0.0
 11
1.493763075256577
 21
5.331421236097809
 31
0.0
  0
LINE
  5
DE
330
D0
100
AcDbEntity
  8
0
 62
     0
100
AcDbLine
 10
1.737275681255463
 20
5.087908630098922
 30
0.0
 11
1.723572779142205
 21
5.101611532212181
 31
0.0
  0
LINE
  5
DF
330
D0
100
AcDbEntity
  8
0
 62
     0
100
AcDbLine
 10
1.149048519428135
 20
5.446326088040623
 30
0.0
 11
1.034143667485321
 21
5.561230939983437
 31
0.0
  0
LINE
  5
E0
330
D0
100
AcDbEntity
  8
0
 62
     0
100
AcDbLine
 10
1.378858223313763
 20
5.216516384154995
 30
0.0
 11
1.263953371370949
 21
5.331421236097809
 31
0.0
  0
LINE
  5
E1
330
D0
100
AcDbEntity
  8
0
 62
     0
100
AcDbLine
 10
1.608667927199391
 20
4.986706680269366
 30
0.0
 11
1.493763075256577
 21
5.101611532212181
 31
0.0
  0
LINE
  5
E2
330
D0
100
AcDbEntity
  8
0
 62
     0
100
AcDbLine
 10
1.149048519428136
 20
5.216516384154995
 30
0.0
 11
1.034143667485322
 21
5.331421236097809
 31
0.0
  0
LINE
  5
E3
330
D0
100
AcDbEntity
  8
0
 62
     0
100
AcDbLine
 10
1.360810645862291
 20
5.004754257720839
 30
0.0
 11
1.26395337137095
 21
5.101611532212181
 31
0.0
  0
LINE
  5
E4
330
D0
100
AcDbEntity
  8
0
 62
     0
100
AcDbLine
 10
2.88311648199345
 20
5.46455711760322
 30
0.0
 11
2.829531979091789
 21
5.518141620504882
 31
0.0
  0
LINE
  5
E5
330
D0
100
AcDbEntity
  8
0
 62
     0
100
AcDbLine
 10
2.714627127148976
 20
5.403236768562067
 30
0.0
 11
2.599722275206162
 21
5.518141620504881
 31
0.0
  0
LINE
  5
E6
330
D0
100
AcDbEntity
  8
0
 62
     0
100
AcDbLine
 10
2.484817423263348
 20
5.403236768562067
 30
0.0
 11
2.369912571320534
 21
5.518141620504882
 31
0.0
  0
LINE
  5
E7
330
D0
100
AcDbEntity
  8
0
 62
     0
100
AcDbLine
 10
2.627968962813695
 20
5.260085229011719
 30
0.0
 11
2.599722275206162
 21
5.288331916619253
 31
0.0
  0
LINE
  5
E8
330
D0
100
AcDbEntity
  8
0
 62
     0
100
AcDbLine
 10
2.255007719377719
 20
5.403236768562067
 30
0.0
 11
2.214743844148471
 21
5.443500643791316
 31
0.0
  0
LINE
  5
E9
330
D0
100
AcDbEntity
  8
0
 62
     0
100
AcDbLine
 10
2.442817069387461
 20
5.215427418552325
 30
0.0
 11
2.369912571320533
 21
5.288331916619253
 31
0.0
  0
LINE
  5
EA
330
D0
100
AcDbEntity
  8
0
 62
     0
100
AcDbLine
 10
2.25500771937772
 20
5.173427064676439
 30
0.0
 11
2.1492534663144
 21
5.279181317739759
 31
0.0
  0
LINE
  5
EB
330
D0
100
AcDbEntity
  8
0
 62
     0
100
AcDbLine
 10
2.203522493766503
 20
4.995102586402027
 30
0.0
 11
2.149253466314402
 21
5.049371613854129
 31
0.0
  0
LINE
  5
EC
330
D0
100
AcDbEntity
  8
0
 62
     0
100
AcDbLine
 10
1.565578607720836
 20
5.403236768562067
 30
0.0
 11
1.450673755778022
 21
5.518141620504881
 31
0.0
  0
LINE
  5
ED
330
D0
100
AcDbEntity
  8
0
 62
     0
100
AcDbLine
 10
1.737275681255463
 20
5.231539695027439
 30
0.0
 11
1.680483459663649
 21
5.288331916619252
 31
0.0
  0
LINE
  5
EE
330
D0
100
AcDbEntity
  8
0
 62
     0
100
AcDbLine
 10
1.335768903835208
 20
5.403236768562067
 30
0.0
 11
1.220864051892394
 21
5.518141620504882
 31
0.0
  0
LINE
  5
EF
330
D0
100
AcDbEntity
  8
0
 62
     0
100
AcDbLine
 10
1.565578607720836
 20
5.173427064676439
 30
0.0
 11
1.450673755778022
 21
5.288331916619253
 31
0.0
  0
LINE
  5
F0
330
D0
100
AcDbEntity
  8
0
 62
     0
100
AcDbLine
 10
1.737275681255462
 20
5.001729991141813
 30
0.0
 11
1.68048345966365
 21
5.058522212733625
 31
0.0
  0
LINE
  5
F1
330
D0
100
AcDbEntity
  8
0
 62
     0
100
AcDbLine
 10
1.105959199949581
 20
5.403236768562067
 30
0.0
 11
0.9910543480067669
 21
5.518141620504882
 31
0.0
  0
LINE
  5
F2
330
D0
100
AcDbEntity
  8
0
 62
     0
100
AcDbLine
 10
1.335768903835208
 20
5.173427064676439
 30
0.0
 11
1.220864051892394
 21
5.288331916619253
 31
0.0
  0
LINE
  5
F3
330
D0
100
AcDbEntity
  8
0
 62
     0
100
AcDbLine
 10
1.544993509524941
 20
4.964202458986706
 30
0.0
 11
1.450673755778022
 21
5.058522212733625
 31
0.0
  0
LINE
  5
F4
330
D0
100
AcDbEntity
  8
0
 62
     0
100
AcDbLine
 10
2.901347511556049
 20
5.589957152969139
 30
0.0
 11
2.865354750069761
 21
5.625949914455427
 31
0.0
  0
LINE
  5
F5
330
D0
100
AcDbEntity
  8
0
 62
     0
100
AcDbLine
 10
2.671537807670421
 20
5.589957152969138
 30
0.0
 11
2.635545046184133
 21
5.625949914455426
 31
0.0
  0
LINE
  5
F6
330
D0
100
AcDbEntity
  8
0
 62
     0
100
AcDbLine
 10
2.840343354309291
 20
5.421151606330268
 30
0.0
 11
2.786442659613234
 21
5.475052301026324
 31
0.0
  0
LINE
  5
F7
330
D0
100
AcDbEntity
  8
0
 62
     0
100
AcDbLine
 10
2.441728103784794
 20
5.589957152969138
 30
0.0
 11
2.405735342298506
 21
5.625949914455427
 31
0.0
  0
LINE
  5
F8
330
D0
100
AcDbEntity
  8
0
 62
     0
100
AcDbLine
 10
2.671537807670422
 20
5.36014744908351
 30
0.0
 11
2.556632955727608
 21
5.475052301026324
 31
0.0
  0
LINE
  5
F9
330
D0
100
AcDbEntity
  8
0
 62
     0
100
AcDbLine
 10
2.441728103784793
 20
5.360147449083511
 30
0.0
 11
2.326823251841979
 21
5.475052301026325
 31
0.0
  0
LINE
  5
FA
330
D0
100
AcDbEntity
  8
0
 62
     0
100
AcDbLine
 10
2.56121815150526
 20
5.240657401363043
 30
0.0
 11
2.556632955727607
 21
5.245242597140697
 31
0.0
  0
LINE
  5
FB
330
D0
100
AcDbEntity
  8
0
 62
     0
100
AcDbLine
 10
2.211918399899164
 20
5.360147449083512
 30
0.0
 11
2.149253466314398
 21
5.422812382668277
 31
0.0
  0
LINE
  5
FC
330
D0
100
AcDbEntity
  8
0
 62
     0
100
AcDbLine
 10
2.394248420068434
 20
5.177817428914242
 30
0.0
 11
2.326823251841978
 21
5.245242597140697
 31
0.0
  0
LINE
  5
FD
330
D0
100
AcDbEntity
  8
0
 62
     0
100
AcDbLine
 10
2.211918399899164
 20
5.130337745197883
 30
0.0
 11
2.1492534663144
 21
5.193002678782647
 31
0.0
  0
LINE
  5
FE
330
D0
100
AcDbEntity
  8
0
 62
     0
100
AcDbLine
 10
1.737275681255463
 20
5.375170759955957
 30
0.0
 11
1.668945797420104
 21
5.443500643791317
 31
0.0
  0
LINE
  5
FF
330
D0
100
AcDbEntity
  8
0
 62
     0
100
AcDbLine
 10
1.52248928824228
 20
5.589957152969139
 30
0.0
 11
1.486496526755993
 21
5.625949914455427
 31
0.0
  0
LINE
  5
100
330
D0
100
AcDbEntity
  8
0
 62
     0
100
AcDbLine
 10
1.658468783917103
 20
5.453977657294316
 30
0.0
 11
1.637394140185094
 21
5.475052301026325
 31
0.0
  0
LINE
  5
101
330
D0
100
AcDbEntity
  8
0
 62
     0
100
AcDbLine
 10
2.159687796726289
 20
4.952758644485131
 30
0.0
 11
2.149253466314403
 21
4.963192974897016
 31
0.0
  0
LINE
  5
102
330
D0
100
AcDbEntity
  8
0
 62
     0
100
AcDbLine
 10
1.292679584356653
 20
5.58995715296914
 30
0.0
 11
1.256686822870364
 21
5.625949914455429
 31
0.0
  0
LINE
  5
103
330
D0
100
AcDbEntity
  8
0
 62
     0
100
AcDbLine
 10
1.522489288242281
 20
5.360147449083512
 30
0.0
 11
1.407584436299467
 21
5.475052301026326
 31
0.0
  0
LINE
  5
104
330
D0
100
AcDbEntity
  8
0
 62
     0
100
AcDbLine
 10
1.737275681255462
 20
5.14536105607033
 30
0.0
 11
1.637394140185095
 21
5.245242597140697
 31
0.0
  0
LINE
  5
105
330
D0
100
AcDbEntity
  8
0
 62
     0
100
AcDbLine
 10
1.062869880471025
 20
5.589957152969141
 30
0.0
 11
1.026877118984736
 21
5.625949914455429
 31
0.0
  0
LINE
  5
106
330
D0
100
AcDbEntity
  8
0
 62
     0
100
AcDbLine
 10
1.292679584356653
 20
5.360147449083513
 30
0.0
 11
1.177774732413839
 21
5.475052301026327
 31
0.0
  0
LINE
  5
107
330
D0
100
AcDbEntity
  8
0
 62
     0
100
AcDbLine
 10
1.522489288242281
 20
5.130337745197884
 30
0.0
 11
1.407584436299467
 21
5.245242597140698
 31
0.0
  0
LINE
  5
108
330
D0
100
AcDbEntity
  8
0
 62
     0
100
AcDbLine
 10
1.710255304717655
 20
4.942571728722509
 30
0.0
 11
1.637394140185095
 21
5.01543289325507
 31
0.0
  0
LINE
  5
109
330
D0
100
AcDbEntity
  8
0
 62
     0
100
AcDbLine
 10
1.062869880471025
 20
5.360147449083512
 30
0.0
 11
0.9685649612897151
 21
5.454452368264822
 31
0.0
  0
LINE
  5
10A
330
D0
100
AcDbEntity
  8
0
 62
     0
100
AcDbLine
 10
1.292679584356653
 20
5.130337745197883
 30
0.0
 11
1.177774732413839
 21
5.245242597140697
 31
0.0
  0
LINE
  5
10B
330
D0
100
AcDbEntity
  8
0
 62
     0
100
AcDbLine
 10
1.436250672845013
 20
4.986766656709523
 30
0.0
 11
1.407584436299467
 21
5.015432893255069
 31
0.0
  0
LINE
  5
10C
330
D0
100
AcDbEntity
  8
0
 62
     0
100
AcDbLine
 10
2.90134751155605
 20
5.561230939983437
 30
0.0
 11
2.942312494845701
 21
5.602195923273088
 31
0.0
  0
LINE
  5
10D
330
D0
100
AcDbEntity
  8
0
 62
     0
100
AcDbLine
 10
2.671537807670422
 20
5.331421236097809
 30
0.0
 11
2.786442659613236
 21
5.446326088040623
 31
0.0
  0
LINE
  5
10E
330
D0
100
AcDbEntity
  8
0
 62
     0
100
AcDbLine
 10
2.671537807670422
 20
5.561230939983437
 30
0.0
 11
2.736256782142413
 21
5.625949914455428
 31
0.0
  0
LINE
  5
10F
330
D0
100
AcDbEntity
  8
0
 62
     0
100
AcDbLine
 10
2.441728103784794
 20
5.331421236097809
 30
0.0
 11
2.556632955727608
 21
5.446326088040623
 31
0.0
  0
LINE
  5
110
330
D0
100
AcDbEntity
  8
0
 62
     0
100
AcDbLine
 10
2.211918399899166
 20
5.101611532212181
 30
0.0
 11
2.32682325184198
 21
5.216516384154995
 31
0.0
  0
LINE
  5
111
330
D0
100
AcDbEntity
  8
0
 62
     0
100
AcDbLine
 10
2.441728103784794
 20
5.561230939983437
 30
0.0
 11
2.506447078256785
 21
5.625949914455429
 31
0.0
  0
LINE
  5
112
330
D0
100
AcDbEntity
  8
0
 62
     0
100
AcDbLine
 10
2.211918399899166
 20
5.331421236097809
 30
0.0
 11
2.32682325184198
 21
5.446326088040623
 31
0.0
  0
LINE
  5
113
330
D0
100
AcDbEntity
  8
0
 62
     0
100
AcDbLine
 10
1.605012405989028
 20
4.954324946073299
 30
0.0
 11
1.637394140185095
 21
4.986706680269366
 31
0.0
  0
LINE
  5
114
330
D0
100
AcDbEntity
  8
0
 62
     0
100
AcDbLine
 10
1.522489288242282
 20
5.101611532212181
 30
0.0
 11
1.637394140185095
 21
5.216516384154995
 31
0.0
  0
LINE
  5
115
330
D0
100
AcDbEntity
  8
0
 62
     0
100
AcDbLine
 10
1.522489288242282
 20
5.331421236097809
 30
0.0
 11
1.637394140185095
 21
5.446326088040623
 31
0.0
  0
LINE
  5
116
330
D0
100
AcDbEntity
  8
0
 62
     0
100
AcDbLine
 10
1.292679584356654
 20
5.101611532212181
 30
0.0
 11
1.407584436299468
 21
5.216516384154995
 31
0.0
  0
LINE
  5
117
330
D0
100
AcDbEntity
  8
0
 62
     0
100
AcDbLine
 10
1.522489288242281
 20
5.561230939983437
 30
0.0
 11
1.587208262714272
 21
5.625949914455429
 31
0.0
  0
LINE
  5
118
330
D0
100
AcDbEntity
  8
0
 62
     0
100
AcDbLine
 10
1.292679584356653
 20
5.331421236097809
 30
0.0
 11
1.407584436299467
 21
5.446326088040623
 31
0.0
  0
LINE
  5
119
330
D0
100
AcDbEntity
  8
0
 62
     0
100
AcDbLine
 10
1.150689416504743
 20
5.189431068245898
 30
0.0
 11
1.177774732413839
 21
5.216516384154995
 31
0.0
  0
LINE
  5
11A
330
D0
100
AcDbEntity
  8
0
 62
     0
100
AcDbLine
 10
1.292679584356654
 20
5.561230939983437
 30
0.0
 11
1.357398558828645
 21
5.625949914455429
 31
0.0
  0
LINE
  5
11B
330
D0
100
AcDbEntity
  8
0
 62
     0
100
AcDbLine
 10
1.062869880471026
 20
5.331421236097809
 30
0.0
 11
1.17777473241384
 21
5.446326088040623
 31
0.0
  0
LINE
  5
11C
330
D0
100
AcDbEntity
  8
0
 62
     0
100
AcDbLine
 10
1.062869880471026
 20
5.561230939983437
 30
0.0
 11
1.127588854943017
 21
5.625949914455428
 31
0.0
  0
LINE
  5
11D
330
D0
100
AcDbEntity
  8
0
 62
     0
100
AcDbLine
 10
2.745182316108652
 20
5.318887105578928
 30
0.0
 11
2.825235946453542
 21
5.398940735923818
 31
0.0
  0
LINE
  5
11E
330
D0
100
AcDbEntity
  8
0
 62
     0
100
AcDbLine
 10
2.714627127148978
 20
5.518141620504882
 30
0.0
 11
2.822435421099523
 21
5.625949914455429
 31
0.0
  0
LINE
  5
11F
330
D0
100
AcDbEntity
  8
0
 62
     0
100
AcDbLine
 10
2.484817423263349
 20
5.288331916619254
 30
0.0
 11
2.599722275206163
 21
5.403236768562068
 31
0.0
  0
LINE
  5
120
330
D0
100
AcDbEntity
  8
0
 62
     0
100
AcDbLine
 10
2.255007719377721
 20
5.058522212733626
 30
0.0
 11
2.369912571320535
 21
5.17342706467644
 31
0.0
  0
LINE
  5
121
330
D0
100
AcDbEntity
  8
0
 62
     0
100
AcDbLine
 10
2.484817423263349
 20
5.518141620504882
 30
0.0
 11
2.592625717213895
 21
5.625949914455428
 31
0.0
  0
LINE
  5
122
330
D0
100
AcDbEntity
  8
0
 62
     0
100
AcDbLine
 10
2.25500771937772
 20
5.288331916619253
 30
0.0
 11
2.369912571320535
 21
5.403236768562067
 31
0.0
  0
LINE
  5
123
330
D0
100
AcDbEntity
  8
0
 62
     0
100
AcDbLine
 10
2.272999329452242
 20
5.536133230579403
 30
0.0
 11
2.362816013328268
 21
5.625949914455429
 31
0.0
  0
LINE
  5
124
330
D0
100
AcDbEntity
  8
0
 62
     0
100
AcDbLine
 10
1.565578607720837
 20
5.058522212733626
 30
0.0
 11
1.680483459663651
 21
5.17342706467644
 31
0.0
  0
LINE
  5
125
330
D0
100
AcDbEntity
  8
0
 62
     0
100
AcDbLine
 10
1.565578607720836
 20
5.288331916619253
 30
0.0
 11
1.68048345966365
 21
5.403236768562067
 31
0.0
  0
LINE
  5
126
330
D0
100
AcDbEntity
  8
0
 62
     0
100
AcDbLine
 10
1.335768903835208
 20
5.058522212733625
 30
0.0
 11
1.450673755778022
 21
5.173427064676439
 31
0.0
  0
LINE
  5
127
330
D0
100
AcDbEntity
  8
0
 62
     0
100
AcDbLine
 10
1.565578607720836
 20
5.518141620504882
 30
0.0
 11
1.602936495509541
 21
5.555499508293586
 31
0.0
  0
LINE
  5
128
330
D0
100
AcDbEntity
  8
0
 62
     0
100
AcDbLine
 10
1.335768903835208
 20
5.288331916619253
 30
0.0
 11
1.450673755778022
 21
5.403236768562067
 31
0.0
  0
LINE
  5
129
330
D0
100
AcDbEntity
  8
0
 62
     0
100
AcDbLine
 10
1.191886020347531
 20
5.144449033131576
 30
0.0
 11
1.220864051892394
 21
5.173427064676439
 31
0.0
  0
LINE
  5
12A
330
D0
100
AcDbEntity
  8
0
 62
     0
100
AcDbLine
 10
1.335768903835208
 20
5.518141620504882
 30
0.0
 11
1.443577197785755
 21
5.625949914455429
 31
0.0
  0
LINE
  5
12B
330
D0
100
AcDbEntity
  8
0
 62
     0
100
AcDbLine
 10
1.10595919994958
 20
5.288331916619253
 30
0.0
 11
1.220864051892394
 21
5.403236768562067
 31
0.0
  0
LINE
  5
12C
330
D0
100
AcDbEntity
  8
0
 62
     0
100
AcDbLine
 10
1.105959199949581
 20
5.518141620504882
 30
0.0
 11
1.213767493900128
 21
5.625949914455429
 31
0.0
  0
LINE
  5
12D
330
D0
100
AcDbEntity
  8
0
 62
     0
100
AcDbLine
 10
0.9893676392768648
 20
5.401550059832165
 30
0.0
 11
0.9910543480067673
 21
5.403236768562067
 31
0.0
  0
LINE
  5
12E
330
D0
100
AcDbEntity
  8
0
 62
     0
100
AcDbLine
 10
0.924754870655108
 20
5.566746995096036
 30
0.0
 11
0.9839577900145012
 21
5.625949914455429
 31
0.0
  0
LINE
  5
12F
330
D0
100
AcDbEntity
  8
0
 62
     0
100
AcDbLine
 10
2.757716446627532
 20
5.475052301026327
 30
0.0
 11
2.872621298570346
 21
5.589957152969141
 31
0.0
  0
LINE
  5
130
330
D0
100
AcDbEntity
  8
0
 62
     0
100
AcDbLine
 10
2.527906742741904
 20
5.245242597140698
 30
0.0
 11
2.642811594684718
 21
5.360147449083513
 31
0.0
  0
LINE
  5
131
330
D0
100
AcDbEntity
  8
0
 62
     0
100
AcDbLine
 10
2.527906742741905
 20
5.475052301026327
 30
0.0
 11
2.642811594684719
 21
5.589957152969141
 31
0.0
  0
LINE
  5
132
330
D0
100
AcDbEntity
  8
0
 62
     0
100
AcDbLine
 10
2.298097038856276
 20
5.245242597140698
 30
0.0
 11
2.41300189079909
 21
5.360147449083513
 31
0.0
  0
LINE
  5
133
330
D0
100
AcDbEntity
  8
0
 62
     0
100
AcDbLine
 10
2.149253466314401
 20
5.096399024598823
 30
0.0
 11
2.183192186913462
 21
5.130337745197884
 31
0.0
  0
LINE
  5
134
330
D0
100
AcDbEntity
  8
0
 62
     0
100
AcDbLine
 10
2.298097038856276
 20
5.475052301026327
 30
0.0
 11
2.41300189079909
 21
5.589957152969141
 31
0.0
  0
LINE
  5
135
330
D0
100
AcDbEntity
  8
0
 62
     0
100
AcDbLine
 10
2.149253466314398
 20
5.326208728484449
 30
0.0
 11
2.183192186913462
 21
5.360147449083513
 31
0.0
  0
LINE
  5
136
330
D0
100
AcDbEntity
  8
0
 62
     0
100
AcDbLine
 10
1.608667927199392
 20
5.01543289325507
 30
0.0
 11
1.723572779142206
 21
5.130337745197884
 31
0.0
  0
LINE
  5
137
330
D0
100
AcDbEntity
  8
0
 62
     0
100
AcDbLine
 10
1.608667927199392
 20
5.245242597140698
 30
0.0
 11
1.723572779142205
 21
5.360147449083513
 31
0.0
  0
LINE
  5
138
330
D0
100
AcDbEntity
  8
0
 62
     0
100
AcDbLine
 10
1.378858223313764
 20
5.01543289325507
 30
0.0
 11
1.493763075256578
 21
5.130337745197884
 31
0.0
  0
LINE
  5
139
330
D0
100
AcDbEntity
  8
0
 62
     0
100
AcDbLine
 10
1.608667927199392
 20
5.475052301026327
 30
0.0
 11
1.63340813446928
 21
5.499792508296215
 31
0.0
  0
LINE
  5
13A
330
D0
100
AcDbEntity
  8
0
 62
     0
100
AcDbLine
 10
1.378858223313764
 20
5.245242597140698
 30
0.0
 11
1.493763075256578
 21
5.360147449083513
 31
0.0
  0
LINE
  5
13B
330
D0
100
AcDbEntity
  8
0
 62
     0
100
AcDbLine
 10
1.233082624190319
 20
5.099466998017253
 30
0.0
 11
1.26395337137095
 21
5.130337745197884
 31
0.0
  0
LINE
  5
13C
330
D0
100
AcDbEntity
  8
0
 62
     0
100
AcDbLine
 10
1.378858223313764
 20
5.475052301026327
 30
0.0
 11
1.493763075256578
 21
5.589957152969141
 31
0.0
  0
LINE
  5
13D
330
D0
100
AcDbEntity
  8
0
 62
     0
100
AcDbLine
 10
1.149048519428136
 20
5.245242597140698
 30
0.0
 11
1.26395337137095
 21
5.360147449083513
 31
0.0
  0
LINE
  5
13E
330
D0
100
AcDbEntity
  8
0
 62
     0
100
AcDbLine
 10
1.149048519428136
 20
5.475052301026327
 30
0.0
 11
1.26395337137095
 21
5.589957152969141
 31
0.0
  0
LINE
  5
13F
330
D0
100
AcDbEntity
  8
0
 62
     0
100
AcDbLine
 10
1.013893591024427
 20
5.339897372622617
 30
0.0
 11
1.034143667485322
 21
5.360147449083513
 31
0.0
  0
LINE
  5
140
330
D0
100
AcDbEntity
  8
0
 62
     0
100
AcDbLine
 10
0.9488976127294183
 20
5.504711098213237
 30
0.0
 11
1.034143667485322
 21
5.589957152969141
 31
0.0
  0
ENDBLK
  5
141
330
D0
100
AcDbEntity
  8
0
100
AcDbBlockEnd
  0
BLOCK
  5
230
330
22F
100
AcDbEntity
  8
0
100
AcDbBlockBegin
  2
RD
 70
     0
 10
0.0
 20
0.0
 30
0.0
  3
RD
  1

  0
LWPOLYLINE
  5
231
330
22F
100
AcDbEntity
  8
image
100
AcDbPolyline
 90
        6
 70
     1
 43
0.0
 10
-0.1263240580296658
 20
-0.1235595694529241
 10
-0.2059888925294686
 20
-0.0599999999999996
 10
-0.2059888925294686
 20
0.0
 10
0.2059888925294691
 20
0.0
 10
0.2059888925294691
 20
-0.0599999999999996
 10
0.1263240580296663
 20
-0.1235595694529241
  0
LWPOLYLINE
  5
232
330
22F
100
AcDbEntity
  8
image
100
AcDbPolyline
 90
        2
 70
     0
 43
0.0
 10
0.018375264254356
 20
0.0
 10
0.018375264254356
 20
-0.1235595694529241
  0
LWPOLYLINE
  5
233
330
22F
100
AcDbEntity
  8
image
100
AcDbPolyline
 90
        2
 70
     0
 43
0.0
 10
-0.0183752642543556
 20
0.0
 10
-0.0183752642543556
 20
-0.1235595694529241
  0
LWPOLYLINE
  5
234
330
22F
100
AcDbEntity
  8
image
100
AcDbPolyline
 90
        2
 70
     0
 43
0.0
 10
-0.0183752642543556
 20
-0.0617797847264621
 10
0.018375264254356
 20
-0.0617797847264621
  0
LWPOLYLINE
  5
235
330
22F
100
AcDbEntity
  8
image
100
AcDbPolyline
 90
        2
 70
     0
 43
0.0
 10
0.2059888925294691
 20
0.0
 10
0.114249204179051
 20
-0.1235595694529241
  0
LWPOLYLINE
  5
236
330
22F
100
AcDbEntity
  8
image
100
AcDbPolyline
 90
        2
 70
     0
 43
0.0
 10
-0.2059888925294686
 20
0.0
 10
-0.1142492041790506
 20
-0.1235595694529241
  0
ENDBLK
  5
237
330
22F
100
AcDbEntity
  8
0
100
AcDbBlockEnd
  0
BLOCK
  5
26D
330
26C
100
AcDbEntity
  8
0
100
AcDbBlockBegin
  2
rb_logo
 70
     0
 10
0.0
 20
0.0
 30
0.0
  3
rb_logo
  1

  0
SPLINE
  5
26E
330
26C
100
AcDbEntity
  8
image
  6
Continuous
370
     0
100
AcDbSpline
210
0.0
220
0.0
230
1.0
 70
    12
 71
     3
 72
     8
 73
     4
 74
     0
 42
0.0000000001
 43
0.0000000001
 40
0.0
 40
0.0
 40
0.0
 40
0.0
 40
1.0
 40
1.0
 40
1.0
 40
1.0
 10
-0.058442705309758
 20
0.2928882647095534
 30
0.0000000045
 41
1.0
 10
-0.0556630147670987
 20
0.3028219098542211
 30
0.0000000045
 41
1.0
 10
-0.0479179434003134
 20
0.3109649037260755
 30
0.0000000045
 41
1.0
 10
-0.0372576571594316
 20
0.3119568264923354
 30
0.0000000045
 41
1.0
  0
SPLINE
  5
26F
330
26C
100
AcDbEntity
  8
image
  6
Continuous
370
     0
100
AcDbSpline
210
0.0
220
0.0
230
1.0
 70
    12
 71
     3
 72
     8
 73
     4
 74
     0
 42
0.0000000001
 43
0.0000000001
 40
0.0
 40
0.0
 40
0.0
 40
0.0
 40
1.0
 40
1.0
 40
1.0
 40
1.0
 10
-0.0372576571594316
 20
0.3119568264923354
 30
0.0000000045
 41
1.0
 10
-0.0136879574751032
 20
0.313283234842566
 30
0.0000000045
 41
1.0
 10
0.0090195767815731
 20
0.301429181086478
 30
0.0000000045
 41
1.0
 10
0.0191521831787753
 20
0.2807083758587341
 30
0.0000000045
 41
1.0
  0
SPLINE
  5
270
330
26C
100
AcDbEntity
  8
image
  6
Continuous
370
     0
100
AcDbSpline
210
0.0
220
0.0
230
1.0
 70
    12
 71
     3
 72
     8
 73
     4
 74
     0
 42
0.0000000001
 43
0.0000000001
 40
0.0
 40
0.0
 40
0.0
 40
0.0
 40
1.0
 40
1.0
 40
1.0
 40
1.0
 10
0.0191521831787753
 20
0.2807083758587341
 30
0.0000000045
 41
1.0
 10
0.0206054653712009
 20
0.2772625976445449
 30
0.0000000045
 41
1.0
 10
0.0223297962265026
 20
0.2726893723326613
 30
0.0000000045
 41
1.0
 10
0.0223297962265026
 20
0.2676634380838498
 30
0.0000000045
 41
1.0
  0
SPLINE
  5
271
330
26C
100
AcDbEntity
  8
image
  6
Continuous
370
     0
100
AcDbSpline
210
0.0
220
0.0
230
1.0
 70
    12
 71
     3
 72
     8
 73
     4
 74
     0
 42
0.0000000001
 43
0.0000000001
 40
0.0
 40
0.0
 40
0.0
 40
0.0
 40
1.0
 40
1.0
 40
1.0
 40
1.0
 10
-0.0351382872954762
 20
0.2841483870800951
 30
0.0000000045
 41
1.0
 10
-0.0246135253860334
 20
0.2872625632067249
 30
0.0000000045
 41
1.0
 10
-0.0146164433202669
 20
0.2826922213912537
 30
0.0000000045
 41
1.0
 10
-0.0062687212030519
 20
0.2772625976445449
 30
0.0000000045
 41
1.0
  0
SPLINE
  5
272
330
26C
100
AcDbEntity
  8
image
  6
Continuous
370
     0
100
AcDbSpline
210
0.0
220
0.0
230
1.0
 70
    12
 71
     3
 72
     8
 73
     4
 74
     0
 42
0.0000000001
 43
0.0000000001
 40
0.0
 40
0.0
 40
0.0
 40
0.0
 40
1.0
 40
1.0
 40
1.0
 40
1.0
 10
-0.0062687212030519
 20
0.2772625976445449
 30
0.0000000045
 41
1.0
 10
0.0007439420746937
 20
0.2722308964029079
 30
0.0000000045
 41
1.0
 10
0.0022029912599484
 20
0.2636236596084718
 30
0.0000000045
 41
1.0
 10
0.0016724279198574
 20
0.2552817044840818
 30
0.0000000045
 41
1.0
  0
SPLINE
  5
273
330
26C
100
AcDbEntity
  8
image
  6
Continuous
370
     0
100
AcDbSpline
210
0.0
220
0.0
230
1.0
 70
    12
 71
     3
 72
     8
 73
     4
 74
     0
 42
0.0000000001
 43
0.0000000001
 40
0.0
 40
0.0
 40
0.0
 40
0.0
 40
1.0
 40
1.0
 40
1.0
 40
1.0
 10
-0.0399047068670666
 20
0.2722308964029079
 30
0.0000000045
 41
1.0
 10
-0.0408995131297418
 20
0.276403315713309
 30
0.0000000045
 41
1.0
 10
-0.0399047068670666
 20
0.2821616580511606
 30
0.0000000045
 41
1.0
 10
-0.0351382872954762
 20
0.2841483870800951
 30
0.0000000045
 41
1.0
  0
SPLINE
  5
274
330
26C
100
AcDbEntity
  8
image
  6
Continuous
370
     0
100
AcDbSpline
210
0.0
220
0.0
230
1.0
 70
    12
 71
     3
 72
     8
 73
     4
 74
     0
 42
0.0000000001
 43
0.0000000001
 40
0.0
 40
0.0
 40
0.0
 40
0.0
 40
1.0
 40
1.0
 40
1.0
 40
1.0
 10
-0.0506947504465583
 20
0.2280124789011744
 30
0.0000000045
 41
1.0
 10
-0.0421999700122502
 20
0.2332460248917609
 30
0.0000000045
 41
1.0
 10
-0.0302017414354849
 20
0.2314380726404686
 30
0.0000000045
 41
1.0
 10
-0.021631990094424
 20
0.2266803035581155
 30
0.0000000045
 41
1.0
  0
SPLINE
  5
275
330
26C
100
AcDbEntity
  8
image
  6
Continuous
370
     0
100
AcDbSpline
210
0.0
220
0.0
230
1.0
 70
    12
 71
     3
 72
     8
 73
     4
 74
     0
 42
0.0000000001
 43
0.0000000001
 40
0.0
 40
0.0
 40
0.0
 40
0.0
 40
1.0
 40
1.0
 40
1.0
 40
1.0
 10
-0.021631990094424
 20
0.2266803035581155
 30
0.0000000045
 41
1.0
 10
-0.0125114909383788
 20
0.2216111168631016
 30
0.0000000045
 41
1.0
 10
-0.0075951295532826
 20
0.2111872773281318
 30
0.0000000045
 41
1.0
 10
-0.0057439248557838
 20
0.201253632183465
 30
0.0000000045
 41
1.0
  0
SPLINE
  5
276
330
26C
100
AcDbEntity
  8
image
  6
Continuous
370
     0
100
AcDbSpline
210
0.0
220
0.0
230
1.0
 70
    12
 71
     2
 72
     6
 73
     3
 74
     0
 42
0.0000000001
 43
0.0000000001
 40
0.0
 40
0.0
 40
0.0
 40
1.0
 40
1.0
 40
1.0
 10
-0.0582206760859148
 20
0.1745553388904391
 30
0.0000000045
 41
1.0
 10
-0.0594288610831915
 20
0.2011671272910585
 30
0.0000000045
 41
1.0
 10
-0.0582869965034258
 20
0.2163891048581688
 30
0.0000000045
 41
1.0
  0
SPLINE
  5
277
330
26C
100
AcDbEntity
  8
image
  6
Continuous
370
     0
100
AcDbSpline
210
0.0
220
0.0
230
1.0
 70
    12
 71
     3
 72
     8
 73
     4
 74
     0
 42
0.0000000001
 43
0.0000000001
 40
0.0
 40
0.0
 40
0.0
 40
0.0
 40
1.0
 40
1.0
 40
1.0
 40
1.0
 10
-0.0582869965034258
 20
0.2163891048581688
 30
0.0000000045
 41
1.0
 10
-0.058010180847726
 20
0.2200453783105463
 30
0.0000000045
 41
1.0
 10
-0.0539531013938643
 20
0.2260084488937597
 30
0.0000000045
 41
1.0
 10
-0.0506947504465583
 20
0.2280124789011744
 30
0.0000000045
 41
1.0
  0
SPLINE
  5
278
330
26C
100
AcDbEntity
  8
image
  6
Continuous
370
     0
100
AcDbSpline
210
0.0
220
0.0
230
1.0
 70
    12
 71
     3
 72
     8
 73
     4
 74
     0
 42
0.0000000001
 43
0.0000000001
 40
0.0
 40
0.0
 40
0.0
 40
0.0
 40
1.0
 40
1.0
 40
1.0
 40
1.0
 10
-0.0345471705306997
 20
0.204313021878237
 30
0.0000000045
 41
1.0
 10
-0.030850528128533
 20
0.2037911090273861
 30
0.0000000045
 41
1.0
 10
-0.0241867679168273
 20
0.2014554769324119
 30
0.0000000045
 41
1.0
 10
-0.0234687773098554
 20
0.1960662221354941
 30
0.0000000045
 41
1.0
  0
SPLINE
  5
279
330
26C
100
AcDbEntity
  8
image
  6
Continuous
370
     0
100
AcDbSpline
210
0.0
220
0.0
230
1.0
 70
    12
 71
     2
 72
     6
 73
     3
 74
     0
 42
0.0000000001
 43
0.0000000001
 40
0.0
 40
0.0
 40
0.0
 40
1.0
 40
1.0
 40
1.0
 10
-0.0234687773098554
 20
0.1960662221354941
 30
0.0000000045
 41
1.0
 10
-0.0227104177530921
 20
0.1903799672079804
 30
0.0000000045
 41
1.0
 10
-0.0229555149482432
 20
0.1824070996245277
 30
0.0000000045
 41
1.0
  0
SPLINE
  5
27A
330
26C
100
AcDbEntity
  8
image
  6
Continuous
370
     0
100
AcDbSpline
210
0.0
220
0.0
230
1.0
 70
    12
 71
     3
 72
     8
 73
     4
 74
     0
 42
0.0000000001
 43
0.0000000001
 40
0.0
 40
0.0
 40
0.0
 40
0.0
 40
1.0
 40
1.0
 40
1.0
 40
1.0
 10
-0.0393770270233902
 20
0.1895581707301206
 30
0.0000000045
 41
1.0
 10
-0.0395385028225479
 20
0.1941371630348323
 30
0.0000000045
 41
1.0
 10
-0.0407236198485137
 20
0.2051867212915424
 30
0.0000000045
 41
1.0
 10
-0.0345471705306997
 20
0.204313021878237
 30
0.0000000045
 41
1.0
  0
SPLINE
  5
27B
330
26C
100
AcDbEntity
  8
image
  6
Continuous
370
     0
100
AcDbSpline
210
0.0
220
0.0
230
1.0
 70
    12
 71
     3
 72
     8
 73
     4
 74
     0
 42
0.0000000001
 43
0.0000000001
 40
0.0
 40
0.0
 40
0.0
 40
0.0
 40
1.0
 40
1.0
 40
1.0
 40
1.0
 10
-0.085804202777898
 20
0.1020123361184408
 30
0.0000000045
 41
1.0
 10
-0.085804202777898
 20
0.1083156592784533
 30
0.0000000045
 41
1.0
 10
-0.0788261414571157
 20
0.1144661571285468
 30
0.0000000045
 41
1.0
 10
-0.0730101291909935
 20
0.1159771092492461
 30
0.0000000045
 41
1.0
  0
SPLINE
  5
27C
330
26C
100
AcDbEntity
  8
image
  6
Continuous
370
     0
100
AcDbSpline
210
0.0
220
0.0
230
1.0
 70
    12
 71
     3
 72
     8
 73
     4
 74
     0
 42
0.0000000001
 43
0.0000000001
 40
0.0
 40
0.0
 40
0.0
 40
0.0
 40
1.0
 40
1.0
 40
1.0
 40
1.0
 10
-0.0730101291909935
 20
0.1159771092492461
 30
0.0000000045
 41
1.0
 10
-0.0681629717198211
 20
0.1172371971819652
 30
0.0000000045
 41
1.0
 10
-0.062571872173955
 20
0.1176754886368254
 30
0.0000000045
 41
1.0
 10
-0.0571191804559388
 20
0.1166316629351201
 30
0.0000000045
 41
1.0
  0
SPLINE
  5
27D
330
26C
100
AcDbEntity
  8
image
  6
Continuous
370
     0
100
AcDbSpline
210
0.0
220
0.0
230
1.0
 70
    12
 71
     3
 72
     8
 73
     4
 74
     0
 42
0.0000000001
 43
0.0000000001
 40
0.0
 40
0.0
 40
0.0
 40
0.0
 40
1.0
 40
1.0
 40
1.0
 40
1.0
 10
-0.0571191804559388
 20
0.1166316629351201
 30
0.0000000045
 41
1.0
 10
-0.0457755055650471
 20
0.1144603901357204
 30
0.0000000045
 41
1.0
 10
-0.0342703548749999
 20
0.108595358430569
 30
0.0000000045
 41
1.0
 10
-0.0282496143635132
 20
0.0950544592725526
 30
0.0000000045
 41
1.0
  0
SPLINE
  5
27E
330
26C
100
AcDbEntity
  8
image
  6
Continuous
370
     0
100
AcDbSpline
210
0.0
220
0.0
230
1.0
 70
    12
 71
     3
 72
     8
 73
     4
 74
     0
 42
0.0000000001
 43
0.0000000001
 40
0.0
 40
0.0
 40
0.0
 40
0.0
 40
1.0
 40
1.0
 40
1.0
 40
1.0
 10
-0.0282496143635132
 20
0.0950544592725526
 30
0.0000000045
 41
1.0
 10
-0.0259370502398491
 20
0.096060799520882
 30
0.0000000045
 41
1.0
 10
-0.0229410974661755
 20
0.0967759066314402
 30
0.0000000045
 41
1.0
 10
-0.0203084652406083
 20
0.0977043924766026
 30
0.0000000045
 41
1.0
  0
SPLINE
  5
27F
330
26C
100
AcDbEntity
  8
image
  6
Continuous
370
     0
100
AcDbSpline
210
0.0
220
0.0
230
1.0
 70
    12
 71
     3
 72
     8
 73
     4
 74
     0
 42
0.0000000001
 43
0.0000000001
 40
0.0
 40
0.0
 40
0.0
 40
0.0
 40
1.0
 40
1.0
 40
1.0
 40
1.0
 10
-0.0203084652406083
 20
0.0977043924766026
 30
0.0000000045
 41
1.0
 10
-0.0088350330111049
 20
0.1017441709519806
 30
0.0000000045
 41
1.0
 10
0.0031458945871781
 20
0.0973439554249094
 30
0.0000000045
 41
1.0
 10
0.0112052670630414
 20
0.0902880397009609
 30
0.0000000045
 41
1.0
  0
SPLINE
  5
280
330
26C
100
AcDbEntity
  8
image
  6
Continuous
370
     0
100
AcDbSpline
210
0.0
220
0.0
230
1.0
 70
    12
 71
     3
 72
     8
 73
     4
 74
     0
 42
0.0000000001
 43
0.0000000001
 40
0.0
 40
0.0
 40
0.0
 40
0.0
 40
1.0
 40
1.0
 40
1.0
 40
1.0
 10
0.0112052670630414
 20
0.0902880397009609
 30
0.0000000045
 41
1.0
 10
0.0180420370595593
 20
0.0843019011464392
 30
0.0000000045
 41
1.0
 10
0.0223355632193285
 20
0.0743509550232915
 30
0.0000000045
 41
1.0
 10
0.0223355632193285
 20
0.065810038646366
 30
0.0000000045
 41
1.0
  0
SPLINE
  5
281
330
26C
100
AcDbEntity
  8
image
  6
Continuous
370
     0
100
AcDbSpline
210
0.0
220
0.0
230
1.0
 70
    12
 71
     3
 72
     8
 73
     4
 74
     0
 42
0.0000000001
 43
0.0000000001
 40
0.0
 40
0.0
 40
0.0
 40
0.0
 40
1.0
 40
1.0
 40
1.0
 40
1.0
 10
-0.0598729195308745
 20
0.0905129524212178
 30
0.0000000045
 41
1.0
 10
-0.0536445672776149
 20
0.0922603512478269
 30
0.0000000045
 41
1.0
 10
-0.045974466817583
 20
0.0882061552903819
 30
0.0000000045
 41
1.0
 10
-0.043318766620708
 20
0.0807552005577783
 30
0.0000000045
 41
1.0
  0
SPLINE
  5
282
330
26C
100
AcDbEntity
  8
image
  6
Continuous
370
     0
100
AcDbSpline
210
0.0
220
0.0
230
1.0
 70
    12
 71
     2
 72
     6
 73
     3
 74
     0
 42
0.0000000001
 43
0.0000000001
 40
0.0
 40
0.0
 40
0.0
 40
1.0
 40
1.0
 40
1.0
 10
-0.043318766620708
 20
0.0807552005577783
 30
0.0000000045
 41
1.0
 10
-0.0416549891900919
 20
0.0760897033606574
 30
0.0000000045
 41
1.0
 10
-0.0428170382447504
 20
0.0653515627166144
 30
0.0000000045
 41
1.0
  0
SPLINE
  5
283
330
26C
100
AcDbEntity
  8
image
  6
Continuous
370
     0
100
AcDbSpline
210
0.0
220
0.0
230
1.0
 70
    12
 71
     3
 72
     8
 73
     4
 74
     0
 42
0.0000000001
 43
0.0000000001
 40
0.0
 40
0.0
 40
0.0
 40
0.0
 40
1.0
 40
1.0
 40
1.0
 40
1.0
 10
-0.0632091248813516
 20
0.0748872853562102
 30
0.0000000045
 41
1.0
 10
-0.0634772900478096
 20
0.0809743462852071
 30
0.0000000045
 41
1.0
 10
-0.0639992028986605
 20
0.089350903366559
 30
0.0000000045
 41
1.0
 10
-0.0598729195308745
 20
0.0905129524212178
 30
0.0000000045
 41
1.0
  0
SPLINE
  5
284
330
26C
100
AcDbEntity
  8
image
  6
Continuous
370
     0
100
AcDbSpline
210
0.0
220
0.0
230
1.0
 70
    12
 71
     3
 72
     8
 73
     4
 74
     0
 42
0.0000000001
 43
0.0000000001
 40
0.0
 40
0.0
 40
0.0
 40
0.0
 40
1.0
 40
1.0
 40
1.0
 40
1.0
 10
-0.0172836775027983
 20
0.0738002072083042
 30
0.0000000045
 41
1.0
 10
-0.0103661696067001
 20
0.0750574116446092
 30
0.0000000045
 41
1.0
 10
-0.0028575449458255
 20
0.070582225210786
 30
0.0000000045
 41
1.0
 10
-0.00000865048924
 20
0.0647546789590097
 30
0.0000000045
 41
1.0
  0
SPLINE
  5
285
330
26C
100
AcDbEntity
  8
image
  6
Continuous
370
     0
100
AcDbSpline
210
0.0
220
0.0
230
1.0
 70
    12
 71
     2
 72
     6
 73
     3
 74
     0
 42
0.0000000001
 43
0.0000000001
 40
0.0
 40
0.0
 40
0.0
 40
1.0
 40
1.0
 40
1.0
 10
-0.00000865048924
 20
0.0647546789590097
 30
0.0000000045
 41
1.0
 10
0.0026383992183949
 20
0.0593913756298115
 30
0.0000000045
 41
1.0
 10
0.0014071462498091
 20
0.0460609717099887
 30
0.0000000045
 41
1.0
  0
SPLINE
  5
286
330
26C
100
AcDbEntity
  8
image
  6
Continuous
370
     0
100
AcDbSpline
210
0.0
220
0.0
230
1.0
 70
    12
 71
     3
 72
     8
 73
     4
 74
     0
 42
0.0000000001
 43
0.0000000001
 40
0.0
 40
0.0
 40
0.0
 40
0.0
 40
1.0
 40
1.0
 40
1.0
 40
1.0
 10
-0.021631990094424
 20
0.0563896558633115
 30
0.0000000045
 41
1.0
 10
-0.0216377570872495
 20
0.061415590112123
 30
0.0000000045
 41
1.0
 10
-0.0224480195794596
 20
0.0728601873774872
 30
0.0000000045
 41
1.0
 10
-0.0172836775027983
 20
0.0738002072083042
 30
0.0000000045
 41
1.0
  0
SPLINE
  5
287
330
26C
100
AcDbEntity
  8
image
  6
Continuous
370
     0
100
AcDbSpline
210
0.0
220
0.0
230
1.0
 70
    12
 71
     3
 72
     8
 73
     4
 74
     0
 42
0.0000000001
 43
0.0000000001
 40
0.0
 40
0.0
 40
0.0
 40
0.0
 40
1.0
 40
1.0
 40
1.0
 40
1.0
 10
-0.0759224605686755
 20
-0.3405957128716812
 30
0.0000000045
 41
1.0
 10
-0.0655764754368717
 20
-0.3334763602266335
 30
0.0000000045
 41
1.0
 10
-0.0486244000216338
 20
-0.3348402540302402
 30
0.0000000045
 41
1.0
 10
-0.0380535021695709
 20
-0.3405957128716812
 30
0.0000000045
 41
1.0
  0
SPLINE
  5
288
330
26C
100
AcDbEntity
  8
image
  6
Continuous
370
     0
100
AcDbSpline
210
0.0
220
0.0
230
1.0
 70
    12
 71
     3
 72
     8
 73
     4
 74
     0
 42
0.0000000001
 43
0.0000000001
 40
0.0
 40
0.0
 40
0.0
 40
0.0
 40
1.0
 40
1.0
 40
1.0
 40
1.0
 10
-0.0380535021695709
 20
-0.3405957128716812
 30
0.0000000045
 41
1.0
 10
-0.0240598940746302
 20
-0.3482167938926848
 30
0.0000000045
 41
1.0
 10
-0.0177940563679942
 20
-0.3633753345386959
 30
0.0000000045
 41
1.0
 10
-0.0160726090091088
 20
-0.3782051565935642
 30
0.0000000045
 41
1.0
  0
SPLINE
  5
289
330
26C
100
AcDbEntity
  8
image
  6
Continuous
370
     0
100
AcDbSpline
210
0.0
220
0.0
230
1.0
 70
    12
 71
     2
 72
     6
 73
     3
 74
     0
 42
0.0000000001
 43
0.0000000001
 40
0.0
 40
0.0
 40
0.0
 40
1.0
 40
1.0
 40
1.0
 10
-0.085804202777898
 20
-0.4031387500815003
 30
0.0000000045
 41
1.0
 10
-0.0855764065612292
 20
-0.3754802524827641
 30
0.0000000045
 41
1.0
 10
-0.0862482612255842
 20
-0.3589578180331436
 30
0.0000000045
 41
1.0
  0
SPLINE
  5
28A
330
26C
100
AcDbEntity
  8
image
  6
Continuous
370
     0
100
AcDbSpline
210
0.0
220
0.0
230
1.0
 70
    12
 71
     3
 72
     8
 73
     4
 74
     0
 42
0.0000000001
 43
0.0000000001
 40
0.0
 40
0.0
 40
0.0
 40
0.0
 40
1.0
 40
1.0
 40
1.0
 40
1.0
 10
-0.0862482612255842
 20
-0.3589578180331436
 30
0.0000000045
 41
1.0
 10
-0.086527960377699
 20
-0.3521181645402116
 30
0.0000000045
 41
1.0
 10
-0.0819259001016772
 20
-0.3447306467287063
 30
0.0000000045
 41
1.0
 10
-0.0759224605686755
 20
-0.3405957128716812
 30
0.0000000045
 41
1.0
  0
SPLINE
  5
28B
330
26C
100
AcDbEntity
  8
image
  6
Continuous
370
     0
100
AcDbSpline
210
0.0
220
0.0
230
1.0
 70
    12
 71
     2
 72
     6
 73
     3
 74
     0
 42
0.0000000001
 43
0.0000000001
 40
0.0
 40
0.0
 40
0.0
 40
1.0
 40
1.0
 40
1.0
 10
-0.0393770270233902
 20
-0.3941393577748222
 30
0.0000000045
 41
1.0
 10
-0.0389185510936363
 20
-0.3809675461577422
 30
0.0000000045
 41
1.0
 10
-0.0409658335472529
 20
-0.3750707959920403
 30
0.0000000045
 41
1.0
  0
SPLINE
  5
28C
330
26C
100
AcDbEntity
  8
image
  6
Continuous
370
     0
100
AcDbSpline
210
0.0
220
0.0
230
1.0
 70
    12
 71
     3
 72
     8
 73
     4
 74
     0
 42
0.0000000001
 43
0.0000000001
 40
0.0
 40
0.0
 40
0.0
 40
0.0
 40
1.0
 40
1.0
 40
1.0
 40
1.0
 10
-0.0409658335472529
 20
-0.3750707959920403
 30
0.0000000045
 41
1.0
 10
-0.0421797855373569
 20
-0.3715702313459941
 30
0.0000000045
 41
1.0
 10
-0.0459715833211685
 20
-0.3669912390412824
 30
0.0000000045
 41
1.0
 10
-0.0502305075239789
 20
-0.3655350733524418
 30
0.0000000045
 41
1.0
  0
SPLINE
  5
28D
330
26C
100
AcDbEntity
  8
image
  6
Continuous
370
     0
100
AcDbSpline
210
0.0
220
0.0
230
1.0
 70
    12
 71
     3
 72
     8
 73
     4
 74
     0
 42
0.0000000001
 43
0.0000000001
 40
0.0
 40
0.0
 40
0.0
 40
0.0
 40
1.0
 40
1.0
 40
1.0
 40
1.0
 10
-0.0502305075239789
 20
-0.3655350733524418
 30
0.0000000045
 41
1.0
 10
-0.0529323436634703
 20
-0.3646123545001059
 30
0.0000000045
 41
1.0
 10
-0.0564732772593053
 20
-0.3643960922690912
 30
0.0000000045
 41
1.0
 10
-0.0592385503198973
 20
-0.3658032385189012
 30
0.0000000045
 41
1.0
  0
SPLINE
  5
28E
330
26C
100
AcDbEntity
  8
image
  6
Continuous
370
     0
100
AcDbSpline
210
0.0
220
0.0
230
1.0
 70
    12
 71
     3
 72
     8
 73
     4
 74
     0
 42
0.0000000001
 43
0.0000000001
 40
0.0
 40
0.0
 40
0.0
 40
0.0
 40
1.0
 40
1.0
 40
1.0
 40
1.0
 10
-0.0592385503198973
 20
-0.3658032385189012
 30
0.0000000045
 41
1.0
 10
-0.0649132712617568
 20
-0.3686925019252758
 30
0.0000000045
 41
1.0
 10
-0.0631860569100407
 20
-0.3763770198673768
 30
0.0000000045
 41
1.0
 10
-0.0632091248813516
 20
-0.3824871487676811
 30
0.0000000045
 41
1.0
  0
SPLINE
  5
28F
330
26C
100
AcDbEntity
  8
image
  6
Continuous
370
     0
100
AcDbSpline
210
0.0
220
0.0
230
1.0
 70
    12
 71
     3
 72
     8
 73
     4
 74
     0
 42
0.0000000001
 43
0.0000000001
 40
0.0
 40
0.0
 40
0.0
 40
0.0
 40
1.0
 40
1.0
 40
1.0
 40
1.0
 10
-0.0842125127576208
 20
-0.0068857894355503
 30
0.0000000045
 41
1.0
 10
-0.0796825398919392
 20
-0.0028517779529977
 30
0.0000000045
 41
1.0
 10
-0.0738867121007116
 20
-0.0025172923690278
 30
0.0000000045
 41
1.0
 10
-0.0688550108590742
 20
-0.0047664195715935
 30
0.0000000045
 41
1.0
  0
SPLINE
  5
290
330
26C
100
AcDbEntity
  8
image
  6
Continuous
370
     0
100
AcDbSpline
210
0.0
220
0.0
230
1.0
 70
    12
 71
     3
 72
     8
 73
     4
 74
     0
 42
0.0000000001
 43
0.0000000001
 40
0.0
 40
0.0
 40
0.0
 40
0.0
 40
1.0
 40
1.0
 40
1.0
 40
1.0
 10
-0.0688550108590742
 20
-0.0047664195715935
 30
0.0000000045
 41
1.0
 10
-0.0574017631044677
 20
-0.0103286841533246
 30
0.0000000045
 41
1.0
 10
-0.0471393993686555
 20
-0.0205247274716252
 30
0.0000000045
 41
1.0
 10
-0.0349566270214226
 20
-0.0238349813543764
 30
0.0000000045
 41
1.0
  0
SPLINE
  5
291
330
26C
100
AcDbEntity
  8
image
  6
Continuous
370
     0
100
AcDbSpline
210
0.0
220
0.0
230
1.0
 70
    12
 71
     3
 72
     8
 73
     4
 74
     0
 42
0.0000000001
 43
0.0000000001
 40
0.0
 40
0.0
 40
0.0
 40
0.0
 40
1.0
 40
1.0
 40
1.0
 40
1.0
 10
-0.0349566270214226
 20
-0.0238349813543764
 30
0.0000000045
 41
1.0
 10
-0.0311821302160897
 20
-0.0223124952480225
 30
0.0000000045
 41
1.0
 10
-0.0272086721582228
 20
-0.0190022413652704
 30
0.0000000045
 41
1.0
 10
-0.0270097109056886
 20
-0.0142992587147779
 30
0.0000000045
 41
1.0
  0
SPLINE
  5
292
330
26C
100
AcDbEntity
  8
image
  6
Continuous
370
     0
100
AcDbSpline
210
0.0
220
0.0
230
1.0
 70
    12
 71
     3
 72
     8
 73
     4
 74
     0
 42
0.0000000001
 43
0.0000000001
 40
0.0
 40
0.0
 40
0.0
 40
0.0
 40
1.0
 40
1.0
 40
1.0
 40
1.0
 10
-0.0270097109056886
 20
-0.0142992587147779
 30
0.0000000045
 41
1.0
 10
-0.0272086721582228
 20
-0.0091349166381161
 30
0.0000000045
 41
1.0
 10
-0.0242329038594438
 20
-0.0039734580578683
 30
0.0000000045
 41
1.0
 10
-0.0198615232965072
 20
-0.0010582431837731
 30
0.0000000045
 41
1.0
  0
SPLINE
  5
293
330
26C
100
AcDbEntity
  8
image
  6
Continuous
370
     0
100
AcDbSpline
210
0.0
220
0.0
230
1.0
 70
    12
 71
     3
 72
     8
 73
     4
 74
     0
 42
0.0000000001
 43
0.0000000001
 40
0.0
 40
0.0
 40
0.0
 40
0.0
 40
1.0
 40
1.0
 40
1.0
 40
1.0
 10
-0.0198615232965072
 20
-0.0010582431837731
 30
0.0000000045
 41
1.0
 10
-0.0162196673262005
 20
0.0019204086114195
 30
0.0000000045
 41
1.0
 10
-0.0107929270759062
 20
-0.0011937675152103
 30
0.0000000045
 41
1.0
 10
-0.0079440326193212
 20
0.0031776130477272
 30
0.0000000045
 41
1.0
  0
SPLINE
  5
294
330
26C
100
AcDbEntity
  8
image
  6
Continuous
370
     0
100
AcDbSpline
210
0.0
220
0.0
230
1.0
 70
    12
 71
     3
 72
     8
 73
     4
 74
     0
 42
0.0000000001
 43
0.0000000001
 40
0.0
 40
0.0
 40
0.0
 40
0.0
 40
1.0
 40
1.0
 40
1.0
 40
1.0
 10
-0.0079440326193212
 20
0.0031776130477272
 30
0.0000000045
 41
1.0
 10
-0.0056257015028298
 20
0.0045674583190563
 30
0.0000000045
 41
1.0
 10
-0.0052969829116845
 20
0.0078805956982198
 30
0.0000000045
 41
1.0
 10
-0.002912331377682
 20
0.0084745959594112
 30
0.0000000045
 41
1.0
  0
SPLINE
  5
295
330
26C
100
AcDbEntity
  8
image
  6
Continuous
370
     0
100
AcDbSpline
210
0.0
220
0.0
230
1.0
 70
    12
 71
     3
 72
     8
 73
     4
 74
     0
 42
0.0000000001
 43
0.0000000001
 40
0.0
 40
0.0
 40
0.0
 40
0.0
 40
1.0
 40
1.0
 40
1.0
 40
1.0
 10
-0.002912331377682
 20
0.0084745959594112
 30
0.0000000045
 41
1.0
 10
-0.0006603206787039
 20
0.0052335459905848
 30
0.0000000045
 41
1.0
 10
-0.0067531486005246
 20
-0.0013235248538193
 30
0.0000000045
 41
1.0
 10
0.0
 20
0.0
 30
0.0000000045
 41
1.0
  0
SPLINE
  5
296
330
26C
100
AcDbEntity
  8
image
  6
Continuous
370
     0
100
AcDbSpline
210
0.0
220
0.0
230
1.0
 70
    12
 71
     3
 72
     8
 73
     4
 74
     0
 42
0.0000000001
 43
0.0000000001
 40
0.0
 40
0.0
 40
0.0
 40
0.0
 40
1.0
 40
1.0
 40
1.0
 40
1.0
 10
0.0
 20
0.0
 30
0.0000000045
 41
1.0
 10
0.0006632041751149
 20
0.0
 30
0.0000000045
 41
1.0
 10
-0.00747978969674
 20
-0.0098673247271561
 30
0.0000000045
 41
1.0
 10
-0.0105939658233703
 20
-0.0153603853949607
 30
0.0000000045
 41
1.0
  0
SPLINE
  5
297
330
26C
100
AcDbEntity
  8
image
  6
Continuous
370
     0
100
AcDbSpline
210
0.0
220
0.0
230
1.0
 70
    12
 71
     3
 72
     8
 73
     4
 74
     0
 42
0.0000000001
 43
0.0000000001
 40
0.0
 40
0.0
 40
0.0
 40
0.0
 40
1.0
 40
1.0
 40
1.0
 40
1.0
 10
-0.0105939658233703
 20
-0.0153603853949607
 30
0.0000000045
 41
1.0
 10
-0.0139705401236321
 20
-0.0207900091416695
 30
0.0000000045
 41
1.0
 10
-0.0147635016373569
 20
-0.0273470799860736
 30
0.0000000045
 41
1.0
 10
-0.0142992587147775
 20
-0.033370703993973
 30
0.0000000045
 41
1.0
  0
SPLINE
  5
298
330
26C
100
AcDbEntity
  8
image
  6
Continuous
370
     0
100
AcDbSpline
210
0.0
220
0.0
230
1.0
 70
    12
 71
     3
 72
     8
 73
     4
 74
     0
 42
0.0000000001
 43
0.0000000001
 40
0.0
 40
0.0
 40
0.0
 40
0.0
 40
1.0
 40
1.0
 40
1.0
 40
1.0
 10
-0.0142992587147775
 20
-0.033370703993973
 30
0.0000000045
 41
1.0
 10
-0.0110553252495387
 20
-0.0425719410495988
 30
0.0000000045
 41
1.0
 10
-0.0012572044363077
 20
-0.0476036422912376
 30
0.0000000045
 41
1.0
 10
0.0055622645817297
 20
-0.0532322272904802
 30
0.0000000045
 41
1.0
  0
SPLINE
  5
299
330
26C
100
AcDbEntity
  8
image
  6
Continuous
370
     0
100
AcDbSpline
210
0.0
220
0.0
230
1.0
 70
    12
 71
     3
 72
     8
 73
     4
 74
     0
 42
0.0000000001
 43
0.0000000001
 40
0.0
 40
0.0
 40
0.0
 40
0.0
 40
1.0
 40
1.0
 40
1.0
 40
1.0
 10
0.0055622645817297
 20
-0.0532322272904802
 30
0.0000000045
 41
1.0
 10
0.0115858885896278
 20
-0.0576036078534168
 30
0.0000000045
 41
1.0
 10
0.0199278437140182
 20
-0.0630274646072966
 30
0.0000000045
 41
1.0
 10
0.0193309599564144
 20
-0.0715049440631237
 30
0.0000000045
 41
1.0
  0
SPLINE
  5
29A
330
26C
100
AcDbEntity
  8
image
  6
Continuous
370
     0
100
AcDbSpline
210
0.0
220
0.0
230
1.0
 70
    12
 71
     3
 72
     8
 73
     4
 74
     0
 42
0.0000000001
 43
0.0000000001
 40
0.0
 40
0.0
 40
0.0
 40
0.0
 40
1.0
 40
1.0
 40
1.0
 40
1.0
 10
0.0193309599564144
 20
-0.0715049440631237
 30
0.0000000045
 41
1.0
 10
0.0158246283175432
 20
-0.0886530972344835
 30
0.0000000045
 41
1.0
 10
0.0018569716903225
 20
-0.1013001125042967
 30
0.0000000045
 41
1.0
 10
-0.0058246627553658
 20
-0.116262575394189
 30
0.0000000045
 41
1.0
  0
SPLINE
  5
29B
330
26C
100
AcDbEntity
  8
image
  6
Continuous
370
     0
100
AcDbSpline
210
0.0
220
0.0
230
1.0
 70
    12
 71
     3
 72
     8
 73
     4
 74
     0
 42
0.0000000001
 43
0.0000000001
 40
0.0
 40
0.0
 40
0.0
 40
0.0
 40
1.0
 40
1.0
 40
1.0
 40
1.0
 10
-0.0058246627553658
 20
-0.116262575394189
 30
0.0000000045
 41
1.0
 10
-0.0097981208132309
 20
-0.1210953153832914
 30
0.0000000045
 41
1.0
 10
-0.0139705401236321
 20
-0.1273207841401396
 30
0.0000000045
 41
1.0
 10
-0.0164186285787329
 20
-0.1334770489830603
 30
0.0000000045
 41
1.0
  0
SPLINE
  5
29C
330
26C
100
AcDbEntity
  8
image
  6
Continuous
370
     0
100
AcDbSpline
210
0.0
220
0.0
230
1.0
 70
    12
 71
     3
 72
     8
 73
     4
 74
     0
 42
0.0000000001
 43
0.0000000001
 40
0.0
 40
0.0
 40
0.0
 40
0.0
 40
1.0
 40
1.0
 40
1.0
 40
1.0
 10
-0.0164186285787329
 20
-0.1334770489830603
 30
0.0000000045
 41
1.0
 10
-0.0170155123363367
 20
-0.1340047288267394
 30
0.0000000045
 41
1.0
 10
-0.0177421534325517
 20
-0.135065855506924
 30
0.0000000045
 41
1.0
 10
-0.0185379984426897
 20
-0.1342671270003715
 30
0.0000000045
 41
1.0
  0
SPLINE
  5
29D
330
26C
100
AcDbEntity
  8
image
  6
Continuous
370
     0
100
AcDbSpline
210
0.0
220
0.0
230
1.0
 70
    12
 71
     3
 72
     8
 73
     4
 74
     0
 42
0.0000000001
 43
0.0000000001
 40
0.0
 40
0.0
 40
0.0
 40
0.0
 40
1.0
 40
1.0
 40
1.0
 40
1.0
 10
-0.0185379984426897
 20
-0.1342671270003715
 30
0.0000000045
 41
1.0
 10
-0.020787125645255
 20
-0.129901513430263
 30
0.0000000045
 41
1.0
 10
-0.018935920947758
 20
-0.1249361326061367
 30
0.0000000045
 41
1.0
 10
-0.0180074351025987
 20
-0.1202360334520556
 30
0.0000000045
 41
1.0
  0
SPLINE
  5
29E
330
26C
100
AcDbEntity
  8
image
  6
Continuous
370
     0
100
AcDbSpline
210
0.0
220
0.0
230
1.0
 70
    12
 71
     3
 72
     8
 73
     4
 74
     0
 42
0.0000000001
 43
0.0000000001
 40
0.0
 40
0.0
 40
0.0
 40
0.0
 40
1.0
 40
1.0
 40
1.0
 40
1.0
 10
-0.0180074351025987
 20
-0.1202360334520556
 30
0.0000000045
 41
1.0
 10
-0.0180737555201072
 20
-0.1168565756553788
 30
0.0000000045
 41
1.0
 10
-0.0144347830462128
 20
-0.1140105646952092
 30
0.0000000045
 41
1.0
 10
-0.0161504634122731
 20
-0.1109655924825041
 30
0.0000000045
 41
1.0
  0
SPLINE
  5
29F
330
26C
100
AcDbEntity
  8
image
  6
Continuous
370
     0
100
AcDbSpline
210
0.0
220
0.0
230
1.0
 70
    12
 71
     3
 72
     8
 73
     4
 74
     0
 42
0.0000000001
 43
0.0000000001
 40
0.0
 40
0.0
 40
0.0
 40
0.0
 40
1.0
 40
1.0
 40
1.0
 40
1.0
 10
-0.0161504634122731
 20
-0.1109655924825041
 30
0.0000000045
 41
1.0
 10
-0.0190656782863679
 20
-0.1108992720649926
 30
0.0000000045
 41
1.0
 10
-0.0195962416264619
 20
-0.1175197798304941
 30
0.0000000045
 41
1.0
 10
-0.0219808931604644
 20
-0.1128196806764157
 30
0.0000000045
 41
1.0
  0
SPLINE
  5
2A0
330
26C
100
AcDbEntity
  8
image
  6
Continuous
370
     0
100
AcDbSpline
210
0.0
220
0.0
230
1.0
 70
    12
 71
     3
 72
     8
 73
     4
 74
     0
 42
0.0000000001
 43
0.0000000001
 40
0.0
 40
0.0
 40
0.0
 40
0.0
 40
1.0
 40
1.0
 40
1.0
 40
1.0
 10
-0.0219808931604644
 20
-0.1128196806764157
 30
0.0000000045
 41
1.0
 10
-0.0219145727429528
 20
-0.1077245425136777
 30
0.0000000045
 41
1.0
 10
-0.0202594458015768
 20
-0.102623637358116
 30
0.0000000045
 41
1.0
 10
-0.0182727167726427
 20
-0.0979898586215464
 30
0.0000000045
 41
1.0
  0
SPLINE
  5
2A1
330
26C
100
AcDbEntity
  8
image
  6
Continuous
370
     0
100
AcDbSpline
210
0.0
220
0.0
230
1.0
 70
    12
 71
     3
 72
     8
 73
     4
 74
     0
 42
0.0000000001
 43
0.0000000001
 40
0.0
 40
0.0
 40
0.0
 40
0.0
 40
1.0
 40
1.0
 40
1.0
 40
1.0
 10
-0.0182727167726427
 20
-0.0979898586215464
 30
0.0000000045
 41
1.0
 10
-0.0200604845490413
 20
-0.0952072845824725
 30
0.0000000045
 41
1.0
 10
-0.0222461748305096
 20
-0.0999765876504784
 30
0.0000000045
 41
1.0
 10
-0.0246279428680993
 20
-0.10010634498909
 30
0.0000000045
 41
1.0
  0
SPLINE
  5
2A2
330
26C
100
AcDbEntity
  8
image
  6
Continuous
370
     0
100
AcDbSpline
210
0.0
220
0.0
230
1.0
 70
    12
 71
     3
 72
     8
 73
     4
 74
     0
 42
0.0000000001
 43
0.0000000001
 40
0.0
 40
0.0
 40
0.0
 40
0.0
 40
1.0
 40
1.0
 40
1.0
 40
1.0
 10
-0.0246279428680993
 20
-0.10010634498909
 30
0.0000000045
 41
1.0
 10
-0.025556428713263
 20
-0.1000429080679899
 30
0.0000000045
 41
1.0
 10
-0.0264820310620109
 20
-0.0999765876504784
 30
0.0000000045
 41
1.0
 10
-0.0270097109056886
 20
-0.0990481018053178
 30
0.0000000045
 41
1.0
  0
SPLINE
  5
2A3
330
26C
100
AcDbEntity
  8
image
  6
Continuous
370
     0
100
AcDbSpline
210
0.0
220
0.0
230
1.0
 70
    12
 71
     3
 72
     8
 73
     4
 74
     0
 42
0.0000000001
 43
0.0000000001
 40
0.0
 40
0.0
 40
0.0
 40
0.0
 40
1.0
 40
1.0
 40
1.0
 40
1.0
 10
-0.0270097109056886
 20
-0.0990481018053178
 30
0.0000000045
 41
1.0
 10
-0.0262167493919638
 20
-0.0929552738834945
 30
0.0000000045
 41
1.0
 10
-0.0233678549353802
 20
-0.0876582909718087
 30
0.0000000045
 41
1.0
 10
-0.0225114565005566
 20
-0.0815683465463995
 30
0.0000000045
 41
1.0
  0
SPLINE
  5
2A4
330
26C
100
AcDbEntity
  8
image
  6
Continuous
370
     0
100
AcDbSpline
210
0.0
220
0.0
230
1.0
 70
    12
 71
     3
 72
     8
 73
     4
 74
     0
 42
0.0000000001
 43
0.0000000001
 40
0.0
 40
0.0
 40
0.0
 40
0.0
 40
1.0
 40
1.0
 40
1.0
 40
1.0
 10
-0.0288637990995988
 20
-0.0844806779240823
 30
0.0000000045
 41
1.0
 10
-0.0317126935561838
 20
-0.0848786004291515
 30
0.0000000045
 41
1.0
 10
-0.0301238870323206
 20
-0.0813030648763533
 30
0.0000000045
 41
1.0
 10
-0.030190207449829
 20
-0.0799795400225358
 30
0.0000000045
 41
1.0
  0
SPLINE
  5
2A5
330
26C
100
AcDbEntity
  8
image
  6
Continuous
370
     0
100
AcDbSpline
210
0.0
220
0.0
230
1.0
 70
    12
 71
     3
 72
     8
 73
     4
 74
     0
 42
0.0000000001
 43
0.0000000001
 40
0.0
 40
0.0
 40
0.0
 40
0.0
 40
1.0
 40
1.0
 40
1.0
 40
1.0
 10
-0.030190207449829
 20
-0.0799795400225358
 30
0.0000000045
 41
1.0
 10
-0.0294606828572026
 20
-0.0773324903149009
 30
0.0000000045
 41
1.0
 10
-0.0284053231698449
 20
-0.074815197945874
 30
0.0000000045
 41
1.0
 10
-0.0280737210822881
 20
-0.072035507403216
 30
0.0000000045
 41
1.0
  0
SPLINE
  5
2A6
330
26C
100
AcDbEntity
  8
image
  6
Continuous
370
     0
100
AcDbSpline
210
0.0
220
0.0
230
1.0
 70
    12
 71
     3
 72
     8
 73
     4
 74
     0
 42
0.0000000001
 43
0.0000000001
 40
0.0
 40
0.0
 40
0.0
 40
0.0
 40
1.0
 40
1.0
 40
1.0
 40
1.0
 10
-0.0280737210822881
 20
-0.072035507403216
 30
0.0000000045
 41
1.0
 10
-0.0292617216046667
 20
-0.0697200597831387
 30
0.0000000045
 41
1.0
 10
-0.0317790139736949
 20
-0.0724334299082834
 30
0.0000000045
 41
1.0
 10
-0.0328372571574653
 20
-0.0704438173829374
 30
0.0000000045
 41
1.0
  0
SPLINE
  5
2A7
330
26C
100
AcDbEntity
  8
image
  6
Continuous
370
     0
100
AcDbSpline
210
0.0
220
0.0
230
1.0
 70
    12
 71
     3
 72
     8
 73
     4
 74
     0
 42
0.0000000001
 43
0.0000000001
 40
0.0
 40
0.0
 40
0.0
 40
0.0
 40
1.0
 40
1.0
 40
1.0
 40
1.0
 10
-0.0328372571574653
 20
-0.0704438173829374
 30
0.0000000045
 41
1.0
 10
-0.0326382959049316
 20
-0.067863088092814
 30
0.0000000045
 41
1.0
 10
-0.0297288480236637
 20
-0.0646191546275743
 30
0.0000000045
 41
1.0
 10
-0.0323066938173731
 20
-0.0627650664336645
 30
0.0000000045
 41
1.0
  0
SPLINE
  5
2A8
330
26C
100
AcDbEntity
  8
image
  6
Continuous
370
     0
100
AcDbSpline
210
0.0
220
0.0
230
1.0
 70
    12
 71
     3
 72
     8
 73
     4
 74
     0
 42
0.0000000001
 43
0.0000000001
 40
0.0
 40
0.0
 40
0.0
 40
0.0
 40
1.0
 40
1.0
 40
1.0
 40
1.0
 10
-0.0323066938173731
 20
-0.0627650664336645
 30
0.0000000045
 41
1.0
 10
-0.0354843068651021
 20
-0.0645528342100636
 30
0.0000000045
 41
1.0
 10
-0.037537356311546
 20
-0.0664069224039716
 30
0.0000000045
 41
1.0
 10
-0.0402536099331083
 20
-0.0688550108590738
 30
0.0000000045
 41
1.0
  0
SPLINE
  5
2A9
330
26C
100
AcDbEntity
  8
image
  6
Continuous
370
     0
100
AcDbSpline
210
0.0
220
0.0
230
1.0
 70
    12
 71
     3
 72
     8
 73
     4
 74
     0
 42
0.0000000001
 43
0.0000000001
 40
0.0
 40
0.0
 40
0.0
 40
0.0
 40
1.0
 40
1.0
 40
1.0
 40
1.0
 10
-0.0402536099331083
 20
-0.0688550108590738
 30
0.0000000045
 41
1.0
 10
-0.0451497868433069
 20
-0.0726323911608207
 30
0.0000000045
 41
1.0
 10
-0.0505130901725042
 20
-0.0781283353250393
 30
0.0000000045
 41
1.0
 10
-0.0556111118316545
 20
-0.0820989098864935
 30
0.0000000045
 41
1.0
  0
SPLINE
  5
2AA
330
26C
100
AcDbEntity
  8
image
  6
Continuous
370
     0
100
AcDbSpline
210
0.0
220
0.0
230
1.0
 70
    12
 71
     3
 72
     8
 73
     4
 74
     0
 42
0.0000000001
 43
0.0000000001
 40
0.0
 40
0.0
 40
0.0
 40
0.0
 40
1.0
 40
1.0
 40
1.0
 40
1.0
 10
-0.0556111118316545
 20
-0.0820989098864935
 30
0.0000000045
 41
1.0
 10
-0.0627621829372505
 20
-0.0892499809920873
 30
0.0000000045
 41
1.0
 10
-0.0651468344712529
 20
-0.098583858882737
 30
0.0000000045
 41
1.0
 10
-0.0696479723727976
 20
-0.1072602995910969
 30
0.0000000045
 41
1.0
  0
SPLINE
  5
2AB
330
26C
100
AcDbEntity
  8
image
  6
Continuous
370
     0
100
AcDbSpline
210
0.0
220
0.0
230
1.0
 70
    12
 71
     3
 72
     8
 73
     4
 74
     0
 42
0.0000000001
 43
0.0000000001
 40
0.0
 40
0.0
 40
0.0
 40
0.0
 40
1.0
 40
1.0
 40
1.0
 40
1.0
 10
-0.0696479723727976
 20
-0.1072602995910969
 30
0.0000000045
 41
1.0
 10
-0.07428463460578
 20
-0.116129934559166
 30
0.0000000045
 41
1.0
 10
-0.0773296068184863
 20
-0.1250024530236491
 30
0.0000000045
 41
1.0
 10
-0.0823584245637124
 20
-0.1337394471566942
 30
0.0000000045
 41
1.0
  0
SPLINE
  5
2AC
330
26C
100
AcDbEntity
  8
image
  6
Continuous
370
     0
100
AcDbSpline
210
0.0
220
0.0
230
1.0
 70
    12
 71
     3
 72
     8
 73
     4
 74
     0
 42
0.0000000001
 43
0.0000000001
 40
0.0
 40
0.0
 40
0.0
 40
0.0
 40
1.0
 40
1.0
 40
1.0
 40
1.0
 10
-0.0823584245637124
 20
-0.1337394471566942
 30
0.0000000045
 41
1.0
 10
-0.0837511533314541
 20
-0.1361269821871112
 30
0.0000000045
 41
1.0
 10
-0.0844114740101545
 20
-0.1392353913209128
 30
0.0000000045
 41
1.0
 10
-0.0863318826215776
 20
-0.1408934017587038
 30
0.0000000045
 41
1.0
  0
SPLINE
  5
2AD
330
26C
100
AcDbEntity
  8
image
  6
Continuous
370
     0
100
AcDbSpline
210
0.0
220
0.0
230
1.0
 70
    12
 71
     3
 72
     8
 73
     4
 74
     0
 42
0.0000000001
 43
0.0000000001
 40
0.0
 40
0.0
 40
0.0
 40
0.0
 40
1.0
 40
1.0
 40
1.0
 40
1.0
 10
-0.0868624459616698
 20
-0.1400975567485636
 30
0.0000000045
 41
1.0
 10
-0.0847430760977113
 20
-0.1332117673130151
 30
0.0000000045
 41
1.0
 10
-0.0846104352626904
 20
-0.1264586187124888
 30
0.0000000045
 41
1.0
 10
-0.0828889879038033
 20
-0.1194430719383313
 30
0.0000000045
 41
1.0
  0
SPLINE
  5
2AE
330
26C
100
AcDbEntity
  8
image
  6
Continuous
370
     0
100
AcDbSpline
210
0.0
220
0.0
230
1.0
 70
    12
 71
     3
 72
     8
 73
     4
 74
     0
 42
0.0000000001
 43
0.0000000001
 40
0.0
 40
0.0
 40
0.0
 40
0.0
 40
1.0
 40
1.0
 40
1.0
 40
1.0
 10
-0.0828889879038033
 20
-0.1194430719383313
 30
0.0000000045
 41
1.0
 10
-0.083353230826384
 20
-0.1191085863543595
 30
0.0000000045
 41
1.0
 10
-0.0830187452424132
 20
-0.1183819452581458
 30
0.0000000045
 41
1.0
 10
-0.0836819494175281
 20
-0.1181166635880997
 30
0.0000000045
 41
1.0
  0
SPLINE
  5
2AF
330
26C
100
AcDbEntity
  8
image
  6
Continuous
370
     0
100
AcDbSpline
210
0.0
220
0.0
230
1.0
 70
    12
 71
     3
 72
     8
 73
     4
 74
     0
 42
0.0000000001
 43
0.0000000001
 40
0.0
 40
0.0
 40
0.0
 40
0.0
 40
1.0
 40
1.0
 40
1.0
 40
1.0
 10
-0.0836819494175281
 20
-0.1181166635880997
 30
0.0000000045
 41
1.0
 10
-0.0846767556802002
 20
-0.118180100509198
 30
0.0000000045
 41
1.0
 10
-0.0857349988639738
 20
-0.1189125085982381
 30
0.0000000045
 41
1.0
 10
-0.0865971642916228
 20
-0.118644343431777
 30
0.0000000045
 41
1.0
  0
SPLINE
  5
2B0
330
26C
100
AcDbEntity
  8
image
  6
Continuous
370
     0
100
AcDbSpline
210
0.0
220
0.0
230
1.0
 70
    12
 71
     3
 72
     8
 73
     4
 74
     0
 42
0.0000000001
 43
0.0000000001
 40
0.0
 40
0.0
 40
0.0
 40
0.0
 40
1.0
 40
1.0
 40
1.0
 40
1.0
 10
-0.0865971642916228
 20
-0.118644343431777
 30
0.0000000045
 41
1.0
 10
-0.0865971642916228
 20
-0.1152014487140036
 30
0.0000000045
 41
1.0
 10
-0.0820931428936653
 20
-0.1108358351438952
 30
0.0000000045
 41
1.0
 10
-0.0865971642916228
 20
-0.108315659278456
 30
0.0000000045
 41
1.0
  0
SPLINE
  5
2B1
330
26C
100
AcDbEntity
  8
image
  6
Continuous
370
     0
100
AcDbSpline
210
0.0
220
0.0
230
1.0
 70
    12
 71
     3
 72
     8
 73
     4
 74
     0
 42
0.0000000001
 43
0.0000000001
 40
0.0
 40
0.0
 40
0.0
 40
0.0
 40
1.0
 40
1.0
 40
1.0
 40
1.0
 10
-0.0865971642916228
 20
-0.108315659278456
 30
0.0000000045
 41
1.0
 10
-0.0863318826215776
 20
-0.1061328524933991
 30
0.0000000045
 41
1.0
 10
-0.0866634847091343
 20
-0.1036184436207881
 30
0.0000000045
 41
1.0
 10
-0.0889789323292125
 20
-0.1035521232032757
 30
0.0000000045
 41
1.0
  0
SPLINE
  5
2B2
330
26C
100
AcDbEntity
  8
image
  6
Continuous
370
     0
100
AcDbSpline
210
0.0
220
0.0
230
1.0
 70
    12
 71
     3
 72
     8
 73
     4
 74
     0
 42
0.0000000001
 43
0.0000000001
 40
0.0
 40
0.0
 40
0.0
 40
0.0
 40
1.0
 40
1.0
 40
1.0
 40
1.0
 10
-0.0889789323292125
 20
-0.1035521232032757
 30
0.0000000045
 41
1.0
 10
-0.0890481362431368
 20
-0.1014327533393207
 30
0.0000000045
 41
1.0
 10
-0.0918278267857962
 20
-0.1009021899992284
 30
0.0000000045
 41
1.0
 10
-0.0932176720571265
 20
-0.1019633166794129
 30
0.0000000045
 41
1.0
  0
SPLINE
  5
2B3
330
26C
100
AcDbEntity
  8
image
  6
Continuous
370
     0
100
AcDbSpline
210
0.0
220
0.0
230
1.0
 70
    12
 71
     3
 72
     8
 73
     4
 74
     0
 42
0.0000000001
 43
0.0000000001
 40
0.0
 40
0.0
 40
0.0
 40
0.0
 40
1.0
 40
1.0
 40
1.0
 40
1.0
 10
-0.0932176720571265
 20
-0.1019633166794129
 30
0.0000000045
 41
1.0
 10
-0.0938779927358273
 20
-0.1021593944355343
 30
0.0000000045
 41
1.0
 10
-0.0945411969109453
 20
-0.1032868415332313
 30
0.0000000045
 41
1.0
 10
-0.095337041921082
 20
-0.102490996523092
 30
0.0000000045
 41
1.0
  0
SPLINE
  5
2B4
330
26C
100
AcDbEntity
  8
image
  6
Continuous
370
     0
100
AcDbSpline
210
0.0
220
0.0
230
1.0
 70
    12
 71
     3
 72
     8
 73
     4
 74
     0
 42
0.0000000001
 43
0.0000000001
 40
0.0
 40
0.0
 40
0.0
 40
0.0
 40
1.0
 40
1.0
 40
1.0
 40
1.0
 10
-0.095337041921082
 20
-0.102490996523092
 30
0.0000000045
 41
1.0
 10
-0.095867605261176
 20
-0.1013664329218091
 30
0.0000000045
 41
1.0
 10
-0.0952044010860589
 20
-0.0995123447278985
 30
0.0000000045
 41
1.0
 10
-0.0966634502713122
 20
-0.0990481018053178
 30
0.0000000045
 41
1.0
  0
SPLINE
  5
2B5
330
26C
100
AcDbEntity
  8
image
  6
Continuous
370
     0
100
AcDbSpline
210
0.0
220
0.0
230
1.0
 70
    12
 71
     3
 72
     8
 73
     4
 74
     0
 42
0.0000000001
 43
0.0000000001
 40
0.0
 40
0.0
 40
0.0
 40
0.0
 40
1.0
 40
1.0
 40
1.0
 40
1.0
 10
-0.0966634502713122
 20
-0.0990481018053178
 30
0.0000000045
 41
1.0
 10
-0.1026178703652874
 20
-0.0997747429015306
 30
0.0000000045
 41
1.0
 10
-0.1062597263355962
 20
-0.1037510844558112
 30
0.0000000045
 41
1.0
 10
-0.1120209521698614
 20
-0.1048756480570949
 30
0.0000000045
 41
1.0
  0
SPLINE
  5
2B6
330
26C
100
AcDbEntity
  8
image
  6
Continuous
370
     0
100
AcDbSpline
210
0.0
220
0.0
230
1.0
 70
    12
 71
     3
 72
     8
 73
     4
 74
     0
 42
0.0000000001
 43
0.0000000001
 40
0.0
 40
0.0
 40
0.0
 40
0.0
 40
1.0
 40
1.0
 40
1.0
 40
1.0
 10
-0.1120209521698614
 20
-0.1048756480570949
 30
0.0000000045
 41
1.0
 10
-0.1124823115960298
 20
-0.1046738033081462
 30
0.0000000045
 41
1.0
 10
-0.1122170299259828
 20
-0.1041432399680549
 30
0.0000000045
 41
1.0
 10
-0.1122833503434939
 20
-0.1038145213769095
 30
0.0000000045
 41
1.0
  0
SPLINE
  5
2B7
330
26C
100
AcDbEntity
  8
image
  6
Continuous
370
     0
100
AcDbSpline
210
0.0
220
0.0
230
1.0
 70
    12
 71
     3
 72
     8
 73
     4
 74
     0
 42
0.0000000001
 43
0.0000000001
 40
0.0
 40
0.0
 40
0.0
 40
0.0
 40
1.0
 40
1.0
 40
1.0
 40
1.0
 10
-0.1122833503434939
 20
-0.1038145213769095
 30
0.0000000045
 41
1.0
 10
-0.098249373298764
 20
-0.0946132843212837
 30
0.0000000045
 41
1.0
 10
-0.0848093965152259
 20
-0.0840193184979139
 30
0.0000000045
 41
1.0
 10
-0.0717673422367562
 20
-0.0741519937707587
 30
0.0000000045
 41
1.0
  0
SPLINE
  5
2B8
330
26C
100
AcDbEntity
  8
image
  6
Continuous
370
     0
100
AcDbSpline
210
0.0
220
0.0
230
1.0
 70
    12
 71
     3
 72
     8
 73
     4
 74
     0
 42
0.0000000001
 43
0.0000000001
 40
0.0
 40
0.0
 40
0.0
 40
0.0
 40
1.0
 40
1.0
 40
1.0
 40
1.0
 10
-0.0717673422367562
 20
-0.0741519937707587
 30
0.0000000045
 41
1.0
 10
-0.067398845170231
 20
-0.0658763590638794
 30
0.0000000045
 41
1.0
 10
-0.0604467353171709
 20
-0.0579986468620728
 30
0.0000000045
 41
1.0
 10
-0.0572028018519322
 20
-0.0492587692326136
 30
0.0000000045
 41
1.0
  0
SPLINE
  5
2B9
330
26C
100
AcDbEntity
  8
image
  6
Continuous
370
     0
100
AcDbSpline
210
0.0
220
0.0
230
1.0
 70
    12
 71
     3
 72
     8
 73
     4
 74
     0
 42
0.0000000001
 43
0.0000000001
 40
0.0
 40
0.0
 40
0.0
 40
0.0
 40
1.0
 40
1.0
 40
1.0
 40
1.0
 10
-0.0572028018519322
 20
-0.0492587692326136
 30
0.0000000045
 41
1.0
 10
-0.0571335979380061
 20
-0.0474046810387039
 30
0.0000000045
 41
1.0
 10
-0.0594519290544988
 20
-0.0483302833874504
 30
0.0000000045
 41
1.0
 10
-0.0603775314032467
 20
-0.0484658077188875
 30
0.0000000045
 41
1.0
  0
SPLINE
  5
2BA
330
26C
100
AcDbEntity
  8
image
  6
Continuous
370
     0
100
AcDbSpline
210
0.0
220
0.0
230
1.0
 70
    12
 71
     3
 72
     8
 73
     4
 74
     0
 42
0.0000000001
 43
0.0000000001
 40
0.0
 40
0.0
 40
0.0
 40
0.0
 40
1.0
 40
1.0
 40
1.0
 40
1.0
 10
-0.0603775314032467
 20
-0.0484658077188875
 30
0.0000000045
 41
1.0
 10
-0.061173376413386
 20
-0.0489271671450551
 30
0.0000000045
 41
1.0
 10
-0.0623671439285936
 20
-0.0490626914764905
 30
0.0000000045
 41
1.0
 10
-0.0630274646072975
 20
-0.0489934875625675
 30
0.0000000045
 41
1.0
  0
SPLINE
  5
2BB
330
26C
100
AcDbEntity
  8
image
  6
Continuous
370
     0
100
AcDbSpline
210
0.0
220
0.0
230
1.0
 70
    12
 71
     3
 72
     8
 73
     4
 74
     0
 42
0.0000000001
 43
0.0000000001
 40
0.0
 40
0.0
 40
0.0
 40
0.0
 40
1.0
 40
1.0
 40
1.0
 40
1.0
 10
-0.0630274646072975
 20
-0.0489934875625675
 30
0.0000000045
 41
1.0
 10
-0.0642846690436021
 20
-0.0480015647963077
 30
0.0000000045
 41
1.0
 10
-0.0626958625197376
 20
-0.0456169132623048
 30
0.0000000045
 41
1.0
 10
-0.0643509894611136
 20
-0.0450200295047001
 30
0.0000000045
 41
1.0
  0
SPLINE
  5
2BC
330
26C
100
AcDbEntity
  8
image
  6
Continuous
370
     0
100
AcDbSpline
210
0.0
220
0.0
230
1.0
 70
    12
 71
     3
 72
     8
 73
     4
 74
     0
 42
0.0000000001
 43
0.0000000001
 40
0.0
 40
0.0
 40
0.0
 40
0.0
 40
1.0
 40
1.0
 40
1.0
 40
1.0
 10
-0.0643509894611136
 20
-0.0450200295047001
 30
0.0000000045
 41
1.0
 10
-0.069578768458872
 20
-0.0459485153498616
 30
0.0000000045
 41
1.0
 10
-0.0744835958583154
 20
-0.0497230121551944
 30
0.0000000045
 41
1.0
 10
-0.0789184133423491
 20
-0.0503170124163868
 30
0.0000000045
 41
1.0
  0
SPLINE
  5
2BD
330
26C
100
AcDbEntity
  8
image
  6
Continuous
370
     0
100
AcDbSpline
210
0.0
220
0.0
230
1.0
 70
    12
 71
     3
 72
     8
 73
     4
 74
     0
 42
0.0000000001
 43
0.0000000001
 40
0.0
 40
0.0
 40
0.0
 40
0.0
 40
1.0
 40
1.0
 40
1.0
 40
1.0
 10
-0.0789184133423491
 20
-0.0503170124163868
 30
0.0000000045
 41
1.0
 10
-0.0795124136035415
 20
-0.0476036422912376
 30
0.0000000045
 41
1.0
 10
-0.0757408002946218
 20
-0.0460119522709599
 30
0.0000000045
 41
1.0
 10
-0.0752102369545309
 20
-0.0434312229808365
 30
0.0000000045
 41
1.0
  0
SPLINE
  5
2BE
330
26C
100
AcDbEntity
  8
image
  6
Continuous
370
     0
100
AcDbSpline
210
0.0
220
0.0
230
1.0
 70
    12
 71
     3
 72
     8
 73
     4
 74
     0
 42
0.0000000001
 43
0.0000000001
 40
0.0
 40
0.0
 40
0.0
 40
0.0
 40
1.0
 40
1.0
 40
1.0
 40
1.0
 10
-0.0752102369545309
 20
-0.0434312229808365
 30
0.0000000045
 41
1.0
 10
-0.0756744798771103
 20
-0.0423729797970633
 30
0.0000000045
 41
1.0
 10
-0.0775256845746073
 20
-0.0419116203708985
 30
0.0000000045
 41
1.0
 10
-0.0783878500022581
 20
-0.0429035431371583
 30
0.0000000045
 41
1.0
  0
SPLINE
  5
2BF
330
26C
100
AcDbEntity
  8
image
  6
Continuous
370
     0
100
AcDbSpline
210
0.0
220
0.0
230
1.0
 70
    12
 71
     3
 72
     8
 73
     4
 74
     0
 42
0.0000000001
 43
0.0000000001
 40
0.0
 40
0.0
 40
0.0
 40
0.0
 40
1.0
 40
1.0
 40
1.0
 40
1.0
 10
-0.0783878500022581
 20
-0.0429035431371583
 30
0.0000000045
 41
1.0
 10
-0.0824910653987332
 20
-0.0450863499222116
 30
0.0000000045
 41
1.0
 10
-0.0864645234565989
 20
-0.0460119522709599
 30
0.0000000045
 41
1.0
 10
-0.0905706223494916
 20
-0.0482005260488414
 30
0.0000000045
 41
1.0
  0
SPLINE
  5
2C0
330
26C
100
AcDbEntity
  8
image
  6
Continuous
370
     0
100
AcDbSpline
210
0.0
220
0.0
230
1.0
 70
    12
 71
     3
 72
     8
 73
     4
 74
     0
 42
0.0000000001
 43
0.0000000001
 40
0.0
 40
0.0
 40
0.0
 40
0.0
 40
1.0
 40
1.0
 40
1.0
 40
1.0
 10
-0.0905706223494916
 20
-0.0482005260488414
 30
0.0000000045
 41
1.0
 10
-0.0920931084558432
 20
-0.0485321281363991
 30
0.0000000045
 41
1.0
 10
-0.0920931084558432
 20
-0.0464127582724441
 30
0.0000000045
 41
1.0
 10
-0.0916259820368493
 20
-0.0455505928447932
 30
0.0000000045
 41
1.0
  0
SPLINE
  5
2C1
330
26C
100
AcDbEntity
  8
image
  6
Continuous
370
     0
100
AcDbSpline
210
0.0
220
0.0
230
1.0
 70
    12
 71
     3
 72
     8
 73
     4
 74
     0
 42
0.0000000001
 43
0.0000000001
 40
0.0
 40
0.0
 40
0.0
 40
0.0
 40
1.0
 40
1.0
 40
1.0
 40
1.0
 10
-0.0916259820368493
 20
-0.0455505928447932
 30
0.0000000045
 41
1.0
 10
-0.090769583602027
 20
-0.0446884274171424
 30
0.0000000045
 41
1.0
 10
-0.0910983021931711
 20
-0.0436965046508826
 30
0.0000000045
 41
1.0
 10
-0.0910983021931711
 20
-0.0429035431371583
 30
0.0000000045
 41
1.0
  0
SPLINE
  5
2C2
330
26C
100
AcDbEntity
  8
image
  6
Continuous
370
     0
100
AcDbSpline
210
0.0
220
0.0
230
1.0
 70
    12
 71
     3
 72
     8
 73
     4
 74
     0
 42
0.0000000001
 43
0.0000000001
 40
0.0
 40
0.0
 40
0.0
 40
0.0
 40
1.0
 40
1.0
 40
1.0
 40
1.0
 10
-0.0921594288733543
 20
-0.0423729797970633
 30
0.0000000045
 41
1.0
 10
-0.0963289646873427
 20
-0.0437628250683941
 30
0.0000000045
 41
1.0
 10
-0.1000371410751639
 20
-0.0464127582724441
 30
0.0000000045
 41
1.0
 10
-0.1046074828906329
 20
-0.0468741176986107
 30
0.0000000045
 41
1.0
  0
SPLINE
  5
2C3
330
26C
100
AcDbEntity
  8
image
  6
Continuous
370
     0
100
AcDbSpline
210
0.0
220
0.0
230
1.0
 70
    12
 71
     3
 72
     8
 73
     4
 74
     0
 42
0.0000000001
 43
0.0000000001
 40
0.0
 40
0.0
 40
0.0
 40
0.0
 40
1.0
 40
1.0
 40
1.0
 40
1.0
 10
-0.1046074828906329
 20
-0.0468741176986107
 30
0.0000000045
 41
1.0
 10
-0.1057320464919162
 20
-0.0446884274171424
 30
0.0000000045
 41
1.0
 10
-0.1012280250939588
 20
-0.0427045818846228
 30
0.0000000045
 41
1.0
 10
-0.1040740360541261
 20
-0.0410465714468327
 30
0.0000000045
 41
1.0
  0
SPLINE
  5
2C4
330
26C
100
AcDbEntity
  8
image
  6
Continuous
370
     0
100
AcDbSpline
210
0.0
220
0.0
230
1.0
 70
    12
 71
     3
 72
     8
 73
     4
 74
     0
 42
0.0000000001
 43
0.0000000001
 40
0.0
 40
0.0
 40
0.0
 40
0.0
 40
1.0
 40
1.0
 40
1.0
 40
1.0
 10
-0.1040740360541261
 20
-0.0410465714468327
 30
0.0000000045
 41
1.0
 10
-0.1059310077444522
 20
-0.0405880955170792
 30
0.0000000045
 41
1.0
 10
-0.1066576488406672
 20
-0.0428372227196459
 30
0.0000000045
 41
1.0
 10
-0.1083127757820432
 20
-0.0429035431371583
 30
0.0000000045
 41
1.0
  0
SPLINE
  5
2C5
330
26C
100
AcDbEntity
  8
image
  6
Continuous
370
     0
100
AcDbSpline
210
0.0
220
0.0
230
1.0
 70
    12
 71
     3
 72
     8
 73
     4
 74
     0
 42
0.0000000001
 43
0.0000000001
 40
0.0
 40
0.0
 40
0.0
 40
0.0
 40
1.0
 40
1.0
 40
1.0
 40
1.0
 10
-0.1083127757820432
 20
-0.0429035431371583
 30
0.0000000045
 41
1.0
 10
-0.1129465545186092
 20
-0.0454871559236931
 30
0.0000000045
 41
1.0
 10
-0.1181772170127822
 20
-0.0464127582724441
 30
0.0000000045
 41
1.0
 10
-0.1231425978369081
 20
-0.0482005260488414
 30
0.0000000045
 41
1.0
  0
SPLINE
  5
2C6
330
26C
100
AcDbEntity
  8
image
  6
Continuous
370
     0
100
AcDbSpline
210
0.0
220
0.0
230
1.0
 70
    12
 71
     3
 72
     8
 73
     4
 74
     0
 42
0.0000000001
 43
0.0000000001
 40
0.0
 40
0.0
 40
0.0
 40
0.0
 40
1.0
 40
1.0
 40
1.0
 40
1.0
 10
-0.1231425978369081
 20
-0.0482005260488414
 30
0.0000000045
 41
1.0
 10
-0.1240018797681479
 20
-0.0483302833874504
 30
0.0000000045
 41
1.0
 10
-0.1250630064483311
 20
-0.0478054870401854
 30
0.0000000045
 41
1.0
 10
-0.1249966860308196
 20
-0.0468741176986107
 30
0.0000000045
 41
1.0
  0
SPLINE
  5
2C7
330
26C
100
AcDbEntity
  8
image
  6
Continuous
370
     0
100
AcDbSpline
210
0.0
220
0.0
230
1.0
 70
    12
 71
     3
 72
     8
 73
     4
 74
     0
 42
0.0000000001
 43
0.0000000001
 40
0.0
 40
0.0
 40
0.0
 40
0.0
 40
1.0
 40
1.0
 40
1.0
 40
1.0
 10
-0.1249966860308196
 20
-0.0468741176986107
 30
0.0000000045
 41
1.0
 10
-0.1107637477335537
 20
-0.0344952675952559
 30
0.0000000045
 41
1.0
 10
-0.0967268871924105
 20
-0.0195328047053654
 30
0.0000000045
 41
1.0
 10
-0.0842125127576208
 20
-0.0068857894355503
 30
0.0000000045
 41
1.0
  0
SPLINE
  5
2C8
330
26C
100
AcDbEntity
  8
image
  6
Continuous
370
     0
100
AcDbSpline
210
0.0
220
0.0
230
1.0
 70
    12
 71
     3
 72
     8
 73
     4
 74
     0
 42
0.0000000001
 43
0.0000000001
 40
0.0
 40
0.0
 40
0.0
 40
0.0
 40
1.0
 40
1.0
 40
1.0
 40
1.0
 10
0.0096424120068987
 20
0.3204948593728476
 30
0.0000000045
 41
1.0
 10
0.0096424120068987
 20
0.3216223064705428
 30
0.0000000045
 41
1.0
 10
0.0097519848706127
 20
0.3224469864448176
 30
0.0000000045
 41
1.0
 10
0.00996824710163
 20
0.3229717827920844
 30
0.0000000045
 41
1.0
  0
SPLINE
  5
2C9
330
26C
100
AcDbEntity
  8
image
  6
Continuous
370
     0
100
AcDbSpline
210
0.0
220
0.0
230
1.0
 70
    12
 71
     3
 72
     8
 73
     4
 74
     0
 42
0.0000000001
 43
0.0000000001
 40
0.0
 40
0.0
 40
0.0
 40
0.0
 40
1.0
 40
1.0
 40
1.0
 40
1.0
 10
0.00996824710163
 20
0.3229717827920844
 30
0.0000000045
 41
1.0
 10
0.0103604026138711
 20
0.3239089191264846
 30
0.0000000045
 41
1.0
 10
0.0111245291634612
 20
0.3243760455454794
 30
0.0000000045
 41
1.0
 10
0.0122635102468118
 20
0.3243760455454794
 30
0.0000000045
 41
1.0
  0
SPLINE
  5
2CA
330
26C
100
AcDbEntity
  8
image
  6
Continuous
370
     0
100
AcDbSpline
210
0.0
220
0.0
230
1.0
 70
    12
 71
     3
 72
     8
 73
     4
 74
     0
 42
0.0000000001
 43
0.0000000001
 40
0.0
 40
0.0
 40
0.0
 40
0.0
 40
1.0
 40
1.0
 40
1.0
 40
1.0
 10
0.0122635102468118
 20
0.3243760455454794
 30
0.0000000045
 41
1.0
 10
0.0130737727390189
 20
0.3243760455454794
 30
0.0000000045
 41
1.0
 10
0.0136706564966227
 20
0.3240790454148836
 30
0.0000000045
 41
1.0
 10
0.0140512780232123
 20
0.3234879286501071
 30
0.0000000045
 41
1.0
  0
SPLINE
  5
2CB
330
26C
100
AcDbEntity
  8
image
  6
Continuous
370
     0
100
AcDbSpline
210
0.0
220
0.0
230
1.0
 70
    12
 71
     3
 72
     8
 73
     4
 74
     0
 42
0.0000000001
 43
0.0000000001
 40
0.0
 40
0.0
 40
0.0
 40
0.0
 40
1.0
 40
1.0
 40
1.0
 40
1.0
 10
0.0140512780232123
 20
0.3234879286501071
 30
0.0000000045
 41
1.0
 10
0.0142531227721592
 20
0.3231736275410322
 30
0.0000000045
 41
1.0
 10
0.0144001810892491
 20
0.3227324525897579
 30
0.0000000045
 41
1.0
 10
0.0144895694780698
 20
0.322173054285531
 30
0.0000000045
 41
1.0
  0
SPLINE
  5
2CC
330
26C
100
AcDbEntity
  8
image
  6
Continuous
370
     0
100
AcDbSpline
210
0.0
220
0.0
230
1.0
 70
    12
 71
     3
 72
     8
 73
     4
 74
     0
 42
0.0000000001
 43
0.0000000001
 40
0.0
 40
0.0
 40
0.0
 40
0.0
 40
1.0
 40
1.0
 40
1.0
 40
1.0
 10
0.0144895694780698
 20
0.322173054285531
 30
0.0000000045
 41
1.0
 10
0.0146020258381992
 20
0.322885277899676
 30
0.0000000045
 41
1.0
 10
0.0148990259687922
 20
0.3234043072541146
 30
0.0000000045
 41
1.0
 10
0.0153776863734425
 20
0.32373302584526
 30
0.0000000045
 41
1.0
  0
SPLINE
  5
2CD
330
26C
100
AcDbEntity
  8
image
  6
Continuous
370
     0
100
AcDbSpline
210
0.0
220
0.0
230
1.0
 70
    12
 71
     3
 72
     8
 73
     4
 74
     0
 42
0.0000000001
 43
0.0000000001
 40
0.0
 40
0.0
 40
0.0
 40
0.0
 40
1.0
 40
1.0
 40
1.0
 40
1.0
 10
0.0153776863734425
 20
0.32373302584526
 30
0.0000000045
 41
1.0
 10
0.0158592302745038
 20
0.3240646279328168
 30
0.0000000045
 41
1.0
 10
0.0163263566934977
 20
0.3242261037319754
 30
0.0000000045
 41
1.0
 10
0.0167848326232516
 20
0.3242289872283885
 30
0.0000000045
 41
1.0
  0
SPLINE
  5
2CE
330
26C
100
AcDbEntity
  8
image
  6
Continuous
370
     0
100
AcDbSpline
210
0.0
220
0.0
230
1.0
 70
    12
 71
     3
 72
     8
 73
     4
 74
     0
 42
0.0000000001
 43
0.0000000001
 40
0.0
 40
0.0
 40
0.0
 40
0.0
 40
1.0
 40
1.0
 40
1.0
 40
1.0
 10
0.0174480367983665
 20
0.3242289872283885
 30
0.0000000045
 41
1.0
 10
0.0176556485401442
 20
0.3242289872283885
 30
0.0000000045
 41
1.0
 10
0.017883444756813
 20
0.3242347542212167
 30
0.0000000045
 41
1.0
 10
0.0181227749591382
 20
0.3242520551996968
 30
0.0000000045
 41
1.0
  0
SPLINE
  5
2CF
330
26C
100
AcDbEntity
  8
image
  6
Continuous
370
     0
100
AcDbSpline
210
0.0
220
0.0
230
1.0
 70
    12
 71
     3
 72
     8
 73
     4
 74
     0
 42
0.0000000001
 43
0.0000000001
 40
0.0
 40
0.0
 40
0.0
 40
0.0
 40
1.0
 40
1.0
 40
1.0
 40
1.0
 10
0.0181227749591382
 20
0.3242520551996968
 30
0.0000000045
 41
1.0
 10
0.0183621051614629
 20
0.3242664726817654
 30
0.0000000045
 41
1.0
 10
0.0185178139677951
 20
0.324295307645901
 30
0.0000000045
 41
1.0
 10
0.0185956683709607
 20
0.3243299096028638
 30
0.0000000045
 41
1.0
  0
SPLINE
  5
2D0
330
26C
100
AcDbEntity
  8
image
  6
Continuous
370
     0
100
AcDbSpline
210
0.0
220
0.0
230
1.0
 70
    12
 71
     3
 72
     8
 73
     4
 74
     0
 42
0.0000000001
 43
0.0000000001
 40
0.0
 40
0.0
 40
0.0
 40
0.0
 40
1.0
 40
1.0
 40
1.0
 40
1.0
 10
0.0187052412346742
 20
0.3228910448925033
 30
0.0000000045
 41
1.0
 10
0.0186764062705396
 20
0.322885277899676
 30
0.0000000045
 41
1.0
 10
0.0186475713064032
 20
0.3228766274104355
 30
0.0000000045
 41
1.0
 10
0.0186158528458553
 20
0.3228708604176083
 30
0.0000000045
 41
1.0
  0
SPLINE
  5
2D1
330
26C
100
AcDbEntity
  8
image
  6
Continuous
370
     0
100
AcDbSpline
210
0.0
220
0.0
230
1.0
 70
    12
 71
     3
 72
     8
 73
     4
 74
     0
 42
0.0000000001
 43
0.0000000001
 40
0.0
 40
0.0
 40
0.0
 40
0.0
 40
1.0
 40
1.0
 40
1.0
 40
1.0
 10
0.0186158528458553
 20
0.3228708604176083
 30
0.0000000045
 41
1.0
 10
0.0185870178817176
 20
0.3228593264319537
 30
0.0000000045
 41
1.0
 10
0.018552415924757
 20
0.3228535594391282
 30
0.0000000045
 41
1.0
 10
0.0185149304713805
 20
0.3228477924463018
 30
0.0000000045
 41
1.0
  0
SPLINE
  5
2D2
330
26C
100
AcDbEntity
  8
image
  6
Continuous
370
     0
100
AcDbSpline
210
0.0
220
0.0
230
1.0
 70
    12
 71
     3
 72
     8
 73
     4
 74
     0
 42
0.0000000001
 43
0.0000000001
 40
0.0
 40
0.0
 40
0.0
 40
0.0
 40
1.0
 40
1.0
 40
1.0
 40
1.0
 10
0.0175028232302266
 20
0.3228131904893372
 30
0.0000000045
 41
1.0
 10
0.0164561140321076
 20
0.3228131904893372
 30
0.0000000045
 41
1.0
 10
0.0157611913964431
 20
0.3225277243443951
 30
0.0000000045
 41
1.0
 10
0.0154238223160577
 20
0.3219567920545137
 30
0.0000000045
 41
1.0
  0
SPLINE
  5
2D3
330
26C
100
AcDbEntity
  8
image
  6
Continuous
370
     0
100
AcDbSpline
210
0.0
220
0.0
230
1.0
 70
    12
 71
     3
 72
     8
 73
     4
 74
     0
 42
0.0000000001
 43
0.0000000001
 40
0.0
 40
0.0
 40
0.0
 40
0.0
 40
1.0
 40
1.0
 40
1.0
 40
1.0
 10
0.0154238223160577
 20
0.3219567920545137
 30
0.0000000045
 41
1.0
 10
0.015227744559938
 20
0.3216223064705428
 30
0.0000000045
 41
1.0
 10
0.0151297056818773
 20
0.3210283062093522
 30
0.0000000045
 41
1.0
 10
0.0151297056818773
 20
0.32018055826377
 30
0.0000000045
 41
1.0
  0
SPLINE
  5
2D4
330
26C
100
AcDbEntity
  8
image
  6
Continuous
370
     0
100
AcDbSpline
210
0.0
220
0.0
230
1.0
 70
    12
 71
     3
 72
     8
 73
     4
 74
     0
 42
0.0000000001
 43
0.0000000001
 40
0.0
 40
0.0
 40
0.0
 40
0.0
 40
1.0
 40
1.0
 40
1.0
 40
1.0
 10
0.011072626228017
 20
0.3222047727460797
 30
0.0000000045
 41
1.0
 10
0.0108477135077596
 20
0.3218068502410114
 30
0.0000000045
 41
1.0
 10
0.0107352571476316
 20
0.3211667140372034
 30
0.0000000045
 41
1.0
 10
0.0107352571476316
 20
0.3202814806382452
 30
0.0000000045
 41
1.0
  0
SPLINE
  5
2D5
330
26C
100
AcDbEntity
  8
image
  6
Continuous
370
     0
100
AcDbSpline
210
0.0
220
0.0
230
1.0
 70
    12
 71
     3
 72
     8
 73
     4
 74
     0
 42
0.0000000001
 43
0.0000000001
 40
0.0
 40
0.0
 40
0.0
 40
0.0
 40
1.0
 40
1.0
 40
1.0
 40
1.0
 10
0.0140166760662486
 20
0.3203593350414096
 30
0.0000000045
 41
1.0
 10
0.0140166760662486
 20
0.3210369566985918
 30
0.0000000045
 41
1.0
 10
0.0139474721523225
 20
0.3215415685709644
 30
0.0000000045
 41
1.0
 10
0.0138148313173017
 20
0.3218789376513493
 30
0.0000000045
 41
1.0
  0
SPLINE
  5
2D6
330
26C
100
AcDbEntity
  8
image
  6
Continuous
370
     0
100
AcDbSpline
210
0.0
220
0.0
230
1.0
 70
    12
 71
     3
 72
     8
 73
     4
 74
     0
 42
0.0000000001
 43
0.0000000001
 40
0.0
 40
0.0
 40
0.0
 40
0.0
 40
1.0
 40
1.0
 40
1.0
 40
1.0
 10
0.0138148313173017
 20
0.3218789376513493
 30
0.0000000045
 41
1.0
 10
0.0135697341221475
 20
0.3225017728766737
 30
0.0000000045
 41
1.0
 10
0.0130968407103263
 20
0.322810306992924
 30
0.0000000045
 41
1.0
 10
0.0123990345782508
 20
0.3228131904893372
 30
0.0000000045
 41
1.0
  0
SPLINE
  5
2D7
330
26C
100
AcDbEntity
  8
image
  6
Continuous
370
     0
100
AcDbSpline
210
0.0
220
0.0
230
1.0
 70
    12
 71
     3
 72
     8
 73
     4
 74
     0
 42
0.0000000001
 43
0.0000000001
 40
0.0
 40
0.0
 40
0.0
 40
0.0
 40
1.0
 40
1.0
 40
1.0
 40
1.0
 10
0.0123990345782508
 20
0.3228131904893372
 30
0.0000000045
 41
1.0
 10
0.0117387138995469
 20
0.3228131904893372
 30
0.0000000045
 41
1.0
 10
0.0112946554518603
 20
0.3226113457403894
 30
0.0000000045
 41
1.0
 10
0.011072626228017
 20
0.3222047727460797
 30
0.0000000045
 41
1.0
  0
SPLINE
  5
2D8
330
26C
100
AcDbEntity
  8
image
  6
Continuous
370
     0
100
AcDbSpline
210
0.0
220
0.0
230
1.0
 70
    12
 71
     3
 72
     8
 73
     4
 74
     0
 42
0.0000000001
 43
0.0000000001
 40
0.0
 40
0.0
 40
0.0
 40
0.0
 40
1.0
 40
1.0
 40
1.0
 40
1.0
 10
0.0200547175562154
 20
0.3264982989058494
 30
0.0000000045
 41
1.0
 10
0.0216723590442132
 20
0.3248893079070907
 30
0.0000000045
 41
1.0
 10
0.0224855050328343
 20
0.3229371808351216
 30
0.0000000045
 41
1.0
 10
0.0224855050328343
 20
0.3206534516755903
 30
0.0000000045
 41
1.0
  0
SPLINE
  5
2D9
330
26C
100
AcDbEntity
  8
image
  6
Continuous
370
     0
100
AcDbSpline
210
0.0
220
0.0
230
1.0
 70
    12
 71
     3
 72
     8
 73
     4
 74
     0
 42
0.0000000001
 43
0.0000000001
 40
0.0
 40
0.0
 40
0.0
 40
0.0
 40
1.0
 40
1.0
 40
1.0
 40
1.0
 10
0.0224855050328343
 20
0.3206534516755903
 30
0.0000000045
 41
1.0
 10
0.0224855050328343
 20
0.3183668390196486
 30
0.0000000045
 41
1.0
 10
0.0216723590442132
 20
0.316420478940505
 30
0.0000000045
 41
1.0
 10
0.0200547175562154
 20
0.3148172549345727
 30
0.0000000045
 41
1.0
  0
SPLINE
  5
2DA
330
26C
100
AcDbEntity
  8
image
  6
Continuous
370
     0
100
AcDbSpline
210
0.0
220
0.0
230
1.0
 70
    12
 71
     3
 72
     8
 73
     4
 74
     0
 42
0.0000000001
 43
0.0000000001
 40
0.0
 40
0.0
 40
0.0
 40
0.0
 40
1.0
 40
1.0
 40
1.0
 40
1.0
 10
0.0200547175562154
 20
0.3148172549345727
 30
0.0000000045
 41
1.0
 10
0.0184457265574563
 20
0.3132197979214695
 30
0.0000000045
 41
1.0
 10
0.0164907159890713
 20
0.312421069414917
 30
0.0000000045
 41
1.0
 10
0.0141983363403022
 20
0.312421069414917
 30
0.0000000045
 41
1.0
  0
SPLINE
  5
2DB
330
26C
100
AcDbEntity
  8
image
  6
Continuous
370
     0
100
AcDbSpline
210
0.0
220
0.0
230
1.0
 70
    12
 71
     3
 72
     8
 73
     4
 74
     0
 42
0.0000000001
 43
0.0000000001
 40
0.0
 40
0.0
 40
0.0
 40
0.0
 40
1.0
 40
1.0
 40
1.0
 40
1.0
 10
0.0141983363403022
 20
0.312421069414917
 30
0.0000000045
 41
1.0
 10
0.0119261411664278
 20
0.312421069414917
 30
0.0000000045
 41
1.0
 10
0.0099826645836973
 20
0.31322844841071
 30
0.0000000045
 41
1.0
 10
0.0083736735849365
 20
0.3148403229058809
 30
0.0000000045
 41
1.0
  0
SPLINE
  5
2DC
330
26C
100
AcDbEntity
  8
image
  6
Continuous
370
     0
100
AcDbSpline
210
0.0
220
0.0
230
1.0
 70
    12
 71
     3
 72
     8
 73
     4
 74
     0
 42
0.0000000001
 43
0.0000000001
 40
0.0
 40
0.0
 40
0.0
 40
0.0
 40
1.0
 40
1.0
 40
1.0
 40
1.0
 10
0.0083736735849365
 20
0.3148403229058809
 30
0.0000000045
 41
1.0
 10
0.0067675660825919
 20
0.3164435469118114
 30
0.0000000045
 41
1.0
 10
0.0059659540796266
 20
0.3183812565017172
 30
0.0000000045
 41
1.0
 10
0.0059659540796266
 20
0.3206534516755903
 30
0.0000000045
 41
1.0
  0
SPLINE
  5
2DD
330
26C
100
AcDbEntity
  8
image
  6
Continuous
370
     0
100
AcDbSpline
210
0.0
220
0.0
230
1.0
 70
    12
 71
     3
 72
     8
 73
     4
 74
     0
 42
0.0000000001
 43
0.0000000001
 40
0.0
 40
0.0
 40
0.0
 40
0.0
 40
1.0
 40
1.0
 40
1.0
 40
1.0
 10
0.0059659540796266
 20
0.3206534516755903
 30
0.0000000045
 41
1.0
 10
0.0059659540796266
 20
0.3229371808351216
 30
0.0000000045
 41
1.0
 10
0.0067675660825919
 20
0.3248893079070907
 30
0.0000000045
 41
1.0
 10
0.0083736735849365
 20
0.3264982989058494
 30
0.0000000045
 41
1.0
  0
SPLINE
  5
2DE
330
26C
100
AcDbEntity
  8
image
  6
Continuous
370
     0
100
AcDbSpline
210
0.0
220
0.0
230
1.0
 70
    12
 71
     3
 72
     8
 73
     4
 74
     0
 42
0.0000000001
 43
0.0000000001
 40
0.0
 40
0.0
 40
0.0
 40
0.0
 40
1.0
 40
1.0
 40
1.0
 40
1.0
 10
0.0083736735849365
 20
0.3264982989058494
 30
0.0000000045
 41
1.0
 10
0.0099768975908701
 20
0.3281101734010221
 30
0.0000000045
 41
1.0
 10
0.011917490677186
 20
0.3289175523968142
 30
0.0000000045
 41
1.0
 10
0.0141983363403022
 20
0.3289175523968142
 30
0.0000000045
 41
1.0
  0
SPLINE
  5
2DF
330
26C
100
AcDbEntity
  8
image
  6
Continuous
370
     0
100
AcDbSpline
210
0.0
220
0.0
230
1.0
 70
    12
 71
     3
 72
     8
 73
     4
 74
     0
 42
0.0000000001
 43
0.0000000001
 40
0.0
 40
0.0
 40
0.0
 40
0.0
 40
1.0
 40
1.0
 40
1.0
 40
1.0
 10
0.0141983363403022
 20
0.3289175523968142
 30
0.0000000045
 41
1.0
 10
0.0164820654998295
 20
0.3289175523968142
 30
0.0000000045
 41
1.0
 10
0.0184370760682162
 20
0.3281101734010221
 30
0.0000000045
 41
1.0
 10
0.0200547175562154
 20
0.3264982989058494
 30
0.0000000045
 41
1.0
  0
SPLINE
  5
2E0
330
26C
100
AcDbEntity
  8
image
  6
Continuous
370
     0
100
AcDbSpline
210
0.0
220
0.0
230
1.0
 70
    12
 71
     3
 72
     8
 73
     4
 74
     0
 42
0.0000000001
 43
0.0000000001
 40
0.0
 40
0.0
 40
0.0
 40
0.0
 40
1.0
 40
1.0
 40
1.0
 40
1.0
 10
0.0091695185950793
 20
0.3156390514124343
 30
0.0000000045
 41
1.0
 10
0.0105593638664066
 20
0.3142578566303458
 30
0.0000000045
 41
1.0
 10
0.0122346752826754
 20
0.3135687009875081
 30
0.0000000045
 41
1.0
 10
0.0141983363403022
 20
0.3135687009875081
 30
0.0000000045
 41
1.0
  0
SPLINE
  5
2E1
330
26C
100
AcDbEntity
  8
image
  6
Continuous
370
     0
100
AcDbSpline
210
0.0
220
0.0
230
1.0
 70
    12
 71
     3
 72
     8
 73
     4
 74
     0
 42
0.0000000001
 43
0.0000000001
 40
0.0
 40
0.0
 40
0.0
 40
0.0
 40
1.0
 40
1.0
 40
1.0
 40
1.0
 10
0.0141983363403022
 20
0.3135687009875081
 30
0.0000000045
 41
1.0
 10
0.0161764148799932
 20
0.3135687009875081
 30
0.0000000045
 41
1.0
 10
0.0178632602819198
 20
0.3142549731339326
 30
0.0000000045
 41
1.0
 10
0.0192588725460743
 20
0.3156275174267789
 30
0.0000000045
 41
1.0
  0
SPLINE
  5
2E2
330
26C
100
AcDbEntity
  8
image
  6
Continuous
370
     0
100
AcDbSpline
210
0.0
220
0.0
230
1.0
 70
    12
 71
     3
 72
     8
 73
     4
 74
     0
 42
0.0000000001
 43
0.0000000001
 40
0.0
 40
0.0
 40
0.0
 40
0.0
 40
1.0
 40
1.0
 40
1.0
 40
1.0
 10
0.0192588725460743
 20
0.3156275174267789
 30
0.0000000045
 41
1.0
 10
0.0206516013138161
 20
0.3170058287124551
 30
0.0000000045
 41
1.0
 10
0.0213494074458982
 20
0.3186811401287262
 30
0.0000000045
 41
1.0
 10
0.0213494074458982
 20
0.3206534516755903
 30
0.0000000045
 41
1.0
  0
SPLINE
  5
2E3
330
26C
100
AcDbEntity
  8
image
  6
Continuous
370
     0
100
AcDbSpline
210
0.0
220
0.0
230
1.0
 70
    12
 71
     3
 72
     8
 73
     4
 74
     0
 42
0.0000000001
 43
0.0000000001
 40
0.0
 40
0.0
 40
0.0
 40
0.0
 40
1.0
 40
1.0
 40
1.0
 40
1.0
 10
0.0213494074458982
 20
0.3206534516755903
 30
0.0000000045
 41
1.0
 10
0.0213494074458982
 20
0.3226257632224563
 30
0.0000000045
 41
1.0
 10
0.0206516013138161
 20
0.3243010746387265
 30
0.0000000045
 41
1.0
 10
0.0192588725460743
 20
0.3256793859244027
 30
0.0000000045
 41
1.0
  0
SPLINE
  5
2E4
330
26C
100
AcDbEntity
  8
image
  6
Continuous
370
     0
100
AcDbSpline
210
0.0
220
0.0
230
1.0
 70
    12
 71
     3
 72
     8
 73
     4
 74
     0
 42
0.0000000001
 43
0.0000000001
 40
0.0
 40
0.0
 40
0.0
 40
0.0
 40
1.0
 40
1.0
 40
1.0
 40
1.0
 10
0.0192588725460743
 20
0.3256793859244027
 30
0.0000000045
 41
1.0
 10
0.0178632602819198
 20
0.327057697210078
 30
0.0000000045
 41
1.0
 10
0.0161764148799932
 20
0.3277468528529157
 30
0.0000000045
 41
1.0
 10
0.0141983363403022
 20
0.3277468528529157
 30
0.0000000045
 41
1.0
  0
SPLINE
  5
2E5
330
26C
100
AcDbEntity
  8
image
  6
Continuous
370
     0
100
AcDbSpline
210
0.0
220
0.0
230
1.0
 70
    12
 71
     3
 72
     8
 73
     4
 74
     0
 42
0.0000000001
 43
0.0000000001
 40
0.0
 40
0.0
 40
0.0
 40
0.0
 40
1.0
 40
1.0
 40
1.0
 40
1.0
 10
0.0141983363403022
 20
0.3277468528529157
 30
0.0000000045
 41
1.0
 10
0.0122346752826754
 20
0.3277468528529157
 30
0.0000000045
 41
1.0
 10
0.0105593638664066
 20
0.327057697210078
 30
0.0000000045
 41
1.0
 10
0.0091695185950793
 20
0.3256793859244027
 30
0.0000000045
 41
1.0
  0
SPLINE
  5
2E6
330
26C
100
AcDbEntity
  8
image
  6
Continuous
370
     0
100
AcDbSpline
210
0.0
220
0.0
230
1.0
 70
    12
 71
     3
 72
     8
 73
     4
 74
     0
 42
0.0000000001
 43
0.0000000001
 40
0.0
 40
0.0
 40
0.0
 40
0.0
 40
1.0
 40
1.0
 40
1.0
 40
1.0
 10
0.0091695185950793
 20
0.3256793859244027
 30
0.0000000045
 41
1.0
 10
0.0077767898273327
 20
0.324295307645901
 30
0.0000000045
 41
1.0
 10
0.0070789836952554
 20
0.3226171127332158
 30
0.0000000045
 41
1.0
 10
0.0070789836952554
 20
0.3206534516755903
 30
0.0000000045
 41
1.0
  0
SPLINE
  5
2E7
330
26C
100
AcDbEntity
  8
image
  6
Continuous
370
     0
100
AcDbSpline
210
0.0
220
0.0
230
1.0
 70
    12
 71
     3
 72
     8
 73
     4
 74
     0
 42
0.0000000001
 43
0.0000000001
 40
0.0
 40
0.0
 40
0.0
 40
0.0
 40
1.0
 40
1.0
 40
1.0
 40
1.0
 10
0.0070789836952554
 20
0.3206534516755903
 30
0.0000000045
 41
1.0
 10
0.0070789836952554
 20
0.3186955576107939
 30
0.0000000045
 41
1.0
 10
0.0077767898273327
 20
0.3170231296909369
 30
0.0000000045
 41
1.0
 10
0.0091695185950793
 20
0.3156390514124343
 30
0.0000000045
 41
1.0
  0
LWPOLYLINE
  5
2E8
330
26C
100
AcDbEntity
  8
image
100
AcDbPolyline
 90
        2
 70
     0
 43
0.0
 10
-0.0399047068670666
 20
0.2722308964029079
 10
0.0016724279198574
 20
0.2552817044840818
  0
LWPOLYLINE
  5
2E9
330
26C
100
AcDbEntity
  8
image
100
AcDbPolyline
 90
        4
 70
     0
 43
0.0
 10
-0.058442705309758
 20
0.2928882647095534
 10
-0.0582206760859148
 20
0.2548347625399829
 10
0.0223355632193285
 20
0.2206278445860832
 10
0.0223297962265026
 20
0.2676634380838498
  0
LWPOLYLINE
  5
2EA
330
26C
100
AcDbEntity
  8
image
100
AcDbPolyline
 90
        4
 70
     0
 43
0.0
 10
0.0140166760662486
 20
0.3203593350414096
 10
0.0140166760662486
 20
0.31892047033105
 10
0.0107352571476316
 20
0.31892047033105
 10
0.0107352571476316
 20
0.3202814806382452
  0
LWPOLYLINE
  5
2EB
330
26C
100
AcDbEntity
  8
image
100
AcDbPolyline
 90
        6
 70
     0
 43
0.0
 10
0.0096424120068987
 20
0.3204948593728476
 10
0.0096424120068987
 20
0.3173258968143591
 10
0.0187052412346742
 20
0.3173258968143591
 10
0.0187052412346742
 20
0.31892047033105
 10
0.0151297056818773
 20
0.31892047033105
 10
0.0151297056818773
 20
0.32018055826377
  0
LWPOLYLINE
  5
2EC
330
26C
100
AcDbEntity
  8
image
100
AcDbPolyline
 90
        6
 70
     0
 43
0.0
 10
0.0175028232302266
 20
0.3228131904893372
 10
0.0182208138371984
 20
0.3228131904893372
 10
0.0187052412346742
 20
0.3228701819478665
 10
0.0187052412346742
 20
0.3243875795311348
 10
0.0184039158594605
 20
0.3242289872283885
 10
0.0167848326232516
 20
0.3242289872283885
  0
LWPOLYLINE
  5
2ED
330
26C
100
AcDbEntity
  8
image
100
AcDbPolyline
 90
        4
 70
     1
 43
0.0
 10
-0.0582206760859148
 20
0.1582780016359706
 10
-0.0582206760859148
 20
0.1328974662039357
 10
0.0223297962265026
 20
0.0961184694491539
 10
0.0223297962265026
 20
0.1226005005111617
  0
LWPOLYLINE
  5
2EE
330
26C
100
AcDbEntity
  8
image
100
AcDbPolyline
 90
        2
 70
     0
 43
0.0
 10
-0.021631990094424
 20
0.0563896558633115
 10
0.0014071462498091
 20
0.0460609717099887
  0
LWPOLYLINE
  5
2EF
330
26C
100
AcDbEntity
  8
image
100
AcDbPolyline
 90
        2
 70
     0
 43
0.0
 10
-0.0632091248813516
 20
0.0748872853562102
 10
-0.0428170382447504
 20
0.0653515627166144
  0
LWPOLYLINE
  5
2F0
330
26C
100
AcDbEntity
  8
image
100
AcDbPolyline
 90
        4
 70
     0
 43
0.0
 10
-0.085804202777898
 20
0.1020123361184408
 10
-0.085804202777898
 20
0.0575834233785191
 10
0.0223355632193285
 20
0.0054411577323616
 10
0.0223355632193285
 20
0.065810038646366
  0
LWPOLYLINE
  5
2F1
330
26C
100
AcDbEntity
  8
image
100
AcDbPolyline
 90
        2
 70
     0
 43
0.0
 10
-0.0393770270233902
 20
0.1895581707301206
 10
-0.0229555149482432
 20
0.1824070996245277
  0
LWPOLYLINE
  5
2F2
330
26C
100
AcDbEntity
  8
image
100
AcDbPolyline
 90
        2
 70
     0
 43
0.0
 10
-0.0921594288733543
 20
-0.0423729797970633
 10
-0.0910983021931711
 20
-0.0429035431371583
  0
LWPOLYLINE
  5
2F3
330
26C
100
AcDbEntity
  8
image
100
AcDbPolyline
 90
        2
 70
     0
 43
0.0
 10
-0.0868624459616698
 20
-0.1400975567485636
 10
-0.0863318826215776
 20
-0.1408934017587038
  0
LWPOLYLINE
  5
2F4
330
26C
100
AcDbEntity
  8
image
100
AcDbPolyline
 90
        3
 70
     0
 43
0.0
 10
-0.0288637990995988
 20
-0.0844806779240823
 10
-0.0235696996843289
 20
-0.0805101033626272
 10
-0.0225114565005566
 20
-0.0815683465463995
  0
LWPOLYLINE
  5
2F5
330
26C
100
AcDbEntity
  8
image
100
AcDbPolyline
 90
        7
 70
     0
 43
0.0
 10
-0.0582206760859148
 20
0.1745553388904391
 10
0.0223297962265026
 20
0.1379608859061223
 10
0.0223355632193285
 20
0.1637970137714992
 10
-0.0060092065258308
 20
0.1760980094716862
 10
0.0223355632193285
 20
0.1883499857328452
 10
0.0223355632193285
 20
0.2123522098792057
 10
-0.0057439248557838
 20
0.201253632183465
  0
LWPOLYLINE
  5
2F6
330
26C
100
AcDbEntity
  8
image
100
AcDbPolyline
 90
        4
 70
     1
 43
0.0
 10
0.0223355632193285
 20
-0.2754056259542263
 10
0.0223355632193285
 20
-0.2492004105479166
 10
-0.0582206760859148
 20
-0.212231103029838
 10
-0.0582206760859148
 20
-0.2387160175882599
  0
LWPOLYLINE
  5
2F7
330
26C
100
AcDbEntity
  8
image
100
AcDbPolyline
 90
        2
 70
     0
 43
0.0
 10
-0.0393770270233902
 20
-0.3941393577748222
 10
-0.0632091248813516
 20
-0.3824871487676811
  0
LWPOLYLINE
  5
2F8
330
26C
100
AcDbEntity
  8
image
100
AcDbPolyline
 90
        8
 70
     1
 43
0.0
 10
0.0223297962265026
 20
-0.2802152979720205
 10
-0.0582206760859148
 20
-0.2662995442802458
 10
-0.0582206760859148
 20
-0.3024441718240478
 10
0.0223297962265026
 20
-0.3654947044026526
 10
0.0223297962265026
 20
-0.3360945749701338
 10
0.0113004224446862
 20
-0.3275507750967961
 10
0.0112052670630414
 20
-0.3027267544725767
 10
0.0223297962265026
 20
-0.3045808426664873
  0
LWPOLYLINE
  5
2F9
330
26C
100
AcDbEntity
  8
image
100
AcDbPolyline
 90
        3
 70
     1
 43
0.0
 10
-0.009982664583696
 20
-0.3106707870918957
 10
-0.0099394121374954
 20
-0.2991310344448843
 10
-0.0279900996862947
 20
-0.2963686448807055
  0
LWPOLYLINE
  5
2FA
330
26C
100
AcDbEntity
  8
image
100
AcDbPolyline
 90
        7
 70
     0
 43
0.0
 10
-0.085804202777898
 20
-0.4031387500815003
 10
0.0223355632193285
 20
-0.4555607148797725
 10
0.0223355632193285
 20
-0.4246582838157967
 10
-0.0142185208151986
 20
-0.4062759941794383
 10
0.0223297962265026
 20
-0.3954196301824364
 10
0.0223297962265026
 20
-0.3681417541102876
 10
-0.0160726090091088
 20
-0.3782051565935642
  0
LWPOLYLINE
  5
2FB
330
26C
100
AcDbEntity
  8
image
100
AcDbPolyline
 90
       11
 70
     1
 43
0.0
 10
-0.0203084652406083
 20
-0.1652791309280612
 10
-0.058442705309758
 20
-0.1713661918570599
 10
-0.0582206760859148
 20
-0.197332077061044
 10
0.0223297962265026
 20
-0.2354576666409551
 10
0.0223297962265026
 20
-0.2089756355789447
 10
-0.0171308521928775
 20
-0.1907029188063012
 10
0.0223297962265026
 20
-0.1848724890581099
 10
0.0223297962265026
 20
-0.1594487011798735
 10
0.0217992328864103
 20
-0.1594487011798735
 10
-0.0582206760859148
 20
-0.1220151507392142
 10
-0.058442705309758
 20
-0.1475312105026854
  0
ENDBLK
  5
2FC
330
26C
100
AcDbEntity
  8
0
100
AcDbBlockEnd
  0
ENDSEC
  0
SECTION
  2
ENTITIES
  0
TEXT
  5
15
330
2
100
AcDbEntity
  8
text_bubbles
100
AcDbText
 10
4.598981182500883
 20
5.183016180372299
 30
0.0
 40
0.125
  1
POP-UP SPRAY SPRINKLER:
  7
ROMANS
100
AcDbText
  0
TEXT
  5
18
330
2
100
AcDbEntity
  8
text_bubbles
100
AcDbText
 10
4.598981182500883
 20
5.028669646731353
 30
0.0
 40
0.125
  1
 RAIN BIRD RD-06
  7
ROMANS
100
AcDbText
  0
TEXT
  5
19
330
2
100
AcDbEntity
  8
text-sa-bubbles
100
AcDbText
 10
4.598981182500883
 20
3.306804802032212
 30
0.0
 40
0.125
  1
PVC SCH 40 TEE OR ELL
  7
ROMANS
100
AcDbText
  0
TEXT
  5
1B
330
2
100
AcDbEntity
  8
text_bubbles
100
AcDbText
 10
4.598981182500883
 20
5.54510040177178
 30
0.0
 40
0.125
  1
FINISH GRADE/TOP OF MULCH
  7
ROMANS
100
AcDbText
  0
TEXT
  5
1C
330
2
100
AcDbEntity
  8
text-sa-bubbles
100
AcDbText
 10
4.598981182500883
 20
4.083476906629931
 30
0.0
 40
0.125
  1
PVC LATERAL PIPE
  7
ROMANS
100
AcDbText
  0
CIRCLE
  5
1D
330
2
100
AcDbEntity
  8
text_bubbles
100
AcDbCircle
 10
4.258924464139756
 20
5.591171613593991
 30
0.0
 40
0.15625
  0
TEXT
  5
1E
330
2
100
AcDbEntity
  8
text_bubbles
100
AcDbText
 10
4.208329226044518
 20
5.528671613593991
 30
0.0
 40
0.125
  1
1
  7
ROMANS
 72
     4
 11
4.258924464139756
 21
5.591171613593991
 31
0.0
100
AcDbText
  0
CIRCLE
  5
1F
330
2
100
AcDbEntity
  8
text_bubbles
100
AcDbCircle
 10
4.258924464139756
 20
5.22908726370774
 30
0.0
 40
0.15625
  0
TEXT
  5
20
330
2
100
AcDbEntity
  8
text_bubbles
100
AcDbText
 10
4.199400654615947
 20
5.16658726370774
 30
0.0
 40
0.125
  1
2
  7
ROMANS
 72
     4
 11
4.258924464139756
 21
5.22908726370774
 31
0.0
100
AcDbText
  0
CIRCLE
  5
21
330
2
100
AcDbEntity
  8
text-sa-bubbles
100
AcDbCircle
 10
4.265816897565333
 20
4.710799446436793
 30
0.0
 40
0.15625
  0
TEXT
  5
22
330
2
100
AcDbEntity
  8
text-sa-bubbles
100
AcDbText
 10
4.206293088041523
 20
4.648299446436793
 30
0.0
 40
0.125
  1
3
  7
ROMANS
 72
     4
 11
4.265816897565333
 21
4.710799446436793
 31
0.0
100
AcDbText
  0
CIRCLE
  5
23
330
2
100
AcDbEntity
  8
text-sa-bubbles
100
AcDbCircle
 10
4.258924464139756
 20
4.12954798996537
 30
0.0
 40
0.15625
  0
TEXT
  5
24
330
2
100
AcDbEntity
  8
text-sa-bubbles
100
AcDbText
 10
4.196424464139756
 20
4.06704798996537
 30
0.0
 40
0.125
  1
4
  7
ROMANS
 72
     4
 11
4.258924464139756
 21
4.12954798996537
 31
0.0
100
AcDbText
  0
CIRCLE
  5
25
330
2
100
AcDbEntity
  8
text-sa-bubbles
100
AcDbCircle
 10
4.258924464139756
 20
3.772875885367652
 30
0.0
 40
0.15625
  0
TEXT
  5
26
330
2
100
AcDbEntity
  8
text-sa-bubbles
100
AcDbText
 10
4.199400654615947
 20
3.710375885367652
 30
0.0
 40
0.125
  1
5
  7
ROMANS
 72
     4
 11
4.258924464139756
 21
3.772875885367652
 31
0.0
100
AcDbText
  0
CIRCLE
  5
27
330
2
100
AcDbEntity
  8
text-sa-bubbles
100
AcDbCircle
 10
4.258924464139756
 20
3.354936480843858
 30
0.0
 40
0.15625
  0
TEXT
  5
28
330
2
100
AcDbEntity
  8
text-sa-bubbles
100
AcDbText
 10
4.196424464139756
 20
3.292436480843858
 30
0.0
 40
0.125
  1
6
  7
ROMANS
 72
     4
 11
4.258924464139756
 21
3.354936480843858
 31
0.0
100
AcDbText
  0
CIRCLE
  5
29
330
2
100
AcDbEntity
  8
text-sa-bubbles
100
AcDbCircle
 10
3.066544802518991
 20
1.991283018376616
 30
0.0
 40
0.15625
  0
TEXT
  5
2A
330
2
100
AcDbEntity
  8
text-sa-bubbles
100
AcDbText
 10
3.007020992995181
 20
1.928783018376616
 30
0.0
 40
0.125
  1
5
  7
ROMANS
 72
     4
 11
3.066544802518991
 21
1.991283018376616
 31
0.0
100
AcDbText
  0
CIRCLE
  5
2B
330
2
100
AcDbEntity
  8
text-sa-bubbles
100
AcDbCircle
 10
4.526727230631053
 20
1.991696316387531
 30
0.0
 40
0.15625
  0
TEXT
  5
2C
330
2
100
AcDbEntity
  8
text-sa-bubbles
100
AcDbText
 10
4.464227230631053
 20
1.929196316387531
 30
0.0
 40
0.125
  1
6
  7
ROMANS
 72
     4
 11
4.526727230631053
 21
1.991696316387531
 31
0.0
100
AcDbText
  0
CIRCLE
  5
2D
330
2
100
AcDbEntity
  8
text-sa-bubbles
100
AcDbCircle
 10
2.697739368490193
 20
1.991556559507001
 30
0.0
 40
0.15625
  0
TEXT
  5
2E
330
2
100
AcDbEntity
  8
text-sa-bubbles
100
AcDbText
 10
2.635239368490193
 20
1.929056559507001
 30
0.0
 40
0.125
  1
4
  7
ROMANS
 72
     4
 11
2.697739368490193
 21
1.991556559507001
 31
0.0
100
AcDbText
  0
TEXT
  5
2F
330
2
100
AcDbEntity
  8
text-sa-bubbles
100
AcDbText
 10
0.4953645152306866
 20
3.591032502146791
 30
0.0
 40
0.125
  1
3
  7
ROMANS
 72
     4
 11
0.5548883247544962
 21
3.653532502146791
 31
0.0
100
AcDbText
  0
CIRCLE
  5
30
330
2
100
AcDbEntity
  8
text-sa-bubbles
100
AcDbCircle
 10
0.5548883247544962
 20
3.653532502146791
 30
0.0
 40
0.15625
  0
TEXT
  5
31
330
2
100
AcDbEntity
  8
text_bubbles
100
AcDbText
 10
0.4953645152306868
 20
5.012785388808097
 30
0.0
 40
0.125
  1
2
  7
ROMANS
 72
     4
 11
0.5548883247544963
 21
5.075285388808097
 31
0.0
100
AcDbText
  0
CIRCLE
  5
32
330
2
100
AcDbEntity
  8
text_bubbles
100
AcDbCircle
 10
0.5548883247544963
 20
5.075285388808097
 30
0.0
 40
0.15625
  0
TEXT
  5
33
330
2
100
AcDbEntity
  8
text-sa-bubbles
100
AcDbText
 10
3.888022750698739
 20
1.929067087957677
 30
0.0
 40
0.125
  1
3
  7
ROMANS
 72
     4
 11
3.947546560222548
 21
1.991567087957677
 31
0.0
100
AcDbText
  0
CIRCLE
  5
34
330
2
100
AcDbEntity
  8
text-sa-bubbles
100
AcDbCircle
 10
3.947546560222548
 20
1.991567087957677
 30
0.0
 40
0.15625
  0
CIRCLE
  5
35
330
2
100
AcDbEntity
  8
text_bubbles
100
AcDbCircle
 10
0.5548883247544962
 20
5.541069538776902
 30
0.0
 40
0.15625
  0
TEXT
  5
36
330
2
100
AcDbEntity
  8
text_bubbles
100
AcDbText
 10
0.504293086659258
 20
5.478569538776902
 30
0.0
 40
0.125
  1
1
  7
ROMANS
 72
     4
 11
0.5548883247544962
 21
5.541069538776902
 31
0.0
100
AcDbText
  0
TEXT
  5
37
330
2
100
AcDbEntity
  8
text-sa-leaders
100
AcDbText
 10
4.598981182500883
 20
3.604173618456955
 30
0.0
 40
0.125
  1
SWING PIPE, 12-INCH LENGTH:
  7
ROMANS
100
AcDbText
  0
TEXT
  5
39
330
2
100
AcDbEntity
  8
text-sa-leaders
100
AcDbText
 10
4.598981182500883
 20
1.481568985468148
 30
0.0
 40
0.125
  1
PVC LATERAL PIPE
  7
ROMANS
100
AcDbText
  0
TEXT
  5
3A
330
2
100
AcDbEntity
  8
text_leaders
100
AcDbText
 10
4.598981182500883
 20
6.354269404245959
 30
0.0
 40
0.125
  1
FINISH GRADE/TOP OF MULCH
  7
ROMANS
100
AcDbText
  0
TEXT
  5
3C
330
2
100
AcDbEntity
  8
text-sa-leaders
100
AcDbText
 10
4.598981182500883
 20
3.431066265359382
 30
0.0
 40
0.125
  1
  RAIN BIRD MODEL SP-100
  7
ROMANS
100
AcDbText
  0
TEXT
  5
3D
330
2
100
AcDbEntity
  8
text_leaders
100
AcDbText
 10
4.598981182500883
 20
5.028669646731353
 30
0.0
 40
0.125
  1
  RAIN BIRD 1806
  7
ROMANS
100
AcDbText
  0
TEXT
  5
3E
330
2
100
AcDbEntity
  8
text_leaders
100
AcDbText
 10
4.598981182500883
 20
5.189668089348381
 30
0.0
 40
0.125
  1
POP-UP SPRAY SPRINKLER:
  7
ROMANS
100
AcDbText
  0
TEXT
  5
3F
330
2
100
AcDbEntity
  8
text-sa-leaders
100
AcDbText
 10
4.598981182500883
 20
4.012330055237
 30
0.0
 40
0.125
  1
  BARB ELBOW:  RAIN BIRD
  7
SIMPLEX
100
AcDbText
  0
LINE
  5
41
330
2
100
AcDbEntity
  8
option-sa
100
AcDbLine
 10
4.429719560167336
 20
2.945733303366129
 30
0.0
 11
4.060687554484426
 21
2.945733303366124
 31
0.0
  0
LINE
  5
43
330
2
100
AcDbEntity
  8
option-sa
100
AcDbLine
 10
3.966503699342351
 20
2.777037553550368
 30
0.0
 11
4.064877148844418
 21
2.953237421358711
 31
0.0
  0
LINE
  5
44
330
2
100
AcDbEntity
  8
option-sa
100
AcDbLine
 10
4.429719560167336
 20
2.656567263483919
 30
0.0
 11
4.429719560167336
 21
2.945733303366129
 31
0.0
  0
LINE
  5
45
330
2
100
AcDbEntity
  8
option-sa
100
AcDbLine
 10
3.824900845437719
 20
2.656567263483919
 30
0.0
 11
4.429719560167336
 21
2.656567263483919
 31
0.0
  0
LINE
  5
46
330
2
100
AcDbEntity
  8
option-sa
100
AcDbLine
 10
3.824900845437719
 20
2.849114108532022
 30
0.0
 11
3.824900845437719
 21
2.656567263483919
 31
0.0
  0
LINE
  5
47
330
2
100
AcDbEntity
  8
option-sa
100
AcDbLine
 10
4.119097350818279
 20
2.866647347850665
 30
0.0
 11
4.128790079685732
 21
2.801340231591222
 31
0.0
  0
LINE
  5
48
330
2
100
AcDbEntity
  8
option-sa
100
AcDbLine
 10
4.128790079685732
 20
2.801340231591222
 30
0.0
 11
4.071449641947646
 21
2.775340155406565
 31
0.0
  0
LINE
  5
49
330
2
100
AcDbEntity
  8
option-sa
100
AcDbLine
 10
4.429719560167336
 20
2.901259206311557
 30
0.0
 11
4.766816079701211
 21
2.901259206311557
 31
0.0
  0
LINE
  5
4A
330
2
100
AcDbEntity
  8
option-sa
100
AcDbLine
 10
4.429719560167336
 20
2.697639124177565
 30
0.0
 11
4.766816079701211
 21
2.697639124177565
 31
0.0
  0
LWPOLYLINE
  5
4B
330
2
100
AcDbEntity
  8
option-sa
100
AcDbPolyline
 90
        4
 70
     0
 43
0.0
 10
4.766816079701211
 20
2.901259206311557
 42
-0.5107053858875276
 10
4.766816079701222
 20
2.797998926850494
 42
0.5107053858875159
 10
4.766816079701211
 20
2.697639124177565
 42
0.5397302473450178
 10
4.768742249216026
 20
2.799449165244559
 42
0.5397302473450178
  0
LINE
  5
4C
330
2
100
AcDbEntity
  8
option-sa
100
AcDbLine
 10
3.708964536047921
 20
2.901259206311557
 30
0.0
 11
1.607536758325621
 21
2.901259206311557
 31
0.0
  0
LINE
  5
4D
330
2
100
AcDbEntity
  8
option-sa
100
AcDbLine
 10
3.824900845437719
 20
2.697639124177565
 30
0.0
 11
1.607536758325621
 21
2.697639124177565
 31
0.0
  0
LINE
  5
4E
330
2
100
AcDbEntity
  8
option-sa
100
AcDbLine
 10
4.08781630124459
 20
2.727786715125348
 30
0.0
 11
3.973946907395144
 21
2.789050592485282
 31
0.0
  0
LINE
  5
4F
330
2
100
AcDbEntity
  8
option-sa
100
AcDbLine
 10
4.172490099911087
 20
2.873724192718719
 30
0.0
 11
4.055984235743872
 21
2.937309037016405
 31
0.0
  0
ARC
  5
50
330
2
100
AcDbEntity
  8
option-sa
100
AcDbCircle
 10
4.128790079685732
 20
2.801340231591222
 30
0.0
 40
0.0842950537430408
100
AcDbArc
 50
234.4756814862677
 51
62.64469113840124
  0
ARC
  5
51
330
2
100
AcDbEntity
  8
option-sa
100
AcDbCircle
 10
4.128790079685732
 20
2.801340231591222
 30
0.0
 40
0.1089292628087137
100
AcDbArc
 50
202.3302578892511
 51
100.5273986155575
  0
LWPOLYLINE
  5
52
330
2
100
AcDbEntity
  8
option-sa
100
AcDbPolyline
 90
        4
 70
     0
 43
0.0
 10
1.607536758325621
 20
2.901259206311557
 42
0.5107053858875276
 10
1.607536758325612
 20
2.797998926850494
 42
-0.5107053858875159
 10
1.607536758325621
 20
2.697639124177565
 42
-0.5397302473450178
 10
1.605610588810805
 20
2.799449165244559
 42
-0.5397302473450178
  0
ARC
  5
53
330
2
100
AcDbEntity
  8
option-sa
100
AcDbCircle
 10
2.552447625661925
 20
0.1899251731972997
 30
0.0
 40
3.150132956469122
100
AcDbArc
 50
61.30701558492705
 51
91.57178904497754
  0
ARC
  5
54
330
2
100
AcDbEntity
  8
option-sa
100
AcDbCircle
 10
2.54905246845331
 20
0.1674241972181343
 30
0.0
 40
2.969722185911746
100
AcDbArc
 50
61.49072909609822
 51
91.61727251044187
  0
LINE
  5
55
330
2
100
AcDbEntity
  8
option-sa
100
AcDbLine
 10
2.465238052382167
 20
3.135963401128889
 30
0.0
 11
2.46604120091339
 21
3.338872866188573
 31
0.0
  0
ARC
  5
56
330
2
100
AcDbEntity
  8
option-sa
100
AcDbCircle
 10
2.223600089810175
 20
3.202779644729933
 30
0.0
 40
0.0469218235072326
100
AcDbArc
 50
180.0
 51
270.0
  0
LWPOLYLINE
  5
57
330
2
100
AcDbEntity
  8
option-sa
100
AcDbPolyline
 90
        3
 70
     0
 43
0.0
 10
2.225740655869302
 20
3.159856756698203
 42
0.3551655385017884
 10
2.317527570025383
 20
3.239363253015314
 42
-0.3351985284943452
 10
2.384053506871949
 20
3.318319803211657
 42
-0.5949761929811071
  0
LINE
  5
58
330
2
100
AcDbEntity
  8
option-sa
100
AcDbLine
 10
2.465235580882267
 20
3.155857821222702
 30
0.0
 11
2.223600089810175
 21
3.155857821222702
 31
0.0
  0
LINE
  5
59
330
2
100
AcDbEntity
  8
option-sa
100
AcDbLine
 10
2.465971446329734
 20
3.321249892722411
 30
0.0
 11
2.390433240058112
 21
3.321249892722407
 31
0.0
  0
ARC
  5
5A
330
2
100
AcDbEntity
  8
option-sa
100
AcDbCircle
 10
2.390433240058112
 20
3.368171716229639
 30
0.0
 40
0.0469218235072326
100
AcDbArc
 50
180.0
 51
270.0
  0
LINE
  5
5B
330
2
100
AcDbEntity
  8
option-sa
100
AcDbLine
 10
2.176678266302941
 20
3.467086057528232
 30
0.0
 11
2.176678266302941
 21
3.202779644729933
 31
0.0
  0
LINE
  5
5C
330
2
100
AcDbEntity
  8
option-sa
100
AcDbLine
 10
2.176678266302941
 20
3.42115639413445
 30
0.0
 11
2.343511416550877
 21
3.42115639413445
 31
0.0
  0
LINE
  5
5D
330
2
100
AcDbEntity
  8
option-sa
100
AcDbLine
 10
2.343511416550877
 20
3.467086057528232
 30
0.0
 11
2.343511416550877
 21
3.368171716229639
 31
0.0
  0
LINE
  5
5E
330
2
100
AcDbEntity
  8
option-sa
100
AcDbLine
 10
2.192767129429979
 20
3.446215597672034
 30
0.0
 11
2.327781901284787
 21
3.446215597672034
 31
0.0
  0
TEXT
  5
5F
330
2
100
AcDbEntity
  8
text-sa-leaders
100
AcDbText
 10
4.598981182500883
 20
4.178629875182999
 30
0.0
 40
0.125
  1
1/2-INCH MALE NPT x .490 INCH
  7
SIMPLEX
100
AcDbText
  0
TEXT
  5
60
330
2
100
AcDbEntity
  8
text-sa-leaders
100
AcDbText
 10
4.598981182500883
 20
3.846030235290999
 30
0.0
 40
0.125
  1
  MODEL SBE-050
  7
SIMPLEX
100
AcDbText
  0
TEXT
  5
61
330
2
100
AcDbEntity
  8
text-sa-leaders
100
AcDbText
 10
4.598981182500883
 20
2.999053428985557
 30
0.0
 40
0.125
  1
PVC SCH 40 TEE OR ELL
  7
ROMANS
100
AcDbText
  0
TEXT
  5
62
330
2
100
AcDbEntity
  8
text-sa-leaders
100
AcDbText
 10
4.598981182500883
 20
1.872009806442019
 30
0.0
 40
0.125
  1
  MODEL SBE-050
  7
SIMPLEX
100
AcDbText
  0
TEXT
  5
63
330
2
100
AcDbEntity
  8
text-sa-leaders
100
AcDbText
 10
4.598981182500883
 20
2.204609446334019
 30
0.0
 40
0.125
  1
1/2-INCH MALE NPT x .490 INCH
  7
SIMPLEX
100
AcDbText
  0
TEXT
  5
64
330
2
100
AcDbEntity
  8
text-sa-leaders
100
AcDbText
 10
4.598981182500883
 20
2.038309626388019
 30
0.0
 40
0.125
  1
  BARB ELBOW:  RAIN BIRD
  7
SIMPLEX
100
AcDbText
  0
TEXT
  5
65
330
2
100
AcDbEntity
  8
text-sa-bubbles
100
AcDbText
 10
4.598981182500883
 20
4.31087726673793
 30
0.0
 40
0.125
  1
  MODEL SBE-050
  7
SIMPLEX
100
AcDbText
  0
TEXT
  5
66
330
2
100
AcDbEntity
  8
text-sa-bubbles
100
AcDbText
 10
4.598981182500883
 20
4.47717708668393
 30
0.0
 40
0.125
  1
  BARB ELBOW:  RAIN BIRD
  7
SIMPLEX
100
AcDbText
  0
TEXT
  5
67
330
2
100
AcDbEntity
  8
text-sa-bubbles
100
AcDbText
 10
4.598981182500883
 20
4.643476906629929
 30
0.0
 40
0.125
  1
1/2-INCH MALE NPT x .490 INCH
  7
SIMPLEX
100
AcDbText
  0
TEXT
  5
68
330
2
100
AcDbEntity
  8
text-sa-bubbles
100
AcDbText
 10
4.598981182500883
 20
3.545720959422381
 30
0.0
 40
0.125
  1
  RAIN BIRD MODEL SP-100
  7
ROMANS
100
AcDbText
  0
TEXT
  5
69
330
2
100
AcDbEntity
  8
text-sa-bubbles
100
AcDbText
 10
4.598981182500883
 20
3.726804802032212
 30
0.0
 40
0.125
  1
SWING PIPE, 12-INCH LENGTH:
  7
ROMANS
100
AcDbText
  0
LINE
  5
6A
330
2
100
AcDbEntity
  8
option-rb-sa
100
AcDbLine
 10
2.192889044125118
 20
3.437048321774873
 30
0.0
 11
2.327903815979926
 21
3.437048321774873
 31
0.0
  0
TEXT
  5
6C
330
2
100
AcDbEntity
  8
text-rb-sa-bubbles
100
AcDbText
 10
4.199400654615947
 20
4.592281527903216
 30
0.0
 40
0.125
  1
3
  7
ROMANS
 72
     4
 11
4.258924464139756
 21
4.654781527903216
 31
0.0
100
AcDbText
  0
TEXT
  5
6E
330
2
100
AcDbEntity
  8
text-rb-sa-bubbles
100
AcDbText
 10
4.203316897565333
 20
4.257072554320767
 30
0.0
 40
0.125
  1
4
  7
ROMANS
 72
     4
 11
4.265816897565333
 21
4.319572554320767
 31
0.0
100
AcDbText
  0
CIRCLE
  5
6F
330
2
100
AcDbEntity
  8
text-rb-sa-bubbles
100
AcDbCircle
 10
4.265816897565333
 20
4.319572554320767
 30
0.0
 40
0.15625
  0
CIRCLE
  5
70
330
2
100
AcDbEntity
  8
text-rb-sa-bubbles
100
AcDbCircle
 10
4.258924464139756
 20
4.654781527903216
 30
0.0
 40
0.15625
  0
TEXT
  5
71
330
2
100
AcDbEntity
  8
text-rb-sa-bubbles
100
AcDbText
 10
4.199400654615947
 20
3.858429447285038
 30
0.0
 40
0.125
  1
5
  7
ROMANS
 72
     4
 11
4.258924464139756
 21
3.920929447285038
 31
0.0
100
AcDbText
  0
CIRCLE
  5
72
330
2
100
AcDbEntity
  8
text-rb-sa-bubbles
100
AcDbCircle
 10
4.258924464139756
 20
3.920929447285038
 30
0.0
 40
0.15625
  0
TEXT
  5
73
330
2
100
AcDbEntity
  8
text-rb-sa-bubbles
100
AcDbText
 10
4.598981182500883
 20
3.864952182347783
 30
0.0
 40
0.125
  1
PVC SCH 40 TEE OR ELL
  7
ROMANS
100
AcDbText
  0
TEXT
  5
74
330
2
100
AcDbEntity
  8
text-rb-sa-bubbles
100
AcDbText
 10
4.598981182500883
 20
4.608710444567776
 30
0.0
 40
0.125
  1
PVC LATERAL PIPE
  7
ROMANS
100
AcDbText
  0
TEXT
  5
75
330
2
100
AcDbEntity
  8
text-rb-sa-bubbles
100
AcDbText
 10
4.598981182500883
 20
4.118695465787161
 30
0.0
 40
0.125
  1
 RAIN BIRD MODEL SA 6050
  7
ROMANS
100
AcDbText
  0
TEXT
  5
76
330
2
100
AcDbEntity
  8
text-rb-sa-bubbles
100
AcDbText
 10
4.598981182500883
 20
4.27560540841416
 30
0.0
 40
0.125
  1
SWING ASSEMBLY:
  7
ROMANS
100
AcDbText
  0
TEXT
  5
77
330
2
100
AcDbEntity
  8
text-rb-sa-leaders
100
AcDbText
 10
4.615063220638749
 20
3.546872384431041
 30
0.0
 40
0.125
  1
SWING ASSEMBLY:
  7
ROMANS
100
AcDbText
  0
LINE
  5
79
330
2
100
AcDbEntity
  8
option-rb-sa
100
AcDbLine
 10
4.347519906490026
 20
2.655121190903139
 30
0.0
 11
4.347519906490026
 21
2.944287230785349
 31
0.0
  0
LINE
  5
7A
330
2
100
AcDbEntity
  8
option-rb-sa
100
AcDbLine
 10
4.347519906490026
 20
2.899813133730777
 30
0.0
 11
4.6846164260239
 21
2.899813133730777
 31
0.0
  0
LINE
  5
7B
330
2
100
AcDbEntity
  8
option-rb-sa
100
AcDbLine
 10
4.347519906490026
 20
2.696193051596785
 30
0.0
 11
4.6846164260239
 21
2.696193051596785
 31
0.0
  0
LWPOLYLINE
  5
7C
330
2
100
AcDbEntity
  8
option-rb-sa
100
AcDbPolyline
 90
        4
 70
     0
 43
0.0
 10
4.6846164260239
 20
2.899813133730777
 42
-0.5107053858875276
 10
4.684616426023911
 20
2.796552854269714
 42
0.5107053858875159
 10
4.6846164260239
 20
2.696193051596785
 42
0.5397302473450178
 10
4.686542595538716
 20
2.798003092663779
 42
0.5397302473450178
  0
TEXT
  5
7D
330
2
100
AcDbEntity
  8
text-rb-sa-bubbles
100
AcDbText
 10
4.385003767429934
 20
1.927750243806751
 30
0.0
 40
0.125
  1
5
  7
ROMANS
 72
     4
 11
4.444527576953744
 21
1.990250243806751
 31
0.0
100
AcDbText
  0
CIRCLE
  5
7E
330
2
100
AcDbEntity
  8
text-rb-sa-bubbles
100
AcDbCircle
 10
4.444527576953744
 20
1.990250243806751
 30
0.0
 40
0.15625
  0
LINE
  5
7F
330
2
100
AcDbEntity
  8
option-rb-sa
100
AcDbLine
 10
2.432022640559444
 20
3.240163640035513
 30
0.0
 11
2.40344204638182
 21
3.249346769799685
 31
0.0
  0
LINE
  5
80
330
2
100
AcDbEntity
  8
option-rb-sa
100
AcDbLine
 10
2.347113658385863
 20
3.467941052104118
 30
0.0
 11
2.347113658385863
 21
3.20951749349542
 31
0.0
  0
LINE
  5
81
330
2
100
AcDbEntity
  8
option-rb-sa
100
AcDbLine
 10
2.383386072162234
 20
3.080584545505454
 30
0.0
 11
2.323304914735603
 21
3.100256158065169
 31
0.0
  0
LINE
  5
82
330
2
100
AcDbEntity
  8
option-rb-sa
100
AcDbLine
 10
2.377645615057603
 20
3.061749809068783
 30
0.0
 11
2.436802350923064
 21
3.255846116761934
 31
0.0
  0
LINE
  5
83
330
2
100
AcDbEntity
  8
option-rb-sa
100
AcDbLine
 10
3.975710116034788
 20
2.734004172712181
 30
0.0
 11
3.915668013037582
 21
2.751934186342498
 31
0.0
  0
LINE
  5
84
330
2
100
AcDbEntity
  8
option-rb-sa
100
AcDbLine
 10
3.742701191760409
 20
2.775355437535389
 30
0.0
 11
3.742701191760409
 21
2.655121190903139
 31
0.0
  0
LINE
  5
85
330
2
100
AcDbEntity
  8
option-rb-sa
100
AcDbLine
 10
3.970371384943809
 20
2.934171211153198
 30
0.0
 11
3.912034211303441
 21
2.7398286580413
 31
0.0
  0
ARC
  5
86
330
2
100
AcDbEntity
  8
option-rb-sa
100
AcDbCircle
 10
4.046590426008423
 20
2.799894159010441
 30
0.0
 40
0.1267079420559205
100
AcDbArc
 50
204.5463070897701
 51
122.199916707569
  0
LINE
  5
87
330
2
100
AcDbEntity
  8
option-rb-sa
100
AcDbLine
 10
4.023447430524244
 20
2.893861761918904
 30
0.0
 11
3.963633168386097
 21
2.911723736798001
 31
0.0
  0
ARC
  5
88
330
2
100
AcDbEntity
  8
option-rb-sa
100
AcDbCircle
 10
4.046590426008423
 20
2.799894159010441
 30
0.0
 40
0.0967755580523473
100
AcDbArc
 50
222.910381779526
 51
103.8358420178157
  0
TEXT
  5
89
330
2
100
AcDbEntity
  8
text-rb-sa-bubbles
100
AcDbText
 10
3.442209925363142
 20
3.583467127499955
 30
0.0
 40
0.1253
  1
4
  7
ROMANS
 72
     4
 11
3.504859925363142
 21
3.646117127499955
 31
0.0
100
AcDbText
  0
TEXT
  5
8A
330
2
100
AcDbEntity
  8
text-rb-sa-bubbles
100
AcDbText
 10
2.328200673981311
 20
1.92761048692622
 30
0.0
 40
0.125
  1
3
  7
ROMANS
 72
     4
 11
2.38772448350512
 21
1.99011048692622
 31
0.0
100
AcDbText
  0
CIRCLE
  5
8B
330
2
100
AcDbEntity
  8
text-rb-sa-bubbles
100
AcDbCircle
 10
2.38772448350512
 20
1.99011048692622
 30
0.0
 40
0.15625
  0
CIRCLE
  5
8C
330
2
100
AcDbEntity
  8
text-rb-sa-bubbles
100
AcDbCircle
 10
3.504859925363142
 20
3.646117127499955
 30
0.0
 40
0.156625
  0
LINE
  5
8D
330
2
100
AcDbEntity
  8
option-rb-sa
100
AcDbLine
 10
3.970371384943809
 20
2.934171211153198
 30
0.0
 11
2.436802350923064
 21
3.255846116761933
 31
0.0
  0
LINE
  5
8E
330
2
100
AcDbEntity
  8
option-rb-sa
100
AcDbLine
 10
2.377645623108153
 20
3.061749835483051
 30
0.0
 11
3.912034211303441
 21
2.7398286580413
 31
0.0
  0
LINE
  5
8F
330
2
100
AcDbEntity
  8
option-rb-sa
100
AcDbLine
 10
4.347519906490026
 20
2.944287230785349
 30
0.0
 11
3.936878754645012
 21
2.944287230785344
 31
0.0
  0
LINE
  5
90
330
2
100
AcDbEntity
  8
option-rb-sa
100
AcDbLine
 10
3.742701191760409
 20
2.655121190903139
 30
0.0
 11
4.347519906490026
 21
2.655121190903139
 31
0.0
  0
LINE
  5
91
330
2
100
AcDbEntity
  8
option-rb-sa
100
AcDbLine
 10
2.172491994678208
 20
3.208829008146146
 30
0.0
 11
2.172491994678207
 21
3.467941052104118
 31
0.0
  0
LWPOLYLINE
  5
92
330
2
100
AcDbEntity
  8
option-rb-sa
100
AcDbPolyline
 90
        4
 70
     0
 43
0.0
 10
1.608246129356984
 20
2.899813133730777
 42
0.5107053858875276
 10
1.608246129356975
 20
2.796552854269714
 42
-0.5107053858875159
 10
1.608246129356984
 20
2.696193051596785
 42
-0.5397302473450178
 10
1.606319959842168
 20
2.798003092663779
 42
-0.5397302473450178
  0
LINE
  5
93
330
2
100
AcDbEntity
  8
option-rb-sa
100
AcDbLine
 10
3.14949241229192
 20
2.899813133730776
 30
0.0
 11
1.608246129356983
 21
2.899813133730777
 31
0.0
  0
LINE
  5
94
330
2
100
AcDbEntity
  8
option-rb-sa
100
AcDbLine
 10
3.742701191760409
 20
2.696193051596785
 30
0.0
 11
1.608246129356983
 21
2.696193051596785
 31
0.0
  0
ARC
  5
95
330
2
100
AcDbEntity
  8
option-rb-sa
100
AcDbCircle
 10
2.259802826532035
 20
3.230471335025316
 30
0.0
 40
0.1448741092016656
100
AcDbArc
 50
127.0611407962445
 51
52.93885920375984
  0
LINE
  5
96
330
2
100
AcDbEntity
  8
option-rb-sa
100
AcDbLine
 10
2.172491994678207
 20
3.411989118237289
 30
0.0
 11
2.347113658385863
 21
3.411989118237289
 31
0.0
  0
ARC
  5
97
330
2
100
AcDbEntity
  8
option-rb-sa
100
AcDbCircle
 10
2.259673402680824
 20
3.241999233604317
 30
0.0
 40
0.0932784099256874
100
AcDbArc
 50
200.8304993914682
 51
339.6213013705944
  0
TEXT
  5
98
330
2
100
AcDbEntity
  8
text-rb-sa-leaders
100
AcDbText
 10
4.581020776609779
 20
1.48137761117668
 30
0.0
 40
0.125
  1
PVC LATERAL PIPE
  7
ROMANS
100
AcDbText
  0
TEXT
  5
99
330
2
100
AcDbEntity
  8
text-rb-sa-leaders
100
AcDbText
 10
4.615063220638749
 20
3.389962441804041
 30
0.0
 40
0.125
  1
  RAIN BIRD MODEL SA 6050
  7
ROMANS
100
AcDbText
  0
TEXT
  5
9A
330
2
100
AcDbEntity
  8
text-rb-sa-leaders
100
AcDbText
 10
4.598981182500883
 20
1.930660757682878
 30
0.0
 40
0.125
  1
PVC SCH 40 TEE OR ELL
  7
ROMANS
100
AcDbText
  0
INSERT
  5
9B
330
2
100
AcDbEntity
  8
title
100
AcDbBlockReference
 66
     1
  2
titleblock
 10
0.0
 20
0.0
 30
0.0
  0
ATTRIB
  5
B0
330
9B
100
AcDbEntity
  8
title
100
AcDbText
 10
0.5055556038023407
 20
0.7842270964783676
 30
0.0
 40
0.2
  1
D
  7
L200
 72
     4
 11
0.6064423705144826
 21
0.8842270964783676
 31
0.0
100
AcDbAttribute
  2
D
 70
     0
280
     0
  0
ATTRIB
  5
B1
330
9B
100
AcDbEntity
  8
title
100
AcDbText
 10
1.231442370514482
 20
1.34371230274675
 30
0.0
 40
0.2
  1

  7
L200
100
AcDbAttribute
  2
TITLE1
 70
     0
280
     0
  0
ATTRIB
  5
B2
330
9B
100
AcDbEntity
  8
title
100
AcDbText
 10
1.231442370514482
 20
0.9842270964783672
 30
0.0
 40
0.2
  1
POP-UP SPRAY SPRINKLER
  7
L200
100
AcDbAttribute
  2
TITLE2
 70
     0
280
     0
  0
ATTRIB
  5
B3
330
9B
100
AcDbEntity
  8
title
100
AcDbText
 10
2.713645751168311
 20
0.5927927664583184
 30
0.0
 40
0.2
  1
RD-06 WITH SWING PIPE
  7
L200
100
AcDbAttribute
  2
TITLE3
 70
     0
280
     0
  0
ATTRIB
  5
B4
330
9B
100
AcDbEntity
  8
title
100
AcDbText
 10
2.713645751168311
 20
0.2692560808167741
 30
0.0
 40
0.2
  1

  7
L200
100
AcDbAttribute
  2
TITLE4
 70
     0
280
     0
  0
ATTRIB
  5
B5
330
9B
100
AcDbEntity
  8
title
 62
     7
100
AcDbText
 10
7.487691020442568
 20
0.9696027915446396
 30
0.0
 40
0.08
  1
10-17-2011
  7
L80
 72
     2
 11
8.261024353775901
 21
0.9696027915446396
 31
0.0
100
AcDbAttribute
  2
REVISED
 70
     0
280
     0
  0
ATTRIB
  5
B6
330
9B
100
AcDbEntity
  8
title
 62
     7
100
AcDbText
 10
0.2639423705144814
 20
0.084711648020722
 30
0.0
 40
0.08
  1
S-RD-06-SP.DWG
  7
L80
100
AcDbAttribute
  2
DWG-NAME
 70
     0
280
     0
  0
ATTRIB
  5
B7
330
9B
100
AcDbEntity
  8
title
 62
     7
100
AcDbText
 10
1.231442370514482
 20
0.7005637793954893
 30
0.0
 40
0.1
  1
N.T.S.
  7
L100
100
AcDbAttribute
  2
SCALE
 70
     0
280
     0
  0
SEQEND
  5
B8
330
9B
100
AcDbEntity
  8
title
  0
LEADER
  5
B9
330
2
100
AcDbEntity
  8
text-sa-bubbles
100
AcDbLeader
  3
STANDARD
 76
     2
 10
4.028600501217661
 20
2.759645930213615
 30
0.0
 10
3.92973793810377
 20
2.146798900026694
 30
0.0
  0
LEADER
  5
BC
330
2
100
AcDbEntity
  8
text-sa-bubbles
100
AcDbLeader
  3
STANDARD
 76
     2
 10
2.521605931739833
 20
2.697639124177565
 30
0.0
 10
2.66008743727819
 20
2.143202181191264
 30
0.0
  0
LEADER
  5
BD
330
2
100
AcDbEntity
  8
text-sa-bubbles
100
AcDbLeader
  3
STANDARD
 76
     2
 10
4.358002305642816
 20
2.656567263483919
 30
0.0
 10
4.486364936163576
 20
2.142643153669141
 30
0.0
  0
LEADER
  5
BE
330
2
100
AcDbEntity
  8
text-sa-bubbles
100
AcDbLeader
  3
STANDARD
 76
     2
 10
2.788524868946875
 20
3.126672393121915
 30
0.0
 10
3.034906468847483
 20
2.144296345712801
 30
0.0
  0
LEADER
  5
BF
330
2
100
AcDbEntity
  8
text-sa-bubbles
100
AcDbLeader
  3
STANDARD
 76
     2
 10
2.176678266302941
 20
3.291338406428518
 30
0.0
 10
0.7111383247544963
 20
3.653532502146791
 30
0.0
  0
LEADER
  5
C0
330
2
100
AcDbEntity
  8
text_bubbles
100
AcDbLeader
  3
STANDARD
 76
     2
 10
1.057972699677611
 20
6.084088125473453
 30
0.0
 10
0.7055784965783271
 20
5.5823797628831
 30
0.0
  0
LEADER
  5
C1
330
2
100
AcDbEntity
  8
text_bubbles
100
AcDbLeader
  3
STANDARD
 76
     2
 10
2.054407537523053
 20
4.511687148350608
 30
0.0
 10
0.7111383247544963
 20
5.075285388808097
 30
0.0
  0
LEADER
  5
C2
330
2
100
AcDbEntity
  8
text-rb-sa-bubbles
100
AcDbLeader
  3
STANDARD
 76
     2
 10
2.935571799861579
 20
3.151226362548999
 30
0.0
 10
3.355033037463827
 20
3.600474008769897
 30
0.0
  0
LEADER
  5
C3
330
2
100
AcDbEntity
  8
text-rb-sa-bubbles
100
AcDbLeader
  3
STANDARD
 76
     2
 10
2.21159104675476
 20
2.696193051596785
 30
0.0
 10
2.350072552293119
 20
2.141756108610484
 30
0.0
  0
LEADER
  5
C4
330
2
100
AcDbEntity
  8
text-rb-sa-bubbles
100
AcDbLeader
  3
STANDARD
 76
     2
 10
4.275802651965506
 20
2.655121190903139
 30
0.0
 10
4.404165282486266
 20
2.141197081088361
 30
0.0
  0
LEADER
  5
C5
330
2
100
AcDbEntity
  8
text_leaders
100
AcDbLeader
  3
STANDARD
 76
     3
 10
2.466809964883034
 20
4.464097690615241
 30
0.0
 10
4.386652568005093
 20
5.262713407756148
 30
0.0
 10
4.567567160615043
 20
5.262713407756147
 30
0.0
  0
LEADER
  5
C6
330
2
100
AcDbEntity
  8
text_leaders
100
AcDbLeader
  3
STANDARD
 76
     3
 10
3.702721052477615
 20
6.076802910745991
 30
0.0
 10
4.386652568005095
 20
6.419020013639859
 30
0.0
 10
4.567567160615043
 20
6.419020013639858
 30
0.0
  0
LEADER
  5
C7
330
2
100
AcDbEntity
  8
text-rb-sa-leaders
100
AcDbLeader
  3
STANDARD
 76
     3
 10
3.845994847754247
 20
2.656375889192451
 30
0.0
 10
4.213653403720329
 20
1.978745572386575
 30
0.0
 10
4.567567160615043
 20
1.978745572386575
 30
0.0
211
-1.0
221
0.0
231
0.0
210
0.0
220
0.0
230
-1.0
  0
LEADER
  5
C8
330
2
100
AcDbEntity
  8
text-rb-sa-leaders
100
AcDbLeader
  3
STANDARD
 76
     3
 10
3.295672483256399
 20
2.697447749886098
 30
0.0
 10
3.954834834713872
 20
1.525904860516726
 30
0.0
 10
4.567567160615043
 20
1.525904860516726
 30
0.0
211
-1.0
221
0.0
231
0.0
210
0.0
220
0.0
230
-1.0
  0
LEADER
  5
C9
330
2
100
AcDbEntity
  8
text-rb-sa-leaders
100
AcDbLeader
  3
STANDARD
 76
     3
 10
3.163313953217355
 20
3.119355552493977
 30
0.0
 10
4.304452914327788
 20
3.596606679920884
 30
0.0
 10
4.567567160615043
 20
3.596606679920884
 30
0.0
  0
LEADER
  5
CA
330
2
100
AcDbEntity
  8
text-sa-leaders
100
AcDbLeader
  3
STANDARD
 76
     3
 10
3.722575729242022
 20
2.697639124177566
 30
0.0
 10
4.386652568005095
 20
1.526096234808194
 30
0.0
 10
4.567567160615043
 20
1.526096234808193
 30
0.0
211
-1.0
221
0.0
231
0.0
210
0.0
220
0.0
230
-1.0
  0
LEADER
  5
CB
330
2
100
AcDbEntity
  8
text-sa-leaders
100
AcDbLeader
  3
STANDARD
 76
     3
 10
4.135950320394777
 20
2.717349833101093
 30
0.0
 10
4.386652568005094
 20
2.262266520376494
 30
0.0
 10
4.567567160615043
 20
2.262266520376494
 30
0.0
211
-1.0
221
0.0
231
0.0
210
0.0
220
0.0
230
-1.0
  0
LEADER
  5
CC
330
2
100
AcDbEntity
  8
text-sa-leaders
100
AcDbLeader
  3
STANDARD
 76
     3
 10
4.094633353322078
 20
2.945733303366125
 30
0.0
 10
4.453386619320546
 20
3.048787724475399
 30
0.0
 10
4.567567160615043
 20
3.048787724475398
 30
0.0
  0
LEADER
  5
CD
330
2
100
AcDbEntity
  8
text-sa-leaders
100
AcDbLeader
  3
STANDARD
 76
     3
 10
3.371864387306353
 20
3.231617763543841
 30
0.0
 10
4.386652568005093
 20
3.653907913946797
 30
0.0
 10
4.567567160615043
 20
3.653907913946796
 30
0.0
  0
LEADER
  5
CE
330
2
100
AcDbEntity
  8
text-sa-leaders
100
AcDbLeader
  3
STANDARD
 76
     3
 10
2.363237322161455
 20
3.394270511956172
 30
0.0
 10
4.386652568005093
 20
4.236286949225474
 30
0.0
 10
4.567567160615043
 20
4.236286949225474
 30
0.0
  0
INSERT
  5
CF
330
2
100
AcDbEntity
  8
image
  6
Continuous
100
AcDbBlockReference
  2
*X1
 10
0.3151188832748368
 20
0.4508529962905659
 30
0.0
1001
ACAD
1000
HATCH
1002
{
1070
    19
1000
EARTH
1040
0.65
1040
0.7853981633974483
1000
R14_HATCH_DATA
1000
2AC
1011
1.315118883274836
1021
0.4508529962905659
1031
0.0
1011
0.3151188832748366
1021
1.450852996290565
1031
0.0
1011
0.3151188832748366
1021
0.4508529962905659
1031
1.0
1040
0.0
1010
0.0
1020
0.0
1030
1.0
1000
EARTH
1070
     0
1070
     0
1071
        2
1071
        7
1070
     0
1070
     1
1071
       14
1040
1.589837671950278
1040
5.579446240038
1040
1.589837671950281
1040
5.625949914455427
1040
0.9018948484995124
1040
5.625949914455429
1040
0.934666186298547
1040
5.541078655109741
1040
0.9831831153610856
1040
5.41709655207206
1040
1.031480374187087
1040
5.295688183413179
1040
1.09699193003236
1040
5.248062654268601
1040
1.28628504307409
1040
5.041375969845869
1040
1.316739912693476
1040
5.015262296970326
1040
1.499449565665185
1040
4.971697779962349
1040
1.645172995181743
1040
4.947715581994131
1040
1.737275681255463
1040
4.940436142981229
1040
1.737275681255463
1040
5.443500643791316
1040
1.664199693369322
1040
5.443500643791317
1071
        0
1071
        7
1070
     0
1070
     1
1071
       15
1040
2.835000605503907
1040
5.415729867120244
1040
2.888360612699532
1040
5.469878780684781
1040
2.930401851515235
1040
5.564437310910081
1040
2.949805495751768
1040
5.625949914455427
1040
2.296691475619589
1040
5.625949914455428
1040
2.296691475619589
1040
5.579446240038
1040
2.222329454200543
1040
5.443500643791315
1040
2.149253466314398
1040
5.443500643791317
1040
2.149253466314402
1040
4.942679170672474
1040
2.386291325306731
1040
5.17165571233919
1040
2.443693770430662
1040
5.216106307457263
1040
2.493819856193297
1040
5.224188227058022
1040
2.566583536535129
1040
5.241968465105257
1040
2.651474472842532
1040
5.267022441987338
1040
2.794576341859524
1040
5.34622531377702
1071
        0
1070
     0
1070
     1
1040
0.7853981633974483
1040
0.65
1070
     0
1070
     6
1040
0.7853981633974483
1040
-0.0000000000000036
1040
-0.5
1040
0.0
1040
0.2298097038856279
1070
     2
1040
0.1625
1040
-0.1625
1040
0.7853981633974483
1040
-0.0430893194785588
1040
-0.4569106805214448
1040
0.0
1040
0.2298097038856279
1070
     2
1040
0.1625
1040
-0.1625
1040
0.7853981633974483
1040
-0.0861786389571141
1040
-0.4138213610428896
1040
0.0
1040
0.2298097038856279
1070
     2
1040
0.1625
1040
-0.1625
1040
2.356194490192344
1040
-0.086178638957114
1040
-0.385095148057186
1040
-0.2298097038856279
1040
0.0
1070
     2
1040
0.1625
1040
-0.1625
1040
2.356194490192344
1040
-0.0430893194785588
1040
-0.3420058285786307
1040
-0.2298097038856279
1040
0.0
1070
     2
1040
0.1625
1040
-0.1625
1040
2.356194490192344
1040
-0.0000000000000035
1040
-0.2989165091000756
1040
-0.2298097038856279
1040
0.0
1070
     2
1040
0.1625
1040
-0.1625
1040
0.0017236619931563
1071
        2
1040
1.40628991813741
1040
5.445922857244188
1040
0.0
1040
2.492590097024358
1040
5.397660316105262
1040
0.0
1002
}
  0
ARC
  5
142
330
2
100
AcDbEntity
  8
image
100
AcDbCircle
 10
3.620043201404149
 20
6.916295915864579
 30
0.0
 40
0.1566980695398199
100
AcDbArc
 50
98.53076560994793
 51
187.7294390983636
  0
ARC
  5
143
330
2
100
AcDbEntity
  8
image
100
AcDbCircle
 10
3.441524192568321
 20
7.050185172491451
 30
0.0
 40
0.1566980695398199
100
AcDbArc
 50
278.5307656099479
 51
7.729439098363577
  0
ARC
  5
144
330
2
100
AcDbEntity
  8
image
100
AcDbCircle
 10
3.19754821382602
 20
6.810672168970047
 30
0.0
 40
0.1566980695398199
100
AcDbArc
 50
98.53076560994793
 51
187.7294390983636
  0
ARC
  5
145
330
2
100
AcDbEntity
  8
image
100
AcDbCircle
 10
3.019029204990193
 20
6.944561425596919
 30
0.0
 40
0.1566980695398199
100
AcDbArc
 50
278.5307656099479
 51
7.729439098363577
  0
ARC
  5
146
330
2
100
AcDbEntity
  8
image
100
AcDbCircle
 10
3.310153869577297
 20
6.580673967764398
 30
0.0
 40
0.1566980695398199
100
AcDbArc
 50
159.7199718669748
 51
248.9186453553905
  0
ARC
  5
147
330
2
100
AcDbEntity
  8
image
100
AcDbCircle
 10
3.106806315371215
 20
6.488776515382803
 30
0.0
 40
0.1566980695398199
100
AcDbArc
 50
339.7199718669747
 51
68.91864535539045
  0
ARC
  5
148
330
2
100
AcDbEntity
  8
image
100
AcDbCircle
 10
3.628845180312027
 20
6.678642485351883
 30
0.0
 40
0.1566980695398199
100
AcDbArc
 50
98.53076560994793
 51
187.7294390983636
  0
ARC
  5
149
330
2
100
AcDbEntity
  8
image
100
AcDbCircle
 10
3.450326171476197
 20
6.812531741978754
 30
0.0
 40
0.1566980695398199
100
AcDbArc
 50
278.5307656099479
 51
7.729439098363577
  0
ARC
  5
14A
330
2
100
AcDbEntity
  8
image
100
AcDbCircle
 10
2.815139701116563
 20
6.934293722550875
 30
0.0
 40
0.1566980695398199
100
AcDbArc
 50
143.5307656099477
 51
232.7294390983635
  0
ARC
  5
14B
330
2
100
AcDbEntity
  8
image
100
AcDbCircle
 10
2.594233698109161
 20
6.902735722121247
 30
0.0
 40
0.1566980695398199
100
AcDbArc
 50
323.5307656099477
 51
52.72943909836341
  0
ARC
  5
14C
330
2
100
AcDbEntity
  8
image
100
AcDbCircle
 10
2.959894783313324
 20
6.256147497773755
 30
0.0
 40
0.1566980695398199
100
AcDbArc
 50
98.53076560994793
 51
187.7294390983636
  0
ARC
  5
14D
330
2
100
AcDbEntity
  8
image
100
AcDbCircle
 10
2.781375774477495
 20
6.390036754400626
 30
0.0
 40
0.1566980695398199
100
AcDbArc
 50
278.5307656099479
 51
7.729439098363577
  0
ARC
  5
14E
330
2
100
AcDbEntity
  8
image
100
AcDbCircle
 10
3.303171960720554
 20
6.132919793063466
 30
0.0
 40
0.1566980695398199
100
AcDbArc
 50
98.53076560994793
 51
187.7294390983636
  0
ARC
  5
14F
330
2
100
AcDbEntity
  8
image
100
AcDbCircle
 10
3.124652951884724
 20
6.266809049690339
 30
0.0
 40
0.1566980695398199
100
AcDbArc
 50
278.5307656099479
 51
7.729439098363577
  0
ARC
  5
150
330
2
100
AcDbEntity
  8
image
100
AcDbCircle
 10
2.860350905950641
 20
6.700024009171867
 30
0.0
 40
0.1566980695398199
100
AcDbArc
 50
339.7199718669747
 51
68.91864535539045
  0
ARC
  5
151
330
2
100
AcDbEntity
  8
image
100
AcDbCircle
 10
3.063698460156723
 20
6.791921461553462
 30
0.0
 40
0.1566980695398199
100
AcDbArc
 50
159.7199718669748
 51
248.9186453553905
  0
ARC
  5
152
330
2
100
AcDbEntity
  8
image
100
AcDbCircle
 10
2.877954863766396
 20
6.981687334223953
 30
0.0
 40
0.1566980695398199
100
AcDbArc
 50
339.7199718669747
 51
68.91864535539045
  0
ARC
  5
153
330
2
100
AcDbEntity
  8
image
100
AcDbCircle
 10
3.081302417972479
 20
7.073584786605547
 30
0.0
 40
0.1566980695398199
100
AcDbArc
 50
159.7199718669748
 51
248.9186453553905
  0
ARC
  5
154
330
2
100
AcDbEntity
  8
image
100
AcDbCircle
 10
3.318053809160279
 20
6.356746831764638
 30
0.0
 40
0.1566980695398199
100
AcDbArc
 50
339.7199718669747
 51
68.91864535539045
  0
ARC
  5
155
330
2
100
AcDbEntity
  8
image
100
AcDbCircle
 10
3.521401363366362
 20
6.448644284146232
 30
0.0
 40
0.1566980695398199
100
AcDbArc
 50
159.7199718669748
 51
248.9186453553905
  0
ARC
  5
156
330
2
100
AcDbEntity
  8
image
100
AcDbCircle
 10
3.265241935713012
 20
6.286331000501617
 30
0.0
 40
0.1566980695398199
100
AcDbArc
 50
339.7199718669747
 51
68.91864535539045
  0
ARC
  5
157
330
2
100
AcDbEntity
  8
image
100
AcDbCircle
 10
3.468589489919096
 20
6.378228452883211
 30
0.0
 40
0.1566980695398199
100
AcDbArc
 50
159.7199718669748
 51
248.9186453553905
  0
ARC
  5
158
330
2
100
AcDbEntity
  8
image
100
AcDbCircle
 10
3.432479534962689
 20
6.744033903711255
 30
0.0
 40
0.1566980695398199
100
AcDbArc
 50
339.7199718669747
 51
68.91864535539045
  0
ARC
  5
159
330
2
100
AcDbEntity
  8
image
100
AcDbCircle
 10
3.635827089168771
 20
6.835931356092849
 30
0.0
 40
0.1566980695398199
100
AcDbArc
 50
159.7199718669748
 51
248.9186453553905
  0
ARC
  5
15A
330
2
100
AcDbEntity
  8
image
100
AcDbCircle
 10
3.133212252094848
 20
6.708825988079745
 30
0.0
 40
0.1566980695398199
100
AcDbArc
 50
339.7199718669747
 51
68.91864535539045
  0
ARC
  5
15B
330
2
100
AcDbEntity
  8
image
100
AcDbCircle
 10
3.33655980630093
 20
6.800723440461339
 30
0.0
 40
0.1566980695398199
100
AcDbArc
 50
159.7199718669748
 51
248.9186453553905
  0
ARC
  5
15C
330
2
100
AcDbEntity
  8
image
100
AcDbCircle
 10
3.265241935713012
 20
6.964083376408197
 30
0.0
 40
0.1566980695398199
100
AcDbArc
 50
339.7199718669747
 51
68.91864535539045
  0
ARC
  5
15D
330
2
100
AcDbEntity
  8
image
100
AcDbCircle
 10
3.468589489919096
 20
7.055980828789791
 30
0.0
 40
0.1566980695398199
100
AcDbArc
 50
159.7199718669748
 51
248.9186453553905
  0
ARC
  5
15E
330
2
100
AcDbEntity
  8
image
100
AcDbCircle
 10
2.97477663175305
 20
6.761637861527011
 30
0.0
 40
0.1566980695398199
100
AcDbArc
 50
339.7199718669747
 51
68.91864535539045
  0
ARC
  5
15F
330
2
100
AcDbEntity
  8
image
100
AcDbCircle
 10
3.178124185959133
 20
6.853535313908605
 30
0.0
 40
0.1566980695398199
100
AcDbArc
 50
159.7199718669748
 51
248.9186453553905
  0
ARC
  5
160
330
2
100
AcDbEntity
  8
image
100
AcDbCircle
 10
2.734531882951522
 20
6.469096770950748
 30
0.0
 40
0.1566980695398199
100
AcDbArc
 50
339.7199718669747
 51
68.91864535539045
  0
ARC
  5
161
330
2
100
AcDbEntity
  8
image
100
AcDbCircle
 10
2.937879437157604
 20
6.560994223332342
 30
0.0
 40
0.1566980695398199
100
AcDbArc
 50
159.7199718669748
 51
248.9186453553905
  0
ARC
  5
162
330
2
100
AcDbEntity
  8
image
100
AcDbCircle
 10
2.913162779397907
 20
6.347944852856761
 30
0.0
 40
0.1566980695398199
100
AcDbArc
 50
339.7199718669747
 51
68.91864535539045
  0
ARC
  5
163
330
2
100
AcDbEntity
  8
image
100
AcDbCircle
 10
3.116510333603989
 20
6.439842305238355
 30
0.0
 40
0.1566980695398199
100
AcDbArc
 50
159.7199718669748
 51
248.9186453553905
  0
ARC
  5
164
330
2
100
AcDbEntity
  8
image
100
AcDbCircle
 10
2.97477663175305
 20
6.497578494290681
 30
0.0
 40
0.1566980695398199
100
AcDbArc
 50
339.7199718669747
 51
68.91864535539045
  0
ARC
  5
165
330
2
100
AcDbEntity
  8
image
100
AcDbCircle
 10
3.178124185959133
 20
6.589475946672275
 30
0.0
 40
0.1566980695398199
100
AcDbArc
 50
159.7199718669748
 51
248.9186453553905
  0
ARC
  5
166
330
2
100
AcDbEntity
  8
image
100
AcDbCircle
 10
3.335657766976034
 20
6.550390367737947
 30
0.0
 40
0.1566980695398199
100
AcDbArc
 50
339.7199718669747
 51
68.91864535539045
  0
ARC
  5
167
330
2
100
AcDbEntity
  8
image
100
AcDbCircle
 10
3.539005321182117
 20
6.642287820119541
 30
0.0
 40
0.1566980695398199
100
AcDbArc
 50
159.7199718669748
 51
248.9186453553905
  0
ARC
  5
168
330
2
100
AcDbEntity
  8
image
100
AcDbCircle
 10
3.485291408409954
 20
6.321538916133127
 30
0.0
 40
0.1566980695398199
100
AcDbArc
 50
339.7199718669747
 51
68.91864535539045
  0
ARC
  5
169
330
2
100
AcDbEntity
  8
image
100
AcDbCircle
 10
3.688638962616038
 20
6.413436368514722
 30
0.0
 40
0.1566980695398199
100
AcDbArc
 50
159.7199718669748
 51
248.9186453553905
  0
ARC
  5
16A
330
2
100
AcDbEntity
  8
image
100
AcDbCircle
 10
2.752669318450959
 20
6.911537701029124
 30
0.0
 40
0.1566980695398199
100
AcDbArc
 50
323.5307656099477
 51
52.72943909836341
  0
ARC
  5
16B
330
2
100
AcDbEntity
  8
image
100
AcDbCircle
 10
2.973575321458362
 20
6.943095701458752
 30
0.0
 40
0.1566980695398199
100
AcDbArc
 50
143.5307656099477
 51
232.7294390983635
  0
ARC
  5
16C
330
2
100
AcDbEntity
  8
image
100
AcDbCircle
 10
3.210372221660598
 20
6.823517911950348
 30
0.0
 40
0.1566980695398199
100
AcDbArc
 50
323.5307656099477
 51
52.72943909836341
  0
ARC
  5
16D
330
2
100
AcDbEntity
  8
image
100
AcDbCircle
 10
3.431278224668001
 20
6.855075912379976
 30
0.0
 40
0.1566980695398199
100
AcDbArc
 50
143.5307656099477
 51
232.7294390983635
  0
ARC
  5
16E
330
2
100
AcDbEntity
  8
image
100
AcDbCircle
 10
3.08714451695031
 20
7.025963426831534
 30
0.0
 40
0.1566980695398199
100
AcDbArc
 50
323.5307656099477
 51
52.72943909836341
  0
ARC
  5
16F
330
2
100
AcDbEntity
  8
image
100
AcDbCircle
 10
3.308050519957714
 20
7.057521427261162
 30
0.0
 40
0.1566980695398199
100
AcDbArc
 50
143.5307656099477
 51
232.7294390983635
  0
ARC
  5
170
330
2
100
AcDbEntity
  8
image
100
AcDbCircle
 10
3.333599926370885
 20
7.105181237002433
 30
0.0
 40
0.1566980695398199
100
AcDbArc
 50
323.5307656099477
 51
52.72943909836341
  0
ARC
  5
171
330
2
100
AcDbEntity
  8
image
100
AcDbCircle
 10
3.554505929378287
 20
7.136739237432061
 30
0.0
 40
0.1566980695398199
100
AcDbArc
 50
143.5307656099477
 51
232.7294390983635
  0
ARC
  5
172
330
2
100
AcDbEntity
  8
image
100
AcDbCircle
 10
3.474431588896929
 20
6.541854586898263
 30
0.0
 40
0.1566980695398199
100
AcDbArc
 50
323.5307656099477
 51
52.72943909836341
  0
ARC
  5
173
330
2
100
AcDbEntity
  8
image
100
AcDbCircle
 10
3.695337591904329
 20
6.57341258732789
 30
0.0
 40
0.1566980695398199
100
AcDbArc
 50
143.5307656099477
 51
232.7294390983635
  0
ARC
  5
174
330
2
100
AcDbEntity
  8
image
100
AcDbCircle
 10
3.333599926370885
 20
6.224983346214666
 30
0.0
 40
0.1566980695398199
100
AcDbArc
 50
323.5307656099477
 51
52.72943909836341
  0
ARC
  5
175
330
2
100
AcDbEntity
  8
image
100
AcDbCircle
 10
3.554505929378287
 20
6.256541346644294
 30
0.0
 40
0.1566980695398199
100
AcDbArc
 50
143.5307656099477
 51
232.7294390983635
  0
ARC
  5
176
330
2
100
AcDbEntity
  8
image
100
AcDbCircle
 10
3.175164306029087
 20
6.1721714727674
 30
0.0
 40
0.1566980695398199
100
AcDbArc
 50
323.5307656099477
 51
52.72943909836341
  0
ARC
  5
177
330
2
100
AcDbEntity
  8
image
100
AcDbCircle
 10
3.396070309036489
 20
6.203729473197029
 30
0.0
 40
0.1566980695398199
100
AcDbArc
 50
143.5307656099477
 51
232.7294390983635
  0
ARC
  5
178
330
2
100
AcDbEntity
  8
image
100
AcDbCircle
 10
2.884699002069124
 20
6.189775430583156
 30
0.0
 40
0.1566980695398199
100
AcDbArc
 50
323.5307656099477
 51
52.72943909836341
  0
ARC
  5
179
330
2
100
AcDbEntity
  8
image
100
AcDbCircle
 10
3.105605005076527
 20
6.221333431012784
 30
0.0
 40
0.1566980695398199
100
AcDbArc
 50
143.5307656099477
 51
232.7294390983635
  0
ARC
  5
17A
330
2
100
AcDbEntity
  8
image
100
AcDbCircle
 10
3.069540559134555
 20
6.330607093109199
 30
0.0
 40
0.1566980695398199
100
AcDbArc
 50
323.5307656099477
 51
52.72943909836341
  0
ARC
  5
17B
330
2
100
AcDbEntity
  8
image
100
AcDbCircle
 10
3.290446562141957
 20
6.362165093538826
 30
0.0
 40
0.1566980695398199
100
AcDbArc
 50
143.5307656099477
 51
232.7294390983635
  0
ARC
  5
17C
330
2
100
AcDbEntity
  8
image
100
AcDbCircle
 10
3.192768263844843
 20
6.55065656580614
 30
0.0
 40
0.1566980695398199
100
AcDbArc
 50
323.5307656099477
 51
52.72943909836341
  0
ARC
  5
17D
330
2
100
AcDbEntity
  8
image
100
AcDbCircle
 10
3.413674266852244
 20
6.582214566235768
 30
0.0
 40
0.1566980695398199
100
AcDbArc
 50
143.5307656099477
 51
232.7294390983635
  0
ARC
  5
17E
330
2
100
AcDbEntity
  8
image
100
AcDbCircle
 10
3.263184095107863
 20
6.709092186147938
 30
0.0
 40
0.1566980695398199
100
AcDbArc
 50
323.5307656099477
 51
52.72943909836341
  0
ARC
  5
17F
330
2
100
AcDbEntity
  8
image
100
AcDbCircle
 10
3.484090098115266
 20
6.740650186577566
 30
0.0
 40
0.1566980695398199
100
AcDbArc
 50
143.5307656099477
 51
232.7294390983635
  0
ARC
  5
180
330
2
100
AcDbEntity
  8
image
100
AcDbCircle
 10
3.307193989647252
 20
6.797111975226714
 30
0.0
 40
0.1566980695398199
100
AcDbArc
 50
323.5307656099477
 51
52.72943909836341
  0
ARC
  5
181
330
2
100
AcDbEntity
  8
image
100
AcDbCircle
 10
3.528099992654655
 20
6.828669975656342
 30
0.0
 40
0.1566980695398199
100
AcDbArc
 50
143.5307656099477
 51
232.7294390983635
  0
ARC
  5
182
330
2
100
AcDbEntity
  8
image
100
AcDbCircle
 10
2.990322748963656
 20
6.665082291608549
 30
0.0
 40
0.1566980695398199
100
AcDbArc
 50
323.5307656099477
 51
52.72943909836341
  0
ARC
  5
183
330
2
100
AcDbEntity
  8
image
100
AcDbCircle
 10
3.211228751971059
 20
6.696640292038178
 30
0.0
 40
0.1566980695398199
100
AcDbArc
 50
143.5307656099477
 51
232.7294390983635
  0
ARC
  5
184
330
2
100
AcDbEntity
  8
image
100
AcDbCircle
 10
2.849491086437614
 20
6.541854586898263
 30
0.0
 40
0.1566980695398199
100
AcDbArc
 50
323.5307656099477
 51
52.72943909836341
  0
ARC
  5
185
330
2
100
AcDbEntity
  8
image
100
AcDbCircle
 10
3.070397089445016
 20
6.57341258732789
 30
0.0
 40
0.1566980695398199
100
AcDbArc
 50
143.5307656099477
 51
232.7294390983635
  0
ARC
  5
186
330
2
100
AcDbEntity
  8
image
100
AcDbCircle
 10
2.770273276266715
 20
6.189775430583156
 30
0.0
 40
0.1566980695398199
100
AcDbArc
 50
323.5307656099477
 51
52.72943909836341
  0
ARC
  5
187
330
2
100
AcDbEntity
  8
image
100
AcDbCircle
 10
2.991179279274117
 20
6.221333431012784
 30
0.0
 40
0.1566980695398199
100
AcDbArc
 50
143.5307656099477
 51
232.7294390983635
  0
ARC
  5
188
330
2
100
AcDbEntity
  8
image
100
AcDbCircle
 10
2.620639634832794
 20
6.207379388398911
 30
0.0
 40
0.1566980695398199
100
AcDbArc
 50
323.5307656099477
 51
52.72943909836341
  0
ARC
  5
189
330
2
100
AcDbEntity
  8
image
100
AcDbCircle
 10
2.841545637840197
 20
6.238937388828539
 30
0.0
 40
0.1566980695398199
100
AcDbArc
 50
143.5307656099477
 51
232.7294390983635
  0
ARC
  5
18A
330
2
100
AcDbEntity
  8
image
100
AcDbCircle
 10
2.664649529372182
 20
6.330607093109199
 30
0.0
 40
0.1566980695398199
100
AcDbArc
 50
323.5307656099477
 51
52.72943909836341
  0
ARC
  5
18B
330
2
100
AcDbEntity
  8
image
100
AcDbCircle
 10
2.885555532379586
 20
6.362165093538826
 30
0.0
 40
0.1566980695398199
100
AcDbArc
 50
143.5307656099477
 51
232.7294390983635
  0
ARC
  5
18C
330
2
100
AcDbEntity
  8
image
100
AcDbCircle
 10
2.752669318450959
 20
6.726696143963693
 30
0.0
 40
0.1566980695398199
100
AcDbArc
 50
323.5307656099477
 51
52.72943909836341
  0
ARC
  5
18D
330
2
100
AcDbEntity
  8
image
100
AcDbCircle
 10
2.973575321458362
 20
6.758254144393322
 30
0.0
 40
0.1566980695398199
100
AcDbArc
 50
143.5307656099477
 51
232.7294390983635
  0
ARC
  5
18E
330
2
100
AcDbEntity
  8
image
100
AcDbCircle
 10
3.474431588896929
 20
6.885131764305492
 30
0.0
 40
0.1566980695398199
100
AcDbArc
 50
323.5307656099477
 51
52.72943909836341
  0
ARC
  5
18F
330
2
100
AcDbEntity
  8
image
100
AcDbCircle
 10
3.695337591904329
 20
6.916689764735119
 30
0.0
 40
0.1566980695398199
100
AcDbArc
 50
143.5307656099477
 51
232.7294390983635
  0
ARC
  5
190
330
2
100
AcDbEntity
  8
image
100
AcDbCircle
 10
2.946312854424268
 20
7.04356738464729
 30
0.0
 40
0.1566980695398199
100
AcDbArc
 50
323.5307656099477
 51
52.72943909836341
  0
ARC
  5
191
330
2
100
AcDbEntity
  8
image
100
AcDbCircle
 10
3.167218857431671
 20
7.075125385076917
 30
0.0
 40
0.1566980695398199
100
AcDbArc
 50
143.5307656099477
 51
232.7294390983635
  0
ARC
  5
192
330
2
100
AcDbEntity
  8
image
100
AcDbCircle
 10
3.430421694357539
 20
6.198577409491034
 30
0.0
 40
0.1566980695398199
100
AcDbArc
 50
323.5307656099477
 51
52.72943909836341
  0
ARC
  5
193
330
2
100
AcDbEntity
  8
image
100
AcDbCircle
 10
3.651327697364943
 20
6.230135409920661
 30
0.0
 40
0.1566980695398199
100
AcDbArc
 50
143.5307656099477
 51
232.7294390983635
  0
ARC
  5
194
330
2
100
AcDbEntity
  8
image
100
AcDbCircle
 10
3.175984662894829
 20
6.439779901928631
 30
0.0
 40
0.1566980695398199
100
AcDbArc
 50
296.0563205359582
 51
25.25499402437389
  0
ARC
  5
195
330
2
100
AcDbEntity
  8
image
100
AcDbCircle
 10
3.38653553276895
 20
6.365863051677321
 30
0.0
 40
0.1566980695398199
100
AcDbArc
 50
116.0563205359582
 51
205.254994024374
  0
ARC
  5
196
330
2
100
AcDbEntity
  8
image
100
AcDbCircle
 10
3.007739752707468
 20
6.278850119373449
 30
0.0
 40
0.1566980695398199
100
AcDbArc
 50
296.0563205359582
 51
25.25499402437389
  0
ARC
  5
197
330
2
100
AcDbEntity
  8
image
100
AcDbCircle
 10
3.218290622581588
 20
6.204933269122139
 30
0.0
 40
0.1566980695398199
100
AcDbArc
 50
116.0563205359582
 51
205.254994024374
  0
ARC
  5
198
330
2
100
AcDbEntity
  8
image
100
AcDbCircle
 10
2.98579476442216
 20
6.432464911812487
 30
0.0
 40
0.1566980695398199
100
AcDbArc
 50
296.0563205359582
 51
25.25499402437389
  0
ARC
  5
199
330
2
100
AcDbEntity
  8
image
100
AcDbCircle
 10
3.196345634296279
 20
6.358548061561176
 30
0.0
 40
0.1566980695398199
100
AcDbArc
 50
116.0563205359582
 51
205.254994024374
  0
ARC
  5
19A
330
2
100
AcDbEntity
  8
image
100
AcDbCircle
 10
2.652962442094987
 20
6.757981971980922
 30
0.0
 40
0.1566980695398199
100
AcDbArc
 50
296.0563205359582
 51
25.25499402437389
  0
ARC
  5
19B
330
2
100
AcDbEntity
  8
image
100
AcDbCircle
 10
2.863513311969108
 20
6.684065121729612
 30
0.0
 40
0.1566980695398199
100
AcDbArc
 50
116.0563205359582
 51
205.254994024374
  0
ARC
  5
19C
330
2
100
AcDbEntity
  8
image
100
AcDbCircle
 10
3.402749541843014
 20
6.527559783322367
 30
0.0
 40
0.1566980695398199
100
AcDbArc
 50
296.0563205359582
 51
25.25499402437389
  0
ARC
  5
19D
330
2
100
AcDbEntity
  8
image
100
AcDbCircle
 10
3.613300411717133
 20
6.453642933071057
 30
0.0
 40
0.1566980695398199
100
AcDbArc
 50
116.0563205359582
 51
205.254994024374
  0
ARC
  5
19E
330
2
100
AcDbEntity
  8
image
100
AcDbCircle
 10
3.080889713658495
 20
6.739694496690561
 30
0.0
 40
0.1566980695398199
100
AcDbArc
 50
296.0563205359582
 51
25.25499402437389
  0
ARC
  5
19F
330
2
100
AcDbEntity
  8
image
100
AcDbCircle
 10
3.291440583532616
 20
6.66577764643925
 30
0.0
 40
0.1566980695398199
100
AcDbArc
 50
116.0563205359582
 51
205.254994024374
  0
ARC
  5
1A0
330
2
100
AcDbEntity
  8
image
100
AcDbCircle
 10
3.139409682419316
 20
6.933541734768394
 30
0.0
 40
0.1566980695398199
100
AcDbArc
 50
296.0563205359582
 51
25.25499402437389
  0
ARC
  5
1A1
330
2
100
AcDbEntity
  8
image
100
AcDbCircle
 10
3.349960552293436
 20
6.859624884517083
 30
0.0
 40
0.1566980695398199
100
AcDbArc
 50
116.0563205359582
 51
205.254994024374
  0
ARC
  5
1A2
330
2
100
AcDbEntity
  8
image
100
AcDbCircle
 10
2.872412324948067
 20
6.948171715000682
 30
0.0
 40
0.1566980695398199
100
AcDbArc
 50
296.0563205359582
 51
25.25499402437389
  0
ARC
  5
1A3
330
2
100
AcDbEntity
  8
image
100
AcDbCircle
 10
3.082963194822188
 20
6.874254864749373
 30
0.0
 40
0.1566980695398199
100
AcDbArc
 50
116.0563205359582
 51
205.254994024374
  0
ARC
  5
1A4
330
2
100
AcDbEntity
  8
image
100
AcDbCircle
 10
2.707824912808257
 20
7.134703962962371
 30
0.0
 40
0.1566980695398199
100
AcDbArc
 50
296.0563205359582
 51
25.25499402437389
  0
ARC
  5
1A5
330
2
100
AcDbEntity
  8
image
100
AcDbCircle
 10
2.918375782682378
 20
7.060787112711061
 30
0.0
 40
0.1566980695398199
100
AcDbArc
 50
116.0563205359582
 51
205.254994024374
  0
ARC
  5
1A6
330
2
100
AcDbEntity
  8
image
100
AcDbCircle
 10
2.693194920618052
 20
6.977431675465261
 30
0.0
 40
0.1566980695398199
100
AcDbArc
 50
296.0563205359582
 51
25.25499402437389
  0
ARC
  5
1A7
330
2
100
AcDbEntity
  8
image
100
AcDbCircle
 10
2.903745790492171
 20
6.90351482521395
 30
0.0
 40
0.1566980695398199
100
AcDbArc
 50
116.0563205359582
 51
205.254994024374
  0
ARC
  5
1A8
330
2
100
AcDbEntity
  8
image
100
AcDbCircle
 10
2.601757469429268
 20
6.538532268496584
 30
0.0
 40
0.1566980695398199
100
AcDbArc
 50
296.0563205359582
 51
25.25499402437389
  0
ARC
  5
1A9
330
2
100
AcDbEntity
  8
image
100
AcDbCircle
 10
2.812308339303388
 20
6.464615418245274
 30
0.0
 40
0.1566980695398199
100
AcDbArc
 50
116.0563205359582
 51
205.254994024374
  0
ARC
  5
1AA
330
2
100
AcDbEntity
  8
image
100
AcDbCircle
 10
3.278394608226266
 20
6.597052189425741
 30
0.0
 40
0.1566980695398199
100
AcDbArc
 50
296.0563205359582
 51
25.25499402437389
  0
ARC
  5
1AB
330
2
100
AcDbEntity
  8
image
100
AcDbCircle
 10
3.488945478100387
 20
6.52313533917443
 30
0.0
 40
0.1566980695398199
100
AcDbArc
 50
116.0563205359582
 51
205.254994024374
  0
ARC
  5
1AC
330
2
100
AcDbEntity
  8
image
100
AcDbCircle
 10
1.872081645809018
 20
6.916295915864579
 30
0.0
 40
0.1566980695398199
100
AcDbArc
 50
98.53076560994793
 51
187.7294390983636
  0
ARC
  5
1AD
330
2
100
AcDbEntity
  8
image
100
AcDbCircle
 10
1.69356263697319
 20
7.050185172491451
 30
0.0
 40
0.1566980695398199
100
AcDbArc
 50
278.5307656099479
 51
7.729439098363577
  0
ARC
  5
1AE
330
2
100
AcDbEntity
  8
image
100
AcDbCircle
 10
1.44958665823089
 20
6.810672168970047
 30
0.0
 40
0.1566980695398199
100
AcDbArc
 50
98.53076560994793
 51
187.7294390983636
  0
ARC
  5
1AF
330
2
100
AcDbEntity
  8
image
100
AcDbCircle
 10
1.271067649395062
 20
6.944561425596919
 30
0.0
 40
0.1566980695398199
100
AcDbArc
 50
278.5307656099479
 51
7.729439098363577
  0
ARC
  5
1B0
330
2
100
AcDbEntity
  8
image
100
AcDbCircle
 10
1.562192313982166
 20
6.580673967764398
 30
0.0
 40
0.1566980695398199
100
AcDbArc
 50
159.7199718669748
 51
248.9186453553905
  0
ARC
  5
1B1
330
2
100
AcDbEntity
  8
image
100
AcDbCircle
 10
1.358844759776084
 20
6.488776515382803
 30
0.0
 40
0.1566980695398199
100
AcDbArc
 50
339.7199718669747
 51
68.91864535539045
  0
ARC
  5
1B2
330
2
100
AcDbEntity
  8
image
100
AcDbCircle
 10
1.880883624716896
 20
6.678642485351883
 30
0.0
 40
0.1566980695398199
100
AcDbArc
 50
98.53076560994793
 51
187.7294390983636
  0
ARC
  5
1B3
330
2
100
AcDbEntity
  8
image
100
AcDbCircle
 10
1.702364615881066
 20
6.812531741978754
 30
0.0
 40
0.1566980695398199
100
AcDbArc
 50
278.5307656099479
 51
7.729439098363577
  0
ARC
  5
1B4
330
2
100
AcDbEntity
  8
image
100
AcDbCircle
 10
1.067178145521432
 20
6.934293722550875
 30
0.0
 40
0.1566980695398199
100
AcDbArc
 50
143.5307656099477
 51
232.7294390983635
  0
ARC
  5
1B5
330
2
100
AcDbEntity
  8
image
100
AcDbCircle
 10
0.84627214251403
 20
6.902735722121247
 30
0.0
 40
0.1566980695398199
100
AcDbArc
 50
323.5307656099477
 51
52.72943909836341
  0
ARC
  5
1B6
330
2
100
AcDbEntity
  8
image
100
AcDbCircle
 10
1.211933227718193
 20
6.256147497773755
 30
0.0
 40
0.1566980695398199
100
AcDbArc
 50
98.53076560994793
 51
187.7294390983636
  0
ARC
  5
1B7
330
2
100
AcDbEntity
  8
image
100
AcDbCircle
 10
1.033414218882364
 20
6.390036754400626
 30
0.0
 40
0.1566980695398199
100
AcDbArc
 50
278.5307656099479
 51
7.729439098363577
  0
ARC
  5
1B8
330
2
100
AcDbEntity
  8
image
100
AcDbCircle
 10
1.555210405125422
 20
6.132919793063466
 30
0.0
 40
0.1566980695398199
100
AcDbArc
 50
98.53076560994793
 51
187.7294390983636
  0
ARC
  5
1B9
330
2
100
AcDbEntity
  8
image
100
AcDbCircle
 10
1.376691396289593
 20
6.266809049690339
 30
0.0
 40
0.1566980695398199
100
AcDbArc
 50
278.5307656099479
 51
7.729439098363577
  0
ARC
  5
1BA
330
2
100
AcDbEntity
  8
image
100
AcDbCircle
 10
1.11238935035551
 20
6.700024009171867
 30
0.0
 40
0.1566980695398199
100
AcDbArc
 50
339.7199718669747
 51
68.91864535539045
  0
ARC
  5
1BB
330
2
100
AcDbEntity
  8
image
100
AcDbCircle
 10
1.315736904561592
 20
6.791921461553462
 30
0.0
 40
0.1566980695398199
100
AcDbArc
 50
159.7199718669748
 51
248.9186453553905
  0
ARC
  5
1BC
330
2
100
AcDbEntity
  8
image
100
AcDbCircle
 10
1.129993308171265
 20
6.981687334223953
 30
0.0
 40
0.1566980695398199
100
AcDbArc
 50
339.7199718669747
 51
68.91864535539045
  0
ARC
  5
1BD
330
2
100
AcDbEntity
  8
image
100
AcDbCircle
 10
1.333340862377348
 20
7.073584786605547
 30
0.0
 40
0.1566980695398199
100
AcDbArc
 50
159.7199718669748
 51
248.9186453553905
  0
ARC
  5
1BE
330
2
100
AcDbEntity
  8
image
100
AcDbCircle
 10
1.570092253565148
 20
6.356746831764638
 30
0.0
 40
0.1566980695398199
100
AcDbArc
 50
339.7199718669747
 51
68.91864535539045
  0
ARC
  5
1BF
330
2
100
AcDbEntity
  8
image
100
AcDbCircle
 10
1.773439807771231
 20
6.448644284146232
 30
0.0
 40
0.1566980695398199
100
AcDbArc
 50
159.7199718669748
 51
248.9186453553905
  0
ARC
  5
1C0
330
2
100
AcDbEntity
  8
image
100
AcDbCircle
 10
1.517280380117882
 20
6.286331000501617
 30
0.0
 40
0.1566980695398199
100
AcDbArc
 50
339.7199718669747
 51
68.91864535539045
  0
ARC
  5
1C1
330
2
100
AcDbEntity
  8
image
100
AcDbCircle
 10
1.720627934323965
 20
6.378228452883211
 30
0.0
 40
0.1566980695398199
100
AcDbArc
 50
159.7199718669748
 51
248.9186453553905
  0
ARC
  5
1C2
330
2
100
AcDbEntity
  8
image
100
AcDbCircle
 10
1.684517979367558
 20
6.744033903711255
 30
0.0
 40
0.1566980695398199
100
AcDbArc
 50
339.7199718669747
 51
68.91864535539045
  0
ARC
  5
1C3
330
2
100
AcDbEntity
  8
image
100
AcDbCircle
 10
1.88786553357364
 20
6.835931356092849
 30
0.0
 40
0.1566980695398199
100
AcDbArc
 50
159.7199718669748
 51
248.9186453553905
  0
ARC
  5
1C4
330
2
100
AcDbEntity
  8
image
100
AcDbCircle
 10
1.385250696499718
 20
6.708825988079745
 30
0.0
 40
0.1566980695398199
100
AcDbArc
 50
339.7199718669747
 51
68.91864535539045
  0
ARC
  5
1C5
330
2
100
AcDbEntity
  8
image
100
AcDbCircle
 10
1.5885982507058
 20
6.800723440461339
 30
0.0
 40
0.1566980695398199
100
AcDbArc
 50
159.7199718669748
 51
248.9186453553905
  0
ARC
  5
1C6
330
2
100
AcDbEntity
  8
image
100
AcDbCircle
 10
1.517280380117882
 20
6.964083376408197
 30
0.0
 40
0.1566980695398199
100
AcDbArc
 50
339.7199718669747
 51
68.91864535539045
  0
ARC
  5
1C7
330
2
100
AcDbEntity
  8
image
100
AcDbCircle
 10
1.720627934323965
 20
7.055980828789791
 30
0.0
 40
0.1566980695398199
100
AcDbArc
 50
159.7199718669748
 51
248.9186453553905
  0
ARC
  5
1C8
330
2
100
AcDbEntity
  8
image
100
AcDbCircle
 10
1.226815076157919
 20
6.761637861527011
 30
0.0
 40
0.1566980695398199
100
AcDbArc
 50
339.7199718669747
 51
68.91864535539045
  0
ARC
  5
1C9
330
2
100
AcDbEntity
  8
image
100
AcDbCircle
 10
1.430162630364002
 20
6.853535313908605
 30
0.0
 40
0.1566980695398199
100
AcDbArc
 50
159.7199718669748
 51
248.9186453553905
  0
ARC
  5
1CA
330
2
100
AcDbEntity
  8
image
100
AcDbCircle
 10
0.9865703273563914
 20
6.469096770950748
 30
0.0
 40
0.1566980695398199
100
AcDbArc
 50
339.7199718669747
 51
68.91864535539045
  0
ARC
  5
1CB
330
2
100
AcDbEntity
  8
image
100
AcDbCircle
 10
1.189917881562473
 20
6.560994223332342
 30
0.0
 40
0.1566980695398199
100
AcDbArc
 50
159.7199718669748
 51
248.9186453553905
  0
ARC
  5
1CC
330
2
100
AcDbEntity
  8
image
100
AcDbCircle
 10
1.165201223802776
 20
6.347944852856761
 30
0.0
 40
0.1566980695398199
100
AcDbArc
 50
339.7199718669747
 51
68.91864535539045
  0
ARC
  5
1CD
330
2
100
AcDbEntity
  8
image
100
AcDbCircle
 10
1.368548778008858
 20
6.439842305238355
 30
0.0
 40
0.1566980695398199
100
AcDbArc
 50
159.7199718669748
 51
248.9186453553905
  0
ARC
  5
1CE
330
2
100
AcDbEntity
  8
image
100
AcDbCircle
 10
1.226815076157919
 20
6.497578494290681
 30
0.0
 40
0.1566980695398199
100
AcDbArc
 50
339.7199718669747
 51
68.91864535539045
  0
ARC
  5
1CF
330
2
100
AcDbEntity
  8
image
100
AcDbCircle
 10
1.430162630364002
 20
6.589475946672275
 30
0.0
 40
0.1566980695398199
100
AcDbArc
 50
159.7199718669748
 51
248.9186453553905
  0
ARC
  5
1D0
330
2
100
AcDbEntity
  8
image
100
AcDbCircle
 10
1.587696211380903
 20
6.550390367737947
 30
0.0
 40
0.1566980695398199
100
AcDbArc
 50
339.7199718669747
 51
68.91864535539045
  0
ARC
  5
1D1
330
2
100
AcDbEntity
  8
image
100
AcDbCircle
 10
1.791043765586986
 20
6.642287820119541
 30
0.0
 40
0.1566980695398199
100
AcDbArc
 50
159.7199718669748
 51
248.9186453553905
  0
ARC
  5
1D2
330
2
100
AcDbEntity
  8
image
100
AcDbCircle
 10
1.737329852814823
 20
6.321538916133127
 30
0.0
 40
0.1566980695398199
100
AcDbArc
 50
339.7199718669747
 51
68.91864535539045
  0
ARC
  5
1D3
330
2
100
AcDbEntity
  8
image
100
AcDbCircle
 10
1.940677407020906
 20
6.413436368514722
 30
0.0
 40
0.1566980695398199
100
AcDbArc
 50
159.7199718669748
 51
248.9186453553905
  0
ARC
  5
1D4
330
2
100
AcDbEntity
  8
image
100
AcDbCircle
 10
1.004707762855828
 20
6.911537701029124
 30
0.0
 40
0.1566980695398199
100
AcDbArc
 50
323.5307656099477
 51
52.72943909836341
  0
ARC
  5
1D5
330
2
100
AcDbEntity
  8
image
100
AcDbCircle
 10
1.225613765863231
 20
6.943095701458752
 30
0.0
 40
0.1566980695398199
100
AcDbArc
 50
143.5307656099477
 51
232.7294390983635
  0
ARC
  5
1D6
330
2
100
AcDbEntity
  8
image
100
AcDbCircle
 10
1.462410666065467
 20
6.823517911950348
 30
0.0
 40
0.1566980695398199
100
AcDbArc
 50
323.5307656099477
 51
52.72943909836341
  0
ARC
  5
1D7
330
2
100
AcDbEntity
  8
image
100
AcDbCircle
 10
1.68331666907287
 20
6.855075912379976
 30
0.0
 40
0.1566980695398199
100
AcDbArc
 50
143.5307656099477
 51
232.7294390983635
  0
ARC
  5
1D8
330
2
100
AcDbEntity
  8
image
100
AcDbCircle
 10
1.339182961355179
 20
7.025963426831534
 30
0.0
 40
0.1566980695398199
100
AcDbArc
 50
323.5307656099477
 51
52.72943909836341
  0
ARC
  5
1D9
330
2
100
AcDbEntity
  8
image
100
AcDbCircle
 10
1.560088964362583
 20
7.057521427261162
 30
0.0
 40
0.1566980695398199
100
AcDbArc
 50
143.5307656099477
 51
232.7294390983635
  0
ARC
  5
1DA
330
2
100
AcDbEntity
  8
image
100
AcDbCircle
 10
1.585638370775755
 20
7.105181237002433
 30
0.0
 40
0.1566980695398199
100
AcDbArc
 50
323.5307656099477
 51
52.72943909836341
  0
ARC
  5
1DB
330
2
100
AcDbEntity
  8
image
100
AcDbCircle
 10
1.806544373783156
 20
7.136739237432061
 30
0.0
 40
0.1566980695398199
100
AcDbArc
 50
143.5307656099477
 51
232.7294390983635
  0
ARC
  5
1DC
330
2
100
AcDbEntity
  8
image
100
AcDbCircle
 10
1.726470033301797
 20
6.541854586898263
 30
0.0
 40
0.1566980695398199
100
AcDbArc
 50
323.5307656099477
 51
52.72943909836341
  0
ARC
  5
1DD
330
2
100
AcDbEntity
  8
image
100
AcDbCircle
 10
1.947376036309198
 20
6.57341258732789
 30
0.0
 40
0.1566980695398199
100
AcDbArc
 50
143.5307656099477
 51
232.7294390983635
  0
ARC
  5
1DE
330
2
100
AcDbEntity
  8
image
100
AcDbCircle
 10
1.585638370775755
 20
6.224983346214666
 30
0.0
 40
0.1566980695398199
100
AcDbArc
 50
323.5307656099477
 51
52.72943909836341
  0
ARC
  5
1DF
330
2
100
AcDbEntity
  8
image
100
AcDbCircle
 10
1.806544373783156
 20
6.256541346644294
 30
0.0
 40
0.1566980695398199
100
AcDbArc
 50
143.5307656099477
 51
232.7294390983635
  0
ARC
  5
1E0
330
2
100
AcDbEntity
  8
image
100
AcDbCircle
 10
1.427202750433956
 20
6.1721714727674
 30
0.0
 40
0.1566980695398199
100
AcDbArc
 50
323.5307656099477
 51
52.72943909836341
  0
ARC
  5
1E1
330
2
100
AcDbEntity
  8
image
100
AcDbCircle
 10
1.648108753441358
 20
6.203729473197029
 30
0.0
 40
0.1566980695398199
100
AcDbArc
 50
143.5307656099477
 51
232.7294390983635
  0
ARC
  5
1E2
330
2
100
AcDbEntity
  8
image
100
AcDbCircle
 10
1.136737446473993
 20
6.189775430583156
 30
0.0
 40
0.1566980695398199
100
AcDbArc
 50
323.5307656099477
 51
52.72943909836341
  0
ARC
  5
1E3
330
2
100
AcDbEntity
  8
image
100
AcDbCircle
 10
1.357643449481396
 20
6.221333431012784
 30
0.0
 40
0.1566980695398199
100
AcDbArc
 50
143.5307656099477
 51
232.7294390983635
  0
ARC
  5
1E4
330
2
100
AcDbEntity
  8
image
100
AcDbCircle
 10
1.321579003539424
 20
6.330607093109199
 30
0.0
 40
0.1566980695398199
100
AcDbArc
 50
323.5307656099477
 51
52.72943909836341
  0
ARC
  5
1E5
330
2
100
AcDbEntity
  8
image
100
AcDbCircle
 10
1.542485006546826
 20
6.362165093538826
 30
0.0
 40
0.1566980695398199
100
AcDbArc
 50
143.5307656099477
 51
232.7294390983635
  0
ARC
  5
1E6
330
2
100
AcDbEntity
  8
image
100
AcDbCircle
 10
1.444806708249712
 20
6.55065656580614
 30
0.0
 40
0.1566980695398199
100
AcDbArc
 50
323.5307656099477
 51
52.72943909836341
  0
ARC
  5
1E7
330
2
100
AcDbEntity
  8
image
100
AcDbCircle
 10
1.665712711257113
 20
6.582214566235768
 30
0.0
 40
0.1566980695398199
100
AcDbArc
 50
143.5307656099477
 51
232.7294390983635
  0
ARC
  5
1E8
330
2
100
AcDbEntity
  8
image
100
AcDbCircle
 10
1.515222539512732
 20
6.709092186147938
 30
0.0
 40
0.1566980695398199
100
AcDbArc
 50
323.5307656099477
 51
52.72943909836341
  0
ARC
  5
1E9
330
2
100
AcDbEntity
  8
image
100
AcDbCircle
 10
1.736128542520136
 20
6.740650186577566
 30
0.0
 40
0.1566980695398199
100
AcDbArc
 50
143.5307656099477
 51
232.7294390983635
  0
ARC
  5
1EA
330
2
100
AcDbEntity
  8
image
100
AcDbCircle
 10
1.559232434052121
 20
6.797111975226714
 30
0.0
 40
0.1566980695398199
100
AcDbArc
 50
323.5307656099477
 51
52.72943909836341
  0
ARC
  5
1EB
330
2
100
AcDbEntity
  8
image
100
AcDbCircle
 10
1.780138437059524
 20
6.828669975656342
 30
0.0
 40
0.1566980695398199
100
AcDbArc
 50
143.5307656099477
 51
232.7294390983635
  0
ARC
  5
1EC
330
2
100
AcDbEntity
  8
image
100
AcDbCircle
 10
1.242361193368525
 20
6.665082291608549
 30
0.0
 40
0.1566980695398199
100
AcDbArc
 50
323.5307656099477
 51
52.72943909836341
  0
ARC
  5
1ED
330
2
100
AcDbEntity
  8
image
100
AcDbCircle
 10
1.463267196375928
 20
6.696640292038178
 30
0.0
 40
0.1566980695398199
100
AcDbArc
 50
143.5307656099477
 51
232.7294390983635
  0
ARC
  5
1EE
330
2
100
AcDbEntity
  8
image
100
AcDbCircle
 10
1.101529530842483
 20
6.541854586898263
 30
0.0
 40
0.1566980695398199
100
AcDbArc
 50
323.5307656099477
 51
52.72943909836341
  0
ARC
  5
1EF
330
2
100
AcDbEntity
  8
image
100
AcDbCircle
 10
1.322435533849885
 20
6.57341258732789
 30
0.0
 40
0.1566980695398199
100
AcDbArc
 50
143.5307656099477
 51
232.7294390983635
  0
ARC
  5
1F0
330
2
100
AcDbEntity
  8
image
100
AcDbCircle
 10
1.022311720671584
 20
6.189775430583156
 30
0.0
 40
0.1566980695398199
100
AcDbArc
 50
323.5307656099477
 51
52.72943909836341
  0
ARC
  5
1F1
330
2
100
AcDbEntity
  8
image
100
AcDbCircle
 10
1.243217723678986
 20
6.221333431012784
 30
0.0
 40
0.1566980695398199
100
AcDbArc
 50
143.5307656099477
 51
232.7294390983635
  0
ARC
  5
1F2
330
2
100
AcDbEntity
  8
image
100
AcDbCircle
 10
0.8726780792376633
 20
6.207379388398911
 30
0.0
 40
0.1566980695398199
100
AcDbArc
 50
323.5307656099477
 51
52.72943909836341
  0
ARC
  5
1F3
330
2
100
AcDbEntity
  8
image
100
AcDbCircle
 10
1.093584082245066
 20
6.238937388828539
 30
0.0
 40
0.1566980695398199
100
AcDbArc
 50
143.5307656099477
 51
232.7294390983635
  0
ARC
  5
1F4
330
2
100
AcDbEntity
  8
image
100
AcDbCircle
 10
0.9166879737770516
 20
6.330607093109199
 30
0.0
 40
0.1566980695398199
100
AcDbArc
 50
323.5307656099477
 51
52.72943909836341
  0
ARC
  5
1F5
330
2
100
AcDbEntity
  8
image
100
AcDbCircle
 10
1.137593976784455
 20
6.362165093538826
 30
0.0
 40
0.1566980695398199
100
AcDbArc
 50
143.5307656099477
 51
232.7294390983635
  0
ARC
  5
1F6
330
2
100
AcDbEntity
  8
image
100
AcDbCircle
 10
1.004707762855828
 20
6.726696143963693
 30
0.0
 40
0.1566980695398199
100
AcDbArc
 50
323.5307656099477
 51
52.72943909836341
  0
ARC
  5
1F7
330
2
100
AcDbEntity
  8
image
100
AcDbCircle
 10
1.225613765863231
 20
6.758254144393322
 30
0.0
 40
0.1566980695398199
100
AcDbArc
 50
143.5307656099477
 51
232.7294390983635
  0
ARC
  5
1F8
330
2
100
AcDbEntity
  8
image
100
AcDbCircle
 10
1.726470033301797
 20
6.885131764305492
 30
0.0
 40
0.1566980695398199
100
AcDbArc
 50
323.5307656099477
 51
52.72943909836341
  0
ARC
  5
1F9
330
2
100
AcDbEntity
  8
image
100
AcDbCircle
 10
1.947376036309198
 20
6.916689764735119
 30
0.0
 40
0.1566980695398199
100
AcDbArc
 50
143.5307656099477
 51
232.7294390983635
  0
ARC
  5
1FA
330
2
100
AcDbEntity
  8
image
100
AcDbCircle
 10
1.198351298829137
 20
7.04356738464729
 30
0.0
 40
0.1566980695398199
100
AcDbArc
 50
323.5307656099477
 51
52.72943909836341
  0
ARC
  5
1FB
330
2
100
AcDbEntity
  8
image
100
AcDbCircle
 10
1.41925730183654
 20
7.075125385076917
 30
0.0
 40
0.1566980695398199
100
AcDbArc
 50
143.5307656099477
 51
232.7294390983635
  0
ARC
  5
1FC
330
2
100
AcDbEntity
  8
image
100
AcDbCircle
 10
1.682460138762409
 20
6.198577409491034
 30
0.0
 40
0.1566980695398199
100
AcDbArc
 50
323.5307656099477
 51
52.72943909836341
  0
ARC
  5
1FD
330
2
100
AcDbEntity
  8
image
100
AcDbCircle
 10
1.903366141769812
 20
6.230135409920661
 30
0.0
 40
0.1566980695398199
100
AcDbArc
 50
143.5307656099477
 51
232.7294390983635
  0
ARC
  5
1FE
330
2
100
AcDbEntity
  8
image
100
AcDbCircle
 10
1.428023107299699
 20
6.439779901928631
 30
0.0
 40
0.1566980695398199
100
AcDbArc
 50
296.0563205359582
 51
25.25499402437389
  0
ARC
  5
1FF
330
2
100
AcDbEntity
  8
image
100
AcDbCircle
 10
1.638573977173819
 20
6.365863051677321
 30
0.0
 40
0.1566980695398199
100
AcDbArc
 50
116.0563205359582
 51
205.254994024374
  0
ARC
  5
200
330
2
100
AcDbEntity
  8
image
100
AcDbCircle
 10
1.259778197112337
 20
6.278850119373449
 30
0.0
 40
0.1566980695398199
100
AcDbArc
 50
296.0563205359582
 51
25.25499402437389
  0
ARC
  5
201
330
2
100
AcDbEntity
  8
image
100
AcDbCircle
 10
1.470329066986457
 20
6.204933269122139
 30
0.0
 40
0.1566980695398199
100
AcDbArc
 50
116.0563205359582
 51
205.254994024374
  0
ARC
  5
202
330
2
100
AcDbEntity
  8
image
100
AcDbCircle
 10
1.237833208827028
 20
6.432464911812487
 30
0.0
 40
0.1566980695398199
100
AcDbArc
 50
296.0563205359582
 51
25.25499402437389
  0
ARC
  5
203
330
2
100
AcDbEntity
  8
image
100
AcDbCircle
 10
1.448384078701147
 20
6.358548061561176
 30
0.0
 40
0.1566980695398199
100
AcDbArc
 50
116.0563205359582
 51
205.254994024374
  0
ARC
  5
204
330
2
100
AcDbEntity
  8
image
100
AcDbCircle
 10
0.9050008864998561
 20
6.757981971980922
 30
0.0
 40
0.1566980695398199
100
AcDbArc
 50
296.0563205359582
 51
25.25499402437389
  0
ARC
  5
205
330
2
100
AcDbEntity
  8
image
100
AcDbCircle
 10
1.115551756373976
 20
6.684065121729612
 30
0.0
 40
0.1566980695398199
100
AcDbArc
 50
116.0563205359582
 51
205.254994024374
  0
ARC
  5
206
330
2
100
AcDbEntity
  8
image
100
AcDbCircle
 10
1.654787986247883
 20
6.527559783322367
 30
0.0
 40
0.1566980695398199
100
AcDbArc
 50
296.0563205359582
 51
25.25499402437389
  0
ARC
  5
207
330
2
100
AcDbEntity
  8
image
100
AcDbCircle
 10
1.865338856122002
 20
6.453642933071057
 30
0.0
 40
0.1566980695398199
100
AcDbArc
 50
116.0563205359582
 51
205.254994024374
  0
ARC
  5
208
330
2
100
AcDbEntity
  8
image
100
AcDbCircle
 10
1.332928158063364
 20
6.739694496690561
 30
0.0
 40
0.1566980695398199
100
AcDbArc
 50
296.0563205359582
 51
25.25499402437389
  0
ARC
  5
209
330
2
100
AcDbEntity
  8
image
100
AcDbCircle
 10
1.543479027937485
 20
6.66577764643925
 30
0.0
 40
0.1566980695398199
100
AcDbArc
 50
116.0563205359582
 51
205.254994024374
  0
ARC
  5
20A
330
2
100
AcDbEntity
  8
image
100
AcDbCircle
 10
1.391448126824185
 20
6.933541734768394
 30
0.0
 40
0.1566980695398199
100
AcDbArc
 50
296.0563205359582
 51
25.25499402437389
  0
ARC
  5
20B
330
2
100
AcDbEntity
  8
image
100
AcDbCircle
 10
1.601998996698305
 20
6.859624884517083
 30
0.0
 40
0.1566980695398199
100
AcDbArc
 50
116.0563205359582
 51
205.254994024374
  0
ARC
  5
20C
330
2
100
AcDbEntity
  8
image
100
AcDbCircle
 10
1.124450769352937
 20
6.948171715000682
 30
0.0
 40
0.1566980695398199
100
AcDbArc
 50
296.0563205359582
 51
25.25499402437389
  0
ARC
  5
20D
330
2
100
AcDbEntity
  8
image
100
AcDbCircle
 10
1.335001639227057
 20
6.874254864749373
 30
0.0
 40
0.1566980695398199
100
AcDbArc
 50
116.0563205359582
 51
205.254994024374
  0
ARC
  5
20E
330
2
100
AcDbEntity
  8
image
100
AcDbCircle
 10
0.9598633572131271
 20
7.134703962962371
 30
0.0
 40
0.1566980695398199
100
AcDbArc
 50
296.0563205359582
 51
25.25499402437389
  0
ARC
  5
20F
330
2
100
AcDbEntity
  8
image
100
AcDbCircle
 10
1.170414227087247
 20
7.060787112711061
 30
0.0
 40
0.1566980695398199
100
AcDbArc
 50
116.0563205359582
 51
205.254994024374
  0
ARC
  5
210
330
2
100
AcDbEntity
  8
image
100
AcDbCircle
 10
0.9452333650229213
 20
6.977431675465261
 30
0.0
 40
0.1566980695398199
100
AcDbArc
 50
296.0563205359582
 51
25.25499402437389
  0
ARC
  5
211
330
2
100
AcDbEntity
  8
image
100
AcDbCircle
 10
1.15578423489704
 20
6.90351482521395
 30
0.0
 40
0.1566980695398199
100
AcDbArc
 50
116.0563205359582
 51
205.254994024374
  0
ARC
  5
212
330
2
100
AcDbEntity
  8
image
100
AcDbCircle
 10
0.8537959138341372
 20
6.538532268496584
 30
0.0
 40
0.1566980695398199
100
AcDbArc
 50
296.0563205359582
 51
25.25499402437389
  0
ARC
  5
213
330
2
100
AcDbEntity
  8
image
100
AcDbCircle
 10
1.064346783708258
 20
6.464615418245274
 30
0.0
 40
0.1566980695398199
100
AcDbArc
 50
116.0563205359582
 51
205.254994024374
  0
ARC
  5
214
330
2
100
AcDbEntity
  8
image
100
AcDbCircle
 10
1.530433052631135
 20
6.597052189425741
 30
0.0
 40
0.1566980695398199
100
AcDbArc
 50
296.0563205359582
 51
25.25499402437389
  0
ARC
  5
215
330
2
100
AcDbEntity
  8
image
100
AcDbCircle
 10
1.740983922505256
 20
6.52313533917443
 30
0.0
 40
0.1566980695398199
100
AcDbArc
 50
116.0563205359582
 51
205.254994024374
  0
LINE
  5
216
330
2
100
AcDbEntity
  8
image
100
AcDbLine
 10
2.464372349589238
 20
5.85104765728638
 30
0.0
 11
2.052394564530303
 21
5.85104765728638
 31
0.0
  0
LINE
  5
217
330
2
100
AcDbEntity
  8
image
100
AcDbLine
 10
2.052394564530303
 20
5.869404191542002
 30
0.0
 11
2.464372349589238
 21
5.869404191542002
 31
0.0
  0
LINE
  5
218
330
2
100
AcDbEntity
  8
image
100
AcDbLine
 10
2.052394564530303
 20
5.894353640081882
 30
0.0
 11
2.052394564530303
 21
5.463824762435389
 31
0.0
  0
LINE
  5
219
330
2
100
AcDbEntity
  8
image
100
AcDbLine
 10
2.052394564530303
 20
5.894353640081882
 30
0.0
 11
1.979318576644162
 21
5.894353640081882
 31
0.0
  0
LINE
  5
21A
330
2
100
AcDbEntity
  8
image
100
AcDbLine
 10
1.979318576644162
 20
5.894353640081882
 30
0.0
 11
1.979318576644162
 21
6.030299236328565
 31
0.0
  0
LINE
  5
21B
330
2
100
AcDbEntity
  8
image
100
AcDbLine
 10
1.979318576644162
 20
6.030299236328565
 30
0.0
 11
1.904956555225117
 21
6.030299236328565
 31
0.0
  0
LINE
  5
21C
330
2
100
AcDbEntity
  8
image
100
AcDbLine
 10
1.904956555225117
 20
6.030299236328565
 30
0.0
 11
1.904956555225117
 21
6.076802910745993
 31
0.0
  0
LINE
  5
21D
330
2
100
AcDbEntity
  8
image
100
AcDbLine
 10
1.904956555225114
 20
6.030299236328563
 30
0.0
 11
1.979318576644162
 21
5.894353640081882
 31
0.0
  0
LINE
  5
21E
330
2
100
AcDbEntity
  8
image
100
AcDbLine
 10
2.611810358894429
 20
6.030299236328563
 30
0.0
 11
2.537448337475384
 21
5.894353640081882
 31
0.0
  0
LINE
  5
21F
330
2
100
AcDbEntity
  8
image
100
AcDbLine
 10
2.611810358894429
 20
6.030299236328565
 30
0.0
 11
2.611810358894429
 21
6.076802910745993
 31
0.0
  0
LINE
  5
220
330
2
100
AcDbEntity
  8
image
100
AcDbLine
 10
2.537448337475384
 20
6.030299236328565
 30
0.0
 11
2.611810358894429
 21
6.030299236328565
 31
0.0
  0
LINE
  5
221
330
2
100
AcDbEntity
  8
image
100
AcDbLine
 10
2.537448337475384
 20
5.894353640081882
 30
0.0
 11
2.537448337475384
 21
6.030299236328565
 31
0.0
  0
LINE
  5
222
330
2
100
AcDbEntity
  8
image
100
AcDbLine
 10
2.464372349589238
 20
5.894353640081882
 30
0.0
 11
2.537448337475384
 21
5.894353640081882
 31
0.0
  0
LINE
  5
223
330
2
100
AcDbEntity
  8
image
100
AcDbLine
 10
1.904956555225117
 20
6.076802910745993
 30
0.0
 11
2.611810358894429
 21
6.076802910745993
 31
0.0
  0
LINE
  5
224
330
2
100
AcDbEntity
  8
image
100
AcDbLine
 10
1.979318576644162
 20
6.030299236328565
 30
0.0
 11
2.537448337475384
 21
6.030299236328565
 31
0.0
  0
LINE
  5
225
330
2
100
AcDbEntity
  8
image
100
AcDbLine
 10
2.052394564530303
 20
5.894353640081882
 30
0.0
 11
2.464372349589238
 21
5.894353640081882
 31
0.0
  0
LINE
  5
226
330
2
100
AcDbEntity
  8
image
100
AcDbLine
 10
2.137337872159636
 20
6.030299236328565
 30
0.0
 11
2.137337872159636
 21
5.894353640081882
 31
0.0
  0
LINE
  5
227
330
2
100
AcDbEntity
  8
image
100
AcDbLine
 10
2.174518882869162
 20
6.030299236328565
 30
0.0
 11
2.174518882869162
 21
5.894353640081882
 31
0.0
  0
LINE
  5
228
330
2
100
AcDbEntity
  8
image
100
AcDbLine
 10
2.346646100039575
 20
6.030299236328565
 30
0.0
 11
2.346646100039575
 21
5.894353640081882
 31
0.0
  0
LINE
  5
229
330
2
100
AcDbEntity
  8
image
100
AcDbLine
 10
2.385119023079008
 20
6.030299236328565
 30
0.0
 11
2.385119023079008
 21
5.894353640081882
 31
0.0
  0
LINE
  5
22A
330
2
100
AcDbEntity
  8
image
100
AcDbLine
 10
2.611810358894429
 20
6.076802910745993
 30
0.0
 11
3.702721052477615
 21
6.076802910745991
 31
0.0
  0
LINE
  5
22B
330
2
100
AcDbEntity
  8
image
100
AcDbLine
 10
1.904956555225121
 20
6.076802910745993
 30
0.0
 11
0.8509795025737842
 21
6.076802910745993
 31
0.0
  0
LINE
  5
22C
330
2
100
AcDbEntity
  8
image
100
AcDbLine
 10
2.052394564530303
 20
5.463824762435389
 30
0.0
 11
2.052394564530303
 21
3.591500621557045
 31
0.0
  0
LINE
  5
22D
330
2
100
AcDbEntity
  8
image
100
AcDbLine
 10
2.464372349589236
 20
5.894353640081882
 30
0.0
 11
2.464372349589241
 21
3.591500621557045
 31
0.0
  0
INSERT
  5
22E
330
2
100
AcDbEntity
  8
image
100
AcDbBlockReference
  2
RD
 10
2.258383457059772
 20
3.591500621557045
 30
0.0
  0
TEXT
  5
238
330
2
100
AcDbEntity
  8
option-noz-mpr
100
AcDbText
 10
4.598981182500883
 20
4.881016180372296
 30
0.0
 40
0.125
  1
 WITH PLASTIC MPR NOZZLE
  7
ROMANS
100
AcDbText
  0
TEXT
  5
23A
330
2
100
AcDbEntity
  8
option-noz-u-series
100
AcDbText
 10
4.598981182500883
 20
4.881016180372296
 30
0.0
 40
0.125
  1
 WITH U-SERIES NOZZLE
  7
ROMANS
100
AcDbText
  0
TEXT
  5
23C
330
2
100
AcDbEntity
  8
option-noz-van
100
AcDbText
 10
4.598981182500883
 20
4.881016180372296
 30
0.0
 40
0.125
  1
 WITH VAN NOZZLE
  7
ROMANS
100
AcDbText
  0
TEXT
  5
23E
330
2
100
AcDbEntity
  8
option-noz-hevan
100
AcDbText
 10
4.598981182500883
 20
4.881016180372296
 30
0.0
 40
0.125
  1
 WITH HE-VAN NOZZLE
  7
ROMANS
100
AcDbText
  0
TEXT
  5
240
330
2
100
AcDbEntity
  8
option-noz-sq
100
AcDbText
 10
4.598981182500883
 20
4.881016180372296
 30
0.0
 40
0.125
  1
 WITH SQ NOZZLE
  7
ROMANS
100
AcDbText
  0
TEXT
  5
242
330
2
100
AcDbEntity
  8
option-noz-rotary
100
AcDbText
 10
4.598981182500883
 20
4.881016180372296
 30
0.0
 40
0.125
  1
 WITH ROTARY NOZZLE
  7
ROMANS
100
AcDbText
  0
TEXT
  5
244
330
2
100
AcDbEntity
  8
option-sam
100
AcDbText
 10
6.436129135565932
 20
5.032016180372298
 30
0.0
 40
0.125
  1
-SAM
  7
ROMANS
100
AcDbText
  0
TEXT
  5
246
330
2
100
AcDbEntity
  8
option-prs-f
100
AcDbText
 10
6.436129135565932
 20
5.032016180372298
 30
0.0
 40
0.125
  1
-PRS-F
  7
ROMANS
100
AcDbText
  0
TEXT
  5
248
330
2
100
AcDbEntity
  8
option-prs-f-np
100
AcDbText
 10
6.436129135565932
 20
5.032016180372298
 30
0.0
 40
0.125
  1
-PRS-F-NP
  7
ROMANS
100
AcDbText
  0
TEXT
  5
24A
330
2
100
AcDbEntity
  8
option-sam-prs
100
AcDbText
 10
6.436129135565932
 20
5.032016180372298
 30
0.0
 40
0.125
  1
-SAM-PRS
  7
ROMANS
100
AcDbText
  0
TEXT
  5
24C
330
2
100
AcDbEntity
  8
option-np
100
AcDbText
 10
6.436129135565932
 20
5.032016180372298
 30
0.0
 40
0.125
  1
-NP
  7
ROMANS
100
AcDbText
  0
TEXT
  5
24E
330
2
100
AcDbEntity
  8
option-sam-np
100
AcDbText
 10
6.436129135565932
 20
5.032016180372298
 30
0.0
 40
0.125
  1
-SAM-NP
  7
ROMANS
100
AcDbText
  0
TEXT
  5
250
330
2
100
AcDbEntity
  8
option-sam-prs-f
100
AcDbText
 10
6.436129135565932
 20
5.032016180372298
 30
0.0
 40
0.125
  1
-SAM-PRS-F
  7
ROMANS
100
AcDbText
  0
TEXT
  5
252
330
2
100
AcDbEntity
  8
option-sam-prs-f-np
100
AcDbText
 10
6.436129135565932
 20
5.032016180372298
 30
0.0
 40
0.125
  1
-SAM-PRS-NP-F
  7
ROMANS
100
AcDbText
  0
TEXT
  5
254
330
2
100
AcDbEntity
  8
option-sam-p45-f-np
100
AcDbText
 10
6.436129135565932
 20
5.032016180372298
 30
0.0
 40
0.125
  1
-SAM-P45-NP-F
  7
ROMANS
100
AcDbText
  0
MTEXT
  5
256
330
2
100
AcDbEntity
  8
instruct-option
100
AcDbMText
 10
11.0
 20
7.5
 30
0.0
 40
0.075
 41
5.02575
 46
0.0
 71
     1
 72
     1
  3
{\LCHOOSING NOZZLES AND OPTIONAL FEATURES\P\PNOZZLES}^I^I^I^I^I^I^I^I^I^I^I{\LLAYER NAME\P}HE-VAN NOZZLE^I^I^I^I^I^I^I^I^IOPTION-NOZ-HEVAN\PMPR NOZZLE^I^I^I^I^I^I^I^I^I^IOPTION-NOZ-MPR\PROTARY NOZZLE^I^I^I^I^I^I^I^I^IOPTION-NOZ-ROTARY\PSQ NOZZLE^I^I^I^I^I^I^I^I^I^IOPTION-NOZ-SQ\PU-SERIES NOZZLE^I^I^I^I
  3
^I^I^I^I^IOPTION-NOZ-U-SERIES\PVAN NOZZLE^I^I^I^I^I^I^I^I^I^IOPTION-NOZ-VAN\P\P{\LOPTION}^I^I^I^I^I^I^I^I^I^I^I{\LLAYER NAME}\PNON-POTABLE CAP^I^I^I^I^I^I^I^I^IOPTION-NP\PPRS 30PSI WITH FLOW SHIELD^I^I^I ^I^I^I^IOPTION-PRS-F\PPRS 30PSI WITH FLOW SHIELD NON-POTABLE CAP^I^I^IOPTION-PRS-F-NP\PSAM 
  3
^I^I^I^I^I^I^I^I^I^I^I^IOPTION-SAM\PSAM WITH NON-POTABLE CAP^I^I^I^I^I^I^IOPTION-SAM-NP\P{\Fc:\program files\autocad 2009\fonts\romans|c0;SAM-PRS 45PSI WITH FLOW SHIELD^I^I^I^I^I^IOPTION-SAM-P45-F}\PSAM-PRS 45PSI WITH FLOW SHIELD NON-POTABLE CAP^I^IOPTION-SAM-P45-F-NP\PSAM-PRS
  3
 30PSI ^I^I^I^I^I^I^I^I^IOPTION-SAM-PRS\PSAM-PRS 30PSI WITH FLOW SHIELD^I^I^I^I^I^IOPTION-SAM-PRS-F\PSAM-PRS 30PSI WITH FLOW SHIELD NON-POTABLE CAP^I^IOPTION-SAM-PRS-F-NP\P\P^I^I^I^I^I^I^I^I^I^I^I^I{\LLAYER\P}CONTRACTOR ASSEMBLED SWING ASSEMBLY^I^I^I^IOPTION-SA\PRAIN BIRD SWING ASSE
  1
MBLY^I^I^I^I^I^I^IOPTION-RB-SA
  7
ROMANS
 73
     1
 44
1.0
  0
TEXT
  5
258
330
2
100
AcDbEntity
  8
option-sam-p45-f
100
AcDbText
 10
6.436129135565932
 20
5.032016180372298
 30
0.0
 40
0.125
  1
-SAM-P45-F
  7
ROMANS
100
AcDbText
  0
LWPOLYLINE
  5
25B
330
2
100
AcDbEntity
  8
instruct-callout
100
AcDbPolyline
 90
        4
 70
     1
 43
0.0
 10
11.84072718331551
 20
10.00891746304441
 10
11.84072718331551
 20
8.577431441702172
 10
16.27242397469758
 20
8.577431441702172
 10
16.27242397469758
 20
10.00891746304441
  0
TEXT
  5
25D
330
2
100
AcDbEntity
  8
instruct-callout
100
AcDbText
 10
12.17131960325753
 20
10.06603295376161
 30
0.0
 40
0.10000000149
  1
CHOOSING EQUIPMENT CALLOUT METHOD
  7
ROMANS
100
AcDbText
  0
TEXT
  5
25E
330
2
100
AcDbEntity
  8
instruct-callout
100
AcDbText
 10
11.93856983421081
 20
9.691921890286732
 30
0.0
 40
0.10000000149
  1
CHOOSE EITHER LEADERS OR BUBBLE CALLOUTS
  7
ROMANS
100
AcDbText
  0
TEXT
  5
25F
330
2
100
AcDbEntity
  8
instruct-callout
100
AcDbText
 10
11.93856983421081
 20
9.530021846799732
 30
0.0
 40
0.10000000149
  1
BY TURNING ON THE APPROPRIATE LAYER:
  7
ROMANS
100
AcDbText
  0
TEXT
  5
260
330
2
100
AcDbEntity
  8
instruct-callout
100
AcDbText
 10
12.37491356647363
 20
9.193004552324556
 30
0.0
 40
0.10000000149
  1
TEXT_LEADERS         TEXT_BUBBLES
  7
ROMANS
100
AcDbText
  0
LINE
  5
261
330
2
100
AcDbEntity
  8
instruct-callout
100
AcDbLine
 10
12.68203821843043
 20
8.940533298622941
 30
0.0
 11
12.81830676428905
 21
8.940533298622939
 31
0.0
  0
LINE
  5
262
330
2
100
AcDbEntity
  8
instruct-callout
100
AcDbLine
 10
12.3942678039521
 20
8.820781596816658
 30
0.0
 11
12.68203821843043
 21
8.940533298622941
 31
0.0
  0
SOLID
  5
263
330
2
100
AcDbEntity
  8
instruct-callout
100
AcDbTrace
 10
12.47965380149243
 20
8.823819922678547
 30
0.0
 11
12.4566019166007
 21
8.879214963999393
 31
0.0
 12
12.30194273508402
 22
8.78236178866377
 32
0.0
 13
12.30194273508402
 23
8.78236178866377
 33
0.0
  0
TEXT
  5
264
330
2
100
AcDbEntity
  8
instruct-callout
100
AcDbText
 10
12.84428150130618
 20
8.875782689229041
 30
0.0
 40
0.10000000149
  1
ITEM 1
  7
ROMANS
100
AcDbText
  0
SOLID
  5
265
330
2
100
AcDbEntity
  8
instruct-callout
100
AcDbTrace
 10
14.62212312954185
 20
8.837245957229946
 30
0.0
 11
14.63792542319619
 21
8.779364289015717
 31
0.0
 12
14.45637927172634
 22
8.760898242159814
 32
0.0
 13
14.45637927172634
 23
8.760898242159814
 33
0.0
  0
LINE
  5
266
330
2
100
AcDbEntity
  8
instruct-callout
100
AcDbLine
 10
14.55284871875005
 20
8.787235398250381
 30
0.0
 11
14.8087301356749
 21
8.857093669714998
 31
0.0
  0
TEXT
  5
267
330
2
100
AcDbEntity
  8
instruct-callout
100
AcDbText
 10
14.88884075397835
 20
8.840015114828203
 30
0.0
 40
0.1
  1
1
  7
ROMANS
 72
     4
 11
14.92931694445454
 21
8.890015114828203
 31
0.0
100
AcDbText
  0
CIRCLE
  5
268
330
2
100
AcDbEntity
  8
instruct-callout
100
AcDbCircle
 10
14.92931694445454
 20
8.890015114828203
 30
0.0
 40
0.125
  0
TEXT
  5
269
330
2
100
AcDbEntity
  8
instruct-callout
100
AcDbText
 10
11.8797545305326
 20
8.22620338496676
 30
0.0
 40
0.10000000149
  1
LAYER "INSTRUCT-CALLOUT".
  7
ROMANS
100
AcDbText
  0
TEXT
  5
26A
330
2
100
AcDbEntity
  8
instruct-callout
100
AcDbText
 10
11.8797545305326
 20
8.38810342845476
 30
0.0
 40
0.10000000149
  1
TO TURN OFF THIS INSTRUCTION BOX, TURN OFF
  7
ROMANS
100
AcDbText
  0
INSERT
  5
26B
330
2
100
AcDbEntity
  8
image
100
AcDbBlockReference
  2
rb_logo
 10
2.196041759114967
 20
5.466305443631007
 30
0.0
  0
ENDSEC
  0
SECTION
  2
OBJECTS
  0
DICTIONARY
  5
7
330
0
100
AcDbDictionary
281
     1
  3
ACAD_COLOR
350
32A
  3
ACAD_GROUP
350
317
  3
ACAD_LAYOUT
350
2FF
  3
ACAD_MATERIAL
350
C
  3
ACAD_MLEADERSTYLE
350
36F
  3
ACAD_MLINESTYLE
350
318
  3
ACAD_PLOTSETTINGS
350
319
  3
ACAD_PLOTSTYLENAME
350
6
  3
ACAD_SCALELIST
350
32B
  3
ACAD_TABLESTYLE
350
32C
  3
ACAD_VISUALSTYLE
350
313
  3
ACDB_RECOMPOSE_DATA
350
338
  3
AcDbVariableDictionary
350
32D
1001
BBSI_Bookmarks
1000
1
1000
1
1000
0
1000
1
1000
0
1000
0
1000
0
1000
0
1000
0
1000
0
1000
0
1001
BBSI_BookmarksEx
1000
0
1000
0
1000

1000
0
1001
BBSI_PltSel
1000
2
1000
11x17bw_fit
  0
DICTIONARY
  5
306
330
305
100
AcDbDictionary
280
     1
281
     1
  3
ACAD_LAYERFILTERS
360
378
  3
ACAD_LAYERSTATES
360
308
  0
DICTIONARY
  5
32A
102
{ACAD_REACTORS
330
7
102
}
330
7
100
AcDbDictionary
281
     1
  0
DICTIONARY
  5
317
102
{ACAD_REACTORS
330
7
102
}
330
7
100
AcDbDictionary
281
     1
  0
DICTIONARY
  5
2FF
102
{ACAD_REACTORS
330
7
102
}
330
7
100
AcDbDictionary
281
     1
  3
Layout1
350
304
  3
Model
350
2FE
  0
DICTIONARY
  5
C
102
{ACAD_REACTORS
330
7
102
}
330
7
100
AcDbDictionary
281
     1
  3
ByBlock
350
322
  3
ByLayer
350
31A
  3
Global
350
B
  0
DICTIONARY
  5
36F
102
{ACAD_REACTORS
330
7
102
}
330
7
100
AcDbDictionary
281
     1
  3
Standard
350
370
  0
DICTIONARY
  5
318
102
{ACAD_REACTORS
330
7
102
}
330
7
100
AcDbDictionary
281
     1
  3
Standard
350
33A
  0
DICTIONARY
  5
319
102
{ACAD_REACTORS
330
7
102
}
330
7
100
AcDbDictionary
281
     1
  0
ACDBDICTIONARYWDFLT
  5
6
102
{ACAD_REACTORS
330
7
102
}
330
7
100
AcDbDictionary
281
     1
  3
Normal
350
5
100
AcDbDictionaryWithDefault
340
5
  0
DICTIONARY
  5
32B
102
{ACAD_REACTORS
330
7
102
}
330
7
100
AcDbDictionary
281
     1
  3
A0
350
340
  3
A1
350
341
  3
A2
350
342
  3
A3
350
343
  3
A4
350
344
  3
A5
350
345
  3
A6
350
346
  3
A7
350
347
  3
A8
350
348
  3
A9
350
349
  3
B0
350
34A
  3
B1
350
34B
  3
B2
350
34C
  3
B3
350
34D
  3
B4
350
34E
  3
B5
350
34F
  3
B6
350
350
  3
B7
350
351
  3
B8
350
352
  3
B9
350
353
  3
C0
350
354
  3
C1
350
355
  3
C2
350
356
  3
C3
350
357
  3
C4
350
358
  3
C5
350
359
  3
C6
350
35A
  3
C7
350
35B
  3
C8
350
35C
  3
C9
350
35D
  3
D0
350
35E
  3
D1
350
35F
  3
D2
350
360
  0
DICTIONARY
  5
32C
102
{ACAD_REACTORS
330
7
102
}
330
7
100
AcDbDictionary
281
     1
  3
Standard
350
33B
  0
DICTIONARY
  5
313
102
{ACAD_REACTORS
330
7
102
}
330
7
100
AcDbDictionary
281
     1
  3
2dWireframe
350
312
  3
3D Hidden
350
367
  3
3dWireframe
350
33F
  3
Basic
350
366
  3
Brighten
350
36A
  3
ColorChange
350
36E
  3
Conceptual
350
368
  3
Dim
350
369
  3
Facepattern
350
36D
  3
Flat
350
362
  3
FlatWithEdges
350
363
  3
Gouraud
350
364
  3
GouraudWithEdges
350
365
  3
Linepattern
350
36C
  3
Realistic
350
33E
  3
Thicken
350
36B
  0
XRECORD
  5
338
102
{ACAD_REACTORS
330
7
102
}
330
7
100
AcDbXrecord
280
     1
 90
        1
330
33B
  0
DICTIONARY
  5
32D
102
{ACAD_REACTORS
330
7
102
}
330
7
100
AcDbDictionary
281
     1
  3
CANNOSCALE
350
32E
  3
CMLEADERSTYLE
350
32F
  3
CTABLESTYLE
350
330
  3
DIMASSOC
350
331
  3
HIDETEXT
350
332
  3
LAYEREVAL
350
395
  3
LAYERNOTIFY
350
333
  3
LIGHTINGUNITS
350
334
  3
MSLTSCALE
350
335
  3
SORTENTS
350
336
  3
UPDATETHUMBNAIL
350
337
  0
DICTIONARY
  5
378
102
{ACAD_REACTORS
330
306
102
}
330
306
100
AcDbDictionary
281
     1
  3
_0100-
350
37B
  3
_0280-
350
37A
  3
_Add Alternate
350
37D
  3
_Bid Alternate
350
37E
  3
_Color 253
350
380
  3
_Color 8
350
37C
  3
_Color 84
350
37F
  3
_Contours
350
386
  3
_Demo
350
381
  3
_Existing
350
382
  3
_Hardscape
350
385
  3
_NoXref
350
379
  3
_Row
350
383
  3
_Utility
350
384
  0
DICTIONARY
  5
308
102
{ACAD_REACTORS
330
306
102
}
330
306
100
AcDbDictionary
281
     1
  0
LAYOUT
  5
304
102
{ACAD_REACTORS
330
2FF
102
}
330
2FF
100
AcDbPlotSettings
  1

  2
S:\AutoCAD 2002\Plotters\1055B&WDraftShaded.pc3
  4

  6

 40
0.0
 41
0.0
 42
0.0
 43
0.0
 44
0.0
 45
0.0
 46
0.0
 47
0.0
 48
0.0
 49
0.0
140
0.0
141
0.0
142
1.0
143
1.0
 70
   688
 72
     0
 73
     0
 74
     5
  7
8500ColorShaded.ctb
 75
    16
147
1.0
 76
     0
 77
     2
 78
   300
148
0.0
149
0.0
100
AcDbLayout
  1
Layout1
 70
     1
 71
     1
 10
0.0
 20
0.0
 11
12.0
 21
9.0
 12
0.0
 22
0.0
 32
0.0
 14
1.000000000000000E+20
 24
1.000000000000000E+20
 34
1.000000000000000E+20
 15
-1.000000000000000E+20
 25
-1.000000000000000E+20
 35
-1.000000000000000E+20
146
0.0
 13
0.0
 23
0.0
 33
0.0
 16
1.0
 26
0.0
 36
0.0
 17
0.0
 27
1.0
 37
0.0
 76
     0
330
301
  0
LAYOUT
  5
2FE
102
{ACAD_REACTORS
330
2FF
102
}
330
2FF
100
AcDbPlotSettings
  1
LaserJet5 8.5x11
  2
LaserJet5Shaded-8x11.pc3
  4
Letter
  6

 40
5.873749732971191
 41
5.873734951019287
 42
6.55108642578125
 43
5.027084350585937
 44
279.3999938964844
 45
215.8999938964844
 46
0.0000000000000115
 47
17.98713590926731
 48
0.0
 49
0.0
140
0.0
141
0.0
142
1.0
143
1.568857580417505
 70
 11956
 72
     0
 73
     0
 74
     1
  7
laserjet5shaded.ctb
 75
     0
147
0.637406487677409
 76
     0
 77
     2
 78
   300
148
0.0
149
0.0
100
AcDbLayout
  1
Model
 70
     1
 71
     0
 10
0.0
 20
0.0
 11
12.0
 21
9.0
 12
0.0
 22
0.0
 32
0.0
 14
0.0
 24
0.0
 34
0.0
 15
0.0
 25
0.0
 35
0.0
146
0.0
 13
0.0
 23
0.0
 33
0.0
 16
1.0
 26
0.0
 36
0.0
 17
0.0
 27
1.0
 37
0.0
 76
     0
330
2
331
311
1001
ACAD_PSEXT
1000
LaserJet5Shaded-8x11.pc3
1000
HP LaserJet 5Si
1000
CAD Area
1000

1070
     0
  0
MATERIAL
  5
322
102
{ACAD_XDICTIONARY
360
323
102
}
102
{ACAD_REACTORS
330
C
102
}
330
C
100
AcDbMaterial
  1
ByBlock
 72
     0
 43
0.0208333333333333
 43
0.0
 43
0.0
 43
0.0
 43
0.0
 43
0.0208333333333333
 43
0.0
 43
0.0
 43
0.0
 43
0.0
 43
1.0
 43
0.0
 43
0.0
 43
0.0
 43
0.0
 43
1.0
 77
     0
 47
0.0208333333333333
 47
0.0
 47
0.0
 47
0.0
 47
0.0
 47
0.0208333333333333
 47
0.0
 47
0.0
 47
0.0
 47
0.0
 47
1.0
 47
0.0
 47
0.0
 47
0.0
 47
0.0
 47
1.0
171
     0
 49
0.0208333333333333
 49
0.0
 49
0.0
 49
0.0
 49
0.0
 49
0.0208333333333333
 49
0.0
 49
0.0
 49
0.0
 49
0.0
 49
1.0
 49
0.0
 49
0.0
 49
0.0
 49
0.0
 49
1.0
175
     0
142
0.0208333333333333
142
0.0
142
0.0
142
0.0
142
0.0
142
0.0208333333333333
142
0.0
142
0.0
142
0.0
142
0.0
142
1.0
142
0.0
142
0.0
142
0.0
142
0.0
142
1.0
179
     0
144
0.0208333333333333
144
0.0
144
0.0
144
0.0
144
0.0
144
0.0208333333333333
144
0.0
144
0.0
144
0.0
144
0.0
144
1.0
144
0.0
144
0.0
144
0.0
144
0.0
144
1.0
147
0.0208333333333333
147
0.0
147
0.0
147
0.0
147
0.0
147
0.0208333333333333
147
0.0
147
0.0
147
0.0
147
0.0
147
1.0
147
0.0
147
0.0
147
0.0
147
0.0
147
1.0
  0
MATERIAL
  5
31A
102
{ACAD_XDICTIONARY
360
31B
102
}
102
{ACAD_REACTORS
330
C
102
}
330
C
100
AcDbMaterial
  1
ByLayer
 72
     0
 43
0.0208333333333333
 43
0.0
 43
0.0
 43
0.0
 43
0.0
 43
0.0208333333333333
 43
0.0
 43
0.0
 43
0.0
 43
0.0
 43
1.0
 43
0.0
 43
0.0
 43
0.0
 43
0.0
 43
1.0
 77
     0
 47
0.0208333333333333
 47
0.0
 47
0.0
 47
0.0
 47
0.0
 47
0.0208333333333333
 47
0.0
 47
0.0
 47
0.0
 47
0.0
 47
1.0
 47
0.0
 47
0.0
 47
0.0
 47
0.0
 47
1.0
171
     0
 49
0.0208333333333333
 49
0.0
 49
0.0
 49
0.0
 49
0.0
 49
0.0208333333333333
 49
0.0
 49
0.0
 49
0.0
 49
0.0
 49
1.0
 49
0.0
 49
0.0
 49
0.0
 49
0.0
 49
1.0
175
     0
142
0.0208333333333333
142
0.0
142
0.0
142
0.0
142
0.0
142
0.0208333333333333
142
0.0
142
0.0
142
0.0
142
0.0
142
1.0
142
0.0
142
0.0
142
0.0
142
0.0
142
1.0
179
     0
144
0.0208333333333333
144
0.0
144
0.0
144
0.0
144
0.0
144
0.0208333333333333
144
0.0
144
0.0
144
0.0
144
0.0
144
1.0
144
0.0
144
0.0
144
0.0
144
0.0
144
1.0
147
0.0208333333333333
147
0.0
147
0.0
147
0.0
147
0.0
147
0.0208333333333333
147
0.0
147
0.0
147
0.0
147
0.0
147
1.0
147
0.0
147
0.0
147
0.0
147
0.0
147
1.0
  0
MATERIAL
  5
B
102
{ACAD_XDICTIONARY
360
D
102
}
102
{ACAD_REACTORS
330
C
102
}
330
C
100
AcDbMaterial
  1
Global
 72
     0
 43
0.0208333333333333
 43
0.0
 43
0.0
 43
0.0
 43
0.0
 43
0.0208333333333333
 43
0.0
 43
0.0
 43
0.0
 43
0.0
 43
1.0
 43
0.0
 43
0.0
 43
0.0
 43
0.0
 43
1.0
 77
     0
 47
0.0208333333333333
 47
0.0
 47
0.0
 47
0.0
 47
0.0
 47
0.0208333333333333
 47
0.0
 47
0.0
 47
0.0
 47
0.0
 47
1.0
 47
0.0
 47
0.0
 47
0.0
 47
0.0
 47
1.0
171
     0
 49
0.0208333333333333
 49
0.0
 49
0.0
 49
0.0
 49
0.0
 49
0.0208333333333333
 49
0.0
 49
0.0
 49
0.0
 49
0.0
 49
1.0
 49
0.0
 49
0.0
 49
0.0
 49
0.0
 49
1.0
175
     0
142
0.0208333333333333
142
0.0
142
0.0
142
0.0
142
0.0
142
0.0208333333333333
142
0.0
142
0.0
142
0.0
142
0.0
142
1.0
142
0.0
142
0.0
142
0.0
142
0.0
142
1.0
179
     0
144
0.0208333333333333
144
0.0
144
0.0
144
0.0
144
0.0
144
0.0208333333333333
144
0.0
144
0.0
144
0.0
144
0.0
144
1.0
144
0.0
144
0.0
144
0.0
144
0.0
144
1.0
147
0.0208333333333333
147
0.0
147
0.0
147
0.0
147
0.0
147
0.0208333333333333
147
0.0
147
0.0
147
0.0
147
0.0
147
1.0
147
0.0
147
0.0
147
0.0
147
0.0
147
1.0
  0
MLEADERSTYLE
  5
370
102
{ACAD_REACTORS
330
36F
102
}
330
36F
100
AcDbMLeaderStyle
170
     2
171
     1
172
     0
 90
        2
 40
0.0
 41
0.0
173
     1
 91
-1056964608
340
30C
 92
       -2
290
     1
 42
0.09
291
     1
 43
0.36
  3
Standard
 44
0.18
300

342
BB
174
     1
178
     6
175
     1
176
     0
 93
-1056964608
 45
0.18
292
     0
297
     0
 46
0.18
 94
-1056964608
 47
1.0
 49
1.0
140
1.0
293
     1
141
0.0
294
     1
177
     0
142
1.0
295
     0
296
     0
143
0.125
1001
ACAD_MLEADERVER
1070
     2
  0
MLINESTYLE
  5
33A
102
{ACAD_REACTORS
330
318
102
}
330
318
100
AcDbMlineStyle
  2
STANDARD
 70
     0
  3

 62
   256
 51
90.0
 52
90.0
 71
     2
 49
0.5
 62
   256
  6
BYLAYER
 49
-0.5
 62
   256
  6
BYLAYER
  0
ACDBPLACEHOLDER
  5
5
102
{ACAD_REACTORS
330
6
102
}
330
6
  0
SCALE
  5
340
102
{ACAD_REACTORS
330
32B
102
}
330
32B
100
AcDbScale
 70
     0
300
1:1
140
1.0
141
1.0
290
     1
  0
SCALE
  5
341
102
{ACAD_REACTORS
330
32B
102
}
330
32B
100
AcDbScale
 70
     0
300
1:2
140
1.0
141
2.0
290
     0
  0
SCALE
  5
342
102
{ACAD_REACTORS
330
32B
102
}
330
32B
100
AcDbScale
 70
     0
300
1:4
140
1.0
141
4.0
290
     0
  0
SCALE
  5
343
102
{ACAD_REACTORS
330
32B
102
}
330
32B
100
AcDbScale
 70
     0
300
1:5
140
1.0
141
5.0
290
     0
  0
SCALE
  5
344
102
{ACAD_REACTORS
330
32B
102
}
330
32B
100
AcDbScale
 70
     0
300
1:8
140
1.0
141
8.0
290
     0
  0
SCALE
  5
345
102
{ACAD_REACTORS
330
32B
102
}
330
32B
100
AcDbScale
 70
     0
300
1:10
140
1.0
141
10.0
290
     0
  0
SCALE
  5
346
102
{ACAD_REACTORS
330
32B
102
}
330
32B
100
AcDbScale
 70
     0
300
1:16
140
1.0
141
16.0
290
     0
  0
SCALE
  5
347
102
{ACAD_REACTORS
330
32B
102
}
330
32B
100
AcDbScale
 70
     0
300
1:20
140
1.0
141
20.0
290
     0
  0
SCALE
  5
348
102
{ACAD_REACTORS
330
32B
102
}
330
32B
100
AcDbScale
 70
     0
300
1:30
140
1.0
141
30.0
290
     0
  0
SCALE
  5
349
102
{ACAD_REACTORS
330
32B
102
}
330
32B
100
AcDbScale
 70
     0
300
1:40
140
1.0
141
40.0
290
     0
  0
SCALE
  5
34A
102
{ACAD_REACTORS
330
32B
102
}
330
32B
100
AcDbScale
 70
     0
300
1:50
140
1.0
141
50.0
290
     0
  0
SCALE
  5
34B
102
{ACAD_REACTORS
330
32B
102
}
330
32B
100
AcDbScale
 70
     0
300
1:100
140
1.0
141
100.0
290
     0
  0
SCALE
  5
34C
102
{ACAD_REACTORS
330
32B
102
}
330
32B
100
AcDbScale
 70
     0
300
2:1
140
2.0
141
1.0
290
     0
  0
SCALE
  5
34D
102
{ACAD_REACTORS
330
32B
102
}
330
32B
100
AcDbScale
 70
     0
300
4:1
140
4.0
141
1.0
290
     0
  0
SCALE
  5
34E
102
{ACAD_REACTORS
330
32B
102
}
330
32B
100
AcDbScale
 70
     0
300
8:1
140
8.0
141
1.0
290
     0
  0
SCALE
  5
34F
102
{ACAD_REACTORS
330
32B
102
}
330
32B
100
AcDbScale
 70
     0
300
10:1
140
10.0
141
1.0
290
     0
  0
SCALE
  5
350
102
{ACAD_REACTORS
330
32B
102
}
330
32B
100
AcDbScale
 70
     0
300
100:1
140
100.0
141
1.0
290
     0
  0
SCALE
  5
351
102
{ACAD_REACTORS
330
32B
102
}
330
32B
100
AcDbScale
 70
     0
300
1/128" = 1'-0"
140
0.0078125
141
12.0
290
     0
  0
SCALE
  5
352
102
{ACAD_REACTORS
330
32B
102
}
330
32B
100
AcDbScale
 70
     0
300
1/64" = 1'-0"
140
0.015625
141
12.0
290
     0
  0
SCALE
  5
353
102
{ACAD_REACTORS
330
32B
102
}
330
32B
100
AcDbScale
 70
     0
300
1/32" = 1'-0"
140
0.03125
141
12.0
290
     0
  0
SCALE
  5
354
102
{ACAD_REACTORS
330
32B
102
}
330
32B
100
AcDbScale
 70
     0
300
1/16" = 1'-0"
140
0.0625
141
12.0
290
     0
  0
SCALE
  5
355
102
{ACAD_REACTORS
330
32B
102
}
330
32B
100
AcDbScale
 70
     0
300
3/32" = 1'-0"
140
0.09375
141
12.0
290
     0
  0
SCALE
  5
356
102
{ACAD_REACTORS
330
32B
102
}
330
32B
100
AcDbScale
 70
     0
300
1/8" = 1'-0"
140
0.125
141
12.0
290
     0
  0
SCALE
  5
357
102
{ACAD_REACTORS
330
32B
102
}
330
32B
100
AcDbScale
 70
     0
300
3/16" = 1'-0"
140
0.1875
141
12.0
290
     0
  0
SCALE
  5
358
102
{ACAD_REACTORS
330
32B
102
}
330
32B
100
AcDbScale
 70
     0
300
1/4" = 1'-0"
140
0.25
141
12.0
290
     0
  0
SCALE
  5
359
102
{ACAD_REACTORS
330
32B
102
}
330
32B
100
AcDbScale
 70
     0
300
3/8" = 1'-0"
140
0.375
141
12.0
290
     0
  0
SCALE
  5
35A
102
{ACAD_REACTORS
330
32B
102
}
330
32B
100
AcDbScale
 70
     0
300
1/2" = 1'-0"
140
0.5
141
12.0
290
     0
  0
SCALE
  5
35B
102
{ACAD_REACTORS
330
32B
102
}
330
32B
100
AcDbScale
 70
     0
300
3/4" = 1'-0"
140
0.75
141
12.0
290
     0
  0
SCALE
  5
35C
102
{ACAD_REACTORS
330
32B
102
}
330
32B
100
AcDbScale
 70
     0
300
1" = 1'-0"
140
1.0
141
12.0
290
     0
  0
SCALE
  5
35D
102
{ACAD_REACTORS
330
32B
102
}
330
32B
100
AcDbScale
 70
     0
300
1-1/2" = 1'-0"
140
1.5
141
12.0
290
     0
  0
SCALE
  5
35E
102
{ACAD_REACTORS
330
32B
102
}
330
32B
100
AcDbScale
 70
     0
300
3" = 1'-0"
140
3.0
141
12.0
290
     0
  0
SCALE
  5
35F
102
{ACAD_REACTORS
330
32B
102
}
330
32B
100
AcDbScale
 70
     0
300
6" = 1'-0"
140
6.0
141
12.0
290
     0
  0
SCALE
  5
360
102
{ACAD_REACTORS
330
32B
102
}
330
32B
100
AcDbScale
 70
     0
300
1'-0" = 1'-0"
140
12.0
141
12.0
290
     0
  0
TABLESTYLE
  5
33B
102
{ACAD_XDICTIONARY
360
33C
102
}
102
{ACAD_REACTORS
330
32C
102
}
330
32C
100
AcDbTableStyle
  3
Standard
 70
     0
 71
     0
 40
0.06
 41
0.06
280
     0
281
     0
  7
STANDARD
140
0.18
170
     2
 62
     0
 63
     7
283
     0
 90
      512
 91
        0
  1

274
    -2
284
     1
 64
     0
275
    -2
285
     1
 65
     0
276
    -2
286
     1
 66
     0
277
    -2
287
     1
 67
     0
278
    -2
288
     1
 68
     0
279
    -2
289
     1
 69
     0
  7
STANDARD
140
0.25
170
     5
 62
     0
 63
     7
283
     0
 90
      512
 91
        0
  1

274
    -2
284
     1
 64
     0
275
    -2
285
     1
 65
     0
276
    -2
286
     1
 66
     0
277
    -2
287
     1
 67
     0
278
    -2
288
     1
 68
     0
279
    -2
289
     1
 69
     0
  7
STANDARD
140
0.18
170
     5
 62
     0
 63
     7
283
     0
 90
      512
 91
        0
  1

274
    -2
284
     1
 64
     0
275
    -2
285
     1
 65
     0
276
    -2
286
     1
 66
     0
277
    -2
287
     1
 67
     0
278
    -2
288
     1
 68
     0
279
    -2
289
     1
 69
     0
  0
VISUALSTYLE
  5
312
102
{ACAD_REACTORS
330
313
102
}
330
313
100
AcDbVisualStyle
  2
2dWireframe
 70
     4
 71
     0
 72
     2
 73
     0
 90
        0
 40
-0.6
 41
-30.0
 62
     5
 63
     7
421
 16777215
 74
     1
 91
        4
 64
     7
 65
   257
 75
     1
175
     1
 42
1.0
 92
        0
 66
   257
 43
1.0
 76
     1
 77
     6
 78
     2
 67
     7
 79
     5
170
     0
171
     0
290
     0
174
     0
 93
        1
 44
0.0
173
     0
291
     0
 45
0.0
  0
VISUALSTYLE
  5
367
102
{ACAD_REACTORS
330
313
102
}
330
313
100
AcDbVisualStyle
  2
3D Hidden
 70
     6
 71
     1
 72
     2
 73
     2
 90
        0
 40
-0.6
 41
-30.0
 62
     5
 63
     7
421
 16777215
 74
     2
 91
        2
 64
     7
 65
   257
 75
     2
175
     1
 42
40.0
 92
        0
 66
   257
 43
1.0
 76
     1
 77
     6
 78
     2
 67
     7
 79
     3
170
     0
171
     0
290
     0
174
     0
 93
        1
 44
0.0
173
     0
291
     0
 45
0.0
  0
VISUALSTYLE
  5
33F
102
{ACAD_REACTORS
330
313
102
}
330
313
100
AcDbVisualStyle
  2
3dWireframe
 70
     5
 71
     0
 72
     2
 73
     0
 90
        0
 40
-0.6
 41
-30.0
 62
     5
 63
     7
421
 16777215
 74
     1
 91
        4
 64
     7
 65
   257
 75
     1
175
     1
 42
1.0
 92
        0
 66
   257
 43
1.0
 76
     1
 77
     6
 78
     2
 67
     7
 79
     5
170
     0
171
     0
290
     0
174
     0
 93
        1
 44
0.0
173
     0
291
     0
 45
0.0
  0
VISUALSTYLE
  5
366
102
{ACAD_REACTORS
330
313
102
}
330
313
100
AcDbVisualStyle
  2
Basic
 70
     7
 71
     1
 72
     0
 73
     1
 90
        0
 40
-0.6
 41
-30.0
 62
     5
 63
     7
421
 16777215
 74
     0
 91
        4
 64
     7
 65
   257
 75
     1
175
     1
 42
1.0
 92
        8
 66
     7
 43
1.0
 76
     1
 77
     6
 78
     2
 67
     7
 79
     5
170
     0
171
     0
290
     0
174
     0
 93
        1
 44
0.0
173
     0
291
     1
 45
0.0
  0
VISUALSTYLE
  5
36A
102
{ACAD_REACTORS
330
313
102
}
330
313
100
AcDbVisualStyle
  2
Brighten
 70
    12
 71
     2
 72
     2
 73
     0
 90
        0
 40
-0.6
 41
-30.0
 62
     5
 63
     7
421
 16777215
 74
     1
 91
        4
 64
     7
 65
   257
 75
     1
175
     1
 42
1.0
 92
        8
 66
     7
 43
1.0
 76
     1
 77
     6
 78
     2
 67
     7
 79
     5
170
     0
171
     0
290
     0
174
     0
 93
        1
 44
50.0
173
     0
291
     1
 45
0.0
  0
VISUALSTYLE
  5
36E
102
{ACAD_REACTORS
330
313
102
}
330
313
100
AcDbVisualStyle
  2
ColorChange
 70
    16
 71
     2
 72
     2
 73
     3
 90
        0
 40
-0.6
 41
-30.0
 62
     5
 63
     8
421
  8421504
 74
     1
 91
        4
 64
     7
 65
   257
 75
     1
175
     1
 42
1.0
 92
        8
 66
     8
424
  8421504
 43
1.0
 76
     1
 77
     6
 78
     2
 67
     7
 79
     5
170
     0
171
     0
290
     0
174
     0
 93
        1
 44
0.0
173
     0
291
     1
 45
0.0
  0
VISUALSTYLE
  5
368
102
{ACAD_REACTORS
330
313
102
}
330
313
100
AcDbVisualStyle
  2
Conceptual
 70
     9
 71
     3
 72
     2
 73
     0
 90
        0
 40
-0.6
 41
-30.0
 62
     5
 63
     7
421
 16777215
 74
     2
 91
        2
 64
     7
 65
   257
 75
     1
175
     1
 42
40.0
 92
        8
 66
     7
 43
1.0
 76
     1
 77
     6
 78
     2
 67
     7
 79
     3
170
     0
171
     0
290
     0
174
     0
 93
        1
 44
0.0
173
     0
291
     0
 45
0.0
  0
VISUALSTYLE
  5
369
102
{ACAD_REACTORS
330
313
102
}
330
313
100
AcDbVisualStyle
  2
Dim
 70
    11
 71
     2
 72
     2
 73
     0
 90
        0
 40
-0.6
 41
-30.0
 62
     5
 63
     7
421
 16777215
 74
     1
 91
        4
 64
     7
 65
   257
 75
     1
175
     1
 42
1.0
 92
        8
 66
     7
 43
1.0
 76
     1
 77
     6
 78
     2
 67
     7
 79
     5
170
     0
171
     0
290
     0
174
     0
 93
        1
 44
-50.0
173
     0
291
     1
 45
0.0
  0
VISUALSTYLE
  5
36D
102
{ACAD_REACTORS
330
313
102
}
330
313
100
AcDbVisualStyle
  2
Facepattern
 70
    15
 71
     2
 72
     2
 73
     0
 90
        0
 40
-0.6
 41
-30.0
 62
     5
 63
     7
421
 16777215
 74
     1
 91
        4
 64
     7
 65
   257
 75
     1
175
     1
 42
1.0
 92
        8
 66
     7
 43
1.0
 76
     1
 77
     6
 78
     2
 67
     7
 79
     5
170
     0
171
     0
290
     0
174
     0
 93
        1
 44
0.0
173
     0
291
     1
 45
0.0
  0
VISUALSTYLE
  5
362
102
{ACAD_REACTORS
330
313
102
}
330
313
100
AcDbVisualStyle
  2
Flat
 70
     0
 71
     2
 72
     1
 73
     1
 90
        2
 40
-0.6
 41
30.0
 62
     5
 63
     7
421
 16777215
 74
     0
 91
        4
 64
     7
 65
   257
 75
     1
175
     1
 42
1.0
 92
        8
 66
     7
 43
1.0
 76
     1
 77
     6
 78
     2
 67
     7
 79
     5
170
     0
171
     0
290
     0
174
     0
 93
       13
 44
0.0
173
     0
291
     1
 45
0.0
  0
VISUALSTYLE
  5
363
102
{ACAD_REACTORS
330
313
102
}
330
313
100
AcDbVisualStyle
  2
FlatWithEdges
 70
     1
 71
     2
 72
     1
 73
     1
 90
        2
 40
-0.6
 41
30.0
 62
     5
 63
     7
421
 16777215
 74
     1
 91
        4
 64
     7
 65
   257
 75
     1
175
     1
 42
1.0
 92
        0
 66
   257
 43
1.0
 76
     1
 77
     6
 78
     2
 67
     7
 79
     5
170
     0
171
     0
290
     0
174
     0
 93
       13
 44
0.0
173
     0
291
     1
 45
0.0
  0
VISUALSTYLE
  5
364
102
{ACAD_REACTORS
330
313
102
}
330
313
100
AcDbVisualStyle
  2
Gouraud
 70
     2
 71
     2
 72
     2
 73
     1
 90
        2
 40
-0.6
 41
30.0
 62
     5
 63
     7
421
 16777215
 74
     0
 91
        4
 64
     7
 65
   257
 75
     1
175
     1
 42
1.0
 92
        0
 66
     7
 43
1.0
 76
     1
 77
     6
 78
     2
 67
     7
 79
     5
170
     0
171
     0
290
     0
174
     0
 93
       13
 44
0.0
173
     0
291
     1
 45
0.0
  0
VISUALSTYLE
  5
365
102
{ACAD_REACTORS
330
313
102
}
330
313
100
AcDbVisualStyle
  2
GouraudWithEdges
 70
     3
 71
     2
 72
     2
 73
     1
 90
        2
 40
-0.6
 41
30.0
 62
     5
 63
     7
421
 16777215
 74
     1
 91
        4
 64
     7
 65
   257
 75
     1
175
     1
 42
1.0
 92
        0
 66
   257
 43
1.0
 76
     1
 77
     6
 78
     2
 67
     7
 79
     5
170
     0
171
     0
290
     0
174
     0
 93
       13
 44
0.0
173
     0
291
     1
 45
0.0
  0
VISUALSTYLE
  5
36C
102
{ACAD_REACTORS
330
313
102
}
330
313
100
AcDbVisualStyle
  2
Linepattern
 70
    14
 71
     2
 72
     2
 73
     0
 90
        0
 40
-0.6
 41
-30.0
 62
     5
 63
     7
421
 16777215
 74
     1
 91
        4
 64
     7
 65
   257
 75
     7
175
     7
 42
1.0
 92
        8
 66
     7
 43
1.0
 76
     1
 77
     6
 78
     2
 67
     7
 79
     5
170
     0
171
     0
290
     0
174
     0
 93
        1
 44
0.0
173
     0
291
     1
 45
0.0
  0
VISUALSTYLE
  5
33E
102
{ACAD_REACTORS
330
313
102
}
330
313
100
AcDbVisualStyle
  2
Realistic
 70
     8
 71
     2
 72
     2
 73
     0
 90
        0
 40
-0.6
 41
-30.0
 62
     5
 63
     7
421
 16777215
 74
     1
 91
        0
 64
     7
 65
   257
 75
     1
175
     1
 42
1.0
 92
        8
 66
     8
424
  7895160
 43
1.0
 76
     1
 77
     6
 78
     2
 67
     7
 79
     5
170
     0
171
     0
290
     0
174
     0
 93
       13
 44
0.0
173
     0
291
     0
 45
0.0
  0
VISUALSTYLE
  5
36B
102
{ACAD_REACTORS
330
313
102
}
330
313
100
AcDbVisualStyle
  2
Thicken
 70
    13
 71
     2
 72
     2
 73
     0
 90
        0
 40
-0.6
 41
-30.0
 62
     5
 63
     7
421
 16777215
 74
     1
 91
        4
 64
     7
 65
   257
 75
     1
175
     1
 42
1.0
 92
       12
 66
     7
 43
1.0
 76
     1
 77
     6
 78
     2
 67
     7
 79
     5
170
     0
171
     0
290
     0
174
     0
 93
        1
 44
0.0
173
     0
291
     1
 45
0.0
  0
DICTIONARYVAR
  5
32E
102
{ACAD_REACTORS
330
32D
102
}
330
32D
100
DictionaryVariables
280
     0
  1
1:1
  0
DICTIONARYVAR
  5
32F
102
{ACAD_REACTORS
330
32D
102
}
330
32D
100
DictionaryVariables
280
     0
  1
STANDARD
  0
DICTIONARYVAR
  5
330
102
{ACAD_REACTORS
330
32D
102
}
330
32D
100
DictionaryVariables
280
     0
  1
STANDARD
  0
DICTIONARYVAR
  5
331
102
{ACAD_REACTORS
330
32D
102
}
330
32D
100
DictionaryVariables
280
     0
  1
1
  0
DICTIONARYVAR
  5
332
102
{ACAD_REACTORS
330
32D
102
}
330
32D
100
DictionaryVariables
280
     0
  1
1
  0
DICTIONARYVAR
  5
395
102
{ACAD_REACTORS
330
32D
102
}
330
32D
100
DictionaryVariables
280
     0
  1
0
  0
DICTIONARYVAR
  5
333
102
{ACAD_REACTORS
330
32D
102
}
330
32D
100
DictionaryVariables
280
     0
  1
15
  0
DICTIONARYVAR
  5
334
102
{ACAD_REACTORS
330
32D
102
}
330
32D
100
DictionaryVariables
280
     0
  1
0
  0
DICTIONARYVAR
  5
335
102
{ACAD_REACTORS
330
32D
102
}
330
32D
100
DictionaryVariables
280
     0
  1
0
  0
DICTIONARYVAR
  5
336
102
{ACAD_REACTORS
330
32D
102
}
330
32D
100
DictionaryVariables
280
     0
  1
1
  0
DICTIONARYVAR
  5
337
102
{ACAD_REACTORS
330
32D
102
}
330
32D
100
DictionaryVariables
280
     0
  1
0
  0
XRECORD
  5
37B
102
{ACAD_REACTORS
330
378
102
}
330
378
100
AcDbXrecord
280
     1
  1
_0100-
  1
*0100-*
  1
*
  1
*
 70
     0
  1
*
  1
*
  0
XRECORD
  5
37A
102
{ACAD_REACTORS
330
378
102
}
330
378
100
AcDbXrecord
280
     1
  1
_0280-
  1
*0280-*
  1
*
  1
*
 70
     0
  1
*
  1
*
  0
XRECORD
  5
37D
102
{ACAD_REACTORS
330
378
102
}
330
378
100
AcDbXrecord
280
     1
  1
_Add Alternate
  1
*add*alt*
  1
*
  1
*
 70
     0
  1
*
  1
*
  0
XRECORD
  5
37E
102
{ACAD_REACTORS
330
378
102
}
330
378
100
AcDbXrecord
280
     1
  1
_Bid Alternate
  1
*bid*alt*
  1
*
  1
*
 70
     0
  1
*
  1
*
  0
XRECORD
  5
380
102
{ACAD_REACTORS
330
378
102
}
330
378
100
AcDbXrecord
280
     1
  1
_Color 253
  1
*
  1
253
  1
*
 70
     0
  1
*
  1
*
  0
XRECORD
  5
37C
102
{ACAD_REACTORS
330
378
102
}
330
378
100
AcDbXrecord
280
     1
  1
_Color 8
  1
*
  1
8
  1
*
 70
     0
  1
*
  1
*
  0
XRECORD
  5
37F
102
{ACAD_REACTORS
330
378
102
}
330
378
100
AcDbXrecord
280
     1
  1
_Color 84
  1
*
  1
84
  1
*
 70
     0
  1
*
  1
*
  0
XRECORD
  5
386
102
{ACAD_REACTORS
330
378
102
}
330
378
100
AcDbXrecord
280
     1
  1
_Contours
  1
*contour*,*cont-*,*cp cont*,*p-cont*
  1
*
  1
*
 70
     0
  1
*
  1
*
  0
XRECORD
  5
381
102
{ACAD_REACTORS
330
378
102
}
330
378
100
AcDbXrecord
280
     1
  1
_Demo
  1
*demo*
  1
*
  1
*
 70
     0
  1
*
  1
*
  0
XRECORD
  5
382
102
{ACAD_REACTORS
330
378
102
}
330
378
100
AcDbXrecord
280
     1
  1
_Existing
  1
*exist*,*ex*
  1
*
  1
*
 70
     0
  1
*
  1
*
  0
XRECORD
  5
385
102
{ACAD_REACTORS
330
378
102
}
330
378
100
AcDbXrecord
280
     1
  1
_Hardscape
  1
*sidewalk*,*sw*,*curb*,*walk*,*-lip*,*tbc*
  1
*
  1
*
 70
     0
  1
*
  1
*
  0
XRECORD
  5
379
102
{ACAD_REACTORS
330
378
102
}
330
378
100
AcDbXrecord
280
     1
  1
_NoXref
  1
~*|*
  1
*
  1
*
 70
     0
  1
*
  1
*
  0
XRECORD
  5
383
102
{ACAD_REACTORS
330
378
102
}
330
378
100
AcDbXrecord
280
     1
  1
_Row
  1
*row*
  1
*
  1
*
 70
     0
  1
*
  1
*
  0
XRECORD
  5
384
102
{ACAD_REACTORS
330
378
102
}
330
378
100
AcDbXrecord
280
     1
  1
_Utility
  1
*ut-*,*utility*,*wat*
  1
*
  1
*
 70
     0
  1
*
  1
*
  0
DICTIONARY
  5
323
330
322
100
AcDbDictionary
280
     1
281
     1
  3
BUMPTILE
360
324
  3
DIFFUSETILE
360
325
  3
OPACITYTILE
360
326
  3
REFLECTIONTILE
360
327
  3
REFRACTIONTILE
360
328
  3
SPECULARTILE
360
329
  0
DICTIONARY
  5
31B
330
31A
100
AcDbDictionary
280
     1
281
     1
  3
BUMPTILE
360
31C
  3
DIFFUSETILE
360
31D
  3
OPACITYTILE
360
31E
  3
REFLECTIONTILE
360
31F
  3
REFRACTIONTILE
360
320
  3
SPECULARTILE
360
321
  0
DICTIONARY
  5
D
330
B
100
AcDbDictionary
280
     1
281
     1
  3
BUMPTILE
360
E
  3
DIFFUSETILE
360
F
  3
OPACITYTILE
360
10
  3
REFLECTIONTILE
360
11
  3
REFRACTIONTILE
360
12
  3
SPECULARTILE
360
13
  0
DICTIONARY
  5
33C
330
33B
100
AcDbDictionary
280
     1
281
     1
  3
ACAD_ROUNDTRIP_2008_TABLESTYLE_CELLSTYLEMAP
360
39B
  0
XRECORD
  5
324
102
{ACAD_REACTORS
330
323
102
}
330
323
100
AcDbXrecord
280
     1
270
     1
271
     1
  0
XRECORD
  5
325
102
{ACAD_REACTORS
330
323
102
}
330
323
100
AcDbXrecord
280
     1
270
     1
271
     1
  0
XRECORD
  5
326
102
{ACAD_REACTORS
330
323
102
}
330
323
100
AcDbXrecord
280
     1
270
     1
271
     1
  0
XRECORD
  5
327
102
{ACAD_REACTORS
330
323
102
}
330
323
100
AcDbXrecord
280
     1
270
     1
271
     1
  0
XRECORD
  5
328
102
{ACAD_REACTORS
330
323
102
}
330
323
100
AcDbXrecord
280
     1
270
     1
271
     1
  0
XRECORD
  5
329
102
{ACAD_REACTORS
330
323
102
}
330
323
100
AcDbXrecord
280
     1
270
     1
271
     1
  0
XRECORD
  5
31C
102
{ACAD_REACTORS
330
31B
102
}
330
31B
100
AcDbXrecord
280
     1
270
     1
271
     1
  0
XRECORD
  5
31D
102
{ACAD_REACTORS
330
31B
102
}
330
31B
100
AcDbXrecord
280
     1
270
     1
271
     1
  0
XRECORD
  5
31E
102
{ACAD_REACTORS
330
31B
102
}
330
31B
100
AcDbXrecord
280
     1
270
     1
271
     1
  0
XRECORD
  5
31F
102
{ACAD_REACTORS
330
31B
102
}
330
31B
100
AcDbXrecord
280
     1
270
     1
271
     1
  0
XRECORD
  5
320
102
{ACAD_REACTORS
330
31B
102
}
330
31B
100
AcDbXrecord
280
     1
270
     1
271
     1
  0
XRECORD
  5
321
102
{ACAD_REACTORS
330
31B
102
}
330
31B
100
AcDbXrecord
280
     1
270
     1
271
     1
  0
XRECORD
  5
E
102
{ACAD_REACTORS
330
D
102
}
330
D
100
AcDbXrecord
280
     1
270
     1
271
     1
  0
XRECORD
  5
F
102
{ACAD_REACTORS
330
D
102
}
330
D
100
AcDbXrecord
280
     1
270
     1
271
     1
  0
XRECORD
  5
10
102
{ACAD_REACTORS
330
D
102
}
330
D
100
AcDbXrecord
280
     1
270
     1
271
     1
  0
XRECORD
  5
11
102
{ACAD_REACTORS
330
D
102
}
330
D
100
AcDbXrecord
280
     1
270
     1
271
     1
  0
XRECORD
  5
12
102
{ACAD_REACTORS
330
D
102
}
330
D
100
AcDbXrecord
280
     1
270
     1
271
     1
  0
XRECORD
  5
13
102
{ACAD_REACTORS
330
D
102
}
330
D
100
AcDbXrecord
280
     1
270
     1
271
     1
  0
CELLSTYLEMAP
  5
39B
102
{ACAD_REACTORS
330
33C
102
}
330
33C
100
AcDbCellStyleMap
 90
        3
300
CELLSTYLE
  1
TABLEFORMAT_BEGIN
 90
        5
170
     1
 91
        0
 92
    32768
 62
   257
 93
        1
300
CONTENTFORMAT
  1
CONTENTFORMAT_BEGIN
 90
        0
 91
        0
 92
      512
 93
        0
300

 40
0.0
140
1.0
 94
        5
 62
     0
340
BB
144
0.25
309
CONTENTFORMAT_END
171
     0
 94
        0
309
TABLEFORMAT_END
  1
CELLSTYLE_BEGIN
 90
        1
 91
        1
300
_TITLE
309
CELLSTYLE_END
300
CELLSTYLE
  1
TABLEFORMAT_BEGIN
 90
        5
170
     1
 91
        0
 92
        0
 62
   257
 93
        1
300
CONTENTFORMAT
  1
CONTENTFORMAT_BEGIN
 90
        0
 91
        0
 92
      512
 93
        0
300

 40
0.0
140
1.0
 94
        5
 62
     0
340
BB
144
0.18
309
CONTENTFORMAT_END
171
     0
 94
        0
309
TABLEFORMAT_END
  1
CELLSTYLE_BEGIN
 90
        2
 91
        1
300
_HEADER
309
CELLSTYLE_END
300
CELLSTYLE
  1
TABLEFORMAT_BEGIN
 90
        5
170
     1
 91
        0
 92
        0
 62
   257
 93
        1
300
CONTENTFORMAT
  1
CONTENTFORMAT_BEGIN
 90
        0
 91
        0
 92
      512
 93
        0
300

 40
0.0
140
1.0
 94
        2
 62
     0
340
BB
144
0.18
309
CONTENTFORMAT_END
171
     0
 94
        0
309
TABLEFORMAT_END
  1
CELLSTYLE_BEGIN
 90
        3
 91
        2
300
_DATA
309
CELLSTYLE_END
  0
ENDSEC
  0
EOF
