  0
SECTION
  2
HEADER
  9
$ACADVER
  1
AC1018
  9
$ACADMAINTVER
 70
   104
  9
$DWGCODEPAGE
  3
ANSI_1252
  9
$TITLE
  1
O:\RAINBIRD\Details 2008\Rotary Nozzles\S-1812Rotary-SJ.DWG
  9
$AUTHOR
  1
dweyer
  9
$COMMENTS
  1
This drawing was opened and saved by 'dweyer' with AutoCAD version 17.1 using profile WatermarkID on 07-01-2008-09:04
  9
$LASTSAVEDBY
  1
dweyer
  9
$INSBASE
 10
0.0
 20
0.0
 30
0.0
  9
$EXTMIN
 10
0.1064708094271038
 20
-0.1143646667846376
 30
0.0
  9
$EXTMAX
 10
16.5964708094271
 20
10.32563533321536
 30
0.03
  9
$LIMMIN
 10
0.0
 20
0.0
  9
$LIMMAX
 10
12.0
 20
9.0
  9
$ORTHOMODE
 70
     1
  9
$REGENMODE
 70
     1
  9
$FILLMODE
 70
     1
  9
$QTEXTMODE
 70
     0
  9
$MIRRTEXT
 70
     0
  9
$LTSCALE
 40
1.0
  9
$ATTMODE
 70
     1
  9
$TEXTSIZE
 40
0.1
  9
$TRACEWID
 40
0.05
  9
$TEXTSTYLE
  7
ROMANS
  9
$CLAYER
  8
0
  9
$CELTYPE
  6
ByLayer
  9
$CECOLOR
 62
   256
  9
$CELTSCALE
 40
1.0
  9
$DISPSILH
 70
     0
  9
$DIMSCALE
 40
1.0
  9
$DIMASZ
 40
0.18
  9
$DIMEXO
 40
0.0625
  9
$DIMDLI
 40
0.38
  9
$DIMRND
 40
0.0
  9
$DIMDLE
 40
0.0
  9
$DIMEXE
 40
0.125
  9
$DIMTP
 40
0.0
  9
$DIMTM
 40
0.0
  9
$DIMTXT
 40
0.125
  9
$DIMCEN
 40
0.09
  9
$DIMTSZ
 40
0.0
  9
$DIMTOL
 70
     0
  9
$DIMLIM
 70
     0
  9
$DIMTIH
 70
     1
  9
$DIMTOH
 70
     1
  9
$DIMSE1
 70
     0
  9
$DIMSE2
 70
     0
  9
$DIMTAD
 70
     0
  9
$DIMZIN
 70
     0
  9
$DIMBLK
  1

  9
$DIMASO
 70
     1
  9
$DIMSHO
 70
     1
  9
$DIMPOST
  1

  9
$DIMAPOST
  1

  9
$DIMALT
 70
     0
  9
$DIMALTD
 70
     2
  9
$DIMALTF
 40
25.4
  9
$DIMLFAC
 40
1.0
  9
$DIMTOFL
 70
     0
  9
$DIMTVP
 40
0.0
  9
$DIMTIX
 70
     0
  9
$DIMSOXD
 70
     0
  9
$DIMSAH
 70
     0
  9
$DIMBLK1
  1

  9
$DIMBLK2
  1

  9
$DIMSTYLE
  2
Standard
  9
$DIMCLRD
 70
   256
  9
$DIMCLRE
 70
   256
  9
$DIMCLRT
 70
   256
  9
$DIMTFAC
 40
1.0
  9
$DIMGAP
 40
0.09
  9
$DIMJUST
 70
     0
  9
$DIMSD1
 70
     0
  9
$DIMSD2
 70
     0
  9
$DIMTOLJ
 70
     1
  9
$DIMTZIN
 70
     0
  9
$DIMALTZ
 70
     0
  9
$DIMALTTZ
 70
     0
  9
$DIMUPT
 70
     0
  9
$DIMDEC
 70
     4
  9
$DIMTDEC
 70
     4
  9
$DIMALTU
 70
     2
  9
$DIMALTTD
 70
     2
  9
$DIMTXSTY
  7
STANDARD
  9
$DIMAUNIT
 70
     0
  9
$DIMADEC
 70
     0
  9
$DIMALTRND
 40
0.0
  9
$DIMAZIN
 70
     0
  9
$DIMDSEP
 70
    46
  9
$DIMATFIT
 70
     3
  9
$DIMFRAC
 70
     0
  9
$DIMLDRBLK
  1

  9
$DIMLUNIT
 70
     2
  9
$DIMLWD
 70
    -1
  9
$DIMLWE
 70
    -1
  9
$DIMTMOVE
 70
     2
  9
$LUNITS
 70
     2
  9
$LUPREC
 70
     3
  9
$SKETCHINC
 40
0.1
  9
$FILLETRAD
 40
0.0
  9
$AUNITS
 70
     0
  9
$AUPREC
 70
     0
  9
$MENU
  1
ACAD
  9
$ELEVATION
 40
0.0
  9
$PELEVATION
 40
0.0
  9
$THICKNESS
 40
0.0
  9
$LIMCHECK
 70
     0
  9
$CHAMFERA
 40
0.0
  9
$CHAMFERB
 40
0.0
  9
$CHAMFERC
 40
0.0
  9
$CHAMFERD
 40
0.0
  9
$SKPOLY
 70
     0
  9
$TDCREATE
 40
2449623.426764236
  9
$TDUCREATE
 40
2449623.676764236
  9
$TDUPDATE
 40
2454649.379361794
  9
$TDUUPDATE
 40
2454649.629361794
  9
$TDINDWG
 40
0.4669554398
  9
$TDUSRTIMER
 40
0.4669554398
  9
$USRTIMER
 70
     1
  9
$ANGBASE
 50
0.0
  9
$ANGDIR
 70
     0
  9
$PDMODE
 70
     0
  9
$PDSIZE
 40
0.0
  9
$PLINEWID
 40
0.0
  9
$SPLFRAME
 70
     0
  9
$SPLINETYPE
 70
     6
  9
$SPLINESEGS
 70
     8
  9
$HANDSEED
  5
A00
  9
$SURFTAB1
 70
     6
  9
$SURFTAB2
 70
     6
  9
$SURFTYPE
 70
     6
  9
$SURFU
 70
     6
  9
$SURFV
 70
     6
  9
$UCSBASE
  2

  9
$UCSNAME
  2

  9
$UCSORG
 10
0.0
 20
0.0
 30
0.0
  9
$UCSXDIR
 10
1.0
 20
0.0
 30
0.0
  9
$UCSYDIR
 10
0.0
 20
1.0
 30
0.0
  9
$UCSORTHOREF
  2

  9
$UCSORTHOVIEW
 70
     0
  9
$UCSORGTOP
 10
0.0
 20
0.0
 30
0.0
  9
$UCSORGBOTTOM
 10
0.0
 20
0.0
 30
0.0
  9
$UCSORGLEFT
 10
0.0
 20
0.0
 30
0.0
  9
$UCSORGRIGHT
 10
0.0
 20
0.0
 30
0.0
  9
$UCSORGFRONT
 10
0.0
 20
0.0
 30
0.0
  9
$UCSORGBACK
 10
0.0
 20
0.0
 30
0.0
  9
$PUCSBASE
  2

  9
$PUCSNAME
  2

  9
$PUCSORG
 10
0.0
 20
0.0
 30
0.0
  9
$PUCSXDIR
 10
1.0
 20
0.0
 30
0.0
  9
$PUCSYDIR
 10
0.0
 20
1.0
 30
0.0
  9
$PUCSORTHOREF
  2

  9
$PUCSORTHOVIEW
 70
     0
  9
$PUCSORGTOP
 10
0.0
 20
0.0
 30
0.0
  9
$PUCSORGBOTTOM
 10
0.0
 20
0.0
 30
0.0
  9
$PUCSORGLEFT
 10
0.0
 20
0.0
 30
0.0
  9
$PUCSORGRIGHT
 10
0.0
 20
0.0
 30
0.0
  9
$PUCSORGFRONT
 10
0.0
 20
0.0
 30
0.0
  9
$PUCSORGBACK
 10
0.0
 20
0.0
 30
0.0
  9
$USERI1
 70
     0
  9
$USERI2
 70
     0
  9
$USERI3
 70
     0
  9
$USERI4
 70
     0
  9
$USERI5
 70
     0
  9
$USERR1
 40
0.0
  9
$USERR2
 40
0.0
  9
$USERR3
 40
0.0
  9
$USERR4
 40
0.0
  9
$USERR5
 40
0.0
  9
$WORLDVIEW
 70
     1
  9
$SHADEDGE
 70
     3
  9
$SHADEDIF
 70
    70
  9
$TILEMODE
 70
     1
  9
$MAXACTVP
 70
    16
  9
$PINSBASE
 10
0.0
 20
0.0
 30
0.0
  9
$PLIMCHECK
 70
     0
  9
$PEXTMIN
 10
1.000000000000000E+20
 20
1.000000000000000E+20
 30
1.000000000000000E+20
  9
$PEXTMAX
 10
-1.000000000000000E+20
 20
-1.000000000000000E+20
 30
-1.000000000000000E+20
  9
$PLIMMIN
 10
0.0
 20
0.0
  9
$PLIMMAX
 10
12.0
 20
9.0
  9
$UNITMODE
 70
     0
  9
$VISRETAIN
 70
     0
  9
$PLINEGEN
 70
     1
  9
$PSLTSCALE
 70
     1
  9
$TREEDEPTH
 70
  3020
  9
$CMLSTYLE
  2
Standard
  9
$CMLJUST
 70
     0
  9
$CMLSCALE
 40
1.0
  9
$PROXYGRAPHICS
 70
     1
  9
$MEASUREMENT
 70
     0
  9
$CELWEIGHT
370
    -1
  9
$ENDCAPS
280
     0
  9
$JOINSTYLE
280
     0
  9
$LWDISPLAY
290
     0
  9
$INSUNITS
 70
     0
  9
$HYPERLINKBASE
  1

  9
$STYLESHEET
  1
8500Color.ctb
  9
$XEDIT
290
     1
  9
$CEPSNTYPE
380
     0
  9
$PSTYLEMODE
290
     1
  9
$FINGERPRINTGUID
  2
{FC71E344-C23D-4BC5-84A3-344016255673}
  9
$VERSIONGUID
  2
{17777767-BECF-47AF-A46B-3A2EB09A5736}
  9
$EXTNAMES
290
     1
  9
$PSVPSCALE
 40
0.0
  9
$OLESTARTUP
290
     1
  9
$SORTENTS
280
   112
  9
$INDEXCTL
280
     0
  9
$HIDETEXT
280
     1
  9
$XCLIPFRAME
290
     0
  9
$HALOGAP
280
     0
  9
$OBSCOLOR
 70
   257
  9
$OBSLTYPE
280
     0
  9
$INTERSECTIONDISPLAY
280
     0
  9
$INTERSECTIONCOLOR
 70
   257
  9
$DIMASSOC
280
     1
  9
$PROJECTNAME
  1

  0
ENDSEC
  0
SECTION
  2
CLASSES
  0
CLASS
  1
ACDBDICTIONARYWDFLT
  2
AcDbDictionaryWithDefault
  3
ObjectDBX Classes
 90
        0
 91
        1
280
     0
281
     0
  0
CLASS
  1
DICTIONARYVAR
  2
AcDbDictionaryVar
  3
ObjectDBX Classes
 90
        0
 91
        9
280
     0
281
     0
  0
CLASS
  1
MATERIAL
  2
AcDbMaterial
  3
ObjectDBX Classes
 90
     1153
 91
        3
280
     0
281
     0
  0
CLASS
  1
VISUALSTYLE
  2
AcDbVisualStyle
  3
ObjectDBX Classes
 90
     4095
 91
       16
280
     0
281
     0
  0
CLASS
  1
TABLESTYLE
  2
AcDbTableStyle
  3
ObjectDBX Classes
 90
     4095
 91
        1
280
     0
281
     0
  0
CLASS
  1
SCALE
  2
AcDbScale
  3
ObjectDBX Classes
 90
     1153
 91
       65
280
     0
281
     0
  0
CLASS
  1
MLEADERSTYLE
  2
AcDbMLeaderStyle
  3
ACDB_MLEADERSTYLE_CLASS
 90
     4095
 91
        1
280
     0
281
     0
  0
CLASS
  1
EXACXREFPANELOBJECT
  2
ExAcXREFPanelObject
  3
EXAC_ESW
 90
     1025
 91
        1
280
     0
281
     0
  0
CLASS
  1
NPOCOLLECTION
  2
AcDbImpNonPersistentObjectsCollection
  3
ObjectDBX Classes
 90
     1153
 91
        1
280
     0
281
     0
  0
CLASS
  1
CELLSTYLEMAP
  2
AcDbCellStyleMap
  3
ObjectDBX Classes
 90
     1152
 91
        3
280
     0
281
     0
  0
ENDSEC
  0
SECTION
  2
TABLES
  0
TABLE
  2
VPORT
  5
8
330
0
100
AcDbSymbolTable
 70
     1
  0
VPORT
  5
82A
330
8
100
AcDbSymbolTableRecord
100
AcDbViewportTableRecord
  2
*Active
 70
     0
 10
0.0
 20
0.0
 11
1.0
 21
1.0
 12
8.351470809427098
 22
5.105635333215362
 13
0.0
 23
0.0
 14
0.14
 24
0.14
 15
0.0
 25
0.0
 16
0.0
 26
0.0
 36
1.0
 17
0.0
 27
0.0
 37
0.0
 40
10.5244204851752
 41
2.15519568151147
 42
50.0
 43
0.0
 44
0.0
 50
0.0
 51
0.0
 71
     0
 72
  4000
 73
     1
 74
     1
 75
     0
 76
     0
 77
     0
 78
     0
281
     0
 65
     1
110
0.0
120
0.0
130
0.0
111
1.0
121
0.0
131
0.0
112
0.0
122
1.0
132
0.0
 79
     0
146
0.0
  0
ENDTAB
  0
TABLE
  2
LTYPE
  5
5
330
0
100
AcDbSymbolTable
 70
     1
  0
LTYPE
  5
13
330
5
100
AcDbSymbolTableRecord
100
AcDbLinetypeTableRecord
  2
ByBlock
 70
     0
  3

 72
    65
 73
     0
 40
0.0
  0
LTYPE
  5
14
330
5
100
AcDbSymbolTableRecord
100
AcDbLinetypeTableRecord
  2
ByLayer
 70
     0
  3

 72
    65
 73
     0
 40
0.0
  0
LTYPE
  5
15
330
5
100
AcDbSymbolTableRecord
100
AcDbLinetypeTableRecord
  2
CONTINUOUS
 70
     0
  3
Solid line
 72
    65
 73
     0
 40
0.0
  0
ENDTAB
  0
TABLE
  2
LAYER
  5
2
102
{ACAD_XDICTIONARY
360
283
102
}
330
0
100
AcDbSymbolTable
 70
     8
  0
LAYER
  5
10
330
2
100
AcDbSymbolTableRecord
100
AcDbLayerTableRecord
  2
0
 70
     0
 62
     7
  6
CONTINUOUS
370
    -3
390
F
  0
LAYER
  5
27
330
2
100
AcDbSymbolTableRecord
100
AcDbLayerTableRecord
  2
text_bubbles
 70
     0
 62
     6
  6
CONTINUOUS
370
    -3
390
F
  0
LAYER
  5
28
330
2
100
AcDbSymbolTableRecord
100
AcDbLayerTableRecord
  2
image
 70
     0
 62
     7
  6
CONTINUOUS
370
    -3
390
F
  0
LAYER
  5
2B
330
2
100
AcDbSymbolTableRecord
100
AcDbLayerTableRecord
  2
text_leaders
 70
     1
 62
    -5
  6
CONTINUOUS
370
    -3
390
F
  0
LAYER
  5
2C
330
2
100
AcDbSymbolTableRecord
100
AcDbLayerTableRecord
  2
option-sam
 70
     1
 62
     1
  6
CONTINUOUS
370
    -3
390
F
  0
LAYER
  5
34
330
2
100
AcDbSymbolTableRecord
100
AcDbLayerTableRecord
  2
instruct-option
 70
     0
 62
     7
  6
CONTINUOUS
370
    -3
390
F
  0
LAYER
  5
35
330
2
100
AcDbSymbolTableRecord
100
AcDbLayerTableRecord
  2
instruct-callout
 70
     0
 62
     4
  6
CONTINUOUS
370
    -3
390
F
  0
LAYER
  5
25F
330
2
100
AcDbSymbolTableRecord
100
AcDbLayerTableRecord
  2
title
 70
     0
 62
     4
  6
CONTINUOUS
370
    -3
390
F
  0
ENDTAB
  0
TABLE
  2
STYLE
  5
3
330
0
100
AcDbSymbolTable
 70
     5
  0
STYLE
  5
11
330
3
100
AcDbSymbolTableRecord
100
AcDbTextStyleTableRecord
  2
STANDARD
 70
     0
 40
0.0
 41
1.0
 50
0.0
 71
     0
 42
0.2
  3
txt
  4

  0
STYLE
  5
24
330
3
100
AcDbSymbolTableRecord
100
AcDbTextStyleTableRecord
  2
ROMANS
 70
     0
 40
0.0
 41
1.0
 50
0.0
 71
     0
 42
0.1
  3
ROMANS.SHX
  4

  0
STYLE
  5
260
330
3
100
AcDbSymbolTableRecord
100
AcDbTextStyleTableRecord
  2
L100
 70
     0
 40
0.1
 41
1.0
 50
0.0
 71
     0
 42
0.1
  3
romans.shx
  4

  0
STYLE
  5
261
330
3
100
AcDbSymbolTableRecord
100
AcDbTextStyleTableRecord
  2
L200
 70
     0
 40
0.2
 41
1.0
 50
0.0
 71
     0
 42
0.081
  3
ARIAL.TTF
  4

1001
ACAD
1000
Arial
1071
       34
  0
STYLE
  5
262
330
3
100
AcDbSymbolTableRecord
100
AcDbTextStyleTableRecord
  2
L80
 70
     0
 40
0.08
 41
1.0
 50
0.0
 71
     0
 42
0.08
  3
ROMANS
  4

  0
ENDTAB
  0
TABLE
  2
VIEW
  5
6
330
0
100
AcDbSymbolTable
 70
     0
  0
ENDTAB
  0
TABLE
  2
UCS
  5
7
330
0
100
AcDbSymbolTable
 70
     0
  0
ENDTAB
  0
TABLE
  2
APPID
  5
9
330
0
100
AcDbSymbolTable
 70
     9
  0
APPID
  5
12
330
9
100
AcDbSymbolTableRecord
100
AcDbRegAppTableRecord
  2
ACAD
 70
     0
  0
APPID
  5
87D
330
9
100
AcDbSymbolTableRecord
100
AcDbRegAppTableRecord
  2
ACAD_MLEADERVER
 70
     0
  0
APPID
  5
9BD
330
9
100
AcDbSymbolTableRecord
100
AcDbRegAppTableRecord
  2
BBSI_PltSel
 70
     0
  0
APPID
  5
9BE
330
9
100
AcDbSymbolTableRecord
100
AcDbRegAppTableRecord
  2
BBSI_Plots
 70
     0
  0
APPID
  5
9BF
330
9
100
AcDbSymbolTableRecord
100
AcDbRegAppTableRecord
  2
BBSI_Bookmarks
 70
     0
  0
APPID
  5
9C3
330
9
100
AcDbSymbolTableRecord
100
AcDbRegAppTableRecord
  2
ACAD_PSEXT
 70
     0
  0
ENDTAB
  0
TABLE
  2
DIMSTYLE
  5
A
330
0
100
AcDbSymbolTable
 70
     1
100
AcDbDimStyleTable
 71
     0
  0
DIMSTYLE
105
211
330
A
100
AcDbSymbolTableRecord
100
AcDbDimStyleTableRecord
  2
Standard
 70
     0
340
11
  0
ENDTAB
  0
TABLE
  2
BLOCK_RECORD
  5
1
330
0
100
AcDbSymbolTable
 70
     1
  0
BLOCK_RECORD
  5
1E
330
1
100
AcDbSymbolTableRecord
100
AcDbBlockTableRecord
  2
*Model_Space
340
21
  0
BLOCK_RECORD
  5
1A
330
1
100
AcDbSymbolTableRecord
100
AcDbBlockTableRecord
  2
*Paper_Space
340
1D
  0
BLOCK_RECORD
  5
265
330
1
100
AcDbSymbolTableRecord
100
AcDbBlockTableRecord
  2
titleblock
340
0
102
{BLKREFS
331
274
102
}
  0
ENDTAB
  0
ENDSEC
  0
SECTION
  2
BLOCKS
  0
BLOCK
  5
39
330
1E
100
AcDbEntity
  8
0
100
AcDbBlockBegin
  2
*Model_Space
 70
     0
 10
0.0
 20
0.0
 30
0.0
  3
*Model_Space
  1

  0
ENDBLK
  5
3A
330
1E
100
AcDbEntity
  8
0
100
AcDbBlockEnd
  0
BLOCK
  5
37
330
1A
100
AcDbEntity
 67
     1
  8
0
100
AcDbBlockBegin
  2
*Paper_Space
 70
     0
 10
0.0
 20
0.0
 30
0.0
  3
*Paper_Space
  1

  0
ENDBLK
  5
38
330
1A
100
AcDbEntity
 67
     1
  8
0
100
AcDbBlockEnd
  0
BLOCK
  5
271
330
265
100
AcDbEntity
  8
0
100
AcDbBlockBegin
  2
titleblock
 70
     2
 10
0.0
 20
0.0
 30
0.0
  3
titleblock
  1

  0
LWPOLYLINE
  5
266
330
265
100
AcDbEntity
  8
image
100
AcDbPolyline
 90
        4
 70
     1
 43
0.0
 10
0.0
 20
0.0
 10
16.48999999999999
 20
0.0000000000000001
 10
16.48999999999999
 20
10.44
 10
0.0
 20
10.44
  0
ATTDEF
  5
267
330
265
100
AcDbEntity
  8
title
100
AcDbText
 10
0.5055556038023421
 20
0.7842270964783673
 30
0.0
 40
0.2
  1
D
  7
L200
 72
     4
 11
0.6064423705144839
 21
0.8842270964783672
 31
0.0
100
AcDbAttributeDefinition
  3
#
  2
D
 70
     0
  0
ATTDEF
  5
268
330
265
100
AcDbEntity
  8
title
100
AcDbText
 10
1.231442370514484
 20
1.34371230274675
 30
0.0
 40
0.2
  1

  7
L200
100
AcDbAttributeDefinition
  3
DETAIL TITLE TOP LINE
  2
TITLE1
 70
     0
  0
ATTDEF
  5
269
330
265
100
AcDbEntity
  8
title
100
AcDbText
 10
1.231442370514484
 20
0.9842270964783674
 30
0.0
 40
0.2
  1
TITLE
  7
L200
100
AcDbAttributeDefinition
  3
DETAIL TITLE TOP 2ND LINE
  2
TITLE2
 70
     0
  0
ATTDEF
  5
26A
330
265
100
AcDbEntity
  8
title
100
AcDbText
 10
2.713645751168312
 20
0.5927927664583189
 30
0.0
 40
0.2
  1
TITLE2
  7
L200
100
AcDbAttributeDefinition
  3
DETAIL TITLE BOTTOM 1
  2
TITLE3
 70
     0
  0
ATTDEF
  5
26B
330
265
100
AcDbEntity
  8
title
100
AcDbText
 10
2.713645751168312
 20
0.2692560808167741
 30
0.0
 40
0.2
  1

  7
L200
100
AcDbAttributeDefinition
  3
DETAIL TITLE BOTTOM 2
  2
TITLE4
 70
     0
  0
ATTDEF
  5
26C
330
265
100
AcDbEntity
  8
title
 62
     7
100
AcDbText
 10
8.177214829966379
 20
0.9696027915446398
 30
0.0
 40
0.08
  1
-
  7
L80
 72
     2
 11
8.261024353775903
 21
0.9696027915446398
 31
0.0
100
AcDbAttributeDefinition
  3
REVISION DATE
  2
REVISED
 70
     0
  0
ATTDEF
  5
26D
330
265
100
AcDbEntity
  8
title
 62
     7
100
AcDbText
 10
0.2639423705144838
 20
0.0847116480207214
 30
0.0
 40
0.08
  1
-
  7
L80
100
AcDbAttributeDefinition
  3
DWG-NAME
  2
DWG-NAME
 70
     0
  0
LWPOLYLINE
  5
26E
330
265
100
AcDbEntity
  8
title
 62
     3
100
AcDbPolyline
 90
        2
 70
     1
 43
0.03
 10
0.6064423705144839
 20
0.5417270964783675
 42
0.9999999999999998
 10
0.6064423705144839
 20
1.226727096478367
 42
0.9999999999999998
  0
ATTDEF
  5
26F
330
265
100
AcDbEntity
  8
title
 62
     7
100
AcDbText
 10
1.231442370514484
 20
0.7005637793954894
 30
0.0
 40
0.1
  1
N.T.S.
  7
L100
100
AcDbAttributeDefinition
  3
SCALE
  2
SCALE
 70
     0
  0
LWPOLYLINE
  5
270
330
265
100
AcDbEntity
  8
title
 62
     3
100
AcDbPolyline
 90
        2
 70
     0
 43
0.04
 39
0.03
 10
0.9489423705144833
 20
0.8842270964783672
 10
8.261024353775903
 20
0.8842270964783672
  0
ENDBLK
  5
272
330
265
100
AcDbEntity
  8
0
100
AcDbBlockEnd
  0
ENDSEC
  0
SECTION
  2
ENTITIES
  0
CIRCLE
  5
10A
330
1E
100
AcDbEntity
  8
text_bubbles
100
AcDbCircle
 10
4.418220173282479
 20
6.236868035771935
 30
0.0
 40
0.15625
  0
TEXT
  5
10B
330
1E
100
AcDbEntity
  8
text_bubbles
100
AcDbText
 10
4.367624935187241
 20
6.174368035771935
 30
0.0
 40
0.125
  1
1
  7
ROMANS
 72
     4
 11
4.418220173282479
 21
6.236868035771935
 31
0.0
100
AcDbText
  0
CIRCLE
  5
10C
330
1E
100
AcDbEntity
  8
text_bubbles
100
AcDbCircle
 10
4.418220173282479
 20
5.878274196398654
 30
0.0
 40
0.15625
  0
TEXT
  5
10D
330
1E
100
AcDbEntity
  8
text_bubbles
100
AcDbText
 10
4.35869636375867
 20
5.815774196398654
 30
0.0
 40
0.125
  1
2
  7
ROMANS
 72
     4
 11
4.418220173282479
 21
5.878274196398654
 31
0.0
100
AcDbText
  0
CIRCLE
  5
10E
330
1E
100
AcDbEntity
  8
text_bubbles
100
AcDbCircle
 10
4.42683571506445
 20
5.305580386348426
 30
0.0
 40
0.15625
  0
TEXT
  5
10F
330
1E
100
AcDbEntity
  8
text_bubbles
100
AcDbText
 10
4.367311905540641
 20
5.243080386348426
 30
0.0
 40
0.125
  1
3
  7
ROMANS
 72
     4
 11
4.42683571506445
 21
5.305580386348426
 31
0.0
100
AcDbText
  0
CIRCLE
  5
110
330
1E
100
AcDbEntity
  8
text_bubbles
100
AcDbCircle
 10
4.418220173282479
 20
4.884155052891664
 30
0.0
 40
0.15625
  0
TEXT
  5
111
330
1E
100
AcDbEntity
  8
text_bubbles
100
AcDbText
 10
4.355720173282479
 20
4.821655052891664
 30
0.0
 40
0.125
  1
4
  7
ROMANS
 72
     4
 11
4.418220173282479
 21
4.884155052891664
 31
0.0
100
AcDbText
  0
CIRCLE
  5
112
330
1E
100
AcDbEntity
  8
text_bubbles
100
AcDbCircle
 10
4.418220173282479
 20
4.533899904761934
 30
0.0
 40
0.15625
  0
TEXT
  5
113
330
1E
100
AcDbEntity
  8
text_bubbles
100
AcDbText
 10
4.35869636375867
 20
4.471399904761934
 30
0.0
 40
0.125
  1
5
  7
ROMANS
 72
     4
 11
4.418220173282479
 21
4.533899904761934
 31
0.0
100
AcDbText
  0
CIRCLE
  5
114
330
1E
100
AcDbEntity
  8
text_bubbles
100
AcDbCircle
 10
4.418220173282479
 20
4.175882552804223
 30
0.0
 40
0.15625
  0
TEXT
  5
115
330
1E
100
AcDbEntity
  8
text_bubbles
100
AcDbText
 10
4.355720173282479
 20
4.113382552804223
 30
0.0
 40
0.125
  1
6
  7
ROMANS
 72
     4
 11
4.418220173282479
 21
4.175882552804223
 31
0.0
100
AcDbText
  0
CIRCLE
  5
11B
330
1E
100
AcDbEntity
  8
text_bubbles
100
AcDbCircle
 10
3.588249345650492
 20
1.80347095916251
 30
0.0
 40
0.15625
  0
TEXT
  5
11C
330
1E
100
AcDbEntity
  8
text_bubbles
100
AcDbText
 10
3.528725536126683
 20
1.74097095916251
 30
0.0
 40
0.125
  1
3
  7
ROMANS
 72
     4
 11
3.588249345650492
 21
1.80347095916251
 31
0.0
100
AcDbText
  0
CIRCLE
  5
11D
330
1E
100
AcDbEntity
  8
text_bubbles
100
AcDbCircle
 10
4.665544895021538
 20
1.803884257173425
 30
0.0
 40
0.15625
  0
TEXT
  5
11E
330
1E
100
AcDbEntity
  8
text_bubbles
100
AcDbText
 10
4.606021085497729
 20
1.741384257173425
 30
0.0
 40
0.125
  1
7
  7
ROMANS
 72
     4
 11
4.665544895021538
 21
1.803884257173425
 31
0.0
100
AcDbText
  0
CIRCLE
  5
11F
330
1E
100
AcDbEntity
  8
text_bubbles
100
AcDbCircle
 10
2.829549934577273
 20
1.803744500292894
 30
0.0
 40
0.15625
  0
TEXT
  5
120
330
1E
100
AcDbEntity
  8
text_bubbles
100
AcDbText
 10
2.770026125053464
 20
1.741244500292894
 30
0.0
 40
0.125
  1
5
  7
ROMANS
 72
     4
 11
2.829549934577273
 21
1.803744500292894
 31
0.0
100
AcDbText
  0
TEXT
  5
127
330
1E
100
AcDbEntity
  8
text_bubbles
100
AcDbText
 10
0.6563833327298038
 20
3.727274398326072
 30
0.0
 40
0.125
  1
3
  7
ROMANS
 72
     4
 11
0.7159071422536134
 21
3.789774398326072
 31
0.0
100
AcDbText
  0
CIRCLE
  5
128
330
1E
100
AcDbEntity
  8
text_bubbles
100
AcDbCircle
 10
0.7159071422536134
 20
3.789774398326072
 30
0.0
 40
0.15625
  0
TEXT
  5
129
330
1E
100
AcDbEntity
  8
text_bubbles
100
AcDbText
 10
0.6563833327298038
 20
5.012785388808097
 30
0.0
 40
0.125
  1
2
  7
ROMANS
 72
     4
 11
0.7159071422536134
 21
5.075285388808097
 31
0.0
100
AcDbText
  0
CIRCLE
  5
12A
330
1E
100
AcDbEntity
  8
text_bubbles
100
AcDbCircle
 10
0.7159071422536134
 20
5.075285388808097
 30
0.0
 40
0.15625
  0
TEXT
  5
12D
330
1E
100
AcDbEntity
  8
text_bubbles
100
AcDbText
 10
4.252459832317176
 20
1.74125502874357
 30
0.0
 40
0.125
  1
5
  7
ROMANS
 72
     4
 11
4.311983641840986
 21
1.80375502874357
 31
0.0
100
AcDbText
  0
CIRCLE
  5
12E
330
1E
100
AcDbEntity
  8
text_bubbles
100
AcDbCircle
 10
4.311983641840986
 20
1.80375502874357
 30
0.0
 40
0.15625
  0
CIRCLE
  5
12F
330
1E
100
AcDbEntity
  8
text_bubbles
100
AcDbCircle
 10
0.7159071422536134
 20
6.870338539792372
 30
0.0
 40
0.15625
  0
TEXT
  5
130
330
1E
100
AcDbEntity
  8
text_bubbles
100
AcDbText
 10
0.6653119041583752
 20
6.807838539792372
 30
0.0
 40
0.125
  1
1
  7
ROMANS
 72
     4
 11
0.7159071422536134
 21
6.870338539792372
 31
0.0
100
AcDbText
  0
TEXT
  5
133
330
1E
100
AcDbEntity
  8
text_leaders
100
AcDbText
 10
4.760000000000001
 20
7.596147353388724
 30
0.0
 40
0.125
  1
FINISH GRADE/TOP OF MULCH
  7
ROMANS
100
AcDbText
  0
TEXT
  5
134
330
1E
100
AcDbEntity
  8
text_leaders
100
AcDbText
 10
4.760000000000001
 20
5.654593823794591
 30
0.0
 40
0.125
  1
  RAIN BIRD 1812
  7
ROMANS
100
AcDbText
  0
TEXT
  5
135
330
1E
100
AcDbEntity
  8
text_leaders
100
AcDbText
 10
4.760000000000001
 20
5.839799012736424
 30
0.0
 40
0.125
  1
POP-UP SPRAY SPRINKLER:
  7
ROMANS
100
AcDbText
  0
CIRCLE
  5
17C
330
1E
100
AcDbEntity
  8
text_bubbles
100
AcDbCircle
 10
3.935796563451078
 20
1.80375502874357
 30
0.0
 40
0.15625
  0
TEXT
  5
17D
330
1E
100
AcDbEntity
  8
text_bubbles
100
AcDbText
 10
3.873296563451078
 20
1.74125502874357
 30
0.0
 40
0.125
  1
6
  7
ROMANS
 72
     4
 11
3.935796563451078
 21
1.80375502874357
 31
0.0
100
AcDbText
  0
CIRCLE
  5
182
330
1E
100
AcDbEntity
  8
text_bubbles
100
AcDbCircle
 10
0.7159071422536134
 20
3.449657701191062
 30
0.0
 40
0.15625
  0
TEXT
  5
183
330
1E
100
AcDbEntity
  8
text_bubbles
100
AcDbText
 10
0.6534071422536134
 20
3.387157701191062
 30
0.0
 40
0.125
  1
4
  7
ROMANS
 72
     4
 11
0.7159071422536134
 21
3.449657701191062
 31
0.0
100
AcDbText
  0
TEXT
  5
188
330
1E
100
AcDbEntity
  8
text_leaders
100
AcDbText
 10
4.760000000000001
 20
1.805191905946225
 30
0.0
 40
0.125
  1
PVC SCH 40 TEE OR ELL
  7
ROMANS
100
AcDbText
  0
TEXT
  5
189
330
1E
100
AcDbEntity
  8
text_leaders
100
AcDbText
 10
4.760000000000001
 20
2.163833783875351
 30
0.0
 40
0.125
  1
PVC LATERAL PIPE
  7
ROMANS
100
AcDbText
  0
TEXT
  5
18C
330
1E
100
AcDbEntity
  8
text_leaders
100
AcDbText
 10
4.760000000000001
 20
2.804101118216927
 30
0.0
 40
0.125
  1
PVC SCH 40 STREET ELL
  7
ROMANS
100
AcDbText
  0
TEXT
  5
18E
330
1E
100
AcDbEntity
  8
text_leaders
100
AcDbText
 10
4.760000000000001
 20
3.077645063401954
 30
0.0
 40
0.125
  1
  (LENGTH AS REQUIRED)
  7
ROMANS
100
AcDbText
  0
TEXT
  5
18F
330
1E
100
AcDbEntity
  8
text_leaders
100
AcDbText
 10
4.760000000000001
 20
3.272149060409521
 30
0.0
 40
0.125
  1
PVC SCH 80 NIPPLE
  7
ROMANS
100
AcDbText
  0
TEXT
  5
193
330
1E
100
AcDbEntity
  8
text_leaders
100
AcDbText
 10
4.760000000000001
 20
4.300038914933736
 30
0.0
 40
0.125
  1
  (LENGTH AS REQUIRED)
  7
ROMANS
100
AcDbText
  0
TEXT
  5
198
330
1E
100
AcDbEntity
  8
text_leaders
100
AcDbText
 10
4.760000000000001
 20
4.479994902745691
 30
0.0
 40
0.125
  1
PVC SCH 80 NIPPLE
  7
ROMANS
100
AcDbText
  0
TEXT
  5
199
330
1E
100
AcDbEntity
  8
text_leaders
100
AcDbText
 10
4.760000000000001
 20
4.009061600913979
 30
0.0
 40
0.125
  1
PVC SCH 40 ELL
  7
ROMANS
100
AcDbText
  0
TEXT
  5
19A
330
1E
100
AcDbEntity
  8
text_leaders
100
AcDbText
 10
4.760000000000001
 20
3.700195773792132
 30
0.0
 40
0.125
  1
PVC SCH 40 STREET ELL
  7
ROMANS
100
AcDbText
  0
TEXT
  5
1A0
330
1E
100
AcDbEntity
  8
text_bubbles
100
AcDbText
 10
4.760000000000001
 20
3.754822345208905
 30
0.0
 40
0.125
  1
PVC LATERAL PIPE
  7
ROMANS
100
AcDbText
  0
TEXT
  5
1A1
330
1E
100
AcDbEntity
  8
text_bubbles
100
AcDbText
 10
4.760000000000001
 20
4.469508458295193
 30
0.0
 40
0.125
  1
PVC SCH 40 STREET ELL
  7
ROMANS
100
AcDbText
  0
TEXT
  5
1A2
330
1E
100
AcDbEntity
  8
text_bubbles
100
AcDbText
 10
4.760000000000001
 20
4.818257846541563
 30
0.0
 40
0.125
  1
PVC SCH 40 ELL
  7
ROMANS
100
AcDbText
  0
TEXT
  5
1A3
330
1E
100
AcDbEntity
  8
text_bubbles
100
AcDbText
 10
4.760000000000001
 20
5.046973209791378
 30
0.0
 40
0.125
  1
  (LENGTH AS REQUIRED)
  7
ROMANS
100
AcDbText
  0
TEXT
  5
1A4
330
1E
100
AcDbEntity
  8
text_bubbles
100
AcDbText
 10
4.760000000000001
 20
5.238257846541563
 30
0.0
 40
0.125
  1
PVC SCH 80 NIPPLE
  7
ROMANS
100
AcDbText
  0
TEXT
  5
1A5
330
1E
100
AcDbEntity
  8
text_bubbles
100
AcDbText
 10
4.760000000000001
 20
6.164194592317571
 30
0.0
 40
0.125
  1
FINISH GRADE/TOP OF MULCH
  7
ROMANS
100
AcDbText
  0
TEXT
  5
1A6
330
1E
100
AcDbEntity
  8
text_bubbles
100
AcDbText
 10
4.760000000000001
 20
4.103571733455275
 30
0.0
 40
0.125
  1
PVC SCH 40 TEE OR ELL
  7
ROMANS
100
AcDbText
  0
TEXT
  5
1A7
330
1E
100
AcDbEntity
  8
text_bubbles
100
AcDbText
 10
4.760000000000001
 20
5.646843464690503
 30
0.0
 40
0.125
  1
  RAIN BIRD 1812
  7
ROMANS
100
AcDbText
  0
TEXT
  5
1A8
330
1E
100
AcDbEntity
  8
text_bubbles
100
AcDbText
 10
4.760000000000001
 20
5.798257846541563
 30
0.0
 40
0.125
  1
POP-UP SPRAY SPRINKLER:
  7
ROMANS
100
AcDbText
  0
TEXT
  5
1A9
330
1E
100
AcDbEntity
  8
text_bubbles
100
AcDbText
 10
4.35869636375867
 20
3.764403250003596
 30
0.0
 40
0.125
  1
7
  7
ROMANS
 72
     4
 11
4.418220173282479
 21
3.826903250003596
 31
0.0
100
AcDbText
  0
CIRCLE
  5
1AA
330
1E
100
AcDbEntity
  8
text_bubbles
100
AcDbCircle
 10
4.418220173282479
 20
3.826903250003596
 30
0.0
 40
0.15625
  0
LWPOLYLINE
  5
1D4
330
1E
100
AcDbEntity
  8
instruct-callout
100
AcDbPolyline
 90
        4
 70
     1
 43
0.0
 10
11.84072718331551
 20
10.00891746304441
 10
11.84072718331551
 20
8.577431441702172
 10
16.27242397469758
 20
8.577431441702172
 10
16.27242397469758
 20
10.00891746304441
  0
TEXT
  5
1DA
330
1E
100
AcDbEntity
  8
instruct-callout
100
AcDbText
 10
12.17131960325753
 20
10.06603295376161
 30
0.0
 40
0.10000000149
  1
CHOOSING EQUIPMENT CALLOUT METHOD
  7
ROMANS
100
AcDbText
  0
TEXT
  5
1DB
330
1E
100
AcDbEntity
  8
instruct-callout
100
AcDbText
 10
11.93856983421081
 20
9.691921890286732
 30
0.0
 40
0.10000000149
  1
CHOOSE EITHER LEADERS OR BUBBLE CALLOUTS
  7
ROMANS
100
AcDbText
  0
TEXT
  5
1DC
330
1E
100
AcDbEntity
  8
instruct-callout
100
AcDbText
 10
11.93856983421081
 20
9.530021846799732
 30
0.0
 40
0.10000000149
  1
BY TURNING ON THE APPROPRIATE LAYER:
  7
ROMANS
100
AcDbText
  0
TEXT
  5
1DD
330
1E
100
AcDbEntity
  8
instruct-callout
100
AcDbText
 10
12.37491356647363
 20
9.193004552324556
 30
0.0
 40
0.10000000149
  1
TEXT_LEADERS         TEXT_BUBBLES
  7
ROMANS
100
AcDbText
  0
LINE
  5
1DE
330
1E
100
AcDbEntity
  8
instruct-callout
100
AcDbLine
 10
12.68203821843043
 20
8.940533298622941
 30
0.0
 11
12.81830676428905
 21
8.940533298622939
 31
0.0
  0
LINE
  5
1DF
330
1E
100
AcDbEntity
  8
instruct-callout
100
AcDbLine
 10
12.3942678039521
 20
8.820781596816658
 30
0.0
 11
12.68203821843043
 21
8.940533298622941
 31
0.0
  0
SOLID
  5
1E0
330
1E
100
AcDbEntity
  8
instruct-callout
100
AcDbTrace
 10
12.47965380149243
 20
8.823819922678547
 30
0.0
 11
12.4566019166007
 21
8.879214963999393
 31
0.0
 12
12.30194273508402
 22
8.78236178866377
 32
0.0
 13
12.30194273508402
 23
8.78236178866377
 33
0.0
  0
TEXT
  5
1E1
330
1E
100
AcDbEntity
  8
instruct-callout
100
AcDbText
 10
12.84428150130618
 20
8.875782689229041
 30
0.0
 40
0.10000000149
  1
ITEM 1
  7
ROMANS
100
AcDbText
  0
SOLID
  5
1E2
330
1E
100
AcDbEntity
  8
instruct-callout
100
AcDbTrace
 10
14.62212312954185
 20
8.837245957229946
 30
0.0
 11
14.63792542319619
 21
8.779364289015717
 31
0.0
 12
14.45637927172634
 22
8.760898242159814
 32
0.0
 13
14.45637927172634
 23
8.760898242159814
 33
0.0
  0
LINE
  5
1E3
330
1E
100
AcDbEntity
  8
instruct-callout
100
AcDbLine
 10
14.55284871875005
 20
8.787235398250381
 30
0.0
 11
14.8087301356749
 21
8.857093669714998
 31
0.0
  0
TEXT
  5
1E4
330
1E
100
AcDbEntity
  8
instruct-callout
100
AcDbText
 10
14.88884075397835
 20
8.840015114828203
 30
0.0
 40
0.1
  1
1
  7
ROMANS
 72
     4
 11
14.92931694445454
 21
8.890015114828203
 31
0.0
100
AcDbText
  0
CIRCLE
  5
1E5
330
1E
100
AcDbEntity
  8
instruct-callout
100
AcDbCircle
 10
14.92931694445454
 20
8.890015114828203
 30
0.0
 40
0.125
  0
TEXT
  5
1E6
330
1E
100
AcDbEntity
  8
instruct-callout
100
AcDbText
 10
11.8797545305326
 20
8.22620338496676
 30
0.0
 40
0.10000000149
  1
LAYER "INSTRUCT-CALLOUT".
  7
ROMANS
100
AcDbText
  0
TEXT
  5
1E7
330
1E
100
AcDbEntity
  8
instruct-callout
100
AcDbText
 10
11.8797545305326
 20
8.38810342845476
 30
0.0
 40
0.10000000149
  1
TO TURN OFF THIS INSTRUCTION BOX, TURN OFF
  7
ROMANS
100
AcDbText
  0
LEADER
  5
23F
330
1E
100
AcDbEntity
  8
text_leaders
100
AcDbLeader
  3
Standard
 76
     3
 10
4.017390347188547
 20
2.490768401263158
 30
0.0
 10
4.547671385504213
 20
1.854146957075354
 30
0.0
 10
4.734025262982872
 20
1.854146957075354
 30
0.0
211
-1.0
221
0.0
231
0.0
210
0.0
220
0.0
230
-1.0
  0
LEADER
  5
241
330
1E
100
AcDbEntity
  8
text_leaders
100
AcDbLeader
  3
Standard
 76
     3
 10
4.29762143997226
 20
2.514367375759217
 30
0.0
 10
4.547671385504212
 20
2.216369454843527
 30
0.0
 10
4.734025262982871
 20
2.216369454843528
 30
0.0
211
-1.0
221
0.0
231
0.0
210
0.0
220
0.0
230
-1.0
  0
LEADER
  5
242
330
1E
100
AcDbEntity
  8
text_leaders
100
AcDbLeader
  3
Standard
 76
     3
 10
3.925581120045801
 20
2.667579529813496
 30
0.0
 10
4.553141627621172
 20
2.851022075562393
 30
0.0
 10
4.734025262982871
 20
2.851022075562392
 30
0.0
  0
LEADER
  5
243
330
1E
100
AcDbEntity
  8
text_leaders
100
AcDbLeader
  3
Standard
 76
     3
 10
2.933384702113601
 20
2.924245572244144
 30
0.0
 10
4.553141627621172
 20
3.334987311574725
 30
0.0
 10
4.734025262982871
 20
3.334987311574724
 30
0.0
  0
LEADER
  5
244
330
1E
100
AcDbEntity
  8
text_leaders
100
AcDbLeader
  3
Standard
 76
     3
 10
2.178007378465403
 20
3.503030886137033
 30
0.0
 10
4.553141627621174
 20
4.549911386962643
 30
0.0
 10
4.734025262982871
 20
4.549911386962643
 30
0.0
  0
LEADER
  5
245
330
1E
100
AcDbEntity
  8
text_leaders
100
AcDbLeader
  3
Standard
 76
     3
 10
2.325741782944806
 20
3.064463688883542
 30
0.0
 10
4.553141627621174
 20
3.764240429157801
 30
0.0
 10
4.734025262982871
 20
3.7642404291578
 30
0.0
  0
LEADER
  5
248
330
1E
100
AcDbEntity
  8
text_leaders
100
AcDbLeader
  3
Standard
 76
     3
 10
2.195386490316864
 20
3.181383034633932
 30
0.0
 10
4.553141627621174
 20
4.077211442348903
 30
0.0
 10
4.734025262982871
 20
4.077211442348902
 30
0.0
  0
LEADER
  5
24E
330
1E
100
AcDbEntity
  8
text_leaders
100
AcDbLeader
  3
Standard
 76
     3
 10
2.289728555660188
 20
5.184344453953294
 30
0.0
 10
4.547671385504211
 20
5.907551616868978
 30
0.0
 10
4.734025262982871
 20
5.907551616868977
 30
0.0
  0
LEADER
  5
24F
330
1E
100
AcDbEntity
  8
text_leaders
100
AcDbLeader
  3
Standard
 76
     3
 10
3.478647881454311
 20
7.217077334754733
 30
0.0
 10
4.547671385504212
 20
7.660897962782624
 30
0.0
 10
4.734025262982871
 20
7.660897962782623
 30
0.0
  0
LEADER
  5
255
330
1E
100
AcDbEntity
  8
text_bubbles
100
AcDbLeader
  3
Standard
 76
     2
 10
1.968368806462684
 20
3.011647631214249
 30
0.0
 10
0.8721571422536133
 20
3.449657701191062
 30
0.0
  0
LEADER
  5
256
330
1E
100
AcDbEntity
  8
text_bubbles
100
AcDbLeader
  3
Standard
 76
     2
 10
3.654705012583598
 20
2.562449898903606
 30
0.0
 10
3.897933242317456
 20
1.955348008174453
 30
0.0
  0
LEADER
  5
257
330
1E
100
AcDbEntity
  8
text_bubbles
100
AcDbLeader
  3
Standard
 76
     2
 10
1.218991517176728
 20
7.205195954399442
 30
0.0
 10
0.8721571422536133
 20
6.870338539792372
 30
0.0
  0
LEADER
  5
258
330
1E
100
AcDbEntity
  8
text_bubbles
100
AcDbLeader
  3
Standard
 76
     2
 10
3.921157024631956
 20
2.585357859257153
 30
0.0
 10
4.274120320707364
 20
1.955348008174453
 30
0.0
  0
LEADER
  5
259
330
1E
100
AcDbEntity
  8
text_bubbles
100
AcDbLeader
  3
Standard
 76
     2
 10
2.230125837323727
 20
2.864559909676043
 30
0.0
 10
2.79189800336527
 20
1.955390121977157
 30
0.0
  0
LEADER
  5
25A
330
1E
100
AcDbEntity
  8
text_bubbles
100
AcDbLeader
  3
Standard
 76
     2
 10
4.166755810518704
 20
2.487094461014399
 30
0.0
 10
4.625182600554063
 20
1.954831094455034
 30
0.0
  0
LEADER
  5
25B
330
1E
100
AcDbEntity
  8
text_bubbles
100
AcDbLeader
  3
Standard
 76
     2
 10
3.067215196334012
 20
2.698832047242263
 30
0.0
 10
3.556611011978984
 20
1.956484286498694
 30
0.0
  0
LEADER
  5
25C
330
1E
100
AcDbEntity
  8
text_bubbles
100
AcDbLeader
  3
Standard
 76
     2
 10
2.003149098947474
 20
3.406328652761211
 30
0.0
 10
0.8721571422536133
 20
3.789774398326072
 30
0.0
  0
LEADER
  5
25D
330
1E
100
AcDbEntity
  8
text_bubbles
100
AcDbLeader
  3
Standard
 76
     2
 10
1.877750770601252
 20
4.799875412368105
 30
0.0
 10
0.8721571422536133
 20
5.075285388808097
 30
0.0
  0
INSERT
  5
274
330
1E
100
AcDbEntity
  8
title
100
AcDbBlockReference
 66
     1
  2
titleblock
 10
0.1064708094271038
 20
-0.1143646667846376
 30
0.0
  0
ATTRIB
  5
275
330
274
100
AcDbEntity
  8
title
100
AcDbText
 10
0.6120264132294459
 20
0.6698624296937297
 30
0.0
 40
0.2
  1
D
  7
L200
 72
     4
 11
0.7129131799415878
 21
0.7698624296937297
 31
0.0
100
AcDbAttribute
  2
D
 70
     0
  0
ATTRIB
  5
276
330
274
100
AcDbEntity
  8
title
100
AcDbText
 10
1.337913179941587
 20
1.229347635962112
 30
0.0
 40
0.2
  1

  7
L200
100
AcDbAttribute
  2
TITLE1
 70
     0
  0
ATTRIB
  5
277
330
274
100
AcDbEntity
  8
title
100
AcDbText
 10
1.337913179941587
 20
0.8698624296937298
 30
0.0
 40
0.2
  1
1812 POP-UP SPRAY SPRINKLER
  7
L200
100
AcDbAttribute
  2
TITLE2
 70
     0
  0
ATTRIB
  5
278
330
274
100
AcDbEntity
  8
title
100
AcDbText
 10
2.820116560595416
 20
0.4784280996736813
 30
0.0
 40
0.2
  1
WITH ROTARY NOZZLE
  7
L200
100
AcDbAttribute
  2
TITLE3
 70
     0
  0
ATTRIB
  5
279
330
274
100
AcDbEntity
  8
title
100
AcDbText
 10
2.820116560595416
 20
0.1548914140321366
 30
0.0
 40
0.2
  1

  7
L200
100
AcDbAttribute
  2
TITLE4
 70
     0
  0
ATTRIB
  5
27A
330
274
100
AcDbEntity
  8
title
 62
     7
100
AcDbText
 10
7.79987611558396
 20
0.8552381247600022
 30
0.0
 40
0.08
  1
6-25-08
  7
L80
 72
     2
 11
8.367495163203008
 21
0.8552381247600022
 31
0.0
100
AcDbAttribute
  2
REVISED
 70
     0
  0
ATTRIB
  5
27B
330
274
100
AcDbEntity
  8
title
 62
     7
100
AcDbText
 10
0.3704131799415877
 20
-0.0296530187639163
 30
0.0
 40
0.08
  1
S-1812Rotary-SJ.DWG
  7
L80
100
AcDbAttribute
  2
DWG-NAME
 70
     0
  0
ATTRIB
  5
27C
330
274
100
AcDbEntity
  8
title
 62
     7
100
AcDbText
 10
1.337913179941587
 20
0.5861991126108518
 30
0.0
 40
0.1
  1
N.T.S.
  7
L100
100
AcDbAttribute
  2
SCALE
 70
     0
  0
SEQEND
  5
27D
330
274
100
AcDbEntity
  8
image
  0
TEXT
  5
339
330
1E
100
AcDbEntity
  8
instruct-option
100
AcDbText
 10
11.92730637600311
 20
7.015274887443499
 30
0.0
 40
0.1
  1
  OPTION-SAM
  7
ROMANS
100
AcDbText
  0
TEXT
  5
33A
330
1E
100
AcDbEntity
  8
instruct-option
100
AcDbText
 10
11.92730637600311
 20
7.219349843697299
 30
0.0
 40
0.1
  1
%%uSAM SERIES%%u
  7
ROMANS
100
AcDbText
  0
TEXT
  5
33B
330
1E
100
AcDbEntity
  8
instruct-option
100
AcDbText
 10
11.90385485174282
 20
7.437346913945285
 30
0.0
 40
0.1
  1
BY TURNING ON THE APPROPRIATE LAYER:
  7
ROMANS
100
AcDbText
  0
TEXT
  5
33C
330
1E
100
AcDbEntity
  8
instruct-option
100
AcDbText
 10
11.90385485174282
 20
7.577346913945286
 30
0.0
 40
0.1
  1
CHOOSE ONE OF THE FOLLOWING OPTIONS
  7
ROMANS
100
AcDbText
  0
TEXT
  5
33F
330
1E
100
AcDbEntity
  8
instruct-option
100
AcDbText
 10
12.04792991557867
 20
7.829318534195838
 30
0.0
 40
0.1
  1
CHOOSING NOZZLES AND OPTIONAL FEATURES
  7
ROMANS
100
AcDbText
  0
TEXT
  5
340
330
1E
100
AcDbEntity
  8
instruct-option
100
AcDbText
 10
11.88647088976375
 20
6.586354077011804
 30
0.0
 40
0.1
  1
TO TURN OFF THIS INSTRUCTION BOX, TURN OFF
  7
ROMANS
100
AcDbText
  0
TEXT
  5
341
330
1E
100
AcDbEntity
  8
instruct-option
100
AcDbText
 10
11.88647088976375
 20
6.416433505584603
 30
0.0
 40
0.1
  1
LAYER "INSTRUCT-OPTION".
  7
ROMANS
100
AcDbText
  0
LINE
  5
352
330
1E
100
AcDbEntity
  8
instruct-option
100
AcDbLine
 10
16.25835383130674
 20
6.751283844246334
 30
0.0
 11
16.25835383130675
 21
7.794199907622217
 31
0.0
  0
LINE
  5
353
330
1E
100
AcDbEntity
  8
instruct-option
100
AcDbLine
 10
16.25835383130675
 20
7.794199907622216
 30
0.0
 11
11.83777078111124
 21
7.794199907622218
 31
0.0
  0
LINE
  5
354
330
1E
100
AcDbEntity
  8
instruct-option
100
AcDbLine
 10
11.83777078111124
 20
6.751283844246334
 30
0.0
 11
16.25835383130674
 21
6.751283844246334
 31
0.0
  0
LINE
  5
355
330
1E
100
AcDbEntity
  8
instruct-option
100
AcDbLine
 10
11.83777078111124
 20
7.794199907622219
 30
0.0
 11
11.83777078111124
 21
6.751283844246335
 31
0.0
  0
TEXT
  5
364
330
1E
100
AcDbEntity
  8
option-sam
100
AcDbText
 10
6.562598292549683
 20
5.654036461740334
 30
0.0
 40
0.125
  1
-SAM
  7
ROMANS
100
AcDbText
  0
LINE
  5
588
330
1E
100
AcDbEntity
  8
image
 62
     7
100
AcDbLine
 10
2.86030367352019
 20
2.742638519087539
 30
0.0
 11
1.359861907346262
 21
2.742638519087539
 31
0.0
  0
LINE
  5
589
330
1E
100
AcDbEntity
  8
image
 62
     7
100
AcDbLine
 10
3.518920764379616
 20
2.512710434073439
 30
0.0
 11
1.359861907346262
 21
2.512710434073439
 31
0.0
  0
LINE
  5
58A
330
1E
100
AcDbEntity
  8
image
 62
     7
100
AcDbLine
 10
3.518920764379615
 20
2.603198768921902
 30
0.0
 11
3.518920764379616
 21
2.4870944610144
 31
0.0
  0
LINE
  5
58B
330
1E
100
AcDbEntity
  8
image
 62
     7
100
AcDbLine
 10
3.590579866580741
 20
2.796183659816048
 30
0.0
 11
3.545591814184881
 21
2.585780275999229
 31
0.0
  0
LINE
  5
58C
330
1E
100
AcDbEntity
  8
image
 62
     7
100
AcDbLine
 10
2.385276825706867
 20
3.051844837342317
 30
0.0
 11
2.340975154293476
 21
2.841295862778395
 31
0.0
  0
LINE
  5
58D
330
1E
100
AcDbEntity
  8
image
 62
     7
100
AcDbLine
 10
2.385276825706867
 20
3.051844837342317
 30
0.0
 11
2.195572086444876
 21
3.092054028943659
 31
0.0
  0
LINE
  5
58E
330
1E
100
AcDbEntity
  8
image
 62
     7
100
AcDbLine
 10
2.340975154293476
 20
2.841295862778393
 30
0.0
 11
2.076080266007588
 21
2.896889593732212
 31
0.0
  0
LINE
  5
58F
330
1E
100
AcDbEntity
  8
image
 62
     7
100
AcDbLine
 10
2.195366735590555
 20
3.191285009843575
 30
0.0
 11
2.195727575012341
 21
3.010415735661521
 31
0.0
  0
LINE
  5
590
330
1E
100
AcDbEntity
  8
image
 62
     7
100
AcDbLine
 10
1.969306903511371
 20
3.191285009843575
 30
0.0
 11
1.968362131696355
 21
3.010415735661521
 31
0.0
  0
LINE
  5
591
330
1E
100
AcDbEntity
  8
image
 62
     7
100
AcDbLine
 10
1.969306903511371
 20
3.191285009843575
 30
0.0
 11
2.195366735590553
 21
3.191285009843575
 31
0.0
  0
LINE
  5
592
330
1E
100
AcDbEntity
  8
image
 62
     7
100
AcDbLine
 10
3.588572714057498
 20
2.785531812815638
 30
0.0
 11
2.38356412683813
 21
3.040651363585356
 31
0.0
  0
LINE
  5
593
330
1E
100
AcDbEntity
  8
image
 62
     7
100
AcDbLine
 10
3.548258526014995
 20
2.596987496530659
 30
0.0
 11
2.343249938795628
 21
2.852107047300376
 31
0.0
  0
ARC
  5
594
330
1E
100
AcDbEntity
  8
image
 62
     7
100
AcDbCircle
 10
2.082044853354348
 20
3.010415735661521
 30
0.0
 40
0.1136827216579933
100
AcDbArc
 50
179.379115872957
 51
0.2371380430744094
  0
LWPOLYLINE
  5
595
330
1E
100
AcDbEntity
  8
image
 62
     7
100
AcDbPolyline
 90
        4
 70
     0
 43
0.0
 10
1.359861907346262
 20
2.742638519087539
 42
0.6332430429610296
 10
1.359861907346262
 20
2.627674476580489
 42
-0.6332430429610812
 10
1.359861907346262
 20
2.512710434073439
 42
-0.6134111328532366
 10
1.359861907346264
 20
2.627674476580488
 42
-0.6134111328532366
  0
LINE
  5
596
330
1E
100
AcDbEntity
  8
image
 62
     7
100
AcDbLine
 10
1.98520127648495
 20
3.237266943366176
 30
0.0
 11
2.178007378465403
 21
3.237266943366176
 31
0.0
  0
LWPOLYLINE
  5
597
330
1E
100
AcDbEntity
  8
image
 62
     7
100
AcDbPolyline
 90
        2
 70
     0
 43
0.0
 10
1.999104683759844
 20
3.213516436021713
 10
2.163776074730657
 20
3.213516436021713
  0
LWPOLYLINE
  5
598
330
1E
100
AcDbEntity
  8
image
 62
     7
100
AcDbPolyline
 90
        2
 70
     0
 43
0.0
 10
3.563424948427934
 20
2.776807154211362
 10
3.529317419446154
 20
2.61570673996292
  0
LINE
  5
599
330
1E
100
AcDbEntity
  8
image
 62
     7
100
AcDbLine
 10
3.544020096567484
 20
2.795167858759309
 30
0.0
 11
3.504085171184316
 21
2.606542847969283
 31
0.0
  0
LINE
  5
59A
330
1E
100
AcDbEntity
  8
image
 62
     7
100
AcDbLine
 10
2.428299431846719
 20
3.031975309685176
 30
0.0
 11
2.388364506463551
 21
2.84335029889515
 31
0.0
  0
LWPOLYLINE
  5
59B
330
1E
100
AcDbEntity
  8
image
 62
     7
100
AcDbPolyline
 90
        2
 70
     0
 43
0.0
 10
2.403630824375955
 20
3.023107513537199
 10
2.369523295394175
 20
2.862007099288757
  0
LINE
  5
59C
330
1E
100
AcDbEntity
  8
image
 62
     7
100
AcDbLine
 10
1.98520127648495
 20
3.60821547611286
 30
0.0
 11
1.98520127648495
 21
3.191285009843576
 31
0.0
  0
LINE
  5
59D
330
1E
100
AcDbEntity
  8
image
 62
     7
100
AcDbLine
 10
2.178007378465403
 20
3.60821547611286
 30
0.0
 11
2.178007378465403
 21
3.191285009843576
 31
0.0
  0
LINE
  5
59E
330
1E
100
AcDbEntity
  8
image
 62
     7
100
AcDbLine
 10
1.98520127648495
 20
3.562327302738855
 30
0.0
 11
2.178007378465403
 21
3.562327302738855
 31
0.0
  0
LWPOLYLINE
  5
59F
330
1E
100
AcDbEntity
  8
image
 62
     7
100
AcDbPolyline
 90
        2
 70
     0
 43
0.0
 10
1.999104683759844
 20
3.584658641286239
 10
2.163776074730657
 20
3.584658641286239
  0
LINE
  5
5CC
330
1E
100
AcDbEntity
  8
image
 62
     7
100
AcDbLine
 10
3.701547551520513
 20
2.772628491458768
 30
0.0
 11
4.166755810518708
 21
2.77262849145877
 31
0.0
  0
LINE
  5
5CD
330
1E
100
AcDbEntity
  8
image
 62
     7
100
AcDbLine
 10
4.601898187686517
 20
2.514367375759217
 30
0.0
 11
4.166755810518706
 21
2.514367375759217
 31
0.0
  0
LINE
  5
5CE
330
1E
100
AcDbEntity
  8
image
 62
     7
100
AcDbLine
 10
4.601898187686517
 20
2.744295460773316
 30
0.0
 11
4.166755810518708
 21
2.744295460773316
 31
0.0
  0
LINE
  5
5CF
330
1E
100
AcDbEntity
  8
image
 62
     7
100
AcDbLine
 10
3.868594839688344
 20
2.737169276475995
 30
0.0
 11
3.823518813863525
 21
2.526354452151012
 31
0.0
  0
LINE
  5
5D0
330
1E
100
AcDbEntity
  8
image
 62
     7
100
AcDbLine
 10
4.166755810518708
 20
2.487094461014399
 30
0.0
 11
3.518920764379616
 21
2.487094461014399
 31
0.0
  0
ARC
  5
5D1
330
1E
100
AcDbEntity
  8
image
 62
     7
100
AcDbCircle
 10
3.843543426937368
 20
2.630763867198912
 30
0.0
 40
0.0899198315406801
100
AcDbArc
 50
272.3885930691139
 51
64.7687905991815
  0
LINE
  5
5D2
330
1E
100
AcDbEntity
  8
image
 62
     7
100
AcDbLine
 10
3.847290992290428
 20
2.540922162750317
 30
0.0
 11
3.881873741804619
 21
2.712104896615078
 31
0.0
  0
LINE
  5
5D3
330
1E
100
AcDbEntity
  8
image
 62
     7
100
AcDbLine
 10
3.823518813863525
 20
2.526354452151012
 30
0.0
 11
3.847290992290428
 21
2.540922162750318
 31
0.0
  0
LINE
  5
5D4
330
1E
100
AcDbEntity
  8
image
 62
     7
100
AcDbLine
 10
3.868594839688343
 20
2.737169276475994
 30
0.0
 11
3.881873741804619
 21
2.712104896615078
 31
0.0
  0
LINE
  5
5D5
330
1E
100
AcDbEntity
  8
image
 62
     7
100
AcDbLine
 10
3.545591814184881
 20
2.585780275999228
 30
0.0
 11
3.823518813863525
 21
2.526354452151012
 31
0.0
  0
LINE
  5
5D6
330
1E
100
AcDbEntity
  8
image
 62
     7
100
AcDbLine
 10
3.590579866580741
 20
2.796183659816048
 30
0.0
 11
3.868594839688343
 21
2.737169276475994
 31
0.0
  0
LINE
  5
5D7
330
1E
100
AcDbEntity
  8
image
 62
     7
100
AcDbLine
 10
4.166755810518708
 20
2.772628491458768
 30
0.0
 11
4.166755810518704
 21
2.487094461014399
 31
0.0
  0
LWPOLYLINE
  5
5D8
330
1E
100
AcDbEntity
  8
image
 62
     7
100
AcDbPolyline
 90
        4
 70
     0
 43
0.0
 10
4.601898187686517
 20
2.744295460773316
 42
-0.6332430429610296
 10
4.601898187686517
 20
2.629331418266267
 42
0.6332430429610812
 10
4.601898187686517
 20
2.514367375759217
 42
0.6134111328532366
 10
4.601898187686517
 20
2.629331418266265
 42
0.6134111328532366
  0
ARC
  5
73B
330
1E
100
AcDbEntity
  8
image
100
AcDbCircle
 10
3.506019895081242
 20
7.767711149998735
 30
0.0
 40
0.1566980695398199
100
AcDbArc
 50
98.53076560994793
 51
187.7294390983636
  0
ARC
  5
73C
330
1E
100
AcDbEntity
  8
image
100
AcDbCircle
 10
3.327500886245413
 20
7.901600406625606
 30
0.0
 40
0.1566980695398199
100
AcDbArc
 50
278.5307656099479
 51
7.729439098363579
  0
ARC
  5
73D
330
1E
100
AcDbEntity
  8
image
100
AcDbCircle
 10
3.43809937093089
 20
7.830215972413068
 30
0.0
 40
0.1566980695398199
100
AcDbArc
 50
143.5307656099477
 51
232.7294390983635
  0
ARC
  5
73E
330
1E
100
AcDbEntity
  8
image
100
AcDbCircle
 10
3.217193367923488
 20
7.798657971983439
 30
0.0
 40
0.1566980695398199
100
AcDbArc
 50
323.5307656099477
 51
52.72943909836341
  0
ARC
  5
73F
330
1E
100
AcDbEntity
  8
image
100
AcDbCircle
 10
2.972819796682631
 20
7.863003756327271
 30
0.0
 40
0.1566980695398199
100
AcDbArc
 50
159.7199718669748
 51
248.9186453553905
  0
ARC
  5
740
330
1E
100
AcDbEntity
  8
image
100
AcDbCircle
 10
3.052655097374921
 20
7.781709512650094
 30
0.0
 40
0.1566980695398199
100
AcDbArc
 50
116.0563205359582
 51
205.254994024374
  0
ARC
  5
741
330
1E
100
AcDbEntity
  8
image
100
AcDbCircle
 10
2.769472242476549
 20
7.771106303945678
 30
0.0
 40
0.1566980695398199
100
AcDbArc
 50
339.7199718669747
 51
68.91864535539045
  0
ARC
  5
742
330
1E
100
AcDbEntity
  8
image
100
AcDbCircle
 10
2.842104227500802
 20
7.855626362901404
 30
0.0
 40
0.1566980695398199
100
AcDbArc
 50
296.0563205359582
 51
25.25499402437389
  0
ARC
  5
743
330
1E
100
AcDbEntity
  8
image
100
AcDbCircle
 10
3.252296166662834
 20
7.84183195867409
 30
0.0
 40
0.1566980695398199
100
AcDbArc
 50
143.5307656099477
 51
232.7294390983635
  0
ARC
  5
744
330
1E
100
AcDbEntity
  8
image
100
AcDbCircle
 10
3.031390163655432
 20
7.810273958244462
 30
0.0
 40
0.1566980695398199
100
AcDbArc
 50
323.5307656099477
 51
52.72943909836341
  0
ARC
  5
745
330
1E
100
AcDbEntity
  8
image
100
AcDbCircle
 10
2.945428215181804
 20
7.748393907821125
 30
0.0
 40
0.1566980695398199
100
AcDbArc
 50
339.7199718669747
 51
68.91864535539045
  0
ARC
  5
746
330
1E
100
AcDbEntity
  8
image
100
AcDbCircle
 10
3.148775769387886
 20
7.840291360202719
 30
0.0
 40
0.1566980695398199
100
AcDbArc
 50
159.7199718669748
 51
248.9186453553905
  0
ARC
  5
747
330
1E
100
AcDbEntity
  8
image
100
AcDbCircle
 10
2.630815886529308
 20
7.834559586607291
 30
0.0
 40
0.1566980695398199
100
AcDbArc
 50
143.5307656099477
 51
232.7294390983635
  0
ARC
  5
748
330
1E
100
AcDbEntity
  8
image
100
AcDbCircle
 10
2.857927229836779
 20
7.818159424716645
 30
0.0
 40
0.1566980695398199
100
AcDbArc
 50
116.0563205359582
 51
205.254994024374
  0
ARC
  5
749
330
1E
100
AcDbEntity
  8
image
100
AcDbCircle
 10
2.647376359962658
 20
7.892076274967955
 30
0.0
 40
0.1566980695398199
100
AcDbArc
 50
296.0563205359582
 51
25.25499402437389
  0
ARC
  5
74A
330
1E
100
AcDbEntity
  8
image
100
AcDbCircle
 10
2.409909883521905
 20
7.803001586177662
 30
0.0
 40
0.1566980695398199
100
AcDbArc
 50
323.5307656099477
 51
52.72943909836341
  0
ARC
  5
74B
330
1E
100
AcDbEntity
  8
image
100
AcDbCircle
 10
2.745241612331718
 20
7.834559586607291
 30
0.0
 40
0.1566980695398199
100
AcDbArc
 50
143.5307656099477
 51
232.7294390983635
  0
ARC
  5
74C
330
1E
100
AcDbEntity
  8
image
100
AcDbCircle
 10
2.524335609324314
 20
7.803001586177662
 30
0.0
 40
0.1566980695398199
100
AcDbArc
 50
323.5307656099477
 51
52.72943909836341
  0
ARC
  5
74D
330
1E
100
AcDbEntity
  8
image
100
AcDbCircle
 10
1.657187729457894
 20
7.847208079214777
 30
0.0
 40
0.1566980695398199
100
AcDbArc
 50
143.5307656099477
 51
232.7294390983635
  0
ARC
  5
74E
330
1E
100
AcDbEntity
  8
image
100
AcDbCircle
 10
1.43628172645049
 20
7.81565007878515
 30
0.0
 40
0.1566980695398199
100
AcDbArc
 50
323.5307656099477
 51
52.72943909836341
  0
ARC
  5
74F
330
1E
100
AcDbEntity
  8
image
100
AcDbCircle
 10
1.731526980391631
 20
7.758870927815726
 30
0.0
 40
0.1566980695398199
100
AcDbArc
 50
98.53076560994793
 51
187.7294390983636
  0
ARC
  5
750
330
1E
100
AcDbEntity
  8
image
100
AcDbCircle
 10
1.553007971555803
 20
7.892760184442597
 30
0.0
 40
0.1566980695398199
100
AcDbArc
 50
278.5307656099479
 51
7.729439098363579
  0
ARC
  5
751
330
1E
100
AcDbEntity
  8
image
100
AcDbCircle
 10
1.516780026794072
 20
7.804899101789148
 30
0.0
 40
0.1566980695398199
100
AcDbArc
 50
116.0563205359582
 51
205.254994024374
  0
ARC
  5
752
330
1E
100
AcDbEntity
  8
image
100
AcDbCircle
 10
1.306229156919951
 20
7.878815952040458
 30
0.0
 40
0.1566980695398199
100
AcDbArc
 50
296.0563205359582
 51
25.25499402437389
  0
ARC
  5
753
330
1E
100
AcDbEntity
  8
image
100
AcDbCircle
 10
1.404094409289011
 20
7.821299263679794
 30
0.0
 40
0.1566980695398199
100
AcDbArc
 50
143.5307656099477
 51
232.7294390983635
  0
ARC
  5
754
330
1E
100
AcDbEntity
  8
image
100
AcDbCircle
 10
1.183188406281607
 20
7.789741263250165
 30
0.0
 40
0.1566980695398199
100
AcDbArc
 50
323.5307656099477
 51
52.72943909836341
  0
ARC
  5
755
330
1E
100
AcDbEntity
  8
image
100
AcDbCircle
 10
1.194132941909187
 20
7.843246856383805
 30
0.0
 40
0.1566980695398199
100
AcDbArc
 50
143.5307656099477
 51
232.7294390983635
  0
ARC
  5
756
330
1E
100
AcDbEntity
  8
image
100
AcDbCircle
 10
1.290954709895843
 20
7.816840919660172
 30
0.0
 40
0.1566980695398199
100
AcDbArc
 50
143.5307656099477
 51
232.7294390983635
  0
ARC
  5
757
330
1E
100
AcDbEntity
  8
image
100
AcDbCircle
 10
1.07004870688844
 20
7.785282919230544
 30
0.0
 40
0.1566980695398199
100
AcDbArc
 50
323.5307656099477
 51
52.72943909836341
  0
ARC
  5
758
330
1E
100
AcDbEntity
  8
image
100
AcDbCircle
 10
0.9732269389017865
 20
7.811688855954177
 30
0.0
 40
0.1566980695398199
100
AcDbArc
 50
323.5307656099477
 51
52.72943909836341
  0
ARC
  5
759
330
1E
100
AcDbEntity
  8
image
100
AcDbCircle
 10
0.859512015560309
 20
7.762608766381127
 30
0.0
 40
0.1566980695398199
100
AcDbArc
 50
323.5307656099477
 51
52.72943909836341
  0
ARC
  5
75A
330
1E
100
AcDbEntity
  8
image
100
AcDbCircle
 10
0.9064817900297427
 20
7.871843978510282
 30
0.0
 40
0.1566980695398199
100
AcDbArc
 50
159.7199718669748
 51
248.9186453553905
  0
ARC
  5
75B
330
1E
100
AcDbEntity
  8
image
100
AcDbCircle
 10
0.9863170907220322
 20
7.790549734833104
 30
0.0
 40
0.1566980695398199
100
AcDbArc
 50
116.0563205359582
 51
205.254994024374
  0
ARC
  5
75C
330
1E
100
AcDbEntity
  8
image
100
AcDbCircle
 10
0.7757662208479131
 20
7.864466585084414
 30
0.0
 40
0.1566980695398199
100
AcDbArc
 50
296.0563205359582
 51
25.25499402437389
  0
ARC
  5
75D
330
1E
100
AcDbEntity
  8
image
100
AcDbCircle
 10
1.080418018567711
 20
7.794166766810754
 30
0.0
 40
0.1566980695398199
100
AcDbArc
 50
143.5307656099477
 51
232.7294390983635
  0
ARC
  5
75E
330
1E
100
AcDbEntity
  8
image
100
AcDbCircle
 10
0.703134235823661
 20
7.779946526128689
 30
0.0
 40
0.1566980695398199
100
AcDbArc
 50
339.7199718669747
 51
68.91864535539045
  0
LWPOLYLINE
  5
75F
330
1E
100
AcDbEntity
  8
image
100
AcDbPolyline
 90
        2
 70
     0
 43
0.0
 10
2.467635749039692
 20
5.839042059126073
 42
0.414213562373093
 10
2.495691221070415
 20
5.867097531156797
 42
0.414213562373093
  0
LWPOLYLINE
  5
760
330
1E
100
AcDbEntity
  8
image
100
AcDbPolyline
 90
        2
 70
     0
 43
0.0
 10
2.495691221070415
 20
6.085603474308983
 42
0.4142135623730951
 10
2.467635749039692
 20
6.113658946339707
 42
0.4142135623730951
  0
ARC
  5
761
330
1E
100
AcDbEntity
  8
image
100
AcDbCircle
 10
3.135510075648246
 20
7.72094839177314
 30
0.0
 40
0.1566980695398199
100
AcDbArc
 50
159.7199718669748
 51
248.9186453553905
  0
ARC
  5
762
330
1E
100
AcDbEntity
  8
image
100
AcDbCircle
 10
2.932162521442164
 20
7.629050939391545
 30
0.0
 40
0.1566980695398199
100
AcDbArc
 50
339.7199718669747
 51
68.91864535539045
  0
ARC
  5
763
330
1E
100
AcDbEntity
  8
image
100
AcDbCircle
 10
2.785250989384274
 20
7.396421921782497
 30
0.0
 40
0.1566980695398199
100
AcDbArc
 50
98.53076560994793
 51
187.7294390983636
  0
ARC
  5
764
330
1E
100
AcDbEntity
  8
image
100
AcDbCircle
 10
2.606731980548445
 20
7.530311178409368
 30
0.0
 40
0.1566980695398199
100
AcDbArc
 50
278.5307656099479
 51
7.729439098363579
  0
ARC
  5
765
330
1E
100
AcDbEntity
  8
image
100
AcDbCircle
 10
3.128528166791503
 20
7.273194217072209
 30
0.0
 40
0.1566980695398199
100
AcDbArc
 50
98.53076560994793
 51
187.7294390983636
  0
ARC
  5
766
330
1E
100
AcDbEntity
  8
image
100
AcDbCircle
 10
2.950009157955674
 20
7.407083473699081
 30
0.0
 40
0.1566980695398199
100
AcDbArc
 50
278.5307656099479
 51
7.729439098363579
  0
ARC
  5
767
330
1E
100
AcDbEntity
  8
image
100
AcDbCircle
 10
3.143410015231228
 20
7.497021255773381
 30
0.0
 40
0.1566980695398199
100
AcDbArc
 50
339.7199718669747
 51
68.91864535539045
  0
ARC
  5
768
330
1E
100
AcDbEntity
  8
image
100
AcDbCircle
 10
3.346757569437312
 20
7.588918708154974
 30
0.0
 40
0.1566980695398199
100
AcDbArc
 50
159.7199718669748
 51
248.9186453553905
  0
ARC
  5
769
330
1E
100
AcDbEntity
  8
image
100
AcDbCircle
 10
3.090598141783962
 20
7.426605424510359
 30
0.0
 40
0.1566980695398199
100
AcDbArc
 50
339.7199718669747
 51
68.91864535539045
  0
ARC
  5
76A
330
1E
100
AcDbEntity
  8
image
100
AcDbCircle
 10
3.293945695990045
 20
7.518502876891954
 30
0.0
 40
0.1566980695398199
100
AcDbArc
 50
159.7199718669748
 51
248.9186453553905
  0
ARC
  5
76B
330
1E
100
AcDbEntity
  8
image
100
AcDbCircle
 10
2.559888089022472
 20
7.609371194959491
 30
0.0
 40
0.1566980695398199
100
AcDbArc
 50
339.7199718669747
 51
68.91864535539045
  0
ARC
  5
76C
330
1E
100
AcDbEntity
  8
image
100
AcDbCircle
 10
2.763235643228553
 20
7.701268647341084
 30
0.0
 40
0.1566980695398199
100
AcDbArc
 50
159.7199718669748
 51
248.9186453553905
  0
ARC
  5
76D
330
1E
100
AcDbEntity
  8
image
100
AcDbCircle
 10
2.738518985468857
 20
7.488219276865503
 30
0.0
 40
0.1566980695398199
100
AcDbArc
 50
339.7199718669747
 51
68.91864535539045
  0
ARC
  5
76E
330
1E
100
AcDbEntity
  8
image
100
AcDbCircle
 10
2.941866539674939
 20
7.580116729247096
 30
0.0
 40
0.1566980695398199
100
AcDbArc
 50
159.7199718669748
 51
248.9186453553905
  0
ARC
  5
76F
330
1E
100
AcDbEntity
  8
image
100
AcDbCircle
 10
2.800132837824
 20
7.637852918299422
 30
0.0
 40
0.1566980695398199
100
AcDbArc
 50
339.7199718669747
 51
68.91864535539045
  0
ARC
  5
770
330
1E
100
AcDbEntity
  8
image
100
AcDbCircle
 10
3.003480392030082
 20
7.729750370681017
 30
0.0
 40
0.1566980695398199
100
AcDbArc
 50
159.7199718669748
 51
248.9186453553905
  0
ARC
  5
771
330
1E
100
AcDbEntity
  8
image
100
AcDbCircle
 10
3.161013973046983
 20
7.690664791746689
 30
0.0
 40
0.1566980695398199
100
AcDbArc
 50
339.7199718669747
 51
68.91864535539045
  0
ARC
  5
772
330
1E
100
AcDbEntity
  8
image
100
AcDbCircle
 10
3.364361527253067
 20
7.782562244128284
 30
0.0
 40
0.1566980695398199
100
AcDbArc
 50
159.7199718669748
 51
248.9186453553905
  0
ARC
  5
773
330
1E
100
AcDbEntity
  8
image
100
AcDbCircle
 10
3.310647614480904
 20
7.461813340141869
 30
0.0
 40
0.1566980695398199
100
AcDbArc
 50
339.7199718669747
 51
68.91864535539045
  0
ARC
  5
774
330
1E
100
AcDbEntity
  8
image
100
AcDbCircle
 10
3.513995168686987
 20
7.553710792523464
 30
0.0
 40
0.1566980695398199
100
AcDbArc
 50
159.7199718669748
 51
248.9186453553905
  0
ARC
  5
775
330
1E
100
AcDbEntity
  8
image
100
AcDbCircle
 10
3.299787794967878
 20
7.682129010907004
 30
0.0
 40
0.1566980695398199
100
AcDbArc
 50
323.5307656099477
 51
52.72943909836341
  0
ARC
  5
776
330
1E
100
AcDbEntity
  8
image
100
AcDbCircle
 10
3.520693797975279
 20
7.713687011336633
 30
0.0
 40
0.1566980695398199
100
AcDbArc
 50
143.5307656099477
 51
232.7294390983635
  0
ARC
  5
777
330
1E
100
AcDbEntity
  8
image
100
AcDbCircle
 10
3.158956132441835
 20
7.365257770223408
 30
0.0
 40
0.1566980695398199
100
AcDbArc
 50
323.5307656099477
 51
52.72943909836341
  0
ARC
  5
778
330
1E
100
AcDbEntity
  8
image
100
AcDbCircle
 10
3.379862135449236
 20
7.396815770653036
 30
0.0
 40
0.1566980695398199
100
AcDbArc
 50
143.5307656099477
 51
232.7294390983635
  0
ARC
  5
779
330
1E
100
AcDbEntity
  8
image
100
AcDbCircle
 10
3.000520512100036
 20
7.312445896776143
 30
0.0
 40
0.1566980695398199
100
AcDbArc
 50
323.5307656099477
 51
52.72943909836341
  0
ARC
  5
77A
330
1E
100
AcDbEntity
  8
image
100
AcDbCircle
 10
3.221426515107439
 20
7.344003897205771
 30
0.0
 40
0.1566980695398199
100
AcDbArc
 50
143.5307656099477
 51
232.7294390983635
  0
ARC
  5
77B
330
1E
100
AcDbEntity
  8
image
100
AcDbCircle
 10
2.710055208140073
 20
7.330049854591898
 30
0.0
 40
0.1566980695398199
100
AcDbArc
 50
323.5307656099477
 51
52.72943909836341
  0
ARC
  5
77C
330
1E
100
AcDbEntity
  8
image
100
AcDbCircle
 10
2.930961211147477
 20
7.361607855021526
 30
0.0
 40
0.1566980695398199
100
AcDbArc
 50
143.5307656099477
 51
232.7294390983635
  0
ARC
  5
77D
330
1E
100
AcDbEntity
  8
image
100
AcDbCircle
 10
2.894896765205505
 20
7.470881517117941
 30
0.0
 40
0.1566980695398199
100
AcDbArc
 50
323.5307656099477
 51
52.72943909836341
  0
ARC
  5
77E
330
1E
100
AcDbEntity
  8
image
100
AcDbCircle
 10
3.115802768212907
 20
7.502439517547568
 30
0.0
 40
0.1566980695398199
100
AcDbArc
 50
143.5307656099477
 51
232.7294390983635
  0
ARC
  5
77F
330
1E
100
AcDbEntity
  8
image
100
AcDbCircle
 10
3.018124469915792
 20
7.690930989814882
 30
0.0
 40
0.1566980695398199
100
AcDbArc
 50
323.5307656099477
 51
52.72943909836341
  0
ARC
  5
780
330
1E
100
AcDbEntity
  8
image
100
AcDbCircle
 10
3.239030472923194
 20
7.72248899024451
 30
0.0
 40
0.1566980695398199
100
AcDbArc
 50
143.5307656099477
 51
232.7294390983635
  0
ARC
  5
781
330
1E
100
AcDbEntity
  8
image
100
AcDbCircle
 10
2.674847292508563
 20
7.682129010907004
 30
0.0
 40
0.1566980695398199
100
AcDbArc
 50
323.5307656099477
 51
52.72943909836341
  0
ARC
  5
782
330
1E
100
AcDbEntity
  8
image
100
AcDbCircle
 10
2.895753295515965
 20
7.713687011336633
 30
0.0
 40
0.1566980695398199
100
AcDbArc
 50
143.5307656099477
 51
232.7294390983635
  0
ARC
  5
783
330
1E
100
AcDbEntity
  8
image
100
AcDbCircle
 10
2.595629482337664
 20
7.330049854591898
 30
0.0
 40
0.1566980695398199
100
AcDbArc
 50
323.5307656099477
 51
52.72943909836341
  0
ARC
  5
784
330
1E
100
AcDbEntity
  8
image
100
AcDbCircle
 10
2.816535485345067
 20
7.361607855021526
 30
0.0
 40
0.1566980695398199
100
AcDbArc
 50
143.5307656099477
 51
232.7294390983635
  0
ARC
  5
785
330
1E
100
AcDbEntity
  8
image
100
AcDbCircle
 10
2.445995840903743
 20
7.347653812407653
 30
0.0
 40
0.1566980695398199
100
AcDbArc
 50
323.5307656099477
 51
52.72943909836341
  0
ARC
  5
786
330
1E
100
AcDbEntity
  8
image
100
AcDbCircle
 10
2.666901843911146
 20
7.379211812837281
 30
0.0
 40
0.1566980695398199
100
AcDbArc
 50
143.5307656099477
 51
232.7294390983635
  0
ARC
  5
787
330
1E
100
AcDbEntity
  8
image
100
AcDbCircle
 10
2.490005735443132
 20
7.470881517117941
 30
0.0
 40
0.1566980695398199
100
AcDbArc
 50
323.5307656099477
 51
52.72943909836341
  0
ARC
  5
788
330
1E
100
AcDbEntity
  8
image
100
AcDbCircle
 10
2.710911738450535
 20
7.502439517547568
 30
0.0
 40
0.1566980695398199
100
AcDbArc
 50
143.5307656099477
 51
232.7294390983635
  0
ARC
  5
789
330
1E
100
AcDbEntity
  8
image
100
AcDbCircle
 10
3.255777900428489
 20
7.338851833499775
 30
0.0
 40
0.1566980695398199
100
AcDbArc
 50
323.5307656099477
 51
52.72943909836341
  0
ARC
  5
78A
330
1E
100
AcDbEntity
  8
image
100
AcDbCircle
 10
3.476683903435892
 20
7.370409833929404
 30
0.0
 40
0.1566980695398199
100
AcDbArc
 50
143.5307656099477
 51
232.7294390983635
  0
ARC
  5
78B
330
1E
100
AcDbEntity
  8
image
100
AcDbCircle
 10
3.001340868965779
 20
7.580054325937373
 30
0.0
 40
0.1566980695398199
100
AcDbArc
 50
296.0563205359582
 51
25.25499402437389
  0
ARC
  5
78C
330
1E
100
AcDbEntity
  8
image
100
AcDbCircle
 10
3.211891738839899
 20
7.506137475686063
 30
0.0
 40
0.1566980695398199
100
AcDbArc
 50
116.0563205359582
 51
205.254994024374
  0
ARC
  5
78D
330
1E
100
AcDbEntity
  8
image
100
AcDbCircle
 10
2.833095958778417
 20
7.41912454338219
 30
0.0
 40
0.1566980695398199
100
AcDbArc
 50
296.0563205359582
 51
25.25499402437389
  0
ARC
  5
78E
330
1E
100
AcDbEntity
  8
image
100
AcDbCircle
 10
3.043646828652537
 20
7.34520769313088
 30
0.0
 40
0.1566980695398199
100
AcDbArc
 50
116.0563205359582
 51
205.254994024374
  0
ARC
  5
78F
330
1E
100
AcDbEntity
  8
image
100
AcDbCircle
 10
2.811150970493109
 20
7.572739335821228
 30
0.0
 40
0.1566980695398199
100
AcDbArc
 50
296.0563205359582
 51
25.25499402437389
  0
ARC
  5
790
330
1E
100
AcDbEntity
  8
image
100
AcDbCircle
 10
3.021701840367228
 20
7.498822485569919
 30
0.0
 40
0.1566980695398199
100
AcDbArc
 50
116.0563205359582
 51
205.254994024374
  0
ARC
  5
791
330
1E
100
AcDbEntity
  8
image
100
AcDbCircle
 10
3.228105747913963
 20
7.667834207331109
 30
0.0
 40
0.1566980695398199
100
AcDbArc
 50
296.0563205359582
 51
25.25499402437389
  0
ARC
  5
792
330
1E
100
AcDbEntity
  8
image
100
AcDbCircle
 10
3.438656617788082
 20
7.593917357079799
 30
0.0
 40
0.1566980695398199
100
AcDbArc
 50
116.0563205359582
 51
205.254994024374
  0
ARC
  5
793
330
1E
100
AcDbEntity
  8
image
100
AcDbCircle
 10
2.427113675500217
 20
7.678806692505325
 30
0.0
 40
0.1566980695398199
100
AcDbArc
 50
296.0563205359582
 51
25.25499402437389
  0
ARC
  5
794
330
1E
100
AcDbEntity
  8
image
100
AcDbCircle
 10
2.637664545374338
 20
7.604889842254015
 30
0.0
 40
0.1566980695398199
100
AcDbArc
 50
116.0563205359582
 51
205.254994024374
  0
ARC
  5
795
330
1E
100
AcDbEntity
  8
image
100
AcDbCircle
 10
3.103750814297216
 20
7.737326613434483
 30
0.0
 40
0.1566980695398199
100
AcDbArc
 50
296.0563205359582
 51
25.25499402437389
  0
ARC
  5
796
330
1E
100
AcDbEntity
  8
image
100
AcDbCircle
 10
3.314301684171336
 20
7.663409763183173
 30
0.0
 40
0.1566980695398199
100
AcDbArc
 50
116.0563205359582
 51
205.254994024374
  0
ARC
  5
797
330
1E
100
AcDbEntity
  8
image
100
AcDbCircle
 10
1.387548520053115
 20
7.72094839177314
 30
0.0
 40
0.1566980695398199
100
AcDbArc
 50
159.7199718669748
 51
248.9186453553905
  0
ARC
  5
798
330
1E
100
AcDbEntity
  8
image
100
AcDbCircle
 10
1.184200965847034
 20
7.629050939391545
 30
0.0
 40
0.1566980695398199
100
AcDbArc
 50
339.7199718669747
 51
68.91864535539045
  0
ARC
  5
799
330
1E
100
AcDbEntity
  8
image
100
AcDbCircle
 10
1.037289433789143
 20
7.396421921782497
 30
0.0
 40
0.1566980695398199
100
AcDbArc
 50
98.53076560994793
 51
187.7294390983636
  0
ARC
  5
79A
330
1E
100
AcDbEntity
  8
image
100
AcDbCircle
 10
0.8587704249533141
 20
7.530311178409368
 30
0.0
 40
0.1566980695398199
100
AcDbArc
 50
278.5307656099479
 51
7.729439098363579
  0
ARC
  5
79B
330
1E
100
AcDbEntity
  8
image
100
AcDbCircle
 10
1.380566611196372
 20
7.273194217072209
 30
0.0
 40
0.1566980695398199
100
AcDbArc
 50
98.53076560994793
 51
187.7294390983636
  0
ARC
  5
79C
330
1E
100
AcDbEntity
  8
image
100
AcDbCircle
 10
1.202047602360543
 20
7.407083473699081
 30
0.0
 40
0.1566980695398199
100
AcDbArc
 50
278.5307656099479
 51
7.729439098363579
  0
ARC
  5
79D
330
1E
100
AcDbEntity
  8
image
100
AcDbCircle
 10
1.395448459636098
 20
7.497021255773381
 30
0.0
 40
0.1566980695398199
100
AcDbArc
 50
339.7199718669747
 51
68.91864535539045
  0
ARC
  5
79E
330
1E
100
AcDbEntity
  8
image
100
AcDbCircle
 10
1.598796013842181
 20
7.588918708154974
 30
0.0
 40
0.1566980695398199
100
AcDbArc
 50
159.7199718669748
 51
248.9186453553905
  0
ARC
  5
79F
330
1E
100
AcDbEntity
  8
image
100
AcDbCircle
 10
1.342636586188831
 20
7.426605424510359
 30
0.0
 40
0.1566980695398199
100
AcDbArc
 50
339.7199718669747
 51
68.91864535539045
  0
ARC
  5
7A0
330
1E
100
AcDbEntity
  8
image
100
AcDbCircle
 10
1.545984140394915
 20
7.518502876891954
 30
0.0
 40
0.1566980695398199
100
AcDbArc
 50
159.7199718669748
 51
248.9186453553905
  0
ARC
  5
7A1
330
1E
100
AcDbEntity
  8
image
100
AcDbCircle
 10
0.8119265334273409
 20
7.609371194959491
 30
0.0
 40
0.1566980695398199
100
AcDbArc
 50
339.7199718669747
 51
68.91864535539045
  0
ARC
  5
7A2
330
1E
100
AcDbEntity
  8
image
100
AcDbCircle
 10
1.015274087633422
 20
7.701268647341084
 30
0.0
 40
0.1566980695398199
100
AcDbArc
 50
159.7199718669748
 51
248.9186453553905
  0
ARC
  5
7A3
330
1E
100
AcDbEntity
  8
image
100
AcDbCircle
 10
0.9905574298737263
 20
7.488219276865503
 30
0.0
 40
0.1566980695398199
100
AcDbArc
 50
339.7199718669747
 51
68.91864535539045
  0
ARC
  5
7A4
330
1E
100
AcDbEntity
  8
image
100
AcDbCircle
 10
1.193904984079808
 20
7.580116729247096
 30
0.0
 40
0.1566980695398199
100
AcDbArc
 50
159.7199718669748
 51
248.9186453553905
  0
ARC
  5
7A5
330
1E
100
AcDbEntity
  8
image
100
AcDbCircle
 10
1.052171282228868
 20
7.637852918299422
 30
0.0
 40
0.1566980695398199
100
AcDbArc
 50
339.7199718669747
 51
68.91864535539045
  0
ARC
  5
7A6
330
1E
100
AcDbEntity
  8
image
100
AcDbCircle
 10
1.255518836434951
 20
7.729750370681017
 30
0.0
 40
0.1566980695398199
100
AcDbArc
 50
159.7199718669748
 51
248.9186453553905
  0
ARC
  5
7A7
330
1E
100
AcDbEntity
  8
image
100
AcDbCircle
 10
1.413052417451853
 20
7.690664791746689
 30
0.0
 40
0.1566980695398199
100
AcDbArc
 50
339.7199718669747
 51
68.91864535539045
  0
ARC
  5
7A8
330
1E
100
AcDbEntity
  8
image
100
AcDbCircle
 10
1.616399971657936
 20
7.782562244128284
 30
0.0
 40
0.1566980695398199
100
AcDbArc
 50
159.7199718669748
 51
248.9186453553905
  0
ARC
  5
7A9
330
1E
100
AcDbEntity
  8
image
100
AcDbCircle
 10
1.562686058885773
 20
7.461813340141869
 30
0.0
 40
0.1566980695398199
100
AcDbArc
 50
339.7199718669747
 51
68.91864535539045
  0
ARC
  5
7AA
330
1E
100
AcDbEntity
  8
image
100
AcDbCircle
 10
1.766033613091856
 20
7.553710792523464
 30
0.0
 40
0.1566980695398199
100
AcDbArc
 50
159.7199718669748
 51
248.9186453553905
  0
ARC
  5
7AB
330
1E
100
AcDbEntity
  8
image
100
AcDbCircle
 10
1.551826239372747
 20
7.682129010907004
 30
0.0
 40
0.1566980695398199
100
AcDbArc
 50
323.5307656099477
 51
52.72943909836341
  0
ARC
  5
7AC
330
1E
100
AcDbEntity
  8
image
100
AcDbCircle
 10
1.772732242380148
 20
7.713687011336633
 30
0.0
 40
0.1566980695398199
100
AcDbArc
 50
143.5307656099477
 51
232.7294390983635
  0
ARC
  5
7AD
330
1E
100
AcDbEntity
  8
image
100
AcDbCircle
 10
1.410994576846704
 20
7.365257770223408
 30
0.0
 40
0.1566980695398199
100
AcDbArc
 50
323.5307656099477
 51
52.72943909836341
  0
ARC
  5
7AE
330
1E
100
AcDbEntity
  8
image
100
AcDbCircle
 10
1.631900579854105
 20
7.396815770653036
 30
0.0
 40
0.1566980695398199
100
AcDbArc
 50
143.5307656099477
 51
232.7294390983635
  0
ARC
  5
7AF
330
1E
100
AcDbEntity
  8
image
100
AcDbCircle
 10
1.252558956504906
 20
7.312445896776143
 30
0.0
 40
0.1566980695398199
100
AcDbArc
 50
323.5307656099477
 51
52.72943909836341
  0
ARC
  5
7B0
330
1E
100
AcDbEntity
  8
image
100
AcDbCircle
 10
1.473464959512308
 20
7.344003897205771
 30
0.0
 40
0.1566980695398199
100
AcDbArc
 50
143.5307656099477
 51
232.7294390983635
  0
ARC
  5
7B1
330
1E
100
AcDbEntity
  8
image
100
AcDbCircle
 10
0.9620936525449428
 20
7.330049854591898
 30
0.0
 40
0.1566980695398199
100
AcDbArc
 50
323.5307656099477
 51
52.72943909836341
  0
ARC
  5
7B2
330
1E
100
AcDbEntity
  8
image
100
AcDbCircle
 10
1.182999655552346
 20
7.361607855021526
 30
0.0
 40
0.1566980695398199
100
AcDbArc
 50
143.5307656099477
 51
232.7294390983635
  0
ARC
  5
7B3
330
1E
100
AcDbEntity
  8
image
100
AcDbCircle
 10
1.146935209610374
 20
7.470881517117941
 30
0.0
 40
0.1566980695398199
100
AcDbArc
 50
323.5307656099477
 51
52.72943909836341
  0
ARC
  5
7B4
330
1E
100
AcDbEntity
  8
image
100
AcDbCircle
 10
1.367841212617776
 20
7.502439517547568
 30
0.0
 40
0.1566980695398199
100
AcDbArc
 50
143.5307656099477
 51
232.7294390983635
  0
ARC
  5
7B5
330
1E
100
AcDbEntity
  8
image
100
AcDbCircle
 10
1.270162914320662
 20
7.690930989814882
 30
0.0
 40
0.1566980695398199
100
AcDbArc
 50
323.5307656099477
 51
52.72943909836341
  0
ARC
  5
7B6
330
1E
100
AcDbEntity
  8
image
100
AcDbCircle
 10
1.491068917328063
 20
7.72248899024451
 30
0.0
 40
0.1566980695398199
100
AcDbArc
 50
143.5307656099477
 51
232.7294390983635
  0
ARC
  5
7B7
330
1E
100
AcDbEntity
  8
image
100
AcDbCircle
 10
0.9268857369134329
 20
7.682129010907004
 30
0.0
 40
0.1566980695398199
100
AcDbArc
 50
323.5307656099477
 51
52.72943909836341
  0
ARC
  5
7B8
330
1E
100
AcDbEntity
  8
image
100
AcDbCircle
 10
1.147791739920835
 20
7.713687011336633
 30
0.0
 40
0.1566980695398199
100
AcDbArc
 50
143.5307656099477
 51
232.7294390983635
  0
ARC
  5
7B9
330
1E
100
AcDbEntity
  8
image
100
AcDbCircle
 10
0.8476679267425339
 20
7.330049854591898
 30
0.0
 40
0.1566980695398199
100
AcDbArc
 50
323.5307656099477
 51
52.72943909836341
  0
ARC
  5
7BA
330
1E
100
AcDbEntity
  8
image
100
AcDbCircle
 10
1.068573929749936
 20
7.361607855021526
 30
0.0
 40
0.1566980695398199
100
AcDbArc
 50
143.5307656099477
 51
232.7294390983635
  0
ARC
  5
7BB
330
1E
100
AcDbEntity
  8
image
100
AcDbCircle
 10
0.6980342853086132
 20
7.347653812407653
 30
0.0
 40
0.1566980695398199
100
AcDbArc
 50
323.5307656099477
 51
52.72943909836341
  0
ARC
  5
7BC
330
1E
100
AcDbEntity
  8
image
100
AcDbCircle
 10
0.9189402883160159
 20
7.379211812837281
 30
0.0
 40
0.1566980695398199
100
AcDbArc
 50
143.5307656099477
 51
232.7294390983635
  0
ARC
  5
7BD
330
1E
100
AcDbEntity
  8
image
100
AcDbCircle
 10
0.7420441798480013
 20
7.470881517117941
 30
0.0
 40
0.1566980695398199
100
AcDbArc
 50
323.5307656099477
 51
52.72943909836341
  0
ARC
  5
7BE
330
1E
100
AcDbEntity
  8
image
100
AcDbCircle
 10
0.9629501828554047
 20
7.502439517547568
 30
0.0
 40
0.1566980695398199
100
AcDbArc
 50
143.5307656099477
 51
232.7294390983635
  0
ARC
  5
7BF
330
1E
100
AcDbEntity
  8
image
100
AcDbCircle
 10
1.507816344833358
 20
7.338851833499775
 30
0.0
 40
0.1566980695398199
100
AcDbArc
 50
323.5307656099477
 51
52.72943909836341
  0
ARC
  5
7C0
330
1E
100
AcDbEntity
  8
image
100
AcDbCircle
 10
1.728722347840761
 20
7.370409833929404
 30
0.0
 40
0.1566980695398199
100
AcDbArc
 50
143.5307656099477
 51
232.7294390983635
  0
ARC
  5
7C1
330
1E
100
AcDbEntity
  8
image
100
AcDbCircle
 10
1.253379313370648
 20
7.580054325937373
 30
0.0
 40
0.1566980695398199
100
AcDbArc
 50
296.0563205359582
 51
25.25499402437389
  0
ARC
  5
7C2
330
1E
100
AcDbEntity
  8
image
100
AcDbCircle
 10
1.463930183244769
 20
7.506137475686063
 30
0.0
 40
0.1566980695398199
100
AcDbArc
 50
116.0563205359582
 51
205.254994024374
  0
ARC
  5
7C3
330
1E
100
AcDbEntity
  8
image
100
AcDbCircle
 10
1.085134403183286
 20
7.41912454338219
 30
0.0
 40
0.1566980695398199
100
AcDbArc
 50
296.0563205359582
 51
25.25499402437389
  0
ARC
  5
7C4
330
1E
100
AcDbEntity
  8
image
100
AcDbCircle
 10
1.295685273057407
 20
7.34520769313088
 30
0.0
 40
0.1566980695398199
100
AcDbArc
 50
116.0563205359582
 51
205.254994024374
  0
ARC
  5
7C5
330
1E
100
AcDbEntity
  8
image
100
AcDbCircle
 10
1.063189414897978
 20
7.572739335821228
 30
0.0
 40
0.1566980695398199
100
AcDbArc
 50
296.0563205359582
 51
25.25499402437389
  0
ARC
  5
7C6
330
1E
100
AcDbEntity
  8
image
100
AcDbCircle
 10
1.273740284772097
 20
7.498822485569919
 30
0.0
 40
0.1566980695398199
100
AcDbArc
 50
116.0563205359582
 51
205.254994024374
  0
ARC
  5
7C7
330
1E
100
AcDbEntity
  8
image
100
AcDbCircle
 10
1.480144192318832
 20
7.667834207331109
 30
0.0
 40
0.1566980695398199
100
AcDbArc
 50
296.0563205359582
 51
25.25499402437389
  0
ARC
  5
7C8
330
1E
100
AcDbEntity
  8
image
100
AcDbCircle
 10
1.690695062192951
 20
7.593917357079799
 30
0.0
 40
0.1566980695398199
100
AcDbArc
 50
116.0563205359582
 51
205.254994024374
  0
ARC
  5
7C9
330
1E
100
AcDbEntity
  8
image
100
AcDbCircle
 10
0.6791521199050872
 20
7.678806692505325
 30
0.0
 40
0.1566980695398199
100
AcDbArc
 50
296.0563205359582
 51
25.25499402437389
  0
ARC
  5
7CA
330
1E
100
AcDbEntity
  8
image
100
AcDbCircle
 10
0.8897029897792075
 20
7.604889842254015
 30
0.0
 40
0.1566980695398199
100
AcDbArc
 50
116.0563205359582
 51
205.254994024374
  0
ARC
  5
7CB
330
1E
100
AcDbEntity
  8
image
100
AcDbCircle
 10
1.355789258702085
 20
7.737326613434483
 30
0.0
 40
0.1566980695398199
100
AcDbArc
 50
296.0563205359582
 51
25.25499402437389
  0
ARC
  5
7CC
330
1E
100
AcDbEntity
  8
image
100
AcDbCircle
 10
1.566340128576205
 20
7.663409763183173
 30
0.0
 40
0.1566980695398199
100
AcDbArc
 50
116.0563205359582
 51
205.254994024374
  0
LINE
  5
7CD
330
1E
100
AcDbEntity
  8
image
100
AcDbLine
 10
2.550173913356465
 20
5.959022159417942
 30
0.0
 11
2.550173913356465
 21
5.898479329932678
 31
0.0
  0
LINE
  5
7CE
330
1E
100
AcDbEntity
  8
image
100
AcDbLine
 10
2.536180530980322
 20
5.959022159417942
 30
0.0
 11
2.550173913356465
 21
5.959022159417942
 31
0.0
  0
LINE
  5
7CF
330
1E
100
AcDbEntity
  8
image
100
AcDbLine
 10
2.536180530980322
 20
6.003823853237038
 30
0.0
 11
2.536180530980322
 21
5.959022159417942
 31
0.0
  0
LINE
  5
7D0
330
1E
100
AcDbEntity
  8
image
100
AcDbLine
 10
2.550173913356465
 20
6.003823853237038
 30
0.0
 11
2.536180530980322
 21
6.003823853237038
 31
0.0
  0
LINE
  5
7D1
330
1E
100
AcDbEntity
  8
image
100
AcDbLine
 10
2.550173913356465
 20
5.898479329932678
 30
0.0
 11
2.495691221070421
 21
5.898479329932678
 31
0.0
  0
LINE
  5
7D2
330
1E
100
AcDbEntity
  8
image
100
AcDbLine
 10
2.550173913356465
 20
6.058312399773777
 30
0.0
 11
2.550173913356465
 21
6.003823853237038
 31
0.0
  0
LINE
  5
7D3
330
1E
100
AcDbEntity
  8
image
100
AcDbLine
 10
2.495691221070421
 20
6.058312399773777
 30
0.0
 11
2.550173913356465
 21
6.058312399773777
 31
0.0
  0
ARC
  5
7D4
330
1E
100
AcDbEntity
  8
image
100
AcDbCircle
 10
2.438058386767558
 20
5.976350502732891
 30
0.0
 40
0.2021270577682911
100
AcDbArc
 50
137.2096684487524
 51
222.7903315512476
  0
LINE
  5
7D5
330
1E
100
AcDbEntity
  8
image
100
AcDbLine
 10
2.495691221070421
 20
6.085603474308983
 30
0.0
 11
2.495691221070421
 21
5.867097531156797
 31
0.0
  0
LINE
  5
7D6
330
1E
100
AcDbEntity
  8
image
100
AcDbLine
 10
2.289728555660188
 20
5.839042059126072
 30
0.0
 11
2.46763574903969
 21
5.839042059126073
 31
0.0
  0
LINE
  5
7D7
330
1E
100
AcDbEntity
  8
image
100
AcDbLine
 10
2.289728555660188
 20
6.113658946339707
 30
0.0
 11
2.46763574903969
 21
6.113658946339707
 31
0.0
  0
LINE
  5
7D8
330
1E
100
AcDbEntity
  8
image
100
AcDbLine
 10
2.289728555660188
 20
6.991322081295122
 30
0.0
 11
1.877750770601252
 21
6.991322081295122
 31
0.0
  0
LINE
  5
7D9
330
1E
100
AcDbEntity
  8
image
100
AcDbLine
 10
1.877750770601252
 20
7.009678615550745
 30
0.0
 11
2.289728555660188
 21
7.009678615550745
 31
0.0
  0
LINE
  5
7DA
330
1E
100
AcDbEntity
  8
image
100
AcDbLine
 10
1.877750770601252
 20
7.034628064090624
 30
0.0
 11
1.877750770601252
 21
6.60409918644413
 31
0.0
  0
LINE
  5
7DB
330
1E
100
AcDbEntity
  8
image
100
AcDbLine
 10
2.289728555660188
 20
6.60409918644413
 30
0.0
 11
2.289728555660188
 21
6.113658946339691
 31
0.0
  0
LINE
  5
7DC
330
1E
100
AcDbEntity
  8
image
100
AcDbLine
 10
2.289728555660188
 20
7.034628064090624
 30
0.0
 11
2.289728555660188
 21
6.60409918644413
 31
0.0
  0
LINE
  5
7DD
330
1E
100
AcDbEntity
  8
image
100
AcDbLine
 10
1.877750770601252
 20
7.034628064090624
 30
0.0
 11
1.804674782715112
 21
7.034628064090624
 31
0.0
  0
LINE
  5
7DE
330
1E
100
AcDbEntity
  8
image
100
AcDbLine
 10
1.804674782715112
 20
7.034628064090624
 30
0.0
 11
1.804674782715112
 21
7.170573660337307
 31
0.0
  0
LINE
  5
7DF
330
1E
100
AcDbEntity
  8
image
100
AcDbLine
 10
1.804674782715112
 20
7.170573660337307
 30
0.0
 11
1.730312761296067
 21
7.170573660337307
 31
0.0
  0
LINE
  5
7E0
330
1E
100
AcDbEntity
  8
image
100
AcDbLine
 10
1.730312761296067
 20
7.170573660337307
 30
0.0
 11
1.730312761296067
 21
7.217077334754735
 31
0.0
  0
LINE
  5
7E1
330
1E
100
AcDbEntity
  8
image
100
AcDbLine
 10
1.730312761296064
 20
7.170573660337305
 30
0.0
 11
1.804674782715112
 21
7.034628064090624
 31
0.0
  0
LINE
  5
7E2
330
1E
100
AcDbEntity
  8
image
100
AcDbLine
 10
2.437166564965378
 20
7.170573660337305
 30
0.0
 11
2.362804543546333
 21
7.034628064090624
 31
0.0
  0
LINE
  5
7E3
330
1E
100
AcDbEntity
  8
image
100
AcDbLine
 10
2.437166564965378
 20
7.170573660337307
 30
0.0
 11
2.437166564965378
 21
7.217077334754735
 31
0.0
  0
LINE
  5
7E4
330
1E
100
AcDbEntity
  8
image
100
AcDbLine
 10
2.362804543546333
 20
7.170573660337307
 30
0.0
 11
2.437166564965378
 21
7.170573660337307
 31
0.0
  0
LINE
  5
7E5
330
1E
100
AcDbEntity
  8
image
100
AcDbLine
 10
2.362804543546333
 20
7.034628064090624
 30
0.0
 11
2.362804543546333
 21
7.170573660337307
 31
0.0
  0
LINE
  5
7E6
330
1E
100
AcDbEntity
  8
image
100
AcDbLine
 10
2.289728555660188
 20
7.034628064090624
 30
0.0
 11
2.362804543546333
 21
7.034628064090624
 31
0.0
  0
LINE
  5
7E7
330
1E
100
AcDbEntity
  8
image
100
AcDbLine
 10
1.730312761296067
 20
7.217077334754735
 30
0.0
 11
2.437166564965378
 21
7.217077334754735
 31
0.0
  0
LINE
  5
7E8
330
1E
100
AcDbEntity
  8
image
100
AcDbLine
 10
1.804674782715112
 20
7.170573660337307
 30
0.0
 11
2.362804543546333
 21
7.170573660337307
 31
0.0
  0
LINE
  5
7E9
330
1E
100
AcDbEntity
  8
image
100
AcDbLine
 10
1.877750770601252
 20
7.034628064090624
 30
0.0
 11
2.289728555660188
 21
7.034628064090624
 31
0.0
  0
LINE
  5
7EA
330
1E
100
AcDbEntity
  8
image
100
AcDbLine
 10
1.962694078230585
 20
7.170573660337307
 30
0.0
 11
1.962694078230585
 21
7.034628064090624
 31
0.0
  0
LINE
  5
7EB
330
1E
100
AcDbEntity
  8
image
100
AcDbLine
 10
1.999875088940111
 20
7.170573660337307
 30
0.0
 11
1.999875088940111
 21
7.034628064090624
 31
0.0
  0
LINE
  5
7EC
330
1E
100
AcDbEntity
  8
image
100
AcDbLine
 10
2.172002306110524
 20
7.170573660337307
 30
0.0
 11
2.172002306110524
 21
7.034628064090624
 31
0.0
  0
LINE
  5
7ED
330
1E
100
AcDbEntity
  8
image
100
AcDbLine
 10
2.210475229149958
 20
7.170573660337307
 30
0.0
 11
2.210475229149958
 21
7.034628064090624
 31
0.0
  0
LINE
  5
7EE
330
1E
100
AcDbEntity
  8
image
100
AcDbLine
 10
2.437166564965378
 20
7.217077334754735
 30
0.0
 11
3.528077258548565
 21
7.217077334754733
 31
0.0
  0
LINE
  5
7EF
330
1E
100
AcDbEntity
  8
image
100
AcDbLine
 10
1.730312761296071
 20
7.217077334754735
 30
0.0
 11
0.676335708644734
 21
7.217077334754735
 31
0.0
  0
LINE
  5
7F0
330
1E
100
AcDbEntity
  8
image
100
AcDbLine
 10
1.877750770601252
 20
6.60409918644413
 30
0.0
 11
1.877750770601252
 21
3.731775045565787
 31
0.0
  0
LINE
  5
7F1
330
1E
100
AcDbEntity
  8
image
100
AcDbLine
 10
1.877750770601252
 20
3.731775045565787
 30
0.0
 11
1.969490458951669
 21
3.60821547611286
 31
0.0
  0
LINE
  5
7F2
330
1E
100
AcDbEntity
  8
image
100
AcDbLine
 10
1.973348837753237
 20
3.60821547611286
 30
0.0
 11
1.973348837753237
 21
3.731775045565787
 31
0.0
  0
LINE
  5
7F3
330
1E
100
AcDbEntity
  8
image
100
AcDbLine
 10
1.877750770601252
 20
3.731775045565787
 30
0.0
 11
2.289728555660188
 21
3.731775045565787
 31
0.0
  0
LINE
  5
7F4
330
1E
100
AcDbEntity
  8
image
100
AcDbLine
 10
2.289728555660188
 20
5.839042059126086
 30
0.0
 11
2.289728555660188
 21
3.60821547611286
 31
0.0
  0
LINE
  5
7F5
330
1E
100
AcDbEntity
  8
image
100
AcDbLine
 10
2.192726242149682
 20
3.60821547611286
 30
0.0
 11
2.192726242149682
 21
3.731775045565787
 31
0.0
  0
LINE
  5
7F6
330
1E
100
AcDbEntity
  8
image
100
AcDbLine
 10
2.092637029360032
 20
3.731775045565787
 30
0.0
 11
2.092637029360032
 21
3.60821547611286
 31
0.0
  0
LINE
  5
7F7
330
1E
100
AcDbEntity
  8
image
100
AcDbLine
 10
2.072540150415576
 20
3.731775045565787
 30
0.0
 11
2.072540150415576
 21
3.60821547611286
 31
0.0
  0
LINE
  5
7F9
330
1E
100
AcDbEntity
  8
image
100
AcDbLine
 10
1.969490458951669
 20
3.60821547611286
 30
0.0
 11
2.289728555660188
 21
3.60821547611286
 31
0.0
  0
HATCH
  5
815
330
1E
100
AcDbEntity
  8
image
100
AcDbHatch
 10
0.0
 20
0.0
 30
0.0
210
0.0
220
0.0
230
1.0
  2
EARTH
 70
     0
 71
     0
 91
        2
 92
        7
 72
     0
 73
     1
 93
       13
 10
1.877750770601253
 20
7.034628064090624
 10
1.804674782715112
 20
7.034628064090624
 10
1.730312761296067
 20
7.170573660337299
 10
1.730312761296067
 20
7.217077334754735
 10
1.047214016566917
 20
7.217077334754735
 10
1.075891713025737
 20
7.130545735896748
 10
1.140319061584492
 20
6.965905509860009
 10
1.172705900914313
 20
6.885155264200025
 10
1.30250985857063
 20
6.790790505362004
 10
1.427510569801318
 20
6.630843050632714
 10
1.64067509239241
 20
6.561164860749193
 10
1.877750770601252
 20
6.52550227387376
 10
1.877750770601252
 20
6.60409918644413
 97
        0
 92
        7
 72
     0
 73
     1
 93
       11
 10
2.854083036794451
 20
6.926044667727373
 10
3.064943342216194
 20
7.072472654684951
 10
3.125598550158829
 20
7.217077334754733
 10
2.437166564965378
 20
7.217077334754735
 10
2.437166564965378
 20
7.170573660337305
 10
2.362804543546333
 20
7.034628064090623
 10
2.289728555660188
 20
7.034628064090624
 10
2.289728555660188
 20
6.60409918644413
 10
2.289728555660188
 20
6.503176954823095
 10
2.449042864839177
 20
6.662491264002084
 10
2.634793020752423
 20
6.816152363058382
 97
        0
 75
     0
 76
     1
 52
45.0
 41
0.65
 77
     0
 78
     6
 53
45.0
 43
0.0
 44
0.0
 45
0.0
 46
0.229809703885628
 79
     2
 49
0.1625
 49
-0.1625
 53
45.0
 43
-0.0430893194785553
 44
0.0430893194785553
 45
0.0
 46
0.229809703885628
 79
     2
 49
0.1625
 49
-0.1625
 53
45.0
 43
-0.0861786389571105
 44
0.0861786389571105
 45
0.0
 46
0.229809703885628
 79
     2
 49
0.1625
 49
-0.1625
 53
135.0
 43
-0.0861786389571105
 44
0.114904851942814
 45
-0.2298097038856279
 46
0.0
 79
     2
 49
0.1625
 49
-0.1625
 53
135.0
 43
-0.0430893194785552
 44
0.1579941714213692
 45
-0.2298097038856279
 46
0.0
 79
     2
 49
0.1625
 49
-0.1625
 53
135.0
 43
0.0
 44
0.2010834908999244
 45
-0.2298097038856279
 46
0.0
 79
     2
 49
0.1625
 49
-0.1625
 47
0.0055813302360891
 98
        2
 10
1.440104303498782
 20
6.92735806804165
 10
2.512163058251497
 20
6.905032723363016
  0
TEXT
  5
827
330
1E
100
AcDbEntity
  8
text_bubbles
100
AcDbText
 10
4.760000000000001
 20
5.482744136147065
 30
0.0
 40
0.125
  1
  WITH RAIN BIRD ROTARY NOZZLE
  7
ROMANS
100
AcDbText
  0
TEXT
  5
963
330
1E
100
AcDbEntity
  8
text_leaders
100
AcDbText
 10
4.760000000000001
 20
5.482744136147065
 30
0.0
 40
0.125
  1
  WITH RAIN BIRD ROTARY NOZZLE
  7
ROMANS
100
AcDbText
  0
ARC
  5
987
330
1E
100
AcDbEntity
  8
image
100
AcDbCircle
 10
2.083739663130718
 20
7.056322260507166
 30
0.0
 40
0.2165783160917459
100
AcDbArc
 50
47.92336398940312
 51
132.0766360105968
  0
ENDSEC
  0
SECTION
  2
OBJECTS
  0
DICTIONARY
  5
C
330
0
100
AcDbDictionary
281
     1
  3
ACAD_COLOR
350
856
  3
ACAD_GROUP
350
D
  3
ACAD_LAYOUT
350
19
  3
ACAD_MATERIAL
350
82C
  3
ACAD_MLEADERSTYLE
350
87B
  3
ACAD_MLINESTYLE
350
16
  3
ACAD_PLOTSETTINGS
350
18
  3
ACAD_PLOTSTYLENAME
350
E
  3
ACAD_SCALELIST
350
859
  3
ACAD_TABLESTYLE
350
857
  3
ACAD_VISUALSTYLE
350
845
  3
ACDB_RECOMPOSE_DATA
350
8DE
  3
AcDbVariableDictionary
350
215
  3
AEC_PROPERTY_SET_DEFS
350
985
1001
BBSI_PltSel
1000
1
1000

1001
BBSI_Bookmarks
1000
1
1000
1
1000
0
1000
1
1000
0
1000
0
1000
0
1000
0
1000
0
1000
0
1000
0
1001
BBSI_Plots
1000

1000
User123
1000
215.900009155273
1000
279.399993896484
1000
1
1000
1
1000
0
1000
0
1000
0
1000
1
1000
0
1000
1
1000
0.581881369946802
1000
0
1000
1
1000
8500Color.ctb
1000
0
1000
0
1000
1
1000
1
1000
0
1000
0
1000
10.3242755434582
1000
3.30949928059468
1000
16.4946427118827
1000
8.01330581296594
1000

1000

  0
DICTIONARY
  5
283
330
2
100
AcDbDictionary
280
     1
281
     1
  3
ACAD_LAYERFILTERS
360
9CE
  3
ACAD_LAYERSTATES
360
284
  0
DICTIONARY
  5
856
102
{ACAD_REACTORS
330
C
102
}
330
C
100
AcDbDictionary
281
     1
  0
DICTIONARY
  5
D
102
{ACAD_REACTORS
330
C
102
}
330
C
100
AcDbDictionary
281
     1
  0
DICTIONARY
  5
19
102
{ACAD_REACTORS
330
C
102
}
330
C
100
AcDbDictionary
281
     1
  3
Layout1
350
1D
  3
Model
350
21
  0
DICTIONARY
  5
82C
102
{ACAD_REACTORS
330
C
102
}
330
C
100
AcDbDictionary
281
     1
  3
ByBlock
350
835
  3
ByLayer
350
82D
  3
Global
350
83D
  0
DICTIONARY
  5
87B
102
{ACAD_REACTORS
330
C
102
}
330
C
100
AcDbDictionary
281
     1
  3
Standard
350
980
  0
DICTIONARY
  5
16
102
{ACAD_REACTORS
330
C
102
}
330
C
100
AcDbDictionary
281
     1
  3
Standard
350
17
  0
DICTIONARY
  5
18
102
{ACAD_REACTORS
330
C
102
}
330
C
100
AcDbDictionary
281
     1
  0
ACDBDICTIONARYWDFLT
  5
E
102
{ACAD_REACTORS
330
C
102
}
330
C
100
AcDbDictionary
281
     1
  3
Normal
350
F
100
AcDbDictionaryWithDefault
340
F
  0
DICTIONARY
  5
859
102
{ACAD_REACTORS
330
C
102
}
330
C
100
AcDbDictionary
281
     1
  3
A0
350
85A
  3
A1
350
9DA
  3
A2
350
9DB
  3
A3
350
9DC
  3
A4
350
9DD
  3
A5
350
9DE
  3
A6
350
9DF
  3
A7
350
9E0
  3
A8
350
9E1
  3
A9
350
9E2
  3
B0
350
9E3
  3
B1
350
9E4
  3
B2
350
9E5
  3
B3
350
9E6
  3
B4
350
9E7
  3
B5
350
9E8
  3
B6
350
9E9
  3
B7
350
9EA
  3
B8
350
9EB
  3
B9
350
9EC
  3
C0
350
9ED
  3
C1
350
9EE
  3
C2
350
9EF
  3
C3
350
9F0
  3
C4
350
9F1
  3
C5
350
9F2
  3
C6
350
9F3
  3
C7
350
9F4
  3
C8
350
9F5
  3
C9
350
9F6
  3
D0
350
9F7
  3
D1
350
9F8
  3
D2
350
9F9
  0
DICTIONARY
  5
857
102
{ACAD_REACTORS
330
C
102
}
330
C
100
AcDbDictionary
281
     1
  3
Standard
350
858
  0
DICTIONARY
  5
845
102
{ACAD_REACTORS
330
C
102
}
330
C
100
AcDbDictionary
281
     1
  3
2dWireframe
350
84B
  3
3D Hidden
350
84D
  3
3dWireframe
350
84C
  3
Basic
350
84A
  3
Brighten
350
851
  3
ColorChange
350
855
  3
Conceptual
350
84E
  3
Dim
350
850
  3
Facepattern
350
854
  3
Flat
350
846
  3
FlatWithEdges
350
847
  3
Gouraud
350
848
  3
GouraudWithEdges
350
849
  3
Linepattern
350
853
  3
Realistic
350
84F
  3
Thicken
350
852
  0
XRECORD
  5
8DE
102
{ACAD_REACTORS
330
C
102
}
330
C
100
AcDbXrecord
280
     1
 90
        1
330
858
  0
DICTIONARY
  5
215
102
{ACAD_REACTORS
330
C
102
}
330
C
100
AcDbDictionary
281
     1
  3
CANNOSCALE
350
8E2
  3
CMLEADERSTYLE
350
8E0
  3
CTABLESTYLE
350
8DF
  3
DIMASSOC
350
218
  3
HIDETEXT
350
217
  3
LAYEREVAL
350
8E4
  3
LIGHTINGUNITS
350
8E3
  3
MSLTSCALE
350
8E1
  3
SORTENTS
350
216
  0
DICTIONARY
  5
985
102
{ACAD_REACTORS
330
C
102
}
330
C
100
AcDbDictionary
281
     1
  0
DICTIONARY
  5
9CE
102
{ACAD_REACTORS
330
283
102
}
330
283
100
AcDbDictionary
281
     1
  3
_0100-
350
9D1
  3
_0280-
350
9D0
  3
_Color 253
350
9D4
  3
_Color 8
350
9D2
  3
_Color 84
350
9D3
  3
_Contours
350
9D9
  3
_Existing
350
9D5
  3
_Hardscape
350
9D8
  3
_NoXref
350
9CF
  3
_Row
350
9D6
  3
_Utility
350
9D7
  0
DICTIONARY
  5
284
102
{ACAD_REACTORS
330
283
102
}
330
283
100
AcDbDictionary
281
     1
  0
LAYOUT
  5
1D
102
{ACAD_REACTORS
330
19
102
}
330
19
100
AcDbPlotSettings
  1

  2
S:\AutoCAD 2002\Plotters\1055B&WDraftShaded.pc3
  4

  6

 40
0.0
 41
0.0
 42
0.0
 43
0.0
 44
0.0
 45
0.0
 46
0.0
 47
0.0
 48
0.0
 49
0.0
140
0.0
141
0.0
142
1.0
143
1.0
 70
   688
 72
     0
 73
     0
 74
     5
  7
8500Color.ctb
 75
    16
147
1.0
 76
     0
 77
     2
 78
   300
148
0.0
149
0.0
100
AcDbLayout
  1
Layout1
 70
     1
 71
     1
 10
0.0
 20
0.0
 11
12.0
 21
9.0
 12
0.0
 22
0.0
 32
0.0
 14
1.000000000000000E+20
 24
1.000000000000000E+20
 34
1.000000000000000E+20
 15
-1.000000000000000E+20
 25
-1.000000000000000E+20
 35
-1.000000000000000E+20
146
0.0
 13
0.0
 23
0.0
 33
0.0
 16
1.0
 26
0.0
 36
0.0
 17
0.0
 27
1.0
 37
0.0
 76
     0
330
1A
  0
LAYOUT
  5
21
102
{ACAD_REACTORS
330
19
102
}
330
19
100
AcDbPlotSettings
  1

  2
8500ColorShaded.pc3
  4
Letter
  6

 40
5.027082920074462
 41
5.027070522308349
 42
5.027099609375
 43
5.027084350585937
 44
279.3999938964844
 45
215.8999938964844
 46
0.0
 47
0.0
 48
10.32427554345824
 49
3.309499280594682
140
16.49464271188265
141
8.013305812965935
142
1.0
143
0.7613820460078329
 70
 11952
 72
     0
 73
     1
 74
     4
  7
8500Color.ctb
 75
     0
147
1.313401078004553
 76
     0
 77
     2
 78
   300
148
-262.2365988038392
149
-84.06128172710493
100
AcDbLayout
  1
Model
 70
     1
 71
     0
 10
0.0
 20
0.0
 11
12.0
 21
9.0
 12
0.0
 22
0.0
 32
0.0
 14
0.0
 24
0.0
 34
0.0
 15
0.0
 25
0.0
 35
0.0
146
0.0
 13
0.0
 23
0.0
 33
0.0
 16
1.0
 26
0.0
 36
0.0
 17
0.0
 27
1.0
 37
0.0
 76
     0
330
1E
331
82A
1001
ACAD_PSEXT
1000
8500ColorShaded.pc3
1000
HP Color LaserJet 8500 PS
1000
BACK
1000

1070
     0
  0
MATERIAL
  5
835
102
{ACAD_XDICTIONARY
360
836
102
}
102
{ACAD_REACTORS
330
82C
102
}
330
82C
100
AcDbMaterial
  1
ByBlock
 72
     0
 43
0.0208333333333333
 43
0.0
 43
0.0
 43
0.0
 43
0.0
 43
0.0208333333333333
 43
0.0
 43
0.0
 43
0.0
 43
0.0
 43
1.0
 43
0.0
 43
0.0
 43
0.0
 43
0.0
 43
1.0
 77
     0
 47
0.0208333333333333
 47
0.0
 47
0.0
 47
0.0
 47
0.0
 47
0.0208333333333333
 47
0.0
 47
0.0
 47
0.0
 47
0.0
 47
1.0
 47
0.0
 47
0.0
 47
0.0
 47
0.0
 47
1.0
171
     0
 49
0.0208333333333333
 49
0.0
 49
0.0
 49
0.0
 49
0.0
 49
0.0208333333333333
 49
0.0
 49
0.0
 49
0.0
 49
0.0
 49
1.0
 49
0.0
 49
0.0
 49
0.0
 49
0.0
 49
1.0
175
     0
142
0.0208333333333333
142
0.0
142
0.0
142
0.0
142
0.0
142
0.0208333333333333
142
0.0
142
0.0
142
0.0
142
0.0
142
1.0
142
0.0
142
0.0
142
0.0
142
0.0
142
1.0
179
     0
144
0.0208333333333333
144
0.0
144
0.0
144
0.0
144
0.0
144
0.0208333333333333
144
0.0
144
0.0
144
0.0
144
0.0
144
1.0
144
0.0
144
0.0
144
0.0
144
0.0
144
1.0
147
0.0208333333333333
147
0.0
147
0.0
147
0.0
147
0.0
147
0.0208333333333333
147
0.0
147
0.0
147
0.0
147
0.0
147
1.0
147
0.0
147
0.0
147
0.0
147
0.0
147
1.0
  0
MATERIAL
  5
82D
102
{ACAD_XDICTIONARY
360
82E
102
}
102
{ACAD_REACTORS
330
82C
102
}
330
82C
100
AcDbMaterial
  1
ByLayer
 72
     0
 43
0.0208333333333333
 43
0.0
 43
0.0
 43
0.0
 43
0.0
 43
0.0208333333333333
 43
0.0
 43
0.0
 43
0.0
 43
0.0
 43
1.0
 43
0.0
 43
0.0
 43
0.0
 43
0.0
 43
1.0
 77
     0
 47
0.0208333333333333
 47
0.0
 47
0.0
 47
0.0
 47
0.0
 47
0.0208333333333333
 47
0.0
 47
0.0
 47
0.0
 47
0.0
 47
1.0
 47
0.0
 47
0.0
 47
0.0
 47
0.0
 47
1.0
171
     0
 49
0.0208333333333333
 49
0.0
 49
0.0
 49
0.0
 49
0.0
 49
0.0208333333333333
 49
0.0
 49
0.0
 49
0.0
 49
0.0
 49
1.0
 49
0.0
 49
0.0
 49
0.0
 49
0.0
 49
1.0
175
     0
142
0.0208333333333333
142
0.0
142
0.0
142
0.0
142
0.0
142
0.0208333333333333
142
0.0
142
0.0
142
0.0
142
0.0
142
1.0
142
0.0
142
0.0
142
0.0
142
0.0
142
1.0
179
     0
144
0.0208333333333333
144
0.0
144
0.0
144
0.0
144
0.0
144
0.0208333333333333
144
0.0
144
0.0
144
0.0
144
0.0
144
1.0
144
0.0
144
0.0
144
0.0
144
0.0
144
1.0
147
0.0208333333333333
147
0.0
147
0.0
147
0.0
147
0.0
147
0.0208333333333333
147
0.0
147
0.0
147
0.0
147
0.0
147
1.0
147
0.0
147
0.0
147
0.0
147
0.0
147
1.0
  0
MATERIAL
  5
83D
102
{ACAD_XDICTIONARY
360
83E
102
}
102
{ACAD_REACTORS
330
82C
102
}
330
82C
100
AcDbMaterial
  1
Global
 72
     0
 43
0.0208333333333333
 43
0.0
 43
0.0
 43
0.0
 43
0.0
 43
0.0208333333333333
 43
0.0
 43
0.0
 43
0.0
 43
0.0
 43
1.0
 43
0.0
 43
0.0
 43
0.0
 43
0.0
 43
1.0
 77
     0
 47
0.0208333333333333
 47
0.0
 47
0.0
 47
0.0
 47
0.0
 47
0.0208333333333333
 47
0.0
 47
0.0
 47
0.0
 47
0.0
 47
1.0
 47
0.0
 47
0.0
 47
0.0
 47
0.0
 47
1.0
171
     0
 49
0.0208333333333333
 49
0.0
 49
0.0
 49
0.0
 49
0.0
 49
0.0208333333333333
 49
0.0
 49
0.0
 49
0.0
 49
0.0
 49
1.0
 49
0.0
 49
0.0
 49
0.0
 49
0.0
 49
1.0
175
     0
142
0.0208333333333333
142
0.0
142
0.0
142
0.0
142
0.0
142
0.0208333333333333
142
0.0
142
0.0
142
0.0
142
0.0
142
1.0
142
0.0
142
0.0
142
0.0
142
0.0
142
1.0
179
     0
144
0.0208333333333333
144
0.0
144
0.0
144
0.0
144
0.0
144
0.0208333333333333
144
0.0
144
0.0
144
0.0
144
0.0
144
1.0
144
0.0
144
0.0
144
0.0
144
0.0
144
1.0
147
0.0208333333333333
147
0.0
147
0.0
147
0.0
147
0.0
147
0.0208333333333333
147
0.0
147
0.0
147
0.0
147
0.0
147
1.0
147
0.0
147
0.0
147
0.0
147
0.0
147
1.0
  0
MLEADERSTYLE
  5
980
102
{ACAD_REACTORS
330
87B
102
}
330
87B
100
AcDbMLeaderStyle
170
     2
171
     1
172
     0
 90
        2
 40
0.0
 41
0.0
173
     1
 91
-1056964608
340
13
 92
       -2
290
     1
 42
0.09
291
     1
 43
0.36
  3
Standard
 44
0.18
300

342
11
174
     1
178
     6
175
     1
176
     0
 93
-1056964608
 45
0.18
292
     0
297
     0
 46
0.18
 94
-1056964608
 47
1.0
 49
1.0
140
1.0
293
     1
141
0.0
294
     1
177
     0
142
1.0
295
     0
296
     0
143
0.125
1001
ACAD_MLEADERVER
1070
     2
  0
MLINESTYLE
  5
17
102
{ACAD_REACTORS
330
16
102
}
330
16
100
AcDbMlineStyle
  2
STANDARD
 70
     0
  3

 62
   256
 51
90.0
 52
90.0
 71
     2
 49
0.5
 62
   256
  6
BYLAYER
 49
-0.5
 62
   256
  6
BYLAYER
  0
ACDBPLACEHOLDER
  5
F
102
{ACAD_REACTORS
330
E
102
}
330
E
  0
SCALE
  5
85A
102
{ACAD_REACTORS
330
859
102
}
330
859
100
AcDbScale
 70
     0
300
1:1
140
1.0
141
1.0
290
     1
  0
SCALE
  5
9DA
102
{ACAD_REACTORS
330
859
102
}
330
859
100
AcDbScale
 70
     0
300
1:2
140
1.0
141
2.0
290
     0
  0
SCALE
  5
9DB
102
{ACAD_REACTORS
330
859
102
}
330
859
100
AcDbScale
 70
     0
300
1:4
140
1.0
141
4.0
290
     0
  0
SCALE
  5
9DC
102
{ACAD_REACTORS
330
859
102
}
330
859
100
AcDbScale
 70
     0
300
1:5
140
1.0
141
5.0
290
     0
  0
SCALE
  5
9DD
102
{ACAD_REACTORS
330
859
102
}
330
859
100
AcDbScale
 70
     0
300
1:8
140
1.0
141
8.0
290
     0
  0
SCALE
  5
9DE
102
{ACAD_REACTORS
330
859
102
}
330
859
100
AcDbScale
 70
     0
300
1:10
140
1.0
141
10.0
290
     0
  0
SCALE
  5
9DF
102
{ACAD_REACTORS
330
859
102
}
330
859
100
AcDbScale
 70
     0
300
1:16
140
1.0
141
16.0
290
     0
  0
SCALE
  5
9E0
102
{ACAD_REACTORS
330
859
102
}
330
859
100
AcDbScale
 70
     0
300
1:20
140
1.0
141
20.0
290
     0
  0
SCALE
  5
9E1
102
{ACAD_REACTORS
330
859
102
}
330
859
100
AcDbScale
 70
     0
300
1:30
140
1.0
141
30.0
290
     0
  0
SCALE
  5
9E2
102
{ACAD_REACTORS
330
859
102
}
330
859
100
AcDbScale
 70
     0
300
1:40
140
1.0
141
40.0
290
     0
  0
SCALE
  5
9E3
102
{ACAD_REACTORS
330
859
102
}
330
859
100
AcDbScale
 70
     0
300
1:50
140
1.0
141
50.0
290
     0
  0
SCALE
  5
9E4
102
{ACAD_REACTORS
330
859
102
}
330
859
100
AcDbScale
 70
     0
300
1:100
140
1.0
141
100.0
290
     0
  0
SCALE
  5
9E5
102
{ACAD_REACTORS
330
859
102
}
330
859
100
AcDbScale
 70
     0
300
2:1
140
2.0
141
1.0
290
     0
  0
SCALE
  5
9E6
102
{ACAD_REACTORS
330
859
102
}
330
859
100
AcDbScale
 70
     0
300
4:1
140
4.0
141
1.0
290
     0
  0
SCALE
  5
9E7
102
{ACAD_REACTORS
330
859
102
}
330
859
100
AcDbScale
 70
     0
300
8:1
140
8.0
141
1.0
290
     0
  0
SCALE
  5
9E8
102
{ACAD_REACTORS
330
859
102
}
330
859
100
AcDbScale
 70
     0
300
10:1
140
10.0
141
1.0
290
     0
  0
SCALE
  5
9E9
102
{ACAD_REACTORS
330
859
102
}
330
859
100
AcDbScale
 70
     0
300
100:1
140
100.0
141
1.0
290
     0
  0
SCALE
  5
9EA
102
{ACAD_REACTORS
330
859
102
}
330
859
100
AcDbScale
 70
     0
300
1/128" = 1'-0"
140
0.0078125
141
12.0
290
     0
  0
SCALE
  5
9EB
102
{ACAD_REACTORS
330
859
102
}
330
859
100
AcDbScale
 70
     0
300
1/64" = 1'-0"
140
0.015625
141
12.0
290
     0
  0
SCALE
  5
9EC
102
{ACAD_REACTORS
330
859
102
}
330
859
100
AcDbScale
 70
     0
300
1/32" = 1'-0"
140
0.03125
141
12.0
290
     0
  0
SCALE
  5
9ED
102
{ACAD_REACTORS
330
859
102
}
330
859
100
AcDbScale
 70
     0
300
1/16" = 1'-0"
140
0.0625
141
12.0
290
     0
  0
SCALE
  5
9EE
102
{ACAD_REACTORS
330
859
102
}
330
859
100
AcDbScale
 70
     0
300
3/32" = 1'-0"
140
0.09375
141
12.0
290
     0
  0
SCALE
  5
9EF
102
{ACAD_REACTORS
330
859
102
}
330
859
100
AcDbScale
 70
     0
300
1/8" = 1'-0"
140
0.125
141
12.0
290
     0
  0
SCALE
  5
9F0
102
{ACAD_REACTORS
330
859
102
}
330
859
100
AcDbScale
 70
     0
300
3/16" = 1'-0"
140
0.1875
141
12.0
290
     0
  0
SCALE
  5
9F1
102
{ACAD_REACTORS
330
859
102
}
330
859
100
AcDbScale
 70
     0
300
1/4" = 1'-0"
140
0.25
141
12.0
290
     0
  0
SCALE
  5
9F2
102
{ACAD_REACTORS
330
859
102
}
330
859
100
AcDbScale
 70
     0
300
3/8" = 1'-0"
140
0.375
141
12.0
290
     0
  0
SCALE
  5
9F3
102
{ACAD_REACTORS
330
859
102
}
330
859
100
AcDbScale
 70
     0
300
1/2" = 1'-0"
140
0.5
141
12.0
290
     0
  0
SCALE
  5
9F4
102
{ACAD_REACTORS
330
859
102
}
330
859
100
AcDbScale
 70
     0
300
3/4" = 1'-0"
140
0.75
141
12.0
290
     0
  0
SCALE
  5
9F5
102
{ACAD_REACTORS
330
859
102
}
330
859
100
AcDbScale
 70
     0
300
1" = 1'-0"
140
1.0
141
12.0
290
     0
  0
SCALE
  5
9F6
102
{ACAD_REACTORS
330
859
102
}
330
859
100
AcDbScale
 70
     0
300
1-1/2" = 1'-0"
140
1.5
141
12.0
290
     0
  0
SCALE
  5
9F7
102
{ACAD_REACTORS
330
859
102
}
330
859
100
AcDbScale
 70
     0
300
3" = 1'-0"
140
3.0
141
12.0
290
     0
  0
SCALE
  5
9F8
102
{ACAD_REACTORS
330
859
102
}
330
859
100
AcDbScale
 70
     0
300
6" = 1'-0"
140
6.0
141
12.0
290
     0
  0
SCALE
  5
9F9
102
{ACAD_REACTORS
330
859
102
}
330
859
100
AcDbScale
 70
     0
300
1'-0" = 1'-0"
140
12.0
141
12.0
290
     0
  0
TABLESTYLE
  5
858
102
{ACAD_XDICTIONARY
360
8DC
102
}
102
{ACAD_REACTORS
330
857
102
}
330
857
100
AcDbTableStyle
  3
Standard
 70
     0
 71
     0
 40
0.06
 41
0.06
280
     0
281
     0
  7
STANDARD
140
0.18
170
     2
 62
     0
 63
     7
283
     0
274
    -2
284
     1
 64
     0
275
    -2
285
     1
 65
     0
276
    -2
286
     1
 66
     0
277
    -2
287
     1
 67
     0
278
    -2
288
     1
 68
     0
279
    -2
289
     1
 69
     0
  7
STANDARD
140
0.25
170
     5
 62
     0
 63
     7
283
     0
274
    -2
284
     1
 64
     0
275
    -2
285
     1
 65
     0
276
    -2
286
     1
 66
     0
277
    -2
287
     1
 67
     0
278
    -2
288
     1
 68
     0
279
    -2
289
     1
 69
     0
  7
STANDARD
140
0.18
170
     5
 62
     0
 63
     7
283
     0
274
    -2
284
     1
 64
     0
275
    -2
285
     1
 65
     0
276
    -2
286
     1
 66
     0
277
    -2
287
     1
 67
     0
278
    -2
288
     1
 68
     0
279
    -2
289
     1
 69
     0
  0
VISUALSTYLE
  5
84B
102
{ACAD_REACTORS
330
845
102
}
330
845
100
AcDbVisualStyle
  2
2dWireframe
 70
     4
 71
     0
 72
     2
 73
     0
 90
        0
 40
-0.6
 41
-30.0
 62
     5
 63
     7
421
 16777215
 74
     1
 91
        4
 64
     7
 65
   257
 75
     1
175
     1
 42
1.0
 92
        0
 66
   257
 43
1.0
 76
     1
 77
     6
 78
     2
 67
     7
 79
     5
170
     0
171
     0
290
     0
174
     0
 93
        1
 44
0.0
173
     0
291
     0
 45
0.0
1001
ACAD
1000
AcDbSavedByObjectVersion
1070
     0
  0
VISUALSTYLE
  5
84D
102
{ACAD_REACTORS
330
845
102
}
330
845
100
AcDbVisualStyle
  2
3D Hidden
 70
     6
 71
     1
 72
     2
 73
     2
 90
        0
 40
-0.6
 41
-30.0
 62
     5
 63
     7
421
 16777215
 74
     2
 91
        2
 64
     7
 65
   257
 75
     2
175
     1
 42
40.0
 92
        0
 66
   257
 43
1.0
 76
     1
 77
     6
 78
     2
 67
     7
 79
     3
170
     0
171
     0
290
     0
174
     0
 93
        1
 44
0.0
173
     0
291
     0
 45
0.0
1001
ACAD
1000
AcDbSavedByObjectVersion
1070
     0
  0
VISUALSTYLE
  5
84C
102
{ACAD_REACTORS
330
845
102
}
330
845
100
AcDbVisualStyle
  2
3dWireframe
 70
     5
 71
     0
 72
     2
 73
     0
 90
        0
 40
-0.6
 41
-30.0
 62
     5
 63
     7
421
 16777215
 74
     1
 91
        4
 64
     7
 65
   257
 75
     1
175
     1
 42
1.0
 92
        0
 66
   257
 43
1.0
 76
     1
 77
     6
 78
     2
 67
     7
 79
     5
170
     0
171
     0
290
     0
174
     0
 93
        1
 44
0.0
173
     0
291
     0
 45
0.0
1001
ACAD
1000
AcDbSavedByObjectVersion
1070
     0
  0
VISUALSTYLE
  5
84A
102
{ACAD_REACTORS
330
845
102
}
330
845
100
AcDbVisualStyle
  2
Basic
 70
     7
 71
     1
 72
     0
 73
     1
 90
        0
 40
-0.6
 41
-30.0
 62
     5
 63
     7
421
 16777215
 74
     0
 91
        4
 64
     7
 65
   257
 75
     1
175
     1
 42
1.0
 92
        8
 66
     7
 43
1.0
 76
     1
 77
     6
 78
     2
 67
     7
 79
     5
170
     0
171
     0
290
     0
174
     0
 93
        1
 44
0.0
173
     0
291
     1
 45
0.0
1001
ACAD
1000
AcDbSavedByObjectVersion
1070
     0
  0
VISUALSTYLE
  5
851
102
{ACAD_REACTORS
330
845
102
}
330
845
100
AcDbVisualStyle
  2
Brighten
 70
    12
 71
     2
 72
     2
 73
     0
 90
        0
 40
-0.6
 41
-30.0
 62
     5
 63
     7
421
 16777215
 74
     1
 91
        4
 64
     7
 65
   257
 75
     1
175
     1
 42
1.0
 92
        8
 66
     7
 43
1.0
 76
     1
 77
     6
 78
     2
 67
     7
 79
     5
170
     0
171
     0
290
     0
174
     0
 93
        1
 44
50.0
173
     0
291
     1
 45
0.0
1001
ACAD
1000
AcDbSavedByObjectVersion
1070
     0
  0
VISUALSTYLE
  5
855
102
{ACAD_REACTORS
330
845
102
}
330
845
100
AcDbVisualStyle
  2
ColorChange
 70
    16
 71
     2
 72
     2
 73
     3
 90
        0
 40
-0.6
 41
-30.0
 62
     5
 63
     8
421
  8421504
 74
     1
 91
        4
 64
     7
 65
   257
 75
     1
175
     1
 42
1.0
 92
        8
 66
     8
424
  8421504
 43
1.0
 76
     1
 77
     6
 78
     2
 67
     7
 79
     5
170
     0
171
     0
290
     0
174
     0
 93
        1
 44
0.0
173
     0
291
     1
 45
0.0
1001
ACAD
1000
AcDbSavedByObjectVersion
1070
     0
  0
VISUALSTYLE
  5
84E
102
{ACAD_REACTORS
330
845
102
}
330
845
100
AcDbVisualStyle
  2
Conceptual
 70
     9
 71
     3
 72
     2
 73
     0
 90
        0
 40
-0.6
 41
-30.0
 62
     5
 63
     7
421
 16777215
 74
     2
 91
        2
 64
     7
 65
   257
 75
     1
175
     1
 42
40.0
 92
        8
 66
     7
 43
1.0
 76
     1
 77
     6
 78
     2
 67
     7
 79
     3
170
     0
171
     0
290
     0
174
     0
 93
        1
 44
0.0
173
     0
291
     0
 45
0.0
1001
ACAD
1000
AcDbSavedByObjectVersion
1070
     0
  0
VISUALSTYLE
  5
850
102
{ACAD_REACTORS
330
845
102
}
330
845
100
AcDbVisualStyle
  2
Dim
 70
    11
 71
     2
 72
     2
 73
     0
 90
        0
 40
-0.6
 41
-30.0
 62
     5
 63
     7
421
 16777215
 74
     1
 91
        4
 64
     7
 65
   257
 75
     1
175
     1
 42
1.0
 92
        8
 66
     7
 43
1.0
 76
     1
 77
     6
 78
     2
 67
     7
 79
     5
170
     0
171
     0
290
     0
174
     0
 93
        1
 44
-50.0
173
     0
291
     1
 45
0.0
1001
ACAD
1000
AcDbSavedByObjectVersion
1070
     0
  0
VISUALSTYLE
  5
854
102
{ACAD_REACTORS
330
845
102
}
330
845
100
AcDbVisualStyle
  2
Facepattern
 70
    15
 71
     2
 72
     2
 73
     0
 90
        0
 40
-0.6
 41
-30.0
 62
     5
 63
     7
421
 16777215
 74
     1
 91
        4
 64
     7
 65
   257
 75
     1
175
     1
 42
1.0
 92
        8
 66
     7
 43
1.0
 76
     1
 77
     6
 78
     2
 67
     7
 79
     5
170
     0
171
     0
290
     0
174
     0
 93
        1
 44
0.0
173
     0
291
     1
 45
0.0
1001
ACAD
1000
AcDbSavedByObjectVersion
1070
     0
  0
VISUALSTYLE
  5
846
102
{ACAD_REACTORS
330
845
102
}
330
845
100
AcDbVisualStyle
  2
Flat
 70
     0
 71
     2
 72
     1
 73
     1
 90
        2
 40
-0.6
 41
30.0
 62
     5
 63
     7
421
 16777215
 74
     0
 91
        4
 64
     7
 65
   257
 75
     1
175
     1
 42
1.0
 92
        8
 66
     7
 43
1.0
 76
     1
 77
     6
 78
     2
 67
     7
 79
     5
170
     0
171
     0
290
     0
174
     0
 93
       13
 44
0.0
173
     0
291
     1
 45
0.0
1001
ACAD
1000
AcDbSavedByObjectVersion
1070
     0
  0
VISUALSTYLE
  5
847
102
{ACAD_REACTORS
330
845
102
}
330
845
100
AcDbVisualStyle
  2
FlatWithEdges
 70
     1
 71
     2
 72
     1
 73
     1
 90
        2
 40
-0.6
 41
30.0
 62
     5
 63
     7
421
 16777215
 74
     1
 91
        4
 64
     7
 65
   257
 75
     1
175
     1
 42
1.0
 92
        0
 66
   257
 43
1.0
 76
     1
 77
     6
 78
     2
 67
     7
 79
     5
170
     0
171
     0
290
     0
174
     0
 93
       13
 44
0.0
173
     0
291
     1
 45
0.0
1001
ACAD
1000
AcDbSavedByObjectVersion
1070
     0
  0
VISUALSTYLE
  5
848
102
{ACAD_REACTORS
330
845
102
}
330
845
100
AcDbVisualStyle
  2
Gouraud
 70
     2
 71
     2
 72
     2
 73
     1
 90
        2
 40
-0.6
 41
30.0
 62
     5
 63
     7
421
 16777215
 74
     0
 91
        4
 64
     7
 65
   257
 75
     1
175
     1
 42
1.0
 92
        0
 66
     7
 43
1.0
 76
     1
 77
     6
 78
     2
 67
     7
 79
     5
170
     0
171
     0
290
     0
174
     0
 93
       13
 44
0.0
173
     0
291
     1
 45
0.0
1001
ACAD
1000
AcDbSavedByObjectVersion
1070
     0
  0
VISUALSTYLE
  5
849
102
{ACAD_REACTORS
330
845
102
}
330
845
100
AcDbVisualStyle
  2
GouraudWithEdges
 70
     3
 71
     2
 72
     2
 73
     1
 90
        2
 40
-0.6
 41
30.0
 62
     5
 63
     7
421
 16777215
 74
     1
 91
        4
 64
     7
 65
   257
 75
     1
175
     1
 42
1.0
 92
        0
 66
   257
 43
1.0
 76
     1
 77
     6
 78
     2
 67
     7
 79
     5
170
     0
171
     0
290
     0
174
     0
 93
       13
 44
0.0
173
     0
291
     1
 45
0.0
1001
ACAD
1000
AcDbSavedByObjectVersion
1070
     0
  0
VISUALSTYLE
  5
853
102
{ACAD_REACTORS
330
845
102
}
330
845
100
AcDbVisualStyle
  2
Linepattern
 70
    14
 71
     2
 72
     2
 73
     0
 90
        0
 40
-0.6
 41
-30.0
 62
     5
 63
     7
421
 16777215
 74
     1
 91
        4
 64
     7
 65
   257
 75
     7
175
     7
 42
1.0
 92
        8
 66
     7
 43
1.0
 76
     1
 77
     6
 78
     2
 67
     7
 79
     5
170
     0
171
     0
290
     0
174
     0
 93
        1
 44
0.0
173
     0
291
     1
 45
0.0
1001
ACAD
1000
AcDbSavedByObjectVersion
1070
     0
  0
VISUALSTYLE
  5
84F
102
{ACAD_REACTORS
330
845
102
}
330
845
100
AcDbVisualStyle
  2
Realistic
 70
     8
 71
     2
 72
     2
 73
     0
 90
        0
 40
-0.6
 41
-30.0
 62
     5
 63
     7
421
 16777215
 74
     1
 91
        0
 64
     7
 65
   257
 75
     1
175
     1
 42
1.0
 92
        8
 66
     8
424
  7895160
 43
1.0
 76
     1
 77
     6
 78
     2
 67
     7
 79
     5
170
     0
171
     0
290
     0
174
     0
 93
       13
 44
0.0
173
     0
291
     0
 45
0.0
1001
ACAD
1000
AcDbSavedByObjectVersion
1070
     0
  0
VISUALSTYLE
  5
852
102
{ACAD_REACTORS
330
845
102
}
330
845
100
AcDbVisualStyle
  2
Thicken
 70
    13
 71
     2
 72
     2
 73
     0
 90
        0
 40
-0.6
 41
-30.0
 62
     5
 63
     7
421
 16777215
 74
     1
 91
        4
 64
     7
 65
   257
 75
     1
175
     1
 42
1.0
 92
       12
 66
     7
 43
1.0
 76
     1
 77
     6
 78
     2
 67
     7
 79
     5
170
     0
171
     0
290
     0
174
     0
 93
        1
 44
0.0
173
     0
291
     1
 45
0.0
1001
ACAD
1000
AcDbSavedByObjectVersion
1070
     0
  0
DICTIONARYVAR
  5
8E2
102
{ACAD_REACTORS
330
215
102
}
330
215
100
DictionaryVariables
280
     0
  1
1:1
  0
DICTIONARYVAR
  5
8E0
102
{ACAD_REACTORS
330
215
102
}
330
215
100
DictionaryVariables
280
     0
  1
STANDARD
  0
DICTIONARYVAR
  5
8DF
102
{ACAD_REACTORS
330
215
102
}
330
215
100
DictionaryVariables
280
     0
  1
STANDARD
  0
DICTIONARYVAR
  5
218
102
{ACAD_REACTORS
330
215
102
}
330
215
100
DictionaryVariables
280
     0
  1
1
  0
DICTIONARYVAR
  5
217
102
{ACAD_REACTORS
330
215
102
}
330
215
100
DictionaryVariables
280
     0
  1
1
  0
DICTIONARYVAR
  5
8E4
102
{ACAD_REACTORS
330
215
102
}
330
215
100
DictionaryVariables
280
     0
  1
0
  0
DICTIONARYVAR
  5
8E3
102
{ACAD_REACTORS
330
215
102
}
330
215
100
DictionaryVariables
280
     0
  1
0
  0
DICTIONARYVAR
  5
8E1
102
{ACAD_REACTORS
330
215
102
}
330
215
100
DictionaryVariables
280
     0
  1
0
  0
DICTIONARYVAR
  5
216
102
{ACAD_REACTORS
330
215
102
}
330
215
100
DictionaryVariables
280
     0
  1
1
  0
XRECORD
  5
9D1
102
{ACAD_REACTORS
330
9CE
102
}
330
9CE
100
AcDbXrecord
280
     1
  1
_0100-
  1
*0100-*
  1
*
  1
*
 70
     0
  1
*
  1
*
  0
XRECORD
  5
9D0
102
{ACAD_REACTORS
330
9CE
102
}
330
9CE
100
AcDbXrecord
280
     1
  1
_0280-
  1
*0280-*
  1
*
  1
*
 70
     0
  1
*
  1
*
  0
XRECORD
  5
9D4
102
{ACAD_REACTORS
330
9CE
102
}
330
9CE
100
AcDbXrecord
280
     1
  1
_Color 253
  1
*
  1
253
  1
*
 70
     0
  1
*
  1
*
  0
XRECORD
  5
9D2
102
{ACAD_REACTORS
330
9CE
102
}
330
9CE
100
AcDbXrecord
280
     1
  1
_Color 8
  1
*
  1
8
  1
*
 70
     0
  1
*
  1
*
  0
XRECORD
  5
9D3
102
{ACAD_REACTORS
330
9CE
102
}
330
9CE
100
AcDbXrecord
280
     1
  1
_Color 84
  1
*
  1
84
  1
*
 70
     0
  1
*
  1
*
  0
XRECORD
  5
9D9
102
{ACAD_REACTORS
330
9CE
102
}
330
9CE
100
AcDbXrecord
280
     1
  1
_Contours
  1
*contour*,*cont-*,*cp cont*,*p-cont*
  1
*
  1
*
 70
     0
  1
*
  1
*
  0
XRECORD
  5
9D5
102
{ACAD_REACTORS
330
9CE
102
}
330
9CE
100
AcDbXrecord
280
     1
  1
_Existing
  1
*exist*
  1
*
  1
*
 70
     0
  1
*
  1
*
  0
XRECORD
  5
9D8
102
{ACAD_REACTORS
330
9CE
102
}
330
9CE
100
AcDbXrecord
280
     1
  1
_Hardscape
  1
*sidewalk*,*sw*,*curb*,*walk*,*-lip*,*tbc*
  1
*
  1
*
 70
     0
  1
*
  1
*
  0
XRECORD
  5
9CF
102
{ACAD_REACTORS
330
9CE
102
}
330
9CE
100
AcDbXrecord
280
     1
  1
_NoXref
  1
~*|*
  1
*
  1
*
 70
     0
  1
*
  1
*
  0
XRECORD
  5
9D6
102
{ACAD_REACTORS
330
9CE
102
}
330
9CE
100
AcDbXrecord
280
     1
  1
_Row
  1
*row*
  1
*
  1
*
 70
     0
  1
*
  1
*
  0
XRECORD
  5
9D7
102
{ACAD_REACTORS
330
9CE
102
}
330
9CE
100
AcDbXrecord
280
     1
  1
_Utility
  1
*ut-*,*utility*,*wat*
  1
*
  1
*
 70
     0
  1
*
  1
*
  0
DICTIONARY
  5
836
330
835
100
AcDbDictionary
280
     1
281
     1
  3
ACAD_XREC_ROUNDTRIP
360
9FD
  3
BUMPTILE
360
838
  3
DIFFUSETILE
360
837
  3
OPACITYTILE
360
83B
  3
REFLECTIONTILE
360
83A
  3
REFRACTIONTILE
360
83C
  3
SPECULARTILE
360
839
  0
DICTIONARY
  5
82E
330
82D
100
AcDbDictionary
280
     1
281
     1
  3
ACAD_XREC_ROUNDTRIP
360
9FC
  3
BUMPTILE
360
830
  3
DIFFUSETILE
360
82F
  3
OPACITYTILE
360
833
  3
REFLECTIONTILE
360
832
  3
REFRACTIONTILE
360
834
  3
SPECULARTILE
360
831
  0
DICTIONARY
  5
83E
330
83D
100
AcDbDictionary
280
     1
281
     1
  3
ACAD_XREC_ROUNDTRIP
360
9FE
  3
BUMPTILE
360
840
  3
DIFFUSETILE
360
83F
  3
OPACITYTILE
360
843
  3
REFLECTIONTILE
360
842
  3
REFRACTIONTILE
360
844
  3
SPECULARTILE
360
841
  0
DICTIONARY
  5
8DC
330
858
100
AcDbDictionary
280
     1
281
     1
  3
ACAD_ROUNDTRIP_2008_TABLESTYLE_CELLSTYLEMAP
360
9FB
  3
ACAD_XREC_ROUNDTRIP
360
9FF
  0
XRECORD
  5
9FD
102
{ACAD_REACTORS
330
836
102
}
330
836
100
AcDbXrecord
280
     1
102
MATERIAL
148
0.0
149
0.0
149
0.0
 93
        0
 94
      127
282
     0
 72
     0
 77
     0
171
     0
175
     0
179
     0
273
     0
  0
XRECORD
  5
838
102
{ACAD_REACTORS
330
836
102
}
330
836
100
AcDbXrecord
280
     1
270
     1
271
     1
  0
XRECORD
  5
837
102
{ACAD_REACTORS
330
836
102
}
330
836
100
AcDbXrecord
280
     1
270
     1
271
     1
  0
XRECORD
  5
83B
102
{ACAD_REACTORS
330
836
102
}
330
836
100
AcDbXrecord
280
     1
270
     1
271
     1
  0
XRECORD
  5
83A
102
{ACAD_REACTORS
330
836
102
}
330
836
100
AcDbXrecord
280
     1
270
     1
271
     1
  0
XRECORD
  5
83C
102
{ACAD_REACTORS
330
836
102
}
330
836
100
AcDbXrecord
280
     1
270
     1
271
     1
  0
XRECORD
  5
839
102
{ACAD_REACTORS
330
836
102
}
330
836
100
AcDbXrecord
280
     1
270
     1
271
     1
  0
XRECORD
  5
9FC
102
{ACAD_REACTORS
330
82E
102
}
330
82E
100
AcDbXrecord
280
     1
102
MATERIAL
148
0.0
149
0.0
149
0.0
 93
        0
 94
      127
282
     0
 72
     0
 77
     0
171
     0
175
     0
179
     0
273
     0
  0
XRECORD
  5
830
102
{ACAD_REACTORS
330
82E
102
}
330
82E
100
AcDbXrecord
280
     1
270
     1
271
     1
  0
XRECORD
  5
82F
102
{ACAD_REACTORS
330
82E
102
}
330
82E
100
AcDbXrecord
280
     1
270
     1
271
     1
  0
XRECORD
  5
833
102
{ACAD_REACTORS
330
82E
102
}
330
82E
100
AcDbXrecord
280
     1
270
     1
271
     1
  0
XRECORD
  5
832
102
{ACAD_REACTORS
330
82E
102
}
330
82E
100
AcDbXrecord
280
     1
270
     1
271
     1
  0
XRECORD
  5
834
102
{ACAD_REACTORS
330
82E
102
}
330
82E
100
AcDbXrecord
280
     1
270
     1
271
     1
  0
XRECORD
  5
831
102
{ACAD_REACTORS
330
82E
102
}
330
82E
100
AcDbXrecord
280
     1
270
     1
271
     1
  0
XRECORD
  5
9FE
102
{ACAD_REACTORS
330
83E
102
}
330
83E
100
AcDbXrecord
280
     1
102
MATERIAL
148
0.0
149
0.0
149
0.0
 93
        0
 94
      127
282
     0
 72
     0
 77
     0
171
     0
175
     0
179
     0
273
     0
  0
XRECORD
  5
840
102
{ACAD_REACTORS
330
83E
102
}
330
83E
100
AcDbXrecord
280
     1
270
     1
271
     1
  0
XRECORD
  5
83F
102
{ACAD_REACTORS
330
83E
102
}
330
83E
100
AcDbXrecord
280
     1
270
     1
271
     1
  0
XRECORD
  5
843
102
{ACAD_REACTORS
330
83E
102
}
330
83E
100
AcDbXrecord
280
     1
270
     1
271
     1
  0
XRECORD
  5
842
102
{ACAD_REACTORS
330
83E
102
}
330
83E
100
AcDbXrecord
280
     1
270
     1
271
     1
  0
XRECORD
  5
844
102
{ACAD_REACTORS
330
83E
102
}
330
83E
100
AcDbXrecord
280
     1
270
     1
271
     1
  0
XRECORD
  5
841
102
{ACAD_REACTORS
330
83E
102
}
330
83E
100
AcDbXrecord
280
     1
270
     1
271
     1
  0
CELLSTYLEMAP
  5
9FB
102
{ACAD_REACTORS
330
8DC
102
}
330
8DC
100
AcDbCellStyleMap
 90
        3
300
CELLSTYLE
  1
TABLEFORMAT_BEGIN
 90
        5
170
     1
 91
        0
 92
    32768
 62
   257
 93
        1
300
CONTENTFORMAT
  1
CONTENTFORMAT_BEGIN
 90
        0
 91
        0
 92
      512
 93
        0
300

 40
0.0
140
1.0
 94
        5
 62
     0
340
11
144
0.25
309
CONTENTFORMAT_END
171
     0
 94
        0
309
TABLEFORMAT_END
  1
CELLSTYLE_BEGIN
 90
        1
 91
        1
300
_TITLE
309
CELLSTYLE_END
300
CELLSTYLE
  1
TABLEFORMAT_BEGIN
 90
        5
170
     1
 91
        0
 92
        0
 62
   257
 93
        1
300
CONTENTFORMAT
  1
CONTENTFORMAT_BEGIN
 90
        0
 91
        0
 92
      512
 93
        0
300

 40
0.0
140
1.0
 94
        5
 62
     0
340
11
144
0.18
309
CONTENTFORMAT_END
171
     0
 94
        0
309
TABLEFORMAT_END
  1
CELLSTYLE_BEGIN
 90
        2
 91
        1
300
_HEADER
309
CELLSTYLE_END
300
CELLSTYLE
  1
TABLEFORMAT_BEGIN
 90
        5
170
     1
 91
        0
 92
        0
 62
   257
 93
        1
300
CONTENTFORMAT
  1
CONTENTFORMAT_BEGIN
 90
        0
 91
        0
 92
      512
 93
        0
300

 40
0.0
140
1.0
 94
        2
 62
     0
340
11
144
0.18
309
CONTENTFORMAT_END
171
     0
 94
        0
309
TABLEFORMAT_END
  1
CELLSTYLE_BEGIN
 90
        3
 91
        2
300
_DATA
309
CELLSTYLE_END
  0
XRECORD
  5
9FF
102
{ACAD_REACTORS
330
8DC
102
}
330
8DC
100
AcDbXrecord
280
     1
102
ACAD_ROUNDTRIP_PRE2007_TABLESTYLE
 90
      512
 91
        0
  1

 92
      512
 93
        0
  2

 94
      512
 95
        0
  3

  0
ENDSEC
  0
EOF
