  0
SECTION
  2
HEADER
  9
$ACADVER
  1
AC1018
  9
$ACADMAINTVER
 70
   104
  9
$DWGCODEPAGE
  3
ANSI_1252
  9
$TITLE
  1
O:\RAINBIRD\Details 2008\Rotary Nozzles\S-1806Rotary-SP.DWG
  9
$AUTHOR
  1
dweyer
  9
$COMMENTS
  1
This drawing was opened and saved by 'dweyer' with AutoCAD version 17.1 using profile WatermarkID on 07-01-2008-08:56
  9
$LASTSAVEDBY
  1
dweyer
  9
$INSBASE
 10
0.0
 20
0.0
 30
0.0
  9
$EXTMIN
 10
-0.0916749879134358
 20
-0.097854729324645
 30
0.0
  9
$EXTMAX
 10
16.39832501208656
 20
10.34214527067535
 30
0.03
  9
$LIMMIN
 10
0.0
 20
0.0
  9
$LIMMAX
 10
12.0
 20
9.0
  9
$ORTHOMODE
 70
     1
  9
$REGENMODE
 70
     1
  9
$FILLMODE
 70
     1
  9
$QTEXTMODE
 70
     0
  9
$MIRRTEXT
 70
     0
  9
$LTSCALE
 40
1.0
  9
$ATTMODE
 70
     1
  9
$TEXTSIZE
 40
0.1
  9
$TRACEWID
 40
0.05
  9
$TEXTSTYLE
  7
SIMPLEX
  9
$CLAYER
  8
0
  9
$CELTYPE
  6
ByLayer
  9
$CECOLOR
 62
   256
  9
$CELTSCALE
 40
1.0
  9
$DISPSILH
 70
     0
  9
$DIMSCALE
 40
1.0
  9
$DIMASZ
 40
0.18
  9
$DIMEXO
 40
0.0625
  9
$DIMDLI
 40
0.38
  9
$DIMRND
 40
0.0
  9
$DIMDLE
 40
0.0
  9
$DIMEXE
 40
0.125
  9
$DIMTP
 40
0.0
  9
$DIMTM
 40
0.0
  9
$DIMTXT
 40
0.125
  9
$DIMCEN
 40
0.09
  9
$DIMTSZ
 40
0.0
  9
$DIMTOL
 70
     0
  9
$DIMLIM
 70
     0
  9
$DIMTIH
 70
     1
  9
$DIMTOH
 70
     1
  9
$DIMSE1
 70
     0
  9
$DIMSE2
 70
     0
  9
$DIMTAD
 70
     0
  9
$DIMZIN
 70
     0
  9
$DIMBLK
  1

  9
$DIMASO
 70
     1
  9
$DIMSHO
 70
     1
  9
$DIMPOST
  1

  9
$DIMAPOST
  1

  9
$DIMALT
 70
     0
  9
$DIMALTD
 70
     2
  9
$DIMALTF
 40
25.4
  9
$DIMLFAC
 40
1.0
  9
$DIMTOFL
 70
     0
  9
$DIMTVP
 40
0.0
  9
$DIMTIX
 70
     0
  9
$DIMSOXD
 70
     0
  9
$DIMSAH
 70
     0
  9
$DIMBLK1
  1

  9
$DIMBLK2
  1

  9
$DIMSTYLE
  2
STANDARD
  9
$DIMCLRD
 70
   256
  9
$DIMCLRE
 70
   256
  9
$DIMCLRT
 70
   256
  9
$DIMTFAC
 40
1.0
  9
$DIMGAP
 40
0.09
  9
$DIMJUST
 70
     0
  9
$DIMSD1
 70
     0
  9
$DIMSD2
 70
     0
  9
$DIMTOLJ
 70
     1
  9
$DIMTZIN
 70
     0
  9
$DIMALTZ
 70
     0
  9
$DIMALTTZ
 70
     0
  9
$DIMUPT
 70
     0
  9
$DIMDEC
 70
     4
  9
$DIMTDEC
 70
     4
  9
$DIMALTU
 70
     2
  9
$DIMALTTD
 70
     2
  9
$DIMTXSTY
  7
STANDARD
  9
$DIMAUNIT
 70
     0
  9
$DIMADEC
 70
     0
  9
$DIMALTRND
 40
0.0
  9
$DIMAZIN
 70
     0
  9
$DIMDSEP
 70
    46
  9
$DIMATFIT
 70
     3
  9
$DIMFRAC
 70
     0
  9
$DIMLDRBLK
  1

  9
$DIMLUNIT
 70
     2
  9
$DIMLWD
 70
    -1
  9
$DIMLWE
 70
    -1
  9
$DIMTMOVE
 70
     2
  9
$LUNITS
 70
     2
  9
$LUPREC
 70
     3
  9
$SKETCHINC
 40
0.1
  9
$FILLETRAD
 40
0.0
  9
$AUNITS
 70
     0
  9
$AUPREC
 70
     0
  9
$MENU
  1
ACAD
  9
$ELEVATION
 40
0.0
  9
$PELEVATION
 40
0.0
  9
$THICKNESS
 40
0.0
  9
$LIMCHECK
 70
     0
  9
$CHAMFERA
 40
0.0
  9
$CHAMFERB
 40
0.0
  9
$CHAMFERC
 40
0.0
  9
$CHAMFERD
 40
0.0
  9
$SKPOLY
 70
     0
  9
$TDCREATE
 40
2451471.427491794
  9
$TDUCREATE
 40
2451471.677491794
  9
$TDUPDATE
 40
2454649.373010521
  9
$TDUUPDATE
 40
2454649.623010521
  9
$TDINDWG
 40
0.2554973148
  9
$TDUSRTIMER
 40
0.2554973148
  9
$USRTIMER
 70
     1
  9
$ANGBASE
 50
0.0
  9
$ANGDIR
 70
     0
  9
$PDMODE
 70
     0
  9
$PDSIZE
 40
0.0
  9
$PLINEWID
 40
0.0
  9
$SPLFRAME
 70
     0
  9
$SPLINETYPE
 70
     6
  9
$SPLINESEGS
 70
     8
  9
$HANDSEED
  5
AEA
  9
$SURFTAB1
 70
     6
  9
$SURFTAB2
 70
     6
  9
$SURFTYPE
 70
     6
  9
$SURFU
 70
     6
  9
$SURFV
 70
     6
  9
$UCSBASE
  2

  9
$UCSNAME
  2

  9
$UCSORG
 10
0.0
 20
0.0
 30
0.0
  9
$UCSXDIR
 10
1.0
 20
0.0
 30
0.0
  9
$UCSYDIR
 10
0.0
 20
1.0
 30
0.0
  9
$UCSORTHOREF
  2

  9
$UCSORTHOVIEW
 70
     0
  9
$UCSORGTOP
 10
0.0
 20
0.0
 30
0.0
  9
$UCSORGBOTTOM
 10
0.0
 20
0.0
 30
0.0
  9
$UCSORGLEFT
 10
0.0
 20
0.0
 30
0.0
  9
$UCSORGRIGHT
 10
0.0
 20
0.0
 30
0.0
  9
$UCSORGFRONT
 10
0.0
 20
0.0
 30
0.0
  9
$UCSORGBACK
 10
0.0
 20
0.0
 30
0.0
  9
$PUCSBASE
  2

  9
$PUCSNAME
  2

  9
$PUCSORG
 10
0.0
 20
0.0
 30
0.0
  9
$PUCSXDIR
 10
1.0
 20
0.0
 30
0.0
  9
$PUCSYDIR
 10
0.0
 20
1.0
 30
0.0
  9
$PUCSORTHOREF
  2

  9
$PUCSORTHOVIEW
 70
     0
  9
$PUCSORGTOP
 10
0.0
 20
0.0
 30
0.0
  9
$PUCSORGBOTTOM
 10
0.0
 20
0.0
 30
0.0
  9
$PUCSORGLEFT
 10
0.0
 20
0.0
 30
0.0
  9
$PUCSORGRIGHT
 10
0.0
 20
0.0
 30
0.0
  9
$PUCSORGFRONT
 10
0.0
 20
0.0
 30
0.0
  9
$PUCSORGBACK
 10
0.0
 20
0.0
 30
0.0
  9
$USERI1
 70
     0
  9
$USERI2
 70
     0
  9
$USERI3
 70
     0
  9
$USERI4
 70
     0
  9
$USERI5
 70
     0
  9
$USERR1
 40
0.0
  9
$USERR2
 40
0.0
  9
$USERR3
 40
0.0
  9
$USERR4
 40
0.0
  9
$USERR5
 40
0.0
  9
$WORLDVIEW
 70
     1
  9
$SHADEDGE
 70
     3
  9
$SHADEDIF
 70
    70
  9
$TILEMODE
 70
     1
  9
$MAXACTVP
 70
    16
  9
$PINSBASE
 10
0.0
 20
0.0
 30
0.0
  9
$PLIMCHECK
 70
     0
  9
$PEXTMIN
 10
1.000000000000000E+20
 20
1.000000000000000E+20
 30
1.000000000000000E+20
  9
$PEXTMAX
 10
-1.000000000000000E+20
 20
-1.000000000000000E+20
 30
-1.000000000000000E+20
  9
$PLIMMIN
 10
0.0
 20
0.0
  9
$PLIMMAX
 10
12.0
 20
9.0
  9
$UNITMODE
 70
     0
  9
$VISRETAIN
 70
     0
  9
$PLINEGEN
 70
     1
  9
$PSLTSCALE
 70
     1
  9
$TREEDEPTH
 70
  3020
  9
$CMLSTYLE
  2
Standard
  9
$CMLJUST
 70
     0
  9
$CMLSCALE
 40
1.0
  9
$PROXYGRAPHICS
 70
     1
  9
$MEASUREMENT
 70
     0
  9
$CELWEIGHT
370
    -1
  9
$ENDCAPS
280
     0
  9
$JOINSTYLE
280
     0
  9
$LWDISPLAY
290
     0
  9
$INSUNITS
 70
     0
  9
$HYPERLINKBASE
  1

  9
$STYLESHEET
  1
color.ctb
  9
$XEDIT
290
     1
  9
$CEPSNTYPE
380
     0
  9
$PSTYLEMODE
290
     1
  9
$FINGERPRINTGUID
  2
{DFE79B52-4250-426E-9501-C259CDBF9C92}
  9
$VERSIONGUID
  2
{DC89C9CF-CE99-41D8-AC87-0B7ACF2EC84E}
  9
$EXTNAMES
290
     1
  9
$PSVPSCALE
 40
0.0
  9
$OLESTARTUP
290
     1
  9
$SORTENTS
280
   112
  9
$INDEXCTL
280
     0
  9
$HIDETEXT
280
     1
  9
$XCLIPFRAME
290
     0
  9
$HALOGAP
280
     0
  9
$OBSCOLOR
 70
   257
  9
$OBSLTYPE
280
     0
  9
$INTERSECTIONDISPLAY
280
     0
  9
$INTERSECTIONCOLOR
 70
   257
  9
$DIMASSOC
280
     1
  9
$PROJECTNAME
  1

  0
ENDSEC
  0
SECTION
  2
CLASSES
  0
CLASS
  1
ACDBDICTIONARYWDFLT
  2
AcDbDictionaryWithDefault
  3
ObjectDBX Classes
 90
        0
 91
        1
280
     0
281
     0
  0
CLASS
  1
DICTIONARYVAR
  2
AcDbDictionaryVar
  3
ObjectDBX Classes
 90
        0
 91
        9
280
     0
281
     0
  0
CLASS
  1
MATERIAL
  2
AcDbMaterial
  3
ObjectDBX Classes
 90
     1153
 91
        3
280
     0
281
     0
  0
CLASS
  1
VISUALSTYLE
  2
AcDbVisualStyle
  3
ObjectDBX Classes
 90
     4095
 91
       16
280
     0
281
     0
  0
CLASS
  1
TABLESTYLE
  2
AcDbTableStyle
  3
ObjectDBX Classes
 90
     4095
 91
        1
280
     0
281
     0
  0
CLASS
  1
SCALE
  2
AcDbScale
  3
ObjectDBX Classes
 90
     1153
 91
       65
280
     0
281
     0
  0
CLASS
  1
MLEADERSTYLE
  2
AcDbMLeaderStyle
  3
ACDB_MLEADERSTYLE_CLASS
 90
     4095
 91
        1
280
     0
281
     0
  0
CLASS
  1
EXACXREFPANELOBJECT
  2
ExAcXREFPanelObject
  3
EXAC_ESW
 90
     1025
 91
        1
280
     0
281
     0
  0
CLASS
  1
NPOCOLLECTION
  2
AcDbImpNonPersistentObjectsCollection
  3
ObjectDBX Classes
 90
     1153
 91
        1
280
     0
281
     0
  0
CLASS
  1
CELLSTYLEMAP
  2
AcDbCellStyleMap
  3
ObjectDBX Classes
 90
     1152
 91
        2
280
     0
281
     0
  0
CLASS
  1
PLOTSETTINGS
  2
AcDbPlotSettings
  3
ObjectDBX Classes
 90
        0
 91
       89
280
     0
281
     0
  0
ENDSEC
  0
SECTION
  2
TABLES
  0
TABLE
  2
VPORT
  5
4CA
330
0
100
AcDbSymbolTable
 70
     1
  0
VPORT
  5
8B3
330
4CA
100
AcDbSymbolTableRecord
100
AcDbViewportTableRecord
  2
*Active
 70
     0
 10
0.0
 20
0.0
 11
1.0
 21
1.0
 12
8.153325012086559
 22
5.122145270675354
 13
0.0
 23
0.0
 14
0.14
 24
0.14
 15
0.0
 25
0.0
 16
0.0
 26
0.0
 36
1.0
 17
0.0
 27
0.0
 37
0.0
 40
10.5244204851752
 41
2.15519568151147
 42
50.0
 43
0.0
 44
0.0
 50
0.0
 51
0.0
 71
     0
 72
  4000
 73
     1
 74
     1
 75
     0
 76
     0
 77
     0
 78
     0
281
     0
 65
     1
110
0.0
120
0.0
130
0.0
111
1.0
121
0.0
131
0.0
112
0.0
122
1.0
132
0.0
 79
     0
146
0.0
  0
ENDTAB
  0
TABLE
  2
LTYPE
  5
4C7
330
0
100
AcDbSymbolTable
 70
     1
  0
LTYPE
  5
4D5
330
4C7
100
AcDbSymbolTableRecord
100
AcDbLinetypeTableRecord
  2
ByBlock
 70
     0
  3

 72
    65
 73
     0
 40
0.0
  0
LTYPE
  5
4D6
330
4C7
100
AcDbSymbolTableRecord
100
AcDbLinetypeTableRecord
  2
ByLayer
 70
     0
  3

 72
    65
 73
     0
 40
0.0
  0
LTYPE
  5
4D7
330
4C7
100
AcDbSymbolTableRecord
100
AcDbLinetypeTableRecord
  2
CONTINUOUS
 70
     0
  3
Solid line
 72
    65
 73
     0
 40
0.0
  0
ENDTAB
  0
TABLE
  2
LAYER
  5
4C4
102
{ACAD_XDICTIONARY
360
51F
102
}
330
0
100
AcDbSymbolTable
 70
    14
  0
LAYER
  5
4D2
330
4C4
100
AcDbSymbolTableRecord
100
AcDbLayerTableRecord
  2
0
 70
     0
 62
     7
  6
CONTINUOUS
370
    -3
390
4D1
  0
LAYER
  5
4EB
330
4C4
100
AcDbSymbolTableRecord
100
AcDbLayerTableRecord
  2
text_bubbles
 70
     0
 62
     6
  6
CONTINUOUS
370
    -3
390
4D1
  0
LAYER
  5
4EC
330
4C4
100
AcDbSymbolTableRecord
100
AcDbLayerTableRecord
  2
image
 70
     0
 62
     7
  6
CONTINUOUS
370
    -3
390
4D1
  0
LAYER
  5
4EF
330
4C4
100
AcDbSymbolTableRecord
100
AcDbLayerTableRecord
  2
text_leaders
 70
     1
 62
    -5
  6
CONTINUOUS
370
    -3
390
4D1
  0
LAYER
  5
4F0
330
4C4
100
AcDbSymbolTableRecord
100
AcDbLayerTableRecord
  2
instruct-option
 70
     0
 62
     7
  6
CONTINUOUS
370
    -3
390
4D1
  0
LAYER
  5
4F1
330
4C4
100
AcDbSymbolTableRecord
100
AcDbLayerTableRecord
  2
instruct-callout
 70
     0
 62
     4
  6
CONTINUOUS
370
    -3
390
4D1
  0
LAYER
  5
4F7
330
4C4
100
AcDbSymbolTableRecord
100
AcDbLayerTableRecord
  2
option-sam
 70
     1
 62
     1
  6
CONTINUOUS
370
    -3
390
4D1
  0
LAYER
  5
503
330
4C4
100
AcDbSymbolTableRecord
100
AcDbLayerTableRecord
  2
text-sa-leaders
 70
     1
 62
     1
  6
CONTINUOUS
370
    -3
390
4D1
  0
LAYER
  5
504
330
4C4
100
AcDbSymbolTableRecord
100
AcDbLayerTableRecord
  2
text-sa-bubbles
 70
     1
 62
     1
  6
CONTINUOUS
370
    -3
390
4D1
  0
LAYER
  5
505
330
4C4
100
AcDbSymbolTableRecord
100
AcDbLayerTableRecord
  2
option_sa
 70
     1
 62
     1
  6
CONTINUOUS
370
    -3
390
4D1
  0
LAYER
  5
506
330
4C4
100
AcDbSymbolTableRecord
100
AcDbLayerTableRecord
  2
text-rb-sa-bubbles
 70
     0
 62
     1
  6
CONTINUOUS
370
    -3
390
4D1
  0
LAYER
  5
507
330
4C4
100
AcDbSymbolTableRecord
100
AcDbLayerTableRecord
  2
option_rb_sa
 70
     0
 62
     1
  6
CONTINUOUS
370
    -3
390
4D1
  0
LAYER
  5
508
330
4C4
100
AcDbSymbolTableRecord
100
AcDbLayerTableRecord
  2
text-rb-sa-leaders
 70
     1
 62
     1
  6
CONTINUOUS
370
    -3
390
4D1
  0
LAYER
  5
51E
330
4C4
100
AcDbSymbolTableRecord
100
AcDbLayerTableRecord
  2
title
 70
     0
 62
     4
  6
CONTINUOUS
370
    -3
390
4D1
  0
ENDTAB
  0
TABLE
  2
STYLE
  5
4C5
330
0
100
AcDbSymbolTable
 70
     6
  0
STYLE
  5
4D3
330
4C5
100
AcDbSymbolTableRecord
100
AcDbTextStyleTableRecord
  2
STANDARD
 70
     0
 40
0.0
 41
1.0
 50
0.0
 71
     0
 42
0.2
  3
txt
  4

  0
STYLE
  5
4E6
330
4C5
100
AcDbSymbolTableRecord
100
AcDbTextStyleTableRecord
  2
ROMANS
 70
     0
 40
0.0
 41
1.0
 50
0.0
 71
     0
 42
0.1
  3
ROMANS.SHX
  4

  0
STYLE
  5
4E7
330
4C5
100
AcDbSymbolTableRecord
100
AcDbTextStyleTableRecord
  2
SIMPLEX
 70
     0
 40
0.0
 41
1.0
 50
0.0
 71
     0
 42
0.1
  3
SIMPLEX
  4

  0
STYLE
  5
594
330
4C5
100
AcDbSymbolTableRecord
100
AcDbTextStyleTableRecord
  2
L100
 70
     0
 40
0.1
 41
1.0
 50
0.0
 71
     0
 42
0.1
  3
romans.shx
  4

  0
STYLE
  5
595
330
4C5
100
AcDbSymbolTableRecord
100
AcDbTextStyleTableRecord
  2
L200
 70
     0
 40
0.2
 41
1.0
 50
0.0
 71
     0
 42
0.081
  3
ARIAL.TTF
  4

1001
ACAD
1000
Arial
1071
       34
  0
STYLE
  5
596
330
4C5
100
AcDbSymbolTableRecord
100
AcDbTextStyleTableRecord
  2
L80
 70
     0
 40
0.08
 41
1.0
 50
0.0
 71
     0
 42
0.08
  3
ROMANS
  4

  0
ENDTAB
  0
TABLE
  2
VIEW
  5
4C8
330
0
100
AcDbSymbolTable
 70
     0
  0
ENDTAB
  0
TABLE
  2
UCS
  5
4C9
330
0
100
AcDbSymbolTable
 70
     0
  0
ENDTAB
  0
TABLE
  2
APPID
  5
4CB
330
0
100
AcDbSymbolTable
 70
     9
  0
APPID
  5
4D4
330
4CB
100
AcDbSymbolTableRecord
100
AcDbRegAppTableRecord
  2
ACAD
 70
     0
  0
APPID
  5
906
330
4CB
100
AcDbSymbolTableRecord
100
AcDbRegAppTableRecord
  2
ACAD_MLEADERVER
 70
     0
  0
APPID
  5
9BC
330
4CB
100
AcDbSymbolTableRecord
100
AcDbRegAppTableRecord
  2
ACAD_PSEXT
 70
     0
  0
APPID
  5
A1D
330
4CB
100
AcDbSymbolTableRecord
100
AcDbRegAppTableRecord
  2
BBSI_PltSel
 70
     0
  0
APPID
  5
A1E
330
4CB
100
AcDbSymbolTableRecord
100
AcDbRegAppTableRecord
  2
BBSI_Plots
 70
     0
  0
APPID
  5
A1F
330
4CB
100
AcDbSymbolTableRecord
100
AcDbRegAppTableRecord
  2
BBSI_Bookmarks
 70
     0
  0
ENDTAB
  0
TABLE
  2
DIMSTYLE
  5
4CC
330
0
100
AcDbSymbolTable
 70
     1
100
AcDbDimStyleTable
 71
     1
340
4EA
  0
DIMSTYLE
105
4EA
330
4CC
100
AcDbSymbolTableRecord
100
AcDbDimStyleTableRecord
  2
STANDARD
 70
     0
279
     2
340
4D3
  0
ENDTAB
  0
TABLE
  2
BLOCK_RECORD
  5
4C3
330
0
100
AcDbSymbolTable
 70
     2
  0
BLOCK_RECORD
  5
4E0
330
4C3
100
AcDbSymbolTableRecord
100
AcDbBlockTableRecord
  2
*Model_Space
340
4E3
  0
BLOCK_RECORD
  5
4DC
330
4C3
100
AcDbSymbolTableRecord
100
AcDbBlockTableRecord
  2
*Paper_Space
340
4DF
  0
BLOCK_RECORD
  5
598
330
4C3
100
AcDbSymbolTableRecord
100
AcDbBlockTableRecord
  2
titleblock
340
0
102
{BLKREFS
331
5B3
102
}
  0
BLOCK_RECORD
  5
614
330
4C3
100
AcDbSymbolTableRecord
100
AcDbBlockTableRecord
  2
*X1
340
0
102
{BLKREFS
331
78E
102
}
  0
ENDTAB
  0
ENDSEC
  0
SECTION
  2
BLOCKS
  0
BLOCK
  5
50C
330
4E0
100
AcDbEntity
  8
0
100
AcDbBlockBegin
  2
*Model_Space
 70
     0
 10
0.0
 20
0.0
 30
0.0
  3
*Model_Space
  1

  0
ENDBLK
  5
50D
330
4E0
100
AcDbEntity
  8
0
100
AcDbBlockEnd
  0
BLOCK
  5
50A
330
4DC
100
AcDbEntity
 67
     1
  8
0
100
AcDbBlockBegin
  2
*Paper_Space
 70
     0
 10
0.0
 20
0.0
 30
0.0
  3
*Paper_Space
  1

  0
ENDBLK
  5
50B
330
4DC
100
AcDbEntity
 67
     1
  8
0
100
AcDbBlockEnd
  0
BLOCK
  5
5A4
330
598
100
AcDbEntity
  8
0
100
AcDbBlockBegin
  2
titleblock
 70
     2
 10
0.0
 20
0.0
 30
0.0
  3
titleblock
  1

  0
LWPOLYLINE
  5
599
330
598
100
AcDbEntity
  8
image
100
AcDbPolyline
 90
        4
 70
     1
 43
0.0
 10
0.0
 20
0.0
 10
16.48999999999999
 20
0.0000000000000001
 10
16.48999999999999
 20
10.44
 10
0.0
 20
10.44
  0
ATTDEF
  5
59A
330
598
100
AcDbEntity
  8
title
100
AcDbText
 10
0.5055556038023421
 20
0.7842270964783673
 30
0.0
 40
0.2
  1
D
  7
L200
 72
     4
 11
0.6064423705144839
 21
0.8842270964783672
 31
0.0
100
AcDbAttributeDefinition
  3
#
  2
D
 70
     0
  0
ATTDEF
  5
59B
330
598
100
AcDbEntity
  8
title
100
AcDbText
 10
1.231442370514484
 20
1.34371230274675
 30
0.0
 40
0.2
  1

  7
L200
100
AcDbAttributeDefinition
  3
DETAIL TITLE TOP LINE
  2
TITLE1
 70
     0
  0
ATTDEF
  5
59C
330
598
100
AcDbEntity
  8
title
100
AcDbText
 10
1.231442370514484
 20
0.9842270964783674
 30
0.0
 40
0.2
  1
TITLE
  7
L200
100
AcDbAttributeDefinition
  3
DETAIL TITLE TOP 2ND LINE
  2
TITLE2
 70
     0
  0
ATTDEF
  5
59D
330
598
100
AcDbEntity
  8
title
100
AcDbText
 10
2.713645751168312
 20
0.5927927664583189
 30
0.0
 40
0.2
  1
TITLE2
  7
L200
100
AcDbAttributeDefinition
  3
DETAIL TITLE BOTTOM 1
  2
TITLE3
 70
     0
  0
ATTDEF
  5
59E
330
598
100
AcDbEntity
  8
title
100
AcDbText
 10
2.713645751168312
 20
0.2692560808167741
 30
0.0
 40
0.2
  1

  7
L200
100
AcDbAttributeDefinition
  3
DETAIL TITLE BOTTOM 2
  2
TITLE4
 70
     0
  0
ATTDEF
  5
59F
330
598
100
AcDbEntity
  8
title
 62
     7
100
AcDbText
 10
8.177214829966379
 20
0.9696027915446398
 30
0.0
 40
0.08
  1
-
  7
L80
 72
     2
 11
8.261024353775903
 21
0.9696027915446398
 31
0.0
100
AcDbAttributeDefinition
  3
REVISION DATE
  2
REVISED
 70
     0
  0
ATTDEF
  5
5A0
330
598
100
AcDbEntity
  8
title
 62
     7
100
AcDbText
 10
0.2639423705144838
 20
0.0847116480207214
 30
0.0
 40
0.08
  1
-
  7
L80
100
AcDbAttributeDefinition
  3
DWG-NAME
  2
DWG-NAME
 70
     0
  0
LWPOLYLINE
  5
5A1
330
598
100
AcDbEntity
  8
title
 62
     3
100
AcDbPolyline
 90
        2
 70
     1
 43
0.03
 10
0.6064423705144839
 20
0.5417270964783675
 42
0.9999999999999998
 10
0.6064423705144839
 20
1.226727096478367
 42
0.9999999999999998
  0
ATTDEF
  5
5A2
330
598
100
AcDbEntity
  8
title
 62
     7
100
AcDbText
 10
1.231442370514484
 20
0.7005637793954894
 30
0.0
 40
0.1
  1
N.T.S.
  7
L100
100
AcDbAttributeDefinition
  3
SCALE
  2
SCALE
 70
     0
  0
LWPOLYLINE
  5
5A3
330
598
100
AcDbEntity
  8
title
 62
     3
100
AcDbPolyline
 90
        2
 70
     0
 43
0.04
 39
0.03
 10
0.9489423705144833
 20
0.8842270964783672
 10
8.261024353775903
 20
0.8842270964783672
  0
ENDBLK
  5
5A5
330
598
100
AcDbEntity
  8
0
100
AcDbBlockEnd
  0
BLOCK
  5
684
330
614
100
AcDbEntity
  8
0
100
AcDbBlockBegin
  2
*X1
 70
     1
 10
0.0
 20
0.0
 30
0.0
  3
*X1
  1

  0
LINE
  5
615
330
614
100
AcDbEntity
  8
0
 62
     0
100
AcDbLine
 10
2.911631938146284
 20
5.522220300407497
 30
0.0
 11
2.872621298570345
 21
5.561230939983436
 31
0.0
  0
LINE
  5
616
330
614
100
AcDbEntity
  8
0
 62
     0
100
AcDbLine
 10
2.757716446627531
 20
5.446326088040622
 30
0.0
 11
2.642811594684717
 21
5.561230939983436
 31
0.0
  0
LINE
  5
617
330
614
100
AcDbEntity
  8
0
 62
     0
100
AcDbLine
 10
2.527906742741903
 20
5.446326088040622
 30
0.0
 11
2.413001890799089
 21
5.561230939983436
 31
0.0
  0
LINE
  5
618
330
614
100
AcDbEntity
  8
0
 62
     0
100
AcDbLine
 10
2.687352761876121
 20
5.286880068906404
 30
0.0
 11
2.642811594684717
 21
5.331421236097808
 31
0.0
  0
LINE
  5
619
330
614
100
AcDbEntity
  8
0
 62
     0
100
AcDbLine
 10
2.298097038856274
 20
5.446326088040622
 30
0.0
 11
2.250118920714844
 21
5.494304206182053
 31
0.0
  0
LINE
  5
61A
330
614
100
AcDbEntity
  8
0
 62
     0
100
AcDbLine
 10
2.515047740144412
 20
5.229375386752485
 30
0.0
 11
2.413001890799089
 21
5.331421236097808
 31
0.0
  0
LINE
  5
61B
330
614
100
AcDbEntity
  8
0
 62
     0
100
AcDbLine
 10
2.298097038856275
 20
5.216516384154994
 30
0.0
 11
2.183192186913461
 21
5.331421236097808
 31
0.0
  0
LINE
  5
61C
330
614
100
AcDbEntity
  8
0
 62
     0
100
AcDbLine
 10
2.247357190806718
 20
5.037446528318922
 30
0.0
 11
2.183192186913461
 21
5.10161153221218
 31
0.0
  0
LINE
  5
61D
330
614
100
AcDbEntity
  8
0
 62
     0
100
AcDbLine
 10
1.608667927199391
 20
5.446326088040622
 30
0.0
 11
1.493763075256577
 21
5.561230939983436
 31
0.0
  0
LINE
  5
61E
330
614
100
AcDbEntity
  8
0
 62
     0
100
AcDbLine
 10
1.737275681255463
 20
5.31771833398455
 30
0.0
 11
1.723572779142205
 21
5.331421236097808
 31
0.0
  0
LINE
  5
61F
330
614
100
AcDbEntity
  8
0
 62
     0
100
AcDbLine
 10
1.378858223313763
 20
5.446326088040623
 30
0.0
 11
1.263953371370949
 21
5.561230939983437
 31
0.0
  0
LINE
  5
620
330
614
100
AcDbEntity
  8
0
 62
     0
100
AcDbLine
 10
1.608667927199391
 20
5.216516384154995
 30
0.0
 11
1.493763075256577
 21
5.331421236097809
 31
0.0
  0
LINE
  5
621
330
614
100
AcDbEntity
  8
0
 62
     0
100
AcDbLine
 10
1.737275681255463
 20
5.087908630098922
 30
0.0
 11
1.723572779142205
 21
5.101611532212181
 31
0.0
  0
LINE
  5
622
330
614
100
AcDbEntity
  8
0
 62
     0
100
AcDbLine
 10
1.149048519428135
 20
5.446326088040623
 30
0.0
 11
1.034143667485321
 21
5.561230939983437
 31
0.0
  0
LINE
  5
623
330
614
100
AcDbEntity
  8
0
 62
     0
100
AcDbLine
 10
1.378858223313763
 20
5.216516384154995
 30
0.0
 11
1.263953371370949
 21
5.331421236097809
 31
0.0
  0
LINE
  5
624
330
614
100
AcDbEntity
  8
0
 62
     0
100
AcDbLine
 10
1.608667927199391
 20
4.986706680269366
 30
0.0
 11
1.493763075256577
 21
5.101611532212181
 31
0.0
  0
LINE
  5
625
330
614
100
AcDbEntity
  8
0
 62
     0
100
AcDbLine
 10
1.149048519428136
 20
5.216516384154995
 30
0.0
 11
1.034143667485322
 21
5.331421236097809
 31
0.0
  0
LINE
  5
626
330
614
100
AcDbEntity
  8
0
 62
     0
100
AcDbLine
 10
1.360810645862291
 20
5.004754257720839
 30
0.0
 11
1.26395337137095
 21
5.101611532212181
 31
0.0
  0
LINE
  5
627
330
614
100
AcDbEntity
  8
0
 62
     0
100
AcDbLine
 10
2.88311648199345
 20
5.46455711760322
 30
0.0
 11
2.829531979091789
 21
5.518141620504882
 31
0.0
  0
LINE
  5
628
330
614
100
AcDbEntity
  8
0
 62
     0
100
AcDbLine
 10
2.714627127148976
 20
5.403236768562067
 30
0.0
 11
2.599722275206162
 21
5.518141620504881
 31
0.0
  0
LINE
  5
629
330
614
100
AcDbEntity
  8
0
 62
     0
100
AcDbLine
 10
2.484817423263348
 20
5.403236768562067
 30
0.0
 11
2.369912571320534
 21
5.518141620504882
 31
0.0
  0
LINE
  5
62A
330
614
100
AcDbEntity
  8
0
 62
     0
100
AcDbLine
 10
2.627968962813695
 20
5.260085229011719
 30
0.0
 11
2.599722275206162
 21
5.288331916619253
 31
0.0
  0
LINE
  5
62B
330
614
100
AcDbEntity
  8
0
 62
     0
100
AcDbLine
 10
2.255007719377719
 20
5.403236768562067
 30
0.0
 11
2.214743844148471
 21
5.443500643791316
 31
0.0
  0
LINE
  5
62C
330
614
100
AcDbEntity
  8
0
 62
     0
100
AcDbLine
 10
2.442817069387461
 20
5.215427418552325
 30
0.0
 11
2.369912571320533
 21
5.288331916619253
 31
0.0
  0
LINE
  5
62D
330
614
100
AcDbEntity
  8
0
 62
     0
100
AcDbLine
 10
2.25500771937772
 20
5.173427064676439
 30
0.0
 11
2.1492534663144
 21
5.279181317739759
 31
0.0
  0
LINE
  5
62E
330
614
100
AcDbEntity
  8
0
 62
     0
100
AcDbLine
 10
2.203522493766503
 20
4.995102586402027
 30
0.0
 11
2.149253466314402
 21
5.049371613854129
 31
0.0
  0
LINE
  5
62F
330
614
100
AcDbEntity
  8
0
 62
     0
100
AcDbLine
 10
1.565578607720836
 20
5.403236768562067
 30
0.0
 11
1.450673755778022
 21
5.518141620504881
 31
0.0
  0
LINE
  5
630
330
614
100
AcDbEntity
  8
0
 62
     0
100
AcDbLine
 10
1.737275681255463
 20
5.231539695027439
 30
0.0
 11
1.680483459663649
 21
5.288331916619252
 31
0.0
  0
LINE
  5
631
330
614
100
AcDbEntity
  8
0
 62
     0
100
AcDbLine
 10
1.335768903835208
 20
5.403236768562067
 30
0.0
 11
1.220864051892394
 21
5.518141620504882
 31
0.0
  0
LINE
  5
632
330
614
100
AcDbEntity
  8
0
 62
     0
100
AcDbLine
 10
1.565578607720836
 20
5.173427064676439
 30
0.0
 11
1.450673755778022
 21
5.288331916619253
 31
0.0
  0
LINE
  5
633
330
614
100
AcDbEntity
  8
0
 62
     0
100
AcDbLine
 10
1.737275681255462
 20
5.001729991141813
 30
0.0
 11
1.68048345966365
 21
5.058522212733625
 31
0.0
  0
LINE
  5
634
330
614
100
AcDbEntity
  8
0
 62
     0
100
AcDbLine
 10
1.105959199949581
 20
5.403236768562067
 30
0.0
 11
0.9910543480067669
 21
5.518141620504882
 31
0.0
  0
LINE
  5
635
330
614
100
AcDbEntity
  8
0
 62
     0
100
AcDbLine
 10
1.335768903835208
 20
5.173427064676439
 30
0.0
 11
1.220864051892394
 21
5.288331916619253
 31
0.0
  0
LINE
  5
636
330
614
100
AcDbEntity
  8
0
 62
     0
100
AcDbLine
 10
1.544993509524941
 20
4.964202458986706
 30
0.0
 11
1.450673755778022
 21
5.058522212733625
 31
0.0
  0
LINE
  5
637
330
614
100
AcDbEntity
  8
0
 62
     0
100
AcDbLine
 10
2.901347511556049
 20
5.589957152969139
 30
0.0
 11
2.865354750069761
 21
5.625949914455427
 31
0.0
  0
LINE
  5
638
330
614
100
AcDbEntity
  8
0
 62
     0
100
AcDbLine
 10
2.671537807670421
 20
5.589957152969138
 30
0.0
 11
2.635545046184133
 21
5.625949914455426
 31
0.0
  0
LINE
  5
639
330
614
100
AcDbEntity
  8
0
 62
     0
100
AcDbLine
 10
2.840343354309291
 20
5.421151606330268
 30
0.0
 11
2.786442659613234
 21
5.475052301026324
 31
0.0
  0
LINE
  5
63A
330
614
100
AcDbEntity
  8
0
 62
     0
100
AcDbLine
 10
2.441728103784794
 20
5.589957152969138
 30
0.0
 11
2.405735342298506
 21
5.625949914455427
 31
0.0
  0
LINE
  5
63B
330
614
100
AcDbEntity
  8
0
 62
     0
100
AcDbLine
 10
2.671537807670422
 20
5.36014744908351
 30
0.0
 11
2.556632955727608
 21
5.475052301026324
 31
0.0
  0
LINE
  5
63C
330
614
100
AcDbEntity
  8
0
 62
     0
100
AcDbLine
 10
2.441728103784793
 20
5.360147449083511
 30
0.0
 11
2.326823251841979
 21
5.475052301026325
 31
0.0
  0
LINE
  5
63D
330
614
100
AcDbEntity
  8
0
 62
     0
100
AcDbLine
 10
2.56121815150526
 20
5.240657401363043
 30
0.0
 11
2.556632955727607
 21
5.245242597140697
 31
0.0
  0
LINE
  5
63E
330
614
100
AcDbEntity
  8
0
 62
     0
100
AcDbLine
 10
2.211918399899164
 20
5.360147449083512
 30
0.0
 11
2.149253466314398
 21
5.422812382668277
 31
0.0
  0
LINE
  5
63F
330
614
100
AcDbEntity
  8
0
 62
     0
100
AcDbLine
 10
2.394248420068434
 20
5.177817428914242
 30
0.0
 11
2.326823251841978
 21
5.245242597140697
 31
0.0
  0
LINE
  5
640
330
614
100
AcDbEntity
  8
0
 62
     0
100
AcDbLine
 10
2.211918399899164
 20
5.130337745197883
 30
0.0
 11
2.1492534663144
 21
5.193002678782647
 31
0.0
  0
LINE
  5
641
330
614
100
AcDbEntity
  8
0
 62
     0
100
AcDbLine
 10
1.737275681255463
 20
5.375170759955957
 30
0.0
 11
1.668945797420104
 21
5.443500643791317
 31
0.0
  0
LINE
  5
642
330
614
100
AcDbEntity
  8
0
 62
     0
100
AcDbLine
 10
1.52248928824228
 20
5.589957152969139
 30
0.0
 11
1.486496526755993
 21
5.625949914455427
 31
0.0
  0
LINE
  5
643
330
614
100
AcDbEntity
  8
0
 62
     0
100
AcDbLine
 10
1.658468783917103
 20
5.453977657294316
 30
0.0
 11
1.637394140185094
 21
5.475052301026325
 31
0.0
  0
LINE
  5
644
330
614
100
AcDbEntity
  8
0
 62
     0
100
AcDbLine
 10
2.159687796726289
 20
4.952758644485131
 30
0.0
 11
2.149253466314403
 21
4.963192974897016
 31
0.0
  0
LINE
  5
645
330
614
100
AcDbEntity
  8
0
 62
     0
100
AcDbLine
 10
1.292679584356653
 20
5.58995715296914
 30
0.0
 11
1.256686822870364
 21
5.625949914455429
 31
0.0
  0
LINE
  5
646
330
614
100
AcDbEntity
  8
0
 62
     0
100
AcDbLine
 10
1.522489288242281
 20
5.360147449083512
 30
0.0
 11
1.407584436299467
 21
5.475052301026326
 31
0.0
  0
LINE
  5
647
330
614
100
AcDbEntity
  8
0
 62
     0
100
AcDbLine
 10
1.737275681255462
 20
5.14536105607033
 30
0.0
 11
1.637394140185095
 21
5.245242597140697
 31
0.0
  0
LINE
  5
648
330
614
100
AcDbEntity
  8
0
 62
     0
100
AcDbLine
 10
1.062869880471025
 20
5.589957152969141
 30
0.0
 11
1.026877118984736
 21
5.625949914455429
 31
0.0
  0
LINE
  5
649
330
614
100
AcDbEntity
  8
0
 62
     0
100
AcDbLine
 10
1.292679584356653
 20
5.360147449083513
 30
0.0
 11
1.177774732413839
 21
5.475052301026327
 31
0.0
  0
LINE
  5
64A
330
614
100
AcDbEntity
  8
0
 62
     0
100
AcDbLine
 10
1.522489288242281
 20
5.130337745197884
 30
0.0
 11
1.407584436299467
 21
5.245242597140698
 31
0.0
  0
LINE
  5
64B
330
614
100
AcDbEntity
  8
0
 62
     0
100
AcDbLine
 10
1.710255304717655
 20
4.942571728722509
 30
0.0
 11
1.637394140185095
 21
5.01543289325507
 31
0.0
  0
LINE
  5
64C
330
614
100
AcDbEntity
  8
0
 62
     0
100
AcDbLine
 10
1.062869880471025
 20
5.360147449083512
 30
0.0
 11
0.9685649612897151
 21
5.454452368264822
 31
0.0
  0
LINE
  5
64D
330
614
100
AcDbEntity
  8
0
 62
     0
100
AcDbLine
 10
1.292679584356653
 20
5.130337745197883
 30
0.0
 11
1.177774732413839
 21
5.245242597140697
 31
0.0
  0
LINE
  5
64E
330
614
100
AcDbEntity
  8
0
 62
     0
100
AcDbLine
 10
1.436250672845013
 20
4.986766656709523
 30
0.0
 11
1.407584436299467
 21
5.015432893255069
 31
0.0
  0
LINE
  5
64F
330
614
100
AcDbEntity
  8
0
 62
     0
100
AcDbLine
 10
2.90134751155605
 20
5.561230939983437
 30
0.0
 11
2.942312494845701
 21
5.602195923273088
 31
0.0
  0
LINE
  5
650
330
614
100
AcDbEntity
  8
0
 62
     0
100
AcDbLine
 10
2.671537807670422
 20
5.331421236097809
 30
0.0
 11
2.786442659613236
 21
5.446326088040623
 31
0.0
  0
LINE
  5
651
330
614
100
AcDbEntity
  8
0
 62
     0
100
AcDbLine
 10
2.671537807670422
 20
5.561230939983437
 30
0.0
 11
2.736256782142413
 21
5.625949914455428
 31
0.0
  0
LINE
  5
652
330
614
100
AcDbEntity
  8
0
 62
     0
100
AcDbLine
 10
2.441728103784794
 20
5.331421236097809
 30
0.0
 11
2.556632955727608
 21
5.446326088040623
 31
0.0
  0
LINE
  5
653
330
614
100
AcDbEntity
  8
0
 62
     0
100
AcDbLine
 10
2.211918399899166
 20
5.101611532212181
 30
0.0
 11
2.32682325184198
 21
5.216516384154995
 31
0.0
  0
LINE
  5
654
330
614
100
AcDbEntity
  8
0
 62
     0
100
AcDbLine
 10
2.441728103784794
 20
5.561230939983437
 30
0.0
 11
2.506447078256785
 21
5.625949914455429
 31
0.0
  0
LINE
  5
655
330
614
100
AcDbEntity
  8
0
 62
     0
100
AcDbLine
 10
2.211918399899166
 20
5.331421236097809
 30
0.0
 11
2.32682325184198
 21
5.446326088040623
 31
0.0
  0
LINE
  5
656
330
614
100
AcDbEntity
  8
0
 62
     0
100
AcDbLine
 10
1.605012405989028
 20
4.954324946073299
 30
0.0
 11
1.637394140185095
 21
4.986706680269366
 31
0.0
  0
LINE
  5
657
330
614
100
AcDbEntity
  8
0
 62
     0
100
AcDbLine
 10
1.522489288242282
 20
5.101611532212181
 30
0.0
 11
1.637394140185095
 21
5.216516384154995
 31
0.0
  0
LINE
  5
658
330
614
100
AcDbEntity
  8
0
 62
     0
100
AcDbLine
 10
1.522489288242282
 20
5.331421236097809
 30
0.0
 11
1.637394140185095
 21
5.446326088040623
 31
0.0
  0
LINE
  5
659
330
614
100
AcDbEntity
  8
0
 62
     0
100
AcDbLine
 10
1.292679584356654
 20
5.101611532212181
 30
0.0
 11
1.407584436299468
 21
5.216516384154995
 31
0.0
  0
LINE
  5
65A
330
614
100
AcDbEntity
  8
0
 62
     0
100
AcDbLine
 10
1.522489288242281
 20
5.561230939983437
 30
0.0
 11
1.587208262714272
 21
5.625949914455429
 31
0.0
  0
LINE
  5
65B
330
614
100
AcDbEntity
  8
0
 62
     0
100
AcDbLine
 10
1.292679584356653
 20
5.331421236097809
 30
0.0
 11
1.407584436299467
 21
5.446326088040623
 31
0.0
  0
LINE
  5
65C
330
614
100
AcDbEntity
  8
0
 62
     0
100
AcDbLine
 10
1.150689416504743
 20
5.189431068245898
 30
0.0
 11
1.177774732413839
 21
5.216516384154995
 31
0.0
  0
LINE
  5
65D
330
614
100
AcDbEntity
  8
0
 62
     0
100
AcDbLine
 10
1.292679584356654
 20
5.561230939983437
 30
0.0
 11
1.357398558828645
 21
5.625949914455429
 31
0.0
  0
LINE
  5
65E
330
614
100
AcDbEntity
  8
0
 62
     0
100
AcDbLine
 10
1.062869880471026
 20
5.331421236097809
 30
0.0
 11
1.17777473241384
 21
5.446326088040623
 31
0.0
  0
LINE
  5
65F
330
614
100
AcDbEntity
  8
0
 62
     0
100
AcDbLine
 10
1.062869880471026
 20
5.561230939983437
 30
0.0
 11
1.127588854943017
 21
5.625949914455428
 31
0.0
  0
LINE
  5
660
330
614
100
AcDbEntity
  8
0
 62
     0
100
AcDbLine
 10
2.745182316108652
 20
5.318887105578928
 30
0.0
 11
2.825235946453542
 21
5.398940735923818
 31
0.0
  0
LINE
  5
661
330
614
100
AcDbEntity
  8
0
 62
     0
100
AcDbLine
 10
2.714627127148978
 20
5.518141620504882
 30
0.0
 11
2.822435421099523
 21
5.625949914455429
 31
0.0
  0
LINE
  5
662
330
614
100
AcDbEntity
  8
0
 62
     0
100
AcDbLine
 10
2.484817423263349
 20
5.288331916619254
 30
0.0
 11
2.599722275206163
 21
5.403236768562068
 31
0.0
  0
LINE
  5
663
330
614
100
AcDbEntity
  8
0
 62
     0
100
AcDbLine
 10
2.255007719377721
 20
5.058522212733626
 30
0.0
 11
2.369912571320535
 21
5.17342706467644
 31
0.0
  0
LINE
  5
664
330
614
100
AcDbEntity
  8
0
 62
     0
100
AcDbLine
 10
2.484817423263349
 20
5.518141620504882
 30
0.0
 11
2.592625717213895
 21
5.625949914455428
 31
0.0
  0
LINE
  5
665
330
614
100
AcDbEntity
  8
0
 62
     0
100
AcDbLine
 10
2.25500771937772
 20
5.288331916619253
 30
0.0
 11
2.369912571320535
 21
5.403236768562067
 31
0.0
  0
LINE
  5
666
330
614
100
AcDbEntity
  8
0
 62
     0
100
AcDbLine
 10
2.272999329452242
 20
5.536133230579403
 30
0.0
 11
2.362816013328268
 21
5.625949914455429
 31
0.0
  0
LINE
  5
667
330
614
100
AcDbEntity
  8
0
 62
     0
100
AcDbLine
 10
1.565578607720837
 20
5.058522212733626
 30
0.0
 11
1.680483459663651
 21
5.17342706467644
 31
0.0
  0
LINE
  5
668
330
614
100
AcDbEntity
  8
0
 62
     0
100
AcDbLine
 10
1.565578607720836
 20
5.288331916619253
 30
0.0
 11
1.68048345966365
 21
5.403236768562067
 31
0.0
  0
LINE
  5
669
330
614
100
AcDbEntity
  8
0
 62
     0
100
AcDbLine
 10
1.335768903835208
 20
5.058522212733625
 30
0.0
 11
1.450673755778022
 21
5.173427064676439
 31
0.0
  0
LINE
  5
66A
330
614
100
AcDbEntity
  8
0
 62
     0
100
AcDbLine
 10
1.565578607720836
 20
5.518141620504882
 30
0.0
 11
1.602936495509541
 21
5.555499508293586
 31
0.0
  0
LINE
  5
66B
330
614
100
AcDbEntity
  8
0
 62
     0
100
AcDbLine
 10
1.335768903835208
 20
5.288331916619253
 30
0.0
 11
1.450673755778022
 21
5.403236768562067
 31
0.0
  0
LINE
  5
66C
330
614
100
AcDbEntity
  8
0
 62
     0
100
AcDbLine
 10
1.191886020347531
 20
5.144449033131576
 30
0.0
 11
1.220864051892394
 21
5.173427064676439
 31
0.0
  0
LINE
  5
66D
330
614
100
AcDbEntity
  8
0
 62
     0
100
AcDbLine
 10
1.335768903835208
 20
5.518141620504882
 30
0.0
 11
1.443577197785755
 21
5.625949914455429
 31
0.0
  0
LINE
  5
66E
330
614
100
AcDbEntity
  8
0
 62
     0
100
AcDbLine
 10
1.10595919994958
 20
5.288331916619253
 30
0.0
 11
1.220864051892394
 21
5.403236768562067
 31
0.0
  0
LINE
  5
66F
330
614
100
AcDbEntity
  8
0
 62
     0
100
AcDbLine
 10
1.105959199949581
 20
5.518141620504882
 30
0.0
 11
1.213767493900128
 21
5.625949914455429
 31
0.0
  0
LINE
  5
670
330
614
100
AcDbEntity
  8
0
 62
     0
100
AcDbLine
 10
0.9893676392768648
 20
5.401550059832165
 30
0.0
 11
0.9910543480067673
 21
5.403236768562067
 31
0.0
  0
LINE
  5
671
330
614
100
AcDbEntity
  8
0
 62
     0
100
AcDbLine
 10
0.924754870655108
 20
5.566746995096036
 30
0.0
 11
0.9839577900145012
 21
5.625949914455429
 31
0.0
  0
LINE
  5
672
330
614
100
AcDbEntity
  8
0
 62
     0
100
AcDbLine
 10
2.757716446627532
 20
5.475052301026327
 30
0.0
 11
2.872621298570346
 21
5.589957152969141
 31
0.0
  0
LINE
  5
673
330
614
100
AcDbEntity
  8
0
 62
     0
100
AcDbLine
 10
2.527906742741904
 20
5.245242597140698
 30
0.0
 11
2.642811594684718
 21
5.360147449083513
 31
0.0
  0
LINE
  5
674
330
614
100
AcDbEntity
  8
0
 62
     0
100
AcDbLine
 10
2.527906742741905
 20
5.475052301026327
 30
0.0
 11
2.642811594684719
 21
5.589957152969141
 31
0.0
  0
LINE
  5
675
330
614
100
AcDbEntity
  8
0
 62
     0
100
AcDbLine
 10
2.298097038856276
 20
5.245242597140698
 30
0.0
 11
2.41300189079909
 21
5.360147449083513
 31
0.0
  0
LINE
  5
676
330
614
100
AcDbEntity
  8
0
 62
     0
100
AcDbLine
 10
2.149253466314401
 20
5.096399024598823
 30
0.0
 11
2.183192186913462
 21
5.130337745197884
 31
0.0
  0
LINE
  5
677
330
614
100
AcDbEntity
  8
0
 62
     0
100
AcDbLine
 10
2.298097038856276
 20
5.475052301026327
 30
0.0
 11
2.41300189079909
 21
5.589957152969141
 31
0.0
  0
LINE
  5
678
330
614
100
AcDbEntity
  8
0
 62
     0
100
AcDbLine
 10
2.149253466314398
 20
5.326208728484449
 30
0.0
 11
2.183192186913462
 21
5.360147449083513
 31
0.0
  0
LINE
  5
679
330
614
100
AcDbEntity
  8
0
 62
     0
100
AcDbLine
 10
1.608667927199392
 20
5.01543289325507
 30
0.0
 11
1.723572779142206
 21
5.130337745197884
 31
0.0
  0
LINE
  5
67A
330
614
100
AcDbEntity
  8
0
 62
     0
100
AcDbLine
 10
1.608667927199392
 20
5.245242597140698
 30
0.0
 11
1.723572779142205
 21
5.360147449083513
 31
0.0
  0
LINE
  5
67B
330
614
100
AcDbEntity
  8
0
 62
     0
100
AcDbLine
 10
1.378858223313764
 20
5.01543289325507
 30
0.0
 11
1.493763075256578
 21
5.130337745197884
 31
0.0
  0
LINE
  5
67C
330
614
100
AcDbEntity
  8
0
 62
     0
100
AcDbLine
 10
1.608667927199392
 20
5.475052301026327
 30
0.0
 11
1.63340813446928
 21
5.499792508296215
 31
0.0
  0
LINE
  5
67D
330
614
100
AcDbEntity
  8
0
 62
     0
100
AcDbLine
 10
1.378858223313764
 20
5.245242597140698
 30
0.0
 11
1.493763075256578
 21
5.360147449083513
 31
0.0
  0
LINE
  5
67E
330
614
100
AcDbEntity
  8
0
 62
     0
100
AcDbLine
 10
1.233082624190319
 20
5.099466998017253
 30
0.0
 11
1.26395337137095
 21
5.130337745197884
 31
0.0
  0
LINE
  5
67F
330
614
100
AcDbEntity
  8
0
 62
     0
100
AcDbLine
 10
1.378858223313764
 20
5.475052301026327
 30
0.0
 11
1.493763075256578
 21
5.589957152969141
 31
0.0
  0
LINE
  5
680
330
614
100
AcDbEntity
  8
0
 62
     0
100
AcDbLine
 10
1.149048519428136
 20
5.245242597140698
 30
0.0
 11
1.26395337137095
 21
5.360147449083513
 31
0.0
  0
LINE
  5
681
330
614
100
AcDbEntity
  8
0
 62
     0
100
AcDbLine
 10
1.149048519428136
 20
5.475052301026327
 30
0.0
 11
1.26395337137095
 21
5.589957152969141
 31
0.0
  0
LINE
  5
682
330
614
100
AcDbEntity
  8
0
 62
     0
100
AcDbLine
 10
1.013893591024427
 20
5.339897372622617
 30
0.0
 11
1.034143667485322
 21
5.360147449083513
 31
0.0
  0
LINE
  5
683
330
614
100
AcDbEntity
  8
0
 62
     0
100
AcDbLine
 10
0.9488976127294183
 20
5.504711098213237
 30
0.0
 11
1.034143667485322
 21
5.589957152969141
 31
0.0
  0
ENDBLK
  5
685
330
614
100
AcDbEntity
  8
0
100
AcDbBlockEnd
  0
ENDSEC
  0
SECTION
  2
ENTITIES
  0
TEXT
  5
101
330
4E0
100
AcDbEntity
  8
text_bubbles
100
AcDbText
 10
4.598981182500883
 20
5.183016180372299
 30
0.0
 40
0.125
  1
POP-UP SPRAY SPRINKLER:
  7
ROMANS
100
AcDbText
  0
TEXT
  5
103
330
4E0
100
AcDbEntity
  8
text_bubbles
100
AcDbText
 10
4.598981182500883
 20
5.028669646731353
 30
0.0
 40
0.125
  1
  RAIN BIRD 1806
  7
ROMANS
100
AcDbText
  0
TEXT
  5
109
330
4E0
100
AcDbEntity
  8
text-sa-bubbles
100
AcDbText
 10
4.598981182500883
 20
3.306804802032212
 30
0.0
 40
0.125
  1
PVC SCH 40 TEE OR ELL
  7
ROMANS
100
AcDbText
  0
TEXT
  5
10A
330
4E0
100
AcDbEntity
  8
text_bubbles
100
AcDbText
 10
4.598981182500883
 20
5.54510040177178
 30
0.0
 40
0.125
  1
FINISH GRADE/TOP OF MULCH
  7
ROMANS
100
AcDbText
  0
TEXT
  5
10B
330
4E0
100
AcDbEntity
  8
text-sa-bubbles
100
AcDbText
 10
4.598981182500883
 20
4.083476906629931
 30
0.0
 40
0.125
  1
PVC LATERAL PIPE
  7
ROMANS
100
AcDbText
  0
CIRCLE
  5
10D
330
4E0
100
AcDbEntity
  8
text_bubbles
100
AcDbCircle
 10
4.258924464139756
 20
5.591171613593991
 30
0.0
 40
0.15625
  0
TEXT
  5
10E
330
4E0
100
AcDbEntity
  8
text_bubbles
100
AcDbText
 10
4.208329226044518
 20
5.528671613593991
 30
0.0
 40
0.125
  1
1
  7
ROMANS
 72
     4
 11
4.258924464139756
 21
5.591171613593991
 31
0.0
100
AcDbText
  0
CIRCLE
  5
10F
330
4E0
100
AcDbEntity
  8
text_bubbles
100
AcDbCircle
 10
4.258924464139756
 20
5.22908726370774
 30
0.0
 40
0.15625
  0
TEXT
  5
110
330
4E0
100
AcDbEntity
  8
text_bubbles
100
AcDbText
 10
4.199400654615947
 20
5.16658726370774
 30
0.0
 40
0.125
  1
2
  7
ROMANS
 72
     4
 11
4.258924464139756
 21
5.22908726370774
 31
0.0
100
AcDbText
  0
CIRCLE
  5
111
330
4E0
100
AcDbEntity
  8
text-sa-bubbles
100
AcDbCircle
 10
4.265816897565333
 20
4.710799446436793
 30
0.0
 40
0.15625
  0
TEXT
  5
112
330
4E0
100
AcDbEntity
  8
text-sa-bubbles
100
AcDbText
 10
4.206293088041523
 20
4.648299446436793
 30
0.0
 40
0.125
  1
3
  7
ROMANS
 72
     4
 11
4.265816897565333
 21
4.710799446436793
 31
0.0
100
AcDbText
  0
CIRCLE
  5
113
330
4E0
100
AcDbEntity
  8
text-sa-bubbles
100
AcDbCircle
 10
4.258924464139756
 20
4.12954798996537
 30
0.0
 40
0.15625
  0
TEXT
  5
114
330
4E0
100
AcDbEntity
  8
text-sa-bubbles
100
AcDbText
 10
4.196424464139756
 20
4.06704798996537
 30
0.0
 40
0.125
  1
4
  7
ROMANS
 72
     4
 11
4.258924464139756
 21
4.12954798996537
 31
0.0
100
AcDbText
  0
CIRCLE
  5
115
330
4E0
100
AcDbEntity
  8
text-sa-bubbles
100
AcDbCircle
 10
4.258924464139756
 20
3.772875885367652
 30
0.0
 40
0.15625
  0
TEXT
  5
116
330
4E0
100
AcDbEntity
  8
text-sa-bubbles
100
AcDbText
 10
4.199400654615947
 20
3.710375885367652
 30
0.0
 40
0.125
  1
5
  7
ROMANS
 72
     4
 11
4.258924464139756
 21
3.772875885367652
 31
0.0
100
AcDbText
  0
CIRCLE
  5
117
330
4E0
100
AcDbEntity
  8
text-sa-bubbles
100
AcDbCircle
 10
4.258924464139756
 20
3.354936480843858
 30
0.0
 40
0.15625
  0
TEXT
  5
118
330
4E0
100
AcDbEntity
  8
text-sa-bubbles
100
AcDbText
 10
4.196424464139756
 20
3.292436480843858
 30
0.0
 40
0.125
  1
6
  7
ROMANS
 72
     4
 11
4.258924464139756
 21
3.354936480843858
 31
0.0
100
AcDbText
  0
CIRCLE
  5
11E
330
4E0
100
AcDbEntity
  8
text-sa-bubbles
100
AcDbCircle
 10
3.066544802518991
 20
1.991283018376616
 30
0.0
 40
0.15625
  0
TEXT
  5
11F
330
4E0
100
AcDbEntity
  8
text-sa-bubbles
100
AcDbText
 10
3.007020992995181
 20
1.928783018376616
 30
0.0
 40
0.125
  1
5
  7
ROMANS
 72
     4
 11
3.066544802518991
 21
1.991283018376616
 31
0.0
100
AcDbText
  0
CIRCLE
  5
120
330
4E0
100
AcDbEntity
  8
text-sa-bubbles
100
AcDbCircle
 10
4.526727230631053
 20
1.991696316387531
 30
0.0
 40
0.15625
  0
TEXT
  5
121
330
4E0
100
AcDbEntity
  8
text-sa-bubbles
100
AcDbText
 10
4.464227230631053
 20
1.929196316387531
 30
0.0
 40
0.125
  1
6
  7
ROMANS
 72
     4
 11
4.526727230631053
 21
1.991696316387531
 31
0.0
100
AcDbText
  0
CIRCLE
  5
122
330
4E0
100
AcDbEntity
  8
text-sa-bubbles
100
AcDbCircle
 10
2.697739368490193
 20
1.991556559507001
 30
0.0
 40
0.15625
  0
TEXT
  5
123
330
4E0
100
AcDbEntity
  8
text-sa-bubbles
100
AcDbText
 10
2.635239368490193
 20
1.929056559507001
 30
0.0
 40
0.125
  1
4
  7
ROMANS
 72
     4
 11
2.697739368490193
 21
1.991556559507001
 31
0.0
100
AcDbText
  0
TEXT
  5
12A
330
4E0
100
AcDbEntity
  8
text-sa-bubbles
100
AcDbText
 10
0.4953645152306866
 20
3.591032502146791
 30
0.0
 40
0.125
  1
3
  7
ROMANS
 72
     4
 11
0.5548883247544962
 21
3.653532502146791
 31
0.0
100
AcDbText
  0
CIRCLE
  5
12B
330
4E0
100
AcDbEntity
  8
text-sa-bubbles
100
AcDbCircle
 10
0.5548883247544962
 20
3.653532502146791
 30
0.0
 40
0.15625
  0
TEXT
  5
12C
330
4E0
100
AcDbEntity
  8
text_bubbles
100
AcDbText
 10
0.4953645152306868
 20
5.012785388808097
 30
0.0
 40
0.125
  1
2
  7
ROMANS
 72
     4
 11
0.5548883247544963
 21
5.075285388808097
 31
0.0
100
AcDbText
  0
CIRCLE
  5
12D
330
4E0
100
AcDbEntity
  8
text_bubbles
100
AcDbCircle
 10
0.5548883247544963
 20
5.075285388808097
 30
0.0
 40
0.15625
  0
TEXT
  5
130
330
4E0
100
AcDbEntity
  8
text-sa-bubbles
100
AcDbText
 10
3.888022750698739
 20
1.929067087957677
 30
0.0
 40
0.125
  1
3
  7
ROMANS
 72
     4
 11
3.947546560222548
 21
1.991567087957677
 31
0.0
100
AcDbText
  0
CIRCLE
  5
131
330
4E0
100
AcDbEntity
  8
text-sa-bubbles
100
AcDbCircle
 10
3.947546560222548
 20
1.991567087957677
 30
0.0
 40
0.15625
  0
CIRCLE
  5
132
330
4E0
100
AcDbEntity
  8
text_bubbles
100
AcDbCircle
 10
0.5548883247544962
 20
5.541069538776902
 30
0.0
 40
0.15625
  0
TEXT
  5
133
330
4E0
100
AcDbEntity
  8
text_bubbles
100
AcDbText
 10
0.504293086659258
 20
5.478569538776902
 30
0.0
 40
0.125
  1
1
  7
ROMANS
 72
     4
 11
0.5548883247544962
 21
5.541069538776902
 31
0.0
100
AcDbText
  0
TEXT
  5
136
330
4E0
100
AcDbEntity
  8
text-sa-leaders
100
AcDbText
 10
4.598981182500883
 20
3.604173618456955
 30
0.0
 40
0.125
  1
SWING PIPE, 12-INCH LENGTH:
  7
ROMANS
100
AcDbText
  0
TEXT
  5
137
330
4E0
100
AcDbEntity
  8
text-sa-leaders
100
AcDbText
 10
4.598981182500883
 20
1.481568985468148
 30
0.0
 40
0.125
  1
PVC LATERAL PIPE
  7
ROMANS
100
AcDbText
  0
TEXT
  5
138
330
4E0
100
AcDbEntity
  8
text_leaders
100
AcDbText
 10
4.598981182500883
 20
6.354269404245959
 30
0.0
 40
0.125
  1
FINISH GRADE/TOP OF MULCH
  7
ROMANS
100
AcDbText
  0
TEXT
  5
139
330
4E0
100
AcDbEntity
  8
text-sa-leaders
100
AcDbText
 10
4.598981182500883
 20
3.431066265359382
 30
0.0
 40
0.125
  1
  RAIN BIRD MODEL SP-100
  7
ROMANS
100
AcDbText
  0
TEXT
  5
13A
330
4E0
100
AcDbEntity
  8
text_leaders
100
AcDbText
 10
4.598981182500883
 20
5.028669646731353
 30
0.0
 40
0.125
  1
  RAIN BIRD 1806
  7
ROMANS
100
AcDbText
  0
TEXT
  5
13B
330
4E0
100
AcDbEntity
  8
text_leaders
100
AcDbText
 10
4.598981182500883
 20
5.189668089348381
 30
0.0
 40
0.125
  1
POP-UP SPRAY SPRINKLER:
  7
ROMANS
100
AcDbText
  0
TEXT
  5
14D
330
4E0
100
AcDbEntity
  8
text-sa-leaders
100
AcDbText
 10
4.598981182500883
 20
4.012330055237
 30
0.0
 40
0.125
  1
  BARB ELBOW:  RAIN BIRD
  7
SIMPLEX
100
AcDbText
  0
LINE
  5
14F
330
4E0
100
AcDbEntity
  8
option_sa
100
AcDbLine
 10
4.429719560167336
 20
2.945733303366129
 30
0.0
 11
4.060687554484426
 21
2.945733303366124
 31
0.0
  0
LINE
  5
150
330
4E0
100
AcDbEntity
  8
option_sa
100
AcDbLine
 10
3.966503699342351
 20
2.777037553550368
 30
0.0
 11
4.064877148844418
 21
2.953237421358711
 31
0.0
  0
LINE
  5
151
330
4E0
100
AcDbEntity
  8
option_sa
100
AcDbLine
 10
4.429719560167336
 20
2.656567263483919
 30
0.0
 11
4.429719560167336
 21
2.945733303366129
 31
0.0
  0
LINE
  5
152
330
4E0
100
AcDbEntity
  8
option_sa
100
AcDbLine
 10
3.824900845437719
 20
2.656567263483919
 30
0.0
 11
4.429719560167336
 21
2.656567263483919
 31
0.0
  0
LINE
  5
153
330
4E0
100
AcDbEntity
  8
option_sa
100
AcDbLine
 10
3.824900845437719
 20
2.849114108532022
 30
0.0
 11
3.824900845437719
 21
2.656567263483919
 31
0.0
  0
LINE
  5
154
330
4E0
100
AcDbEntity
  8
option_sa
100
AcDbLine
 10
4.119097350818279
 20
2.866647347850665
 30
0.0
 11
4.128790079685732
 21
2.801340231591222
 31
0.0
  0
LINE
  5
155
330
4E0
100
AcDbEntity
  8
option_sa
100
AcDbLine
 10
4.128790079685732
 20
2.801340231591222
 30
0.0
 11
4.071449641947646
 21
2.775340155406565
 31
0.0
  0
LINE
  5
156
330
4E0
100
AcDbEntity
  8
option_sa
100
AcDbLine
 10
4.429719560167336
 20
2.901259206311557
 30
0.0
 11
4.766816079701211
 21
2.901259206311557
 31
0.0
  0
LINE
  5
157
330
4E0
100
AcDbEntity
  8
option_sa
100
AcDbLine
 10
4.429719560167336
 20
2.697639124177565
 30
0.0
 11
4.766816079701211
 21
2.697639124177565
 31
0.0
  0
LWPOLYLINE
  5
158
330
4E0
100
AcDbEntity
  8
option_sa
100
AcDbPolyline
 90
        4
 70
     0
 43
0.0
 10
4.766816079701211
 20
2.901259206311557
 42
-0.5107053858875276
 10
4.766816079701222
 20
2.797998926850494
 42
0.5107053858875159
 10
4.766816079701211
 20
2.697639124177565
 42
0.5397302473450178
 10
4.768742249216026
 20
2.799449165244559
 42
0.5397302473450178
  0
LINE
  5
15E
330
4E0
100
AcDbEntity
  8
option_sa
100
AcDbLine
 10
3.708964536047921
 20
2.901259206311557
 30
0.0
 11
1.607536758325621
 21
2.901259206311557
 31
0.0
  0
LINE
  5
15F
330
4E0
100
AcDbEntity
  8
option_sa
100
AcDbLine
 10
3.824900845437719
 20
2.697639124177565
 30
0.0
 11
1.607536758325621
 21
2.697639124177565
 31
0.0
  0
LINE
  5
160
330
4E0
100
AcDbEntity
  8
option_sa
100
AcDbLine
 10
4.08781630124459
 20
2.727786715125348
 30
0.0
 11
3.973946907395144
 21
2.789050592485282
 31
0.0
  0
LINE
  5
161
330
4E0
100
AcDbEntity
  8
option_sa
100
AcDbLine
 10
4.172490099911087
 20
2.873724192718719
 30
0.0
 11
4.055984235743872
 21
2.937309037016405
 31
0.0
  0
ARC
  5
162
330
4E0
100
AcDbEntity
  8
option_sa
100
AcDbCircle
 10
4.128790079685732
 20
2.801340231591222
 30
0.0
 40
0.0842950537430408
100
AcDbArc
 50
234.4756814862677
 51
62.64469113840124
  0
ARC
  5
163
330
4E0
100
AcDbEntity
  8
option_sa
100
AcDbCircle
 10
4.128790079685732
 20
2.801340231591222
 30
0.0
 40
0.1089292628087137
100
AcDbArc
 50
202.3302578892511
 51
100.5273986155575
  0
LWPOLYLINE
  5
164
330
4E0
100
AcDbEntity
  8
option_sa
100
AcDbPolyline
 90
        4
 70
     0
 43
0.0
 10
1.607536758325621
 20
2.901259206311557
 42
0.5107053858875276
 10
1.607536758325612
 20
2.797998926850494
 42
-0.5107053858875159
 10
1.607536758325621
 20
2.697639124177565
 42
-0.5397302473450178
 10
1.605610588810805
 20
2.799449165244559
 42
-0.5397302473450178
  0
ARC
  5
16A
330
4E0
100
AcDbEntity
  8
option_sa
100
AcDbCircle
 10
2.552447625661925
 20
0.1899251731972997
 30
0.0
 40
3.150132956469122
100
AcDbArc
 50
61.30701558492705
 51
91.57178904497754
  0
ARC
  5
16B
330
4E0
100
AcDbEntity
  8
option_sa
100
AcDbCircle
 10
2.54905246845331
 20
0.1674241972181343
 30
0.0
 40
2.969722185911746
100
AcDbArc
 50
61.49072909609822
 51
91.61727251044187
  0
LINE
  5
16C
330
4E0
100
AcDbEntity
  8
option_sa
100
AcDbLine
 10
2.465238052382167
 20
3.135963401128889
 30
0.0
 11
2.46604120091339
 21
3.338872866188573
 31
0.0
  0
ARC
  5
16D
330
4E0
100
AcDbEntity
  8
option_sa
100
AcDbCircle
 10
2.223600089810175
 20
3.202779644729933
 30
0.0
 40
0.0469218235072326
100
AcDbArc
 50
180.0
 51
270.0
  0
LWPOLYLINE
  5
16E
330
4E0
100
AcDbEntity
  8
option_sa
100
AcDbPolyline
 90
        3
 70
     0
 43
0.0
 10
2.225740655869302
 20
3.159856756698203
 42
0.3551655385017884
 10
2.317527570025383
 20
3.239363253015314
 42
-0.3351985284943452
 10
2.384053506871949
 20
3.318319803211657
 42
-0.5949761929811071
  0
LINE
  5
173
330
4E0
100
AcDbEntity
  8
option_sa
100
AcDbLine
 10
2.465235580882267
 20
3.155857821222702
 30
0.0
 11
2.223600089810175
 21
3.155857821222702
 31
0.0
  0
LINE
  5
174
330
4E0
100
AcDbEntity
  8
option_sa
100
AcDbLine
 10
2.465971446329734
 20
3.321249892722411
 30
0.0
 11
2.390433240058112
 21
3.321249892722407
 31
0.0
  0
ARC
  5
175
330
4E0
100
AcDbEntity
  8
option_sa
100
AcDbCircle
 10
2.390433240058112
 20
3.368171716229639
 30
0.0
 40
0.0469218235072326
100
AcDbArc
 50
180.0
 51
270.0
  0
LINE
  5
176
330
4E0
100
AcDbEntity
  8
option_sa
100
AcDbLine
 10
2.176678266302941
 20
3.467086057528232
 30
0.0
 11
2.176678266302941
 21
3.202779644729933
 31
0.0
  0
LINE
  5
177
330
4E0
100
AcDbEntity
  8
option_sa
100
AcDbLine
 10
2.176678266302941
 20
3.42115639413445
 30
0.0
 11
2.343511416550877
 21
3.42115639413445
 31
0.0
  0
LINE
  5
178
330
4E0
100
AcDbEntity
  8
option_sa
100
AcDbLine
 10
2.343511416550877
 20
3.467086057528232
 30
0.0
 11
2.343511416550877
 21
3.368171716229639
 31
0.0
  0
LINE
  5
179
330
4E0
100
AcDbEntity
  8
option_sa
100
AcDbLine
 10
2.192767129429979
 20
3.446215597672034
 30
0.0
 11
2.327781901284787
 21
3.446215597672034
 31
0.0
  0
TEXT
  5
17A
330
4E0
100
AcDbEntity
  8
text-sa-leaders
100
AcDbText
 10
4.598981182500883
 20
4.178629875182999
 30
0.0
 40
0.125
  1
1/2-INCH MALE NPT x .490 INCH
  7
SIMPLEX
100
AcDbText
  0
TEXT
  5
17B
330
4E0
100
AcDbEntity
  8
text-sa-leaders
100
AcDbText
 10
4.598981182500883
 20
3.846030235290999
 30
0.0
 40
0.125
  1
  MODEL SBE-050
  7
SIMPLEX
100
AcDbText
  0
TEXT
  5
17F
330
4E0
100
AcDbEntity
  8
text-sa-leaders
100
AcDbText
 10
4.598981182500883
 20
2.999053428985557
 30
0.0
 40
0.125
  1
PVC SCH 40 TEE OR ELL
  7
ROMANS
100
AcDbText
  0
TEXT
  5
180
330
4E0
100
AcDbEntity
  8
text-sa-leaders
100
AcDbText
 10
4.598981182500883
 20
1.872009806442019
 30
0.0
 40
0.125
  1
  MODEL SBE-050
  7
SIMPLEX
100
AcDbText
  0
TEXT
  5
181
330
4E0
100
AcDbEntity
  8
text-sa-leaders
100
AcDbText
 10
4.598981182500883
 20
2.204609446334019
 30
0.0
 40
0.125
  1
1/2-INCH MALE NPT x .490 INCH
  7
SIMPLEX
100
AcDbText
  0
TEXT
  5
182
330
4E0
100
AcDbEntity
  8
text-sa-leaders
100
AcDbText
 10
4.598981182500883
 20
2.038309626388019
 30
0.0
 40
0.125
  1
  BARB ELBOW:  RAIN BIRD
  7
SIMPLEX
100
AcDbText
  0
TEXT
  5
189
330
4E0
100
AcDbEntity
  8
text-sa-bubbles
100
AcDbText
 10
4.598981182500883
 20
4.31087726673793
 30
0.0
 40
0.125
  1
  MODEL SBE-050
  7
SIMPLEX
100
AcDbText
  0
TEXT
  5
18A
330
4E0
100
AcDbEntity
  8
text-sa-bubbles
100
AcDbText
 10
4.598981182500883
 20
4.47717708668393
 30
0.0
 40
0.125
  1
  BARB ELBOW:  RAIN BIRD
  7
SIMPLEX
100
AcDbText
  0
TEXT
  5
18B
330
4E0
100
AcDbEntity
  8
text-sa-bubbles
100
AcDbText
 10
4.598981182500883
 20
4.643476906629929
 30
0.0
 40
0.125
  1
1/2-INCH MALE NPT x .490 INCH
  7
SIMPLEX
100
AcDbText
  0
TEXT
  5
18C
330
4E0
100
AcDbEntity
  8
text-sa-bubbles
100
AcDbText
 10
4.598981182500883
 20
3.545720959422381
 30
0.0
 40
0.125
  1
  RAIN BIRD MODEL SP-100
  7
ROMANS
100
AcDbText
  0
TEXT
  5
18D
330
4E0
100
AcDbEntity
  8
text-sa-bubbles
100
AcDbText
 10
4.598981182500883
 20
3.726804802032212
 30
0.0
 40
0.125
  1
SWING PIPE, 12-INCH LENGTH:
  7
ROMANS
100
AcDbText
  0
TEXT
  5
190
330
4E0
100
AcDbEntity
  8
instruct-callout
100
AcDbText
 10
11.82763411232611
 20
8.438195803303189
 30
0.0
 40
0.10000000149
  1
TO TURN OFF THIS INSTRUCTION BOX, TURN OFF
  7
ROMANS
100
AcDbText
  0
TEXT
  5
191
330
4E0
100
AcDbEntity
  8
instruct-callout
100
AcDbText
 10
11.82763411232611
 20
8.276295759815189
 30
0.0
 40
0.10000000149
  1
LAYER "INSTRUCT-CALLOUT".
  7
ROMANS
100
AcDbText
  0
CIRCLE
  5
192
330
4E0
100
AcDbEntity
  8
instruct-callout
100
AcDbCircle
 10
14.87719652624805
 20
8.940107489676632
 30
0.0
 40
0.125
  0
TEXT
  5
193
330
4E0
100
AcDbEntity
  8
instruct-callout
100
AcDbText
 10
14.83672033577186
 20
8.890107489676632
 30
0.0
 40
0.1
  1
1
  7
ROMANS
 72
     4
 11
14.87719652624805
 21
8.940107489676632
 31
0.0
100
AcDbText
  0
LINE
  5
194
330
4E0
100
AcDbEntity
  8
instruct-callout
100
AcDbLine
 10
14.50072830054356
 20
8.83732777309881
 30
0.0
 11
14.75660971746841
 21
8.907186044563427
 31
0.0
  0
SOLID
  5
195
330
4E0
100
AcDbEntity
  8
instruct-callout
100
AcDbTrace
 10
14.57000271133536
 20
8.887338332078375
 30
0.0
 11
14.5858050049897
 21
8.829456663864146
 31
0.0
 12
14.40425885351985
 22
8.810990617008243
 32
0.0
 13
14.40425885351985
 23
8.810990617008243
 33
0.0
  0
TEXT
  5
196
330
4E0
100
AcDbEntity
  8
instruct-callout
100
AcDbText
 10
12.79216108309969
 20
8.92587506407747
 30
0.0
 40
0.10000000149
  1
ITEM 1
  7
ROMANS
100
AcDbText
  0
SOLID
  5
197
330
4E0
100
AcDbEntity
  8
instruct-callout
100
AcDbTrace
 10
12.42753338328594
 20
8.873912297526976
 30
0.0
 11
12.40448149839421
 21
8.929307338847822
 31
0.0
 12
12.24982231687753
 22
8.832454163512199
 32
0.0
 13
12.24982231687753
 23
8.832454163512199
 33
0.0
  0
LINE
  5
198
330
4E0
100
AcDbEntity
  8
instruct-callout
100
AcDbLine
 10
12.34214738574561
 20
8.870873971665087
 30
0.0
 11
12.62991780022394
 21
8.99062567347137
 31
0.0
  0
LINE
  5
199
330
4E0
100
AcDbEntity
  8
instruct-callout
100
AcDbLine
 10
12.62991780022394
 20
8.99062567347137
 30
0.0
 11
12.76618634608256
 21
8.990625673471368
 31
0.0
  0
TEXT
  5
19A
330
4E0
100
AcDbEntity
  8
instruct-callout
100
AcDbText
 10
12.32279314826714
 20
9.243096927172985
 30
0.0
 40
0.10000000149
  1
TEXT_LEADERS         TEXT_BUBBLES
  7
ROMANS
100
AcDbText
  0
TEXT
  5
19B
330
4E0
100
AcDbEntity
  8
instruct-callout
100
AcDbText
 10
11.88644941600432
 20
9.580114221648161
 30
0.0
 40
0.10000000149
  1
BY TURNING ON THE APPROPRIATE LAYER:
  7
ROMANS
100
AcDbText
  0
TEXT
  5
19C
330
4E0
100
AcDbEntity
  8
instruct-callout
100
AcDbText
 10
11.88644941600432
 20
9.742014265135161
 30
0.0
 40
0.10000000149
  1
CHOOSE EITHER LEADERS OR BUBBLE CALLOUTS
  7
ROMANS
100
AcDbText
  0
TEXT
  5
19D
330
4E0
100
AcDbEntity
  8
instruct-callout
100
AcDbText
 10
12.11919918505104
 20
10.11612532861004
 30
0.0
 40
0.10000000149
  1
CHOOSING EQUIPMENT CALLOUT METHOD
  7
ROMANS
100
AcDbText
  0
LWPOLYLINE
  5
19E
330
4E0
100
AcDbEntity
  8
instruct-callout
100
AcDbPolyline
 90
        4
 70
     1
 43
0.0
 10
11.78860676510902
 20
10.05900983789284
 10
11.78860676510902
 20
8.627523816550601
 10
16.22030355649109
 20
8.627523816550601
 10
16.22030355649109
 20
10.05900983789284
  0
TEXT
  5
1C0
330
4E0
100
AcDbEntity
  8
option-sam
100
AcDbText
 10
6.389168231104791
 20
5.023044131489722
 30
0.0
 40
0.125
  1
-SAM
  7
ROMANS
100
AcDbText
  0
LINE
  5
2AB
330
4E0
100
AcDbEntity
  8
instruct-option
100
AcDbLine
 10
11.78895516487532
 20
7.955951015768698
 30
0.0
 11
11.78895516487532
 21
5.059759532367911
 31
0.0
  0
LINE
  5
2B5
330
4E0
100
AcDbEntity
  8
instruct-option
100
AcDbLine
 10
11.78895516487532
 20
5.059759532367911
 30
0.0
 11
16.22069239351838
 21
5.059759532367911
 31
0.0
  0
LINE
  5
2C8
330
4E0
100
AcDbEntity
  8
instruct-option
100
AcDbLine
 10
16.22069239351839
 20
7.955951015768697
 30
0.0
 11
11.78895516487532
 21
7.955951015768698
 31
0.0
  0
LINE
  5
39F
330
4E0
100
AcDbEntity
  8
option_rb_sa
100
AcDbLine
 10
2.192889044125118
 20
3.437048321774873
 30
0.0
 11
2.327903815979926
 21
3.437048321774873
 31
0.0
  0
TEXT
  5
3A0
330
4E0
100
AcDbEntity
  8
text-rb-sa-bubbles
100
AcDbText
 10
4.199400654615947
 20
4.592281527903216
 30
0.0
 40
0.125
  1
3
  7
ROMANS
 72
     4
 11
4.258924464139756
 21
4.654781527903216
 31
0.0
100
AcDbText
  0
TEXT
  5
3A1
330
4E0
100
AcDbEntity
  8
text-rb-sa-bubbles
100
AcDbText
 10
4.203316897565333
 20
4.257072554320767
 30
0.0
 40
0.125
  1
4
  7
ROMANS
 72
     4
 11
4.265816897565333
 21
4.319572554320767
 31
0.0
100
AcDbText
  0
CIRCLE
  5
3A2
330
4E0
100
AcDbEntity
  8
text-rb-sa-bubbles
100
AcDbCircle
 10
4.265816897565333
 20
4.319572554320767
 30
0.0
 40
0.15625
  0
CIRCLE
  5
3A3
330
4E0
100
AcDbEntity
  8
text-rb-sa-bubbles
100
AcDbCircle
 10
4.258924464139756
 20
4.654781527903216
 30
0.0
 40
0.15625
  0
TEXT
  5
3A4
330
4E0
100
AcDbEntity
  8
text-rb-sa-bubbles
100
AcDbText
 10
4.199400654615947
 20
3.858429447285038
 30
0.0
 40
0.125
  1
5
  7
ROMANS
 72
     4
 11
4.258924464139756
 21
3.920929447285038
 31
0.0
100
AcDbText
  0
CIRCLE
  5
3A5
330
4E0
100
AcDbEntity
  8
text-rb-sa-bubbles
100
AcDbCircle
 10
4.258924464139756
 20
3.920929447285038
 30
0.0
 40
0.15625
  0
TEXT
  5
3A6
330
4E0
100
AcDbEntity
  8
text-rb-sa-bubbles
100
AcDbText
 10
4.598981182500883
 20
3.864952182347783
 30
0.0
 40
0.125
  1
PVC SCH 40 TEE OR ELL
  7
ROMANS
100
AcDbText
  0
TEXT
  5
3A7
330
4E0
100
AcDbEntity
  8
text-rb-sa-bubbles
100
AcDbText
 10
4.598981182500883
 20
4.608710444567776
 30
0.0
 40
0.125
  1
PVC LATERAL PIPE
  7
ROMANS
100
AcDbText
  0
TEXT
  5
3A8
330
4E0
100
AcDbEntity
  8
text-rb-sa-bubbles
100
AcDbText
 10
4.598981182500883
 20
4.118695465787161
 30
0.0
 40
0.125
  1
  RAIN BIRD MODEL SA 6050
  7
ROMANS
100
AcDbText
  0
TEXT
  5
3A9
330
4E0
100
AcDbEntity
  8
text-rb-sa-bubbles
100
AcDbText
 10
4.598981182500883
 20
4.27560540841416
 30
0.0
 40
0.125
  1
SWING ASSEMBLY:
  7
ROMANS
100
AcDbText
  0
TEXT
  5
3AB
330
4E0
100
AcDbEntity
  8
text-rb-sa-leaders
100
AcDbText
 10
4.615063220638749
 20
3.546872384431041
 30
0.0
 40
0.125
  1
SWING ASSEMBLY:
  7
ROMANS
100
AcDbText
  0
LINE
  5
3AD
330
4E0
100
AcDbEntity
  8
option_rb_sa
100
AcDbLine
 10
4.347519906490026
 20
2.655121190903139
 30
0.0
 11
4.347519906490026
 21
2.944287230785349
 31
0.0
  0
LINE
  5
3AE
330
4E0
100
AcDbEntity
  8
option_rb_sa
100
AcDbLine
 10
4.347519906490026
 20
2.899813133730777
 30
0.0
 11
4.6846164260239
 21
2.899813133730777
 31
0.0
  0
LINE
  5
3AF
330
4E0
100
AcDbEntity
  8
option_rb_sa
100
AcDbLine
 10
4.347519906490026
 20
2.696193051596785
 30
0.0
 11
4.6846164260239
 21
2.696193051596785
 31
0.0
  0
LWPOLYLINE
  5
3B1
330
4E0
100
AcDbEntity
  8
option_rb_sa
100
AcDbPolyline
 90
        4
 70
     0
 43
0.0
 10
4.6846164260239
 20
2.899813133730777
 42
-0.5107053858875276
 10
4.684616426023911
 20
2.796552854269714
 42
0.5107053858875159
 10
4.6846164260239
 20
2.696193051596785
 42
0.5397302473450178
 10
4.686542595538716
 20
2.798003092663779
 42
0.5397302473450178
  0
TEXT
  5
3B2
330
4E0
100
AcDbEntity
  8
text-rb-sa-bubbles
100
AcDbText
 10
4.385003767429934
 20
1.927750243806751
 30
0.0
 40
0.125
  1
5
  7
ROMANS
 72
     4
 11
4.444527576953744
 21
1.990250243806751
 31
0.0
100
AcDbText
  0
CIRCLE
  5
3B3
330
4E0
100
AcDbEntity
  8
text-rb-sa-bubbles
100
AcDbCircle
 10
4.444527576953744
 20
1.990250243806751
 30
0.0
 40
0.15625
  0
LINE
  5
3B7
330
4E0
100
AcDbEntity
  8
option_rb_sa
100
AcDbLine
 10
2.432022640559444
 20
3.240163640035513
 30
0.0
 11
2.40344204638182
 21
3.249346769799685
 31
0.0
  0
LINE
  5
3B8
330
4E0
100
AcDbEntity
  8
option_rb_sa
100
AcDbLine
 10
2.347113658385863
 20
3.467941052104118
 30
0.0
 11
2.347113658385863
 21
3.20951749349542
 31
0.0
  0
LINE
  5
3B9
330
4E0
100
AcDbEntity
  8
option_rb_sa
100
AcDbLine
 10
2.383386072162234
 20
3.080584545505454
 30
0.0
 11
2.323304914735603
 21
3.100256158065169
 31
0.0
  0
LINE
  5
3BA
330
4E0
100
AcDbEntity
  8
option_rb_sa
100
AcDbLine
 10
2.377645615057603
 20
3.061749809068783
 30
0.0
 11
2.436802350923064
 21
3.255846116761934
 31
0.0
  0
LINE
  5
3BC
330
4E0
100
AcDbEntity
  8
option_rb_sa
100
AcDbLine
 10
3.975710116034788
 20
2.734004172712181
 30
0.0
 11
3.915668013037582
 21
2.751934186342498
 31
0.0
  0
LINE
  5
3BD
330
4E0
100
AcDbEntity
  8
option_rb_sa
100
AcDbLine
 10
3.742701191760409
 20
2.775355437535389
 30
0.0
 11
3.742701191760409
 21
2.655121190903139
 31
0.0
  0
LINE
  5
3BE
330
4E0
100
AcDbEntity
  8
option_rb_sa
100
AcDbLine
 10
3.970371384943809
 20
2.934171211153198
 30
0.0
 11
3.912034211303441
 21
2.7398286580413
 31
0.0
  0
ARC
  5
3BF
330
4E0
100
AcDbEntity
  8
option_rb_sa
100
AcDbCircle
 10
4.046590426008423
 20
2.799894159010441
 30
0.0
 40
0.1267079420559205
100
AcDbArc
 50
204.5463070897701
 51
122.199916707569
  0
LINE
  5
3C0
330
4E0
100
AcDbEntity
  8
option_rb_sa
100
AcDbLine
 10
4.023447430524244
 20
2.893861761918904
 30
0.0
 11
3.963633168386097
 21
2.911723736798001
 31
0.0
  0
ARC
  5
3C1
330
4E0
100
AcDbEntity
  8
option_rb_sa
100
AcDbCircle
 10
4.046590426008423
 20
2.799894159010441
 30
0.0
 40
0.0967755580523473
100
AcDbArc
 50
222.910381779526
 51
103.8358420178157
  0
TEXT
  5
3C3
330
4E0
100
AcDbEntity
  8
text-rb-sa-bubbles
100
AcDbText
 10
3.442209925363142
 20
3.583467127499955
 30
0.0
 40
0.1253
  1
4
  7
ROMANS
 72
     4
 11
3.504859925363142
 21
3.646117127499955
 31
0.0
100
AcDbText
  0
TEXT
  5
3C5
330
4E0
100
AcDbEntity
  8
text-rb-sa-bubbles
100
AcDbText
 10
2.328200673981311
 20
1.92761048692622
 30
0.0
 40
0.125
  1
3
  7
ROMANS
 72
     4
 11
2.38772448350512
 21
1.99011048692622
 31
0.0
100
AcDbText
  0
CIRCLE
  5
3C6
330
4E0
100
AcDbEntity
  8
text-rb-sa-bubbles
100
AcDbCircle
 10
2.38772448350512
 20
1.99011048692622
 30
0.0
 40
0.15625
  0
CIRCLE
  5
3C8
330
4E0
100
AcDbEntity
  8
text-rb-sa-bubbles
100
AcDbCircle
 10
3.504859925363142
 20
3.646117127499955
 30
0.0
 40
0.156625
  0
LINE
  5
3CB
330
4E0
100
AcDbEntity
  8
option_rb_sa
100
AcDbLine
 10
3.970371384943809
 20
2.934171211153198
 30
0.0
 11
2.436802350923064
 21
3.255846116761933
 31
0.0
  0
LINE
  5
3CC
330
4E0
100
AcDbEntity
  8
option_rb_sa
100
AcDbLine
 10
2.377645623108153
 20
3.061749835483051
 30
0.0
 11
3.912034211303441
 21
2.7398286580413
 31
0.0
  0
LINE
  5
3CE
330
4E0
100
AcDbEntity
  8
option_rb_sa
100
AcDbLine
 10
4.347519906490026
 20
2.944287230785349
 30
0.0
 11
3.936878754645012
 21
2.944287230785344
 31
0.0
  0
LINE
  5
3CF
330
4E0
100
AcDbEntity
  8
option_rb_sa
100
AcDbLine
 10
3.742701191760409
 20
2.655121190903139
 30
0.0
 11
4.347519906490026
 21
2.655121190903139
 31
0.0
  0
LINE
  5
3D2
330
4E0
100
AcDbEntity
  8
option_rb_sa
100
AcDbLine
 10
2.172491994678208
 20
3.208829008146146
 30
0.0
 11
2.172491994678207
 21
3.467941052104118
 31
0.0
  0
LWPOLYLINE
  5
3D3
330
4E0
100
AcDbEntity
  8
option_rb_sa
100
AcDbPolyline
 90
        4
 70
     0
 43
0.0
 10
1.608246129356984
 20
2.899813133730777
 42
0.5107053858875276
 10
1.608246129356975
 20
2.796552854269714
 42
-0.5107053858875159
 10
1.608246129356984
 20
2.696193051596785
 42
-0.5397302473450178
 10
1.606319959842168
 20
2.798003092663779
 42
-0.5397302473450178
  0
LINE
  5
3D4
330
4E0
100
AcDbEntity
  8
option_rb_sa
100
AcDbLine
 10
3.14949241229192
 20
2.899813133730776
 30
0.0
 11
1.608246129356983
 21
2.899813133730777
 31
0.0
  0
LINE
  5
3D5
330
4E0
100
AcDbEntity
  8
option_rb_sa
100
AcDbLine
 10
3.742701191760409
 20
2.696193051596785
 30
0.0
 11
1.608246129356983
 21
2.696193051596785
 31
0.0
  0
ARC
  5
3D6
330
4E0
100
AcDbEntity
  8
option_rb_sa
100
AcDbCircle
 10
2.259802826532035
 20
3.230471335025316
 30
0.0
 40
0.1448741092016656
100
AcDbArc
 50
127.0611407962445
 51
52.93885920375984
  0
LINE
  5
3D7
330
4E0
100
AcDbEntity
  8
option_rb_sa
100
AcDbLine
 10
2.172491994678207
 20
3.411989118237289
 30
0.0
 11
2.347113658385863
 21
3.411989118237289
 31
0.0
  0
ARC
  5
3D8
330
4E0
100
AcDbEntity
  8
option_rb_sa
100
AcDbCircle
 10
2.259673402680824
 20
3.241999233604317
 30
0.0
 40
0.0932784099256874
100
AcDbArc
 50
200.8304993914682
 51
339.6213013705944
  0
TEXT
  5
3D9
330
4E0
100
AcDbEntity
  8
text-rb-sa-leaders
100
AcDbText
 10
4.581020776609779
 20
1.48137761117668
 30
0.0
 40
0.125
  1
PVC LATERAL PIPE
  7
ROMANS
100
AcDbText
  0
TEXT
  5
3DA
330
4E0
100
AcDbEntity
  8
text-rb-sa-leaders
100
AcDbText
 10
4.615063220638749
 20
3.389962441804041
 30
0.0
 40
0.125
  1
  RAIN BIRD MODEL SA 6050
  7
ROMANS
100
AcDbText
  0
TEXT
  5
3DB
330
4E0
100
AcDbEntity
  8
text-rb-sa-leaders
100
AcDbText
 10
4.598981182500883
 20
1.930660757682878
 30
0.0
 40
0.125
  1
PVC SCH 40 TEE OR ELL
  7
ROMANS
100
AcDbText
  0
LINE
  5
3E1
330
4E0
100
AcDbEntity
  8
instruct-option
100
AcDbLine
 10
16.22069239351838
 20
5.059759532367911
 30
0.0
 11
16.22069239351839
 21
7.955951015768697
 31
0.0
  0
TEXT
  5
54C
330
4E0
100
AcDbEntity
  8
instruct-option
100
AcDbText
 10
11.85784529299826
 20
6.756421775173533
 30
0.0
 40
0.1000000014900002
  1
TURNING ON THE APPROPRIATE LAYER:
  7
ROMANS
100
AcDbText
  0
TEXT
  5
54D
330
4E0
100
AcDbEntity
  8
instruct-option
100
AcDbText
 10
11.85784529299826
 20
6.896640186194902
 30
0.0
 40
0.1000000014900002
  1
SELECT THE DESIRED SWING ASSEMBLY BY
  7
ROMANS
100
AcDbText
  0
TEXT
  5
54E
330
4E0
100
AcDbEntity
  8
instruct-option
100
AcDbText
 10
11.8784907597672
 20
5.251000317245183
 30
0.0
 40
0.1
  1
  %%uOR%%u TEXT-RB-SA-BUBBLES
  7
ROMANS
100
AcDbText
  0
TEXT
  5
54F
330
4E0
100
AcDbEntity
  8
instruct-option
100
AcDbText
 10
11.8784907597672
 20
5.418239001273945
 30
0.0
 40
0.1
  1
  %%uAND EITHER%%u TEXT-RB-SA-LEADERS
  7
ROMANS
100
AcDbText
  0
TEXT
  5
550
330
4E0
100
AcDbEntity
  8
instruct-option
100
AcDbText
 10
11.8784907597672
 20
5.558239001273945
 30
0.0
 40
0.1
  1
  OPTION-RB-SA
  7
ROMANS
100
AcDbText
  0
TEXT
  5
551
330
4E0
100
AcDbEntity
  8
instruct-option
100
AcDbText
 10
11.8784907597672
 20
6.00883888296974
 30
0.0
 40
0.1
  1
  %%uOR%%u TEXT-SA-BUBBLES
  7
ROMANS
100
AcDbText
  0
TEXT
  5
552
330
4E0
100
AcDbEntity
  8
instruct-option
100
AcDbText
 10
11.8784907597672
 20
6.171849518150223
 30
0.0
 40
0.1
  1
  %%uAND EITHER%%u TEXT-SA-LEADERS
  7
ROMANS
100
AcDbText
  0
TEXT
  5
557
330
4E0
100
AcDbEntity
  8
instruct-option
100
AcDbText
 10
11.8784907597672
 20
6.311849518150224
 30
0.0
 40
0.1
  1
  OPTION-SA
  7
ROMANS
100
AcDbText
  0
TEXT
  5
55A
330
4E0
100
AcDbEntity
  8
instruct-option
100
AcDbText
 10
11.8784907597672
 20
5.742006728946827
 30
0.0
 40
0.1
  1
%%uRAIN BIRD SWING ASSEMBLY%%u
  7
ROMANS
100
AcDbText
  0
TEXT
  5
55B
330
4E0
100
AcDbEntity
  8
instruct-option
100
AcDbText
 10
11.8784907597672
 20
6.526770912751922
 30
0.0
 40
0.1
  1
%%uCONTRACTOR ASSEMBLED SWING ASSEMBLY%%u
  7
ROMANS
100
AcDbText
  0
TEXT
  5
55E
330
4E0
100
AcDbEntity
  8
instruct-option
100
AcDbText
 10
11.83765527352784
 20
4.724909193706178
 30
0.0
 40
0.1
  1
LAYER "INSTRUCT-OPTION".
  7
ROMANS
100
AcDbText
  0
TEXT
  5
55F
330
4E0
100
AcDbEntity
  8
instruct-option
100
AcDbText
 10
11.83765527352784
 20
4.89482976513338
 30
0.0
 40
0.1
  1
TO TURN OFF THIS INSTRUCTION BOX, TURN OFF
  7
ROMANS
100
AcDbText
  0
TEXT
  5
560
330
4E0
100
AcDbEntity
  8
instruct-option
100
AcDbText
 10
11.99911429934275
 20
7.991069642342318
 30
0.0
 40
0.1
  1
CHOOSING NOZZLES AND OPTIONAL FEATURES
  7
ROMANS
100
AcDbText
  0
TEXT
  5
565
330
4E0
100
AcDbEntity
  8
instruct-option
100
AcDbText
 10
11.85503923550691
 20
7.703124890529363
 30
0.0
 40
0.1
  1
CHOOSE ONE OF THE FOLLOWING OPTIONS
  7
ROMANS
100
AcDbText
  0
TEXT
  5
566
330
4E0
100
AcDbEntity
  8
instruct-option
100
AcDbText
 10
11.85503923550691
 20
7.563124890529363
 30
0.0
 40
0.1
  1
BY TURNING ON THE APPROPRIATE LAYER:
  7
ROMANS
100
AcDbText
  0
TEXT
  5
567
330
4E0
100
AcDbEntity
  8
instruct-option
100
AcDbText
 10
11.8784907597672
 20
7.345127820281375
 30
0.0
 40
0.1
  1
%%uSAM SERIES%%u
  7
ROMANS
100
AcDbText
  0
TEXT
  5
568
330
4E0
100
AcDbEntity
  8
instruct-option
100
AcDbText
 10
11.8784907597672
 20
7.141052864027577
 30
0.0
 40
0.1
  1
  OPTION-SAM
  7
ROMANS
100
AcDbText
  0
INSERT
  5
5B3
330
4E0
100
AcDbEntity
  8
title
100
AcDbBlockReference
 66
     1
  2
titleblock
 10
-0.0916749879134358
 20
-0.097854729324645
 30
0.0
  0
ATTRIB
  5
5B4
330
5B3
100
AcDbEntity
  8
title
100
AcDbText
 10
0.413880615888905
 20
0.6863723671537226
 30
0.0
 40
0.2
  1
D
  7
L200
 72
     4
 11
0.5147673826010469
 21
0.7863723671537226
 31
0.0
100
AcDbAttribute
  2
D
 70
     0
  0
ATTRIB
  5
5B5
330
5B3
100
AcDbEntity
  8
title
100
AcDbText
 10
1.139767382601046
 20
1.245857573422105
 30
0.0
 40
0.2
  1

  7
L200
100
AcDbAttribute
  2
TITLE1
 70
     0
  0
ATTRIB
  5
5B6
330
5B3
100
AcDbEntity
  8
title
100
AcDbText
 10
1.139767382601046
 20
0.8863723671537222
 30
0.0
 40
0.2
  1
1806 POP-UP SPRAY SPRINKLER
  7
L200
100
AcDbAttribute
  2
TITLE2
 70
     0
  0
ATTRIB
  5
5B7
330
5B3
100
AcDbEntity
  8
title
100
AcDbText
 10
2.621970763254875
 20
0.4949380371336734
 30
0.0
 40
0.2
  1
WITH ROTARY NOZZLE
  7
L200
100
AcDbAttribute
  2
TITLE3
 70
     0
  0
ATTRIB
  5
5B8
330
5B3
100
AcDbEntity
  8
title
100
AcDbText
 10
2.621970763254875
 20
0.1714013514921291
 30
0.0
 40
0.2
  1

  7
L200
100
AcDbAttribute
  2
TITLE4
 70
     0
  0
ATTRIB
  5
5B9
330
5B3
100
AcDbEntity
  8
title
 62
     7
100
AcDbText
 10
7.601730318243418
 20
0.8717480622199946
 30
0.0
 40
0.08
  1
6-24-08
  7
L80
 72
     2
 11
8.169349365862466
 21
0.8717480622199946
 31
0.0
100
AcDbAttribute
  2
REVISED
 70
     0
  0
ATTRIB
  5
5BA
330
5B3
100
AcDbEntity
  8
title
 62
     7
100
AcDbText
 10
0.1722673826010457
 20
-0.0131430813039231
 30
0.0
 40
0.08
  1
S-1806Rotary-SP.DWG
  7
L80
100
AcDbAttribute
  2
DWG-NAME
 70
     0
  0
ATTRIB
  5
5BB
330
5B3
100
AcDbEntity
  8
title
 62
     7
100
AcDbText
 10
1.139767382601046
 20
0.6027090500708443
 30
0.0
 40
0.1
  1
N.T.S.
  7
L100
100
AcDbAttribute
  2
SCALE
 70
     0
  0
SEQEND
  5
5BC
330
5B3
100
AcDbEntity
  8
image
  0
LEADER
  5
5D3
330
4E0
100
AcDbEntity
  8
text-sa-bubbles
100
AcDbLeader
  3
STANDARD
 76
     2
 10
4.028600501217661
 20
2.759645930213615
 30
0.0
 10
3.92973793810377
 20
2.146798900026694
 30
0.0
  0
LEADER
  5
5D4
330
4E0
100
AcDbEntity
  8
text-sa-bubbles
100
AcDbLeader
  3
STANDARD
 76
     2
 10
2.521605931739833
 20
2.697639124177565
 30
0.0
 10
2.66008743727819
 20
2.143202181191264
 30
0.0
  0
LEADER
  5
5D5
330
4E0
100
AcDbEntity
  8
text-sa-bubbles
100
AcDbLeader
  3
STANDARD
 76
     2
 10
4.358002305642816
 20
2.656567263483919
 30
0.0
 10
4.486364936163576
 20
2.142643153669141
 30
0.0
  0
LEADER
  5
5D6
330
4E0
100
AcDbEntity
  8
text-sa-bubbles
100
AcDbLeader
  3
STANDARD
 76
     2
 10
2.788524868946875
 20
3.126672393121915
 30
0.0
 10
3.034906468847483
 20
2.144296345712801
 30
0.0
  0
LEADER
  5
5D7
330
4E0
100
AcDbEntity
  8
text-sa-bubbles
100
AcDbLeader
  3
STANDARD
 76
     2
 10
2.176678266302941
 20
3.291338406428518
 30
0.0
 10
0.7111383247544963
 20
3.653532502146791
 30
0.0
  0
LEADER
  5
5D9
330
4E0
100
AcDbEntity
  8
text_bubbles
100
AcDbLeader
  3
STANDARD
 76
     2
 10
1.057972699677611
 20
6.084088125473453
 30
0.0
 10
0.7055784965783271
 20
5.5823797628831
 30
0.0
  0
LEADER
  5
5DA
330
4E0
100
AcDbEntity
  8
text_bubbles
100
AcDbLeader
  3
STANDARD
 76
     2
 10
2.054407537523053
 20
4.511687148350608
 30
0.0
 10
0.7111383247544963
 20
5.075285388808097
 30
0.0
  0
LEADER
  5
5DF
330
4E0
100
AcDbEntity
  8
text-rb-sa-bubbles
100
AcDbLeader
  3
STANDARD
 76
     2
 10
2.935571799861579
 20
3.151226362548999
 30
0.0
 10
3.355033037463827
 20
3.600474008769897
 30
0.0
  0
LEADER
  5
5E0
330
4E0
100
AcDbEntity
  8
text-rb-sa-bubbles
100
AcDbLeader
  3
STANDARD
 76
     2
 10
2.21159104675476
 20
2.696193051596785
 30
0.0
 10
2.350072552293119
 20
2.141756108610484
 30
0.0
  0
LEADER
  5
5E1
330
4E0
100
AcDbEntity
  8
text-rb-sa-bubbles
100
AcDbLeader
  3
STANDARD
 76
     2
 10
4.275802651965506
 20
2.655121190903139
 30
0.0
 10
4.404165282486266
 20
2.141197081088361
 30
0.0
  0
LEADER
  5
5E3
330
4E0
100
AcDbEntity
  8
text_leaders
100
AcDbLeader
  3
STANDARD
 76
     3
 10
2.466809964883034
 20
4.464097690615241
 30
0.0
 10
4.386652568005093
 20
5.262713407756148
 30
0.0
 10
4.567567160615043
 20
5.262713407756147
 30
0.0
  0
LEADER
  5
5E5
330
4E0
100
AcDbEntity
  8
text_leaders
100
AcDbLeader
  3
STANDARD
 76
     3
 10
3.702721052477615
 20
6.076802910745991
 30
0.0
 10
4.386652568005095
 20
6.419020013639859
 30
0.0
 10
4.567567160615043
 20
6.419020013639858
 30
0.0
  0
LEADER
  5
5ED
330
4E0
100
AcDbEntity
  8
text-rb-sa-leaders
100
AcDbLeader
  3
STANDARD
 76
     3
 10
3.845994847754247
 20
2.656375889192451
 30
0.0
 10
4.213653403720329
 20
1.978745572386575
 30
0.0
 10
4.567567160615043
 20
1.978745572386575
 30
0.0
211
-1.0
221
0.0
231
0.0
210
0.0
220
0.0
230
-1.0
  0
LEADER
  5
5EF
330
4E0
100
AcDbEntity
  8
text-rb-sa-leaders
100
AcDbLeader
  3
STANDARD
 76
     3
 10
3.295672483256399
 20
2.697447749886098
 30
0.0
 10
3.954834834713872
 20
1.525904860516726
 30
0.0
 10
4.567567160615043
 20
1.525904860516726
 30
0.0
211
-1.0
221
0.0
231
0.0
210
0.0
220
0.0
230
-1.0
  0
LEADER
  5
5F1
330
4E0
100
AcDbEntity
  8
text-rb-sa-leaders
100
AcDbLeader
  3
STANDARD
 76
     3
 10
3.163313953217355
 20
3.119355552493977
 30
0.0
 10
4.304452914327788
 20
3.596606679920884
 30
0.0
 10
4.567567160615043
 20
3.596606679920884
 30
0.0
  0
LEADER
  5
5F4
330
4E0
100
AcDbEntity
  8
text-sa-leaders
100
AcDbLeader
  3
STANDARD
 76
     3
 10
3.722575729242022
 20
2.697639124177566
 30
0.0
 10
4.386652568005095
 20
1.526096234808194
 30
0.0
 10
4.567567160615043
 20
1.526096234808193
 30
0.0
211
-1.0
221
0.0
231
0.0
210
0.0
220
0.0
230
-1.0
  0
LEADER
  5
5F6
330
4E0
100
AcDbEntity
  8
text-sa-leaders
100
AcDbLeader
  3
STANDARD
 76
     3
 10
4.135950320394777
 20
2.717349833101093
 30
0.0
 10
4.386652568005094
 20
2.262266520376494
 30
0.0
 10
4.567567160615043
 20
2.262266520376494
 30
0.0
211
-1.0
221
0.0
231
0.0
210
0.0
220
0.0
230
-1.0
  0
LEADER
  5
5F8
330
4E0
100
AcDbEntity
  8
text-sa-leaders
100
AcDbLeader
  3
STANDARD
 76
     3
 10
4.094633353322078
 20
2.945733303366125
 30
0.0
 10
4.453386619320546
 20
3.048787724475399
 30
0.0
 10
4.567567160615043
 20
3.048787724475398
 30
0.0
  0
LEADER
  5
5FA
330
4E0
100
AcDbEntity
  8
text-sa-leaders
100
AcDbLeader
  3
STANDARD
 76
     3
 10
3.371864387306353
 20
3.231617763543841
 30
0.0
 10
4.386652568005093
 20
3.653907913946797
 30
0.0
 10
4.567567160615043
 20
3.653907913946796
 30
0.0
  0
LEADER
  5
5FB
330
4E0
100
AcDbEntity
  8
text-sa-leaders
100
AcDbLeader
  3
STANDARD
 76
     3
 10
2.363237322161455
 20
3.394270511956172
 30
0.0
 10
4.386652568005093
 20
4.236286949225474
 30
0.0
 10
4.567567160615043
 20
4.236286949225474
 30
0.0
  0
INSERT
  5
78E
330
4E0
100
AcDbEntity
  8
image
  6
Continuous
100
AcDbBlockReference
  2
*X1
 10
0.3151188832748368
 20
0.4508529962905659
 30
0.0
1001
ACAD
1000
HATCH
1002
{
1070
    19
1000
EARTH
1040
0.65
1040
0.7853981633974483
1000
R14_HATCH_DATA
1000
2AC
1011
1.315118883274836
1021
0.4508529962905659
1031
0.0
1011
0.3151188832748366
1021
1.450852996290565
1031
0.0
1011
0.3151188832748366
1021
0.4508529962905659
1031
1.0
1040
0.0
1010
0.0
1020
0.0
1030
1.0
1000
EARTH
1070
     0
1070
     0
1071
        2
1071
        7
1070
     0
1070
     1
1071
       14
1040
1.589837671950278
1040
5.579446240038
1040
1.589837671950281
1040
5.625949914455427
1040
0.9018948484995124
1040
5.625949914455429
1040
0.934666186298547
1040
5.541078655109741
1040
0.9831831153610856
1040
5.41709655207206
1040
1.031480374187087
1040
5.295688183413179
1040
1.09699193003236
1040
5.248062654268601
1040
1.28628504307409
1040
5.041375969845869
1040
1.316739912693476
1040
5.015262296970326
1040
1.499449565665185
1040
4.971697779962349
1040
1.645172995181743
1040
4.947715581994131
1040
1.737275681255463
1040
4.940436142981229
1040
1.737275681255463
1040
5.443500643791316
1040
1.664199693369322
1040
5.443500643791317
1071
        0
1071
        7
1070
     0
1070
     1
1071
       15
1040
2.835000605503907
1040
5.415729867120244
1040
2.888360612699532
1040
5.469878780684781
1040
2.930401851515235
1040
5.564437310910081
1040
2.949805495751768
1040
5.625949914455427
1040
2.296691475619589
1040
5.625949914455428
1040
2.296691475619589
1040
5.579446240038
1040
2.222329454200543
1040
5.443500643791315
1040
2.149253466314398
1040
5.443500643791317
1040
2.149253466314402
1040
4.942679170672474
1040
2.386291325306731
1040
5.17165571233919
1040
2.443693770430662
1040
5.216106307457263
1040
2.493819856193297
1040
5.224188227058022
1040
2.566583536535129
1040
5.241968465105257
1040
2.651474472842532
1040
5.267022441987338
1040
2.794576341859524
1040
5.34622531377702
1071
        0
1070
     0
1070
     1
1040
0.7853981633974483
1040
0.65
1070
     0
1070
     6
1040
0.7853981633974483
1040
-0.0000000000000036
1040
-0.5
1040
0.0
1040
0.2298097038856279
1070
     2
1040
0.1625
1040
-0.1625
1040
0.7853981633974483
1040
-0.0430893194785588
1040
-0.4569106805214448
1040
0.0
1040
0.2298097038856279
1070
     2
1040
0.1625
1040
-0.1625
1040
0.7853981633974483
1040
-0.0861786389571141
1040
-0.4138213610428896
1040
0.0
1040
0.2298097038856279
1070
     2
1040
0.1625
1040
-0.1625
1040
2.356194490192344
1040
-0.086178638957114
1040
-0.385095148057186
1040
-0.2298097038856279
1040
0.0
1070
     2
1040
0.1625
1040
-0.1625
1040
2.356194490192344
1040
-0.0430893194785588
1040
-0.3420058285786307
1040
-0.2298097038856279
1040
0.0
1070
     2
1040
0.1625
1040
-0.1625
1040
2.356194490192344
1040
-0.0000000000000035
1040
-0.2989165091000756
1040
-0.2298097038856279
1040
0.0
1070
     2
1040
0.1625
1040
-0.1625
1040
0.0017236619931563
1071
        2
1040
1.40628991813741
1040
5.445922857244188
1040
0.0
1040
2.492590097024358
1040
5.397660316105262
1040
0.0
1002
}
  0
LWPOLYLINE
  5
78F
330
4E0
100
AcDbEntity
  8
image
100
AcDbPolyline
 90
        2
 70
     0
 43
0.0
 10
2.642279542968742
 20
4.703718474677812
 42
0.414213562373093
 10
2.670335014999465
 20
4.731773946708536
 42
0.414213562373093
  0
LWPOLYLINE
  5
790
330
4E0
100
AcDbEntity
  8
image
100
AcDbPolyline
 90
        2
 70
     0
 43
0.0
 10
2.670335014999465
 20
4.950279889860722
 42
0.4142135623730951
 10
2.642279542968742
 20
4.978335361891446
 42
0.4142135623730951
  0
ARC
  5
791
330
4E0
100
AcDbEntity
  8
image
100
AcDbCircle
 10
3.620043201404149
 20
6.916295915864579
 30
0.0
 40
0.1566980695398199
100
AcDbArc
 50
98.53076560994793
 51
187.7294390983636
  0
ARC
  5
792
330
4E0
100
AcDbEntity
  8
image
100
AcDbCircle
 10
3.441524192568321
 20
7.050185172491451
 30
0.0
 40
0.1566980695398199
100
AcDbArc
 50
278.5307656099479
 51
7.729439098363577
  0
ARC
  5
793
330
4E0
100
AcDbEntity
  8
image
100
AcDbCircle
 10
3.19754821382602
 20
6.810672168970047
 30
0.0
 40
0.1566980695398199
100
AcDbArc
 50
98.53076560994793
 51
187.7294390983636
  0
ARC
  5
794
330
4E0
100
AcDbEntity
  8
image
100
AcDbCircle
 10
3.019029204990193
 20
6.944561425596919
 30
0.0
 40
0.1566980695398199
100
AcDbArc
 50
278.5307656099479
 51
7.729439098363577
  0
ARC
  5
795
330
4E0
100
AcDbEntity
  8
image
100
AcDbCircle
 10
3.310153869577297
 20
6.580673967764398
 30
0.0
 40
0.1566980695398199
100
AcDbArc
 50
159.7199718669748
 51
248.9186453553905
  0
ARC
  5
796
330
4E0
100
AcDbEntity
  8
image
100
AcDbCircle
 10
3.106806315371215
 20
6.488776515382803
 30
0.0
 40
0.1566980695398199
100
AcDbArc
 50
339.7199718669747
 51
68.91864535539045
  0
ARC
  5
797
330
4E0
100
AcDbEntity
  8
image
100
AcDbCircle
 10
3.628845180312027
 20
6.678642485351883
 30
0.0
 40
0.1566980695398199
100
AcDbArc
 50
98.53076560994793
 51
187.7294390983636
  0
ARC
  5
798
330
4E0
100
AcDbEntity
  8
image
100
AcDbCircle
 10
3.450326171476197
 20
6.812531741978754
 30
0.0
 40
0.1566980695398199
100
AcDbArc
 50
278.5307656099479
 51
7.729439098363577
  0
ARC
  5
799
330
4E0
100
AcDbEntity
  8
image
100
AcDbCircle
 10
2.815139701116563
 20
6.934293722550875
 30
0.0
 40
0.1566980695398199
100
AcDbArc
 50
143.5307656099477
 51
232.7294390983635
  0
ARC
  5
79A
330
4E0
100
AcDbEntity
  8
image
100
AcDbCircle
 10
2.594233698109161
 20
6.902735722121247
 30
0.0
 40
0.1566980695398199
100
AcDbArc
 50
323.5307656099477
 51
52.72943909836341
  0
ARC
  5
79B
330
4E0
100
AcDbEntity
  8
image
100
AcDbCircle
 10
2.959894783313324
 20
6.256147497773755
 30
0.0
 40
0.1566980695398199
100
AcDbArc
 50
98.53076560994793
 51
187.7294390983636
  0
ARC
  5
79C
330
4E0
100
AcDbEntity
  8
image
100
AcDbCircle
 10
2.781375774477495
 20
6.390036754400626
 30
0.0
 40
0.1566980695398199
100
AcDbArc
 50
278.5307656099479
 51
7.729439098363577
  0
ARC
  5
79D
330
4E0
100
AcDbEntity
  8
image
100
AcDbCircle
 10
3.303171960720554
 20
6.132919793063466
 30
0.0
 40
0.1566980695398199
100
AcDbArc
 50
98.53076560994793
 51
187.7294390983636
  0
ARC
  5
79E
330
4E0
100
AcDbEntity
  8
image
100
AcDbCircle
 10
3.124652951884724
 20
6.266809049690339
 30
0.0
 40
0.1566980695398199
100
AcDbArc
 50
278.5307656099479
 51
7.729439098363577
  0
ARC
  5
79F
330
4E0
100
AcDbEntity
  8
image
100
AcDbCircle
 10
2.860350905950641
 20
6.700024009171867
 30
0.0
 40
0.1566980695398199
100
AcDbArc
 50
339.7199718669747
 51
68.91864535539045
  0
ARC
  5
7A0
330
4E0
100
AcDbEntity
  8
image
100
AcDbCircle
 10
3.063698460156723
 20
6.791921461553462
 30
0.0
 40
0.1566980695398199
100
AcDbArc
 50
159.7199718669748
 51
248.9186453553905
  0
ARC
  5
7A1
330
4E0
100
AcDbEntity
  8
image
100
AcDbCircle
 10
2.877954863766396
 20
6.981687334223953
 30
0.0
 40
0.1566980695398199
100
AcDbArc
 50
339.7199718669747
 51
68.91864535539045
  0
ARC
  5
7A2
330
4E0
100
AcDbEntity
  8
image
100
AcDbCircle
 10
3.081302417972479
 20
7.073584786605547
 30
0.0
 40
0.1566980695398199
100
AcDbArc
 50
159.7199718669748
 51
248.9186453553905
  0
ARC
  5
7A3
330
4E0
100
AcDbEntity
  8
image
100
AcDbCircle
 10
3.318053809160279
 20
6.356746831764638
 30
0.0
 40
0.1566980695398199
100
AcDbArc
 50
339.7199718669747
 51
68.91864535539045
  0
ARC
  5
7A4
330
4E0
100
AcDbEntity
  8
image
100
AcDbCircle
 10
3.521401363366362
 20
6.448644284146232
 30
0.0
 40
0.1566980695398199
100
AcDbArc
 50
159.7199718669748
 51
248.9186453553905
  0
ARC
  5
7A5
330
4E0
100
AcDbEntity
  8
image
100
AcDbCircle
 10
3.265241935713012
 20
6.286331000501617
 30
0.0
 40
0.1566980695398199
100
AcDbArc
 50
339.7199718669747
 51
68.91864535539045
  0
ARC
  5
7A6
330
4E0
100
AcDbEntity
  8
image
100
AcDbCircle
 10
3.468589489919096
 20
6.378228452883211
 30
0.0
 40
0.1566980695398199
100
AcDbArc
 50
159.7199718669748
 51
248.9186453553905
  0
ARC
  5
7A7
330
4E0
100
AcDbEntity
  8
image
100
AcDbCircle
 10
3.432479534962689
 20
6.744033903711255
 30
0.0
 40
0.1566980695398199
100
AcDbArc
 50
339.7199718669747
 51
68.91864535539045
  0
ARC
  5
7A8
330
4E0
100
AcDbEntity
  8
image
100
AcDbCircle
 10
3.635827089168771
 20
6.835931356092849
 30
0.0
 40
0.1566980695398199
100
AcDbArc
 50
159.7199718669748
 51
248.9186453553905
  0
ARC
  5
7A9
330
4E0
100
AcDbEntity
  8
image
100
AcDbCircle
 10
3.133212252094848
 20
6.708825988079745
 30
0.0
 40
0.1566980695398199
100
AcDbArc
 50
339.7199718669747
 51
68.91864535539045
  0
ARC
  5
7AA
330
4E0
100
AcDbEntity
  8
image
100
AcDbCircle
 10
3.33655980630093
 20
6.800723440461339
 30
0.0
 40
0.1566980695398199
100
AcDbArc
 50
159.7199718669748
 51
248.9186453553905
  0
ARC
  5
7AB
330
4E0
100
AcDbEntity
  8
image
100
AcDbCircle
 10
3.265241935713012
 20
6.964083376408197
 30
0.0
 40
0.1566980695398199
100
AcDbArc
 50
339.7199718669747
 51
68.91864535539045
  0
ARC
  5
7AC
330
4E0
100
AcDbEntity
  8
image
100
AcDbCircle
 10
3.468589489919096
 20
7.055980828789791
 30
0.0
 40
0.1566980695398199
100
AcDbArc
 50
159.7199718669748
 51
248.9186453553905
  0
ARC
  5
7AD
330
4E0
100
AcDbEntity
  8
image
100
AcDbCircle
 10
2.97477663175305
 20
6.761637861527011
 30
0.0
 40
0.1566980695398199
100
AcDbArc
 50
339.7199718669747
 51
68.91864535539045
  0
ARC
  5
7AE
330
4E0
100
AcDbEntity
  8
image
100
AcDbCircle
 10
3.178124185959133
 20
6.853535313908605
 30
0.0
 40
0.1566980695398199
100
AcDbArc
 50
159.7199718669748
 51
248.9186453553905
  0
ARC
  5
7AF
330
4E0
100
AcDbEntity
  8
image
100
AcDbCircle
 10
2.734531882951522
 20
6.469096770950748
 30
0.0
 40
0.1566980695398199
100
AcDbArc
 50
339.7199718669747
 51
68.91864535539045
  0
ARC
  5
7B0
330
4E0
100
AcDbEntity
  8
image
100
AcDbCircle
 10
2.937879437157604
 20
6.560994223332342
 30
0.0
 40
0.1566980695398199
100
AcDbArc
 50
159.7199718669748
 51
248.9186453553905
  0
ARC
  5
7B1
330
4E0
100
AcDbEntity
  8
image
100
AcDbCircle
 10
2.913162779397907
 20
6.347944852856761
 30
0.0
 40
0.1566980695398199
100
AcDbArc
 50
339.7199718669747
 51
68.91864535539045
  0
ARC
  5
7B2
330
4E0
100
AcDbEntity
  8
image
100
AcDbCircle
 10
3.116510333603989
 20
6.439842305238355
 30
0.0
 40
0.1566980695398199
100
AcDbArc
 50
159.7199718669748
 51
248.9186453553905
  0
ARC
  5
7B3
330
4E0
100
AcDbEntity
  8
image
100
AcDbCircle
 10
2.97477663175305
 20
6.497578494290681
 30
0.0
 40
0.1566980695398199
100
AcDbArc
 50
339.7199718669747
 51
68.91864535539045
  0
ARC
  5
7B4
330
4E0
100
AcDbEntity
  8
image
100
AcDbCircle
 10
3.178124185959133
 20
6.589475946672275
 30
0.0
 40
0.1566980695398199
100
AcDbArc
 50
159.7199718669748
 51
248.9186453553905
  0
ARC
  5
7B5
330
4E0
100
AcDbEntity
  8
image
100
AcDbCircle
 10
3.335657766976034
 20
6.550390367737947
 30
0.0
 40
0.1566980695398199
100
AcDbArc
 50
339.7199718669747
 51
68.91864535539045
  0
ARC
  5
7B6
330
4E0
100
AcDbEntity
  8
image
100
AcDbCircle
 10
3.539005321182117
 20
6.642287820119541
 30
0.0
 40
0.1566980695398199
100
AcDbArc
 50
159.7199718669748
 51
248.9186453553905
  0
ARC
  5
7B7
330
4E0
100
AcDbEntity
  8
image
100
AcDbCircle
 10
3.485291408409954
 20
6.321538916133127
 30
0.0
 40
0.1566980695398199
100
AcDbArc
 50
339.7199718669747
 51
68.91864535539045
  0
ARC
  5
7B8
330
4E0
100
AcDbEntity
  8
image
100
AcDbCircle
 10
3.688638962616038
 20
6.413436368514722
 30
0.0
 40
0.1566980695398199
100
AcDbArc
 50
159.7199718669748
 51
248.9186453553905
  0
ARC
  5
7B9
330
4E0
100
AcDbEntity
  8
image
100
AcDbCircle
 10
2.752669318450959
 20
6.911537701029124
 30
0.0
 40
0.1566980695398199
100
AcDbArc
 50
323.5307656099477
 51
52.72943909836341
  0
ARC
  5
7BA
330
4E0
100
AcDbEntity
  8
image
100
AcDbCircle
 10
2.973575321458362
 20
6.943095701458752
 30
0.0
 40
0.1566980695398199
100
AcDbArc
 50
143.5307656099477
 51
232.7294390983635
  0
ARC
  5
7BB
330
4E0
100
AcDbEntity
  8
image
100
AcDbCircle
 10
3.210372221660598
 20
6.823517911950348
 30
0.0
 40
0.1566980695398199
100
AcDbArc
 50
323.5307656099477
 51
52.72943909836341
  0
ARC
  5
7BC
330
4E0
100
AcDbEntity
  8
image
100
AcDbCircle
 10
3.431278224668001
 20
6.855075912379976
 30
0.0
 40
0.1566980695398199
100
AcDbArc
 50
143.5307656099477
 51
232.7294390983635
  0
ARC
  5
7BD
330
4E0
100
AcDbEntity
  8
image
100
AcDbCircle
 10
3.08714451695031
 20
7.025963426831534
 30
0.0
 40
0.1566980695398199
100
AcDbArc
 50
323.5307656099477
 51
52.72943909836341
  0
ARC
  5
7BE
330
4E0
100
AcDbEntity
  8
image
100
AcDbCircle
 10
3.308050519957714
 20
7.057521427261162
 30
0.0
 40
0.1566980695398199
100
AcDbArc
 50
143.5307656099477
 51
232.7294390983635
  0
ARC
  5
7BF
330
4E0
100
AcDbEntity
  8
image
100
AcDbCircle
 10
3.333599926370885
 20
7.105181237002433
 30
0.0
 40
0.1566980695398199
100
AcDbArc
 50
323.5307656099477
 51
52.72943909836341
  0
ARC
  5
7C0
330
4E0
100
AcDbEntity
  8
image
100
AcDbCircle
 10
3.554505929378287
 20
7.136739237432061
 30
0.0
 40
0.1566980695398199
100
AcDbArc
 50
143.5307656099477
 51
232.7294390983635
  0
ARC
  5
7C1
330
4E0
100
AcDbEntity
  8
image
100
AcDbCircle
 10
3.474431588896929
 20
6.541854586898263
 30
0.0
 40
0.1566980695398199
100
AcDbArc
 50
323.5307656099477
 51
52.72943909836341
  0
ARC
  5
7C2
330
4E0
100
AcDbEntity
  8
image
100
AcDbCircle
 10
3.695337591904329
 20
6.57341258732789
 30
0.0
 40
0.1566980695398199
100
AcDbArc
 50
143.5307656099477
 51
232.7294390983635
  0
ARC
  5
7C3
330
4E0
100
AcDbEntity
  8
image
100
AcDbCircle
 10
3.333599926370885
 20
6.224983346214666
 30
0.0
 40
0.1566980695398199
100
AcDbArc
 50
323.5307656099477
 51
52.72943909836341
  0
ARC
  5
7C4
330
4E0
100
AcDbEntity
  8
image
100
AcDbCircle
 10
3.554505929378287
 20
6.256541346644294
 30
0.0
 40
0.1566980695398199
100
AcDbArc
 50
143.5307656099477
 51
232.7294390983635
  0
ARC
  5
7C5
330
4E0
100
AcDbEntity
  8
image
100
AcDbCircle
 10
3.175164306029087
 20
6.1721714727674
 30
0.0
 40
0.1566980695398199
100
AcDbArc
 50
323.5307656099477
 51
52.72943909836341
  0
ARC
  5
7C6
330
4E0
100
AcDbEntity
  8
image
100
AcDbCircle
 10
3.396070309036489
 20
6.203729473197029
 30
0.0
 40
0.1566980695398199
100
AcDbArc
 50
143.5307656099477
 51
232.7294390983635
  0
ARC
  5
7C7
330
4E0
100
AcDbEntity
  8
image
100
AcDbCircle
 10
2.884699002069124
 20
6.189775430583156
 30
0.0
 40
0.1566980695398199
100
AcDbArc
 50
323.5307656099477
 51
52.72943909836341
  0
ARC
  5
7C8
330
4E0
100
AcDbEntity
  8
image
100
AcDbCircle
 10
3.105605005076527
 20
6.221333431012784
 30
0.0
 40
0.1566980695398199
100
AcDbArc
 50
143.5307656099477
 51
232.7294390983635
  0
ARC
  5
7C9
330
4E0
100
AcDbEntity
  8
image
100
AcDbCircle
 10
3.069540559134555
 20
6.330607093109199
 30
0.0
 40
0.1566980695398199
100
AcDbArc
 50
323.5307656099477
 51
52.72943909836341
  0
ARC
  5
7CA
330
4E0
100
AcDbEntity
  8
image
100
AcDbCircle
 10
3.290446562141957
 20
6.362165093538826
 30
0.0
 40
0.1566980695398199
100
AcDbArc
 50
143.5307656099477
 51
232.7294390983635
  0
ARC
  5
7CB
330
4E0
100
AcDbEntity
  8
image
100
AcDbCircle
 10
3.192768263844843
 20
6.55065656580614
 30
0.0
 40
0.1566980695398199
100
AcDbArc
 50
323.5307656099477
 51
52.72943909836341
  0
ARC
  5
7CC
330
4E0
100
AcDbEntity
  8
image
100
AcDbCircle
 10
3.413674266852244
 20
6.582214566235768
 30
0.0
 40
0.1566980695398199
100
AcDbArc
 50
143.5307656099477
 51
232.7294390983635
  0
ARC
  5
7CD
330
4E0
100
AcDbEntity
  8
image
100
AcDbCircle
 10
3.263184095107863
 20
6.709092186147938
 30
0.0
 40
0.1566980695398199
100
AcDbArc
 50
323.5307656099477
 51
52.72943909836341
  0
ARC
  5
7CE
330
4E0
100
AcDbEntity
  8
image
100
AcDbCircle
 10
3.484090098115266
 20
6.740650186577566
 30
0.0
 40
0.1566980695398199
100
AcDbArc
 50
143.5307656099477
 51
232.7294390983635
  0
ARC
  5
7CF
330
4E0
100
AcDbEntity
  8
image
100
AcDbCircle
 10
3.307193989647252
 20
6.797111975226714
 30
0.0
 40
0.1566980695398199
100
AcDbArc
 50
323.5307656099477
 51
52.72943909836341
  0
ARC
  5
7D0
330
4E0
100
AcDbEntity
  8
image
100
AcDbCircle
 10
3.528099992654655
 20
6.828669975656342
 30
0.0
 40
0.1566980695398199
100
AcDbArc
 50
143.5307656099477
 51
232.7294390983635
  0
ARC
  5
7D1
330
4E0
100
AcDbEntity
  8
image
100
AcDbCircle
 10
2.990322748963656
 20
6.665082291608549
 30
0.0
 40
0.1566980695398199
100
AcDbArc
 50
323.5307656099477
 51
52.72943909836341
  0
ARC
  5
7D2
330
4E0
100
AcDbEntity
  8
image
100
AcDbCircle
 10
3.211228751971059
 20
6.696640292038178
 30
0.0
 40
0.1566980695398199
100
AcDbArc
 50
143.5307656099477
 51
232.7294390983635
  0
ARC
  5
7D3
330
4E0
100
AcDbEntity
  8
image
100
AcDbCircle
 10
2.849491086437614
 20
6.541854586898263
 30
0.0
 40
0.1566980695398199
100
AcDbArc
 50
323.5307656099477
 51
52.72943909836341
  0
ARC
  5
7D4
330
4E0
100
AcDbEntity
  8
image
100
AcDbCircle
 10
3.070397089445016
 20
6.57341258732789
 30
0.0
 40
0.1566980695398199
100
AcDbArc
 50
143.5307656099477
 51
232.7294390983635
  0
ARC
  5
7D5
330
4E0
100
AcDbEntity
  8
image
100
AcDbCircle
 10
2.770273276266715
 20
6.189775430583156
 30
0.0
 40
0.1566980695398199
100
AcDbArc
 50
323.5307656099477
 51
52.72943909836341
  0
ARC
  5
7D6
330
4E0
100
AcDbEntity
  8
image
100
AcDbCircle
 10
2.991179279274117
 20
6.221333431012784
 30
0.0
 40
0.1566980695398199
100
AcDbArc
 50
143.5307656099477
 51
232.7294390983635
  0
ARC
  5
7D7
330
4E0
100
AcDbEntity
  8
image
100
AcDbCircle
 10
2.620639634832794
 20
6.207379388398911
 30
0.0
 40
0.1566980695398199
100
AcDbArc
 50
323.5307656099477
 51
52.72943909836341
  0
ARC
  5
7D8
330
4E0
100
AcDbEntity
  8
image
100
AcDbCircle
 10
2.841545637840197
 20
6.238937388828539
 30
0.0
 40
0.1566980695398199
100
AcDbArc
 50
143.5307656099477
 51
232.7294390983635
  0
ARC
  5
7D9
330
4E0
100
AcDbEntity
  8
image
100
AcDbCircle
 10
2.664649529372182
 20
6.330607093109199
 30
0.0
 40
0.1566980695398199
100
AcDbArc
 50
323.5307656099477
 51
52.72943909836341
  0
ARC
  5
7DA
330
4E0
100
AcDbEntity
  8
image
100
AcDbCircle
 10
2.885555532379586
 20
6.362165093538826
 30
0.0
 40
0.1566980695398199
100
AcDbArc
 50
143.5307656099477
 51
232.7294390983635
  0
ARC
  5
7DB
330
4E0
100
AcDbEntity
  8
image
100
AcDbCircle
 10
2.752669318450959
 20
6.726696143963693
 30
0.0
 40
0.1566980695398199
100
AcDbArc
 50
323.5307656099477
 51
52.72943909836341
  0
ARC
  5
7DC
330
4E0
100
AcDbEntity
  8
image
100
AcDbCircle
 10
2.973575321458362
 20
6.758254144393322
 30
0.0
 40
0.1566980695398199
100
AcDbArc
 50
143.5307656099477
 51
232.7294390983635
  0
ARC
  5
7DD
330
4E0
100
AcDbEntity
  8
image
100
AcDbCircle
 10
3.474431588896929
 20
6.885131764305492
 30
0.0
 40
0.1566980695398199
100
AcDbArc
 50
323.5307656099477
 51
52.72943909836341
  0
ARC
  5
7DE
330
4E0
100
AcDbEntity
  8
image
100
AcDbCircle
 10
3.695337591904329
 20
6.916689764735119
 30
0.0
 40
0.1566980695398199
100
AcDbArc
 50
143.5307656099477
 51
232.7294390983635
  0
ARC
  5
7DF
330
4E0
100
AcDbEntity
  8
image
100
AcDbCircle
 10
2.946312854424268
 20
7.04356738464729
 30
0.0
 40
0.1566980695398199
100
AcDbArc
 50
323.5307656099477
 51
52.72943909836341
  0
ARC
  5
7E0
330
4E0
100
AcDbEntity
  8
image
100
AcDbCircle
 10
3.167218857431671
 20
7.075125385076917
 30
0.0
 40
0.1566980695398199
100
AcDbArc
 50
143.5307656099477
 51
232.7294390983635
  0
ARC
  5
7E1
330
4E0
100
AcDbEntity
  8
image
100
AcDbCircle
 10
3.430421694357539
 20
6.198577409491034
 30
0.0
 40
0.1566980695398199
100
AcDbArc
 50
323.5307656099477
 51
52.72943909836341
  0
ARC
  5
7E2
330
4E0
100
AcDbEntity
  8
image
100
AcDbCircle
 10
3.651327697364943
 20
6.230135409920661
 30
0.0
 40
0.1566980695398199
100
AcDbArc
 50
143.5307656099477
 51
232.7294390983635
  0
ARC
  5
7E3
330
4E0
100
AcDbEntity
  8
image
100
AcDbCircle
 10
3.175984662894829
 20
6.439779901928631
 30
0.0
 40
0.1566980695398199
100
AcDbArc
 50
296.0563205359582
 51
25.25499402437389
  0
ARC
  5
7E4
330
4E0
100
AcDbEntity
  8
image
100
AcDbCircle
 10
3.38653553276895
 20
6.365863051677321
 30
0.0
 40
0.1566980695398199
100
AcDbArc
 50
116.0563205359582
 51
205.254994024374
  0
ARC
  5
7E5
330
4E0
100
AcDbEntity
  8
image
100
AcDbCircle
 10
3.007739752707468
 20
6.278850119373449
 30
0.0
 40
0.1566980695398199
100
AcDbArc
 50
296.0563205359582
 51
25.25499402437389
  0
ARC
  5
7E6
330
4E0
100
AcDbEntity
  8
image
100
AcDbCircle
 10
3.218290622581588
 20
6.204933269122139
 30
0.0
 40
0.1566980695398199
100
AcDbArc
 50
116.0563205359582
 51
205.254994024374
  0
ARC
  5
7E7
330
4E0
100
AcDbEntity
  8
image
100
AcDbCircle
 10
2.98579476442216
 20
6.432464911812487
 30
0.0
 40
0.1566980695398199
100
AcDbArc
 50
296.0563205359582
 51
25.25499402437389
  0
ARC
  5
7E8
330
4E0
100
AcDbEntity
  8
image
100
AcDbCircle
 10
3.196345634296279
 20
6.358548061561176
 30
0.0
 40
0.1566980695398199
100
AcDbArc
 50
116.0563205359582
 51
205.254994024374
  0
ARC
  5
7E9
330
4E0
100
AcDbEntity
  8
image
100
AcDbCircle
 10
2.652962442094987
 20
6.757981971980922
 30
0.0
 40
0.1566980695398199
100
AcDbArc
 50
296.0563205359582
 51
25.25499402437389
  0
ARC
  5
7EA
330
4E0
100
AcDbEntity
  8
image
100
AcDbCircle
 10
2.863513311969108
 20
6.684065121729612
 30
0.0
 40
0.1566980695398199
100
AcDbArc
 50
116.0563205359582
 51
205.254994024374
  0
ARC
  5
7EB
330
4E0
100
AcDbEntity
  8
image
100
AcDbCircle
 10
3.402749541843014
 20
6.527559783322367
 30
0.0
 40
0.1566980695398199
100
AcDbArc
 50
296.0563205359582
 51
25.25499402437389
  0
ARC
  5
7EC
330
4E0
100
AcDbEntity
  8
image
100
AcDbCircle
 10
3.613300411717133
 20
6.453642933071057
 30
0.0
 40
0.1566980695398199
100
AcDbArc
 50
116.0563205359582
 51
205.254994024374
  0
ARC
  5
7ED
330
4E0
100
AcDbEntity
  8
image
100
AcDbCircle
 10
3.080889713658495
 20
6.739694496690561
 30
0.0
 40
0.1566980695398199
100
AcDbArc
 50
296.0563205359582
 51
25.25499402437389
  0
ARC
  5
7EE
330
4E0
100
AcDbEntity
  8
image
100
AcDbCircle
 10
3.291440583532616
 20
6.66577764643925
 30
0.0
 40
0.1566980695398199
100
AcDbArc
 50
116.0563205359582
 51
205.254994024374
  0
ARC
  5
7EF
330
4E0
100
AcDbEntity
  8
image
100
AcDbCircle
 10
3.139409682419316
 20
6.933541734768394
 30
0.0
 40
0.1566980695398199
100
AcDbArc
 50
296.0563205359582
 51
25.25499402437389
  0
ARC
  5
7F0
330
4E0
100
AcDbEntity
  8
image
100
AcDbCircle
 10
3.349960552293436
 20
6.859624884517083
 30
0.0
 40
0.1566980695398199
100
AcDbArc
 50
116.0563205359582
 51
205.254994024374
  0
ARC
  5
7F1
330
4E0
100
AcDbEntity
  8
image
100
AcDbCircle
 10
2.872412324948067
 20
6.948171715000682
 30
0.0
 40
0.1566980695398199
100
AcDbArc
 50
296.0563205359582
 51
25.25499402437389
  0
ARC
  5
7F2
330
4E0
100
AcDbEntity
  8
image
100
AcDbCircle
 10
3.082963194822188
 20
6.874254864749373
 30
0.0
 40
0.1566980695398199
100
AcDbArc
 50
116.0563205359582
 51
205.254994024374
  0
ARC
  5
7F3
330
4E0
100
AcDbEntity
  8
image
100
AcDbCircle
 10
2.707824912808257
 20
7.134703962962371
 30
0.0
 40
0.1566980695398199
100
AcDbArc
 50
296.0563205359582
 51
25.25499402437389
  0
ARC
  5
7F4
330
4E0
100
AcDbEntity
  8
image
100
AcDbCircle
 10
2.918375782682378
 20
7.060787112711061
 30
0.0
 40
0.1566980695398199
100
AcDbArc
 50
116.0563205359582
 51
205.254994024374
  0
ARC
  5
7F5
330
4E0
100
AcDbEntity
  8
image
100
AcDbCircle
 10
2.693194920618052
 20
6.977431675465261
 30
0.0
 40
0.1566980695398199
100
AcDbArc
 50
296.0563205359582
 51
25.25499402437389
  0
ARC
  5
7F6
330
4E0
100
AcDbEntity
  8
image
100
AcDbCircle
 10
2.903745790492171
 20
6.90351482521395
 30
0.0
 40
0.1566980695398199
100
AcDbArc
 50
116.0563205359582
 51
205.254994024374
  0
ARC
  5
7F7
330
4E0
100
AcDbEntity
  8
image
100
AcDbCircle
 10
2.601757469429268
 20
6.538532268496584
 30
0.0
 40
0.1566980695398199
100
AcDbArc
 50
296.0563205359582
 51
25.25499402437389
  0
ARC
  5
7F8
330
4E0
100
AcDbEntity
  8
image
100
AcDbCircle
 10
2.812308339303388
 20
6.464615418245274
 30
0.0
 40
0.1566980695398199
100
AcDbArc
 50
116.0563205359582
 51
205.254994024374
  0
ARC
  5
7F9
330
4E0
100
AcDbEntity
  8
image
100
AcDbCircle
 10
3.278394608226266
 20
6.597052189425741
 30
0.0
 40
0.1566980695398199
100
AcDbArc
 50
296.0563205359582
 51
25.25499402437389
  0
ARC
  5
7FA
330
4E0
100
AcDbEntity
  8
image
100
AcDbCircle
 10
3.488945478100387
 20
6.52313533917443
 30
0.0
 40
0.1566980695398199
100
AcDbArc
 50
116.0563205359582
 51
205.254994024374
  0
ARC
  5
7FB
330
4E0
100
AcDbEntity
  8
image
100
AcDbCircle
 10
1.872081645809018
 20
6.916295915864579
 30
0.0
 40
0.1566980695398199
100
AcDbArc
 50
98.53076560994793
 51
187.7294390983636
  0
ARC
  5
7FC
330
4E0
100
AcDbEntity
  8
image
100
AcDbCircle
 10
1.69356263697319
 20
7.050185172491451
 30
0.0
 40
0.1566980695398199
100
AcDbArc
 50
278.5307656099479
 51
7.729439098363577
  0
ARC
  5
7FD
330
4E0
100
AcDbEntity
  8
image
100
AcDbCircle
 10
1.44958665823089
 20
6.810672168970047
 30
0.0
 40
0.1566980695398199
100
AcDbArc
 50
98.53076560994793
 51
187.7294390983636
  0
ARC
  5
7FE
330
4E0
100
AcDbEntity
  8
image
100
AcDbCircle
 10
1.271067649395062
 20
6.944561425596919
 30
0.0
 40
0.1566980695398199
100
AcDbArc
 50
278.5307656099479
 51
7.729439098363577
  0
ARC
  5
7FF
330
4E0
100
AcDbEntity
  8
image
100
AcDbCircle
 10
1.562192313982166
 20
6.580673967764398
 30
0.0
 40
0.1566980695398199
100
AcDbArc
 50
159.7199718669748
 51
248.9186453553905
  0
ARC
  5
800
330
4E0
100
AcDbEntity
  8
image
100
AcDbCircle
 10
1.358844759776084
 20
6.488776515382803
 30
0.0
 40
0.1566980695398199
100
AcDbArc
 50
339.7199718669747
 51
68.91864535539045
  0
ARC
  5
801
330
4E0
100
AcDbEntity
  8
image
100
AcDbCircle
 10
1.880883624716896
 20
6.678642485351883
 30
0.0
 40
0.1566980695398199
100
AcDbArc
 50
98.53076560994793
 51
187.7294390983636
  0
ARC
  5
802
330
4E0
100
AcDbEntity
  8
image
100
AcDbCircle
 10
1.702364615881066
 20
6.812531741978754
 30
0.0
 40
0.1566980695398199
100
AcDbArc
 50
278.5307656099479
 51
7.729439098363577
  0
ARC
  5
803
330
4E0
100
AcDbEntity
  8
image
100
AcDbCircle
 10
1.067178145521432
 20
6.934293722550875
 30
0.0
 40
0.1566980695398199
100
AcDbArc
 50
143.5307656099477
 51
232.7294390983635
  0
ARC
  5
804
330
4E0
100
AcDbEntity
  8
image
100
AcDbCircle
 10
0.84627214251403
 20
6.902735722121247
 30
0.0
 40
0.1566980695398199
100
AcDbArc
 50
323.5307656099477
 51
52.72943909836341
  0
ARC
  5
805
330
4E0
100
AcDbEntity
  8
image
100
AcDbCircle
 10
1.211933227718193
 20
6.256147497773755
 30
0.0
 40
0.1566980695398199
100
AcDbArc
 50
98.53076560994793
 51
187.7294390983636
  0
ARC
  5
806
330
4E0
100
AcDbEntity
  8
image
100
AcDbCircle
 10
1.033414218882364
 20
6.390036754400626
 30
0.0
 40
0.1566980695398199
100
AcDbArc
 50
278.5307656099479
 51
7.729439098363577
  0
ARC
  5
807
330
4E0
100
AcDbEntity
  8
image
100
AcDbCircle
 10
1.555210405125422
 20
6.132919793063466
 30
0.0
 40
0.1566980695398199
100
AcDbArc
 50
98.53076560994793
 51
187.7294390983636
  0
ARC
  5
808
330
4E0
100
AcDbEntity
  8
image
100
AcDbCircle
 10
1.376691396289593
 20
6.266809049690339
 30
0.0
 40
0.1566980695398199
100
AcDbArc
 50
278.5307656099479
 51
7.729439098363577
  0
ARC
  5
809
330
4E0
100
AcDbEntity
  8
image
100
AcDbCircle
 10
1.11238935035551
 20
6.700024009171867
 30
0.0
 40
0.1566980695398199
100
AcDbArc
 50
339.7199718669747
 51
68.91864535539045
  0
ARC
  5
80A
330
4E0
100
AcDbEntity
  8
image
100
AcDbCircle
 10
1.315736904561592
 20
6.791921461553462
 30
0.0
 40
0.1566980695398199
100
AcDbArc
 50
159.7199718669748
 51
248.9186453553905
  0
ARC
  5
80B
330
4E0
100
AcDbEntity
  8
image
100
AcDbCircle
 10
1.129993308171265
 20
6.981687334223953
 30
0.0
 40
0.1566980695398199
100
AcDbArc
 50
339.7199718669747
 51
68.91864535539045
  0
ARC
  5
80C
330
4E0
100
AcDbEntity
  8
image
100
AcDbCircle
 10
1.333340862377348
 20
7.073584786605547
 30
0.0
 40
0.1566980695398199
100
AcDbArc
 50
159.7199718669748
 51
248.9186453553905
  0
ARC
  5
80D
330
4E0
100
AcDbEntity
  8
image
100
AcDbCircle
 10
1.570092253565148
 20
6.356746831764638
 30
0.0
 40
0.1566980695398199
100
AcDbArc
 50
339.7199718669747
 51
68.91864535539045
  0
ARC
  5
80E
330
4E0
100
AcDbEntity
  8
image
100
AcDbCircle
 10
1.773439807771231
 20
6.448644284146232
 30
0.0
 40
0.1566980695398199
100
AcDbArc
 50
159.7199718669748
 51
248.9186453553905
  0
ARC
  5
80F
330
4E0
100
AcDbEntity
  8
image
100
AcDbCircle
 10
1.517280380117882
 20
6.286331000501617
 30
0.0
 40
0.1566980695398199
100
AcDbArc
 50
339.7199718669747
 51
68.91864535539045
  0
ARC
  5
810
330
4E0
100
AcDbEntity
  8
image
100
AcDbCircle
 10
1.720627934323965
 20
6.378228452883211
 30
0.0
 40
0.1566980695398199
100
AcDbArc
 50
159.7199718669748
 51
248.9186453553905
  0
ARC
  5
811
330
4E0
100
AcDbEntity
  8
image
100
AcDbCircle
 10
1.684517979367558
 20
6.744033903711255
 30
0.0
 40
0.1566980695398199
100
AcDbArc
 50
339.7199718669747
 51
68.91864535539045
  0
ARC
  5
812
330
4E0
100
AcDbEntity
  8
image
100
AcDbCircle
 10
1.88786553357364
 20
6.835931356092849
 30
0.0
 40
0.1566980695398199
100
AcDbArc
 50
159.7199718669748
 51
248.9186453553905
  0
ARC
  5
813
330
4E0
100
AcDbEntity
  8
image
100
AcDbCircle
 10
1.385250696499718
 20
6.708825988079745
 30
0.0
 40
0.1566980695398199
100
AcDbArc
 50
339.7199718669747
 51
68.91864535539045
  0
ARC
  5
814
330
4E0
100
AcDbEntity
  8
image
100
AcDbCircle
 10
1.5885982507058
 20
6.800723440461339
 30
0.0
 40
0.1566980695398199
100
AcDbArc
 50
159.7199718669748
 51
248.9186453553905
  0
ARC
  5
815
330
4E0
100
AcDbEntity
  8
image
100
AcDbCircle
 10
1.517280380117882
 20
6.964083376408197
 30
0.0
 40
0.1566980695398199
100
AcDbArc
 50
339.7199718669747
 51
68.91864535539045
  0
ARC
  5
816
330
4E0
100
AcDbEntity
  8
image
100
AcDbCircle
 10
1.720627934323965
 20
7.055980828789791
 30
0.0
 40
0.1566980695398199
100
AcDbArc
 50
159.7199718669748
 51
248.9186453553905
  0
ARC
  5
817
330
4E0
100
AcDbEntity
  8
image
100
AcDbCircle
 10
1.226815076157919
 20
6.761637861527011
 30
0.0
 40
0.1566980695398199
100
AcDbArc
 50
339.7199718669747
 51
68.91864535539045
  0
ARC
  5
818
330
4E0
100
AcDbEntity
  8
image
100
AcDbCircle
 10
1.430162630364002
 20
6.853535313908605
 30
0.0
 40
0.1566980695398199
100
AcDbArc
 50
159.7199718669748
 51
248.9186453553905
  0
ARC
  5
819
330
4E0
100
AcDbEntity
  8
image
100
AcDbCircle
 10
0.9865703273563914
 20
6.469096770950748
 30
0.0
 40
0.1566980695398199
100
AcDbArc
 50
339.7199718669747
 51
68.91864535539045
  0
ARC
  5
81A
330
4E0
100
AcDbEntity
  8
image
100
AcDbCircle
 10
1.189917881562473
 20
6.560994223332342
 30
0.0
 40
0.1566980695398199
100
AcDbArc
 50
159.7199718669748
 51
248.9186453553905
  0
ARC
  5
81B
330
4E0
100
AcDbEntity
  8
image
100
AcDbCircle
 10
1.165201223802776
 20
6.347944852856761
 30
0.0
 40
0.1566980695398199
100
AcDbArc
 50
339.7199718669747
 51
68.91864535539045
  0
ARC
  5
81C
330
4E0
100
AcDbEntity
  8
image
100
AcDbCircle
 10
1.368548778008858
 20
6.439842305238355
 30
0.0
 40
0.1566980695398199
100
AcDbArc
 50
159.7199718669748
 51
248.9186453553905
  0
ARC
  5
81D
330
4E0
100
AcDbEntity
  8
image
100
AcDbCircle
 10
1.226815076157919
 20
6.497578494290681
 30
0.0
 40
0.1566980695398199
100
AcDbArc
 50
339.7199718669747
 51
68.91864535539045
  0
ARC
  5
81E
330
4E0
100
AcDbEntity
  8
image
100
AcDbCircle
 10
1.430162630364002
 20
6.589475946672275
 30
0.0
 40
0.1566980695398199
100
AcDbArc
 50
159.7199718669748
 51
248.9186453553905
  0
ARC
  5
81F
330
4E0
100
AcDbEntity
  8
image
100
AcDbCircle
 10
1.587696211380903
 20
6.550390367737947
 30
0.0
 40
0.1566980695398199
100
AcDbArc
 50
339.7199718669747
 51
68.91864535539045
  0
ARC
  5
820
330
4E0
100
AcDbEntity
  8
image
100
AcDbCircle
 10
1.791043765586986
 20
6.642287820119541
 30
0.0
 40
0.1566980695398199
100
AcDbArc
 50
159.7199718669748
 51
248.9186453553905
  0
ARC
  5
821
330
4E0
100
AcDbEntity
  8
image
100
AcDbCircle
 10
1.737329852814823
 20
6.321538916133127
 30
0.0
 40
0.1566980695398199
100
AcDbArc
 50
339.7199718669747
 51
68.91864535539045
  0
ARC
  5
822
330
4E0
100
AcDbEntity
  8
image
100
AcDbCircle
 10
1.940677407020906
 20
6.413436368514722
 30
0.0
 40
0.1566980695398199
100
AcDbArc
 50
159.7199718669748
 51
248.9186453553905
  0
ARC
  5
823
330
4E0
100
AcDbEntity
  8
image
100
AcDbCircle
 10
1.004707762855828
 20
6.911537701029124
 30
0.0
 40
0.1566980695398199
100
AcDbArc
 50
323.5307656099477
 51
52.72943909836341
  0
ARC
  5
824
330
4E0
100
AcDbEntity
  8
image
100
AcDbCircle
 10
1.225613765863231
 20
6.943095701458752
 30
0.0
 40
0.1566980695398199
100
AcDbArc
 50
143.5307656099477
 51
232.7294390983635
  0
ARC
  5
825
330
4E0
100
AcDbEntity
  8
image
100
AcDbCircle
 10
1.462410666065467
 20
6.823517911950348
 30
0.0
 40
0.1566980695398199
100
AcDbArc
 50
323.5307656099477
 51
52.72943909836341
  0
ARC
  5
826
330
4E0
100
AcDbEntity
  8
image
100
AcDbCircle
 10
1.68331666907287
 20
6.855075912379976
 30
0.0
 40
0.1566980695398199
100
AcDbArc
 50
143.5307656099477
 51
232.7294390983635
  0
ARC
  5
827
330
4E0
100
AcDbEntity
  8
image
100
AcDbCircle
 10
1.339182961355179
 20
7.025963426831534
 30
0.0
 40
0.1566980695398199
100
AcDbArc
 50
323.5307656099477
 51
52.72943909836341
  0
ARC
  5
828
330
4E0
100
AcDbEntity
  8
image
100
AcDbCircle
 10
1.560088964362583
 20
7.057521427261162
 30
0.0
 40
0.1566980695398199
100
AcDbArc
 50
143.5307656099477
 51
232.7294390983635
  0
ARC
  5
829
330
4E0
100
AcDbEntity
  8
image
100
AcDbCircle
 10
1.585638370775755
 20
7.105181237002433
 30
0.0
 40
0.1566980695398199
100
AcDbArc
 50
323.5307656099477
 51
52.72943909836341
  0
ARC
  5
82A
330
4E0
100
AcDbEntity
  8
image
100
AcDbCircle
 10
1.806544373783156
 20
7.136739237432061
 30
0.0
 40
0.1566980695398199
100
AcDbArc
 50
143.5307656099477
 51
232.7294390983635
  0
ARC
  5
82B
330
4E0
100
AcDbEntity
  8
image
100
AcDbCircle
 10
1.726470033301797
 20
6.541854586898263
 30
0.0
 40
0.1566980695398199
100
AcDbArc
 50
323.5307656099477
 51
52.72943909836341
  0
ARC
  5
82C
330
4E0
100
AcDbEntity
  8
image
100
AcDbCircle
 10
1.947376036309198
 20
6.57341258732789
 30
0.0
 40
0.1566980695398199
100
AcDbArc
 50
143.5307656099477
 51
232.7294390983635
  0
ARC
  5
82D
330
4E0
100
AcDbEntity
  8
image
100
AcDbCircle
 10
1.585638370775755
 20
6.224983346214666
 30
0.0
 40
0.1566980695398199
100
AcDbArc
 50
323.5307656099477
 51
52.72943909836341
  0
ARC
  5
82E
330
4E0
100
AcDbEntity
  8
image
100
AcDbCircle
 10
1.806544373783156
 20
6.256541346644294
 30
0.0
 40
0.1566980695398199
100
AcDbArc
 50
143.5307656099477
 51
232.7294390983635
  0
ARC
  5
82F
330
4E0
100
AcDbEntity
  8
image
100
AcDbCircle
 10
1.427202750433956
 20
6.1721714727674
 30
0.0
 40
0.1566980695398199
100
AcDbArc
 50
323.5307656099477
 51
52.72943909836341
  0
ARC
  5
830
330
4E0
100
AcDbEntity
  8
image
100
AcDbCircle
 10
1.648108753441358
 20
6.203729473197029
 30
0.0
 40
0.1566980695398199
100
AcDbArc
 50
143.5307656099477
 51
232.7294390983635
  0
ARC
  5
831
330
4E0
100
AcDbEntity
  8
image
100
AcDbCircle
 10
1.136737446473993
 20
6.189775430583156
 30
0.0
 40
0.1566980695398199
100
AcDbArc
 50
323.5307656099477
 51
52.72943909836341
  0
ARC
  5
832
330
4E0
100
AcDbEntity
  8
image
100
AcDbCircle
 10
1.357643449481396
 20
6.221333431012784
 30
0.0
 40
0.1566980695398199
100
AcDbArc
 50
143.5307656099477
 51
232.7294390983635
  0
ARC
  5
833
330
4E0
100
AcDbEntity
  8
image
100
AcDbCircle
 10
1.321579003539424
 20
6.330607093109199
 30
0.0
 40
0.1566980695398199
100
AcDbArc
 50
323.5307656099477
 51
52.72943909836341
  0
ARC
  5
834
330
4E0
100
AcDbEntity
  8
image
100
AcDbCircle
 10
1.542485006546826
 20
6.362165093538826
 30
0.0
 40
0.1566980695398199
100
AcDbArc
 50
143.5307656099477
 51
232.7294390983635
  0
ARC
  5
835
330
4E0
100
AcDbEntity
  8
image
100
AcDbCircle
 10
1.444806708249712
 20
6.55065656580614
 30
0.0
 40
0.1566980695398199
100
AcDbArc
 50
323.5307656099477
 51
52.72943909836341
  0
ARC
  5
836
330
4E0
100
AcDbEntity
  8
image
100
AcDbCircle
 10
1.665712711257113
 20
6.582214566235768
 30
0.0
 40
0.1566980695398199
100
AcDbArc
 50
143.5307656099477
 51
232.7294390983635
  0
ARC
  5
837
330
4E0
100
AcDbEntity
  8
image
100
AcDbCircle
 10
1.515222539512732
 20
6.709092186147938
 30
0.0
 40
0.1566980695398199
100
AcDbArc
 50
323.5307656099477
 51
52.72943909836341
  0
ARC
  5
838
330
4E0
100
AcDbEntity
  8
image
100
AcDbCircle
 10
1.736128542520136
 20
6.740650186577566
 30
0.0
 40
0.1566980695398199
100
AcDbArc
 50
143.5307656099477
 51
232.7294390983635
  0
ARC
  5
839
330
4E0
100
AcDbEntity
  8
image
100
AcDbCircle
 10
1.559232434052121
 20
6.797111975226714
 30
0.0
 40
0.1566980695398199
100
AcDbArc
 50
323.5307656099477
 51
52.72943909836341
  0
ARC
  5
83A
330
4E0
100
AcDbEntity
  8
image
100
AcDbCircle
 10
1.780138437059524
 20
6.828669975656342
 30
0.0
 40
0.1566980695398199
100
AcDbArc
 50
143.5307656099477
 51
232.7294390983635
  0
ARC
  5
83B
330
4E0
100
AcDbEntity
  8
image
100
AcDbCircle
 10
1.242361193368525
 20
6.665082291608549
 30
0.0
 40
0.1566980695398199
100
AcDbArc
 50
323.5307656099477
 51
52.72943909836341
  0
ARC
  5
83C
330
4E0
100
AcDbEntity
  8
image
100
AcDbCircle
 10
1.463267196375928
 20
6.696640292038178
 30
0.0
 40
0.1566980695398199
100
AcDbArc
 50
143.5307656099477
 51
232.7294390983635
  0
ARC
  5
83D
330
4E0
100
AcDbEntity
  8
image
100
AcDbCircle
 10
1.101529530842483
 20
6.541854586898263
 30
0.0
 40
0.1566980695398199
100
AcDbArc
 50
323.5307656099477
 51
52.72943909836341
  0
ARC
  5
83E
330
4E0
100
AcDbEntity
  8
image
100
AcDbCircle
 10
1.322435533849885
 20
6.57341258732789
 30
0.0
 40
0.1566980695398199
100
AcDbArc
 50
143.5307656099477
 51
232.7294390983635
  0
ARC
  5
83F
330
4E0
100
AcDbEntity
  8
image
100
AcDbCircle
 10
1.022311720671584
 20
6.189775430583156
 30
0.0
 40
0.1566980695398199
100
AcDbArc
 50
323.5307656099477
 51
52.72943909836341
  0
ARC
  5
840
330
4E0
100
AcDbEntity
  8
image
100
AcDbCircle
 10
1.243217723678986
 20
6.221333431012784
 30
0.0
 40
0.1566980695398199
100
AcDbArc
 50
143.5307656099477
 51
232.7294390983635
  0
ARC
  5
841
330
4E0
100
AcDbEntity
  8
image
100
AcDbCircle
 10
0.8726780792376633
 20
6.207379388398911
 30
0.0
 40
0.1566980695398199
100
AcDbArc
 50
323.5307656099477
 51
52.72943909836341
  0
ARC
  5
842
330
4E0
100
AcDbEntity
  8
image
100
AcDbCircle
 10
1.093584082245066
 20
6.238937388828539
 30
0.0
 40
0.1566980695398199
100
AcDbArc
 50
143.5307656099477
 51
232.7294390983635
  0
ARC
  5
843
330
4E0
100
AcDbEntity
  8
image
100
AcDbCircle
 10
0.9166879737770516
 20
6.330607093109199
 30
0.0
 40
0.1566980695398199
100
AcDbArc
 50
323.5307656099477
 51
52.72943909836341
  0
ARC
  5
844
330
4E0
100
AcDbEntity
  8
image
100
AcDbCircle
 10
1.137593976784455
 20
6.362165093538826
 30
0.0
 40
0.1566980695398199
100
AcDbArc
 50
143.5307656099477
 51
232.7294390983635
  0
ARC
  5
845
330
4E0
100
AcDbEntity
  8
image
100
AcDbCircle
 10
1.004707762855828
 20
6.726696143963693
 30
0.0
 40
0.1566980695398199
100
AcDbArc
 50
323.5307656099477
 51
52.72943909836341
  0
ARC
  5
846
330
4E0
100
AcDbEntity
  8
image
100
AcDbCircle
 10
1.225613765863231
 20
6.758254144393322
 30
0.0
 40
0.1566980695398199
100
AcDbArc
 50
143.5307656099477
 51
232.7294390983635
  0
ARC
  5
847
330
4E0
100
AcDbEntity
  8
image
100
AcDbCircle
 10
1.726470033301797
 20
6.885131764305492
 30
0.0
 40
0.1566980695398199
100
AcDbArc
 50
323.5307656099477
 51
52.72943909836341
  0
ARC
  5
848
330
4E0
100
AcDbEntity
  8
image
100
AcDbCircle
 10
1.947376036309198
 20
6.916689764735119
 30
0.0
 40
0.1566980695398199
100
AcDbArc
 50
143.5307656099477
 51
232.7294390983635
  0
ARC
  5
849
330
4E0
100
AcDbEntity
  8
image
100
AcDbCircle
 10
1.198351298829137
 20
7.04356738464729
 30
0.0
 40
0.1566980695398199
100
AcDbArc
 50
323.5307656099477
 51
52.72943909836341
  0
ARC
  5
84A
330
4E0
100
AcDbEntity
  8
image
100
AcDbCircle
 10
1.41925730183654
 20
7.075125385076917
 30
0.0
 40
0.1566980695398199
100
AcDbArc
 50
143.5307656099477
 51
232.7294390983635
  0
ARC
  5
84B
330
4E0
100
AcDbEntity
  8
image
100
AcDbCircle
 10
1.682460138762409
 20
6.198577409491034
 30
0.0
 40
0.1566980695398199
100
AcDbArc
 50
323.5307656099477
 51
52.72943909836341
  0
ARC
  5
84C
330
4E0
100
AcDbEntity
  8
image
100
AcDbCircle
 10
1.903366141769812
 20
6.230135409920661
 30
0.0
 40
0.1566980695398199
100
AcDbArc
 50
143.5307656099477
 51
232.7294390983635
  0
ARC
  5
84D
330
4E0
100
AcDbEntity
  8
image
100
AcDbCircle
 10
1.428023107299699
 20
6.439779901928631
 30
0.0
 40
0.1566980695398199
100
AcDbArc
 50
296.0563205359582
 51
25.25499402437389
  0
ARC
  5
84E
330
4E0
100
AcDbEntity
  8
image
100
AcDbCircle
 10
1.638573977173819
 20
6.365863051677321
 30
0.0
 40
0.1566980695398199
100
AcDbArc
 50
116.0563205359582
 51
205.254994024374
  0
ARC
  5
84F
330
4E0
100
AcDbEntity
  8
image
100
AcDbCircle
 10
1.259778197112337
 20
6.278850119373449
 30
0.0
 40
0.1566980695398199
100
AcDbArc
 50
296.0563205359582
 51
25.25499402437389
  0
ARC
  5
850
330
4E0
100
AcDbEntity
  8
image
100
AcDbCircle
 10
1.470329066986457
 20
6.204933269122139
 30
0.0
 40
0.1566980695398199
100
AcDbArc
 50
116.0563205359582
 51
205.254994024374
  0
ARC
  5
851
330
4E0
100
AcDbEntity
  8
image
100
AcDbCircle
 10
1.237833208827028
 20
6.432464911812487
 30
0.0
 40
0.1566980695398199
100
AcDbArc
 50
296.0563205359582
 51
25.25499402437389
  0
ARC
  5
852
330
4E0
100
AcDbEntity
  8
image
100
AcDbCircle
 10
1.448384078701147
 20
6.358548061561176
 30
0.0
 40
0.1566980695398199
100
AcDbArc
 50
116.0563205359582
 51
205.254994024374
  0
ARC
  5
853
330
4E0
100
AcDbEntity
  8
image
100
AcDbCircle
 10
0.9050008864998561
 20
6.757981971980922
 30
0.0
 40
0.1566980695398199
100
AcDbArc
 50
296.0563205359582
 51
25.25499402437389
  0
ARC
  5
854
330
4E0
100
AcDbEntity
  8
image
100
AcDbCircle
 10
1.115551756373976
 20
6.684065121729612
 30
0.0
 40
0.1566980695398199
100
AcDbArc
 50
116.0563205359582
 51
205.254994024374
  0
ARC
  5
855
330
4E0
100
AcDbEntity
  8
image
100
AcDbCircle
 10
1.654787986247883
 20
6.527559783322367
 30
0.0
 40
0.1566980695398199
100
AcDbArc
 50
296.0563205359582
 51
25.25499402437389
  0
ARC
  5
856
330
4E0
100
AcDbEntity
  8
image
100
AcDbCircle
 10
1.865338856122002
 20
6.453642933071057
 30
0.0
 40
0.1566980695398199
100
AcDbArc
 50
116.0563205359582
 51
205.254994024374
  0
ARC
  5
857
330
4E0
100
AcDbEntity
  8
image
100
AcDbCircle
 10
1.332928158063364
 20
6.739694496690561
 30
0.0
 40
0.1566980695398199
100
AcDbArc
 50
296.0563205359582
 51
25.25499402437389
  0
ARC
  5
858
330
4E0
100
AcDbEntity
  8
image
100
AcDbCircle
 10
1.543479027937485
 20
6.66577764643925
 30
0.0
 40
0.1566980695398199
100
AcDbArc
 50
116.0563205359582
 51
205.254994024374
  0
ARC
  5
859
330
4E0
100
AcDbEntity
  8
image
100
AcDbCircle
 10
1.391448126824185
 20
6.933541734768394
 30
0.0
 40
0.1566980695398199
100
AcDbArc
 50
296.0563205359582
 51
25.25499402437389
  0
ARC
  5
85A
330
4E0
100
AcDbEntity
  8
image
100
AcDbCircle
 10
1.601998996698305
 20
6.859624884517083
 30
0.0
 40
0.1566980695398199
100
AcDbArc
 50
116.0563205359582
 51
205.254994024374
  0
ARC
  5
85B
330
4E0
100
AcDbEntity
  8
image
100
AcDbCircle
 10
1.124450769352937
 20
6.948171715000682
 30
0.0
 40
0.1566980695398199
100
AcDbArc
 50
296.0563205359582
 51
25.25499402437389
  0
ARC
  5
85C
330
4E0
100
AcDbEntity
  8
image
100
AcDbCircle
 10
1.335001639227057
 20
6.874254864749373
 30
0.0
 40
0.1566980695398199
100
AcDbArc
 50
116.0563205359582
 51
205.254994024374
  0
ARC
  5
85D
330
4E0
100
AcDbEntity
  8
image
100
AcDbCircle
 10
0.9598633572131271
 20
7.134703962962371
 30
0.0
 40
0.1566980695398199
100
AcDbArc
 50
296.0563205359582
 51
25.25499402437389
  0
ARC
  5
85E
330
4E0
100
AcDbEntity
  8
image
100
AcDbCircle
 10
1.170414227087247
 20
7.060787112711061
 30
0.0
 40
0.1566980695398199
100
AcDbArc
 50
116.0563205359582
 51
205.254994024374
  0
ARC
  5
85F
330
4E0
100
AcDbEntity
  8
image
100
AcDbCircle
 10
0.9452333650229213
 20
6.977431675465261
 30
0.0
 40
0.1566980695398199
100
AcDbArc
 50
296.0563205359582
 51
25.25499402437389
  0
ARC
  5
860
330
4E0
100
AcDbEntity
  8
image
100
AcDbCircle
 10
1.15578423489704
 20
6.90351482521395
 30
0.0
 40
0.1566980695398199
100
AcDbArc
 50
116.0563205359582
 51
205.254994024374
  0
ARC
  5
861
330
4E0
100
AcDbEntity
  8
image
100
AcDbCircle
 10
0.8537959138341372
 20
6.538532268496584
 30
0.0
 40
0.1566980695398199
100
AcDbArc
 50
296.0563205359582
 51
25.25499402437389
  0
ARC
  5
862
330
4E0
100
AcDbEntity
  8
image
100
AcDbCircle
 10
1.064346783708258
 20
6.464615418245274
 30
0.0
 40
0.1566980695398199
100
AcDbArc
 50
116.0563205359582
 51
205.254994024374
  0
ARC
  5
863
330
4E0
100
AcDbEntity
  8
image
100
AcDbCircle
 10
1.530433052631135
 20
6.597052189425741
 30
0.0
 40
0.1566980695398199
100
AcDbArc
 50
296.0563205359582
 51
25.25499402437389
  0
ARC
  5
864
330
4E0
100
AcDbEntity
  8
image
100
AcDbCircle
 10
1.740983922505256
 20
6.52313533917443
 30
0.0
 40
0.1566980695398199
100
AcDbArc
 50
116.0563205359582
 51
205.254994024374
  0
LINE
  5
865
330
4E0
100
AcDbEntity
  8
image
100
AcDbLine
 10
2.724817707285515
 20
4.82369857496968
 30
0.0
 11
2.724817707285515
 21
4.763155745484415
 31
0.0
  0
LINE
  5
866
330
4E0
100
AcDbEntity
  8
image
100
AcDbLine
 10
2.710824324909373
 20
4.82369857496968
 30
0.0
 11
2.724817707285515
 21
4.82369857496968
 31
0.0
  0
LINE
  5
867
330
4E0
100
AcDbEntity
  8
image
100
AcDbLine
 10
2.710824324909373
 20
4.868500268788776
 30
0.0
 11
2.710824324909373
 21
4.82369857496968
 31
0.0
  0
LINE
  5
868
330
4E0
100
AcDbEntity
  8
image
100
AcDbLine
 10
2.724817707285515
 20
4.868500268788776
 30
0.0
 11
2.710824324909373
 21
4.868500268788776
 31
0.0
  0
LINE
  5
869
330
4E0
100
AcDbEntity
  8
image
100
AcDbLine
 10
2.724817707285515
 20
4.763155745484415
 30
0.0
 11
2.670335014999472
 21
4.763155745484415
 31
0.0
  0
LINE
  5
86A
330
4E0
100
AcDbEntity
  8
image
100
AcDbLine
 10
2.724817707285515
 20
4.922988815325515
 30
0.0
 11
2.724817707285515
 21
4.868500268788776
 31
0.0
  0
LINE
  5
86B
330
4E0
100
AcDbEntity
  8
image
100
AcDbLine
 10
2.670335014999472
 20
4.922988815325515
 30
0.0
 11
2.724817707285515
 21
4.922988815325515
 31
0.0
  0
ARC
  5
86C
330
4E0
100
AcDbEntity
  8
image
100
AcDbCircle
 10
2.612702180696608
 20
4.841026918284629
 30
0.0
 40
0.2021270577682911
100
AcDbArc
 50
137.2096684487524
 51
222.7903315512476
  0
LINE
  5
86D
330
4E0
100
AcDbEntity
  8
image
100
AcDbLine
 10
2.670335014999472
 20
4.950279889860722
 30
0.0
 11
2.670335014999472
 21
4.731773946708536
 31
0.0
  0
LINE
  5
86E
330
4E0
100
AcDbEntity
  8
image
100
AcDbLine
 10
2.464372349589238
 20
4.703718474677809
 30
0.0
 11
2.64227954296874
 21
4.703718474677812
 31
0.0
  0
LINE
  5
86F
330
4E0
100
AcDbEntity
  8
image
100
AcDbLine
 10
2.464372349589238
 20
4.978335361891445
 30
0.0
 11
2.64227954296874
 21
4.978335361891445
 31
0.0
  0
LINE
  5
870
330
4E0
100
AcDbEntity
  8
image
100
AcDbLine
 10
2.464372349589238
 20
5.85104765728638
 30
0.0
 11
2.052394564530303
 21
5.85104765728638
 31
0.0
  0
LINE
  5
871
330
4E0
100
AcDbEntity
  8
image
100
AcDbLine
 10
2.052394564530303
 20
5.869404191542002
 30
0.0
 11
2.464372349589238
 21
5.869404191542002
 31
0.0
  0
LINE
  5
872
330
4E0
100
AcDbEntity
  8
image
100
AcDbLine
 10
2.052394564530303
 20
5.894353640081882
 30
0.0
 11
2.052394564530303
 21
5.463824762435389
 31
0.0
  0
LINE
  5
873
330
4E0
100
AcDbEntity
  8
image
100
AcDbLine
 10
2.464372349589238
 20
5.463824762435389
 30
0.0
 11
2.464372349589238
 21
4.97833536189143
 31
0.0
  0
LINE
  5
874
330
4E0
100
AcDbEntity
  8
image
100
AcDbLine
 10
2.464372349589238
 20
5.894353640081882
 30
0.0
 11
2.464372349589238
 21
5.463824762435389
 31
0.0
  0
LINE
  5
875
330
4E0
100
AcDbEntity
  8
image
100
AcDbLine
 10
2.052394564530303
 20
5.894353640081882
 30
0.0
 11
1.979318576644162
 21
5.894353640081882
 31
0.0
  0
LINE
  5
876
330
4E0
100
AcDbEntity
  8
image
100
AcDbLine
 10
1.979318576644162
 20
5.894353640081882
 30
0.0
 11
1.979318576644162
 21
6.030299236328565
 31
0.0
  0
LINE
  5
877
330
4E0
100
AcDbEntity
  8
image
100
AcDbLine
 10
1.979318576644162
 20
6.030299236328565
 30
0.0
 11
1.904956555225117
 21
6.030299236328565
 31
0.0
  0
LINE
  5
878
330
4E0
100
AcDbEntity
  8
image
100
AcDbLine
 10
1.904956555225117
 20
6.030299236328565
 30
0.0
 11
1.904956555225117
 21
6.076802910745993
 31
0.0
  0
LINE
  5
879
330
4E0
100
AcDbEntity
  8
image
100
AcDbLine
 10
1.904956555225114
 20
6.030299236328563
 30
0.0
 11
1.979318576644162
 21
5.894353640081882
 31
0.0
  0
LINE
  5
87A
330
4E0
100
AcDbEntity
  8
image
100
AcDbLine
 10
2.611810358894429
 20
6.030299236328563
 30
0.0
 11
2.537448337475384
 21
5.894353640081882
 31
0.0
  0
LINE
  5
87B
330
4E0
100
AcDbEntity
  8
image
100
AcDbLine
 10
2.611810358894429
 20
6.030299236328565
 30
0.0
 11
2.611810358894429
 21
6.076802910745993
 31
0.0
  0
LINE
  5
87C
330
4E0
100
AcDbEntity
  8
image
100
AcDbLine
 10
2.537448337475384
 20
6.030299236328565
 30
0.0
 11
2.611810358894429
 21
6.030299236328565
 31
0.0
  0
LINE
  5
87D
330
4E0
100
AcDbEntity
  8
image
100
AcDbLine
 10
2.537448337475384
 20
5.894353640081882
 30
0.0
 11
2.537448337475384
 21
6.030299236328565
 31
0.0
  0
LINE
  5
87E
330
4E0
100
AcDbEntity
  8
image
100
AcDbLine
 10
2.464372349589238
 20
5.894353640081882
 30
0.0
 11
2.537448337475384
 21
5.894353640081882
 31
0.0
  0
LINE
  5
87F
330
4E0
100
AcDbEntity
  8
image
100
AcDbLine
 10
1.904956555225117
 20
6.076802910745993
 30
0.0
 11
2.611810358894429
 21
6.076802910745993
 31
0.0
  0
LINE
  5
880
330
4E0
100
AcDbEntity
  8
image
100
AcDbLine
 10
1.979318576644162
 20
6.030299236328565
 30
0.0
 11
2.537448337475384
 21
6.030299236328565
 31
0.0
  0
LINE
  5
881
330
4E0
100
AcDbEntity
  8
image
100
AcDbLine
 10
2.052394564530303
 20
5.894353640081882
 30
0.0
 11
2.464372349589238
 21
5.894353640081882
 31
0.0
  0
LINE
  5
882
330
4E0
100
AcDbEntity
  8
image
100
AcDbLine
 10
2.137337872159636
 20
6.030299236328565
 30
0.0
 11
2.137337872159636
 21
5.894353640081882
 31
0.0
  0
LINE
  5
883
330
4E0
100
AcDbEntity
  8
image
100
AcDbLine
 10
2.174518882869162
 20
6.030299236328565
 30
0.0
 11
2.174518882869162
 21
5.894353640081882
 31
0.0
  0
LINE
  5
884
330
4E0
100
AcDbEntity
  8
image
100
AcDbLine
 10
2.346646100039575
 20
6.030299236328565
 30
0.0
 11
2.346646100039575
 21
5.894353640081882
 31
0.0
  0
LINE
  5
885
330
4E0
100
AcDbEntity
  8
image
100
AcDbLine
 10
2.385119023079008
 20
6.030299236328565
 30
0.0
 11
2.385119023079008
 21
5.894353640081882
 31
0.0
  0
LINE
  5
886
330
4E0
100
AcDbEntity
  8
image
100
AcDbLine
 10
2.611810358894429
 20
6.076802910745993
 30
0.0
 11
3.702721052477615
 21
6.076802910745991
 31
0.0
  0
LINE
  5
887
330
4E0
100
AcDbEntity
  8
image
100
AcDbLine
 10
1.904956555225121
 20
6.076802910745993
 30
0.0
 11
0.8509795025737842
 21
6.076802910745993
 31
0.0
  0
LINE
  5
888
330
4E0
100
AcDbEntity
  8
image
100
AcDbLine
 10
2.052394564530303
 20
5.463824762435389
 30
0.0
 11
2.052394564530303
 21
3.591500621557045
 31
0.0
  0
LINE
  5
889
330
4E0
100
AcDbEntity
  8
image
100
AcDbLine
 10
2.052394564530303
 20
3.591500621557045
 30
0.0
 11
2.14413425288072
 21
3.467941052104118
 31
0.0
  0
LINE
  5
88A
330
4E0
100
AcDbEntity
  8
image
100
AcDbLine
 10
2.147992631682287
 20
3.467941052104118
 30
0.0
 11
2.147992631682287
 21
3.591500621557045
 31
0.0
  0
LINE
  5
88B
330
4E0
100
AcDbEntity
  8
image
100
AcDbLine
 10
2.052394564530303
 20
3.591500621557045
 30
0.0
 11
2.464372349589238
 21
3.591500621557045
 31
0.0
  0
LINE
  5
88C
330
4E0
100
AcDbEntity
  8
image
100
AcDbLine
 10
2.464372349589238
 20
4.703718474677824
 30
0.0
 11
2.464372349589238
 21
3.467941052104118
 31
0.0
  0
LINE
  5
88D
330
4E0
100
AcDbEntity
  8
image
100
AcDbLine
 10
2.367370036078732
 20
3.467941052104118
 30
0.0
 11
2.367370036078732
 21
3.591500621557045
 31
0.0
  0
LINE
  5
88E
330
4E0
100
AcDbEntity
  8
image
100
AcDbLine
 10
2.267280823289083
 20
3.591500621557045
 30
0.0
 11
2.267280823289083
 21
3.467941052104118
 31
0.0
  0
LINE
  5
88F
330
4E0
100
AcDbEntity
  8
image
100
AcDbLine
 10
2.247183944344627
 20
3.591500621557045
 30
0.0
 11
2.247183944344627
 21
3.467941052104118
 31
0.0
  0
LINE
  5
890
330
4E0
100
AcDbEntity
  8
image
100
AcDbLine
 10
2.14413425288072
 20
3.467941052104118
 30
0.0
 11
2.464372349589238
 21
3.467941052104118
 31
0.0
  0
TEXT
  5
8AA
330
4E0
100
AcDbEntity
  8
text_bubbles
100
AcDbText
 10
4.598981182500883
 20
4.859414172016236
 30
0.0
 40
0.125
  1
  WITH RAIN BIRD ROTARY NOZZLE
  7
ROMANS
100
AcDbText
  0
TEXT
  5
972
330
4E0
100
AcDbEntity
  8
text_leaders
100
AcDbText
 10
4.598981182500883
 20
4.859414172016236
 30
0.0
 40
0.125
  1
  WITH RAIN BIRD ROTARY NOZZLE
  7
ROMANS
100
AcDbText
  0
ARC
  5
A66
330
4E0
100
AcDbEntity
  8
image
100
AcDbCircle
 10
2.258383457059768
 20
5.916047836498425
 30
0.0
 40
0.2165783160917459
100
AcDbArc
 50
47.92336398940313
 51
132.0766360105968
  0
VIEWPORT
  5
A6E
102
{ACAD_XDICTIONARY
360
A6F
102
}
330
4DC
100
AcDbEntity
 67
     1
  8
0
100
AcDbViewport
 10
5.249999639556163
 20
3.999999883606678
 30
0.0
 40
19.38167421591068
 41
8.992999745766947
 68
     1
 69
     1
 12
5.249999639556163
 22
3.999999883606678
 13
0.0
 23
0.0
 14
0.5
 24
0.5
 15
0.5
 25
0.5
 16
0.0
 26
0.0
 36
1.0
 17
0.0
 27
0.0
 37
0.0
 42
50.0
 43
0.0
 44
0.0
 45
8.992999745766947
 50
0.0
 51
0.0
 72
  4000
 90
   819232
  1

281
     0
 71
     1
 74
     0
110
0.0
120
0.0
130
0.0
111
1.0
121
0.0
131
0.0
112
0.0
122
1.0
132
0.0
 79
     0
146
0.0
170
     0
  0
ENDSEC
  0
SECTION
  2
OBJECTS
  0
DICTIONARY
  5
4CE
330
0
100
AcDbDictionary
281
     1
  3
ACAD_COLOR
350
8DF
  3
ACAD_GROUP
350
4CF
  3
ACAD_LAYOUT
350
4DB
  3
ACAD_MATERIAL
350
8B5
  3
ACAD_MLEADERSTYLE
350
904
  3
ACAD_MLINESTYLE
350
4D8
  3
ACAD_PLOTSETTINGS
350
4DA
  3
ACAD_PLOTSTYLENAME
350
4D0
  3
ACAD_SCALELIST
350
8E2
  3
ACAD_TABLESTYLE
350
8E0
  3
ACAD_VISUALSTYLE
350
8CE
  3
ACDB_RECOMPOSE_DATA
350
A25
  3
AcDbVariableDictionary
350
513
  3
AEC_PROPERTY_SET_DEFS
350
A64
1001
BBSI_PltSel
1000
1
1000

1001
BBSI_Bookmarks
1000
1
1000
1
1000
0
1000
1
1000
0
1000
0
1000
0
1000
0
1000
0
1000
0
1000
0
1001
BBSI_Plots
1000

1000
User123
1000
215.900009155273
1000
279.399993896484
1000
1
1000
4
1000
1
1000
0
1000
0
1000
1
1000
0
1000
1
1000
0.937902254691744
1000
0
1000
1
1000
Color.ctb
1000
0
1000
0
1000
1
1000
1
1000
0
1000
0
1000
-0.199934572574398
1000
-0.203031941814277
1000
16.4871110395766
1000
10.4598876097334
1000

1000

  0
DICTIONARY
  5
51F
330
4C4
100
AcDbDictionary
280
     1
281
     1
  3
ACAD_LAYERFILTERS
360
AB9
  3
ACAD_LAYERSTATES
360
520
  0
DICTIONARY
  5
A6F
330
A6E
100
AcDbDictionary
280
     1
281
     1
  3
ASDK_XREC_ANNOTATION_SCALE_INFO
360
A70
  0
DICTIONARY
  5
8DF
102
{ACAD_REACTORS
330
4CE
102
}
330
4CE
100
AcDbDictionary
281
     1
  0
DICTIONARY
  5
4CF
102
{ACAD_REACTORS
330
4CE
102
}
330
4CE
100
AcDbDictionary
281
     1
  0
DICTIONARY
  5
4DB
102
{ACAD_REACTORS
330
4CE
102
}
330
4CE
100
AcDbDictionary
281
     1
  3
Layout1
350
4DF
  3
Model
350
4E3
  0
DICTIONARY
  5
8B5
102
{ACAD_REACTORS
330
4CE
102
}
330
4CE
100
AcDbDictionary
281
     1
  3
ByBlock
350
8BE
  3
ByLayer
350
8B6
  3
Global
350
8C6
  0
DICTIONARY
  5
904
102
{ACAD_REACTORS
330
4CE
102
}
330
4CE
100
AcDbDictionary
281
     1
  3
Standard
350
A2C
  0
DICTIONARY
  5
4D8
102
{ACAD_REACTORS
330
4CE
102
}
330
4CE
100
AcDbDictionary
281
     1
  3
Standard
350
4D9
  0
DICTIONARY
  5
4DA
102
{ACAD_REACTORS
330
4CE
102
}
330
4CE
100
AcDbDictionary
281
     1
  3
1055 24x36 BW
350
9BB
  3
1055 24x36 BW Final
350
9BD
  3
1055 24x36 Color
350
9BE
  3
1055 24x36 Color Shaded
350
9BF
  3
1055 30x42 BW
350
9C0
  3
1055 30x42 BW Final
350
9C1
  3
1055 BW Half
350
9C2
  3
1055+ 24x36 BW
350
9C3
  3
1055+ 24x36 BW Final
350
9C4
  3
1055+ 24x36 Color
350
9C5
  3
1055+ 24x36 Color Shaded
350
9C6
  3
1055+ 30x42 BW
350
9C7
  3
1055+ 30x42 BW Final
350
9C8
  3
1055+ BW Half
350
9C9
  3
1055+-B&W-Shaded-Draft
350
9CA
  3
1055+-B&W-Shaded-Final
350
9CB
  3
1055+-Color-Shaded-Draft
350
9CC
  3
1055+-Color-Shaded-Final
350
9CD
  3
1055-B&W-Shaded-Draft
350
9CE
  3
1055-B&W-Shaded-Final
350
9CF
  3
1055-Color-Shaded-Draft
350
9D0
  3
1055-Color-Shaded-Final
350
9D1
  3
8500 11x17 BW Fit
350
9D2
  3
8500 11x17 BW Full
350
9D3
  3
8500 11x17 BW Half
350
9D4
  3
8500 11x17 Color Fit
350
9D5
  3
8500 11x17 Color Half
350
9D6
  3
8500 8x11 BW Fit
350
9D7
  3
8500 8x11 Color Fit
350
9D8
  3
8500-B&W-Shaded-11x17
350
9D9
  3
8500-B&W-Shaded-8x11
350
9DA
  3
8500-Color-Shaded-11x17
350
9DB
  3
8500-Color-Shaded-8x11
350
9DC
  3
_1055 22x34 True Centered BW
350
9DD
  3
_1055 24x36 True Centered BW
350
9DE
  3
_1055 24x36 True Centered BW Final
350
9DF
  3
_1055 24x36 True Centered Color
350
9E0
  3
_1055 30x42 True Centered BW
350
9E1
  3
_1055+ 22x34 True Centered BW
350
9E2
  3
_1055+ 24x36 True Centered BW
350
9E3
  3
_1055+ 24x36 True Centered BW Final
350
9E4
  3
_1055+ 24x36 True Centered Color
350
9E5
  3
CALS 22x34
350
9E6
  3
DWF BW 11x17 Fit
350
9E7
  3
DWF BW 11x17 Half
350
9E8
  3
DWF BW 22x34
350
9E9
  3
DWF BW 24x36
350
9EA
  3
DWF BW 30x42
350
9EB
  3
DWF BW 36x48
350
9EC
  3
Laser5 11x17 Fit
350
9ED
  3
Laser5 11x17 Full
350
9EE
  3
Laser5 11x17 Half
350
9EF
  3
Laser5 8x11 Fit
350
9F0
  3
Laser5 8x11 Half
350
9F1
  3
Laser5 8x11 Portrait Fit
350
9F2
  3
LaserJet5-Shaded-11x17
350
9F3
  3
LaserJet5-Shaded-8.5x11
350
9F4
  3
Oki-Doki-B&W-Shaded-11x17
350
9F5
  3
Oki-Doki-B&W-Shaded-8.5x11
350
9F6
  3
Oki-Doki-Color-Shaded-11x17
350
9F7
  3
Oki-Doki-Color-Shaded-8.5x11
350
9F8
  3
Oki9500 11x17 BW Fit
350
9F9
  3
Oki9500 11x17 BW Full
350
9FA
  3
Oki9500 11x17 BW Half
350
9FB
  3
Oki9500 11x17 Color Fit
350
9FC
  3
Oki9500 11x17 Color Full
350
9FD
  3
Oki9500 11x17 Color Half
350
9FE
  3
Oki9500 8x11 BW Fit
350
9FF
  3
Oki9500 8x11 BW Portrait Fit
350
A00
  3
Oki9500 8x11 Color Fit
350
A01
  3
Oki9500 8x11 Color Portrait Fit
350
A02
  3
Oki9600 11x17 BW Fit
350
A03
  3
Oki9600 11x17 BW Full
350
A04
  3
Oki9600 11x17 BW Half
350
A05
  3
Oki9600 11x17 Color Fit
350
A06
  3
Oki9600 11x17 Color Full
350
A07
  3
Oki9600 11x17 Color Half
350
A08
  3
Oki9600 8x11 BW Fit
350
A09
  3
Oki9600 8x11 BW Portrait Fit
350
A0A
  3
Oki9600 8x11 Color Fit
350
A0B
  3
Oki9600 8x11 Color Portrait Fit
350
A0C
  3
OKI9600-B&W-Shaded-11x17
350
A0D
  3
OKI9600-B&W-Shaded-8.5x11
350
A0E
  3
OKI9600-Color-11x17
350
A0F
  3
OKI9600-Color-8.5x11
350
A10
  3
PHX Kyocera 11x17 Fit
350
A11
  3
PHX Oki9500 11x17 BW Fit
350
A12
  3
PHX Oki9500 11x17 BW Half
350
A13
  3
z_PDF
350
A14
  0
ACDBDICTIONARYWDFLT
  5
4D0
102
{ACAD_REACTORS
330
4CE
102
}
330
4CE
100
AcDbDictionary
281
     1
  3
Normal
350
4D1
100
AcDbDictionaryWithDefault
340
4D1
  0
DICTIONARY
  5
8E2
102
{ACAD_REACTORS
330
4CE
102
}
330
4CE
100
AcDbDictionary
281
     1
  3
A0
350
8E3
  3
A1
350
AC5
  3
A2
350
AC6
  3
A3
350
AC7
  3
A4
350
AC8
  3
A5
350
AC9
  3
A6
350
ACA
  3
A7
350
ACB
  3
A8
350
ACC
  3
A9
350
ACD
  3
B0
350
ACE
  3
B1
350
ACF
  3
B2
350
AD0
  3
B3
350
AD1
  3
B4
350
AD2
  3
B5
350
AD3
  3
B6
350
AD4
  3
B7
350
AD5
  3
B8
350
AD6
  3
B9
350
AD7
  3
C0
350
AD8
  3
C1
350
AD9
  3
C2
350
ADA
  3
C3
350
ADB
  3
C4
350
ADC
  3
C5
350
ADD
  3
C6
350
ADE
  3
C7
350
ADF
  3
C8
350
AE0
  3
C9
350
AE1
  3
D0
350
AE2
  3
D1
350
AE3
  3
D2
350
AE4
  0
DICTIONARY
  5
8E0
102
{ACAD_REACTORS
330
4CE
102
}
330
4CE
100
AcDbDictionary
281
     1
  3
Standard
350
8E1
  0
DICTIONARY
  5
8CE
102
{ACAD_REACTORS
330
4CE
102
}
330
4CE
100
AcDbDictionary
281
     1
  3
2dWireframe
350
8D4
  3
3D Hidden
350
8D6
  3
3dWireframe
350
8D5
  3
Basic
350
8D3
  3
Brighten
350
8DA
  3
ColorChange
350
8DE
  3
Conceptual
350
8D7
  3
Dim
350
8D9
  3
Facepattern
350
8DD
  3
Flat
350
8CF
  3
FlatWithEdges
350
8D0
  3
Gouraud
350
8D1
  3
GouraudWithEdges
350
8D2
  3
Linepattern
350
8DC
  3
Realistic
350
8D8
  3
Thicken
350
8DB
  0
XRECORD
  5
A25
102
{ACAD_REACTORS
330
4CE
102
}
330
4CE
100
AcDbXrecord
280
     1
 90
        1
330
8E1
  0
DICTIONARY
  5
513
102
{ACAD_REACTORS
330
4CE
102
}
330
4CE
100
AcDbDictionary
281
     1
  3
CANNOSCALE
350
A28
  3
CMLEADERSTYLE
350
A74
  3
CTABLESTYLE
350
A26
  3
DIMASSOC
350
516
  3
HIDETEXT
350
515
  3
LAYEREVAL
350
A2A
  3
LIGHTINGUNITS
350
A29
  3
MSLTSCALE
350
A27
  3
SORTENTS
350
514
  0
DICTIONARY
  5
A64
102
{ACAD_REACTORS
330
4CE
102
}
330
4CE
100
AcDbDictionary
281
     1
  0
DICTIONARY
  5
AB9
102
{ACAD_REACTORS
330
51F
102
}
330
51F
100
AcDbDictionary
281
     1
  3
_0100-
350
ABC
  3
_0280-
350
ABB
  3
_Color 253
350
ABF
  3
_Color 8
350
ABD
  3
_Color 84
350
ABE
  3
_Contours
350
AC4
  3
_Existing
350
AC0
  3
_Hardscape
350
AC3
  3
_NoXref
350
ABA
  3
_Row
350
AC1
  3
_Utility
350
AC2
  0
DICTIONARY
  5
520
102
{ACAD_REACTORS
330
51F
102
}
330
51F
100
AcDbDictionary
281
     1
  0
XRECORD
  5
A70
102
{ACAD_REACTORS
330
A6F
102
}
330
A6F
100
AcDbXrecord
280
     1
 90
        1
340
8E3
  0
LAYOUT
  5
4DF
102
{ACAD_REACTORS
330
4DB
102
}
330
4DB
100
AcDbPlotSettings
  1

  2
none_device
  4
Letter_(8.50_x_11.00_Inches)
  6

 40
6.349999904632568
 41
6.349999904632568
 42
6.350006103515625
 43
6.350006103515625
 44
215.8999938964844
 45
279.3999938964844
 46
0.0
 47
0.0
 48
0.0
 49
0.0
140
0.0
141
0.0
142
1.0
143
1.0
 70
  2736
 72
     0
 73
     1
 74
     5
  7
8500colorshaded.ctb
 75
    16
147
1.0
 76
     0
 77
     2
 78
   300
148
0.0
149
0.0
100
AcDbLayout
  1
Layout1
 70
     1
 71
     1
 10
0.0
 20
0.0
 11
12.0
 21
9.0
 12
0.0
 22
0.0
 32
0.0
 14
1.000000000000000E+20
 24
1.000000000000000E+20
 34
1.000000000000000E+20
 15
-1.000000000000000E+20
 25
-1.000000000000000E+20
 35
-1.000000000000000E+20
146
0.0
 13
0.0
 23
0.0
 33
0.0
 16
1.0
 26
0.0
 36
0.0
 17
0.0
 27
1.0
 37
0.0
 76
     0
330
4DC
331
A6E
1001
ACAD_PSEXT
1000
None
1000
None
1000
Not applicable
1000
The layout will not be plotted unless a new plotter configuration name is selected.
1070
     0
  0
LAYOUT
  5
4E3
102
{ACAD_REACTORS
330
4DB
102
}
330
4DB
100
AcDbPlotSettings
  1

  2
8500ColorShaded.pc3
  4
Letter
  6

 40
5.027082920074462
 41
5.027070522308349
 42
5.027099609375
 43
5.027084350585937
 44
279.3999938964844
 45
215.8999938964844
 46
0.0
 47
0.0
 48
7.663858036417532
 49
-3.090597652711787
140
15.26477396019783
141
5.07064620808942
142
1.0
143
1.007042916425405
 70
 11952
 72
     0
 73
     0
 74
     4
  7
8500colorshaded.ctb
 75
     0
147
0.9930063393421161
 76
     0
 77
     2
 78
   300
148
-194.6619941250053
149
78.5011803788794
100
AcDbLayout
  1
Model
 70
     1
 71
     0
 10
0.0
 20
0.0
 11
12.0
 21
9.0
 12
0.0
 22
0.0
 32
0.0
 14
0.0
 24
0.0
 34
0.0
 15
0.0
 25
0.0
 35
0.0
146
0.0
 13
0.0
 23
0.0
 33
0.0
 16
1.0
 26
0.0
 36
0.0
 17
0.0
 27
1.0
 37
0.0
 76
     0
330
4E0
331
8B3
1001
ACAD_PSEXT
1000
8500ColorShaded.pc3
1000
HP Color LaserJet 8500 PS
1000
BACK
1000

1070
     0
  0
MATERIAL
  5
8BE
102
{ACAD_XDICTIONARY
360
8BF
102
}
102
{ACAD_REACTORS
330
8B5
102
}
330
8B5
100
AcDbMaterial
  1
ByBlock
 72
     0
 43
0.0208333333333333
 43
0.0
 43
0.0
 43
0.0
 43
0.0
 43
0.0208333333333333
 43
0.0
 43
0.0
 43
0.0
 43
0.0
 43
1.0
 43
0.0
 43
0.0
 43
0.0
 43
0.0
 43
1.0
 77
     0
 47
0.0208333333333333
 47
0.0
 47
0.0
 47
0.0
 47
0.0
 47
0.0208333333333333
 47
0.0
 47
0.0
 47
0.0
 47
0.0
 47
1.0
 47
0.0
 47
0.0
 47
0.0
 47
0.0
 47
1.0
171
     0
 49
0.0208333333333333
 49
0.0
 49
0.0
 49
0.0
 49
0.0
 49
0.0208333333333333
 49
0.0
 49
0.0
 49
0.0
 49
0.0
 49
1.0
 49
0.0
 49
0.0
 49
0.0
 49
0.0
 49
1.0
175
     0
142
0.0208333333333333
142
0.0
142
0.0
142
0.0
142
0.0
142
0.0208333333333333
142
0.0
142
0.0
142
0.0
142
0.0
142
1.0
142
0.0
142
0.0
142
0.0
142
0.0
142
1.0
179
     0
144
0.0208333333333333
144
0.0
144
0.0
144
0.0
144
0.0
144
0.0208333333333333
144
0.0
144
0.0
144
0.0
144
0.0
144
1.0
144
0.0
144
0.0
144
0.0
144
0.0
144
1.0
147
0.0208333333333333
147
0.0
147
0.0
147
0.0
147
0.0
147
0.0208333333333333
147
0.0
147
0.0
147
0.0
147
0.0
147
1.0
147
0.0
147
0.0
147
0.0
147
0.0
147
1.0
  0
MATERIAL
  5
8B6
102
{ACAD_XDICTIONARY
360
8B7
102
}
102
{ACAD_REACTORS
330
8B5
102
}
330
8B5
100
AcDbMaterial
  1
ByLayer
 72
     0
 43
0.0208333333333333
 43
0.0
 43
0.0
 43
0.0
 43
0.0
 43
0.0208333333333333
 43
0.0
 43
0.0
 43
0.0
 43
0.0
 43
1.0
 43
0.0
 43
0.0
 43
0.0
 43
0.0
 43
1.0
 77
     0
 47
0.0208333333333333
 47
0.0
 47
0.0
 47
0.0
 47
0.0
 47
0.0208333333333333
 47
0.0
 47
0.0
 47
0.0
 47
0.0
 47
1.0
 47
0.0
 47
0.0
 47
0.0
 47
0.0
 47
1.0
171
     0
 49
0.0208333333333333
 49
0.0
 49
0.0
 49
0.0
 49
0.0
 49
0.0208333333333333
 49
0.0
 49
0.0
 49
0.0
 49
0.0
 49
1.0
 49
0.0
 49
0.0
 49
0.0
 49
0.0
 49
1.0
175
     0
142
0.0208333333333333
142
0.0
142
0.0
142
0.0
142
0.0
142
0.0208333333333333
142
0.0
142
0.0
142
0.0
142
0.0
142
1.0
142
0.0
142
0.0
142
0.0
142
0.0
142
1.0
179
     0
144
0.0208333333333333
144
0.0
144
0.0
144
0.0
144
0.0
144
0.0208333333333333
144
0.0
144
0.0
144
0.0
144
0.0
144
1.0
144
0.0
144
0.0
144
0.0
144
0.0
144
1.0
147
0.0208333333333333
147
0.0
147
0.0
147
0.0
147
0.0
147
0.0208333333333333
147
0.0
147
0.0
147
0.0
147
0.0
147
1.0
147
0.0
147
0.0
147
0.0
147
0.0
147
1.0
  0
MATERIAL
  5
8C6
102
{ACAD_XDICTIONARY
360
8C7
102
}
102
{ACAD_REACTORS
330
8B5
102
}
330
8B5
100
AcDbMaterial
  1
Global
 72
     0
 43
0.0208333333333333
 43
0.0
 43
0.0
 43
0.0
 43
0.0
 43
0.0208333333333333
 43
0.0
 43
0.0
 43
0.0
 43
0.0
 43
1.0
 43
0.0
 43
0.0
 43
0.0
 43
0.0
 43
1.0
 77
     0
 47
0.0208333333333333
 47
0.0
 47
0.0
 47
0.0
 47
0.0
 47
0.0208333333333333
 47
0.0
 47
0.0
 47
0.0
 47
0.0
 47
1.0
 47
0.0
 47
0.0
 47
0.0
 47
0.0
 47
1.0
171
     0
 49
0.0208333333333333
 49
0.0
 49
0.0
 49
0.0
 49
0.0
 49
0.0208333333333333
 49
0.0
 49
0.0
 49
0.0
 49
0.0
 49
1.0
 49
0.0
 49
0.0
 49
0.0
 49
0.0
 49
1.0
175
     0
142
0.0208333333333333
142
0.0
142
0.0
142
0.0
142
0.0
142
0.0208333333333333
142
0.0
142
0.0
142
0.0
142
0.0
142
1.0
142
0.0
142
0.0
142
0.0
142
0.0
142
1.0
179
     0
144
0.0208333333333333
144
0.0
144
0.0
144
0.0
144
0.0
144
0.0208333333333333
144
0.0
144
0.0
144
0.0
144
0.0
144
1.0
144
0.0
144
0.0
144
0.0
144
0.0
144
1.0
147
0.0208333333333333
147
0.0
147
0.0
147
0.0
147
0.0
147
0.0208333333333333
147
0.0
147
0.0
147
0.0
147
0.0
147
1.0
147
0.0
147
0.0
147
0.0
147
0.0
147
1.0
  0
MLEADERSTYLE
  5
A2C
102
{ACAD_REACTORS
330
904
102
}
330
904
100
AcDbMLeaderStyle
170
     2
171
     1
172
     0
 90
        2
 40
0.0
 41
0.0
173
     1
 91
-1056964608
340
4D5
 92
       -2
290
     1
 42
0.09
291
     1
 43
0.36
  3
Standard
 44
0.18
300

342
4D3
174
     1
178
     6
175
     1
176
     0
 93
-1056964608
 45
0.18
292
     0
297
     0
 46
0.18
 94
-1056964608
 47
1.0
 49
1.0
140
1.0
293
     1
141
0.0
294
     1
177
     0
142
1.0
295
     0
296
     0
143
0.125
1001
ACAD_MLEADERVER
1070
     2
  0
MLINESTYLE
  5
4D9
102
{ACAD_REACTORS
330
4D8
102
}
330
4D8
100
AcDbMlineStyle
  2
STANDARD
 70
     0
  3

 62
   256
 51
90.0
 52
90.0
 71
     2
 49
0.5
 62
   256
  6
BYLAYER
 49
-0.5
 62
   256
  6
BYLAYER
  0
PLOTSETTINGS
  5
9BB
102
{ACAD_REACTORS
330
4DA
102
}
330
4DA
100
AcDbPlotSettings
  1
1055 24x36 BW
  2
1055B&WDraftShaded.pc3
  4
User257
  6

 40
14.98600006103515
 41
8.297271728515625
 42
14.9859619140625
 43
8.29736328125
 44
914.3153076171875
 45
1269.915283203125
 46
0.0
 47
0.0
 48
0.0
 49
0.0
140
0.0
141
0.0
142
1.0
143
1.0
 70
  2800
 72
     0
 73
     2
 74
     1
  7
1055B&WFullDraftShaded.ctb
 75
    16
147
1.0
 76
     0
 77
     2
 78
   300
148
-75.74468520391772
149
-27.53050504688192
1001
ACAD_PSEXT
1000
1055B&WDraftShaded.pc3
1000
HP DesignJet 1055CM by HP
1000
FRONT
1000

1070
     0
  0
PLOTSETTINGS
  5
9BD
102
{ACAD_REACTORS
330
4DA
102
}
330
4DA
100
AcDbPlotSettings
  1
1055 24x36 BW Final
  2
1055B&WFinalShaded.pc3
  4
User257
  6

 40
14.98600006103515
 41
8.297271728515625
 42
14.9859619140625
 43
8.29736328125
 44
914.357666015625
 45
1269.957641601562
 46
0.0
 47
0.0
 48
0.0
 49
0.0
140
0.0
141
0.0
142
1.0
143
1.0
 70
  2800
 72
     0
 73
     2
 74
     1
  7
1055B&WFullFinalShaded.ctb
 75
    16
147
1.0
 76
     0
 77
     2
 78
   300
148
-75.74468520391772
149
-27.53050504688192
1001
ACAD_PSEXT
1000
1055B&WFinalShaded.pc3
1000
HP DesignJet 1055CM by HP
1000
FRONT
1000

1070
     0
  0
PLOTSETTINGS
  5
9BE
102
{ACAD_REACTORS
330
4DA
102
}
330
4DA
100
AcDbPlotSettings
  1
1055 24x36 Color
  2
1055ColorDraftShaded.pc3
  4
User257
  6

 40
14.98600006103515
 41
8.297271728515625
 42
14.9859619140625
 43
8.29736328125
 44
914.3153076171875
 45
1269.915283203125
 46
0.0
 47
0.0
 48
0.0
 49
0.0
140
0.0
141
0.0
142
1.0
143
1.0
 70
  2800
 72
     0
 73
     2
 74
     1
  7
Color.ctb
 75
    16
147
1.0
 76
     0
 77
     2
 78
   300
148
-75.74468520391772
149
-27.53050504688192
1001
ACAD_PSEXT
1000
1055ColorDraftShaded.pc3
1000
HP DesignJet 1055CM by HP
1000
FRONT
1000

1070
     0
  0
PLOTSETTINGS
  5
9BF
102
{ACAD_REACTORS
330
4DA
102
}
330
4DA
100
AcDbPlotSettings
  1
1055 24x36 Color Shaded
  2
1055ColorDraftShaded.pc3
  4
User257
  6

 40
14.98600006103515
 41
8.297271728515625
 42
14.9859619140625
 43
8.29736328125
 44
914.3153076171875
 45
1269.915283203125
 46
0.0
 47
0.0
 48
0.0
 49
0.0
140
0.0
141
0.0
142
1.0
143
1.0
 70
  2800
 72
     0
 73
     2
 74
     1
  7
1055ColorFullDraftShaded.ctb
 75
    16
147
1.0
 76
     0
 77
     2
 78
   300
148
-75.74468520391772
149
-27.53050504688192
1001
ACAD_PSEXT
1000
1055ColorDraftShaded.pc3
1000
HP DesignJet 1055CM by HP
1000
FRONT
1000

1070
     0
  0
PLOTSETTINGS
  5
9C0
102
{ACAD_REACTORS
330
4DA
102
}
330
4DA
100
AcDbPlotSettings
  1
1055 30x42 BW
  2
1055B&WDraftShaded.pc3
  4
User257
  6

 40
14.98600006103515
 41
8.297271728515625
 42
14.9859619140625
 43
8.29736328125
 44
914.3153076171875
 45
1269.915283203125
 46
0.0
 47
0.0
 48
0.0
 49
0.0
140
0.0
141
0.0
142
1.0
143
1.0
 70
  2800
 72
     0
 73
     1
 74
     1
  7
1055B&WFullDraftShaded.ctb
 75
    16
147
1.0
 76
     0
 77
     2
 78
   300
148
-75.74468520391772
149
-27.53050504688192
1001
ACAD_PSEXT
1000
1055B&WDraftShaded.pc3
1000
HP DesignJet 1055CM by HP
1000
FRONT
1000

1070
     0
  0
PLOTSETTINGS
  5
9C1
102
{ACAD_REACTORS
330
4DA
102
}
330
4DA
100
AcDbPlotSettings
  1
1055 30x42 BW Final
  2
1055B&WFinalShaded.pc3
  4
User257
  6

 40
14.98600006103515
 41
8.297271728515625
 42
14.9859619140625
 43
8.29736328125
 44
914.357666015625
 45
1269.957641601562
 46
0.0
 47
0.0
 48
0.0
 49
0.0
140
0.0
141
0.0
142
1.0
143
1.0
 70
  2800
 72
     0
 73
     1
 74
     1
  7
1055B&WFullFinalShaded.ctb
 75
    16
147
1.0
 76
     0
 77
     2
 78
   300
148
-75.74468520391772
149
-27.53050504688192
1001
ACAD_PSEXT
1000
1055B&WFinalShaded.pc3
1000
HP DesignJet 1055CM by HP
1000
FRONT
1000

1070
     0
  0
PLOTSETTINGS
  5
9C2
102
{ACAD_REACTORS
330
4DA
102
}
330
4DA
100
AcDbPlotSettings
  1
1055 BW Half
  2
1055B&WDraftShaded.pc3
  4
User257
  6

 40
14.98600006103515
 41
8.297271728515625
 42
14.9859619140625
 43
8.29736328125
 44
914.3153076171875
 45
1269.915283203125
 46
0.0
 47
0.0
 48
0.0
 49
0.0
140
0.0
141
0.0
142
1.0
143
2.0
 70
  2800
 72
     0
 73
     2
 74
     1
  7
1055B&WFullDraftShaded.ctb
 75
    17
147
0.5
 76
     0
 77
     2
 78
   300
148
-75.74468520391772
149
-27.53050504688192
1001
ACAD_PSEXT
1000
1055B&WDraftShaded.pc3
1000
HP DesignJet 1055CM by HP
1000
FRONT
1000

1070
     0
  0
PLOTSETTINGS
  5
9C3
102
{ACAD_REACTORS
330
4DA
102
}
330
4DA
100
AcDbPlotSettings
  1
1055+ 24x36 BW
  2
1055_PLUS_B&WDraftShaded.pc3
  4
User257
  6

 40
14.98600006103515
 41
8.297271728515625
 42
14.9859619140625
 43
8.29736328125
 44
914.3153076171875
 45
1269.915283203125
 46
0.0
 47
0.0
 48
0.0
 49
0.0
140
0.0
141
0.0
142
1.0
143
1.0
 70
  2800
 72
     0
 73
     2
 74
     1
  7
1055B&WFullDraftShaded.ctb
 75
    16
147
1.0
 76
     0
 77
     2
 78
   300
148
-75.74468520391772
149
-27.53050504688192
1001
ACAD_PSEXT
1000
1055_PLUS_B&WDraftShaded.pc3
1000
HP DesignJet 1055CM by HP
1000
FRONT
1000

1070
     0
  0
PLOTSETTINGS
  5
9C4
102
{ACAD_REACTORS
330
4DA
102
}
330
4DA
100
AcDbPlotSettings
  1
1055+ 24x36 BW Final
  2
1055_PLUS_B&WFinalShaded.pc3
  4
User257
  6

 40
14.98600006103515
 41
8.297271728515625
 42
14.9859619140625
 43
8.29736328125
 44
914.357666015625
 45
1269.957641601562
 46
0.0
 47
0.0
 48
0.0
 49
0.0
140
0.0
141
0.0
142
1.0
143
1.0
 70
  2800
 72
     0
 73
     2
 74
     1
  7
1055B&WFullFinalShaded.ctb
 75
    16
147
1.0
 76
     0
 77
     2
 78
   300
148
-75.74468520391772
149
-27.53050504688192
1001
ACAD_PSEXT
1000
1055_PLUS_B&WFinalShaded.pc3
1000
HP DesignJet 1055CM by HP
1000
FRONT
1000

1070
     0
  0
PLOTSETTINGS
  5
9C5
102
{ACAD_REACTORS
330
4DA
102
}
330
4DA
100
AcDbPlotSettings
  1
1055+ 24x36 Color
  2
1055_PLUS_ColorDraftShaded.pc3
  4
User257
  6

 40
14.98600006103515
 41
8.297271728515625
 42
14.9859619140625
 43
8.29736328125
 44
914.3153076171875
 45
1269.915283203125
 46
0.0
 47
0.0
 48
0.0
 49
0.0
140
0.0
141
0.0
142
1.0
143
1.0
 70
  2800
 72
     0
 73
     2
 74
     1
  7
Color.ctb
 75
    16
147
1.0
 76
     0
 77
     2
 78
   300
148
-75.74468520391772
149
-27.53050504688192
1001
ACAD_PSEXT
1000
1055_PLUS_ColorDraftShaded.pc3
1000
HP DesignJet 1055CM by HP
1000
FRONT
1000

1070
     0
  0
PLOTSETTINGS
  5
9C6
102
{ACAD_REACTORS
330
4DA
102
}
330
4DA
100
AcDbPlotSettings
  1
1055+ 24x36 Color Shaded
  2
1055_PLUS_ColorDraftShaded.pc3
  4
User257
  6

 40
14.98600006103515
 41
8.297271728515625
 42
14.9859619140625
 43
8.29736328125
 44
914.3153076171875
 45
1269.915283203125
 46
0.0
 47
0.0
 48
0.0
 49
0.0
140
0.0
141
0.0
142
1.0
143
1.0
 70
  2800
 72
     0
 73
     2
 74
     1
  7
1055ColorFullDraftShaded.ctb
 75
    16
147
1.0
 76
     0
 77
     2
 78
   300
148
-75.74468520391772
149
-27.53050504688192
1001
ACAD_PSEXT
1000
1055_PLUS_ColorDraftShaded.pc3
1000
HP DesignJet 1055CM by HP
1000
FRONT
1000

1070
     0
  0
PLOTSETTINGS
  5
9C7
102
{ACAD_REACTORS
330
4DA
102
}
330
4DA
100
AcDbPlotSettings
  1
1055+ 30x42 BW
  2
1055_PLUS_B&WDraftShaded.pc3
  4
User257
  6

 40
14.98600006103515
 41
8.297271728515625
 42
14.9859619140625
 43
8.29736328125
 44
914.3153076171875
 45
1269.915283203125
 46
0.0
 47
0.0
 48
0.0
 49
0.0
140
0.0
141
0.0
142
1.0
143
1.0
 70
  2800
 72
     0
 73
     1
 74
     1
  7
1055B&WFullDraftShaded.ctb
 75
    16
147
1.0
 76
     0
 77
     2
 78
   300
148
-75.74468520391772
149
-27.53050504688192
1001
ACAD_PSEXT
1000
1055_PLUS_B&WDraftShaded.pc3
1000
HP DesignJet 1055CM by HP
1000
FRONT
1000

1070
     0
  0
PLOTSETTINGS
  5
9C8
102
{ACAD_REACTORS
330
4DA
102
}
330
4DA
100
AcDbPlotSettings
  1
1055+ 30x42 BW Final
  2
1055_PLUS_B&WFinalShaded.pc3
  4
User257
  6

 40
14.98600006103515
 41
8.297271728515625
 42
14.9859619140625
 43
8.29736328125
 44
914.357666015625
 45
1269.957641601562
 46
0.0
 47
0.0
 48
0.0
 49
0.0
140
0.0
141
0.0
142
1.0
143
1.0
 70
  2800
 72
     0
 73
     1
 74
     1
  7
1055B&WFullFinalShaded.ctb
 75
    16
147
1.0
 76
     0
 77
     2
 78
   300
148
-75.74468520391772
149
-27.53050504688192
1001
ACAD_PSEXT
1000
1055_PLUS_B&WFinalShaded.pc3
1000
HP DesignJet 1055CM by HP
1000
FRONT
1000

1070
     0
  0
PLOTSETTINGS
  5
9C9
102
{ACAD_REACTORS
330
4DA
102
}
330
4DA
100
AcDbPlotSettings
  1
1055+ BW Half
  2
1055_PLUS_B&WDraftShaded.pc3
  4
User257
  6

 40
14.98600006103515
 41
8.297271728515625
 42
14.9859619140625
 43
8.29736328125
 44
914.3153076171875
 45
1269.915283203125
 46
0.0
 47
0.0
 48
0.0
 49
0.0
140
0.0
141
0.0
142
1.0
143
2.0
 70
  2800
 72
     0
 73
     2
 74
     1
  7
1055B&WFullDraftShaded.ctb
 75
    17
147
0.5
 76
     0
 77
     2
 78
   300
148
-75.74468520391772
149
-27.53050504688192
1001
ACAD_PSEXT
1000
1055_PLUS_B&WDraftShaded.pc3
1000
HP DesignJet 1055CM by HP
1000
FRONT
1000

1070
     0
  0
PLOTSETTINGS
  5
9CA
102
{ACAD_REACTORS
330
4DA
102
}
330
4DA
100
AcDbPlotSettings
  1
1055+-B&W-Shaded-Draft
  2
1055_PLUS_B&WDraftShaded.pc3
  4
User257
  6

 40
4.995333194732666
 41
13.2926607131958
 42
4.99530029296875
 43
13.292724609375
 44
914.3153076171875
 45
1269.915283203125
 46
0.0
 47
0.0
 48
0.0
 49
0.0
140
0.0
141
0.0
142
1.0
143
30.0
 70
 11936
 72
     0
 73
     2
 74
     1
  7
1055B&WFullDraftShaded.ctb
 75
     0
147
3.484472351238056
 76
     0
 77
     2
 78
   300
148
-119.4582094169044
149
-58.17053554795709
1001
ACAD_PSEXT
1000
1055_PLUS_B&WDraftShaded.pc3
1000
HP DesignJet 1055CM by HP
1000
\\aqua-srv01
1000

1070
     0
  0
PLOTSETTINGS
  5
9CB
102
{ACAD_REACTORS
330
4DA
102
}
330
4DA
100
AcDbPlotSettings
  1
1055+-B&W-Shaded-Final
  2
1055_PLUS_B&WFinalShaded.pc3
  4
User257
  6

 40
4.995333194732666
 41
13.2926607131958
 42
4.99530029296875
 43
13.292724609375
 44
914.357666015625
 45
1269.957641601562
 46
0.0
 47
0.0
 48
0.0
 49
0.0
140
0.0
141
0.0
142
1.0
143
30.0
 70
 11936
 72
     0
 73
     2
 74
     1
  7
1055B&WFullFinalShaded.ctb
 75
     0
147
3.484472351238056
 76
     0
 77
     2
 78
   300
148
-119.4582094169044
149
-58.17053554795709
1001
ACAD_PSEXT
1000
1055_PLUS_B&WFinalShaded.pc3
1000
HP DesignJet 1055CM by HP
1000
\\aqua-srv01
1000

1070
     0
  0
PLOTSETTINGS
  5
9CC
102
{ACAD_REACTORS
330
4DA
102
}
330
4DA
100
AcDbPlotSettings
  1
1055+-Color-Shaded-Draft
  2
1055_PLUS_ColorDraftShaded.pc3
  4
User257
  6

 40
4.995333194732666
 41
8.297271728515625
 42
4.99530029296875
 43
8.29736328125
 44
914.3153076171875
 45
1269.915283203125
 46
0.0
 47
0.0
 48
0.0
 49
0.0
140
0.0
141
0.0
142
1.0
143
30.0
 70
 11936
 72
     0
 73
     2
 74
     1
  7
1055ColorFullDraftShaded.ctb
 75
     0
147
3.484472351238056
 76
     0
 77
     2
 78
   300
148
-119.4582094169044
149
-58.17053554795709
1001
ACAD_PSEXT
1000
1055_PLUS_ColorDraftShaded.pc3
1000
HP DesignJet 1055CM by HP
1000
\\aqua-srv01
1000

1070
     0
  0
PLOTSETTINGS
  5
9CD
102
{ACAD_REACTORS
330
4DA
102
}
330
4DA
100
AcDbPlotSettings
  1
1055+-Color-Shaded-Final
  2
1055_PLUS_ColorFinalShaded.pc3
  4
User257
  6

 40
4.995333194732666
 41
13.2926607131958
 42
4.99530029296875
 43
13.292724609375
 44
914.357666015625
 45
1269.957641601562
 46
0.0
 47
0.0
 48
0.0
 49
0.0
140
0.0
141
0.0
142
1.0
143
30.0
 70
 11936
 72
     0
 73
     2
 74
     1
  7
1055ColorFullFinalShaded.ctb
 75
     0
147
3.484472351238056
 76
     0
 77
     2
 78
   300
148
-119.4582094169044
149
-58.17053554795709
1001
ACAD_PSEXT
1000
1055_PLUS_ColorFinalShaded.pc3
1000
HP DesignJet 1055CM by HP
1000
\\aqua-srv01
1000

1070
     0
  0
PLOTSETTINGS
  5
9CE
102
{ACAD_REACTORS
330
4DA
102
}
330
4DA
100
AcDbPlotSettings
  1
1055-B&W-Shaded-Draft
  2
1055B&WDraftShaded.pc3
  4
User257
  6

 40
4.995333194732666
 41
8.297271728515625
 42
4.99530029296875
 43
8.29736328125
 44
914.3153076171875
 45
1269.915283203125
 46
0.0
 47
0.0
 48
0.0
 49
0.0
140
0.0
141
0.0
142
1.0
143
30.0
 70
 11936
 72
     0
 73
     2
 74
     1
  7
1055B&WFullDraftShaded.ctb
 75
     0
147
3.484472351238056
 76
     0
 77
     2
 78
   300
148
-119.4582094169044
149
-58.17053554795709
1001
ACAD_PSEXT
1000
1055B&WDraftShaded.pc3
1000
HP DesignJet 1055CM by HP
1000
\\aqua-srv01
1000

1070
     0
  0
PLOTSETTINGS
  5
9CF
102
{ACAD_REACTORS
330
4DA
102
}
330
4DA
100
AcDbPlotSettings
  1
1055-B&W-Shaded-Final
  2
1055B&WFinalShaded.pc3
  4
User257
  6

 40
4.995333194732666
 41
8.297271728515625
 42
4.99530029296875
 43
8.29736328125
 44
914.357666015625
 45
1269.957641601562
 46
0.0
 47
0.0
 48
0.0
 49
0.0
140
0.0
141
0.0
142
1.0
143
30.0
 70
 11936
 72
     0
 73
     2
 74
     1
  7
1055B&WFullFinalShaded.ctb
 75
     0
147
3.484472351238056
 76
     0
 77
     2
 78
   300
148
-119.4582094169044
149
-58.17053554795709
1001
ACAD_PSEXT
1000
1055B&WFinalShaded.pc3
1000
HP DesignJet 1055CM by HP
1000
\\aqua-srv01
1000

1070
     0
  0
PLOTSETTINGS
  5
9D0
102
{ACAD_REACTORS
330
4DA
102
}
330
4DA
100
AcDbPlotSettings
  1
1055-Color-Shaded-Draft
  2
1055ColorDraftShaded.pc3
  4
User257
  6

 40
4.995333194732666
 41
8.297271728515625
 42
4.99530029296875
 43
8.29736328125
 44
914.3153076171875
 45
1269.915283203125
 46
0.0
 47
0.0
 48
0.0
 49
0.0
140
0.0
141
0.0
142
1.0
143
30.0
 70
 11936
 72
     0
 73
     2
 74
     1
  7
1055ColorFullDraftShaded.ctb
 75
     0
147
3.484472351238056
 76
     0
 77
     2
 78
   300
148
-119.4582094169044
149
-58.17053554795709
1001
ACAD_PSEXT
1000
1055ColorDraftShaded.pc3
1000
HP DesignJet 1055CM by HP
1000
\\aqua-srv01
1000

1070
     0
  0
PLOTSETTINGS
  5
9D1
102
{ACAD_REACTORS
330
4DA
102
}
330
4DA
100
AcDbPlotSettings
  1
1055-Color-Shaded-Final
  2
1055ColorFinalShaded.pc3
  4
User257
  6

 40
4.995333194732666
 41
8.297271728515625
 42
4.99530029296875
 43
8.29736328125
 44
914.357666015625
 45
1269.957641601562
 46
0.0
 47
0.0
 48
0.0
 49
0.0
140
0.0
141
0.0
142
1.0
143
30.0
 70
 11936
 72
     0
 73
     2
 74
     1
  7
1055ColorFullFinalShaded.ctb
 75
     0
147
3.484472351238056
 76
     0
 77
     2
 78
   300
148
-119.4582094169044
149
-58.17053554795709
1001
ACAD_PSEXT
1000
1055ColorFinalShaded.pc3
1000
HP DesignJet 1055CM by HP
1000
\\aqua-srv01
1000

1070
     0
  0
PLOTSETTINGS
  5
9D2
102
{ACAD_REACTORS
330
4DA
102
}
330
4DA
100
AcDbPlotSettings
  1
8500 11x17 BW Fit
  2
8500B&WShaded.pc3
  4
11x17
  6

 40
5.027083396911621
 41
5.027085304260253
 42
5.027099609375
 43
5.027069091796875
 44
431.7999877929687
 45
279.3999938964844
 46
80.82067083627547
 47
0.0
 48
0.0
 49
0.0
140
0.0
141
0.0
142
1.0
143
0.4045605831172927
 70
  2740
 72
     0
 73
     0
 74
     1
  7
8500B&WShaded.ctb
 75
     0
147
2.471817675104729
 76
     0
 77
     2
 78
   300
148
-75.74468520391772
149
-27.53050504688192
1001
ACAD_PSEXT
1000
8500B&WShaded.pc3
1000
HP Color LaserJet 8500 PS
1000
BACK
1000

1070
     0
  0
PLOTSETTINGS
  5
9D3
102
{ACAD_REACTORS
330
4DA
102
}
330
4DA
100
AcDbPlotSettings
  1
8500 11x17 BW Full
  2
8500B&WShaded.pc3
  4
11x17
  6

 40
5.027083396911621
 41
5.027085304260253
 42
5.027099609375
 43
5.027069091796875
 44
431.7999877929687
 45
279.3999938964844
 46
158.2588957589094
 47
80.18956480595884
 48
0.0
 49
0.0
140
0.0
141
0.0
142
1.0
143
1.0
 70
  2724
 72
     0
 73
     0
 74
     1
  7
8500B&WShaded.ctb
 75
     0
147
2.471817675104729
 76
     0
 77
     2
 78
   300
148
-75.74468520391772
149
-27.53050504688192
1001
ACAD_PSEXT
1000
8500B&WShaded.pc3
1000
HP Color LaserJet 8500 PS
1000
BACK
1000

1070
     0
  0
PLOTSETTINGS
  5
9D4
102
{ACAD_REACTORS
330
4DA
102
}
330
4DA
100
AcDbPlotSettings
  1
8500 11x17 BW Half
  2
8500B&WShaded.pc3
  4
11x17
  6

 40
5.027083396911621
 41
5.027085304260253
 42
5.027099609375
 43
5.027069091796875
 44
431.7999877929687
 45
279.3999938964844
 46
184.5658990761252
 47
107.4312422780862
 48
0.0
 49
0.0
140
0.0
141
0.0
142
1.0
143
2.0
 70
  2740
 72
     0
 73
     0
 74
     1
  7
8500B&WShaded.ctb
 75
    17
147
0.5
 76
     0
 77
     2
 78
   300
148
-75.74468520391772
149
-27.53050504688192
1001
ACAD_PSEXT
1000
8500B&WShaded.pc3
1000
HP Color LaserJet 8500 PS
1000
BACK
1000

1070
     0
  0
PLOTSETTINGS
  5
9D5
102
{ACAD_REACTORS
330
4DA
102
}
330
4DA
100
AcDbPlotSettings
  1
8500 11x17 Color Fit
  2
8500ColorShaded.pc3
  4
11x17
  6

 40
5.027083396911621
 41
5.027085304260253
 42
5.027099609375
 43
5.027069091796875
 44
431.7999877929687
 45
279.3999938964844
 46
80.82067083627547
 47
0.0
 48
0.0
 49
0.0
140
0.0
141
0.0
142
1.0
143
0.4045605831172927
 70
  2740
 72
     0
 73
     0
 74
     1
  7
8500ColorShaded.ctb
 75
     0
147
2.471817675104729
 76
     0
 77
     2
 78
   300
148
-75.74468520391772
149
-27.53050504688192
1001
ACAD_PSEXT
1000
8500ColorShaded.pc3
1000
HP Color LaserJet 8500 PS
1000
BACK
1000

1070
     0
  0
PLOTSETTINGS
  5
9D6
102
{ACAD_REACTORS
330
4DA
102
}
330
4DA
100
AcDbPlotSettings
  1
8500 11x17 Color Half
  2
8500ColorShaded.pc3
  4
11x17
  6

 40
5.027083396911621
 41
5.027085304260253
 42
5.027099609375
 43
5.027069091796875
 44
431.7999877929687
 45
279.3999938964844
 46
184.5658990761252
 47
107.4312422780862
 48
0.0
 49
0.0
140
0.0
141
0.0
142
1.0
143
2.0
 70
  2740
 72
     0
 73
     0
 74
     1
  7
8500ColorShaded.ctb
 75
    17
147
0.5
 76
     0
 77
     2
 78
   300
148
-75.74468520391772
149
-27.53050504688192
1001
ACAD_PSEXT
1000
8500ColorShaded.pc3
1000
HP Color LaserJet 8500 PS
1000
BACK
1000

1070
     0
  0
PLOTSETTINGS
  5
9D7
102
{ACAD_REACTORS
330
4DA
102
}
330
4DA
100
AcDbPlotSettings
  1
8500 8x11 BW Fit
  2
8500B&WShaded-8x11.pc3
  4
Letter
  6

 40
5.027083396911621
 41
5.027085304260253
 42
5.027099609375
 43
5.027084350585937
 44
279.3999938964844
 45
215.8999938964844
 46
35.28132453565591
 47
0.0
 48
0.0
 49
0.0
140
0.0
141
0.0
142
1.0
143
0.5293607985003172
 70
  2740
 72
     0
 73
     0
 74
     1
  7
8500B&WShaded.ctb
 75
     0
147
1.889070748784206
 76
     0
 77
     2
 78
   300
148
-75.74468520391772
149
-27.53050504688192
1001
ACAD_PSEXT
1000
8500B&WShaded-8x11.pc3
1000
HP Color LaserJet 8500 PS
1000
BACK
1000

1070
     0
  0
PLOTSETTINGS
  5
9D8
102
{ACAD_REACTORS
330
4DA
102
}
330
4DA
100
AcDbPlotSettings
  1
8500 8x11 Color Fit
  2
8500ColorShaded-8x11.pc3
  4
Letter
  6

 40
5.027083396911621
 41
5.027085304260253
 42
5.027099609375
 43
5.027084350585937
 44
279.3999938964844
 45
215.8999938964844
 46
35.28132453565591
 47
0.0
 48
0.0
 49
0.0
140
0.0
141
0.0
142
1.0
143
0.5293607985003172
 70
  2740
 72
     0
 73
     0
 74
     1
  7
8500ColorShaded.ctb
 75
     0
147
1.889070748784206
 76
     0
 77
     2
 78
   300
148
-75.74468520391772
149
-27.53050504688192
1001
ACAD_PSEXT
1000
8500ColorShaded-8x11.pc3
1000
HP Color LaserJet 8500 PS
1000
BACK
1000

1070
     0
  0
PLOTSETTINGS
  5
9D9
102
{ACAD_REACTORS
330
4DA
102
}
330
4DA
100
AcDbPlotSettings
  1
8500-B&W-Shaded-11x17
  2
8500B&WShaded.pc3
  4
11x17
  6

 40
5.027083396911621
 41
5.027085304260253
 42
5.027099609375
 43
5.027069091796875
 44
431.7999877929687
 45
279.3999938964844
 46
72.80024597690952
 47
0.0
 48
0.0
 49
0.0
140
0.0
141
0.0
142
1.0
143
0.349665202263268
 70
 11956
 72
     0
 73
     0
 74
     1
  7
8500B&WShaded.ctb
 75
     0
147
2.859878516727796
 76
     0
 77
     2
 78
   300
148
-119.4582094169044
149
-58.17053554795709
1001
ACAD_PSEXT
1000
8500B&WShaded.pc3
1000
HP Color LaserJet 8500 PS
1000
BACK
1000

1070
     0
  0
PLOTSETTINGS
  5
9DA
102
{ACAD_REACTORS
330
4DA
102
}
330
4DA
100
AcDbPlotSettings
  1
8500-B&W-Shaded-8x11
  2
8500ColorShaded-8x11.pc3
  4
Letter
  6

 40
5.027083396911621
 41
5.027085304260253
 42
5.027099609375
 43
5.027084350585937
 44
279.3999938964844
 45
215.8999938964844
 46
29.15176645892277
 47
0.0
 48
0.0
 49
0.0
140
0.0
141
0.0
142
1.0
143
0.4575311051106368
 70
 11956
 72
     0
 73
     0
 74
     1
  7
8500B&WShaded.ctb
 75
     0
147
2.185643749310087
 76
     0
 77
     2
 78
   300
148
-119.4582094169044
149
-58.17053554795709
1001
ACAD_PSEXT
1000
8500ColorShaded-8x11.pc3
1000
HP Color LaserJet 8500 PS
1000
BACK
1000

1070
     0
  0
PLOTSETTINGS
  5
9DB
102
{ACAD_REACTORS
330
4DA
102
}
330
4DA
100
AcDbPlotSettings
  1
8500-Color-Shaded-11x17
  2
8500ColorShaded.pc3
  4
11x17
  6

 40
5.027083396911621
 41
5.027085304260253
 42
5.027099609375
 43
5.027069091796875
 44
431.7999877929687
 45
279.3999938964844
 46
72.80024597690952
 47
0.0
 48
0.0
 49
0.0
140
0.0
141
0.0
142
1.0
143
0.349665202263268
 70
 11956
 72
     0
 73
     0
 74
     1
  7
8500ColorShaded.ctb
 75
     0
147
2.859878516727796
 76
     0
 77
     2
 78
   300
148
-119.4582094169044
149
-58.17053554795709
1001
ACAD_PSEXT
1000
8500ColorShaded.pc3
1000
HP Color LaserJet 8500 PS
1000
BACK
1000

1070
     0
  0
PLOTSETTINGS
  5
9DC
102
{ACAD_REACTORS
330
4DA
102
}
330
4DA
100
AcDbPlotSettings
  1
8500-Color-Shaded-8x11
  2
8500ColorShaded-8x11.pc3
  4
Letter
  6

 40
5.027083396911621
 41
5.027085304260253
 42
5.027099609375
 43
5.027084350585937
 44
279.3999938964844
 45
215.8999938964844
 46
29.15176645892277
 47
0.0
 48
0.0
 49
0.0
140
0.0
141
0.0
142
1.0
143
0.4575311051106368
 70
 11956
 72
     0
 73
     0
 74
     1
  7
8500ColorShaded.ctb
 75
     0
147
2.185643749310087
 76
     0
 77
     2
 78
   300
148
-119.4582094169044
149
-58.17053554795709
1001
ACAD_PSEXT
1000
8500ColorShaded-8x11.pc3
1000
HP Color LaserJet 8500 PS
1000
BACK
1000

1070
     0
  0
PLOTSETTINGS
  5
9DD
102
{ACAD_REACTORS
330
4DA
102
}
330
4DA
100
AcDbPlotSettings
  1
_1055 22x34 True Centered BW
  2
1055B&WDraftShaded 24x36 true.pc3
  4
User1639
  6

 40
0.0
 41
0.0
 42
0.0
 43
0.0
 44
863.6000366210938
 45
558.7999877929687
 46
379.1860116761152
 47
224.9166389522296
 48
0.0
 49
0.0
140
0.0
141
0.0
142
1.0
143
1.0
 70
  2804
 72
     0
 73
     0
 74
     1
  7
1055B&WFullDraftShaded.ctb
 75
    16
147
1.0
 76
     0
 77
     2
 78
   300
148
-75.74468520391772
149
-27.53050504688192
1001
ACAD_PSEXT
1000
1055B&WDraftShaded 24x36 true.pc3
1000
HP DesignJet 1055CM by HP
1000
FRONT
1000

1070
     0
  0
PLOTSETTINGS
  5
9DE
102
{ACAD_REACTORS
330
4DA
102
}
330
4DA
100
AcDbPlotSettings
  1
_1055 24x36 True Centered BW
  2
1055B&WDraftShaded 24x36 true.pc3
  4
User1308
  6

 40
14.98600006103515
 41
8.297332763671875
 42
14.9859619140625
 43
8.29736328125
 44
914.3153076171875
 45
609.5153198242187
 46
389.5576661866133
 47
241.9769569453936
 48
0.0
 49
0.0
140
0.0
141
0.0
142
1.0
143
1.0
 70
  2804
 72
     0
 73
     0
 74
     1
  7
1055B&WFullDraftShaded.ctb
 75
    16
147
1.0
 76
     0
 77
     2
 78
   300
148
-75.74468520391772
149
-27.53050504688192
1001
ACAD_PSEXT
1000
1055B&WDraftShaded 24x36 true.pc3
1000
HP DesignJet 1055CM by HP
1000
FRONT
1000

1070
     0
  0
PLOTSETTINGS
  5
9DF
102
{ACAD_REACTORS
330
4DA
102
}
330
4DA
100
AcDbPlotSettings
  1
_1055 24x36 True Centered BW Final
  2
1055B&WFinalShaded 24x36 true.pc3
  4
User1308
  6

 40
14.98600006103515
 41
8.297332763671875
 42
14.9859619140625
 43
8.29736328125
 44
914.357666015625
 45
609.5576782226562
 46
389.578845385832
 47
241.9981361446124
 48
0.0
 49
0.0
140
0.0
141
0.0
142
1.0
143
1.0
 70
  2804
 72
     0
 73
     0
 74
     1
  7
1055B&WFullFinalShaded.ctb
 75
    16
147
1.0
 76
     0
 77
     2
 78
   300
148
-75.74468520391772
149
-27.53050504688192
1001
ACAD_PSEXT
1000
1055B&WFinalShaded 24x36 true.pc3
1000
HP DesignJet 1055CM by HP
1000
FRONT
1000

1070
     0
  0
PLOTSETTINGS
  5
9E0
102
{ACAD_REACTORS
330
4DA
102
}
330
4DA
100
AcDbPlotSettings
  1
_1055 24x36 True Centered Color
  2
1055ColorDraftShaded 24x36 true.pc3
  4
User1308
  6

 40
14.98600006103515
 41
8.297332763671875
 42
14.9859619140625
 43
8.29736328125
 44
914.3153076171875
 45
609.5153198242187
 46
389.5576661866133
 47
241.9769569453936
 48
0.0
 49
0.0
140
0.0
141
0.0
142
1.0
143
1.0
 70
  2804
 72
     0
 73
     0
 74
     1
  7
1055ColorFullDraftShaded.ctb
 75
    16
147
1.0
 76
     0
 77
     2
 78
   300
148
-75.74468520391772
149
-27.53050504688192
1001
ACAD_PSEXT
1000
1055ColorDraftShaded 24x36 true.pc3
1000
HP DesignJet 1055CM by HP
1000
FRONT
1000

1070
     0
  0
PLOTSETTINGS
  5
9E1
102
{ACAD_REACTORS
330
4DA
102
}
330
4DA
100
AcDbPlotSettings
  1
_1055 30x42 True Centered BW
  2
1055B&WDraftShaded 30x42 true.pc3
  4
User286
  6

 40
0.0
 41
0.0
 42
-0.08465576171875
 43
-0.084716796875
 44
761.9153442382812
 45
1066.71533203125
 46
326.5166450557452
 47
480.7860177796309
 48
0.0
 49
0.0
140
0.0
141
0.0
142
1.0
143
1.0
 70
  2804
 72
     0
 73
     1
 74
     1
  7
1055B&WFullDraftShaded.ctb
 75
    16
147
1.0
 76
     0
 77
     2
 78
   300
148
-75.74468520391772
149
-27.53050504688192
1001
ACAD_PSEXT
1000
1055B&WDraftShaded 30x42 true.pc3
1000
HP DesignJet 1055CM by HP
1000
FRONT
1000

1070
     0
  0
PLOTSETTINGS
  5
9E2
102
{ACAD_REACTORS
330
4DA
102
}
330
4DA
100
AcDbPlotSettings
  1
_1055+ 22x34 True Centered BW
  2
1055_PLUS_B&WDraftShaded 24x36 true.pc3
  4
User1639
  6

 40
0.0
 41
0.0
 42
0.0
 43
0.0
 44
863.6000366210938
 45
558.7999877929687
 46
379.1860116761152
 47
224.9166389522296
 48
0.0
 49
0.0
140
0.0
141
0.0
142
1.0
143
1.0
 70
  2804
 72
     0
 73
     0
 74
     1
  7
1055B&WFullDraftShaded.ctb
 75
    16
147
1.0
 76
     0
 77
     2
 78
   300
148
-75.74468520391772
149
-27.53050504688192
1001
ACAD_PSEXT
1000
1055_PLUS_B&WDraftShaded 24x36 true.pc3
1000
HP DesignJet 1055CM by HP
1000
FRONT
1000

1070
     0
  0
PLOTSETTINGS
  5
9E3
102
{ACAD_REACTORS
330
4DA
102
}
330
4DA
100
AcDbPlotSettings
  1
_1055+ 24x36 True Centered BW
  2
1055_PLUS_B&WDraftShaded 24x36 true.pc3
  4
User1308
  6

 40
14.98600006103515
 41
8.297332763671875
 42
14.9859619140625
 43
8.29736328125
 44
914.3153076171875
 45
609.5153198242187
 46
389.5576661866133
 47
241.9769569453936
 48
0.0
 49
0.0
140
0.0
141
0.0
142
1.0
143
1.0
 70
  2804
 72
     0
 73
     0
 74
     1
  7
1055B&WFullDraftShaded.ctb
 75
    16
147
1.0
 76
     0
 77
     2
 78
   300
148
-75.74468520391772
149
-27.53050504688192
1001
ACAD_PSEXT
1000
1055_PLUS_B&WDraftShaded 24x36 true.pc3
1000
HP DesignJet 1055CM by HP
1000
FRONT
1000

1070
     0
  0
PLOTSETTINGS
  5
9E4
102
{ACAD_REACTORS
330
4DA
102
}
330
4DA
100
AcDbPlotSettings
  1
_1055+ 24x36 True Centered BW Final
  2
1055_PLUS_B&WFinalShaded 24x36 true.pc3
  4
User1308
  6

 40
14.98600006103515
 41
8.297332763671875
 42
14.9859619140625
 43
8.29736328125
 44
914.357666015625
 45
609.5576782226562
 46
389.578845385832
 47
241.9981361446124
 48
0.0
 49
0.0
140
0.0
141
0.0
142
1.0
143
1.0
 70
  2804
 72
     0
 73
     0
 74
     1
  7
1055B&WFullFinalShaded.ctb
 75
    16
147
1.0
 76
     0
 77
     2
 78
   300
148
-75.74468520391772
149
-27.53050504688192
1001
ACAD_PSEXT
1000
1055_PLUS_B&WFinalShaded 24x36 true.pc3
1000
HP DesignJet 1055CM by HP
1000
FRONT
1000

1070
     0
  0
PLOTSETTINGS
  5
9E5
102
{ACAD_REACTORS
330
4DA
102
}
330
4DA
100
AcDbPlotSettings
  1
_1055+ 24x36 True Centered Color
  2
1055_PLUS_ColorDraftShaded 24x36 true.pc3
  4
User1308
  6

 40
14.98600006103515
 41
8.297332763671875
 42
14.9859619140625
 43
8.29736328125
 44
914.3153076171875
 45
609.5153198242187
 46
389.5576661866133
 47
241.9769569453936
 48
0.0
 49
0.0
140
0.0
141
0.0
142
1.0
143
1.0
 70
  2804
 72
     0
 73
     0
 74
     1
  7
1055ColorFullDraftShaded.ctb
 75
    16
147
1.0
 76
     0
 77
     2
 78
   300
148
-75.74468520391772
149
-27.53050504688192
1001
ACAD_PSEXT
1000
1055_PLUS_ColorDraftShaded 24x36 true.pc3
1000
HP DesignJet 1055CM by HP
1000
FRONT
1000

1070
     0
  0
PLOTSETTINGS
  5
9E6
102
{ACAD_REACTORS
330
4DA
102
}
330
4DA
100
AcDbPlotSettings
  1
CALS 22x34
  2
CALS34x22.pc3
  4
ANSI_D_(34.00_x_22.00_Inches)
  6

 40
0.0
 41
0.0
 42
0.0
 43
0.0
 44
863.5999755859375
 45
558.7999877929687
 46
379.185981158537
 47
224.9166389522295
 48
0.0
 49
0.0
140
0.0
141
0.0
142
1.0
143
1.0
 70
  2724
 72
     0
 73
     0
 74
     1
  7
1055B&WFullFinalShaded.ctb
 75
     0
147
5.128171607316682
 76
     0
 77
     2
 78
   300
148
-75.74468520391772
149
-27.53050504688192
1001
ACAD_PSEXT
1000
CALS34x22.pc3
1000
Dimensional CALS Type 1 (CCITT G4 2D Compression)
1000
File
1000

1070
     0
  0
PLOTSETTINGS
  5
9E7
102
{ACAD_REACTORS
330
4DA
102
}
330
4DA
100
AcDbPlotSettings
  1
DWF BW 11x17 Fit
  2
DWF-BW_11x17.pc3
  4
UserDefinedImperial (17.00 x 11.00Inches)
  6

 40
0.0
 41
0.0
 42
0.0
 43
0.0
 44
431.7999877929687
 45
279.3999938964844
 46
80.99316641155247
 47
0.0
 48
0.0
 49
0.0
140
0.0
141
0.0
142
1.0
143
0.3900025492802299
 70
  2740
 72
     0
 73
     0
 74
     1
  7
PDF BW Shaded.ctb
 75
     0
147
2.564085803658341
 76
     0
 77
     2
 78
   300
148
-75.74468520391772
149
-27.53050504688192
1001
ACAD_PSEXT
1000
DWF-BW_11x17.pc3
1000
DWF eView (optimized for viewing)
1000
File
1000

1070
     0
  0
PLOTSETTINGS
  5
9E8
102
{ACAD_REACTORS
330
4DA
102
}
330
4DA
100
AcDbPlotSettings
  1
DWF BW 11x17 Half
  2
DWF-BW_11x17.pc3
  4
UserDefinedImperial (17.00 x 11.00Inches)
  6

 40
0.0
 41
0.0
 42
0.0
 43
0.0
 44
431.7999877929687
 45
279.3999938964844
 46
189.5929905792685
 47
112.4583194761147
 48
0.0
 49
0.0
140
0.0
141
0.0
142
1.0
143
2.0
 70
  2740
 72
     0
 73
     0
 74
     1
  7
PDF BW Shaded.ctb
 75
    17
147
0.5
 76
     0
 77
     2
 78
   300
148
-75.74468520391772
149
-27.53050504688192
1001
ACAD_PSEXT
1000
DWF-BW_11x17.pc3
1000
DWF eView (optimized for viewing)
1000
File
1000

1070
     0
  0
PLOTSETTINGS
  5
9E9
102
{ACAD_REACTORS
330
4DA
102
}
330
4DA
100
AcDbPlotSettings
  1
DWF BW 22x34
  2
DWF-BW_22x34.pc3
  4
UserDefinedImperial (34.00 x 22.00Inches)
  6

 40
0.0
 41
0.0
 42
0.0
 43
0.0
 44
863.5999755859375
 45
558.7999877929687
 46
379.185981158537
 47
224.9166389522295
 48
0.0
 49
0.0
140
0.0
141
0.0
142
1.0
143
1.0
 70
  2740
 72
     0
 73
     0
 74
     1
  7
PDF BW Shaded.ctb
 75
    16
147
1.0
 76
     0
 77
     2
 78
   300
148
-75.74468520391772
149
-27.53050504688192
1001
ACAD_PSEXT
1000
DWF-BW_22x34.pc3
1000
DWF eView (optimized for viewing)
1000
File
1000

1070
     0
  0
PLOTSETTINGS
  5
9EA
102
{ACAD_REACTORS
330
4DA
102
}
330
4DA
100
AcDbPlotSettings
  1
DWF BW 24x36
  2
DWF-BW_24x36.pc3
  4
UserDefinedImperial (36.00 x 24.00Inches)
  6

 40
0.0
 41
0.0
 42
0.0
 43
0.0
 44
914.4000244140626
 45
609.5999755859375
 46
404.5860055725995
 47
250.3166328487139
 48
0.0
 49
0.0
140
0.0
141
0.0
142
1.0
143
1.0
 70
  2740
 72
     0
 73
     0
 74
     1
  7
PDF BW Shaded.ctb
 75
    16
147
1.0
 76
     0
 77
     2
 78
   300
148
-75.74468520391772
149
-27.53050504688192
1001
ACAD_PSEXT
1000
DWF-BW_24x36.pc3
1000
DWF eView (optimized for viewing)
1000
File
1000

1070
     0
  0
PLOTSETTINGS
  5
9EB
102
{ACAD_REACTORS
330
4DA
102
}
330
4DA
100
AcDbPlotSettings
  1
DWF BW 30x42
  2
DWF-BW_30x42.pc3
  4
UserDefinedImperial (42.00 x 30.00Inches)
  6

 40
0.0
 41
0.0
 42
0.0
 43
0.0
 44
1066.800048828125
 45
762.0
 46
480.7860177796309
 47
326.5166450557452
 48
0.0
 49
0.0
140
0.0
141
0.0
142
1.0
143
1.0
 70
  2740
 72
     0
 73
     0
 74
     1
  7
PDF BW Shaded.ctb
 75
    16
147
1.0
 76
     0
 77
     2
 78
   300
148
-75.74468520391772
149
-27.53050504688192
1001
ACAD_PSEXT
1000
DWF-BW_30x42.pc3
1000
DWF eView (optimized for viewing)
1000
File
1000

1070
     0
  0
PLOTSETTINGS
  5
9EC
102
{ACAD_REACTORS
330
4DA
102
}
330
4DA
100
AcDbPlotSettings
  1
DWF BW 36x48
  2
DWF-BW_36x48.pc3
  4
UserDefinedImperial (48.00 x 36.00Inches)
  6

 40
0.0
 41
0.0
 42
0.0
 43
0.0
 44
1219.199951171875
 45
914.4000244140626
 46
556.9859689515058
 47
402.7166572627765
 48
0.0
 49
0.0
140
0.0
141
0.0
142
1.0
143
1.0
 70
  2740
 72
     0
 73
     0
 74
     1
  7
PDF BW Shaded.ctb
 75
    16
147
1.0
 76
     0
 77
     2
 78
   300
148
-75.74468520391772
149
-27.53050504688192
1001
ACAD_PSEXT
1000
DWF-BW_36x48.pc3
1000
DWF eView (optimized for viewing)
1000
File
1000

1070
     0
  0
PLOTSETTINGS
  5
9ED
102
{ACAD_REACTORS
330
4DA
102
}
330
4DA
100
AcDbPlotSettings
  1
Laser5 11x17 Fit
  2
LaserJet5Shaded.pc3
  4
11x17
  6

 40
5.873749732971191
 41
5.027085304260253
 42
5.873748779296875
 43
5.027069091796875
 44
431.7999877929687
 45
279.3999938964844
 46
79.97401308328474
 47
0.0
 48
0.0
 49
0.0
140
0.0
141
0.0
142
1.0
143
0.4045605831172927
 70
  2740
 72
     0
 73
     0
 74
     1
  7
LaserJet5Shaded.ctb
 75
     0
147
2.471817675104729
 76
     0
 77
     2
 78
   300
148
-75.74468520391772
149
-27.53050504688192
1001
ACAD_PSEXT
1000
LaserJet5Shaded.pc3
1000
HP LaserJet 5Si
1000
\\aqua-srv01
1000

1070
     0
  0
PLOTSETTINGS
  5
9EE
102
{ACAD_REACTORS
330
4DA
102
}
330
4DA
100
AcDbPlotSettings
  1
Laser5 11x17 Full
  2
LaserJet5Shaded.pc3
  4
11x17
  6

 40
5.873749732971191
 41
5.027085304260253
 42
5.873748779296875
 43
5.027069091796875
 44
431.7999877929687
 45
279.3999938964844
 46
157.4122380059187
 47
80.18956480595884
 48
0.0
 49
0.0
140
0.0
141
0.0
142
1.0
143
1.0
 70
  2724
 72
     0
 73
     0
 74
     1
  7
LaserJet5Shaded.ctb
 75
     0
147
2.433550528115671
 76
     0
 77
     2
 78
   300
148
-75.74468520391772
149
-27.53050504688192
1001
ACAD_PSEXT
1000
LaserJet5Shaded.pc3
1000
HP LaserJet 5Si
1000
\\aqua-srv01
1000

1070
     0
  0
PLOTSETTINGS
  5
9EF
102
{ACAD_REACTORS
330
4DA
102
}
330
4DA
100
AcDbPlotSettings
  1
Laser5 11x17 Half
  2
LaserJet5Shaded.pc3
  4
11x17
  6

 40
5.873749732971191
 41
5.027085304260253
 42
5.873748779296875
 43
5.027069091796875
 44
431.7999877929687
 45
279.3999938964844
 46
183.7192413231345
 47
107.4312422780862
 48
0.0
 49
0.0
140
0.0
141
0.0
142
1.0
143
2.0
 70
  2740
 72
     0
 73
     0
 74
     1
  7
LaserJet5Shaded.ctb
 75
    17
147
0.5
 76
     0
 77
     2
 78
   300
148
-75.74468520391772
149
-27.53050504688192
1001
ACAD_PSEXT
1000
LaserJet5Shaded.pc3
1000
HP LaserJet 5Si
1000
\\aqua-srv01
1000

1070
     0
  0
PLOTSETTINGS
  5
9F0
102
{ACAD_REACTORS
330
4DA
102
}
330
4DA
100
AcDbPlotSettings
  1
Laser5 8x11 Fit
  2
LaserJet5Shaded-8x11.pc3
  4
Letter
  6

 40
5.873749732971191
 41
5.027085304260253
 42
5.873748779296875
 43
5.027084350585937
 44
279.3999938964844
 45
215.8999938964844
 46
34.4346667826652
 47
0.0
 48
0.0
 49
0.0
140
0.0
141
0.0
142
1.0
143
0.5293607985003172
 70
  2740
 72
     0
 73
     0
 74
     1
  7
LaserJet5Shaded.ctb
 75
     0
147
1.889070748784206
 76
     0
 77
     2
 78
   300
148
-75.74468520391772
149
-27.53050504688192
1001
ACAD_PSEXT
1000
LaserJet5Shaded-8x11.pc3
1000
HP LaserJet 5Si
1000
\\aqua-srv01
1000

1070
     0
  0
PLOTSETTINGS
  5
9F1
102
{ACAD_REACTORS
330
4DA
102
}
330
4DA
100
AcDbPlotSettings
  1
Laser5 8x11 Half
  2
LaserJet5Shaded-8x11.pc3
  4
Letter
  6

 40
5.873749732971191
 41
5.027085304260253
 42
5.873748779296875
 43
5.027084350585937
 44
279.3999938964844
 45
215.8999938964844
 46
107.5192443748923
 47
75.68123464869171
 48
0.0
 49
0.0
140
0.0
141
0.0
142
1.0
143
2.0
 70
  2740
 72
     0
 73
     0
 74
     1
  7
LaserJet5Shaded.ctb
 75
    17
147
0.5
 76
     0
 77
     2
 78
   300
148
-75.74468520391772
149
-27.53050504688192
1001
ACAD_PSEXT
1000
LaserJet5Shaded-8x11.pc3
1000
HP LaserJet 5Si
1000
\\aqua-srv01
1000

1070
     0
  0
PLOTSETTINGS
  5
9F2
102
{ACAD_REACTORS
330
4DA
102
}
330
4DA
100
AcDbPlotSettings
  1
Laser5 8x11 Portrait Fit
  2
LaserJet5Shaded-8x11.pc3
  4
Letter
  6

 40
5.873749732971191
 41
5.027085304260253
 42
5.873748779296875
 43
5.027084350585937
 44
279.3999938964844
 45
215.8999938964844
 46
27.24653799736659
 47
0.0000000000000029
 48
0.0
 49
0.0
140
0.0
141
0.0
142
1.0
143
0.5111981924167587
 70
  2740
 72
     0
 73
     1
 74
     1
  7
LaserJet5Shaded.ctb
 75
     0
147
1.956188450652308
 76
     0
 77
     2
 78
   300
148
-75.74468520391772
149
-27.53050504688192
1001
ACAD_PSEXT
1000
LaserJet5Shaded-8x11.pc3
1000
HP LaserJet 5Si
1000
\\aqua-srv01
1000

1070
     0
  0
PLOTSETTINGS
  5
9F3
102
{ACAD_REACTORS
330
4DA
102
}
330
4DA
100
AcDbPlotSettings
  1
LaserJet5-Shaded-11x17
  2
LaserJet5Shaded.pc3
  4
11x17
  6

 40
7.111999988555908
 41
5.079999923706054
 42
7.11199951171875
 43
5.079986572265625
 44
279.3999938964844
 45
431.7999877929687
 46
0.0
 47
74.88489939702606
 48
0.0
 49
0.0
140
0.0
141
0.0
142
1.0
143
0.3551636250563743
 70
 11956
 72
     0
 73
     1
 74
     1
  7
LaserJet5Shaded.ctb
 75
     0
147
2.815603652658045
 76
     0
 77
     2
 78
   300
148
-119.4582094169044
149
-58.17053554795709
1001
ACAD_PSEXT
1000
LaserJet5Shaded.pc3
1000
HP LaserJet 5Si
1000
\\aqua-srv01
1000

1070
     0
  0
PLOTSETTINGS
  5
9F4
102
{ACAD_REACTORS
330
4DA
102
}
330
4DA
100
AcDbPlotSettings
  1
LaserJet5-Shaded-8.5x11
  2
LaserJet5Shaded-8x11.pc3
  4
Letter
  6

 40
5.873749732971191
 41
5.873734951019287
 42
6.55108642578125
 43
5.027084350585937
 44
279.3999938964844
 45
215.8999938964844
 46
28.40045128601757
 47
0.0000000000000046
 48
0.0
 49
0.0
140
0.0
141
0.0
142
1.0
143
0.4594207153946231
 70
 11956
 72
     0
 73
     0
 74
     1
  7
LaserJet5Shaded.ctb
 75
     0
147
2.176654135286525
 76
     0
 77
     2
 78
   300
148
-119.4582094169044
149
-58.17053554795709
1001
ACAD_PSEXT
1000
LaserJet5Shaded-8x11.pc3
1000
HP LaserJet 5Si
1000
CAD Area
1000

1070
     0
  0
PLOTSETTINGS
  5
9F5
102
{ACAD_REACTORS
330
4DA
102
}
330
4DA
100
AcDbPlotSettings
  1
Oki-Doki-B&W-Shaded-11x17
  2
OKI DOKI Color Laser.pc3
  4
11x17
  6

 40
5.873749732971191
 41
5.873734951019287
 42
5.873748779296875
 43
5.027069091796875
 44
431.7999877929687
 45
279.3999938964844
 46
72.38759962724653
 47
0.0000000000000057
 48
0.0
 49
0.0
140
0.0
141
0.0
142
1.0
143
0.3507677900220671
 70
 11956
 72
     0
 73
     0
 74
     1
  7
OKIB&WShaded.ctb
 75
     0
147
2.850888902704233
 76
     0
 77
     2
 78
   300
148
-119.4582094169044
149
-58.17053554795709
1001
ACAD_PSEXT
1000
OKI DOKI Color Laser.pc3
1000
HP LaserJet 5Si
1000
CAD Area
1000

1070
     0
  0
PLOTSETTINGS
  5
9F6
102
{ACAD_REACTORS
330
4DA
102
}
330
4DA
100
AcDbPlotSettings
  1
Oki-Doki-B&W-Shaded-8.5x11
  2
OKI DOKI Color Laser8x11.pc3
  4
Letter
  6

 40
5.873749732971191
 41
5.873734951019287
 42
6.55108642578125
 43
5.027084350585937
 44
279.3999938964844
 45
215.8999938964844
 46
28.40045128601757
 47
0.0000000000000046
 48
0.0
 49
0.0
140
0.0
141
0.0
142
1.0
143
0.4594207153946231
 70
 11956
 72
     0
 73
     0
 74
     1
  7
OKIB&WShaded.ctb
 75
     0
147
2.176654135286525
 76
     0
 77
     2
 78
   300
148
-119.4582094169044
149
-58.17053554795709
1001
ACAD_PSEXT
1000
OKI DOKI Color Laser8x11.pc3
1000
HP LaserJet 5Si
1000
CAD Area
1000

1070
     0
  0
PLOTSETTINGS
  5
9F7
102
{ACAD_REACTORS
330
4DA
102
}
330
4DA
100
AcDbPlotSettings
  1
Oki-Doki-Color-Shaded-11x17
  2
OKI DOKI Color Laser.pc3
  4
Tabloid
  6

 40
5.027083396911621
 41
5.027085304260253
 42
5.027099609375
 43
5.027069091796875
 44
431.7999877929687
 45
279.3999938964844
 46
72.80024597690952
 47
0.0
 48
0.0
 49
0.0
140
0.0
141
0.0
142
1.0
143
0.349665202263268
 70
 11956
 72
     0
 73
     0
 74
     1
  7
OKIColorShaded.ctb
 75
     0
147
2.859878516727796
 76
     0
 77
     2
 78
   300
148
-119.4582094169044
149
-58.17053554795709
1001
ACAD_PSEXT
1000
OKI DOKI Color Laser.pc3
1000
OKI C9500(PCL)
1000
FRONT
1000

1070
     0
  0
PLOTSETTINGS
  5
9F8
102
{ACAD_REACTORS
330
4DA
102
}
330
4DA
100
AcDbPlotSettings
  1
Oki-Doki-Color-Shaded-8.5x11
  2
OKI DOKI Color Laser8x11.pc3
  4
Letter
  6

 40
5.873749732971191
 41
5.873734951019287
 42
6.55108642578125
 43
5.027084350585937
 44
279.3999938964844
 45
215.8999938964844
 46
28.40045128601757
 47
0.0000000000000046
 48
0.0
 49
0.0
140
0.0
141
0.0
142
1.0
143
0.4594207153946231
 70
 11956
 72
     0
 73
     0
 74
     1
  7
OKIColorShaded.ctb
 75
     0
147
2.176654135286525
 76
     0
 77
     2
 78
   300
148
-119.4582094169044
149
-58.17053554795709
1001
ACAD_PSEXT
1000
OKI DOKI Color Laser8x11.pc3
1000
HP LaserJet 5Si
1000
CAD Area
1000

1070
     0
  0
PLOTSETTINGS
  5
9F9
102
{ACAD_REACTORS
330
4DA
102
}
330
4DA
100
AcDbPlotSettings
  1
Oki9500 11x17 BW Fit
  2
OKI DOKI Color Laser.pc3
  4
Tabloid
  6

 40
5.027083396911621
 41
5.027085304260253
 42
5.027099609375
 43
5.027069091796875
 44
431.7999877929687
 45
279.3999938964844
 46
80.82067083627547
 47
0.0
 48
0.0
 49
0.0
140
0.0
141
0.0
142
1.0
143
0.4045605831172927
 70
  2740
 72
     0
 73
     0
 74
     1
  7
OKIB&WShaded.ctb
 75
     0
147
2.471817675104729
 76
     0
 77
     2
 78
   300
148
-75.74468520391772
149
-27.53050504688192
1001
ACAD_PSEXT
1000
OKI DOKI Color Laser.pc3
1000
OKI C9500(PCL)
1000
FRONT
1000

1070
     0
  0
PLOTSETTINGS
  5
9FA
102
{ACAD_REACTORS
330
4DA
102
}
330
4DA
100
AcDbPlotSettings
  1
Oki9500 11x17 BW Full
  2
OKI DOKI Color Laser.pc3
  4
Tabloid
  6

 40
5.027083396911621
 41
5.027085304260253
 42
5.027099609375
 43
5.027069091796875
 44
431.7999877929687
 45
279.3999938964844
 46
158.2588957589094
 47
80.18956480595884
 48
0.0
 49
0.0
140
0.0
141
0.0
142
1.0
143
1.0
 70
  2724
 72
     0
 73
     0
 74
     1
  7
OKIB&WShaded.ctb
 75
     0
147
2.471817675104729
 76
     0
 77
     2
 78
   300
148
-75.74468520391772
149
-27.53050504688192
1001
ACAD_PSEXT
1000
OKI DOKI Color Laser.pc3
1000
OKI C9500(PCL)
1000
FRONT
1000

1070
     0
  0
PLOTSETTINGS
  5
9FB
102
{ACAD_REACTORS
330
4DA
102
}
330
4DA
100
AcDbPlotSettings
  1
Oki9500 11x17 BW Half
  2
OKI DOKI Color Laser.pc3
  4
Tabloid
  6

 40
5.027083396911621
 41
5.027085304260253
 42
5.027099609375
 43
5.027069091796875
 44
431.7999877929687
 45
279.3999938964844
 46
184.5658990761252
 47
107.4312422780862
 48
0.0
 49
0.0
140
0.0
141
0.0
142
1.0
143
2.0
 70
  2740
 72
     0
 73
     0
 74
     1
  7
OKIB&WShaded.ctb
 75
    17
147
0.5
 76
     0
 77
     2
 78
   300
148
-75.74468520391772
149
-27.53050504688192
1001
ACAD_PSEXT
1000
OKI DOKI Color Laser.pc3
1000
OKI C9500(PCL)
1000
FRONT
1000

1070
     0
  0
PLOTSETTINGS
  5
9FC
102
{ACAD_REACTORS
330
4DA
102
}
330
4DA
100
AcDbPlotSettings
  1
Oki9500 11x17 Color Fit
  2
OKI DOKI Color Laser.pc3
  4
Tabloid
  6

 40
5.027083396911621
 41
5.027085304260253
 42
5.027099609375
 43
5.027069091796875
 44
431.7999877929687
 45
279.3999938964844
 46
80.82067083627547
 47
0.0
 48
0.0
 49
0.0
140
0.0
141
0.0
142
1.0
143
0.4045605831172927
 70
  2740
 72
     0
 73
     0
 74
     1
  7
OKIColorShaded.ctb
 75
     0
147
2.471817675104729
 76
     0
 77
     2
 78
   300
148
-75.74468520391772
149
-27.53050504688192
1001
ACAD_PSEXT
1000
OKI DOKI Color Laser.pc3
1000
OKI C9500(PCL)
1000
FRONT
1000

1070
     0
  0
PLOTSETTINGS
  5
9FD
102
{ACAD_REACTORS
330
4DA
102
}
330
4DA
100
AcDbPlotSettings
  1
Oki9500 11x17 Color Full
  2
OKI DOKI Color Laser.pc3
  4
Tabloid
  6

 40
5.027082920074462
 41
5.027085781097412
 42
5.027099609375
 43
5.027069091796875
 44
431.7999877929687
 45
279.3999938964844
 46
158.258895997328
 47
80.18956456754025
 48
0.0
 49
0.0
140
0.0
141
0.0
142
1.0
143
1.0
 70
  2724
 72
     0
 73
     0
 74
     1
  7
OKIColorShaded.ctb
 75
     0
147
2.471817675104729
 76
     0
 77
     2
 78
   300
148
-75.74468520391772
149
-27.53050504688192
1001
ACAD_PSEXT
1000
OKI DOKI Color Laser.pc3
1000
OKI C9600(PCL)
1000
FRONT
1000

1070
     0
  0
PLOTSETTINGS
  5
9FE
102
{ACAD_REACTORS
330
4DA
102
}
330
4DA
100
AcDbPlotSettings
  1
Oki9500 11x17 Color Half
  2
OKI DOKI Color Laser.pc3
  4
Tabloid
  6

 40
5.027083396911621
 41
5.027085304260253
 42
5.027099609375
 43
5.027069091796875
 44
431.7999877929687
 45
279.3999938964844
 46
184.5658990761252
 47
107.4312422780862
 48
0.0
 49
0.0
140
0.0
141
0.0
142
1.0
143
2.0
 70
  2740
 72
     0
 73
     0
 74
     1
  7
OKIColorShaded.ctb
 75
    17
147
0.5
 76
     0
 77
     2
 78
   300
148
-75.74468520391772
149
-27.53050504688192
1001
ACAD_PSEXT
1000
OKI DOKI Color Laser.pc3
1000
OKI C9500(PCL)
1000
FRONT
1000

1070
     0
  0
PLOTSETTINGS
  5
9FF
102
{ACAD_REACTORS
330
4DA
102
}
330
4DA
100
AcDbPlotSettings
  1
Oki9500 8x11 BW Fit
  2
OKI DOKI Color Laser8x11.pc3
  4
Letter
  6

 40
5.027083396911621
 41
5.027085304260253
 42
5.027099609375
 43
5.027084350585937
 44
279.3999938964844
 45
215.8999938964844
 46
35.28132453565591
 47
0.0
 48
0.0
 49
0.0
140
0.0
141
0.0
142
1.0
143
0.5293607985003172
 70
  2740
 72
     0
 73
     0
 74
     1
  7
OKIB&WShaded.ctb
 75
     0
147
1.889070748784206
 76
     0
 77
     2
 78
   300
148
-75.74468520391772
149
-27.53050504688192
1001
ACAD_PSEXT
1000
OKI DOKI Color Laser8x11.pc3
1000
OKI C9500(PCL)
1000
FRONT
1000

1070
     0
  0
PLOTSETTINGS
  5
A00
102
{ACAD_REACTORS
330
4DA
102
}
330
4DA
100
AcDbPlotSettings
  1
Oki9500 8x11 BW Portrait Fit
  2
OKI DOKI Color Laser8x11.pc3
  4
Letter
  6

 40
5.027083396911621
 41
5.027085304260253
 42
5.027099609375
 43
5.027084350585937
 44
279.3999938964844
 45
215.8999938964844
 46
28.0931957503573
 47
0.0000000000000029
 48
0.0
 49
0.0
140
0.0
141
0.0
142
1.0
143
0.5111981924167587
 70
  2740
 72
     0
 73
     1
 74
     1
  7
OKIB&WShaded.ctb
 75
     0
147
1.956188450652308
 76
     0
 77
     2
 78
   300
148
-75.74468520391772
149
-27.53050504688192
1001
ACAD_PSEXT
1000
OKI DOKI Color Laser8x11.pc3
1000
OKI C9500(PCL)
1000
FRONT
1000

1070
     0
  0
PLOTSETTINGS
  5
A01
102
{ACAD_REACTORS
330
4DA
102
}
330
4DA
100
AcDbPlotSettings
  1
Oki9500 8x11 Color Fit
  2
OKI DOKI Color Laser8x11.pc3
  4
Letter
  6

 40
5.027083396911621
 41
5.027085304260253
 42
5.027099609375
 43
5.027084350585937
 44
279.3999938964844
 45
215.8999938964844
 46
35.28132453565591
 47
0.0
 48
0.0
 49
0.0
140
0.0
141
0.0
142
1.0
143
0.5293607985003172
 70
  2740
 72
     0
 73
     0
 74
     1
  7
OKIColorShaded.ctb
 75
     0
147
1.889070748784206
 76
     0
 77
     2
 78
   300
148
-75.74468520391772
149
-27.53050504688192
1001
ACAD_PSEXT
1000
OKI DOKI Color Laser8x11.pc3
1000
OKI C9500(PCL)
1000
FRONT
1000

1070
     0
  0
PLOTSETTINGS
  5
A02
102
{ACAD_REACTORS
330
4DA
102
}
330
4DA
100
AcDbPlotSettings
  1
Oki9500 8x11 Color Portrait Fit
  2
OKI DOKI Color Laser8x11.pc3
  4
Letter
  6

 40
5.027083396911621
 41
5.027085304260253
 42
5.027099609375
 43
5.027084350585937
 44
279.3999938964844
 45
215.8999938964844
 46
28.0931957503573
 47
0.0000000000000029
 48
0.0
 49
0.0
140
0.0
141
0.0
142
1.0
143
0.5111981924167587
 70
  2740
 72
     0
 73
     1
 74
     1
  7
OKIColorShaded.ctb
 75
     0
147
1.956188450652308
 76
     0
 77
     2
 78
   300
148
-75.74468520391772
149
-27.53050504688192
1001
ACAD_PSEXT
1000
OKI DOKI Color Laser8x11.pc3
1000
OKI C9500(PCL)
1000
FRONT
1000

1070
     0
  0
PLOTSETTINGS
  5
A03
102
{ACAD_REACTORS
330
4DA
102
}
330
4DA
100
AcDbPlotSettings
  1
Oki9600 11x17 BW Fit
  2
9600 BW 11x17.pc3
  4
Tabloid
  6

 40
5.027082920074462
 41
5.027085781097412
 42
5.027099609375
 43
5.027069091796875
 44
431.7999877929687
 45
279.3999938964844
 46
80.82067130493244
 47
0.000000000000007
 48
0.0
 49
0.0
140
0.0
141
0.0
142
1.0
143
0.4045605838335077
 70
  2804
 72
     0
 73
     0
 74
     1
  7
OKIB&WShaded.ctb
 75
     0
147
2.47181767072874
 76
     0
 77
     2
 78
   300
148
-75.74468520391772
149
-27.53050504688192
1001
ACAD_PSEXT
1000
9600 BW 11x17.pc3
1000
OKI C9600(PCL)
1000
Expansion Area
1000

1070
     0
  0
PLOTSETTINGS
  5
A04
102
{ACAD_REACTORS
330
4DA
102
}
330
4DA
100
AcDbPlotSettings
  1
Oki9600 11x17 BW Full
  2
9600 BW 11x17.pc3
  4
Tabloid
  6

 40
5.027082920074462
 41
5.027085781097412
 42
5.027099609375
 43
5.027069091796875
 44
431.7999877929687
 45
279.3999938964844
 46
158.258895997328
 47
80.18956456754025
 48
0.0
 49
0.0
140
0.0
141
0.0
142
1.0
143
1.0
 70
  2788
 72
     0
 73
     0
 74
     1
  7
OKIB&WShaded.ctb
 75
     0
147
2.47181767072874
 76
     0
 77
     2
 78
   300
148
-75.74468520391772
149
-27.53050504688192
1001
ACAD_PSEXT
1000
9600 BW 11x17.pc3
1000
OKI C9600(PCL)
1000
Expansion Area
1000

1070
     0
  0
PLOTSETTINGS
  5
A05
102
{ACAD_REACTORS
330
4DA
102
}
330
4DA
100
AcDbPlotSettings
  1
Oki9600 11x17 BW Half
  2
9600 BW 11x17.pc3
  4
Tabloid
  6

 40
5.027082920074462
 41
5.027085781097412
 42
5.027099609375
 43
5.027069091796875
 44
431.7999877929687
 45
279.3999938964844
 46
184.5658993145439
 47
107.4312420396676
 48
0.0
 49
0.0
140
0.0
141
0.0
142
1.0
143
2.0
 70
  2788
 72
     0
 73
     0
 74
     1
  7
OKIB&WShaded.ctb
 75
     0
147
2.47181767072874
 76
     0
 77
     2
 78
   300
148
-75.74468520391772
149
-27.53050504688192
1001
ACAD_PSEXT
1000
9600 BW 11x17.pc3
1000
OKI C9600(PCL)
1000
Expansion Area
1000

1070
     0
  0
PLOTSETTINGS
  5
A06
102
{ACAD_REACTORS
330
4DA
102
}
330
4DA
100
AcDbPlotSettings
  1
Oki9600 11x17 Color Fit
  2
9600 Color 11x17.pc3
  4
Tabloid
  6

 40
5.027082920074462
 41
5.027085781097412
 42
5.027099609375
 43
5.027069091796875
 44
431.7999877929687
 45
279.3999938964844
 46
80.82067130493244
 47
0.000000000000007
 48
0.0
 49
0.0
140
0.0
141
0.0
142
1.0
143
0.4045605838335077
 70
  2804
 72
     0
 73
     0
 74
     1
  7
OKIColorShaded.ctb
 75
     0
147
2.47181767072874
 76
     0
 77
     2
 78
   300
148
-75.74468520391772
149
-27.53050504688192
1001
ACAD_PSEXT
1000
9600 Color 11x17.pc3
1000
OKI C9600(PCL)
1000
Expansion Area
1000

1070
     0
  0
PLOTSETTINGS
  5
A07
102
{ACAD_REACTORS
330
4DA
102
}
330
4DA
100
AcDbPlotSettings
  1
Oki9600 11x17 Color Full
  2
9600 Color 11x17.pc3
  4
Tabloid
  6

 40
5.027082920074462
 41
5.027085781097412
 42
5.027099609375
 43
5.027069091796875
 44
431.7999877929687
 45
279.3999938964844
 46
158.258895997328
 47
80.18956456754025
 48
0.0
 49
0.0
140
0.0
141
0.0
142
1.0
143
1.0
 70
  2788
 72
     0
 73
     0
 74
     1
  7
OKIColorShaded.ctb
 75
     0
147
2.47181767072874
 76
     0
 77
     2
 78
   300
148
-75.74468520391772
149
-27.53050504688192
1001
ACAD_PSEXT
1000
9600 Color 11x17.pc3
1000
OKI C9600(PCL)
1000
Expansion Area
1000

1070
     0
  0
PLOTSETTINGS
  5
A08
102
{ACAD_REACTORS
330
4DA
102
}
330
4DA
100
AcDbPlotSettings
  1
Oki9600 11x17 Color Half
  2
9600 Color 11x17.pc3
  4
Tabloid
  6

 40
5.027082920074462
 41
5.027085781097412
 42
5.027099609375
 43
5.027069091796875
 44
431.7999877929687
 45
279.3999938964844
 46
184.5658993145439
 47
107.4312420396676
 48
0.0
 49
0.0
140
0.0
141
0.0
142
1.0
143
2.0
 70
  2788
 72
     0
 73
     0
 74
     1
  7
OKIColorShaded.ctb
 75
     0
147
2.47181767072874
 76
     0
 77
     2
 78
   300
148
-75.74468520391772
149
-27.53050504688192
1001
ACAD_PSEXT
1000
9600 Color 11x17.pc3
1000
OKI C9600(PCL)
1000
Expansion Area
1000

1070
     0
  0
PLOTSETTINGS
  5
A09
102
{ACAD_REACTORS
330
4DA
102
}
330
4DA
100
AcDbPlotSettings
  1
Oki9600 8x11 BW Fit
  2
9600 BW 8.5x11.pc3
  4
Letter
  6

 40
5.027082920074462
 41
5.027070522308349
 42
5.027099609375
 43
5.027084350585937
 44
279.3999938964844
 45
215.8999938964844
 46
35.28131763668624
 47
0.0000000000000033
 48
0.0
 49
0.0
140
0.0
141
0.0
142
1.0
143
0.5293607604865011
 70
  2804
 72
     0
 73
     0
 74
     1
  7
OKIB&WShaded.ctb
 75
     0
147
1.889070884439876
 76
     0
 77
     2
 78
   300
148
-75.74468520391772
149
-27.53050504688192
1001
ACAD_PSEXT
1000
9600 BW 8.5x11.pc3
1000
OKI C9600(PCL)
1000
Expansion Area
1000

1070
     0
  0
PLOTSETTINGS
  5
A0A
102
{ACAD_REACTORS
330
4DA
102
}
330
4DA
100
AcDbPlotSettings
  1
Oki9600 8x11 BW Portrait Fit
  2
9600 BW 8.5x11.pc3
  4
Letter
  6

 40
5.027082920074462
 41
5.027070522308349
 42
5.027099609375
 43
5.027084350585937
 44
279.3999938964844
 45
215.8999938964844
 46
28.09318833520237
 47
-0.0000000000000029
 48
0.0
 49
0.0
140
0.0
141
0.0
142
1.0
143
0.5111981557072135
 70
  2804
 72
     0
 73
     1
 74
     1
  7
OKIB&WShaded.ctb
 75
     0
147
1.956188591127753
 76
     0
 77
     2
 78
   300
148
-75.74468520391772
149
-27.53050504688192
1001
ACAD_PSEXT
1000
9600 BW 8.5x11.pc3
1000
OKI C9600(PCL)
1000
Expansion Area
1000

1070
     0
  0
PLOTSETTINGS
  5
A0B
102
{ACAD_REACTORS
330
4DA
102
}
330
4DA
100
AcDbPlotSettings
  1
Oki9600 8x11 Color Fit
  2
9600 Color 8.5x11.pc3
  4
Letter
  6

 40
5.027082920074462
 41
5.027070522308349
 42
5.027099609375
 43
5.027084350585937
 44
279.3999938964844
 45
215.8999938964844
 46
35.28131763668624
 47
0.0000000000000033
 48
0.0
 49
0.0
140
0.0
141
0.0
142
1.0
143
0.5293607604865011
 70
  2804
 72
     0
 73
     0
 74
     1
  7
OKIColorShaded.ctb
 75
     0
147
1.889070884439876
 76
     0
 77
     2
 78
   300
148
-75.74468520391772
149
-27.53050504688192
1001
ACAD_PSEXT
1000
9600 Color 8.5x11.pc3
1000
OKI C9600(PCL)
1000
Expansion Area
1000

1070
     0
  0
PLOTSETTINGS
  5
A0C
102
{ACAD_REACTORS
330
4DA
102
}
330
4DA
100
AcDbPlotSettings
  1
Oki9600 8x11 Color Portrait Fit
  2
9600 Color 8.5x11.pc3
  4
Letter
  6

 40
5.027082920074462
 41
5.027070522308349
 42
5.027099609375
 43
5.027084350585937
 44
279.3999938964844
 45
215.8999938964844
 46
28.09318833520237
 47
-0.0000000000000029
 48
0.0
 49
0.0
140
0.0
141
0.0
142
1.0
143
0.5111981557072135
 70
  2804
 72
     0
 73
     1
 74
     1
  7
OKIColorShaded.ctb
 75
     0
147
1.956188591127753
 76
     0
 77
     2
 78
   300
148
-75.74468520391772
149
-27.53050504688192
1001
ACAD_PSEXT
1000
9600 Color 8.5x11.pc3
1000
OKI C9600(PCL)
1000
Expansion Area
1000

1070
     0
  0
PLOTSETTINGS
  5
A0D
102
{ACAD_REACTORS
330
4DA
102
}
330
4DA
100
AcDbPlotSettings
  1
OKI9600-B&W-Shaded-11x17
  2
9600 BW 11x17.pc3
  4
Tabloid
  6

 40
5.027082920074462
 41
5.027085781097412
 42
5.027099609375
 43
5.027069091796875
 44
431.7999877929687
 45
279.3999938964844
 46
72.80024645976547
 47
-0.0000000000000027
 48
0.0
 49
0.0
140
0.0
141
0.0
142
1.0
143
0.3496652028822988
 70
 11956
 72
     0
 73
     0
 74
     1
  7
OKIB&WShaded.ctb
 75
     0
147
2.859878511664802
 76
     0
 77
     2
 78
   300
148
-119.4582094169044
149
-58.17053554795709
1001
ACAD_PSEXT
1000
9600 BW 11x17.pc3
1000
OKI C9600(PCL)
1000
Expansion Area
1000

1070
     0
  0
PLOTSETTINGS
  5
A0E
102
{ACAD_REACTORS
330
4DA
102
}
330
4DA
100
AcDbPlotSettings
  1
OKI9600-B&W-Shaded-8.5x11
  2
9600 BW 8.5x11.pc3
  4
Letter
  6

 40
5.027082920074462
 41
5.027070522308349
 42
5.027099609375
 43
5.027084350585937
 44
279.3999938964844
 45
215.8999938964844
 46
29.15175911978468
 47
0.0000000000000065
 48
0.0
 49
0.0
140
0.0
141
0.0
142
1.0
143
0.4575310722549676
 70
 11956
 72
     0
 73
     0
 74
     1
  7
OKIB&WShaded.ctb
 75
     0
147
2.185643906262899
 76
     0
 77
     2
 78
   300
148
-119.4582094169044
149
-58.17053554795709
1001
ACAD_PSEXT
1000
9600 BW 8.5x11.pc3
1000
OKI C9600(PCL)
1000
Expansion Area
1000

1070
     0
  0
PLOTSETTINGS
  5
A0F
102
{ACAD_REACTORS
330
4DA
102
}
330
4DA
100
AcDbPlotSettings
  1
OKI9600-Color-11x17
  2
9600 Color 11x17.pc3
  4
Tabloid
  6

 40
5.027082920074462
 41
5.027085781097412
 42
5.027099609375
 43
5.027069091796875
 44
431.7999877929687
 45
279.3999938964844
 46
72.80024645976547
 47
-0.0000000000000027
 48
0.0
 49
0.0
140
0.0
141
0.0
142
1.0
143
0.3496652028822988
 70
 11956
 72
     0
 73
     0
 74
     1
  7
OKIColorShaded.ctb
 75
     0
147
2.859878511664802
 76
     0
 77
     2
 78
   300
148
-119.4582094169044
149
-58.17053554795709
1001
ACAD_PSEXT
1000
9600 Color 11x17.pc3
1000
OKI C9600(PCL)
1000
Expansion Area
1000

1070
     0
  0
PLOTSETTINGS
  5
A10
102
{ACAD_REACTORS
330
4DA
102
}
330
4DA
100
AcDbPlotSettings
  1
OKI9600-Color-8.5x11
  2
9600 Color 8.5x11.pc3
  4
Letter
  6

 40
5.027082920074462
 41
5.027070522308349
 42
5.027099609375
 43
5.027084350585937
 44
279.3999938964844
 45
215.8999938964844
 46
29.15175911978468
 47
0.0000000000000065
 48
0.0
 49
0.0
140
0.0
141
0.0
142
1.0
143
0.4575310722549676
 70
 11956
 72
     0
 73
     0
 74
     1
  7
OKIColorShaded.ctb
 75
     0
147
2.185643906262899
 76
     0
 77
     2
 78
   300
148
-119.4582094169044
149
-58.17053554795709
1001
ACAD_PSEXT
1000
9600 Color 8.5x11.pc3
1000
OKI C9600(PCL)
1000
Expansion Area
1000

1070
     0
  0
PLOTSETTINGS
  5
A11
102
{ACAD_REACTORS
330
4DA
102
}
330
4DA
100
AcDbPlotSettings
  1
PHX Kyocera 11x17 Fit
  2
PHX_Kyocera.pc3
  4
Tabloid
  6

 40
4.984749794006347
 41
5.069418907165527
 42
5.069427490234375
 43
4.9847412109375
 44
431.7999877929687
 45
279.3999938964844
 46
80.8206764601584
 47
-0.0000000000000226
 48
0.0
 49
0.0
140
0.0
141
0.0
142
1.0
143
0.4045605917118723
 70
  2740
 72
     0
 73
     0
 74
     1
  7
LaserJet5Shaded.ctb
 75
     0
147
2.471817622592858
 76
     0
 77
     2
 78
   300
148
-75.74468520391772
149
-27.53050504688192
1001
ACAD_PSEXT
1000
PHX_Kyocera.pc3
1000
Kyocera Mita KM-2050 KX
1000
Arizona
1000

1070
     0
  0
PLOTSETTINGS
  5
A12
102
{ACAD_REACTORS
330
4DA
102
}
330
4DA
100
AcDbPlotSettings
  1
PHX Oki9500 11x17 BW Fit
  2
PHX OKI BW.pc3
  4
Tabloid
  6

 40
5.027082920074462
 41
5.027085781097412
 42
5.027099609375
 43
5.027069091796875
 44
431.7999877929687
 45
279.3999938964844
 46
80.82067130493246
 47
0.0
 48
0.0
 49
0.0
140
0.0
141
0.0
142
1.0
143
0.4045605838335077
 70
  2740
 72
     0
 73
     0
 74
     1
  7
OKIB&WShaded.ctb
 75
     0
147
2.47181767072874
 76
     0
 77
     2
 78
   300
148
-75.74468520391772
149
-27.53050504688192
1001
ACAD_PSEXT
1000
PHX OKI BW.pc3
1000
OKI C9500(PCL)
1000
Arizona
1000

1070
     0
  0
PLOTSETTINGS
  5
A13
102
{ACAD_REACTORS
330
4DA
102
}
330
4DA
100
AcDbPlotSettings
  1
PHX Oki9500 11x17 BW Half
  2
PHX OKI BW.pc3
  4
Tabloid
  6

 40
5.027082920074462
 41
5.027085781097412
 42
5.027099609375
 43
5.027069091796875
 44
431.7999877929687
 45
279.3999938964844
 46
184.5658993145439
 47
107.4312420396676
 48
0.0
 49
0.0
140
0.0
141
0.0
142
1.0
143
2.0
 70
  2724
 72
     0
 73
     0
 74
     1
  7
OKIB&WShaded.ctb
 75
     0
147
2.47181767072874
 76
     0
 77
     2
 78
   300
148
-75.74468520391772
149
-27.53050504688192
1001
ACAD_PSEXT
1000
PHX OKI BW.pc3
1000
OKI C9500(PCL)
1000
Arizona
1000

1070
     0
  0
PLOTSETTINGS
  5
A14
102
{ACAD_REACTORS
330
4DA
102
}
330
4DA
100
AcDbPlotSettings
  1
z_PDF
  2
AutoCAD PDF.pc3
  4
ANSI_A_(11.00_x_8.50_Inches)
  6

 40
5.793749809265136
 41
17.79375076293945
 42
5.79376220703125
 43
17.79374694824219
 44
279.3999938964844
 45
215.8999938964844
 46
41.47405271859028
 47
-0.000000000000002
 48
0.0
 49
0.0
140
0.0
141
0.0
142
1.0
143
0.5223202464620048
 70
 11956
 72
     0
 73
     0
 74
     1
  7
PDF BW Shaded.ctb
 75
     0
147
1.914534247472911
 76
     0
 77
     2
 78
   300
148
-119.4582094169044
149
-58.17053554795709
1001
ACAD_PSEXT
1000
AutoCAD PDF.pc3
1000
PDF
1000
File
1000

1070
     0
  0
ACDBPLACEHOLDER
  5
4D1
102
{ACAD_REACTORS
330
4D0
102
}
330
4D0
  0
SCALE
  5
8E3
102
{ACAD_REACTORS
330
8E2
102
}
330
8E2
100
AcDbScale
 70
     0
300
1:1
140
1.0
141
1.0
290
     1
  0
SCALE
  5
AC5
102
{ACAD_REACTORS
330
8E2
102
}
330
8E2
100
AcDbScale
 70
     0
300
1:2
140
1.0
141
2.0
290
     0
  0
SCALE
  5
AC6
102
{ACAD_REACTORS
330
8E2
102
}
330
8E2
100
AcDbScale
 70
     0
300
1:4
140
1.0
141
4.0
290
     0
  0
SCALE
  5
AC7
102
{ACAD_REACTORS
330
8E2
102
}
330
8E2
100
AcDbScale
 70
     0
300
1:5
140
1.0
141
5.0
290
     0
  0
SCALE
  5
AC8
102
{ACAD_REACTORS
330
8E2
102
}
330
8E2
100
AcDbScale
 70
     0
300
1:8
140
1.0
141
8.0
290
     0
  0
SCALE
  5
AC9
102
{ACAD_REACTORS
330
8E2
102
}
330
8E2
100
AcDbScale
 70
     0
300
1:10
140
1.0
141
10.0
290
     0
  0
SCALE
  5
ACA
102
{ACAD_REACTORS
330
8E2
102
}
330
8E2
100
AcDbScale
 70
     0
300
1:16
140
1.0
141
16.0
290
     0
  0
SCALE
  5
ACB
102
{ACAD_REACTORS
330
8E2
102
}
330
8E2
100
AcDbScale
 70
     0
300
1:20
140
1.0
141
20.0
290
     0
  0
SCALE
  5
ACC
102
{ACAD_REACTORS
330
8E2
102
}
330
8E2
100
AcDbScale
 70
     0
300
1:30
140
1.0
141
30.0
290
     0
  0
SCALE
  5
ACD
102
{ACAD_REACTORS
330
8E2
102
}
330
8E2
100
AcDbScale
 70
     0
300
1:40
140
1.0
141
40.0
290
     0
  0
SCALE
  5
ACE
102
{ACAD_REACTORS
330
8E2
102
}
330
8E2
100
AcDbScale
 70
     0
300
1:50
140
1.0
141
50.0
290
     0
  0
SCALE
  5
ACF
102
{ACAD_REACTORS
330
8E2
102
}
330
8E2
100
AcDbScale
 70
     0
300
1:100
140
1.0
141
100.0
290
     0
  0
SCALE
  5
AD0
102
{ACAD_REACTORS
330
8E2
102
}
330
8E2
100
AcDbScale
 70
     0
300
2:1
140
2.0
141
1.0
290
     0
  0
SCALE
  5
AD1
102
{ACAD_REACTORS
330
8E2
102
}
330
8E2
100
AcDbScale
 70
     0
300
4:1
140
4.0
141
1.0
290
     0
  0
SCALE
  5
AD2
102
{ACAD_REACTORS
330
8E2
102
}
330
8E2
100
AcDbScale
 70
     0
300
8:1
140
8.0
141
1.0
290
     0
  0
SCALE
  5
AD3
102
{ACAD_REACTORS
330
8E2
102
}
330
8E2
100
AcDbScale
 70
     0
300
10:1
140
10.0
141
1.0
290
     0
  0
SCALE
  5
AD4
102
{ACAD_REACTORS
330
8E2
102
}
330
8E2
100
AcDbScale
 70
     0
300
100:1
140
100.0
141
1.0
290
     0
  0
SCALE
  5
AD5
102
{ACAD_REACTORS
330
8E2
102
}
330
8E2
100
AcDbScale
 70
     0
300
1/128" = 1'-0"
140
0.0078125
141
12.0
290
     0
  0
SCALE
  5
AD6
102
{ACAD_REACTORS
330
8E2
102
}
330
8E2
100
AcDbScale
 70
     0
300
1/64" = 1'-0"
140
0.015625
141
12.0
290
     0
  0
SCALE
  5
AD7
102
{ACAD_REACTORS
330
8E2
102
}
330
8E2
100
AcDbScale
 70
     0
300
1/32" = 1'-0"
140
0.03125
141
12.0
290
     0
  0
SCALE
  5
AD8
102
{ACAD_REACTORS
330
8E2
102
}
330
8E2
100
AcDbScale
 70
     0
300
1/16" = 1'-0"
140
0.0625
141
12.0
290
     0
  0
SCALE
  5
AD9
102
{ACAD_REACTORS
330
8E2
102
}
330
8E2
100
AcDbScale
 70
     0
300
3/32" = 1'-0"
140
0.09375
141
12.0
290
     0
  0
SCALE
  5
ADA
102
{ACAD_REACTORS
330
8E2
102
}
330
8E2
100
AcDbScale
 70
     0
300
1/8" = 1'-0"
140
0.125
141
12.0
290
     0
  0
SCALE
  5
ADB
102
{ACAD_REACTORS
330
8E2
102
}
330
8E2
100
AcDbScale
 70
     0
300
3/16" = 1'-0"
140
0.1875
141
12.0
290
     0
  0
SCALE
  5
ADC
102
{ACAD_REACTORS
330
8E2
102
}
330
8E2
100
AcDbScale
 70
     0
300
1/4" = 1'-0"
140
0.25
141
12.0
290
     0
  0
SCALE
  5
ADD
102
{ACAD_REACTORS
330
8E2
102
}
330
8E2
100
AcDbScale
 70
     0
300
3/8" = 1'-0"
140
0.375
141
12.0
290
     0
  0
SCALE
  5
ADE
102
{ACAD_REACTORS
330
8E2
102
}
330
8E2
100
AcDbScale
 70
     0
300
1/2" = 1'-0"
140
0.5
141
12.0
290
     0
  0
SCALE
  5
ADF
102
{ACAD_REACTORS
330
8E2
102
}
330
8E2
100
AcDbScale
 70
     0
300
3/4" = 1'-0"
140
0.75
141
12.0
290
     0
  0
SCALE
  5
AE0
102
{ACAD_REACTORS
330
8E2
102
}
330
8E2
100
AcDbScale
 70
     0
300
1" = 1'-0"
140
1.0
141
12.0
290
     0
  0
SCALE
  5
AE1
102
{ACAD_REACTORS
330
8E2
102
}
330
8E2
100
AcDbScale
 70
     0
300
1-1/2" = 1'-0"
140
1.5
141
12.0
290
     0
  0
SCALE
  5
AE2
102
{ACAD_REACTORS
330
8E2
102
}
330
8E2
100
AcDbScale
 70
     0
300
3" = 1'-0"
140
3.0
141
12.0
290
     0
  0
SCALE
  5
AE3
102
{ACAD_REACTORS
330
8E2
102
}
330
8E2
100
AcDbScale
 70
     0
300
6" = 1'-0"
140
6.0
141
12.0
290
     0
  0
SCALE
  5
AE4
102
{ACAD_REACTORS
330
8E2
102
}
330
8E2
100
AcDbScale
 70
     0
300
1'-0" = 1'-0"
140
12.0
141
12.0
290
     0
  0
TABLESTYLE
  5
8E1
102
{ACAD_XDICTIONARY
360
A23
102
}
102
{ACAD_REACTORS
330
8E0
102
}
330
8E0
100
AcDbTableStyle
  3
Standard
 70
     0
 71
     0
 40
0.06
 41
0.06
280
     0
281
     0
  7
STANDARD
140
0.18
170
     2
 62
     0
 63
     7
283
     0
274
    -2
284
     1
 64
     0
275
    -2
285
     1
 65
     0
276
    -2
286
     1
 66
     0
277
    -2
287
     1
 67
     0
278
    -2
288
     1
 68
     0
279
    -2
289
     1
 69
     0
  7
STANDARD
140
0.25
170
     5
 62
     0
 63
     7
283
     0
274
    -2
284
     1
 64
     0
275
    -2
285
     1
 65
     0
276
    -2
286
     1
 66
     0
277
    -2
287
     1
 67
     0
278
    -2
288
     1
 68
     0
279
    -2
289
     1
 69
     0
  7
STANDARD
140
0.18
170
     5
 62
     0
 63
     7
283
     0
274
    -2
284
     1
 64
     0
275
    -2
285
     1
 65
     0
276
    -2
286
     1
 66
     0
277
    -2
287
     1
 67
     0
278
    -2
288
     1
 68
     0
279
    -2
289
     1
 69
     0
  0
VISUALSTYLE
  5
8D4
102
{ACAD_REACTORS
330
8CE
102
}
330
8CE
100
AcDbVisualStyle
  2
2dWireframe
 70
     4
 71
     0
 72
     2
 73
     0
 90
        0
 40
-0.6
 41
-30.0
 62
     5
 63
     7
421
 16777215
 74
     1
 91
        4
 64
     7
 65
   257
 75
     1
175
     1
 42
1.0
 92
        0
 66
   257
 43
1.0
 76
     1
 77
     6
 78
     2
 67
     7
 79
     5
170
     0
171
     0
290
     0
174
     0
 93
        1
 44
0.0
173
     0
291
     0
 45
0.0
1001
ACAD
1000
AcDbSavedByObjectVersion
1070
     0
  0
VISUALSTYLE
  5
8D6
102
{ACAD_REACTORS
330
8CE
102
}
330
8CE
100
AcDbVisualStyle
  2
3D Hidden
 70
     6
 71
     1
 72
     2
 73
     2
 90
        0
 40
-0.6
 41
-30.0
 62
     5
 63
     7
421
 16777215
 74
     2
 91
        2
 64
     7
 65
   257
 75
     2
175
     1
 42
40.0
 92
        0
 66
   257
 43
1.0
 76
     1
 77
     6
 78
     2
 67
     7
 79
     3
170
     0
171
     0
290
     0
174
     0
 93
        1
 44
0.0
173
     0
291
     0
 45
0.0
1001
ACAD
1000
AcDbSavedByObjectVersion
1070
     0
  0
VISUALSTYLE
  5
8D5
102
{ACAD_REACTORS
330
8CE
102
}
330
8CE
100
AcDbVisualStyle
  2
3dWireframe
 70
     5
 71
     0
 72
     2
 73
     0
 90
        0
 40
-0.6
 41
-30.0
 62
     5
 63
     7
421
 16777215
 74
     1
 91
        4
 64
     7
 65
   257
 75
     1
175
     1
 42
1.0
 92
        0
 66
   257
 43
1.0
 76
     1
 77
     6
 78
     2
 67
     7
 79
     5
170
     0
171
     0
290
     0
174
     0
 93
        1
 44
0.0
173
     0
291
     0
 45
0.0
1001
ACAD
1000
AcDbSavedByObjectVersion
1070
     0
  0
VISUALSTYLE
  5
8D3
102
{ACAD_REACTORS
330
8CE
102
}
330
8CE
100
AcDbVisualStyle
  2
Basic
 70
     7
 71
     1
 72
     0
 73
     1
 90
        0
 40
-0.6
 41
-30.0
 62
     5
 63
     7
421
 16777215
 74
     0
 91
        4
 64
     7
 65
   257
 75
     1
175
     1
 42
1.0
 92
        8
 66
     7
 43
1.0
 76
     1
 77
     6
 78
     2
 67
     7
 79
     5
170
     0
171
     0
290
     0
174
     0
 93
        1
 44
0.0
173
     0
291
     1
 45
0.0
1001
ACAD
1000
AcDbSavedByObjectVersion
1070
     0
  0
VISUALSTYLE
  5
8DA
102
{ACAD_REACTORS
330
8CE
102
}
330
8CE
100
AcDbVisualStyle
  2
Brighten
 70
    12
 71
     2
 72
     2
 73
     0
 90
        0
 40
-0.6
 41
-30.0
 62
     5
 63
     7
421
 16777215
 74
     1
 91
        4
 64
     7
 65
   257
 75
     1
175
     1
 42
1.0
 92
        8
 66
     7
 43
1.0
 76
     1
 77
     6
 78
     2
 67
     7
 79
     5
170
     0
171
     0
290
     0
174
     0
 93
        1
 44
50.0
173
     0
291
     1
 45
0.0
1001
ACAD
1000
AcDbSavedByObjectVersion
1070
     0
  0
VISUALSTYLE
  5
8DE
102
{ACAD_REACTORS
330
8CE
102
}
330
8CE
100
AcDbVisualStyle
  2
ColorChange
 70
    16
 71
     2
 72
     2
 73
     3
 90
        0
 40
-0.6
 41
-30.0
 62
     5
 63
     8
421
  8421504
 74
     1
 91
        4
 64
     7
 65
   257
 75
     1
175
     1
 42
1.0
 92
        8
 66
     8
424
  8421504
 43
1.0
 76
     1
 77
     6
 78
     2
 67
     7
 79
     5
170
     0
171
     0
290
     0
174
     0
 93
        1
 44
0.0
173
     0
291
     1
 45
0.0
1001
ACAD
1000
AcDbSavedByObjectVersion
1070
     0
  0
VISUALSTYLE
  5
8D7
102
{ACAD_REACTORS
330
8CE
102
}
330
8CE
100
AcDbVisualStyle
  2
Conceptual
 70
     9
 71
     3
 72
     2
 73
     0
 90
        0
 40
-0.6
 41
-30.0
 62
     5
 63
     7
421
 16777215
 74
     2
 91
        2
 64
     7
 65
   257
 75
     1
175
     1
 42
40.0
 92
        8
 66
     7
 43
1.0
 76
     1
 77
     6
 78
     2
 67
     7
 79
     3
170
     0
171
     0
290
     0
174
     0
 93
        1
 44
0.0
173
     0
291
     0
 45
0.0
1001
ACAD
1000
AcDbSavedByObjectVersion
1070
     0
  0
VISUALSTYLE
  5
8D9
102
{ACAD_REACTORS
330
8CE
102
}
330
8CE
100
AcDbVisualStyle
  2
Dim
 70
    11
 71
     2
 72
     2
 73
     0
 90
        0
 40
-0.6
 41
-30.0
 62
     5
 63
     7
421
 16777215
 74
     1
 91
        4
 64
     7
 65
   257
 75
     1
175
     1
 42
1.0
 92
        8
 66
     7
 43
1.0
 76
     1
 77
     6
 78
     2
 67
     7
 79
     5
170
     0
171
     0
290
     0
174
     0
 93
        1
 44
-50.0
173
     0
291
     1
 45
0.0
1001
ACAD
1000
AcDbSavedByObjectVersion
1070
     0
  0
VISUALSTYLE
  5
8DD
102
{ACAD_REACTORS
330
8CE
102
}
330
8CE
100
AcDbVisualStyle
  2
Facepattern
 70
    15
 71
     2
 72
     2
 73
     0
 90
        0
 40
-0.6
 41
-30.0
 62
     5
 63
     7
421
 16777215
 74
     1
 91
        4
 64
     7
 65
   257
 75
     1
175
     1
 42
1.0
 92
        8
 66
     7
 43
1.0
 76
     1
 77
     6
 78
     2
 67
     7
 79
     5
170
     0
171
     0
290
     0
174
     0
 93
        1
 44
0.0
173
     0
291
     1
 45
0.0
1001
ACAD
1000
AcDbSavedByObjectVersion
1070
     0
  0
VISUALSTYLE
  5
8CF
102
{ACAD_REACTORS
330
8CE
102
}
330
8CE
100
AcDbVisualStyle
  2
Flat
 70
     0
 71
     2
 72
     1
 73
     1
 90
        2
 40
-0.6
 41
30.0
 62
     5
 63
     7
421
 16777215
 74
     0
 91
        4
 64
     7
 65
   257
 75
     1
175
     1
 42
1.0
 92
        8
 66
     7
 43
1.0
 76
     1
 77
     6
 78
     2
 67
     7
 79
     5
170
     0
171
     0
290
     0
174
     0
 93
       13
 44
0.0
173
     0
291
     1
 45
0.0
1001
ACAD
1000
AcDbSavedByObjectVersion
1070
     0
  0
VISUALSTYLE
  5
8D0
102
{ACAD_REACTORS
330
8CE
102
}
330
8CE
100
AcDbVisualStyle
  2
FlatWithEdges
 70
     1
 71
     2
 72
     1
 73
     1
 90
        2
 40
-0.6
 41
30.0
 62
     5
 63
     7
421
 16777215
 74
     1
 91
        4
 64
     7
 65
   257
 75
     1
175
     1
 42
1.0
 92
        0
 66
   257
 43
1.0
 76
     1
 77
     6
 78
     2
 67
     7
 79
     5
170
     0
171
     0
290
     0
174
     0
 93
       13
 44
0.0
173
     0
291
     1
 45
0.0
1001
ACAD
1000
AcDbSavedByObjectVersion
1070
     0
  0
VISUALSTYLE
  5
8D1
102
{ACAD_REACTORS
330
8CE
102
}
330
8CE
100
AcDbVisualStyle
  2
Gouraud
 70
     2
 71
     2
 72
     2
 73
     1
 90
        2
 40
-0.6
 41
30.0
 62
     5
 63
     7
421
 16777215
 74
     0
 91
        4
 64
     7
 65
   257
 75
     1
175
     1
 42
1.0
 92
        0
 66
     7
 43
1.0
 76
     1
 77
     6
 78
     2
 67
     7
 79
     5
170
     0
171
     0
290
     0
174
     0
 93
       13
 44
0.0
173
     0
291
     1
 45
0.0
1001
ACAD
1000
AcDbSavedByObjectVersion
1070
     0
  0
VISUALSTYLE
  5
8D2
102
{ACAD_REACTORS
330
8CE
102
}
330
8CE
100
AcDbVisualStyle
  2
GouraudWithEdges
 70
     3
 71
     2
 72
     2
 73
     1
 90
        2
 40
-0.6
 41
30.0
 62
     5
 63
     7
421
 16777215
 74
     1
 91
        4
 64
     7
 65
   257
 75
     1
175
     1
 42
1.0
 92
        0
 66
   257
 43
1.0
 76
     1
 77
     6
 78
     2
 67
     7
 79
     5
170
     0
171
     0
290
     0
174
     0
 93
       13
 44
0.0
173
     0
291
     1
 45
0.0
1001
ACAD
1000
AcDbSavedByObjectVersion
1070
     0
  0
VISUALSTYLE
  5
8DC
102
{ACAD_REACTORS
330
8CE
102
}
330
8CE
100
AcDbVisualStyle
  2
Linepattern
 70
    14
 71
     2
 72
     2
 73
     0
 90
        0
 40
-0.6
 41
-30.0
 62
     5
 63
     7
421
 16777215
 74
     1
 91
        4
 64
     7
 65
   257
 75
     7
175
     7
 42
1.0
 92
        8
 66
     7
 43
1.0
 76
     1
 77
     6
 78
     2
 67
     7
 79
     5
170
     0
171
     0
290
     0
174
     0
 93
        1
 44
0.0
173
     0
291
     1
 45
0.0
1001
ACAD
1000
AcDbSavedByObjectVersion
1070
     0
  0
VISUALSTYLE
  5
8D8
102
{ACAD_REACTORS
330
8CE
102
}
330
8CE
100
AcDbVisualStyle
  2
Realistic
 70
     8
 71
     2
 72
     2
 73
     0
 90
        0
 40
-0.6
 41
-30.0
 62
     5
 63
     7
421
 16777215
 74
     1
 91
        0
 64
     7
 65
   257
 75
     1
175
     1
 42
1.0
 92
        8
 66
     8
424
  7895160
 43
1.0
 76
     1
 77
     6
 78
     2
 67
     7
 79
     5
170
     0
171
     0
290
     0
174
     0
 93
       13
 44
0.0
173
     0
291
     0
 45
0.0
1001
ACAD
1000
AcDbSavedByObjectVersion
1070
     0
  0
VISUALSTYLE
  5
8DB
102
{ACAD_REACTORS
330
8CE
102
}
330
8CE
100
AcDbVisualStyle
  2
Thicken
 70
    13
 71
     2
 72
     2
 73
     0
 90
        0
 40
-0.6
 41
-30.0
 62
     5
 63
     7
421
 16777215
 74
     1
 91
        4
 64
     7
 65
   257
 75
     1
175
     1
 42
1.0
 92
       12
 66
     7
 43
1.0
 76
     1
 77
     6
 78
     2
 67
     7
 79
     5
170
     0
171
     0
290
     0
174
     0
 93
        1
 44
0.0
173
     0
291
     1
 45
0.0
1001
ACAD
1000
AcDbSavedByObjectVersion
1070
     0
  0
DICTIONARYVAR
  5
A28
102
{ACAD_REACTORS
330
513
102
}
330
513
100
DictionaryVariables
280
     0
  1
1:1
  0
DICTIONARYVAR
  5
A74
102
{ACAD_REACTORS
330
513
102
}
330
513
100
DictionaryVariables
280
     0
  1
STANDARD
  0
DICTIONARYVAR
  5
A26
102
{ACAD_REACTORS
330
513
102
}
330
513
100
DictionaryVariables
280
     0
  1
STANDARD
  0
DICTIONARYVAR
  5
516
102
{ACAD_REACTORS
330
513
102
}
330
513
100
DictionaryVariables
280
     0
  1
1
  0
DICTIONARYVAR
  5
515
102
{ACAD_REACTORS
330
513
102
}
330
513
100
DictionaryVariables
280
     0
  1
1
  0
DICTIONARYVAR
  5
A2A
102
{ACAD_REACTORS
330
513
102
}
330
513
100
DictionaryVariables
280
     0
  1
0
  0
DICTIONARYVAR
  5
A29
102
{ACAD_REACTORS
330
513
102
}
330
513
100
DictionaryVariables
280
     0
  1
0
  0
DICTIONARYVAR
  5
A27
102
{ACAD_REACTORS
330
513
102
}
330
513
100
DictionaryVariables
280
     0
  1
0
  0
DICTIONARYVAR
  5
514
102
{ACAD_REACTORS
330
513
102
}
330
513
100
DictionaryVariables
280
     0
  1
1
  0
XRECORD
  5
ABC
102
{ACAD_REACTORS
330
AB9
102
}
330
AB9
100
AcDbXrecord
280
     1
  1
_0100-
  1
*0100-*
  1
*
  1
*
 70
     0
  1
*
  1
*
  0
XRECORD
  5
ABB
102
{ACAD_REACTORS
330
AB9
102
}
330
AB9
100
AcDbXrecord
280
     1
  1
_0280-
  1
*0280-*
  1
*
  1
*
 70
     0
  1
*
  1
*
  0
XRECORD
  5
ABF
102
{ACAD_REACTORS
330
AB9
102
}
330
AB9
100
AcDbXrecord
280
     1
  1
_Color 253
  1
*
  1
253
  1
*
 70
     0
  1
*
  1
*
  0
XRECORD
  5
ABD
102
{ACAD_REACTORS
330
AB9
102
}
330
AB9
100
AcDbXrecord
280
     1
  1
_Color 8
  1
*
  1
8
  1
*
 70
     0
  1
*
  1
*
  0
XRECORD
  5
ABE
102
{ACAD_REACTORS
330
AB9
102
}
330
AB9
100
AcDbXrecord
280
     1
  1
_Color 84
  1
*
  1
84
  1
*
 70
     0
  1
*
  1
*
  0
XRECORD
  5
AC4
102
{ACAD_REACTORS
330
AB9
102
}
330
AB9
100
AcDbXrecord
280
     1
  1
_Contours
  1
*contour*,*cont-*,*cp cont*,*p-cont*
  1
*
  1
*
 70
     0
  1
*
  1
*
  0
XRECORD
  5
AC0
102
{ACAD_REACTORS
330
AB9
102
}
330
AB9
100
AcDbXrecord
280
     1
  1
_Existing
  1
*exist*
  1
*
  1
*
 70
     0
  1
*
  1
*
  0
XRECORD
  5
AC3
102
{ACAD_REACTORS
330
AB9
102
}
330
AB9
100
AcDbXrecord
280
     1
  1
_Hardscape
  1
*sidewalk*,*sw*,*curb*,*walk*,*-lip*,*tbc*
  1
*
  1
*
 70
     0
  1
*
  1
*
  0
XRECORD
  5
ABA
102
{ACAD_REACTORS
330
AB9
102
}
330
AB9
100
AcDbXrecord
280
     1
  1
_NoXref
  1
~*|*
  1
*
  1
*
 70
     0
  1
*
  1
*
  0
XRECORD
  5
AC1
102
{ACAD_REACTORS
330
AB9
102
}
330
AB9
100
AcDbXrecord
280
     1
  1
_Row
  1
*row*
  1
*
  1
*
 70
     0
  1
*
  1
*
  0
XRECORD
  5
AC2
102
{ACAD_REACTORS
330
AB9
102
}
330
AB9
100
AcDbXrecord
280
     1
  1
_Utility
  1
*ut-*,*utility*,*wat*
  1
*
  1
*
 70
     0
  1
*
  1
*
  0
DICTIONARY
  5
8BF
330
8BE
100
AcDbDictionary
280
     1
281
     1
  3
ACAD_XREC_ROUNDTRIP
360
AE7
  3
BUMPTILE
360
8C1
  3
DIFFUSETILE
360
8C0
  3
OPACITYTILE
360
8C4
  3
REFLECTIONTILE
360
8C3
  3
REFRACTIONTILE
360
8C5
  3
SPECULARTILE
360
8C2
  0
DICTIONARY
  5
8B7
330
8B6
100
AcDbDictionary
280
     1
281
     1
  3
ACAD_XREC_ROUNDTRIP
360
AE6
  3
BUMPTILE
360
8B9
  3
DIFFUSETILE
360
8B8
  3
OPACITYTILE
360
8BC
  3
REFLECTIONTILE
360
8BB
  3
REFRACTIONTILE
360
8BD
  3
SPECULARTILE
360
8BA
  0
DICTIONARY
  5
8C7
330
8C6
100
AcDbDictionary
280
     1
281
     1
  3
ACAD_XREC_ROUNDTRIP
360
AE8
  3
BUMPTILE
360
8C9
  3
DIFFUSETILE
360
8C8
  3
OPACITYTILE
360
8CC
  3
REFLECTIONTILE
360
8CB
  3
REFRACTIONTILE
360
8CD
  3
SPECULARTILE
360
8CA
  0
DICTIONARY
  5
A23
330
8E1
100
AcDbDictionary
280
     1
281
     1
  3
ACAD_ROUNDTRIP_2008_TABLESTYLE_CELLSTYLEMAP
360
AE5
  3
ACAD_XREC_ROUNDTRIP
360
AE9
  0
XRECORD
  5
AE7
102
{ACAD_REACTORS
330
8BF
102
}
330
8BF
100
AcDbXrecord
280
     1
102
MATERIAL
148
0.0
149
0.0
149
0.0
 93
        0
 94
      127
282
     0
 72
     0
 77
     0
171
     0
175
     0
179
     0
273
     0
  0
XRECORD
  5
8C1
102
{ACAD_REACTORS
330
8BF
102
}
330
8BF
100
AcDbXrecord
280
     1
270
     1
271
     1
  0
XRECORD
  5
8C0
102
{ACAD_REACTORS
330
8BF
102
}
330
8BF
100
AcDbXrecord
280
     1
270
     1
271
     1
  0
XRECORD
  5
8C4
102
{ACAD_REACTORS
330
8BF
102
}
330
8BF
100
AcDbXrecord
280
     1
270
     1
271
     1
  0
XRECORD
  5
8C3
102
{ACAD_REACTORS
330
8BF
102
}
330
8BF
100
AcDbXrecord
280
     1
270
     1
271
     1
  0
XRECORD
  5
8C5
102
{ACAD_REACTORS
330
8BF
102
}
330
8BF
100
AcDbXrecord
280
     1
270
     1
271
     1
  0
XRECORD
  5
8C2
102
{ACAD_REACTORS
330
8BF
102
}
330
8BF
100
AcDbXrecord
280
     1
270
     1
271
     1
  0
XRECORD
  5
AE6
102
{ACAD_REACTORS
330
8B7
102
}
330
8B7
100
AcDbXrecord
280
     1
102
MATERIAL
148
0.0
149
0.0
149
0.0
 93
        0
 94
      127
282
     0
 72
     0
 77
     0
171
     0
175
     0
179
     0
273
     0
  0
XRECORD
  5
8B9
102
{ACAD_REACTORS
330
8B7
102
}
330
8B7
100
AcDbXrecord
280
     1
270
     1
271
     1
  0
XRECORD
  5
8B8
102
{ACAD_REACTORS
330
8B7
102
}
330
8B7
100
AcDbXrecord
280
     1
270
     1
271
     1
  0
XRECORD
  5
8BC
102
{ACAD_REACTORS
330
8B7
102
}
330
8B7
100
AcDbXrecord
280
     1
270
     1
271
     1
  0
XRECORD
  5
8BB
102
{ACAD_REACTORS
330
8B7
102
}
330
8B7
100
AcDbXrecord
280
     1
270
     1
271
     1
  0
XRECORD
  5
8BD
102
{ACAD_REACTORS
330
8B7
102
}
330
8B7
100
AcDbXrecord
280
     1
270
     1
271
     1
  0
XRECORD
  5
8BA
102
{ACAD_REACTORS
330
8B7
102
}
330
8B7
100
AcDbXrecord
280
     1
270
     1
271
     1
  0
XRECORD
  5
AE8
102
{ACAD_REACTORS
330
8C7
102
}
330
8C7
100
AcDbXrecord
280
     1
102
MATERIAL
148
0.0
149
0.0
149
0.0
 93
        0
 94
      127
282
     0
 72
     0
 77
     0
171
     0
175
     0
179
     0
273
     0
  0
XRECORD
  5
8C9
102
{ACAD_REACTORS
330
8C7
102
}
330
8C7
100
AcDbXrecord
280
     1
270
     1
271
     1
  0
XRECORD
  5
8C8
102
{ACAD_REACTORS
330
8C7
102
}
330
8C7
100
AcDbXrecord
280
     1
270
     1
271
     1
  0
XRECORD
  5
8CC
102
{ACAD_REACTORS
330
8C7
102
}
330
8C7
100
AcDbXrecord
280
     1
270
     1
271
     1
  0
XRECORD
  5
8CB
102
{ACAD_REACTORS
330
8C7
102
}
330
8C7
100
AcDbXrecord
280
     1
270
     1
271
     1
  0
XRECORD
  5
8CD
102
{ACAD_REACTORS
330
8C7
102
}
330
8C7
100
AcDbXrecord
280
     1
270
     1
271
     1
  0
XRECORD
  5
8CA
102
{ACAD_REACTORS
330
8C7
102
}
330
8C7
100
AcDbXrecord
280
     1
270
     1
271
     1
  0
CELLSTYLEMAP
  5
AE5
102
{ACAD_REACTORS
330
A23
102
}
330
A23
100
AcDbCellStyleMap
 90
        3
300
CELLSTYLE
  1
TABLEFORMAT_BEGIN
 90
        5
170
     1
 91
        0
 92
    32768
 62
   257
 93
        1
300
CONTENTFORMAT
  1
CONTENTFORMAT_BEGIN
 90
        0
 91
        0
 92
      512
 93
        0
300

 40
0.0
140
1.0
 94
        5
 62
     0
340
4D3
144
0.25
309
CONTENTFORMAT_END
171
     0
 94
        0
309
TABLEFORMAT_END
  1
CELLSTYLE_BEGIN
 90
        1
 91
        1
300
_TITLE
309
CELLSTYLE_END
300
CELLSTYLE
  1
TABLEFORMAT_BEGIN
 90
        5
170
     1
 91
        0
 92
        0
 62
   257
 93
        1
300
CONTENTFORMAT
  1
CONTENTFORMAT_BEGIN
 90
        0
 91
        0
 92
      512
 93
        0
300

 40
0.0
140
1.0
 94
        5
 62
     0
340
4D3
144
0.18
309
CONTENTFORMAT_END
171
     0
 94
        0
309
TABLEFORMAT_END
  1
CELLSTYLE_BEGIN
 90
        2
 91
        1
300
_HEADER
309
CELLSTYLE_END
300
CELLSTYLE
  1
TABLEFORMAT_BEGIN
 90
        5
170
     1
 91
        0
 92
        0
 62
   257
 93
        1
300
CONTENTFORMAT
  1
CONTENTFORMAT_BEGIN
 90
        0
 91
        0
 92
      512
 93
        0
300

 40
0.0
140
1.0
 94
        2
 62
     0
340
4D3
144
0.18
309
CONTENTFORMAT_END
171
     0
 94
        0
309
TABLEFORMAT_END
  1
CELLSTYLE_BEGIN
 90
        3
 91
        2
300
_DATA
309
CELLSTYLE_END
  0
XRECORD
  5
AE9
102
{ACAD_REACTORS
330
A23
102
}
330
A23
100
AcDbXrecord
280
     1
102
ACAD_ROUNDTRIP_PRE2007_TABLESTYLE
 90
      512
 91
        0
  1

 92
      512
 93
        0
  2

 94
      512
 95
        0
  3

  0
ENDSEC
  0
EOF
