  0
SECTION
  2
HEADER
  9
$ACADVER
  1
AC1018
  9
$ACADMAINTVER
 70
   104
  9
$DWGCODEPAGE
  3
ANSI_1252
  9
$TITLE
  1
O:\RAINBIRD\Details 2008\Rotary Nozzles\S-1804Rotary-SP.DWG
  9
$AUTHOR
  1
dweyer
  9
$COMMENTS
  1
This drawing was opened and saved by 'dweyer' with AutoCAD version 17.1 using profile WatermarkID on 07-01-2008-08:43
  9
$LASTSAVEDBY
  1
dweyer
  9
$INSBASE
 10
0.0
 20
0.0
 30
0.0
  9
$EXTMIN
 10
-0.0916749879134358
 20
-0.097854729324645
 30
0.0
  9
$EXTMAX
 10
16.39832501208656
 20
10.34214527067535
 30
0.03
  9
$LIMMIN
 10
0.0
 20
0.0
  9
$LIMMAX
 10
12.0
 20
9.0
  9
$ORTHOMODE
 70
     1
  9
$REGENMODE
 70
     1
  9
$FILLMODE
 70
     1
  9
$QTEXTMODE
 70
     0
  9
$MIRRTEXT
 70
     0
  9
$LTSCALE
 40
1.0
  9
$ATTMODE
 70
     1
  9
$TEXTSIZE
 40
0.1
  9
$TRACEWID
 40
0.05
  9
$TEXTSTYLE
  7
SIMPLEX
  9
$CLAYER
  8
0
  9
$CELTYPE
  6
ByLayer
  9
$CECOLOR
 62
   256
  9
$CELTSCALE
 40
1.0
  9
$DISPSILH
 70
     0
  9
$DIMSCALE
 40
1.0
  9
$DIMASZ
 40
0.18
  9
$DIMEXO
 40
0.0625
  9
$DIMDLI
 40
0.38
  9
$DIMRND
 40
0.0
  9
$DIMDLE
 40
0.0
  9
$DIMEXE
 40
0.125
  9
$DIMTP
 40
0.0
  9
$DIMTM
 40
0.0
  9
$DIMTXT
 40
0.125
  9
$DIMCEN
 40
0.09
  9
$DIMTSZ
 40
0.0
  9
$DIMTOL
 70
     0
  9
$DIMLIM
 70
     0
  9
$DIMTIH
 70
     1
  9
$DIMTOH
 70
     1
  9
$DIMSE1
 70
     0
  9
$DIMSE2
 70
     0
  9
$DIMTAD
 70
     0
  9
$DIMZIN
 70
     0
  9
$DIMBLK
  1

  9
$DIMASO
 70
     1
  9
$DIMSHO
 70
     1
  9
$DIMPOST
  1

  9
$DIMAPOST
  1

  9
$DIMALT
 70
     0
  9
$DIMALTD
 70
     2
  9
$DIMALTF
 40
25.4
  9
$DIMLFAC
 40
1.0
  9
$DIMTOFL
 70
     0
  9
$DIMTVP
 40
0.0
  9
$DIMTIX
 70
     0
  9
$DIMSOXD
 70
     0
  9
$DIMSAH
 70
     0
  9
$DIMBLK1
  1

  9
$DIMBLK2
  1

  9
$DIMSTYLE
  2
STANDARD
  9
$DIMCLRD
 70
   256
  9
$DIMCLRE
 70
   256
  9
$DIMCLRT
 70
   256
  9
$DIMTFAC
 40
1.0
  9
$DIMGAP
 40
0.09
  9
$DIMJUST
 70
     0
  9
$DIMSD1
 70
     0
  9
$DIMSD2
 70
     0
  9
$DIMTOLJ
 70
     1
  9
$DIMTZIN
 70
     0
  9
$DIMALTZ
 70
     0
  9
$DIMALTTZ
 70
     0
  9
$DIMUPT
 70
     0
  9
$DIMDEC
 70
     4
  9
$DIMTDEC
 70
     4
  9
$DIMALTU
 70
     2
  9
$DIMALTTD
 70
     2
  9
$DIMTXSTY
  7
STANDARD
  9
$DIMAUNIT
 70
     0
  9
$DIMADEC
 70
     0
  9
$DIMALTRND
 40
0.0
  9
$DIMAZIN
 70
     0
  9
$DIMDSEP
 70
    46
  9
$DIMATFIT
 70
     3
  9
$DIMFRAC
 70
     0
  9
$DIMLDRBLK
  1

  9
$DIMLUNIT
 70
     2
  9
$DIMLWD
 70
    -1
  9
$DIMLWE
 70
    -1
  9
$DIMTMOVE
 70
     2
  9
$LUNITS
 70
     2
  9
$LUPREC
 70
     3
  9
$SKETCHINC
 40
0.1
  9
$FILLETRAD
 40
0.0
  9
$AUNITS
 70
     0
  9
$AUPREC
 70
     0
  9
$MENU
  1
ACAD
  9
$ELEVATION
 40
0.0
  9
$PELEVATION
 40
0.0
  9
$THICKNESS
 40
0.0
  9
$LIMCHECK
 70
     0
  9
$CHAMFERA
 40
0.0
  9
$CHAMFERB
 40
0.0
  9
$CHAMFERC
 40
0.0
  9
$CHAMFERD
 40
0.0
  9
$SKPOLY
 70
     0
  9
$TDCREATE
 40
2451471.427491794
  9
$TDUCREATE
 40
2451471.677491794
  9
$TDUPDATE
 40
2454649.363889062
  9
$TDUUPDATE
 40
2454649.613889062
  9
$TDINDWG
 40
0.2566166204
  9
$TDUSRTIMER
 40
0.2566166204
  9
$USRTIMER
 70
     1
  9
$ANGBASE
 50
0.0
  9
$ANGDIR
 70
     0
  9
$PDMODE
 70
     0
  9
$PDSIZE
 40
0.0
  9
$PLINEWID
 40
0.0
  9
$SPLFRAME
 70
     0
  9
$SPLINETYPE
 70
     6
  9
$SPLINESEGS
 70
     8
  9
$HANDSEED
  5
841
  9
$SURFTAB1
 70
     6
  9
$SURFTAB2
 70
     6
  9
$SURFTYPE
 70
     6
  9
$SURFU
 70
     6
  9
$SURFV
 70
     6
  9
$UCSBASE
  2

  9
$UCSNAME
  2

  9
$UCSORG
 10
0.0
 20
0.0
 30
0.0
  9
$UCSXDIR
 10
1.0
 20
0.0
 30
0.0
  9
$UCSYDIR
 10
0.0
 20
1.0
 30
0.0
  9
$UCSORTHOREF
  2

  9
$UCSORTHOVIEW
 70
     0
  9
$UCSORGTOP
 10
0.0
 20
0.0
 30
0.0
  9
$UCSORGBOTTOM
 10
0.0
 20
0.0
 30
0.0
  9
$UCSORGLEFT
 10
0.0
 20
0.0
 30
0.0
  9
$UCSORGRIGHT
 10
0.0
 20
0.0
 30
0.0
  9
$UCSORGFRONT
 10
0.0
 20
0.0
 30
0.0
  9
$UCSORGBACK
 10
0.0
 20
0.0
 30
0.0
  9
$PUCSBASE
  2

  9
$PUCSNAME
  2

  9
$PUCSORG
 10
0.0
 20
0.0
 30
0.0
  9
$PUCSXDIR
 10
1.0
 20
0.0
 30
0.0
  9
$PUCSYDIR
 10
0.0
 20
1.0
 30
0.0
  9
$PUCSORTHOREF
  2

  9
$PUCSORTHOVIEW
 70
     0
  9
$PUCSORGTOP
 10
0.0
 20
0.0
 30
0.0
  9
$PUCSORGBOTTOM
 10
0.0
 20
0.0
 30
0.0
  9
$PUCSORGLEFT
 10
0.0
 20
0.0
 30
0.0
  9
$PUCSORGRIGHT
 10
0.0
 20
0.0
 30
0.0
  9
$PUCSORGFRONT
 10
0.0
 20
0.0
 30
0.0
  9
$PUCSORGBACK
 10
0.0
 20
0.0
 30
0.0
  9
$USERI1
 70
     0
  9
$USERI2
 70
     0
  9
$USERI3
 70
     0
  9
$USERI4
 70
     0
  9
$USERI5
 70
     0
  9
$USERR1
 40
0.0
  9
$USERR2
 40
0.0
  9
$USERR3
 40
0.0
  9
$USERR4
 40
0.0
  9
$USERR5
 40
0.0
  9
$WORLDVIEW
 70
     1
  9
$SHADEDGE
 70
     3
  9
$SHADEDIF
 70
    70
  9
$TILEMODE
 70
     1
  9
$MAXACTVP
 70
    16
  9
$PINSBASE
 10
0.0
 20
0.0
 30
0.0
  9
$PLIMCHECK
 70
     0
  9
$PEXTMIN
 10
1.000000000000000E+20
 20
1.000000000000000E+20
 30
1.000000000000000E+20
  9
$PEXTMAX
 10
-1.000000000000000E+20
 20
-1.000000000000000E+20
 30
-1.000000000000000E+20
  9
$PLIMMIN
 10
0.0
 20
0.0
  9
$PLIMMAX
 10
12.0
 20
9.0
  9
$UNITMODE
 70
     0
  9
$VISRETAIN
 70
     0
  9
$PLINEGEN
 70
     1
  9
$PSLTSCALE
 70
     1
  9
$TREEDEPTH
 70
  3020
  9
$CMLSTYLE
  2
Standard
  9
$CMLJUST
 70
     0
  9
$CMLSCALE
 40
1.0
  9
$PROXYGRAPHICS
 70
     1
  9
$MEASUREMENT
 70
     0
  9
$CELWEIGHT
370
    -1
  9
$ENDCAPS
280
     0
  9
$JOINSTYLE
280
     0
  9
$LWDISPLAY
290
     0
  9
$INSUNITS
 70
     0
  9
$HYPERLINKBASE
  1

  9
$STYLESHEET
  1
color.ctb
  9
$XEDIT
290
     1
  9
$CEPSNTYPE
380
     0
  9
$PSTYLEMODE
290
     1
  9
$FINGERPRINTGUID
  2
{DFE79B52-4250-426E-9501-C259CDBF9C92}
  9
$VERSIONGUID
  2
{2CA0B8A2-F9BD-4C40-B8F3-E4A8E5E4B05F}
  9
$EXTNAMES
290
     1
  9
$PSVPSCALE
 40
0.0
  9
$OLESTARTUP
290
     1
  9
$SORTENTS
280
   112
  9
$INDEXCTL
280
     0
  9
$HIDETEXT
280
     1
  9
$XCLIPFRAME
290
     0
  9
$HALOGAP
280
     0
  9
$OBSCOLOR
 70
   257
  9
$OBSLTYPE
280
     0
  9
$INTERSECTIONDISPLAY
280
     0
  9
$INTERSECTIONCOLOR
 70
   257
  9
$DIMASSOC
280
     1
  9
$PROJECTNAME
  1

  0
ENDSEC
  0
SECTION
  2
CLASSES
  0
CLASS
  1
ACDBDICTIONARYWDFLT
  2
AcDbDictionaryWithDefault
  3
ObjectDBX Classes
 90
        0
 91
        1
280
     0
281
     0
  0
CLASS
  1
DICTIONARYVAR
  2
AcDbDictionaryVar
  3
ObjectDBX Classes
 90
        0
 91
       10
280
     0
281
     0
  0
CLASS
  1
MATERIAL
  2
AcDbMaterial
  3
ObjectDBX Classes
 90
     1153
 91
        3
280
     0
281
     0
  0
CLASS
  1
VISUALSTYLE
  2
AcDbVisualStyle
  3
ObjectDBX Classes
 90
     4095
 91
       16
280
     0
281
     0
  0
CLASS
  1
TABLESTYLE
  2
AcDbTableStyle
  3
ObjectDBX Classes
 90
     4095
 91
        1
280
     0
281
     0
  0
CLASS
  1
SCALE
  2
AcDbScale
  3
ObjectDBX Classes
 90
     1153
 91
       65
280
     0
281
     0
  0
CLASS
  1
MLEADERSTYLE
  2
AcDbMLeaderStyle
  3
ACDB_MLEADERSTYLE_CLASS
 90
     4095
 91
        1
280
     0
281
     0
  0
CLASS
  1
EXACXREFPANELOBJECT
  2
ExAcXREFPanelObject
  3
EXAC_ESW
 90
     1025
 91
        1
280
     0
281
     0
  0
CLASS
  1
NPOCOLLECTION
  2
AcDbImpNonPersistentObjectsCollection
  3
ObjectDBX Classes
 90
     1153
 91
        1
280
     0
281
     0
  0
CLASS
  1
CELLSTYLEMAP
  2
AcDbCellStyleMap
  3
ObjectDBX Classes
 90
     1152
 91
        2
280
     0
281
     0
  0
CLASS
  1
SORTENTSTABLE
  2
AcDbSortentsTable
  3
ObjectDBX Classes
 90
        0
 91
        0
280
     0
281
     0
  0
ENDSEC
  0
SECTION
  2
TABLES
  0
TABLE
  2
VPORT
  5
4CA
330
0
100
AcDbSymbolTable
 70
     1
  0
VPORT
  5
619
330
4CA
100
AcDbSymbolTableRecord
100
AcDbViewportTableRecord
  2
*Active
 70
     0
 10
0.0
 20
0.0
 11
1.0
 21
1.0
 12
8.153325012086559
 22
5.122145270675354
 13
0.0
 23
0.0
 14
0.14
 24
0.14
 15
0.0
 25
0.0
 16
0.0
 26
0.0
 36
1.0
 17
0.0
 27
0.0
 37
0.0
 40
10.5244204851752
 41
2.15519568151147
 42
50.0
 43
0.0
 44
0.0
 50
0.0
 51
0.0
 71
     0
 72
  4000
 73
     1
 74
     1
 75
     0
 76
     0
 77
     0
 78
     0
281
     0
 65
     1
110
0.0
120
0.0
130
0.0
111
1.0
121
0.0
131
0.0
112
0.0
122
1.0
132
0.0
 79
     0
146
0.0
  0
ENDTAB
  0
TABLE
  2
LTYPE
  5
4C7
330
0
100
AcDbSymbolTable
 70
     1
  0
LTYPE
  5
4D5
330
4C7
100
AcDbSymbolTableRecord
100
AcDbLinetypeTableRecord
  2
ByBlock
 70
     0
  3

 72
    65
 73
     0
 40
0.0
  0
LTYPE
  5
4D6
330
4C7
100
AcDbSymbolTableRecord
100
AcDbLinetypeTableRecord
  2
ByLayer
 70
     0
  3

 72
    65
 73
     0
 40
0.0
  0
LTYPE
  5
4D7
330
4C7
100
AcDbSymbolTableRecord
100
AcDbLinetypeTableRecord
  2
CONTINUOUS
 70
     0
  3
Solid line
 72
    65
 73
     0
 40
0.0
  0
ENDTAB
  0
TABLE
  2
LAYER
  5
4C4
102
{ACAD_XDICTIONARY
360
51F
102
}
330
0
100
AcDbSymbolTable
 70
    14
  0
LAYER
  5
4D2
330
4C4
100
AcDbSymbolTableRecord
100
AcDbLayerTableRecord
  2
0
 70
     0
 62
     7
  6
CONTINUOUS
370
    -3
390
4D1
  0
LAYER
  5
4EB
330
4C4
100
AcDbSymbolTableRecord
100
AcDbLayerTableRecord
  2
text_bubbles
 70
     0
 62
     6
  6
CONTINUOUS
370
    -3
390
4D1
  0
LAYER
  5
4EC
330
4C4
100
AcDbSymbolTableRecord
100
AcDbLayerTableRecord
  2
image
 70
     0
 62
     7
  6
CONTINUOUS
370
    -3
390
4D1
  0
LAYER
  5
4EF
330
4C4
100
AcDbSymbolTableRecord
100
AcDbLayerTableRecord
  2
text_leaders
 70
     1
 62
     5
  6
CONTINUOUS
370
    -3
390
4D1
  0
LAYER
  5
4F0
330
4C4
100
AcDbSymbolTableRecord
100
AcDbLayerTableRecord
  2
instruct-option
 70
     0
 62
     7
  6
CONTINUOUS
370
    -3
390
4D1
  0
LAYER
  5
4F1
330
4C4
100
AcDbSymbolTableRecord
100
AcDbLayerTableRecord
  2
instruct-callout
 70
     0
 62
     4
  6
CONTINUOUS
370
    -3
390
4D1
  0
LAYER
  5
4F7
330
4C4
100
AcDbSymbolTableRecord
100
AcDbLayerTableRecord
  2
option-sam
 70
     1
 62
     1
  6
CONTINUOUS
370
    -3
390
4D1
  0
LAYER
  5
503
330
4C4
100
AcDbSymbolTableRecord
100
AcDbLayerTableRecord
  2
text-sa-leaders
 70
     1
 62
     1
  6
CONTINUOUS
370
    -3
390
4D1
  0
LAYER
  5
504
330
4C4
100
AcDbSymbolTableRecord
100
AcDbLayerTableRecord
  2
text-sa-bubbles
 70
     0
 62
     1
  6
CONTINUOUS
370
    -3
390
4D1
  0
LAYER
  5
505
330
4C4
100
AcDbSymbolTableRecord
100
AcDbLayerTableRecord
  2
option_sa
 70
     0
 62
     1
  6
CONTINUOUS
370
    -3
390
4D1
  0
LAYER
  5
506
330
4C4
100
AcDbSymbolTableRecord
100
AcDbLayerTableRecord
  2
text-rb-sa-bubbles
 70
     1
 62
     1
  6
CONTINUOUS
370
    -3
390
4D1
  0
LAYER
  5
507
330
4C4
100
AcDbSymbolTableRecord
100
AcDbLayerTableRecord
  2
option_rb_sa
 70
     1
 62
     1
  6
CONTINUOUS
370
    -3
390
4D1
  0
LAYER
  5
508
330
4C4
100
AcDbSymbolTableRecord
100
AcDbLayerTableRecord
  2
text-rb-sa-leaders
 70
     1
 62
     1
  6
CONTINUOUS
370
    -3
390
4D1
  0
LAYER
  5
51E
330
4C4
100
AcDbSymbolTableRecord
100
AcDbLayerTableRecord
  2
title
 70
     0
 62
     4
  6
CONTINUOUS
370
    -3
390
4D1
  0
ENDTAB
  0
TABLE
  2
STYLE
  5
4C5
330
0
100
AcDbSymbolTable
 70
     6
  0
STYLE
  5
4D3
330
4C5
100
AcDbSymbolTableRecord
100
AcDbTextStyleTableRecord
  2
STANDARD
 70
     0
 40
0.0
 41
1.0
 50
0.0
 71
     0
 42
0.2
  3
txt
  4

  0
STYLE
  5
4E6
330
4C5
100
AcDbSymbolTableRecord
100
AcDbTextStyleTableRecord
  2
ROMANS
 70
     0
 40
0.0
 41
1.0
 50
0.0
 71
     0
 42
0.1
  3
ROMANS.SHX
  4

  0
STYLE
  5
4E7
330
4C5
100
AcDbSymbolTableRecord
100
AcDbTextStyleTableRecord
  2
SIMPLEX
 70
     0
 40
0.0
 41
1.0
 50
0.0
 71
     0
 42
0.1
  3
SIMPLEX
  4

  0
STYLE
  5
594
330
4C5
100
AcDbSymbolTableRecord
100
AcDbTextStyleTableRecord
  2
L100
 70
     0
 40
0.1
 41
1.0
 50
0.0
 71
     0
 42
0.1
  3
romans.shx
  4

  0
STYLE
  5
595
330
4C5
100
AcDbSymbolTableRecord
100
AcDbTextStyleTableRecord
  2
L200
 70
     0
 40
0.2
 41
1.0
 50
0.0
 71
     0
 42
0.081
  3
ARIAL.TTF
  4

1001
ACAD
1000
Arial
1071
       34
  0
STYLE
  5
596
330
4C5
100
AcDbSymbolTableRecord
100
AcDbTextStyleTableRecord
  2
L80
 70
     0
 40
0.08
 41
1.0
 50
0.0
 71
     0
 42
0.08
  3
ROMANS
  4

  0
ENDTAB
  0
TABLE
  2
VIEW
  5
4C8
330
0
100
AcDbSymbolTable
 70
     0
  0
ENDTAB
  0
TABLE
  2
UCS
  5
4C9
330
0
100
AcDbSymbolTable
 70
     0
  0
ENDTAB
  0
TABLE
  2
APPID
  5
4CB
330
0
100
AcDbSymbolTable
 70
     6
  0
APPID
  5
4D4
330
4CB
100
AcDbSymbolTableRecord
100
AcDbRegAppTableRecord
  2
ACAD
 70
     0
  0
APPID
  5
66C
330
4CB
100
AcDbSymbolTableRecord
100
AcDbRegAppTableRecord
  2
ACAD_MLEADERVER
 70
     0
  0
APPID
  5
6E0
330
4CB
100
AcDbSymbolTableRecord
100
AcDbRegAppTableRecord
  2
BBSI_PltSel
 70
     0
  0
APPID
  5
6E1
330
4CB
100
AcDbSymbolTableRecord
100
AcDbRegAppTableRecord
  2
BBSI_Plots
 70
     0
  0
APPID
  5
6E2
330
4CB
100
AcDbSymbolTableRecord
100
AcDbRegAppTableRecord
  2
BBSI_Bookmarks
 70
     0
  0
APPID
  5
6E3
330
4CB
100
AcDbSymbolTableRecord
100
AcDbRegAppTableRecord
  2
ACAD_PSEXT
 70
     0
  0
ENDTAB
  0
TABLE
  2
DIMSTYLE
  5
4CC
330
0
100
AcDbSymbolTable
 70
     1
100
AcDbDimStyleTable
 71
     0
  0
DIMSTYLE
105
4EA
330
4CC
100
AcDbSymbolTableRecord
100
AcDbDimStyleTableRecord
  2
STANDARD
 70
     0
279
     2
340
4D3
  0
ENDTAB
  0
TABLE
  2
BLOCK_RECORD
  5
4C3
330
0
100
AcDbSymbolTable
 70
     2
  0
BLOCK_RECORD
  5
4E0
330
4C3
100
AcDbSymbolTableRecord
100
AcDbBlockTableRecord
  2
*Model_Space
340
4E3
  0
BLOCK_RECORD
  5
4DC
330
4C3
100
AcDbSymbolTableRecord
100
AcDbBlockTableRecord
  2
*Paper_Space
340
4DF
  0
BLOCK_RECORD
  5
4E4
330
4C3
100
AcDbSymbolTableRecord
100
AcDbBlockTableRecord
  2
*X0
340
0
102
{BLKREFS
331
1F5
102
}
  0
BLOCK_RECORD
  5
598
330
4C3
100
AcDbSymbolTableRecord
100
AcDbBlockTableRecord
  2
titleblock
340
0
102
{BLKREFS
331
5B3
102
}
  0
ENDTAB
  0
ENDSEC
  0
SECTION
  2
BLOCKS
  0
BLOCK
  5
50C
330
4E0
100
AcDbEntity
  8
0
100
AcDbBlockBegin
  2
*Model_Space
 70
     0
 10
0.0
 20
0.0
 30
0.0
  3
*Model_Space
  1

  0
ENDBLK
  5
50D
330
4E0
100
AcDbEntity
  8
0
100
AcDbBlockEnd
  0
BLOCK
  5
50A
330
4DC
100
AcDbEntity
 67
     1
  8
0
100
AcDbBlockBegin
  2
*Paper_Space
 70
     0
 10
0.0
 20
0.0
 30
0.0
  3
*Paper_Space
  1

  0
ENDBLK
  5
50B
330
4DC
100
AcDbEntity
 67
     1
  8
0
100
AcDbBlockEnd
  0
BLOCK
  5
49B
330
4E4
100
AcDbEntity
  8
0
100
AcDbBlockBegin
  2
*X0
 70
     1
 10
0.0
 20
0.0
 30
0.0
  3
*X0
  1

  0
LINE
  5
42C
330
4E4
100
AcDbEntity
  8
0
 62
     0
100
AcDbLine
 10
3.228763794413869
 20
5.299992690782281
 30
0.0
 11
3.18975315483793
 21
5.33900333035822
 31
0.0
  0
LINE
  5
42D
330
4E4
100
AcDbEntity
  8
0
 62
     0
100
AcDbLine
 10
3.074848302895116
 20
5.224098478415407
 30
0.0
 11
2.959943450952303
 21
5.339003330358221
 31
0.0
  0
LINE
  5
42E
330
4E4
100
AcDbEntity
  8
0
 62
     0
100
AcDbLine
 10
2.845038599009488
 20
5.224098478415407
 30
0.0
 11
2.730133747066674
 21
5.339003330358221
 31
0.0
  0
LINE
  5
42F
330
4E4
100
AcDbEntity
  8
0
 62
     0
100
AcDbLine
 10
3.004484618143707
 20
5.064652459281188
 30
0.0
 11
2.959943450952303
 21
5.109193626472593
 31
0.0
  0
LINE
  5
430
330
4E4
100
AcDbEntity
  8
0
 62
     0
100
AcDbLine
 10
2.61522889512386
 20
5.224098478415407
 30
0.0
 11
2.567250776982429
 21
5.272076596556837
 31
0.0
  0
LINE
  5
431
330
4E4
100
AcDbEntity
  8
0
 62
     0
100
AcDbLine
 10
2.832179596411998
 20
5.007147777127269
 30
0.0
 11
2.730133747066674
 21
5.109193626472593
 31
0.0
  0
LINE
  5
432
330
4E4
100
AcDbEntity
  8
0
 62
     0
100
AcDbLine
 10
2.615228895123861
 20
4.994288774529778
 30
0.0
 11
2.500324043181047
 21
5.109193626472592
 31
0.0
  0
LINE
  5
433
330
4E4
100
AcDbEntity
  8
0
 62
     0
100
AcDbLine
 10
2.564489047074304
 20
4.815218918693708
 30
0.0
 11
2.500324043181048
 21
4.879383922586964
 31
0.0
  0
LINE
  5
434
330
4E4
100
AcDbEntity
  8
0
 62
     0
100
AcDbLine
 10
1.925799783466977
 20
5.224098478415407
 30
0.0
 11
1.810894931524163
 21
5.339003330358221
 31
0.0
  0
LINE
  5
435
330
4E4
100
AcDbEntity
  8
0
 62
     0
100
AcDbLine
 10
2.054407537523048
 20
5.095490724359335
 30
0.0
 11
2.040704635409791
 21
5.109193626472593
 31
0.0
  0
LINE
  5
436
330
4E4
100
AcDbEntity
  8
0
 62
     0
100
AcDbLine
 10
1.695990079581348
 20
5.224098478415408
 30
0.0
 11
1.581085227638534
 21
5.339003330358222
 31
0.0
  0
LINE
  5
437
330
4E4
100
AcDbEntity
  8
0
 62
     0
100
AcDbLine
 10
1.925799783466976
 20
4.994288774529779
 30
0.0
 11
1.810894931524162
 21
5.109193626472594
 31
0.0
  0
LINE
  5
438
330
4E4
100
AcDbEntity
  8
0
 62
     0
100
AcDbLine
 10
2.054407537523048
 20
4.865681020473707
 30
0.0
 11
2.04070463540979
 21
4.879383922586965
 31
0.0
  0
LINE
  5
439
330
4E4
100
AcDbEntity
  8
0
 62
     0
100
AcDbLine
 10
1.466180375695721
 20
5.224098478415408
 30
0.0
 11
1.351275523752907
 21
5.339003330358222
 31
0.0
  0
LINE
  5
43A
330
4E4
100
AcDbEntity
  8
0
 62
     0
100
AcDbLine
 10
1.695990079581349
 20
4.994288774529779
 30
0.0
 11
1.581085227638535
 21
5.109193626472594
 31
0.0
  0
LINE
  5
43B
330
4E4
100
AcDbEntity
  8
0
 62
     0
100
AcDbLine
 10
1.925799783466977
 20
4.764479070644151
 30
0.0
 11
1.810894931524163
 21
4.879383922586965
 31
0.0
  0
LINE
  5
43C
330
4E4
100
AcDbEntity
  8
0
 62
     0
100
AcDbLine
 10
1.466180375695721
 20
4.994288774529779
 30
0.0
 11
1.351275523752907
 21
5.109193626472594
 31
0.0
  0
LINE
  5
43D
330
4E4
100
AcDbEntity
  8
0
 62
     0
100
AcDbLine
 10
1.677942502129877
 20
4.782526648095624
 30
0.0
 11
1.581085227638535
 21
4.879383922586965
 31
0.0
  0
LINE
  5
43E
330
4E4
100
AcDbEntity
  8
0
 62
     0
100
AcDbLine
 10
3.200248338261036
 20
5.242329507978004
 30
0.0
 11
3.146663835359374
 21
5.295914010879665
 31
0.0
  0
LINE
  5
43F
330
4E4
100
AcDbEntity
  8
0
 62
     0
100
AcDbLine
 10
3.031758983416561
 20
5.181009158936851
 30
0.0
 11
2.916854131473748
 21
5.295914010879665
 31
0.0
  0
LINE
  5
440
330
4E4
100
AcDbEntity
  8
0
 62
     0
100
AcDbLine
 10
2.801949279530933
 20
5.181009158936851
 30
0.0
 11
2.687044427588119
 21
5.295914010879665
 31
0.0
  0
LINE
  5
441
330
4E4
100
AcDbEntity
  8
0
 62
     0
100
AcDbLine
 10
2.94510081908128
 20
5.037857619386505
 30
0.0
 11
2.916854131473748
 21
5.066104306994037
 31
0.0
  0
LINE
  5
442
330
4E4
100
AcDbEntity
  8
0
 62
     0
100
AcDbLine
 10
2.572139575645305
 20
5.181009158936851
 30
0.0
 11
2.531875700416057
 21
5.2212730341661
 31
0.0
  0
LINE
  5
443
330
4E4
100
AcDbEntity
  8
0
 62
     0
100
AcDbLine
 10
2.759948925655047
 20
4.993199808927109
 30
0.0
 11
2.687044427588119
 21
5.066104306994037
 31
0.0
  0
LINE
  5
444
330
4E4
100
AcDbEntity
  8
0
 62
     0
100
AcDbLine
 10
2.572139575645306
 20
4.951199455051224
 30
0.0
 11
2.466385322581987
 21
5.056953708114543
 31
0.0
  0
LINE
  5
445
330
4E4
100
AcDbEntity
  8
0
 62
     0
100
AcDbLine
 10
2.52065435003409
 20
4.772874976776812
 30
0.0
 11
2.466385322581988
 21
4.827144004228913
 31
0.0
  0
LINE
  5
446
330
4E4
100
AcDbEntity
  8
0
 62
     0
100
AcDbLine
 10
1.882710463988422
 20
5.181009158936851
 30
0.0
 11
1.767805612045608
 21
5.295914010879665
 31
0.0
  0
LINE
  5
447
330
4E4
100
AcDbEntity
  8
0
 62
     0
100
AcDbLine
 10
2.054407537523048
 20
5.009312085402225
 30
0.0
 11
1.997615315931236
 21
5.066104306994037
 31
0.0
  0
LINE
  5
448
330
4E4
100
AcDbEntity
  8
0
 62
     0
100
AcDbLine
 10
1.652900760102794
 20
5.181009158936852
 30
0.0
 11
1.53799590815998
 21
5.295914010879666
 31
0.0
  0
LINE
  5
449
330
4E4
100
AcDbEntity
  8
0
 62
     0
100
AcDbLine
 10
1.882710463988422
 20
4.951199455051224
 30
0.0
 11
1.767805612045608
 21
5.066104306994038
 31
0.0
  0
LINE
  5
44A
330
4E4
100
AcDbEntity
  8
0
 62
     0
100
AcDbLine
 10
2.054407537523048
 20
4.779502381516597
 30
0.0
 11
1.997615315931235
 21
4.836294603108409
 31
0.0
  0
LINE
  5
44B
330
4E4
100
AcDbEntity
  8
0
 62
     0
100
AcDbLine
 10
1.423091056217166
 20
5.181009158936852
 30
0.0
 11
1.308186204274352
 21
5.295914010879666
 31
0.0
  0
LINE
  5
44C
330
4E4
100
AcDbEntity
  8
0
 62
     0
100
AcDbLine
 10
1.652900760102794
 20
4.951199455051224
 30
0.0
 11
1.53799590815998
 21
5.066104306994038
 31
0.0
  0
LINE
  5
44D
330
4E4
100
AcDbEntity
  8
0
 62
     0
100
AcDbLine
 10
1.862125365792526
 20
4.741974849361492
 30
0.0
 11
1.767805612045608
 21
4.836294603108409
 31
0.0
  0
LINE
  5
44E
330
4E4
100
AcDbEntity
  8
0
 62
     0
100
AcDbLine
 10
3.218479367823633
 20
5.367729543343924
 30
0.0
 11
3.182486606337347
 21
5.40372230483021
 31
0.0
  0
LINE
  5
44F
330
4E4
100
AcDbEntity
  8
0
 62
     0
100
AcDbLine
 10
2.988669663938006
 20
5.367729543343923
 30
0.0
 11
2.95267690245172
 21
5.403722304830209
 31
0.0
  0
LINE
  5
450
330
4E4
100
AcDbEntity
  8
0
 62
     0
100
AcDbLine
 10
3.157475210576876
 20
5.198923996705053
 30
0.0
 11
3.10357451588082
 21
5.252824691401109
 31
0.0
  0
LINE
  5
451
330
4E4
100
AcDbEntity
  8
0
 62
     0
100
AcDbLine
 10
2.758859960052377
 20
5.367729543343926
 30
0.0
 11
2.72286719856609
 21
5.403722304830212
 31
0.0
  0
LINE
  5
452
330
4E4
100
AcDbEntity
  8
0
 62
     0
100
AcDbLine
 10
2.988669663938005
 20
5.137919839458297
 30
0.0
 11
2.873764811995191
 21
5.252824691401111
 31
0.0
  0
LINE
  5
453
330
4E4
100
AcDbEntity
  8
0
 62
     0
100
AcDbLine
 10
2.758859960052378
 20
5.137919839458296
 30
0.0
 11
2.643955108109564
 21
5.25282469140111
 31
0.0
  0
LINE
  5
454
330
4E4
100
AcDbEntity
  8
0
 62
     0
100
AcDbLine
 10
2.878350007772845
 20
5.018429791737829
 30
0.0
 11
2.873764811995192
 21
5.023014987515482
 31
0.0
  0
LINE
  5
455
330
4E4
100
AcDbEntity
  8
0
 62
     0
100
AcDbLine
 10
2.529050256166749
 20
5.137919839458296
 30
0.0
 11
2.466385322581984
 21
5.200584773043061
 31
0.0
  0
LINE
  5
456
330
4E4
100
AcDbEntity
  8
0
 62
     0
100
AcDbLine
 10
2.711380276336019
 20
4.955589819289026
 30
0.0
 11
2.643955108109564
 21
5.023014987515482
 31
0.0
  0
LINE
  5
457
330
4E4
100
AcDbEntity
  8
0
 62
     0
100
AcDbLine
 10
2.529050256166751
 20
4.908110135572668
 30
0.0
 11
2.466385322581987
 21
4.970775069157432
 31
0.0
  0
LINE
  5
458
330
4E4
100
AcDbEntity
  8
0
 62
     0
100
AcDbLine
 10
2.054407537523048
 20
5.152943150330742
 30
0.0
 11
1.986077653687689
 21
5.221273034166102
 31
0.0
  0
LINE
  5
459
330
4E4
100
AcDbEntity
  8
0
 62
     0
100
AcDbLine
 10
1.839621144509867
 20
5.367729543343923
 30
0.0
 11
1.803628383023581
 21
5.403722304830209
 31
0.0
  0
LINE
  5
45A
330
4E4
100
AcDbEntity
  8
0
 62
     0
100
AcDbLine
 10
1.975600640184688
 20
5.231750047669102
 30
0.0
 11
1.954525996452681
 21
5.252824691401109
 31
0.0
  0
LINE
  5
45B
330
4E4
100
AcDbEntity
  8
0
 62
     0
100
AcDbLine
 10
2.476819652993874
 20
4.730531034859915
 30
0.0
 11
2.466385322581988
 21
4.740965365271801
 31
0.0
  0
LINE
  5
45C
330
4E4
100
AcDbEntity
  8
0
 62
     0
100
AcDbLine
 10
1.609811440624238
 20
5.367729543343926
 30
0.0
 11
1.57381867913795
 21
5.403722304830214
 31
0.0
  0
LINE
  5
45D
330
4E4
100
AcDbEntity
  8
0
 62
     0
100
AcDbLine
 10
1.839621144509866
 20
5.137919839458297
 30
0.0
 11
1.724716292567052
 21
5.252824691401111
 31
0.0
  0
LINE
  5
45E
330
4E4
100
AcDbEntity
  8
0
 62
     0
100
AcDbLine
 10
2.054407537523048
 20
4.923133446445115
 30
0.0
 11
1.95452599645268
 21
5.023014987515483
 31
0.0
  0
LINE
  5
45F
330
4E4
100
AcDbEntity
  8
0
 62
     0
100
AcDbLine
 10
1.38000173673861
 20
5.367729543343925
 30
0.0
 11
1.344008975252322
 21
5.403722304830213
 31
0.0
  0
LINE
  5
460
330
4E4
100
AcDbEntity
  8
0
 62
     0
100
AcDbLine
 10
1.609811440624238
 20
5.137919839458296
 30
0.0
 11
1.494906588681424
 21
5.25282469140111
 31
0.0
  0
LINE
  5
461
330
4E4
100
AcDbEntity
  8
0
 62
     0
100
AcDbLine
 10
1.839621144509866
 20
4.908110135572668
 30
0.0
 11
1.724716292567052
 21
5.023014987515482
 31
0.0
  0
LINE
  5
462
330
4E4
100
AcDbEntity
  8
0
 62
     0
100
AcDbLine
 10
2.027387160985241
 20
4.720344119097293
 30
0.0
 11
1.95452599645268
 21
4.793205283629854
 31
0.0
  0
LINE
  5
463
330
4E4
100
AcDbEntity
  8
0
 62
     0
100
AcDbLine
 10
1.380001736738611
 20
5.137919839458296
 30
0.0
 11
1.2856968175573
 21
5.232224758639607
 31
0.0
  0
LINE
  5
464
330
4E4
100
AcDbEntity
  8
0
 62
     0
100
AcDbLine
 10
1.609811440624239
 20
4.908110135572668
 30
0.0
 11
1.494906588681425
 21
5.023014987515482
 31
0.0
  0
LINE
  5
465
330
4E4
100
AcDbEntity
  8
0
 62
     0
100
AcDbLine
 10
1.753382529112598
 20
4.764539047084308
 30
0.0
 11
1.724716292567053
 21
4.793205283629854
 31
0.0
  0
LINE
  5
466
330
4E4
100
AcDbEntity
  8
0
 62
     0
100
AcDbLine
 10
3.218479367823635
 20
5.339003330358221
 30
0.0
 11
3.259444351113286
 21
5.379968313647871
 31
0.0
  0
LINE
  5
467
330
4E4
100
AcDbEntity
  8
0
 62
     0
100
AcDbLine
 10
2.988669663938007
 20
5.109193626472593
 30
0.0
 11
3.103574515880821
 21
5.224098478415407
 31
0.0
  0
LINE
  5
468
330
4E4
100
AcDbEntity
  8
0
 62
     0
100
AcDbLine
 10
2.988669663938008
 20
5.339003330358222
 30
0.0
 11
3.053388638409999
 21
5.403722304830213
 31
0.0
  0
LINE
  5
469
330
4E4
100
AcDbEntity
  8
0
 62
     0
100
AcDbLine
 10
2.758859960052379
 20
5.109193626472594
 30
0.0
 11
2.873764811995194
 21
5.224098478415408
 31
0.0
  0
LINE
  5
46A
330
4E4
100
AcDbEntity
  8
0
 62
     0
100
AcDbLine
 10
2.529050256166751
 20
4.879383922586965
 30
0.0
 11
2.643955108109565
 21
4.994288774529779
 31
0.0
  0
LINE
  5
46B
330
4E4
100
AcDbEntity
  8
0
 62
     0
100
AcDbLine
 10
2.758859960052379
 20
5.339003330358222
 30
0.0
 11
2.823578934524371
 21
5.403722304830213
 31
0.0
  0
LINE
  5
46C
330
4E4
100
AcDbEntity
  8
0
 62
     0
100
AcDbLine
 10
2.529050256166751
 20
5.109193626472594
 30
0.0
 11
2.643955108109565
 21
5.224098478415408
 31
0.0
  0
LINE
  5
46D
330
4E4
100
AcDbEntity
  8
0
 62
     0
100
AcDbLine
 10
1.922144262256614
 20
4.732097336448084
 30
0.0
 11
1.95452599645268
 21
4.764479070644151
 31
0.0
  0
LINE
  5
46E
330
4E4
100
AcDbEntity
  8
0
 62
     0
100
AcDbLine
 10
1.839621144509867
 20
4.879383922586965
 30
0.0
 11
1.954525996452681
 21
4.994288774529779
 31
0.0
  0
LINE
  5
46F
330
4E4
100
AcDbEntity
  8
0
 62
     0
100
AcDbLine
 10
1.839621144509867
 20
5.109193626472595
 30
0.0
 11
1.954525996452681
 21
5.224098478415409
 31
0.0
  0
LINE
  5
470
330
4E4
100
AcDbEntity
  8
0
 62
     0
100
AcDbLine
 10
1.609811440624239
 20
4.879383922586966
 30
0.0
 11
1.724716292567053
 21
4.99428877452978
 31
0.0
  0
LINE
  5
471
330
4E4
100
AcDbEntity
  8
0
 62
     0
100
AcDbLine
 10
1.839621144509867
 20
5.339003330358221
 30
0.0
 11
1.904340118981858
 21
5.403722304830212
 31
0.0
  0
LINE
  5
472
330
4E4
100
AcDbEntity
  8
0
 62
     0
100
AcDbLine
 10
1.609811440624239
 20
5.109193626472593
 30
0.0
 11
1.724716292567053
 21
5.224098478415407
 31
0.0
  0
LINE
  5
473
330
4E4
100
AcDbEntity
  8
0
 62
     0
100
AcDbLine
 10
1.467821272772329
 20
4.967203458620683
 30
0.0
 11
1.494906588681425
 21
4.994288774529779
 31
0.0
  0
LINE
  5
474
330
4E4
100
AcDbEntity
  8
0
 62
     0
100
AcDbLine
 10
1.609811440624239
 20
5.339003330358222
 30
0.0
 11
1.67453041509623
 21
5.403722304830213
 31
0.0
  0
LINE
  5
475
330
4E4
100
AcDbEntity
  8
0
 62
     0
100
AcDbLine
 10
1.380001736738611
 20
5.109193626472594
 30
0.0
 11
1.494906588681425
 21
5.224098478415408
 31
0.0
  0
LINE
  5
476
330
4E4
100
AcDbEntity
  8
0
 62
     0
100
AcDbLine
 10
1.380001736738611
 20
5.339003330358221
 30
0.0
 11
1.444720711210602
 21
5.403722304830212
 31
0.0
  0
LINE
  5
477
330
4E4
100
AcDbEntity
  8
0
 62
     0
100
AcDbLine
 10
3.062314172376238
 20
5.096659495953713
 30
0.0
 11
3.14236780272113
 21
5.176713126298604
 31
0.0
  0
LINE
  5
478
330
4E4
100
AcDbEntity
  8
0
 62
     0
100
AcDbLine
 10
3.031758983416562
 20
5.295914010879667
 30
0.0
 11
3.139567277367108
 21
5.403722304830213
 31
0.0
  0
LINE
  5
479
330
4E4
100
AcDbEntity
  8
0
 62
     0
100
AcDbLine
 10
2.801949279530934
 20
5.066104306994039
 30
0.0
 11
2.916854131473748
 21
5.181009158936853
 31
0.0
  0
LINE
  5
47A
330
4E4
100
AcDbEntity
  8
0
 62
     0
100
AcDbLine
 10
2.572139575645306
 20
4.83629460310841
 30
0.0
 11
2.68704442758812
 21
4.951199455051225
 31
0.0
  0
LINE
  5
47B
330
4E4
100
AcDbEntity
  8
0
 62
     0
100
AcDbLine
 10
2.801949279530935
 20
5.295914010879666
 30
0.0
 11
2.909757573481481
 21
5.403722304830212
 31
0.0
  0
LINE
  5
47C
330
4E4
100
AcDbEntity
  8
0
 62
     0
100
AcDbLine
 10
2.572139575645306
 20
5.066104306994038
 30
0.0
 11
2.687044427588121
 21
5.181009158936852
 31
0.0
  0
LINE
  5
47D
330
4E4
100
AcDbEntity
  8
0
 62
     0
100
AcDbLine
 10
2.590131185719828
 20
5.313905620954187
 30
0.0
 11
2.679947869595853
 21
5.403722304830211
 31
0.0
  0
LINE
  5
47E
330
4E4
100
AcDbEntity
  8
0
 62
     0
100
AcDbLine
 10
1.882710463988422
 20
4.83629460310841
 30
0.0
 11
1.997615315931236
 21
4.951199455051225
 31
0.0
  0
LINE
  5
47F
330
4E4
100
AcDbEntity
  8
0
 62
     0
100
AcDbLine
 10
1.882710463988422
 20
5.066104306994038
 30
0.0
 11
1.997615315931236
 21
5.181009158936852
 31
0.0
  0
LINE
  5
480
330
4E4
100
AcDbEntity
  8
0
 62
     0
100
AcDbLine
 10
1.652900760102794
 20
4.836294603108409
 30
0.0
 11
1.767805612045608
 21
4.951199455051224
 31
0.0
  0
LINE
  5
481
330
4E4
100
AcDbEntity
  8
0
 62
     0
100
AcDbLine
 10
1.882710463988422
 20
5.295914010879666
 30
0.0
 11
1.920068351777127
 21
5.333271898668371
 31
0.0
  0
LINE
  5
482
330
4E4
100
AcDbEntity
  8
0
 62
     0
100
AcDbLine
 10
1.652900760102794
 20
5.066104306994038
 30
0.0
 11
1.767805612045608
 21
5.181009158936852
 31
0.0
  0
LINE
  5
483
330
4E4
100
AcDbEntity
  8
0
 62
     0
100
AcDbLine
 10
1.509017876615116
 20
4.922221423506361
 30
0.0
 11
1.53799590815998
 21
4.951199455051224
 31
0.0
  0
LINE
  5
484
330
4E4
100
AcDbEntity
  8
0
 62
     0
100
AcDbLine
 10
1.652900760102794
 20
5.295914010879666
 30
0.0
 11
1.76070905405334
 21
5.403722304830211
 31
0.0
  0
LINE
  5
485
330
4E4
100
AcDbEntity
  8
0
 62
     0
100
AcDbLine
 10
1.423091056217167
 20
5.066104306994038
 30
0.0
 11
1.53799590815998
 21
5.181009158936852
 31
0.0
  0
LINE
  5
486
330
4E4
100
AcDbEntity
  8
0
 62
     0
100
AcDbLine
 10
1.423091056217166
 20
5.295914010879667
 30
0.0
 11
1.530899350167712
 21
5.403722304830213
 31
0.0
  0
LINE
  5
487
330
4E4
100
AcDbEntity
  8
0
 62
     0
100
AcDbLine
 10
1.306499495544451
 20
5.179322450206951
 30
0.0
 11
1.308186204274352
 21
5.181009158936853
 31
0.0
  0
LINE
  5
488
330
4E4
100
AcDbEntity
  8
0
 62
     0
100
AcDbLine
 10
1.241886726922693
 20
5.344519385470821
 30
0.0
 11
1.301089646282086
 21
5.403722304830214
 31
0.0
  0
LINE
  5
489
330
4E4
100
AcDbEntity
  8
0
 62
     0
100
AcDbLine
 10
3.074848302895118
 20
5.25282469140111
 30
0.0
 11
3.189753154837932
 21
5.367729543343925
 31
0.0
  0
LINE
  5
48A
330
4E4
100
AcDbEntity
  8
0
 62
     0
100
AcDbLine
 10
2.845038599009489
 20
5.023014987515482
 30
0.0
 11
2.959943450952303
 21
5.137919839458296
 31
0.0
  0
LINE
  5
48B
330
4E4
100
AcDbEntity
  8
0
 62
     0
100
AcDbLine
 10
2.84503859900949
 20
5.252824691401111
 30
0.0
 11
2.959943450952304
 21
5.367729543343926
 31
0.0
  0
LINE
  5
48C
330
4E4
100
AcDbEntity
  8
0
 62
     0
100
AcDbLine
 10
2.615228895123862
 20
5.023014987515483
 30
0.0
 11
2.730133747066676
 21
5.137919839458297
 31
0.0
  0
LINE
  5
48D
330
4E4
100
AcDbEntity
  8
0
 62
     0
100
AcDbLine
 10
2.466385322581986
 20
4.874171414973607
 30
0.0
 11
2.500324043181048
 21
4.908110135572669
 31
0.0
  0
LINE
  5
48E
330
4E4
100
AcDbEntity
  8
0
 62
     0
100
AcDbLine
 10
2.615228895123862
 20
5.252824691401111
 30
0.0
 11
2.730133747066676
 21
5.367729543343926
 31
0.0
  0
LINE
  5
48F
330
4E4
100
AcDbEntity
  8
0
 62
     0
100
AcDbLine
 10
2.466385322581984
 20
5.103981118859233
 30
0.0
 11
2.500324043181048
 21
5.137919839458297
 31
0.0
  0
LINE
  5
490
330
4E4
100
AcDbEntity
  8
0
 62
     0
100
AcDbLine
 10
1.925799783466977
 20
4.793205283629855
 30
0.0
 11
2.040704635409791
 21
4.908110135572669
 31
0.0
  0
LINE
  5
491
330
4E4
100
AcDbEntity
  8
0
 62
     0
100
AcDbLine
 10
1.925799783466977
 20
5.023014987515483
 30
0.0
 11
2.040704635409791
 21
5.137919839458297
 31
0.0
  0
LINE
  5
492
330
4E4
100
AcDbEntity
  8
0
 62
     0
100
AcDbLine
 10
1.695990079581349
 20
4.793205283629855
 30
0.0
 11
1.810894931524163
 21
4.908110135572669
 31
0.0
  0
LINE
  5
493
330
4E4
100
AcDbEntity
  8
0
 62
     0
100
AcDbLine
 10
1.925799783466977
 20
5.252824691401111
 30
0.0
 11
1.950539990736865
 21
5.277564898670998
 31
0.0
  0
LINE
  5
494
330
4E4
100
AcDbEntity
  8
0
 62
     0
100
AcDbLine
 10
1.695990079581349
 20
5.023014987515483
 30
0.0
 11
1.810894931524163
 21
5.137919839458297
 31
0.0
  0
LINE
  5
495
330
4E4
100
AcDbEntity
  8
0
 62
     0
100
AcDbLine
 10
1.550214480457904
 20
4.877239388392037
 30
0.0
 11
1.581085227638535
 21
4.908110135572669
 31
0.0
  0
LINE
  5
496
330
4E4
100
AcDbEntity
  8
0
 62
     0
100
AcDbLine
 10
1.695990079581349
 20
5.252824691401111
 30
0.0
 11
1.810894931524163
 21
5.367729543343926
 31
0.0
  0
LINE
  5
497
330
4E4
100
AcDbEntity
  8
0
 62
     0
100
AcDbLine
 10
1.466180375695721
 20
5.023014987515483
 30
0.0
 11
1.581085227638535
 21
5.137919839458297
 31
0.0
  0
LINE
  5
498
330
4E4
100
AcDbEntity
  8
0
 62
     0
100
AcDbLine
 10
1.466180375695722
 20
5.252824691401111
 30
0.0
 11
1.581085227638536
 21
5.367729543343926
 31
0.0
  0
LINE
  5
499
330
4E4
100
AcDbEntity
  8
0
 62
     0
100
AcDbLine
 10
1.331025447292013
 20
5.117669762997402
 30
0.0
 11
1.351275523752908
 21
5.137919839458297
 31
0.0
  0
LINE
  5
49A
330
4E4
100
AcDbEntity
  8
0
 62
     0
100
AcDbLine
 10
1.266029468997003
 20
5.28248348858802
 30
0.0
 11
1.351275523752908
 21
5.367729543343925
 31
0.0
  0
ENDBLK
  5
49C
330
4E4
100
AcDbEntity
  8
0
100
AcDbBlockEnd
  0
BLOCK
  5
5A4
330
598
100
AcDbEntity
  8
0
100
AcDbBlockBegin
  2
titleblock
 70
     2
 10
0.0
 20
0.0
 30
0.0
  3
titleblock
  1

  0
LWPOLYLINE
  5
599
330
598
100
AcDbEntity
  8
image
100
AcDbPolyline
 90
        4
 70
     1
 43
0.0
 10
0.0
 20
0.0
 10
16.48999999999999
 20
0.0000000000000001
 10
16.48999999999999
 20
10.44
 10
0.0
 20
10.44
  0
ATTDEF
  5
59A
330
598
100
AcDbEntity
  8
title
100
AcDbText
 10
0.5055556038023421
 20
0.7842270964783673
 30
0.0
 40
0.2
  1
D
  7
L200
 72
     4
 11
0.6064423705144839
 21
0.8842270964783672
 31
0.0
100
AcDbAttributeDefinition
  3
#
  2
D
 70
     0
  0
ATTDEF
  5
59B
330
598
100
AcDbEntity
  8
title
100
AcDbText
 10
1.231442370514484
 20
1.34371230274675
 30
0.0
 40
0.2
  1

  7
L200
100
AcDbAttributeDefinition
  3
DETAIL TITLE TOP LINE
  2
TITLE1
 70
     0
  0
ATTDEF
  5
59C
330
598
100
AcDbEntity
  8
title
100
AcDbText
 10
1.231442370514484
 20
0.9842270964783674
 30
0.0
 40
0.2
  1
TITLE
  7
L200
100
AcDbAttributeDefinition
  3
DETAIL TITLE TOP 2ND LINE
  2
TITLE2
 70
     0
  0
ATTDEF
  5
59D
330
598
100
AcDbEntity
  8
title
100
AcDbText
 10
2.713645751168312
 20
0.5927927664583189
 30
0.0
 40
0.2
  1
TITLE2
  7
L200
100
AcDbAttributeDefinition
  3
DETAIL TITLE BOTTOM 1
  2
TITLE3
 70
     0
  0
ATTDEF
  5
59E
330
598
100
AcDbEntity
  8
title
100
AcDbText
 10
2.713645751168312
 20
0.2692560808167741
 30
0.0
 40
0.2
  1

  7
L200
100
AcDbAttributeDefinition
  3
DETAIL TITLE BOTTOM 2
  2
TITLE4
 70
     0
  0
ATTDEF
  5
59F
330
598
100
AcDbEntity
  8
title
 62
     7
100
AcDbText
 10
8.177214829966379
 20
0.9696027915446398
 30
0.0
 40
0.08
  1
-
  7
L80
 72
     2
 11
8.261024353775903
 21
0.9696027915446398
 31
0.0
100
AcDbAttributeDefinition
  3
REVISION DATE
  2
REVISED
 70
     0
  0
ATTDEF
  5
5A0
330
598
100
AcDbEntity
  8
title
 62
     7
100
AcDbText
 10
0.2639423705144838
 20
0.0847116480207214
 30
0.0
 40
0.08
  1
-
  7
L80
100
AcDbAttributeDefinition
  3
DWG-NAME
  2
DWG-NAME
 70
     0
  0
LWPOLYLINE
  5
5A1
330
598
100
AcDbEntity
  8
title
 62
     3
100
AcDbPolyline
 90
        2
 70
     1
 43
0.03
 10
0.6064423705144839
 20
0.5417270964783675
 42
0.9999999999999998
 10
0.6064423705144839
 20
1.226727096478367
 42
0.9999999999999998
  0
ATTDEF
  5
5A2
330
598
100
AcDbEntity
  8
title
 62
     7
100
AcDbText
 10
1.231442370514484
 20
0.7005637793954894
 30
0.0
 40
0.1
  1
N.T.S.
  7
L100
100
AcDbAttributeDefinition
  3
SCALE
  2
SCALE
 70
     0
  0
LWPOLYLINE
  5
5A3
330
598
100
AcDbEntity
  8
title
 62
     3
100
AcDbPolyline
 90
        2
 70
     0
 43
0.04
 39
0.03
 10
0.9489423705144833
 20
0.8842270964783672
 10
8.261024353775903
 20
0.8842270964783672
  0
ENDBLK
  5
5A5
330
598
100
AcDbEntity
  8
0
100
AcDbBlockEnd
  0
ENDSEC
  0
SECTION
  2
ENTITIES
  0
LINE
  5
C8
330
4E0
100
AcDbEntity
  8
image
100
AcDbLine
 10
1.90696952821787
 20
5.403722304830212
 30
0.0
 11
1.057972699677611
 21
5.403722304830212
 31
0.0
  0
LINE
  5
C9
330
4E0
100
AcDbEntity
  8
image
100
AcDbLine
 10
1.453294806966649
 20
5.70531163678037
 30
0.0
 11
1.490107596243743
 21
5.403446764708213
 31
0.0
  0
LINE
  5
CA
330
4E0
100
AcDbEntity
  8
image
100
AcDbLine
 10
1.637869013342089
 20
5.691468571302205
 30
0.0
 11
1.711698695892272
 21
5.40999290657967
 31
0.0
  0
LINE
  5
CB
330
4E0
100
AcDbEntity
  8
image
100
AcDbLine
 10
1.790142733601827
 20
5.686854216142831
 30
0.0
 11
1.816712182173822
 21
5.403446764708213
 31
0.0
  0
LINE
  5
CC
330
4E0
100
AcDbEntity
  8
image
100
AcDbLine
 10
1.888754143724622
 20
5.733200225732716
 30
0.0
 11
1.809298663951671
 21
5.403446764708213
 31
0.0
  0
LINE
  5
CD
330
4E0
100
AcDbEntity
  8
image
100
AcDbLine
 10
1.415688441076401
 20
5.645265969459513
 30
0.0
 11
1.611177130363952
 21
5.403446764708213
 31
0.0
  0
LINE
  5
CE
330
4E0
100
AcDbEntity
  8
image
100
AcDbLine
 10
1.558708304667723
 20
5.744192007766859
 30
0.0
 11
1.558708304667723
 21
5.403446764708213
 31
0.0
  0
LINE
  5
CF
330
4E0
100
AcDbEntity
  8
image
100
AcDbLine
 10
1.723731224196177
 20
5.689233097596112
 30
0.0
 11
1.792132028522461
 21
5.403446764708224
 31
0.0
  0
LINE
  5
D0
330
4E0
100
AcDbEntity
  8
image
100
AcDbLine
 10
1.840661750033468
 20
5.686854216142831
 30
0.0
 11
1.867231198605463
 21
5.403446764708213
 31
0.0
  0
LINE
  5
D1
330
4E0
100
AcDbEntity
  8
image
100
AcDbLine
 10
1.264397523981848
 20
5.691468571302205
 30
0.0
 11
1.338227206532031
 21
5.40999290657967
 31
0.0
  0
LINE
  5
D2
330
4E0
100
AcDbEntity
  8
image
100
AcDbLine
 10
1.416671244241586
 20
5.686854216142831
 30
0.0
 11
1.443240692813579
 21
5.403446764708213
 31
0.0
  0
LINE
  5
D3
330
4E0
100
AcDbEntity
  8
image
100
AcDbLine
 10
1.295252094993112
 20
5.711216661664408
 30
0.0
 11
1.269581863066467
 21
5.403446764708224
 31
0.0
  0
LINE
  5
D4
330
4E0
100
AcDbEntity
  8
image
100
AcDbLine
 10
1.185236815307483
 20
5.744192007766859
 30
0.0
 11
1.185236815307483
 21
5.403446764708213
 31
0.0
  0
LINE
  5
D5
330
4E0
100
AcDbEntity
  8
image
100
AcDbLine
 10
1.350259734835936
 20
5.689233097596112
 30
0.0
 11
1.418660539162221
 21
5.403446764708224
 31
0.0
  0
LINE
  5
D6
330
4E0
100
AcDbEntity
  8
image
100
AcDbLine
 10
1.647300989987148
 20
5.722208443698567
 30
0.0
 11
1.495375127564121
 21
5.403446764708213
 31
0.0
  0
LINE
  5
D7
330
4E0
100
AcDbEntity
  8
image
100
AcDbLine
 10
1.350516437155196
 20
5.682239860983441
 30
0.0
 11
1.324144117237274
 21
5.403446764708213
 31
0.0
  0
LINE
  5
D8
330
4E0
100
AcDbEntity
  8
image
100
AcDbLine
 10
1.064426417273262
 20
5.691468571302205
 30
0.0
 11
1.138256099823445
 21
5.40999290657967
 31
0.0
  0
LINE
  5
D9
330
4E0
100
AcDbEntity
  8
image
100
AcDbLine
 10
1.15028862812735
 20
5.689233097596112
 30
0.0
 11
1.218689432453635
 21
5.403446764708224
 31
0.0
  0
LINE
  5
DA
330
4E0
100
AcDbEntity
  8
image
100
AcDbLine
 10
1.447329883278563
 20
5.722208443698567
 30
0.0
 11
1.295404020855535
 21
5.403446764708213
 31
0.0
  0
LINE
  5
DB
330
4E0
100
AcDbEntity
  8
image
100
AcDbLine
 10
1.167964416396835
 20
5.733200225732716
 30
0.0
 11
1.088508936623884
 21
5.403446764708213
 31
0.0
  0
LINE
  5
DC
330
4E0
100
AcDbEntity
  8
image
100
AcDbLine
 10
1.299982752019603
 20
5.722208443698567
 30
0.0
 11
1.148056889596576
 21
5.403446764708213
 31
0.0
  0
LINE
  5
DD
330
4E0
100
AcDbEntity
  8
image
100
AcDbLine
 10
3.811650476063531
 20
5.70531163678037
 30
0.0
 11
3.848463265340625
 21
5.403446764708213
 31
0.0
  0
LINE
  5
DE
330
4E0
100
AcDbEntity
  8
image
100
AcDbLine
 10
1.24104389951602
 20
5.722208443698567
 30
0.0
 11
1.089118037092991
 21
5.403446764708213
 31
0.0
  0
LINE
  5
DF
330
4E0
100
AcDbEntity
  8
image
100
AcDbLine
 10
1.775718158788192
 20
5.682239860983441
 30
0.0
 11
1.74934583887027
 21
5.403446764708213
 31
0.0
  0
LINE
  5
E0
330
4E0
100
AcDbEntity
  8
image
100
AcDbLine
 10
1.489628138906256
 20
5.691468571302205
 30
0.0
 11
1.563457821456439
 21
5.40999290657967
 31
0.0
  0
LINE
  5
E1
330
4E0
100
AcDbEntity
  8
image
100
AcDbLine
 10
1.740513269288789
 20
5.733200225732716
 30
0.0
 11
1.661057789515837
 21
5.403446764708213
 31
0.0
  0
LINE
  5
E2
330
4E0
100
AcDbEntity
  8
image
100
AcDbLine
 10
1.410467430231892
 20
5.744192007766859
 30
0.0
 11
1.410467430231892
 21
5.403446764708213
 31
0.0
  0
LINE
  5
E3
330
4E0
100
AcDbEntity
  8
image
100
AcDbLine
 10
1.575490349760346
 20
5.689233097596112
 30
0.0
 11
1.643891154086629
 21
5.403446764708224
 31
0.0
  0
LINE
  5
E4
330
4E0
100
AcDbEntity
  8
image
100
AcDbLine
 10
1.872531604911558
 20
5.722208443698567
 30
0.0
 11
1.720605742488529
 21
5.403446764708213
 31
0.0
  0
LINE
  5
E5
330
4E0
100
AcDbEntity
  8
image
100
AcDbLine
 10
2.387131996071757
 20
5.357218630412788
 30
0.0
 11
2.387131996071757
 21
5.223313502873635
 31
0.0
  0
LINE
  5
E6
330
4E0
100
AcDbEntity
  8
image
100
AcDbLine
 10
2.348659073032326
 20
5.357218630412788
 30
0.0
 11
2.348659073032326
 21
5.223313502873635
 31
0.0
  0
LINE
  5
E7
330
4E0
100
AcDbEntity
  8
image
100
AcDbLine
 10
2.17653185586191
 20
5.357218630412788
 30
0.0
 11
2.17653185586191
 21
5.223313502873635
 31
0.0
  0
LINE
  5
E8
330
4E0
100
AcDbEntity
  8
image
100
AcDbLine
 10
2.139350845152387
 20
5.357218630412788
 30
0.0
 11
2.139350845152387
 21
5.223313502873635
 31
0.0
  0
LINE
  5
E9
330
4E0
100
AcDbEntity
  8
image
100
AcDbLine
 10
2.054407537523053
 20
5.223313502873635
 30
0.0
 11
2.466385322581991
 21
5.223313502873635
 31
0.0
  0
LINE
  5
EA
330
4E0
100
AcDbEntity
  8
image
100
AcDbLine
 10
1.981331549636913
 20
5.357218630412788
 30
0.0
 11
2.539461310468129
 21
5.357218630412788
 31
0.0
  0
LINE
  5
EB
330
4E0
100
AcDbEntity
  8
image
100
AcDbLine
 10
1.906969528217866
 20
5.403722304830212
 30
0.0
 11
2.613823331887176
 21
5.403722304830212
 31
0.0
  0
LINE
  5
EC
330
4E0
100
AcDbEntity
  8
image
100
AcDbLine
 10
2.466385322581991
 20
5.223313502873635
 30
0.0
 11
2.539461310468129
 21
5.223313502873635
 31
0.0
  0
LINE
  5
ED
330
4E0
100
AcDbEntity
  8
image
100
AcDbLine
 10
2.539461310468129
 20
5.223313502873635
 30
0.0
 11
2.539461310468129
 21
5.357218630412788
 31
0.0
  0
LINE
  5
EE
330
4E0
100
AcDbEntity
  8
image
100
AcDbLine
 10
2.539461310468129
 20
5.357218630412788
 30
0.0
 11
2.613823331887176
 21
5.357218630412788
 31
0.0
  0
LINE
  5
EF
330
4E0
100
AcDbEntity
  8
image
100
AcDbLine
 10
2.613823331887176
 20
5.357218630412788
 30
0.0
 11
2.613823331887176
 21
5.403722304830212
 31
0.0
  0
LINE
  5
F0
330
4E0
100
AcDbEntity
  8
image
100
AcDbLine
 10
2.613823331887176
 20
5.357218630412777
 30
0.0
 11
2.539461310468129
 21
5.223313502873635
 31
0.0
  0
LINE
  5
F1
330
4E0
100
AcDbEntity
  8
image
100
AcDbLine
 10
1.906969528217865
 20
5.357218630412777
 30
0.0
 11
1.981331549636913
 21
5.223313502873635
 31
0.0
  0
LINE
  5
F2
330
4E0
100
AcDbEntity
  8
image
100
AcDbLine
 10
1.906969528217866
 20
5.357218630412788
 30
0.0
 11
1.906969528217866
 21
5.403722304830212
 31
0.0
  0
LINE
  5
F3
330
4E0
100
AcDbEntity
  8
image
100
AcDbLine
 10
1.981331549636913
 20
5.357218630412788
 30
0.0
 11
1.906969528217866
 21
5.357218630412788
 31
0.0
  0
LINE
  5
F4
330
4E0
100
AcDbEntity
  8
image
100
AcDbLine
 10
1.981331549636913
 20
5.223313502873635
 30
0.0
 11
1.981331549636913
 21
5.357218630412788
 31
0.0
  0
LINE
  5
F5
330
4E0
100
AcDbEntity
  8
image
100
AcDbLine
 10
2.054407537523053
 20
5.223313502873635
 30
0.0
 11
1.981331549636913
 21
5.223313502873635
 31
0.0
  0
LINE
  5
F6
330
4E0
100
AcDbEntity
  8
image
100
AcDbLine
 10
2.466385322581991
 20
5.223313502873635
 30
0.0
 11
2.466385322581991
 21
4.790744156519599
 31
0.0
  0
LINE
  5
F7
330
4E0
100
AcDbEntity
  8
image
100
AcDbLine
 10
2.466385322581991
 20
4.790744156519599
 30
0.0
 11
2.466385322581991
 21
3.591500621557042
 31
0.0
  0
LINE
  5
F8
330
4E0
100
AcDbEntity
  8
image
100
AcDbLine
 10
2.054407537523053
 20
3.591500621557042
 30
0.0
 11
2.146147225873471
 21
3.467941052104118
 31
0.0
  0
LINE
  5
F9
330
4E0
100
AcDbEntity
  8
image
100
AcDbLine
 10
2.146147225873471
 20
3.467941052104118
 30
0.0
 11
2.260396430052522
 21
3.467941052104118
 31
0.0
  0
LINE
  5
FA
330
4E0
100
AcDbEntity
  8
image
100
AcDbLine
 10
2.054407537523053
 20
3.591500621557042
 30
0.0
 11
2.466385322581991
 21
3.591500621557042
 31
0.0
  0
LINE
  5
FB
330
4E0
100
AcDbEntity
  8
image
100
AcDbLine
 10
2.054407537523053
 20
4.790744156519599
 30
0.0
 11
2.054407537523053
 21
3.591500621557042
 31
0.0
  0
LINE
  5
FC
330
4E0
100
AcDbEntity
  8
image
100
AcDbLine
 10
2.054407537523053
 20
5.223313502873635
 30
0.0
 11
2.054407537523053
 21
4.790744156519599
 31
0.0
  0
LINE
  5
FD
330
4E0
100
AcDbEntity
  8
image
100
AcDbLine
 10
2.150005604675037
 20
3.467941052104118
 30
0.0
 11
2.150005604675037
 21
3.591500621557042
 31
0.0
  0
LINE
  5
FE
330
4E0
100
AcDbEntity
  8
image
100
AcDbLine
 10
2.252021165798166
 20
3.591500621557042
 30
0.0
 11
2.252021165798166
 21
3.467941052104118
 31
0.0
  0
LINE
  5
FF
330
4E0
100
AcDbEntity
  8
image
100
AcDbLine
 10
2.054407537523053
 20
5.190188727875986
 30
0.0
 11
2.466385322581991
 21
5.190188727875986
 31
0.0
  0
LINE
  5
100
330
4E0
100
AcDbEntity
  8
image
100
AcDbLine
 10
2.466385322581991
 20
5.171832193620362
 30
0.0
 11
2.054407537523053
 21
5.171832193620362
 31
0.0
  0
TEXT
  5
101
330
4E0
100
AcDbEntity
  8
text_bubbles
100
AcDbText
 10
4.598981182500883
 20
5.183016180372299
 30
0.0
 40
0.125
  1
POP-UP SPRAY SPRINKLER:
  7
ROMANS
100
AcDbText
  0
TEXT
  5
103
330
4E0
100
AcDbEntity
  8
text_bubbles
100
AcDbText
 10
4.598981182500883
 20
5.028669646731353
 30
0.0
 40
0.125
  1
  RAIN BIRD 1804
  7
ROMANS
100
AcDbText
  0
LINE
  5
104
330
4E0
100
AcDbEntity
  8
image
100
AcDbLine
 10
2.374645634231573
 20
3.467941052104118
 30
0.0
 11
2.260396430052522
 21
3.467941052104118
 31
0.0
  0
LINE
  5
105
330
4E0
100
AcDbEntity
  8
image
100
AcDbLine
 10
2.370787255430007
 20
3.467941052104118
 30
0.0
 11
2.370787255430007
 21
3.591500621557042
 31
0.0
  0
LINE
  5
106
330
4E0
100
AcDbEntity
  8
image
100
AcDbLine
 10
2.268771694306878
 20
3.591500621557042
 30
0.0
 11
2.268771694306878
 21
3.467941052104118
 31
0.0
  0
LINE
  5
107
330
4E0
100
AcDbEntity
  8
image
100
AcDbLine
 10
2.466385322581991
 20
3.591500621557042
 30
0.0
 11
2.374645634231573
 21
3.467941052104118
 31
0.0
  0
TEXT
  5
109
330
4E0
100
AcDbEntity
  8
text-sa-bubbles
100
AcDbText
 10
4.598981182500883
 20
3.306804802032212
 30
0.0
 40
0.125
  1
PVC SCH 40 TEE OR ELL
  7
ROMANS
100
AcDbText
  0
TEXT
  5
10A
330
4E0
100
AcDbEntity
  8
text_bubbles
100
AcDbText
 10
4.598981182500883
 20
5.54510040177178
 30
0.0
 40
0.125
  1
FINISH GRADE/TOP OF MULCH
  7
ROMANS
100
AcDbText
  0
TEXT
  5
10B
330
4E0
100
AcDbEntity
  8
text-sa-bubbles
100
AcDbText
 10
4.598981182500883
 20
4.083476906629931
 30
0.0
 40
0.125
  1
PVC LATERAL PIPE
  7
ROMANS
100
AcDbText
  0
CIRCLE
  5
10D
330
4E0
100
AcDbEntity
  8
text_bubbles
100
AcDbCircle
 10
4.258924464139756
 20
5.591171613593991
 30
0.0
 40
0.15625
  0
TEXT
  5
10E
330
4E0
100
AcDbEntity
  8
text_bubbles
100
AcDbText
 10
4.208329226044518
 20
5.528671613593991
 30
0.0
 40
0.125
  1
1
  7
ROMANS
 72
     4
 11
4.258924464139756
 21
5.591171613593991
 31
0.0
100
AcDbText
  0
CIRCLE
  5
10F
330
4E0
100
AcDbEntity
  8
text_bubbles
100
AcDbCircle
 10
4.258924464139756
 20
5.22908726370774
 30
0.0
 40
0.15625
  0
TEXT
  5
110
330
4E0
100
AcDbEntity
  8
text_bubbles
100
AcDbText
 10
4.199400654615947
 20
5.16658726370774
 30
0.0
 40
0.125
  1
2
  7
ROMANS
 72
     4
 11
4.258924464139756
 21
5.22908726370774
 31
0.0
100
AcDbText
  0
CIRCLE
  5
111
330
4E0
100
AcDbEntity
  8
text-sa-bubbles
100
AcDbCircle
 10
4.265816897565333
 20
4.710799446436793
 30
0.0
 40
0.15625
  0
TEXT
  5
112
330
4E0
100
AcDbEntity
  8
text-sa-bubbles
100
AcDbText
 10
4.206293088041523
 20
4.648299446436793
 30
0.0
 40
0.125
  1
3
  7
ROMANS
 72
     4
 11
4.265816897565333
 21
4.710799446436793
 31
0.0
100
AcDbText
  0
CIRCLE
  5
113
330
4E0
100
AcDbEntity
  8
text-sa-bubbles
100
AcDbCircle
 10
4.258924464139756
 20
4.12954798996537
 30
0.0
 40
0.15625
  0
TEXT
  5
114
330
4E0
100
AcDbEntity
  8
text-sa-bubbles
100
AcDbText
 10
4.196424464139756
 20
4.06704798996537
 30
0.0
 40
0.125
  1
4
  7
ROMANS
 72
     4
 11
4.258924464139756
 21
4.12954798996537
 31
0.0
100
AcDbText
  0
CIRCLE
  5
115
330
4E0
100
AcDbEntity
  8
text-sa-bubbles
100
AcDbCircle
 10
4.258924464139756
 20
3.772875885367652
 30
0.0
 40
0.15625
  0
TEXT
  5
116
330
4E0
100
AcDbEntity
  8
text-sa-bubbles
100
AcDbText
 10
4.199400654615947
 20
3.710375885367652
 30
0.0
 40
0.125
  1
5
  7
ROMANS
 72
     4
 11
4.258924464139756
 21
3.772875885367652
 31
0.0
100
AcDbText
  0
CIRCLE
  5
117
330
4E0
100
AcDbEntity
  8
text-sa-bubbles
100
AcDbCircle
 10
4.258924464139756
 20
3.354936480843858
 30
0.0
 40
0.15625
  0
TEXT
  5
118
330
4E0
100
AcDbEntity
  8
text-sa-bubbles
100
AcDbText
 10
4.196424464139756
 20
3.292436480843858
 30
0.0
 40
0.125
  1
6
  7
ROMANS
 72
     4
 11
4.258924464139756
 21
3.354936480843858
 31
0.0
100
AcDbText
  0
CIRCLE
  5
11E
330
4E0
100
AcDbEntity
  8
text-sa-bubbles
100
AcDbCircle
 10
3.066544802518991
 20
1.991283018376616
 30
0.0
 40
0.15625
  0
TEXT
  5
11F
330
4E0
100
AcDbEntity
  8
text-sa-bubbles
100
AcDbText
 10
3.007020992995181
 20
1.928783018376616
 30
0.0
 40
0.125
  1
5
  7
ROMANS
 72
     4
 11
3.066544802518991
 21
1.991283018376616
 31
0.0
100
AcDbText
  0
CIRCLE
  5
120
330
4E0
100
AcDbEntity
  8
text-sa-bubbles
100
AcDbCircle
 10
4.526727230631053
 20
1.991696316387531
 30
0.0
 40
0.15625
  0
TEXT
  5
121
330
4E0
100
AcDbEntity
  8
text-sa-bubbles
100
AcDbText
 10
4.464227230631053
 20
1.929196316387531
 30
0.0
 40
0.125
  1
6
  7
ROMANS
 72
     4
 11
4.526727230631053
 21
1.991696316387531
 31
0.0
100
AcDbText
  0
CIRCLE
  5
122
330
4E0
100
AcDbEntity
  8
text-sa-bubbles
100
AcDbCircle
 10
2.697739368490193
 20
1.991556559507001
 30
0.0
 40
0.15625
  0
TEXT
  5
123
330
4E0
100
AcDbEntity
  8
text-sa-bubbles
100
AcDbText
 10
2.635239368490193
 20
1.929056559507001
 30
0.0
 40
0.125
  1
4
  7
ROMANS
 72
     4
 11
2.697739368490193
 21
1.991556559507001
 31
0.0
100
AcDbText
  0
TEXT
  5
12A
330
4E0
100
AcDbEntity
  8
text-sa-bubbles
100
AcDbText
 10
0.4953645152306866
 20
3.591032502146791
 30
0.0
 40
0.125
  1
3
  7
ROMANS
 72
     4
 11
0.5548883247544962
 21
3.653532502146791
 31
0.0
100
AcDbText
  0
CIRCLE
  5
12B
330
4E0
100
AcDbEntity
  8
text-sa-bubbles
100
AcDbCircle
 10
0.5548883247544962
 20
3.653532502146791
 30
0.0
 40
0.15625
  0
TEXT
  5
12C
330
4E0
100
AcDbEntity
  8
text_bubbles
100
AcDbText
 10
0.4953645152306868
 20
5.012785388808097
 30
0.0
 40
0.125
  1
2
  7
ROMANS
 72
     4
 11
0.5548883247544963
 21
5.075285388808097
 31
0.0
100
AcDbText
  0
CIRCLE
  5
12D
330
4E0
100
AcDbEntity
  8
text_bubbles
100
AcDbCircle
 10
0.5548883247544963
 20
5.075285388808097
 30
0.0
 40
0.15625
  0
TEXT
  5
130
330
4E0
100
AcDbEntity
  8
text-sa-bubbles
100
AcDbText
 10
3.888022750698739
 20
1.929067087957677
 30
0.0
 40
0.125
  1
3
  7
ROMANS
 72
     4
 11
3.947546560222548
 21
1.991567087957677
 31
0.0
100
AcDbText
  0
CIRCLE
  5
131
330
4E0
100
AcDbEntity
  8
text-sa-bubbles
100
AcDbCircle
 10
3.947546560222548
 20
1.991567087957677
 30
0.0
 40
0.15625
  0
CIRCLE
  5
132
330
4E0
100
AcDbEntity
  8
text_bubbles
100
AcDbCircle
 10
0.5548883247544962
 20
5.541069538776902
 30
0.0
 40
0.15625
  0
TEXT
  5
133
330
4E0
100
AcDbEntity
  8
text_bubbles
100
AcDbText
 10
0.504293086659258
 20
5.478569538776902
 30
0.0
 40
0.125
  1
1
  7
ROMANS
 72
     4
 11
0.5548883247544962
 21
5.541069538776902
 31
0.0
100
AcDbText
  0
TEXT
  5
136
330
4E0
100
AcDbEntity
  8
text-sa-leaders
100
AcDbText
 10
4.598981182500883
 20
3.604173618456955
 30
0.0
 40
0.125
  1
SWING PIPE, 12-INCH LENGTH:
  7
ROMANS
100
AcDbText
  0
TEXT
  5
137
330
4E0
100
AcDbEntity
  8
text-sa-leaders
100
AcDbText
 10
4.598981182500883
 20
1.481568985468148
 30
0.0
 40
0.125
  1
PVC LATERAL PIPE
  7
ROMANS
100
AcDbText
  0
TEXT
  5
138
330
4E0
100
AcDbEntity
  8
text_leaders
100
AcDbText
 10
4.598981182500883
 20
5.564249207376819
 30
0.0
 40
0.125
  1
FINISH GRADE/TOP OF MULCH
  7
ROMANS
100
AcDbText
  0
TEXT
  5
139
330
4E0
100
AcDbEntity
  8
text-sa-leaders
100
AcDbText
 10
4.598981182500883
 20
3.431066265359382
 30
0.0
 40
0.125
  1
  RAIN BIRD MODEL SP-100
  7
ROMANS
100
AcDbText
  0
TEXT
  5
13A
330
4E0
100
AcDbEntity
  8
text_leaders
100
AcDbText
 10
4.598981182500883
 20
5.028669646731353
 30
0.0
 40
0.125
  1
  RAIN BIRD 1804
  7
ROMANS
100
AcDbText
  0
TEXT
  5
13B
330
4E0
100
AcDbEntity
  8
text_leaders
100
AcDbText
 10
4.598981182500883
 20
5.189668089348381
 30
0.0
 40
0.125
  1
POP-UP SPRAY SPRINKLER:
  7
ROMANS
100
AcDbText
  0
TEXT
  5
14D
330
4E0
100
AcDbEntity
  8
text-sa-leaders
100
AcDbText
 10
4.598981182500883
 20
4.012330055237
 30
0.0
 40
0.125
  1
  BARB ELBOW:  RAIN BIRD
  7
SIMPLEX
100
AcDbText
  0
LINE
  5
14F
330
4E0
100
AcDbEntity
  8
option_sa
100
AcDbLine
 10
4.429719560167336
 20
2.945733303366129
 30
0.0
 11
4.060687554484426
 21
2.945733303366124
 31
0.0
  0
LINE
  5
150
330
4E0
100
AcDbEntity
  8
option_sa
100
AcDbLine
 10
3.966503699342351
 20
2.777037553550368
 30
0.0
 11
4.064877148844418
 21
2.953237421358711
 31
0.0
  0
LINE
  5
151
330
4E0
100
AcDbEntity
  8
option_sa
100
AcDbLine
 10
4.429719560167336
 20
2.656567263483919
 30
0.0
 11
4.429719560167336
 21
2.945733303366129
 31
0.0
  0
LINE
  5
152
330
4E0
100
AcDbEntity
  8
option_sa
100
AcDbLine
 10
3.824900845437719
 20
2.656567263483919
 30
0.0
 11
4.429719560167336
 21
2.656567263483919
 31
0.0
  0
LINE
  5
153
330
4E0
100
AcDbEntity
  8
option_sa
100
AcDbLine
 10
3.824900845437719
 20
2.849114108532022
 30
0.0
 11
3.824900845437719
 21
2.656567263483919
 31
0.0
  0
LINE
  5
154
330
4E0
100
AcDbEntity
  8
option_sa
100
AcDbLine
 10
4.119097350818279
 20
2.866647347850665
 30
0.0
 11
4.128790079685732
 21
2.801340231591222
 31
0.0
  0
LINE
  5
155
330
4E0
100
AcDbEntity
  8
option_sa
100
AcDbLine
 10
4.128790079685732
 20
2.801340231591222
 30
0.0
 11
4.071449641947646
 21
2.775340155406565
 31
0.0
  0
LINE
  5
156
330
4E0
100
AcDbEntity
  8
option_sa
100
AcDbLine
 10
4.429719560167336
 20
2.901259206311557
 30
0.0
 11
4.766816079701211
 21
2.901259206311557
 31
0.0
  0
LINE
  5
157
330
4E0
100
AcDbEntity
  8
option_sa
100
AcDbLine
 10
4.429719560167336
 20
2.697639124177565
 30
0.0
 11
4.766816079701211
 21
2.697639124177565
 31
0.0
  0
LWPOLYLINE
  5
158
330
4E0
100
AcDbEntity
  8
option_sa
100
AcDbPolyline
 90
        4
 70
     0
 43
0.0
 10
4.766816079701211
 20
2.901259206311557
 42
-0.5107053858875276
 10
4.766816079701222
 20
2.797998926850494
 42
0.5107053858875159
 10
4.766816079701211
 20
2.697639124177565
 42
0.5397302473450178
 10
4.768742249216026
 20
2.799449165244559
 42
0.5397302473450178
  0
LINE
  5
15E
330
4E0
100
AcDbEntity
  8
option_sa
100
AcDbLine
 10
3.708964536047921
 20
2.901259206311557
 30
0.0
 11
1.607536758325621
 21
2.901259206311557
 31
0.0
  0
LINE
  5
15F
330
4E0
100
AcDbEntity
  8
option_sa
100
AcDbLine
 10
3.824900845437719
 20
2.697639124177565
 30
0.0
 11
1.607536758325621
 21
2.697639124177565
 31
0.0
  0
LINE
  5
160
330
4E0
100
AcDbEntity
  8
option_sa
100
AcDbLine
 10
4.08781630124459
 20
2.727786715125348
 30
0.0
 11
3.973946907395144
 21
2.789050592485282
 31
0.0
  0
LINE
  5
161
330
4E0
100
AcDbEntity
  8
option_sa
100
AcDbLine
 10
4.172490099911087
 20
2.873724192718719
 30
0.0
 11
4.055984235743872
 21
2.937309037016405
 31
0.0
  0
ARC
  5
162
330
4E0
100
AcDbEntity
  8
option_sa
100
AcDbCircle
 10
4.128790079685732
 20
2.801340231591222
 30
0.0
 40
0.0842950537430408
100
AcDbArc
 50
234.4756814862677
 51
62.64469113840124
  0
ARC
  5
163
330
4E0
100
AcDbEntity
  8
option_sa
100
AcDbCircle
 10
4.128790079685732
 20
2.801340231591222
 30
0.0
 40
0.1089292628087137
100
AcDbArc
 50
202.3302578892511
 51
100.5273986155575
  0
LWPOLYLINE
  5
164
330
4E0
100
AcDbEntity
  8
option_sa
100
AcDbPolyline
 90
        4
 70
     0
 43
0.0
 10
1.607536758325621
 20
2.901259206311557
 42
0.5107053858875276
 10
1.607536758325612
 20
2.797998926850494
 42
-0.5107053858875159
 10
1.607536758325621
 20
2.697639124177565
 42
-0.5397302473450178
 10
1.605610588810805
 20
2.799449165244559
 42
-0.5397302473450178
  0
ARC
  5
16A
330
4E0
100
AcDbEntity
  8
option_sa
100
AcDbCircle
 10
2.552447625661925
 20
0.1899251731972997
 30
0.0
 40
3.150132956469122
100
AcDbArc
 50
61.30701558492705
 51
91.57178904497754
  0
ARC
  5
16B
330
4E0
100
AcDbEntity
  8
option_sa
100
AcDbCircle
 10
2.54905246845331
 20
0.1674241972181343
 30
0.0
 40
2.969722185911746
100
AcDbArc
 50
61.49072909609822
 51
91.61727251044187
  0
LINE
  5
16C
330
4E0
100
AcDbEntity
  8
option_sa
100
AcDbLine
 10
2.465238052382167
 20
3.135963401128889
 30
0.0
 11
2.46604120091339
 21
3.338872866188573
 31
0.0
  0
ARC
  5
16D
330
4E0
100
AcDbEntity
  8
option_sa
100
AcDbCircle
 10
2.223600089810175
 20
3.202779644729933
 30
0.0
 40
0.0469218235072326
100
AcDbArc
 50
180.0
 51
270.0
  0
LWPOLYLINE
  5
16E
330
4E0
100
AcDbEntity
  8
option_sa
100
AcDbPolyline
 90
        3
 70
     0
 43
0.0
 10
2.225740655869302
 20
3.159856756698203
 42
0.3551655385017884
 10
2.317527570025383
 20
3.239363253015314
 42
-0.3351985284943452
 10
2.384053506871949
 20
3.318319803211657
 42
-0.5949761929811071
  0
LINE
  5
173
330
4E0
100
AcDbEntity
  8
option_sa
100
AcDbLine
 10
2.465235580882267
 20
3.155857821222702
 30
0.0
 11
2.223600089810175
 21
3.155857821222702
 31
0.0
  0
LINE
  5
174
330
4E0
100
AcDbEntity
  8
option_sa
100
AcDbLine
 10
2.465971446329734
 20
3.321249892722411
 30
0.0
 11
2.390433240058112
 21
3.321249892722407
 31
0.0
  0
ARC
  5
175
330
4E0
100
AcDbEntity
  8
option_sa
100
AcDbCircle
 10
2.390433240058112
 20
3.368171716229639
 30
0.0
 40
0.0469218235072326
100
AcDbArc
 50
180.0
 51
270.0
  0
LINE
  5
176
330
4E0
100
AcDbEntity
  8
option_sa
100
AcDbLine
 10
2.176678266302941
 20
3.467086057528232
 30
0.0
 11
2.176678266302941
 21
3.202779644729933
 31
0.0
  0
LINE
  5
177
330
4E0
100
AcDbEntity
  8
option_sa
100
AcDbLine
 10
2.176678266302941
 20
3.42115639413445
 30
0.0
 11
2.343511416550877
 21
3.42115639413445
 31
0.0
  0
LINE
  5
178
330
4E0
100
AcDbEntity
  8
option_sa
100
AcDbLine
 10
2.343511416550877
 20
3.467086057528232
 30
0.0
 11
2.343511416550877
 21
3.368171716229639
 31
0.0
  0
LINE
  5
179
330
4E0
100
AcDbEntity
  8
option_sa
100
AcDbLine
 10
2.192767129429979
 20
3.446215597672034
 30
0.0
 11
2.327781901284787
 21
3.446215597672034
 31
0.0
  0
TEXT
  5
17A
330
4E0
100
AcDbEntity
  8
text-sa-leaders
100
AcDbText
 10
4.598981182500883
 20
4.178629875182999
 30
0.0
 40
0.125
  1
1/2-INCH MALE NPT x .490 INCH
  7
SIMPLEX
100
AcDbText
  0
TEXT
  5
17B
330
4E0
100
AcDbEntity
  8
text-sa-leaders
100
AcDbText
 10
4.598981182500883
 20
3.846030235290999
 30
0.0
 40
0.125
  1
  MODEL SBE-050
  7
SIMPLEX
100
AcDbText
  0
TEXT
  5
17F
330
4E0
100
AcDbEntity
  8
text-sa-leaders
100
AcDbText
 10
4.598981182500883
 20
2.999053428985557
 30
0.0
 40
0.125
  1
PVC SCH 40 TEE OR ELL
  7
ROMANS
100
AcDbText
  0
TEXT
  5
180
330
4E0
100
AcDbEntity
  8
text-sa-leaders
100
AcDbText
 10
4.598981182500883
 20
1.872009806442019
 30
0.0
 40
0.125
  1
  MODEL SBE-050
  7
SIMPLEX
100
AcDbText
  0
TEXT
  5
181
330
4E0
100
AcDbEntity
  8
text-sa-leaders
100
AcDbText
 10
4.598981182500883
 20
2.204609446334019
 30
0.0
 40
0.125
  1
1/2-INCH MALE NPT x .490 INCH
  7
SIMPLEX
100
AcDbText
  0
TEXT
  5
182
330
4E0
100
AcDbEntity
  8
text-sa-leaders
100
AcDbText
 10
4.598981182500883
 20
2.038309626388019
 30
0.0
 40
0.125
  1
  BARB ELBOW:  RAIN BIRD
  7
SIMPLEX
100
AcDbText
  0
TEXT
  5
189
330
4E0
100
AcDbEntity
  8
text-sa-bubbles
100
AcDbText
 10
4.598981182500883
 20
4.31087726673793
 30
0.0
 40
0.125
  1
  MODEL SBE-050
  7
SIMPLEX
100
AcDbText
  0
TEXT
  5
18A
330
4E0
100
AcDbEntity
  8
text-sa-bubbles
100
AcDbText
 10
4.598981182500883
 20
4.47717708668393
 30
0.0
 40
0.125
  1
  BARB ELBOW:  RAIN BIRD
  7
SIMPLEX
100
AcDbText
  0
TEXT
  5
18B
330
4E0
100
AcDbEntity
  8
text-sa-bubbles
100
AcDbText
 10
4.598981182500883
 20
4.643476906629929
 30
0.0
 40
0.125
  1
1/2-INCH MALE NPT x .490 INCH
  7
SIMPLEX
100
AcDbText
  0
TEXT
  5
18C
330
4E0
100
AcDbEntity
  8
text-sa-bubbles
100
AcDbText
 10
4.598981182500883
 20
3.545720959422381
 30
0.0
 40
0.125
  1
  RAIN BIRD MODEL SP-100
  7
ROMANS
100
AcDbText
  0
TEXT
  5
18D
330
4E0
100
AcDbEntity
  8
text-sa-bubbles
100
AcDbText
 10
4.598981182500883
 20
3.726804802032212
 30
0.0
 40
0.125
  1
SWING PIPE, 12-INCH LENGTH:
  7
ROMANS
100
AcDbText
  0
TEXT
  5
190
330
4E0
100
AcDbEntity
  8
instruct-callout
100
AcDbText
 10
11.78918599722764
 20
8.438195803303189
 30
0.0
 40
0.10000000149
  1
TO TURN OFF THIS INSTRUCTION BOX, TURN OFF
  7
ROMANS
100
AcDbText
  0
TEXT
  5
191
330
4E0
100
AcDbEntity
  8
instruct-callout
100
AcDbText
 10
11.78918599722764
 20
8.276295759815189
 30
0.0
 40
0.10000000149
  1
LAYER "INSTRUCT-CALLOUT".
  7
ROMANS
100
AcDbText
  0
CIRCLE
  5
192
330
4E0
100
AcDbEntity
  8
instruct-callout
100
AcDbCircle
 10
14.83874841114958
 20
8.940107489676632
 30
0.0
 40
0.125
  0
TEXT
  5
193
330
4E0
100
AcDbEntity
  8
instruct-callout
100
AcDbText
 10
14.79827222067338
 20
8.890107489676632
 30
0.0
 40
0.1
  1
1
  7
ROMANS
 72
     4
 11
14.83874841114958
 21
8.940107489676632
 31
0.0
100
AcDbText
  0
LINE
  5
194
330
4E0
100
AcDbEntity
  8
instruct-callout
100
AcDbLine
 10
14.46228018544509
 20
8.83732777309881
 30
0.0
 11
14.71816160236993
 21
8.907186044563427
 31
0.0
  0
SOLID
  5
195
330
4E0
100
AcDbEntity
  8
instruct-callout
100
AcDbTrace
 10
14.53155459623689
 20
8.887338332078375
 30
0.0
 11
14.54735688989123
 21
8.829456663864146
 31
0.0
 12
14.36581073842137
 22
8.810990617008243
 32
0.0
 13
14.36581073842137
 23
8.810990617008243
 33
0.0
  0
TEXT
  5
196
330
4E0
100
AcDbEntity
  8
instruct-callout
100
AcDbText
 10
12.75371296800122
 20
8.92587506407747
 30
0.0
 40
0.10000000149
  1
ITEM 1
  7
ROMANS
100
AcDbText
  0
SOLID
  5
197
330
4E0
100
AcDbEntity
  8
instruct-callout
100
AcDbTrace
 10
12.38908526818747
 20
8.873912297526976
 30
0.0
 11
12.36603338329573
 21
8.929307338847822
 31
0.0
 12
12.21137420177906
 22
8.832454163512199
 32
0.0
 13
12.21137420177906
 23
8.832454163512199
 33
0.0
  0
LINE
  5
198
330
4E0
100
AcDbEntity
  8
instruct-callout
100
AcDbLine
 10
12.30369927064714
 20
8.870873971665087
 30
0.0
 11
12.59146968512546
 21
8.99062567347137
 31
0.0
  0
LINE
  5
199
330
4E0
100
AcDbEntity
  8
instruct-callout
100
AcDbLine
 10
12.59146968512546
 20
8.99062567347137
 30
0.0
 11
12.72773823098409
 21
8.990625673471368
 31
0.0
  0
TEXT
  5
19A
330
4E0
100
AcDbEntity
  8
instruct-callout
100
AcDbText
 10
12.28434503316867
 20
9.243096927172985
 30
0.0
 40
0.10000000149
  1
TEXT_LEADERS         TEXT_BUBBLES
  7
ROMANS
100
AcDbText
  0
TEXT
  5
19B
330
4E0
100
AcDbEntity
  8
instruct-callout
100
AcDbText
 10
11.84800130090585
 20
9.580114221648161
 30
0.0
 40
0.10000000149
  1
BY TURNING ON THE APPROPRIATE LAYER:
  7
ROMANS
100
AcDbText
  0
TEXT
  5
19C
330
4E0
100
AcDbEntity
  8
instruct-callout
100
AcDbText
 10
11.84800130090585
 20
9.742014265135161
 30
0.0
 40
0.10000000149
  1
CHOOSE EITHER LEADERS OR BUBBLE CALLOUTS
  7
ROMANS
100
AcDbText
  0
TEXT
  5
19D
330
4E0
100
AcDbEntity
  8
instruct-callout
100
AcDbText
 10
12.08075106995257
 20
10.11612532861004
 30
0.0
 40
0.10000000149
  1
CHOOSING EQUIPMENT CALLOUT METHOD
  7
ROMANS
100
AcDbText
  0
LWPOLYLINE
  5
19E
330
4E0
100
AcDbEntity
  8
instruct-callout
100
AcDbPolyline
 90
        4
 70
     1
 43
0.0
 10
11.75015865001054
 20
10.05900983789284
 10
11.75015865001054
 20
8.627523816550601
 10
16.18185544139262
 20
8.627523816550601
 10
16.18185544139262
 20
10.05900983789284
  0
TEXT
  5
1C0
330
4E0
100
AcDbEntity
  8
option-sam
100
AcDbText
 10
6.389168231104791
 20
5.023044131489722
 30
0.0
 40
0.125
  1
-SAM
  7
ROMANS
100
AcDbText
  0
LINE
  5
1C2
330
4E0
100
AcDbEntity
  8
image
100
AcDbLine
 10
3.845297397214829
 20
5.403722304830212
 30
0.0
 11
2.613823331887176
 21
5.403722304830212
 31
0.0
  0
LINE
  5
1C3
330
4E0
100
AcDbEntity
  8
image
100
AcDbLine
 10
3.391622675963607
 20
5.70531163678037
 30
0.0
 11
3.428435465240702
 21
5.403446764708213
 31
0.0
  0
LINE
  5
1C4
330
4E0
100
AcDbEntity
  8
image
100
AcDbLine
 10
3.576196882339048
 20
5.691468571302205
 30
0.0
 11
3.650026564889231
 21
5.40999290657967
 31
0.0
  0
LINE
  5
1C5
330
4E0
100
AcDbEntity
  8
image
100
AcDbLine
 10
3.728470602598785
 20
5.686854216142831
 30
0.0
 11
3.75504005117078
 21
5.403446764708213
 31
0.0
  0
LINE
  5
1C6
330
4E0
100
AcDbEntity
  8
image
100
AcDbLine
 10
3.827082012721581
 20
5.733200225732716
 30
0.0
 11
3.74762653294863
 21
5.403446764708213
 31
0.0
  0
LINE
  5
1C7
330
4E0
100
AcDbEntity
  8
image
100
AcDbLine
 10
3.354016310073359
 20
5.645265969459513
 30
0.0
 11
3.54950499936091
 21
5.403446764708213
 31
0.0
  0
LINE
  5
1C8
330
4E0
100
AcDbEntity
  8
image
100
AcDbLine
 10
3.497036173664682
 20
5.744192007766859
 30
0.0
 11
3.497036173664682
 21
5.403446764708213
 31
0.0
  0
LINE
  5
1C9
330
4E0
100
AcDbEntity
  8
image
100
AcDbLine
 10
3.662059093193136
 20
5.689233097596112
 30
0.0
 11
3.730459897519419
 21
5.403446764708224
 31
0.0
  0
LINE
  5
1CA
330
4E0
100
AcDbEntity
  8
image
100
AcDbLine
 10
3.778989619030427
 20
5.686854216142831
 30
0.0
 11
3.805559067602422
 21
5.403446764708213
 31
0.0
  0
LINE
  5
1CB
330
4E0
100
AcDbEntity
  8
image
100
AcDbLine
 10
3.202725392978807
 20
5.691468571302205
 30
0.0
 11
3.27655507552899
 21
5.40999290657967
 31
0.0
  0
LINE
  5
1CC
330
4E0
100
AcDbEntity
  8
image
100
AcDbLine
 10
3.354999113238544
 20
5.686854216142831
 30
0.0
 11
3.381568561810538
 21
5.403446764708213
 31
0.0
  0
LINE
  5
1CD
330
4E0
100
AcDbEntity
  8
image
100
AcDbLine
 10
3.233579963990071
 20
5.711216661664408
 30
0.0
 11
3.207909732063426
 21
5.403446764708224
 31
0.0
  0
LINE
  5
1CE
330
4E0
100
AcDbEntity
  8
image
100
AcDbLine
 10
3.123564684304442
 20
5.744192007766859
 30
0.0
 11
3.123564684304442
 21
5.403446764708213
 31
0.0
  0
LINE
  5
1CF
330
4E0
100
AcDbEntity
  8
image
100
AcDbLine
 10
3.288587603832895
 20
5.689233097596112
 30
0.0
 11
3.35698840815918
 21
5.403446764708224
 31
0.0
  0
LINE
  5
1D0
330
4E0
100
AcDbEntity
  8
image
100
AcDbLine
 10
3.585628858984107
 20
5.722208443698567
 30
0.0
 11
3.43370299656108
 21
5.403446764708213
 31
0.0
  0
LINE
  5
1D1
330
4E0
100
AcDbEntity
  8
image
100
AcDbLine
 10
3.288844306152155
 20
5.682239860983441
 30
0.0
 11
3.262471986234232
 21
5.403446764708213
 31
0.0
  0
LINE
  5
1D2
330
4E0
100
AcDbEntity
  8
image
100
AcDbLine
 10
3.00275428627022
 20
5.691468571302205
 30
0.0
 11
3.076583968820403
 21
5.40999290657967
 31
0.0
  0
LINE
  5
1D3
330
4E0
100
AcDbEntity
  8
image
100
AcDbLine
 10
2.923593577595855
 20
5.744192007766859
 30
0.0
 11
2.923593577595855
 21
5.403446764708213
 31
0.0
  0
LINE
  5
1D4
330
4E0
100
AcDbEntity
  8
image
100
AcDbLine
 10
3.088616497124308
 20
5.689233097596112
 30
0.0
 11
3.157017301450593
 21
5.403446764708224
 31
0.0
  0
LINE
  5
1D5
330
4E0
100
AcDbEntity
  8
image
100
AcDbLine
 10
3.385657752275522
 20
5.722208443698567
 30
0.0
 11
3.233731889852493
 21
5.403446764708213
 31
0.0
  0
LINE
  5
1D6
330
4E0
100
AcDbEntity
  8
image
100
AcDbLine
 10
2.670832948635822
 20
5.70531163678037
 30
0.0
 11
2.707645737912915
 21
5.403446764708213
 31
0.0
  0
LINE
  5
1D7
330
4E0
100
AcDbEntity
  8
image
100
AcDbLine
 10
2.855407155011261
 20
5.691468571302205
 30
0.0
 11
2.929236837561445
 21
5.40999290657967
 31
0.0
  0
LINE
  5
1D8
330
4E0
100
AcDbEntity
  8
image
100
AcDbLine
 10
3.106292285393793
 20
5.733200225732716
 30
0.0
 11
3.026836805620842
 21
5.403446764708213
 31
0.0
  0
LINE
  5
1D9
330
4E0
100
AcDbEntity
  8
image
100
AcDbLine
 10
2.886261726022525
 20
5.711216661664408
 30
0.0
 11
2.86059149409588
 21
5.403446764708224
 31
0.0
  0
LINE
  5
1DA
330
4E0
100
AcDbEntity
  8
image
100
AcDbLine
 10
2.633226582745572
 20
5.645265969459513
 30
0.0
 11
2.828715272033124
 21
5.403446764708213
 31
0.0
  0
LINE
  5
1DB
330
4E0
100
AcDbEntity
  8
image
100
AcDbLine
 10
2.776246446336896
 20
5.744192007766859
 30
0.0
 11
2.776246446336896
 21
5.403446764708213
 31
0.0
  0
LINE
  5
1DC
330
4E0
100
AcDbEntity
  8
image
100
AcDbLine
 10
2.94126936586535
 20
5.689233097596112
 30
0.0
 11
3.009670170191634
 21
5.403446764708224
 31
0.0
  0
LINE
  5
1DD
330
4E0
100
AcDbEntity
  8
image
100
AcDbLine
 10
3.238310621016561
 20
5.722208443698567
 30
0.0
 11
3.086384758593534
 21
5.403446764708213
 31
0.0
  0
LINE
  5
1DE
330
4E0
100
AcDbEntity
  8
image
100
AcDbLine
 10
2.745710395754434
 20
5.663782440345897
 30
0.0
 11
2.817092758429283
 21
5.403446764708213
 31
0.0
  0
LINE
  5
1DF
330
4E0
100
AcDbEntity
  8
image
100
AcDbLine
 10
2.611894096132238
 20
5.70531163678037
 30
0.0
 11
2.648706885409332
 21
5.403446764708213
 31
0.0
  0
LINE
  5
1E0
330
4E0
100
AcDbEntity
  8
image
100
AcDbLine
 10
2.948742022767416
 20
5.686854216142831
 30
0.0
 11
2.975311471339409
 21
5.403446764708213
 31
0.0
  0
LINE
  5
1E1
330
4E0
100
AcDbEntity
  8
image
100
AcDbLine
 10
3.047353432890211
 20
5.733200225732716
 30
0.0
 11
2.967897953117259
 21
5.403446764708213
 31
0.0
  0
LINE
  5
1E2
330
4E0
100
AcDbEntity
  8
image
100
AcDbLine
 10
2.827322873518943
 20
5.711216661664408
 30
0.0
 11
2.801652641592298
 21
5.403446764708224
 31
0.0
  0
LINE
  5
1E3
330
4E0
100
AcDbEntity
  8
image
100
AcDbLine
 10
2.717307593833313
 20
5.744192007766859
 30
0.0
 11
2.717307593833313
 21
5.403446764708213
 31
0.0
  0
LINE
  5
1E4
330
4E0
100
AcDbEntity
  8
image
100
AcDbLine
 10
3.179371768512978
 20
5.722208443698567
 30
0.0
 11
3.02744590608995
 21
5.403446764708213
 31
0.0
  0
LINE
  5
1E5
330
4E0
100
AcDbEntity
  8
image
100
AcDbLine
 10
3.714046027785151
 20
5.682239860983441
 30
0.0
 11
3.687673707867228
 21
5.403446764708213
 31
0.0
  0
LINE
  5
1E6
330
4E0
100
AcDbEntity
  8
image
100
AcDbLine
 10
3.427956007903215
 20
5.691468571302205
 30
0.0
 11
3.501785690453398
 21
5.40999290657967
 31
0.0
  0
LINE
  5
1E7
330
4E0
100
AcDbEntity
  8
image
100
AcDbLine
 10
3.678841138285748
 20
5.733200225732716
 30
0.0
 11
3.599385658512796
 21
5.403446764708213
 31
0.0
  0
LINE
  5
1E8
330
4E0
100
AcDbEntity
  8
image
100
AcDbLine
 10
3.34879529922885
 20
5.744192007766859
 30
0.0
 11
3.34879529922885
 21
5.403446764708213
 31
0.0
  0
LINE
  5
1E9
330
4E0
100
AcDbEntity
  8
image
100
AcDbLine
 10
3.513818218757304
 20
5.689233097596112
 30
0.0
 11
3.582219023083588
 21
5.403446764708224
 31
0.0
  0
LINE
  5
1EA
330
4E0
100
AcDbEntity
  8
image
100
AcDbLine
 10
3.810859473908516
 20
5.722208443698567
 30
0.0
 11
3.658933611485488
 21
5.403446764708213
 31
0.0
  0
INSERT
  5
1F5
330
4E0
100
AcDbEntity
  8
image
  6
Continuous
100
AcDbBlockReference
  2
*X0
 10
0.0
 20
0.0
 30
0.0
1001
ACAD
1000
HATCH
1002
{
1070
    19
1000
EARTH
1040
0.65
1040
0.7853981633974483
1000
R14_HATCH_DATA
1000
1F5
1011
1.0
1021
0.0
1031
0.0
1011
0.0
1021
1.0
1031
0.0
1011
0.0
1021
0.0
1031
1.0
1040
0.0
1010
0.0
1020
0.0
1030
1.0
1000
EARTH
1070
     0
1070
     0
1071
        2
1071
        7
1070
     0
1070
     1
1071
       14
1040
1.906969528217863
1040
5.357218630412784
1040
1.906969528217866
1040
5.403722304830211
1040
1.219026704767097
1040
5.403722304830213
1040
1.251798042566132
1040
5.318851045484525
1040
1.300314971628671
1040
5.194868942446845
1040
1.348612230454673
1040
5.073460573787963
1040
1.414123786299946
1040
5.025835044643385
1040
1.603416899341676
1040
4.819148360220654
1040
1.633871768961061
1040
4.793034687345111
1040
1.816581421932771
1040
4.749470170337134
1040
1.962304851449329
1040
4.725487972368916
1040
2.054407537523048
1040
4.718208533356014
1040
2.054407537523048
1040
5.221273034166101
1040
1.981331549636907
1040
5.221273034166102
1071
        0
1071
        7
1070
     0
1070
     1
1071
       15
1040
3.152132461771492
1040
5.193502257495029
1040
3.205492468967118
1040
5.247651171059565
1040
3.247533707782821
1040
5.342209701284866
1040
3.266937352019353
1040
5.403722304830211
1040
2.613823331887174
1040
5.403722304830212
1040
2.613823331887174
1040
5.357218630412784
1040
2.539461310468129
1040
5.2212730341661
1040
2.466385322581984
1040
5.221273034166102
1040
2.466385322581988
1040
4.720451561047259
1040
2.703423181574317
1040
4.949428102713975
1040
2.760825626698248
1040
4.993878697832047
1040
2.810951712460883
1040
5.001960617432807
1040
2.883715392802715
1040
5.019740855480042
1040
2.968606329110118
1040
5.044794832362122
1040
3.111708198127109
1040
5.123997704151805
1071
        0
1070
     0
1070
     1
1040
0.7853981633974483
1040
0.65
1070
     0
1070
     6
1040
0.7853981633974483
1040
0.317131856267582
1040
-0.7222276096252154
1040
0.0
1040
0.2298097038856279
1070
     2
1040
0.1625
1040
-0.1625
1040
0.7853981633974483
1040
0.2740425367890268
1040
-0.6791382901466602
1040
0.0
1040
0.2298097038856279
1070
     2
1040
0.1625
1040
-0.1625
1040
0.7853981633974483
1040
0.2309532173104715
1040
-0.6360489706681049
1040
0.0
1040
0.2298097038856279
1070
     2
1040
0.1625
1040
-0.1625
1040
2.356194490192344
1040
0.2309532173104715
1040
-0.6073227576824014
1040
-0.2298097038856279
1040
0.0
1070
     2
1040
0.1625
1040
-0.1625
1040
2.356194490192344
1040
0.2740425367890268
1040
-0.5642334382038462
1040
-0.2298097038856279
1040
0.0
1070
     2
1040
0.1625
1040
-0.1625
1040
2.356194490192344
1040
0.317131856267582
1040
-0.521144118725291
1040
-0.2298097038856279
1040
0.0
1070
     2
1040
0.1625
1040
-0.1625
1040
0.0017236619931563
1071
        2
1040
1.723421774404996
1040
5.223695247618972
1040
0.0
1040
2.809721953291943
1040
5.175432706480047
1040
0.0
1002
}
  0
LINE
  5
2AB
330
4E0
100
AcDbEntity
  8
instruct-option
100
AcDbLine
 10
11.75050704977685
 20
7.955951015768698
 30
0.0
 11
11.75050704977685
 21
4.978442155974516
 31
0.0
  0
LINE
  5
2B5
330
4E0
100
AcDbEntity
  8
instruct-option
100
AcDbLine
 10
11.75050704977685
 20
4.978442155974516
 30
0.0
 11
16.15110553653834
 21
4.978442155974516
 31
0.0
  0
LINE
  5
2C8
330
4E0
100
AcDbEntity
  8
instruct-option
100
AcDbLine
 10
16.15110553653834
 20
7.955951015768697
 30
0.0
 11
11.75050704977685
 21
7.955951015768698
 31
0.0
  0
LINE
  5
39F
330
4E0
100
AcDbEntity
  8
option_rb_sa
100
AcDbLine
 10
2.192889044125118
 20
3.437048321774873
 30
0.0
 11
2.327903815979926
 21
3.437048321774873
 31
0.0
  0
TEXT
  5
3A0
330
4E0
100
AcDbEntity
  8
text-rb-sa-bubbles
100
AcDbText
 10
4.199400654615947
 20
4.592281527903216
 30
0.0
 40
0.125
  1
3
  7
ROMANS
 72
     4
 11
4.258924464139756
 21
4.654781527903216
 31
0.0
100
AcDbText
  0
TEXT
  5
3A1
330
4E0
100
AcDbEntity
  8
text-rb-sa-bubbles
100
AcDbText
 10
4.203316897565333
 20
4.257072554320767
 30
0.0
 40
0.125
  1
4
  7
ROMANS
 72
     4
 11
4.265816897565333
 21
4.319572554320767
 31
0.0
100
AcDbText
  0
CIRCLE
  5
3A2
330
4E0
100
AcDbEntity
  8
text-rb-sa-bubbles
100
AcDbCircle
 10
4.265816897565333
 20
4.319572554320767
 30
0.0
 40
0.15625
  0
CIRCLE
  5
3A3
330
4E0
100
AcDbEntity
  8
text-rb-sa-bubbles
100
AcDbCircle
 10
4.258924464139756
 20
4.654781527903216
 30
0.0
 40
0.15625
  0
TEXT
  5
3A4
330
4E0
100
AcDbEntity
  8
text-rb-sa-bubbles
100
AcDbText
 10
4.199400654615947
 20
3.858429447285038
 30
0.0
 40
0.125
  1
5
  7
ROMANS
 72
     4
 11
4.258924464139756
 21
3.920929447285038
 31
0.0
100
AcDbText
  0
CIRCLE
  5
3A5
330
4E0
100
AcDbEntity
  8
text-rb-sa-bubbles
100
AcDbCircle
 10
4.258924464139756
 20
3.920929447285038
 30
0.0
 40
0.15625
  0
TEXT
  5
3A6
330
4E0
100
AcDbEntity
  8
text-rb-sa-bubbles
100
AcDbText
 10
4.598981182500883
 20
3.864952182347783
 30
0.0
 40
0.125
  1
PVC SCH 40 TEE OR ELL
  7
ROMANS
100
AcDbText
  0
TEXT
  5
3A7
330
4E0
100
AcDbEntity
  8
text-rb-sa-bubbles
100
AcDbText
 10
4.598981182500883
 20
4.608710444567776
 30
0.0
 40
0.125
  1
PVC LATERAL PIPE
  7
ROMANS
100
AcDbText
  0
TEXT
  5
3A8
330
4E0
100
AcDbEntity
  8
text-rb-sa-bubbles
100
AcDbText
 10
4.598981182500883
 20
4.118695465787161
 30
0.0
 40
0.125
  1
  RAIN BIRD MODEL SA 6050
  7
ROMANS
100
AcDbText
  0
TEXT
  5
3A9
330
4E0
100
AcDbEntity
  8
text-rb-sa-bubbles
100
AcDbText
 10
4.598981182500883
 20
4.27560540841416
 30
0.0
 40
0.125
  1
SWING ASSEMBLY:
  7
ROMANS
100
AcDbText
  0
TEXT
  5
3AB
330
4E0
100
AcDbEntity
  8
text-rb-sa-leaders
100
AcDbText
 10
4.615063220638749
 20
3.546872384431041
 30
0.0
 40
0.125
  1
SWING ASSEMBLY:
  7
ROMANS
100
AcDbText
  0
LINE
  5
3AD
330
4E0
100
AcDbEntity
  8
option_rb_sa
100
AcDbLine
 10
4.347519906490026
 20
2.655121190903139
 30
0.0
 11
4.347519906490026
 21
2.944287230785349
 31
0.0
  0
LINE
  5
3AE
330
4E0
100
AcDbEntity
  8
option_rb_sa
100
AcDbLine
 10
4.347519906490026
 20
2.899813133730777
 30
0.0
 11
4.6846164260239
 21
2.899813133730777
 31
0.0
  0
LINE
  5
3AF
330
4E0
100
AcDbEntity
  8
option_rb_sa
100
AcDbLine
 10
4.347519906490026
 20
2.696193051596785
 30
0.0
 11
4.6846164260239
 21
2.696193051596785
 31
0.0
  0
LWPOLYLINE
  5
3B1
330
4E0
100
AcDbEntity
  8
option_rb_sa
100
AcDbPolyline
 90
        4
 70
     0
 43
0.0
 10
4.6846164260239
 20
2.899813133730777
 42
-0.5107053858875276
 10
4.684616426023911
 20
2.796552854269714
 42
0.5107053858875159
 10
4.6846164260239
 20
2.696193051596785
 42
0.5397302473450178
 10
4.686542595538716
 20
2.798003092663779
 42
0.5397302473450178
  0
TEXT
  5
3B2
330
4E0
100
AcDbEntity
  8
text-rb-sa-bubbles
100
AcDbText
 10
4.385003767429934
 20
1.927750243806751
 30
0.0
 40
0.125
  1
5
  7
ROMANS
 72
     4
 11
4.444527576953744
 21
1.990250243806751
 31
0.0
100
AcDbText
  0
CIRCLE
  5
3B3
330
4E0
100
AcDbEntity
  8
text-rb-sa-bubbles
100
AcDbCircle
 10
4.444527576953744
 20
1.990250243806751
 30
0.0
 40
0.15625
  0
LINE
  5
3B7
330
4E0
100
AcDbEntity
  8
option_rb_sa
100
AcDbLine
 10
2.432022640559444
 20
3.240163640035513
 30
0.0
 11
2.40344204638182
 21
3.249346769799685
 31
0.0
  0
LINE
  5
3B8
330
4E0
100
AcDbEntity
  8
option_rb_sa
100
AcDbLine
 10
2.347113658385863
 20
3.467941052104118
 30
0.0
 11
2.347113658385863
 21
3.20951749349542
 31
0.0
  0
LINE
  5
3B9
330
4E0
100
AcDbEntity
  8
option_rb_sa
100
AcDbLine
 10
2.383386072162234
 20
3.080584545505454
 30
0.0
 11
2.323304914735603
 21
3.100256158065169
 31
0.0
  0
LINE
  5
3BA
330
4E0
100
AcDbEntity
  8
option_rb_sa
100
AcDbLine
 10
2.377645615057603
 20
3.061749809068783
 30
0.0
 11
2.436802350923064
 21
3.255846116761934
 31
0.0
  0
LINE
  5
3BC
330
4E0
100
AcDbEntity
  8
option_rb_sa
100
AcDbLine
 10
3.975710116034788
 20
2.734004172712181
 30
0.0
 11
3.915668013037582
 21
2.751934186342498
 31
0.0
  0
LINE
  5
3BD
330
4E0
100
AcDbEntity
  8
option_rb_sa
100
AcDbLine
 10
3.742701191760409
 20
2.775355437535389
 30
0.0
 11
3.742701191760409
 21
2.655121190903139
 31
0.0
  0
LINE
  5
3BE
330
4E0
100
AcDbEntity
  8
option_rb_sa
100
AcDbLine
 10
3.970371384943809
 20
2.934171211153198
 30
0.0
 11
3.912034211303441
 21
2.7398286580413
 31
0.0
  0
ARC
  5
3BF
330
4E0
100
AcDbEntity
  8
option_rb_sa
100
AcDbCircle
 10
4.046590426008423
 20
2.799894159010441
 30
0.0
 40
0.1267079420559205
100
AcDbArc
 50
204.5463070897701
 51
122.199916707569
  0
LINE
  5
3C0
330
4E0
100
AcDbEntity
  8
option_rb_sa
100
AcDbLine
 10
4.023447430524244
 20
2.893861761918904
 30
0.0
 11
3.963633168386097
 21
2.911723736798001
 31
0.0
  0
ARC
  5
3C1
330
4E0
100
AcDbEntity
  8
option_rb_sa
100
AcDbCircle
 10
4.046590426008423
 20
2.799894159010441
 30
0.0
 40
0.0967755580523473
100
AcDbArc
 50
222.910381779526
 51
103.8358420178157
  0
TEXT
  5
3C3
330
4E0
100
AcDbEntity
  8
text-rb-sa-bubbles
100
AcDbText
 10
3.442209925363142
 20
3.583467127499955
 30
0.0
 40
0.1253
  1
4
  7
ROMANS
 72
     4
 11
3.504859925363142
 21
3.646117127499955
 31
0.0
100
AcDbText
  0
TEXT
  5
3C5
330
4E0
100
AcDbEntity
  8
text-rb-sa-bubbles
100
AcDbText
 10
2.328200673981311
 20
1.92761048692622
 30
0.0
 40
0.125
  1
3
  7
ROMANS
 72
     4
 11
2.38772448350512
 21
1.99011048692622
 31
0.0
100
AcDbText
  0
CIRCLE
  5
3C6
330
4E0
100
AcDbEntity
  8
text-rb-sa-bubbles
100
AcDbCircle
 10
2.38772448350512
 20
1.99011048692622
 30
0.0
 40
0.15625
  0
CIRCLE
  5
3C8
330
4E0
100
AcDbEntity
  8
text-rb-sa-bubbles
100
AcDbCircle
 10
3.504859925363142
 20
3.646117127499955
 30
0.0
 40
0.156625
  0
LINE
  5
3CB
330
4E0
100
AcDbEntity
  8
option_rb_sa
100
AcDbLine
 10
3.970371384943809
 20
2.934171211153198
 30
0.0
 11
2.436802350923064
 21
3.255846116761933
 31
0.0
  0
LINE
  5
3CC
330
4E0
100
AcDbEntity
  8
option_rb_sa
100
AcDbLine
 10
2.377645623108153
 20
3.061749835483051
 30
0.0
 11
3.912034211303441
 21
2.7398286580413
 31
0.0
  0
LINE
  5
3CE
330
4E0
100
AcDbEntity
  8
option_rb_sa
100
AcDbLine
 10
4.347519906490026
 20
2.944287230785349
 30
0.0
 11
3.936878754645012
 21
2.944287230785344
 31
0.0
  0
LINE
  5
3CF
330
4E0
100
AcDbEntity
  8
option_rb_sa
100
AcDbLine
 10
3.742701191760409
 20
2.655121190903139
 30
0.0
 11
4.347519906490026
 21
2.655121190903139
 31
0.0
  0
LINE
  5
3D2
330
4E0
100
AcDbEntity
  8
option_rb_sa
100
AcDbLine
 10
2.172491994678208
 20
3.208829008146146
 30
0.0
 11
2.172491994678207
 21
3.467941052104118
 31
0.0
  0
LWPOLYLINE
  5
3D3
330
4E0
100
AcDbEntity
  8
option_rb_sa
100
AcDbPolyline
 90
        4
 70
     0
 43
0.0
 10
1.608246129356984
 20
2.899813133730777
 42
0.5107053858875276
 10
1.608246129356975
 20
2.796552854269714
 42
-0.5107053858875159
 10
1.608246129356984
 20
2.696193051596785
 42
-0.5397302473450178
 10
1.606319959842168
 20
2.798003092663779
 42
-0.5397302473450178
  0
LINE
  5
3D4
330
4E0
100
AcDbEntity
  8
option_rb_sa
100
AcDbLine
 10
3.14949241229192
 20
2.899813133730776
 30
0.0
 11
1.608246129356983
 21
2.899813133730777
 31
0.0
  0
LINE
  5
3D5
330
4E0
100
AcDbEntity
  8
option_rb_sa
100
AcDbLine
 10
3.742701191760409
 20
2.696193051596785
 30
0.0
 11
1.608246129356983
 21
2.696193051596785
 31
0.0
  0
ARC
  5
3D6
330
4E0
100
AcDbEntity
  8
option_rb_sa
100
AcDbCircle
 10
2.259802826532035
 20
3.230471335025316
 30
0.0
 40
0.1448741092016656
100
AcDbArc
 50
127.0611407962445
 51
52.93885920375984
  0
LINE
  5
3D7
330
4E0
100
AcDbEntity
  8
option_rb_sa
100
AcDbLine
 10
2.172491994678207
 20
3.411989118237289
 30
0.0
 11
2.347113658385863
 21
3.411989118237289
 31
0.0
  0
ARC
  5
3D8
330
4E0
100
AcDbEntity
  8
option_rb_sa
100
AcDbCircle
 10
2.259673402680824
 20
3.241999233604317
 30
0.0
 40
0.0932784099256874
100
AcDbArc
 50
200.8304993914682
 51
339.6213013705944
  0
TEXT
  5
3D9
330
4E0
100
AcDbEntity
  8
text-rb-sa-leaders
100
AcDbText
 10
4.581020776609779
 20
1.48137761117668
 30
0.0
 40
0.125
  1
PVC LATERAL PIPE
  7
ROMANS
100
AcDbText
  0
TEXT
  5
3DA
330
4E0
100
AcDbEntity
  8
text-rb-sa-leaders
100
AcDbText
 10
4.615063220638749
 20
3.389962441804041
 30
0.0
 40
0.125
  1
  RAIN BIRD MODEL SA 6050
  7
ROMANS
100
AcDbText
  0
TEXT
  5
3DB
330
4E0
100
AcDbEntity
  8
text-rb-sa-leaders
100
AcDbText
 10
4.598981182500883
 20
1.930660757682878
 30
0.0
 40
0.125
  1
PVC SCH 40 TEE OR ELL
  7
ROMANS
100
AcDbText
  0
LINE
  5
3E1
330
4E0
100
AcDbEntity
  8
instruct-option
100
AcDbLine
 10
16.15110553653834
 20
4.978442155974516
 30
0.0
 11
16.15110553653834
 21
7.955951015768697
 31
0.0
  0
TEXT
  5
54C
330
4E0
100
AcDbEntity
  8
instruct-option
100
AcDbText
 10
11.81939717789979
 20
6.689959894388792
 30
0.0
 40
0.1000000014900002
  1
TURNING ON THE APPROPRIATE LAYER:
  7
ROMANS
100
AcDbText
  0
TEXT
  5
54D
330
4E0
100
AcDbEntity
  8
instruct-option
100
AcDbText
 10
11.81939717789979
 20
6.830178305410161
 30
0.0
 40
0.1000000014900002
  1
SELECT THE DESIRED SWING ASSEMBLY BY
  7
ROMANS
100
AcDbText
  0
TEXT
  5
54E
330
4E0
100
AcDbEntity
  8
instruct-option
100
AcDbText
 10
11.84004264466873
 20
5.184538436460441
 30
0.0
 40
0.1
  1
  %%uOR%%u TEXT-RB-SA-BUBBLES
  7
ROMANS
100
AcDbText
  0
TEXT
  5
54F
330
4E0
100
AcDbEntity
  8
instruct-option
100
AcDbText
 10
11.84004264466873
 20
5.351777120489203
 30
0.0
 40
0.1
  1
  %%uAND EITHER%%u TEXT-RB-SA-LEADERS
  7
ROMANS
100
AcDbText
  0
TEXT
  5
550
330
4E0
100
AcDbEntity
  8
instruct-option
100
AcDbText
 10
11.84004264466873
 20
5.491777120489204
 30
0.0
 40
0.1
  1
  OPTION-RB-SA
  7
ROMANS
100
AcDbText
  0
TEXT
  5
551
330
4E0
100
AcDbEntity
  8
instruct-option
100
AcDbText
 10
11.84004264466873
 20
5.942377002184999
 30
0.0
 40
0.1
  1
  %%uOR%%u TEXT-SA-BUBBLES
  7
ROMANS
100
AcDbText
  0
TEXT
  5
552
330
4E0
100
AcDbEntity
  8
instruct-option
100
AcDbText
 10
11.84004264466873
 20
6.105387637365482
 30
0.0
 40
0.1
  1
  %%uAND EITHER%%u TEXT-SA-LEADERS
  7
ROMANS
100
AcDbText
  0
TEXT
  5
557
330
4E0
100
AcDbEntity
  8
instruct-option
100
AcDbText
 10
11.84004264466873
 20
6.245387637365483
 30
0.0
 40
0.1
  1
  OPTION-SA
  7
ROMANS
100
AcDbText
  0
TEXT
  5
55A
330
4E0
100
AcDbEntity
  8
instruct-option
100
AcDbText
 10
11.84004264466873
 20
5.675544848162085
 30
0.0
 40
0.1
  1
%%uRAIN BIRD SWING ASSEMBLY%%u
  7
ROMANS
100
AcDbText
  0
TEXT
  5
55B
330
4E0
100
AcDbEntity
  8
instruct-option
100
AcDbText
 10
11.84004264466873
 20
6.460309031967181
 30
0.0
 40
0.1
  1
%%uCONTRACTOR ASSEMBLED SWING ASSEMBLY%%u
  7
ROMANS
100
AcDbText
  0
TEXT
  5
55E
330
4E0
100
AcDbEntity
  8
instruct-option
100
AcDbText
 10
11.79920715842937
 20
4.643591817312783
 30
0.0
 40
0.1
  1
LAYER "INSTRUCT-OPTION".
  7
ROMANS
100
AcDbText
  0
TEXT
  5
55F
330
4E0
100
AcDbEntity
  8
instruct-option
100
AcDbText
 10
11.79920715842937
 20
4.813512388739985
 30
0.0
 40
0.1
  1
TO TURN OFF THIS INSTRUCTION BOX, TURN OFF
  7
ROMANS
100
AcDbText
  0
TEXT
  5
560
330
4E0
100
AcDbEntity
  8
instruct-option
100
AcDbText
 10
11.96066618424428
 20
7.991069642342318
 30
0.0
 40
0.1
  1
CHOOSING NOZZLES AND OPTIONAL FEATURES
  7
ROMANS
100
AcDbText
  0
TEXT
  5
565
330
4E0
100
AcDbEntity
  8
instruct-option
100
AcDbText
 10
11.81659112040843
 20
7.686856479888054
 30
0.0
 40
0.1
  1
CHOOSE ONE OF THE FOLLOWING OPTIONS
  7
ROMANS
100
AcDbText
  0
TEXT
  5
566
330
4E0
100
AcDbEntity
  8
instruct-option
100
AcDbText
 10
11.81659112040843
 20
7.546856479888053
 30
0.0
 40
0.1
  1
BY TURNING ON THE APPROPRIATE LAYER:
  7
ROMANS
100
AcDbText
  0
TEXT
  5
567
330
4E0
100
AcDbEntity
  8
instruct-option
100
AcDbText
 10
11.84004264466873
 20
7.328859409640066
 30
0.0
 40
0.1
  1
%%uSAM SERIES%%u
  7
ROMANS
100
AcDbText
  0
TEXT
  5
568
330
4E0
100
AcDbEntity
  8
instruct-option
100
AcDbText
 10
11.84004264466873
 20
7.124784453386268
 30
0.0
 40
0.1
  1
  OPTION-SAM
  7
ROMANS
100
AcDbText
  0
INSERT
  5
5B3
330
4E0
100
AcDbEntity
  8
title
100
AcDbBlockReference
 66
     1
  2
titleblock
 10
-0.0916749879134358
 20
-0.097854729324645
 30
0.0
  0
ATTRIB
  5
5B4
330
5B3
100
AcDbEntity
  8
title
100
AcDbText
 10
0.413880615888905
 20
0.6863723671537226
 30
0.0
 40
0.2
  1
D
  7
L200
 72
     4
 11
0.5147673826010469
 21
0.7863723671537226
 31
0.0
100
AcDbAttribute
  2
D
 70
     0
  0
ATTRIB
  5
5B5
330
5B3
100
AcDbEntity
  8
title
100
AcDbText
 10
1.139767382601046
 20
1.245857573422105
 30
0.0
 40
0.2
  1

  7
L200
100
AcDbAttribute
  2
TITLE1
 70
     0
  0
ATTRIB
  5
5B6
330
5B3
100
AcDbEntity
  8
title
100
AcDbText
 10
1.139767382601046
 20
0.8863723671537222
 30
0.0
 40
0.2
  1
1804 POP-UP SPRAY SPRINKLER
  7
L200
100
AcDbAttribute
  2
TITLE2
 70
     0
  0
ATTRIB
  5
5B7
330
5B3
100
AcDbEntity
  8
title
100
AcDbText
 10
2.621970763254875
 20
0.4949380371336734
 30
0.0
 40
0.2
  1
WITH ROTARY NOZZLE
  7
L200
100
AcDbAttribute
  2
TITLE3
 70
     0
  0
ATTRIB
  5
5B8
330
5B3
100
AcDbEntity
  8
title
100
AcDbText
 10
2.621970763254875
 20
0.1714013514921291
 30
0.0
 40
0.2
  1

  7
L200
100
AcDbAttribute
  2
TITLE4
 70
     0
  0
ATTRIB
  5
5B9
330
5B3
100
AcDbEntity
  8
title
 62
     7
100
AcDbText
 10
7.601730318243418
 20
0.8717480622199946
 30
0.0
 40
0.08
  1
6-24-08
  7
L80
 72
     2
 11
8.169349365862466
 21
0.8717480622199946
 31
0.0
100
AcDbAttribute
  2
REVISED
 70
     0
  0
ATTRIB
  5
5BA
330
5B3
100
AcDbEntity
  8
title
 62
     7
100
AcDbText
 10
0.1722673826010457
 20
-0.0131430813039231
 30
0.0
 40
0.08
  1
S-1804Rotary-SJ.DWG
  7
L80
100
AcDbAttribute
  2
DWG-NAME
 70
     0
  0
ATTRIB
  5
5BB
330
5B3
100
AcDbEntity
  8
title
 62
     7
100
AcDbText
 10
1.139767382601046
 20
0.6027090500708443
 30
0.0
 40
0.1
  1
N.T.S.
  7
L100
100
AcDbAttribute
  2
SCALE
 70
     0
  0
SEQEND
  5
5BC
330
5B3
100
AcDbEntity
  8
image
  0
LEADER
  5
5D3
330
4E0
100
AcDbEntity
  8
text-sa-bubbles
100
AcDbLeader
  3
STANDARD
 76
     2
 10
4.028600501217661
 20
2.759645930213615
 30
0.0
 10
3.92973793810377
 20
2.146798900026694
 30
0.0
  0
LEADER
  5
5D4
330
4E0
100
AcDbEntity
  8
text-sa-bubbles
100
AcDbLeader
  3
STANDARD
 76
     2
 10
2.521605931739833
 20
2.697639124177565
 30
0.0
 10
2.66008743727819
 20
2.143202181191264
 30
0.0
  0
LEADER
  5
5D5
330
4E0
100
AcDbEntity
  8
text-sa-bubbles
100
AcDbLeader
  3
STANDARD
 76
     2
 10
4.358002305642816
 20
2.656567263483919
 30
0.0
 10
4.486364936163576
 20
2.142643153669141
 30
0.0
  0
LEADER
  5
5D6
330
4E0
100
AcDbEntity
  8
text-sa-bubbles
100
AcDbLeader
  3
STANDARD
 76
     2
 10
2.788524868946875
 20
3.126672393121915
 30
0.0
 10
3.034906468847483
 20
2.144296345712801
 30
0.0
  0
LEADER
  5
5D7
330
4E0
100
AcDbEntity
  8
text-sa-bubbles
100
AcDbLeader
  3
STANDARD
 76
     2
 10
2.176678266302941
 20
3.291338406428518
 30
0.0
 10
0.7111383247544963
 20
3.653532502146791
 30
0.0
  0
LEADER
  5
5D9
330
4E0
100
AcDbEntity
  8
text_bubbles
100
AcDbLeader
  3
STANDARD
 76
     2
 10
1.057972699677611
 20
5.403722304830212
 30
0.0
 10
0.7055784965783271
 20
5.5823797628831
 30
0.0
  0
LEADER
  5
5DA
330
4E0
100
AcDbEntity
  8
text_bubbles
100
AcDbLeader
  3
STANDARD
 76
     2
 10
2.054407537523053
 20
4.511687148350608
 30
0.0
 10
0.7111383247544963
 20
5.075285388808097
 30
0.0
  0
LEADER
  5
5DF
330
4E0
100
AcDbEntity
  8
text-rb-sa-bubbles
100
AcDbLeader
  3
STANDARD
 76
     2
 10
2.935571799861579
 20
3.151226362548999
 30
0.0
 10
3.355033037463827
 20
3.600474008769897
 30
0.0
  0
LEADER
  5
5E0
330
4E0
100
AcDbEntity
  8
text-rb-sa-bubbles
100
AcDbLeader
  3
STANDARD
 76
     2
 10
2.21159104675476
 20
2.696193051596785
 30
0.0
 10
2.350072552293119
 20
2.141756108610484
 30
0.0
  0
LEADER
  5
5E1
330
4E0
100
AcDbEntity
  8
text-rb-sa-bubbles
100
AcDbLeader
  3
STANDARD
 76
     2
 10
4.275802651965506
 20
2.655121190903139
 30
0.0
 10
4.404165282486266
 20
2.141197081088361
 30
0.0
  0
LEADER
  5
5E3
330
4E0
100
AcDbEntity
  8
text_leaders
100
AcDbLeader
  3
STANDARD
 76
     3
 10
2.466809964883034
 20
4.464097690615241
 30
0.0
 10
4.386652568005093
 20
5.262713407756148
 30
0.0
 10
4.567567160615043
 20
5.262713407756147
 30
0.0
  0
LEADER
  5
5E5
330
4E0
100
AcDbEntity
  8
text_leaders
100
AcDbLeader
  3
STANDARD
 76
     3
 10
3.845297397214829
 20
5.403722304830214
 30
0.0
 10
4.386652568005095
 20
5.628999816770719
 30
0.0
 10
4.567567160615043
 20
5.628999816770718
 30
0.0
  0
LEADER
  5
5ED
330
4E0
100
AcDbEntity
  8
text-rb-sa-leaders
100
AcDbLeader
  3
STANDARD
 76
     3
 10
3.845994847754247
 20
2.656375889192451
 30
0.0
 10
4.213653403720329
 20
1.978745572386575
 30
0.0
 10
4.567567160615043
 20
1.978745572386575
 30
0.0
211
-1.0
221
0.0
231
0.0
210
0.0
220
0.0
230
-1.0
  0
LEADER
  5
5EF
330
4E0
100
AcDbEntity
  8
text-rb-sa-leaders
100
AcDbLeader
  3
STANDARD
 76
     3
 10
3.295672483256399
 20
2.697447749886098
 30
0.0
 10
3.954834834713872
 20
1.525904860516726
 30
0.0
 10
4.567567160615043
 20
1.525904860516726
 30
0.0
211
-1.0
221
0.0
231
0.0
210
0.0
220
0.0
230
-1.0
  0
LEADER
  5
5F1
330
4E0
100
AcDbEntity
  8
text-rb-sa-leaders
100
AcDbLeader
  3
STANDARD
 76
     3
 10
3.163313953217355
 20
3.119355552493977
 30
0.0
 10
4.304452914327788
 20
3.596606679920884
 30
0.0
 10
4.567567160615043
 20
3.596606679920884
 30
0.0
  0
LEADER
  5
5F4
330
4E0
100
AcDbEntity
  8
text-sa-leaders
100
AcDbLeader
  3
STANDARD
 76
     3
 10
3.722575729242022
 20
2.697639124177566
 30
0.0
 10
4.386652568005095
 20
1.526096234808194
 30
0.0
 10
4.567567160615043
 20
1.526096234808193
 30
0.0
211
-1.0
221
0.0
231
0.0
210
0.0
220
0.0
230
-1.0
  0
LEADER
  5
5F6
330
4E0
100
AcDbEntity
  8
text-sa-leaders
100
AcDbLeader
  3
STANDARD
 76
     3
 10
4.135950320394777
 20
2.717349833101093
 30
0.0
 10
4.386652568005094
 20
2.262266520376494
 30
0.0
 10
4.567567160615043
 20
2.262266520376494
 30
0.0
211
-1.0
221
0.0
231
0.0
210
0.0
220
0.0
230
-1.0
  0
LEADER
  5
5F8
330
4E0
100
AcDbEntity
  8
text-sa-leaders
100
AcDbLeader
  3
STANDARD
 76
     3
 10
4.094633353322078
 20
2.945733303366125
 30
0.0
 10
4.453386619320546
 20
3.048787724475399
 30
0.0
 10
4.567567160615043
 20
3.048787724475398
 30
0.0
  0
LEADER
  5
5FA
330
4E0
100
AcDbEntity
  8
text-sa-leaders
100
AcDbLeader
  3
STANDARD
 76
     3
 10
3.371864387306353
 20
3.231617763543841
 30
0.0
 10
4.386652568005093
 20
3.653907913946797
 30
0.0
 10
4.567567160615043
 20
3.653907913946796
 30
0.0
  0
LEADER
  5
5FB
330
4E0
100
AcDbEntity
  8
text-sa-leaders
100
AcDbLeader
  3
STANDARD
 76
     3
 10
2.363237322161455
 20
3.394270511956172
 30
0.0
 10
4.386652568005093
 20
4.236286949225474
 30
0.0
 10
4.567567160615043
 20
4.236286949225474
 30
0.0
  0
TEXT
  5
614
330
4E0
100
AcDbEntity
  8
text_bubbles
100
AcDbText
 10
4.598981182500883
 20
4.859414172016236
 30
0.0
 40
0.125
  1
  WITH RAIN BIRD ROTARY NOZZLE
  7
ROMANS
100
AcDbText
  0
ARC
  5
6EC
330
4E0
100
AcDbEntity
  8
image
100
AcDbCircle
 10
2.260396430052522
 20
5.242967230582643
 30
0.0
 40
0.2165783160917459
100
AcDbArc
 50
47.92336398940312
 51
132.0766360105968
  0
TEXT
  5
705
330
4E0
100
AcDbEntity
  8
text_leaders
100
AcDbText
 10
4.598981182500883
 20
4.859414172016236
 30
0.0
 40
0.125
  1
  WITH RAIN BIRD ROTARY NOZZLE
  7
ROMANS
100
AcDbText
  0
ENDSEC
  0
SECTION
  2
OBJECTS
  0
DICTIONARY
  5
4CE
330
0
100
AcDbDictionary
281
     1
  3
ACAD_COLOR
350
645
  3
ACAD_GROUP
350
4CF
  3
ACAD_LAYOUT
350
4DB
  3
ACAD_MATERIAL
350
61B
  3
ACAD_MLEADERSTYLE
350
66A
  3
ACAD_MLINESTYLE
350
4D8
  3
ACAD_PLOTSETTINGS
350
4DA
  3
ACAD_PLOTSTYLENAME
350
4D0
  3
ACAD_SCALELIST
350
648
  3
ACAD_TABLESTYLE
350
646
  3
ACAD_VISUALSTYLE
350
634
  3
ACDB_RECOMPOSE_DATA
350
793
  3
AcDbVariableDictionary
350
513
1001
BBSI_PltSel
1000
1
1000

1001
BBSI_Bookmarks
1000
1
1000
1
1000
0
1000
1
1000
0
1000
0
1000
0
1000
0
1000
0
1000
0
1000
0
1001
BBSI_Plots
1000

1000
User123
1000
215.900009155273
1000
279.399993896484
1000
1
1000
4
1000
1
1000
0
1000
0
1000
1
1000
0
1000
1
1000
0.937902254691744
1000
0
1000
1
1000
Color.ctb
1000
0
1000
0
1000
1
1000
1
1000
0
1000
0
1000
-0.128254533614006
1000
-0.155991589773837
1000
16.4355599869241
1000
10.3770033439571
1000

1000

  0
DICTIONARY
  5
51F
330
4C4
100
AcDbDictionary
280
     1
281
     1
  3
ACAD_LAYERFILTERS
360
810
  3
ACAD_LAYERSTATES
360
520
  0
DICTIONARY
  5
645
102
{ACAD_REACTORS
330
4CE
102
}
330
4CE
100
AcDbDictionary
281
     1
  0
DICTIONARY
  5
4CF
102
{ACAD_REACTORS
330
4CE
102
}
330
4CE
100
AcDbDictionary
281
     1
  0
DICTIONARY
  5
4DB
102
{ACAD_REACTORS
330
4CE
102
}
330
4CE
100
AcDbDictionary
281
     1
  3
Layout1
350
4DF
  3
Model
350
4E3
  0
DICTIONARY
  5
61B
102
{ACAD_REACTORS
330
4CE
102
}
330
4CE
100
AcDbDictionary
281
     1
  3
ByBlock
350
624
  3
ByLayer
350
61C
  3
Global
350
62C
  0
DICTIONARY
  5
66A
102
{ACAD_REACTORS
330
4CE
102
}
330
4CE
100
AcDbDictionary
281
     1
  3
Standard
350
6E4
  0
DICTIONARY
  5
4D8
102
{ACAD_REACTORS
330
4CE
102
}
330
4CE
100
AcDbDictionary
281
     1
  3
Standard
350
4D9
  0
DICTIONARY
  5
4DA
102
{ACAD_REACTORS
330
4CE
102
}
330
4CE
100
AcDbDictionary
281
     1
  0
ACDBDICTIONARYWDFLT
  5
4D0
102
{ACAD_REACTORS
330
4CE
102
}
330
4CE
100
AcDbDictionary
281
     1
  3
Normal
350
4D1
100
AcDbDictionaryWithDefault
340
4D1
  0
DICTIONARY
  5
648
102
{ACAD_REACTORS
330
4CE
102
}
330
4CE
100
AcDbDictionary
281
     1
  3
A0
350
649
  3
A1
350
81C
  3
A2
350
81D
  3
A3
350
81E
  3
A4
350
81F
  3
A5
350
820
  3
A6
350
821
  3
A7
350
822
  3
A8
350
823
  3
A9
350
824
  3
B0
350
825
  3
B1
350
826
  3
B2
350
827
  3
B3
350
828
  3
B4
350
829
  3
B5
350
82A
  3
B6
350
82B
  3
B7
350
82C
  3
B8
350
82D
  3
B9
350
82E
  3
C0
350
82F
  3
C1
350
830
  3
C2
350
831
  3
C3
350
832
  3
C4
350
833
  3
C5
350
834
  3
C6
350
835
  3
C7
350
836
  3
C8
350
837
  3
C9
350
838
  3
D0
350
839
  3
D1
350
83A
  3
D2
350
83B
  0
DICTIONARY
  5
646
102
{ACAD_REACTORS
330
4CE
102
}
330
4CE
100
AcDbDictionary
281
     1
  3
Standard
350
647
  0
DICTIONARY
  5
634
102
{ACAD_REACTORS
330
4CE
102
}
330
4CE
100
AcDbDictionary
281
     1
  3
2dWireframe
350
63A
  3
3D Hidden
350
63C
  3
3dWireframe
350
63B
  3
Basic
350
639
  3
Brighten
350
640
  3
ColorChange
350
644
  3
Conceptual
350
63D
  3
Dim
350
63F
  3
Facepattern
350
643
  3
Flat
350
635
  3
FlatWithEdges
350
636
  3
Gouraud
350
637
  3
GouraudWithEdges
350
638
  3
Linepattern
350
642
  3
Realistic
350
63E
  3
Thicken
350
641
  0
XRECORD
  5
793
102
{ACAD_REACTORS
330
4CE
102
}
330
4CE
100
AcDbXrecord
280
     1
 90
        1
330
647
  0
DICTIONARY
  5
513
102
{ACAD_REACTORS
330
4CE
102
}
330
4CE
100
AcDbDictionary
281
     1
  3
CANNOSCALE
350
796
  3
CMLEADERSTYLE
350
7D1
  3
CTABLESTYLE
350
794
  3
DIMASSOC
350
516
  3
HIDETEXT
350
515
  3
LAYEREVAL
350
798
  3
LIGHTINGUNITS
350
797
  3
MSLTSCALE
350
795
  3
SORTENTS
350
514
  3
UPDATETHUMBNAIL
350
7D2
  0
DICTIONARY
  5
810
102
{ACAD_REACTORS
330
51F
102
}
330
51F
100
AcDbDictionary
281
     1
  3
_0100-
350
813
  3
_0280-
350
812
  3
_Color 253
350
816
  3
_Color 8
350
814
  3
_Color 84
350
815
  3
_Contours
350
81B
  3
_Existing
350
817
  3
_Hardscape
350
81A
  3
_NoXref
350
811
  3
_Row
350
818
  3
_Utility
350
819
  0
DICTIONARY
  5
520
102
{ACAD_REACTORS
330
51F
102
}
330
51F
100
AcDbDictionary
281
     1
  0
LAYOUT
  5
4DF
102
{ACAD_REACTORS
330
4DB
102
}
330
4DB
100
AcDbPlotSettings
  1

  2
S:\AutoCAD 2002\Plotters\1055B&WDraftShaded.pc3
  4

  6

 40
0.0
 41
0.0
 42
0.0
 43
0.0
 44
0.0
 45
0.0
 46
0.0
 47
0.0
 48
0.0
 49
0.0
140
0.0
141
0.0
142
1.0
143
1.0
 70
   688
 72
     0
 73
     0
 74
     5
  7
8500ColorShaded.ctb
 75
    16
147
1.0
 76
     0
 77
     2
 78
   300
148
0.0
149
0.0
100
AcDbLayout
  1
Layout1
 70
     1
 71
     1
 10
0.0
 20
0.0
 11
12.0
 21
9.0
 12
0.0
 22
0.0
 32
0.0
 14
1.000000000000000E+20
 24
1.000000000000000E+20
 34
1.000000000000000E+20
 15
-1.000000000000000E+20
 25
-1.000000000000000E+20
 35
-1.000000000000000E+20
146
0.0
 13
0.0
 23
0.0
 33
0.0
 16
1.0
 26
0.0
 36
0.0
 17
0.0
 27
1.0
 37
0.0
 76
     0
330
4DC
  0
LAYOUT
  5
4E3
102
{ACAD_REACTORS
330
4DB
102
}
330
4DB
100
AcDbPlotSettings
  1

  2
8500ColorShaded.pc3
  4
Letter
  6

 40
5.027082920074462
 41
5.027070522308349
 42
5.027099609375
 43
5.027084350585937
 44
279.3999938964844
 45
215.8999938964844
 46
0.0
 47
0.0
 48
7.663858036417532
 49
-3.090597652711787
140
15.26477396019783
141
5.07064620808942
142
1.0
143
1.007042916425405
 70
 11952
 72
     0
 73
     0
 74
     4
  7
8500colorshaded.ctb
 75
     0
147
0.9930063393421161
 76
     0
 77
     2
 78
   300
148
-194.6619941250053
149
78.5011803788794
100
AcDbLayout
  1
Model
 70
     1
 71
     0
 10
0.0
 20
0.0
 11
12.0
 21
9.0
 12
0.0
 22
0.0
 32
0.0
 14
0.0
 24
0.0
 34
0.0
 15
0.0
 25
0.0
 35
0.0
146
0.0
 13
0.0
 23
0.0
 33
0.0
 16
1.0
 26
0.0
 36
0.0
 17
0.0
 27
1.0
 37
0.0
 76
     0
330
4E0
331
619
1001
ACAD_PSEXT
1000
8500ColorShaded.pc3
1000
HP Color LaserJet 8500 PS
1000
BACK
1000

1070
     0
  0
MATERIAL
  5
624
102
{ACAD_XDICTIONARY
360
625
102
}
102
{ACAD_REACTORS
330
61B
102
}
330
61B
100
AcDbMaterial
  1
ByBlock
 72
     0
 43
0.0208333333333333
 43
0.0
 43
0.0
 43
0.0
 43
0.0
 43
0.0208333333333333
 43
0.0
 43
0.0
 43
0.0
 43
0.0
 43
1.0
 43
0.0
 43
0.0
 43
0.0
 43
0.0
 43
1.0
 77
     0
 47
0.0208333333333333
 47
0.0
 47
0.0
 47
0.0
 47
0.0
 47
0.0208333333333333
 47
0.0
 47
0.0
 47
0.0
 47
0.0
 47
1.0
 47
0.0
 47
0.0
 47
0.0
 47
0.0
 47
1.0
171
     0
 49
0.0208333333333333
 49
0.0
 49
0.0
 49
0.0
 49
0.0
 49
0.0208333333333333
 49
0.0
 49
0.0
 49
0.0
 49
0.0
 49
1.0
 49
0.0
 49
0.0
 49
0.0
 49
0.0
 49
1.0
175
     0
142
0.0208333333333333
142
0.0
142
0.0
142
0.0
142
0.0
142
0.0208333333333333
142
0.0
142
0.0
142
0.0
142
0.0
142
1.0
142
0.0
142
0.0
142
0.0
142
0.0
142
1.0
179
     0
144
0.0208333333333333
144
0.0
144
0.0
144
0.0
144
0.0
144
0.0208333333333333
144
0.0
144
0.0
144
0.0
144
0.0
144
1.0
144
0.0
144
0.0
144
0.0
144
0.0
144
1.0
147
0.0208333333333333
147
0.0
147
0.0
147
0.0
147
0.0
147
0.0208333333333333
147
0.0
147
0.0
147
0.0
147
0.0
147
1.0
147
0.0
147
0.0
147
0.0
147
0.0
147
1.0
  0
MATERIAL
  5
61C
102
{ACAD_XDICTIONARY
360
61D
102
}
102
{ACAD_REACTORS
330
61B
102
}
330
61B
100
AcDbMaterial
  1
ByLayer
 72
     0
 43
0.0208333333333333
 43
0.0
 43
0.0
 43
0.0
 43
0.0
 43
0.0208333333333333
 43
0.0
 43
0.0
 43
0.0
 43
0.0
 43
1.0
 43
0.0
 43
0.0
 43
0.0
 43
0.0
 43
1.0
 77
     0
 47
0.0208333333333333
 47
0.0
 47
0.0
 47
0.0
 47
0.0
 47
0.0208333333333333
 47
0.0
 47
0.0
 47
0.0
 47
0.0
 47
1.0
 47
0.0
 47
0.0
 47
0.0
 47
0.0
 47
1.0
171
     0
 49
0.0208333333333333
 49
0.0
 49
0.0
 49
0.0
 49
0.0
 49
0.0208333333333333
 49
0.0
 49
0.0
 49
0.0
 49
0.0
 49
1.0
 49
0.0
 49
0.0
 49
0.0
 49
0.0
 49
1.0
175
     0
142
0.0208333333333333
142
0.0
142
0.0
142
0.0
142
0.0
142
0.0208333333333333
142
0.0
142
0.0
142
0.0
142
0.0
142
1.0
142
0.0
142
0.0
142
0.0
142
0.0
142
1.0
179
     0
144
0.0208333333333333
144
0.0
144
0.0
144
0.0
144
0.0
144
0.0208333333333333
144
0.0
144
0.0
144
0.0
144
0.0
144
1.0
144
0.0
144
0.0
144
0.0
144
0.0
144
1.0
147
0.0208333333333333
147
0.0
147
0.0
147
0.0
147
0.0
147
0.0208333333333333
147
0.0
147
0.0
147
0.0
147
0.0
147
1.0
147
0.0
147
0.0
147
0.0
147
0.0
147
1.0
  0
MATERIAL
  5
62C
102
{ACAD_XDICTIONARY
360
62D
102
}
102
{ACAD_REACTORS
330
61B
102
}
330
61B
100
AcDbMaterial
  1
Global
 72
     0
 43
0.0208333333333333
 43
0.0
 43
0.0
 43
0.0
 43
0.0
 43
0.0208333333333333
 43
0.0
 43
0.0
 43
0.0
 43
0.0
 43
1.0
 43
0.0
 43
0.0
 43
0.0
 43
0.0
 43
1.0
 77
     0
 47
0.0208333333333333
 47
0.0
 47
0.0
 47
0.0
 47
0.0
 47
0.0208333333333333
 47
0.0
 47
0.0
 47
0.0
 47
0.0
 47
1.0
 47
0.0
 47
0.0
 47
0.0
 47
0.0
 47
1.0
171
     0
 49
0.0208333333333333
 49
0.0
 49
0.0
 49
0.0
 49
0.0
 49
0.0208333333333333
 49
0.0
 49
0.0
 49
0.0
 49
0.0
 49
1.0
 49
0.0
 49
0.0
 49
0.0
 49
0.0
 49
1.0
175
     0
142
0.0208333333333333
142
0.0
142
0.0
142
0.0
142
0.0
142
0.0208333333333333
142
0.0
142
0.0
142
0.0
142
0.0
142
1.0
142
0.0
142
0.0
142
0.0
142
0.0
142
1.0
179
     0
144
0.0208333333333333
144
0.0
144
0.0
144
0.0
144
0.0
144
0.0208333333333333
144
0.0
144
0.0
144
0.0
144
0.0
144
1.0
144
0.0
144
0.0
144
0.0
144
0.0
144
1.0
147
0.0208333333333333
147
0.0
147
0.0
147
0.0
147
0.0
147
0.0208333333333333
147
0.0
147
0.0
147
0.0
147
0.0
147
1.0
147
0.0
147
0.0
147
0.0
147
0.0
147
1.0
  0
MLEADERSTYLE
  5
6E4
102
{ACAD_REACTORS
330
66A
102
}
330
66A
100
AcDbMLeaderStyle
170
     2
171
     1
172
     0
 90
        2
 40
0.0
 41
0.0
173
     1
 91
-1056964608
340
4D5
 92
       -2
290
     1
 42
0.09
291
     1
 43
0.36
  3
Standard
 44
0.18
300

342
4D3
174
     1
178
     6
175
     1
176
     0
 93
-1056964608
 45
0.18
292
     0
297
     0
 46
0.18
 94
-1056964608
 47
1.0
 49
1.0
140
1.0
293
     1
141
0.0
294
     1
177
     0
142
1.0
295
     0
296
     0
143
0.125
1001
ACAD_MLEADERVER
1070
     2
  0
MLINESTYLE
  5
4D9
102
{ACAD_REACTORS
330
4D8
102
}
330
4D8
100
AcDbMlineStyle
  2
STANDARD
 70
     0
  3

 62
   256
 51
90.0
 52
90.0
 71
     2
 49
0.5
 62
   256
  6
BYLAYER
 49
-0.5
 62
   256
  6
BYLAYER
  0
ACDBPLACEHOLDER
  5
4D1
102
{ACAD_REACTORS
330
4D0
102
}
330
4D0
  0
SCALE
  5
649
102
{ACAD_REACTORS
330
648
102
}
330
648
100
AcDbScale
 70
     0
300
1:1
140
1.0
141
1.0
290
     1
  0
SCALE
  5
81C
102
{ACAD_REACTORS
330
648
102
}
330
648
100
AcDbScale
 70
     0
300
1:2
140
1.0
141
2.0
290
     0
  0
SCALE
  5
81D
102
{ACAD_REACTORS
330
648
102
}
330
648
100
AcDbScale
 70
     0
300
1:4
140
1.0
141
4.0
290
     0
  0
SCALE
  5
81E
102
{ACAD_REACTORS
330
648
102
}
330
648
100
AcDbScale
 70
     0
300
1:5
140
1.0
141
5.0
290
     0
  0
SCALE
  5
81F
102
{ACAD_REACTORS
330
648
102
}
330
648
100
AcDbScale
 70
     0
300
1:8
140
1.0
141
8.0
290
     0
  0
SCALE
  5
820
102
{ACAD_REACTORS
330
648
102
}
330
648
100
AcDbScale
 70
     0
300
1:10
140
1.0
141
10.0
290
     0
  0
SCALE
  5
821
102
{ACAD_REACTORS
330
648
102
}
330
648
100
AcDbScale
 70
     0
300
1:16
140
1.0
141
16.0
290
     0
  0
SCALE
  5
822
102
{ACAD_REACTORS
330
648
102
}
330
648
100
AcDbScale
 70
     0
300
1:20
140
1.0
141
20.0
290
     0
  0
SCALE
  5
823
102
{ACAD_REACTORS
330
648
102
}
330
648
100
AcDbScale
 70
     0
300
1:30
140
1.0
141
30.0
290
     0
  0
SCALE
  5
824
102
{ACAD_REACTORS
330
648
102
}
330
648
100
AcDbScale
 70
     0
300
1:40
140
1.0
141
40.0
290
     0
  0
SCALE
  5
825
102
{ACAD_REACTORS
330
648
102
}
330
648
100
AcDbScale
 70
     0
300
1:50
140
1.0
141
50.0
290
     0
  0
SCALE
  5
826
102
{ACAD_REACTORS
330
648
102
}
330
648
100
AcDbScale
 70
     0
300
1:100
140
1.0
141
100.0
290
     0
  0
SCALE
  5
827
102
{ACAD_REACTORS
330
648
102
}
330
648
100
AcDbScale
 70
     0
300
2:1
140
2.0
141
1.0
290
     0
  0
SCALE
  5
828
102
{ACAD_REACTORS
330
648
102
}
330
648
100
AcDbScale
 70
     0
300
4:1
140
4.0
141
1.0
290
     0
  0
SCALE
  5
829
102
{ACAD_REACTORS
330
648
102
}
330
648
100
AcDbScale
 70
     0
300
8:1
140
8.0
141
1.0
290
     0
  0
SCALE
  5
82A
102
{ACAD_REACTORS
330
648
102
}
330
648
100
AcDbScale
 70
     0
300
10:1
140
10.0
141
1.0
290
     0
  0
SCALE
  5
82B
102
{ACAD_REACTORS
330
648
102
}
330
648
100
AcDbScale
 70
     0
300
100:1
140
100.0
141
1.0
290
     0
  0
SCALE
  5
82C
102
{ACAD_REACTORS
330
648
102
}
330
648
100
AcDbScale
 70
     0
300
1/128" = 1'-0"
140
0.0078125
141
12.0
290
     0
  0
SCALE
  5
82D
102
{ACAD_REACTORS
330
648
102
}
330
648
100
AcDbScale
 70
     0
300
1/64" = 1'-0"
140
0.015625
141
12.0
290
     0
  0
SCALE
  5
82E
102
{ACAD_REACTORS
330
648
102
}
330
648
100
AcDbScale
 70
     0
300
1/32" = 1'-0"
140
0.03125
141
12.0
290
     0
  0
SCALE
  5
82F
102
{ACAD_REACTORS
330
648
102
}
330
648
100
AcDbScale
 70
     0
300
1/16" = 1'-0"
140
0.0625
141
12.0
290
     0
  0
SCALE
  5
830
102
{ACAD_REACTORS
330
648
102
}
330
648
100
AcDbScale
 70
     0
300
3/32" = 1'-0"
140
0.09375
141
12.0
290
     0
  0
SCALE
  5
831
102
{ACAD_REACTORS
330
648
102
}
330
648
100
AcDbScale
 70
     0
300
1/8" = 1'-0"
140
0.125
141
12.0
290
     0
  0
SCALE
  5
832
102
{ACAD_REACTORS
330
648
102
}
330
648
100
AcDbScale
 70
     0
300
3/16" = 1'-0"
140
0.1875
141
12.0
290
     0
  0
SCALE
  5
833
102
{ACAD_REACTORS
330
648
102
}
330
648
100
AcDbScale
 70
     0
300
1/4" = 1'-0"
140
0.25
141
12.0
290
     0
  0
SCALE
  5
834
102
{ACAD_REACTORS
330
648
102
}
330
648
100
AcDbScale
 70
     0
300
3/8" = 1'-0"
140
0.375
141
12.0
290
     0
  0
SCALE
  5
835
102
{ACAD_REACTORS
330
648
102
}
330
648
100
AcDbScale
 70
     0
300
1/2" = 1'-0"
140
0.5
141
12.0
290
     0
  0
SCALE
  5
836
102
{ACAD_REACTORS
330
648
102
}
330
648
100
AcDbScale
 70
     0
300
3/4" = 1'-0"
140
0.75
141
12.0
290
     0
  0
SCALE
  5
837
102
{ACAD_REACTORS
330
648
102
}
330
648
100
AcDbScale
 70
     0
300
1" = 1'-0"
140
1.0
141
12.0
290
     0
  0
SCALE
  5
838
102
{ACAD_REACTORS
330
648
102
}
330
648
100
AcDbScale
 70
     0
300
1-1/2" = 1'-0"
140
1.5
141
12.0
290
     0
  0
SCALE
  5
839
102
{ACAD_REACTORS
330
648
102
}
330
648
100
AcDbScale
 70
     0
300
3" = 1'-0"
140
3.0
141
12.0
290
     0
  0
SCALE
  5
83A
102
{ACAD_REACTORS
330
648
102
}
330
648
100
AcDbScale
 70
     0
300
6" = 1'-0"
140
6.0
141
12.0
290
     0
  0
SCALE
  5
83B
102
{ACAD_REACTORS
330
648
102
}
330
648
100
AcDbScale
 70
     0
300
1'-0" = 1'-0"
140
12.0
141
12.0
290
     0
  0
TABLESTYLE
  5
647
102
{ACAD_XDICTIONARY
360
791
102
}
102
{ACAD_REACTORS
330
646
102
}
330
646
100
AcDbTableStyle
  3
Standard
 70
     0
 71
     0
 40
0.06
 41
0.06
280
     0
281
     0
  7
STANDARD
140
0.18
170
     2
 62
     0
 63
     7
283
     0
274
    -2
284
     1
 64
     0
275
    -2
285
     1
 65
     0
276
    -2
286
     1
 66
     0
277
    -2
287
     1
 67
     0
278
    -2
288
     1
 68
     0
279
    -2
289
     1
 69
     0
  7
STANDARD
140
0.25
170
     5
 62
     0
 63
     7
283
     0
274
    -2
284
     1
 64
     0
275
    -2
285
     1
 65
     0
276
    -2
286
     1
 66
     0
277
    -2
287
     1
 67
     0
278
    -2
288
     1
 68
     0
279
    -2
289
     1
 69
     0
  7
STANDARD
140
0.18
170
     5
 62
     0
 63
     7
283
     0
274
    -2
284
     1
 64
     0
275
    -2
285
     1
 65
     0
276
    -2
286
     1
 66
     0
277
    -2
287
     1
 67
     0
278
    -2
288
     1
 68
     0
279
    -2
289
     1
 69
     0
  0
VISUALSTYLE
  5
63A
102
{ACAD_REACTORS
330
634
102
}
330
634
100
AcDbVisualStyle
  2
2dWireframe
 70
     4
 71
     0
 72
     2
 73
     0
 90
        0
 40
-0.6
 41
-30.0
 62
     5
 63
     7
421
 16777215
 74
     1
 91
        4
 64
     7
 65
   257
 75
     1
175
     1
 42
1.0
 92
        0
 66
   257
 43
1.0
 76
     1
 77
     6
 78
     2
 67
     7
 79
     5
170
     0
171
     0
290
     0
174
     0
 93
        1
 44
0.0
173
     0
291
     0
 45
0.0
1001
ACAD
1000
AcDbSavedByObjectVersion
1070
     0
  0
VISUALSTYLE
  5
63C
102
{ACAD_REACTORS
330
634
102
}
330
634
100
AcDbVisualStyle
  2
3D Hidden
 70
     6
 71
     1
 72
     2
 73
     2
 90
        0
 40
-0.6
 41
-30.0
 62
     5
 63
     7
421
 16777215
 74
     2
 91
        2
 64
     7
 65
   257
 75
     2
175
     1
 42
40.0
 92
        0
 66
   257
 43
1.0
 76
     1
 77
     6
 78
     2
 67
     7
 79
     3
170
     0
171
     0
290
     0
174
     0
 93
        1
 44
0.0
173
     0
291
     0
 45
0.0
1001
ACAD
1000
AcDbSavedByObjectVersion
1070
     0
  0
VISUALSTYLE
  5
63B
102
{ACAD_REACTORS
330
634
102
}
330
634
100
AcDbVisualStyle
  2
3dWireframe
 70
     5
 71
     0
 72
     2
 73
     0
 90
        0
 40
-0.6
 41
-30.0
 62
     5
 63
     7
421
 16777215
 74
     1
 91
        4
 64
     7
 65
   257
 75
     1
175
     1
 42
1.0
 92
        0
 66
   257
 43
1.0
 76
     1
 77
     6
 78
     2
 67
     7
 79
     5
170
     0
171
     0
290
     0
174
     0
 93
        1
 44
0.0
173
     0
291
     0
 45
0.0
1001
ACAD
1000
AcDbSavedByObjectVersion
1070
     0
  0
VISUALSTYLE
  5
639
102
{ACAD_REACTORS
330
634
102
}
330
634
100
AcDbVisualStyle
  2
Basic
 70
     7
 71
     1
 72
     0
 73
     1
 90
        0
 40
-0.6
 41
-30.0
 62
     5
 63
     7
421
 16777215
 74
     0
 91
        4
 64
     7
 65
   257
 75
     1
175
     1
 42
1.0
 92
        8
 66
     7
 43
1.0
 76
     1
 77
     6
 78
     2
 67
     7
 79
     5
170
     0
171
     0
290
     0
174
     0
 93
        1
 44
0.0
173
     0
291
     1
 45
0.0
1001
ACAD
1000
AcDbSavedByObjectVersion
1070
     0
  0
VISUALSTYLE
  5
640
102
{ACAD_REACTORS
330
634
102
}
330
634
100
AcDbVisualStyle
  2
Brighten
 70
    12
 71
     2
 72
     2
 73
     0
 90
        0
 40
-0.6
 41
-30.0
 62
     5
 63
     7
421
 16777215
 74
     1
 91
        4
 64
     7
 65
   257
 75
     1
175
     1
 42
1.0
 92
        8
 66
     7
 43
1.0
 76
     1
 77
     6
 78
     2
 67
     7
 79
     5
170
     0
171
     0
290
     0
174
     0
 93
        1
 44
50.0
173
     0
291
     1
 45
0.0
1001
ACAD
1000
AcDbSavedByObjectVersion
1070
     0
  0
VISUALSTYLE
  5
644
102
{ACAD_REACTORS
330
634
102
}
330
634
100
AcDbVisualStyle
  2
ColorChange
 70
    16
 71
     2
 72
     2
 73
     3
 90
        0
 40
-0.6
 41
-30.0
 62
     5
 63
     8
421
  8421504
 74
     1
 91
        4
 64
     7
 65
   257
 75
     1
175
     1
 42
1.0
 92
        8
 66
     8
424
  8421504
 43
1.0
 76
     1
 77
     6
 78
     2
 67
     7
 79
     5
170
     0
171
     0
290
     0
174
     0
 93
        1
 44
0.0
173
     0
291
     1
 45
0.0
1001
ACAD
1000
AcDbSavedByObjectVersion
1070
     0
  0
VISUALSTYLE
  5
63D
102
{ACAD_REACTORS
330
634
102
}
330
634
100
AcDbVisualStyle
  2
Conceptual
 70
     9
 71
     3
 72
     2
 73
     0
 90
        0
 40
-0.6
 41
-30.0
 62
     5
 63
     7
421
 16777215
 74
     2
 91
        2
 64
     7
 65
   257
 75
     1
175
     1
 42
40.0
 92
        8
 66
     7
 43
1.0
 76
     1
 77
     6
 78
     2
 67
     7
 79
     3
170
     0
171
     0
290
     0
174
     0
 93
        1
 44
0.0
173
     0
291
     0
 45
0.0
1001
ACAD
1000
AcDbSavedByObjectVersion
1070
     0
  0
VISUALSTYLE
  5
63F
102
{ACAD_REACTORS
330
634
102
}
330
634
100
AcDbVisualStyle
  2
Dim
 70
    11
 71
     2
 72
     2
 73
     0
 90
        0
 40
-0.6
 41
-30.0
 62
     5
 63
     7
421
 16777215
 74
     1
 91
        4
 64
     7
 65
   257
 75
     1
175
     1
 42
1.0
 92
        8
 66
     7
 43
1.0
 76
     1
 77
     6
 78
     2
 67
     7
 79
     5
170
     0
171
     0
290
     0
174
     0
 93
        1
 44
-50.0
173
     0
291
     1
 45
0.0
1001
ACAD
1000
AcDbSavedByObjectVersion
1070
     0
  0
VISUALSTYLE
  5
643
102
{ACAD_REACTORS
330
634
102
}
330
634
100
AcDbVisualStyle
  2
Facepattern
 70
    15
 71
     2
 72
     2
 73
     0
 90
        0
 40
-0.6
 41
-30.0
 62
     5
 63
     7
421
 16777215
 74
     1
 91
        4
 64
     7
 65
   257
 75
     1
175
     1
 42
1.0
 92
        8
 66
     7
 43
1.0
 76
     1
 77
     6
 78
     2
 67
     7
 79
     5
170
     0
171
     0
290
     0
174
     0
 93
        1
 44
0.0
173
     0
291
     1
 45
0.0
1001
ACAD
1000
AcDbSavedByObjectVersion
1070
     0
  0
VISUALSTYLE
  5
635
102
{ACAD_REACTORS
330
634
102
}
330
634
100
AcDbVisualStyle
  2
Flat
 70
     0
 71
     2
 72
     1
 73
     1
 90
        2
 40
-0.6
 41
30.0
 62
     5
 63
     7
421
 16777215
 74
     0
 91
        4
 64
     7
 65
   257
 75
     1
175
     1
 42
1.0
 92
        8
 66
     7
 43
1.0
 76
     1
 77
     6
 78
     2
 67
     7
 79
     5
170
     0
171
     0
290
     0
174
     0
 93
       13
 44
0.0
173
     0
291
     1
 45
0.0
1001
ACAD
1000
AcDbSavedByObjectVersion
1070
     0
  0
VISUALSTYLE
  5
636
102
{ACAD_REACTORS
330
634
102
}
330
634
100
AcDbVisualStyle
  2
FlatWithEdges
 70
     1
 71
     2
 72
     1
 73
     1
 90
        2
 40
-0.6
 41
30.0
 62
     5
 63
     7
421
 16777215
 74
     1
 91
        4
 64
     7
 65
   257
 75
     1
175
     1
 42
1.0
 92
        0
 66
   257
 43
1.0
 76
     1
 77
     6
 78
     2
 67
     7
 79
     5
170
     0
171
     0
290
     0
174
     0
 93
       13
 44
0.0
173
     0
291
     1
 45
0.0
1001
ACAD
1000
AcDbSavedByObjectVersion
1070
     0
  0
VISUALSTYLE
  5
637
102
{ACAD_REACTORS
330
634
102
}
330
634
100
AcDbVisualStyle
  2
Gouraud
 70
     2
 71
     2
 72
     2
 73
     1
 90
        2
 40
-0.6
 41
30.0
 62
     5
 63
     7
421
 16777215
 74
     0
 91
        4
 64
     7
 65
   257
 75
     1
175
     1
 42
1.0
 92
        0
 66
     7
 43
1.0
 76
     1
 77
     6
 78
     2
 67
     7
 79
     5
170
     0
171
     0
290
     0
174
     0
 93
       13
 44
0.0
173
     0
291
     1
 45
0.0
1001
ACAD
1000
AcDbSavedByObjectVersion
1070
     0
  0
VISUALSTYLE
  5
638
102
{ACAD_REACTORS
330
634
102
}
330
634
100
AcDbVisualStyle
  2
GouraudWithEdges
 70
     3
 71
     2
 72
     2
 73
     1
 90
        2
 40
-0.6
 41
30.0
 62
     5
 63
     7
421
 16777215
 74
     1
 91
        4
 64
     7
 65
   257
 75
     1
175
     1
 42
1.0
 92
        0
 66
   257
 43
1.0
 76
     1
 77
     6
 78
     2
 67
     7
 79
     5
170
     0
171
     0
290
     0
174
     0
 93
       13
 44
0.0
173
     0
291
     1
 45
0.0
1001
ACAD
1000
AcDbSavedByObjectVersion
1070
     0
  0
VISUALSTYLE
  5
642
102
{ACAD_REACTORS
330
634
102
}
330
634
100
AcDbVisualStyle
  2
Linepattern
 70
    14
 71
     2
 72
     2
 73
     0
 90
        0
 40
-0.6
 41
-30.0
 62
     5
 63
     7
421
 16777215
 74
     1
 91
        4
 64
     7
 65
   257
 75
     7
175
     7
 42
1.0
 92
        8
 66
     7
 43
1.0
 76
     1
 77
     6
 78
     2
 67
     7
 79
     5
170
     0
171
     0
290
     0
174
     0
 93
        1
 44
0.0
173
     0
291
     1
 45
0.0
1001
ACAD
1000
AcDbSavedByObjectVersion
1070
     0
  0
VISUALSTYLE
  5
63E
102
{ACAD_REACTORS
330
634
102
}
330
634
100
AcDbVisualStyle
  2
Realistic
 70
     8
 71
     2
 72
     2
 73
     0
 90
        0
 40
-0.6
 41
-30.0
 62
     5
 63
     7
421
 16777215
 74
     1
 91
        0
 64
     7
 65
   257
 75
     1
175
     1
 42
1.0
 92
        8
 66
     8
424
  7895160
 43
1.0
 76
     1
 77
     6
 78
     2
 67
     7
 79
     5
170
     0
171
     0
290
     0
174
     0
 93
       13
 44
0.0
173
     0
291
     0
 45
0.0
1001
ACAD
1000
AcDbSavedByObjectVersion
1070
     0
  0
VISUALSTYLE
  5
641
102
{ACAD_REACTORS
330
634
102
}
330
634
100
AcDbVisualStyle
  2
Thicken
 70
    13
 71
     2
 72
     2
 73
     0
 90
        0
 40
-0.6
 41
-30.0
 62
     5
 63
     7
421
 16777215
 74
     1
 91
        4
 64
     7
 65
   257
 75
     1
175
     1
 42
1.0
 92
       12
 66
     7
 43
1.0
 76
     1
 77
     6
 78
     2
 67
     7
 79
     5
170
     0
171
     0
290
     0
174
     0
 93
        1
 44
0.0
173
     0
291
     1
 45
0.0
1001
ACAD
1000
AcDbSavedByObjectVersion
1070
     0
  0
DICTIONARYVAR
  5
796
102
{ACAD_REACTORS
330
513
102
}
330
513
100
DictionaryVariables
280
     0
  1
1:1
  0
DICTIONARYVAR
  5
7D1
102
{ACAD_REACTORS
330
513
102
}
330
513
100
DictionaryVariables
280
     0
  1
STANDARD
  0
DICTIONARYVAR
  5
794
102
{ACAD_REACTORS
330
513
102
}
330
513
100
DictionaryVariables
280
     0
  1
STANDARD
  0
DICTIONARYVAR
  5
516
102
{ACAD_REACTORS
330
513
102
}
330
513
100
DictionaryVariables
280
     0
  1
1
  0
DICTIONARYVAR
  5
515
102
{ACAD_REACTORS
330
513
102
}
330
513
100
DictionaryVariables
280
     0
  1
1
  0
DICTIONARYVAR
  5
798
102
{ACAD_REACTORS
330
513
102
}
330
513
100
DictionaryVariables
280
     0
  1
0
  0
DICTIONARYVAR
  5
797
102
{ACAD_REACTORS
330
513
102
}
330
513
100
DictionaryVariables
280
     0
  1
0
  0
DICTIONARYVAR
  5
795
102
{ACAD_REACTORS
330
513
102
}
330
513
100
DictionaryVariables
280
     0
  1
0
  0
DICTIONARYVAR
  5
514
102
{ACAD_REACTORS
330
513
102
}
330
513
100
DictionaryVariables
280
     0
  1
1
  0
DICTIONARYVAR
  5
7D2
102
{ACAD_REACTORS
330
513
102
}
330
513
100
DictionaryVariables
280
     0
  1
0
  0
XRECORD
  5
813
102
{ACAD_REACTORS
330
810
102
}
330
810
100
AcDbXrecord
280
     1
  1
_0100-
  1
*0100-*
  1
*
  1
*
 70
     0
  1
*
  1
*
  0
XRECORD
  5
812
102
{ACAD_REACTORS
330
810
102
}
330
810
100
AcDbXrecord
280
     1
  1
_0280-
  1
*0280-*
  1
*
  1
*
 70
     0
  1
*
  1
*
  0
XRECORD
  5
816
102
{ACAD_REACTORS
330
810
102
}
330
810
100
AcDbXrecord
280
     1
  1
_Color 253
  1
*
  1
253
  1
*
 70
     0
  1
*
  1
*
  0
XRECORD
  5
814
102
{ACAD_REACTORS
330
810
102
}
330
810
100
AcDbXrecord
280
     1
  1
_Color 8
  1
*
  1
8
  1
*
 70
     0
  1
*
  1
*
  0
XRECORD
  5
815
102
{ACAD_REACTORS
330
810
102
}
330
810
100
AcDbXrecord
280
     1
  1
_Color 84
  1
*
  1
84
  1
*
 70
     0
  1
*
  1
*
  0
XRECORD
  5
81B
102
{ACAD_REACTORS
330
810
102
}
330
810
100
AcDbXrecord
280
     1
  1
_Contours
  1
*contour*,*cont-*,*cp cont*,*p-cont*
  1
*
  1
*
 70
     0
  1
*
  1
*
  0
XRECORD
  5
817
102
{ACAD_REACTORS
330
810
102
}
330
810
100
AcDbXrecord
280
     1
  1
_Existing
  1
*exist*
  1
*
  1
*
 70
     0
  1
*
  1
*
  0
XRECORD
  5
81A
102
{ACAD_REACTORS
330
810
102
}
330
810
100
AcDbXrecord
280
     1
  1
_Hardscape
  1
*sidewalk*,*sw*,*curb*,*walk*,*-lip*,*tbc*
  1
*
  1
*
 70
     0
  1
*
  1
*
  0
XRECORD
  5
811
102
{ACAD_REACTORS
330
810
102
}
330
810
100
AcDbXrecord
280
     1
  1
_NoXref
  1
~*|*
  1
*
  1
*
 70
     0
  1
*
  1
*
  0
XRECORD
  5
818
102
{ACAD_REACTORS
330
810
102
}
330
810
100
AcDbXrecord
280
     1
  1
_Row
  1
*row*
  1
*
  1
*
 70
     0
  1
*
  1
*
  0
XRECORD
  5
819
102
{ACAD_REACTORS
330
810
102
}
330
810
100
AcDbXrecord
280
     1
  1
_Utility
  1
*ut-*,*utility*,*wat*
  1
*
  1
*
 70
     0
  1
*
  1
*
  0
DICTIONARY
  5
625
330
624
100
AcDbDictionary
280
     1
281
     1
  3
ACAD_XREC_ROUNDTRIP
360
83E
  3
BUMPTILE
360
627
  3
DIFFUSETILE
360
626
  3
OPACITYTILE
360
62A
  3
REFLECTIONTILE
360
629
  3
REFRACTIONTILE
360
62B
  3
SPECULARTILE
360
628
  0
DICTIONARY
  5
61D
330
61C
100
AcDbDictionary
280
     1
281
     1
  3
ACAD_XREC_ROUNDTRIP
360
83D
  3
BUMPTILE
360
61F
  3
DIFFUSETILE
360
61E
  3
OPACITYTILE
360
622
  3
REFLECTIONTILE
360
621
  3
REFRACTIONTILE
360
623
  3
SPECULARTILE
360
620
  0
DICTIONARY
  5
62D
330
62C
100
AcDbDictionary
280
     1
281
     1
  3
ACAD_XREC_ROUNDTRIP
360
83F
  3
BUMPTILE
360
62F
  3
DIFFUSETILE
360
62E
  3
OPACITYTILE
360
632
  3
REFLECTIONTILE
360
631
  3
REFRACTIONTILE
360
633
  3
SPECULARTILE
360
630
  0
DICTIONARY
  5
791
330
647
100
AcDbDictionary
280
     1
281
     1
  3
ACAD_ROUNDTRIP_2008_TABLESTYLE_CELLSTYLEMAP
360
83C
  3
ACAD_XREC_ROUNDTRIP
360
840
  0
XRECORD
  5
83E
102
{ACAD_REACTORS
330
625
102
}
330
625
100
AcDbXrecord
280
     1
102
MATERIAL
148
0.0
149
0.0
149
0.0
 93
        0
 94
      127
282
     0
 72
     0
 77
     0
171
     0
175
     0
179
     0
273
     0
  0
XRECORD
  5
627
102
{ACAD_REACTORS
330
625
102
}
330
625
100
AcDbXrecord
280
     1
270
     1
271
     1
  0
XRECORD
  5
626
102
{ACAD_REACTORS
330
625
102
}
330
625
100
AcDbXrecord
280
     1
270
     1
271
     1
  0
XRECORD
  5
62A
102
{ACAD_REACTORS
330
625
102
}
330
625
100
AcDbXrecord
280
     1
270
     1
271
     1
  0
XRECORD
  5
629
102
{ACAD_REACTORS
330
625
102
}
330
625
100
AcDbXrecord
280
     1
270
     1
271
     1
  0
XRECORD
  5
62B
102
{ACAD_REACTORS
330
625
102
}
330
625
100
AcDbXrecord
280
     1
270
     1
271
     1
  0
XRECORD
  5
628
102
{ACAD_REACTORS
330
625
102
}
330
625
100
AcDbXrecord
280
     1
270
     1
271
     1
  0
XRECORD
  5
83D
102
{ACAD_REACTORS
330
61D
102
}
330
61D
100
AcDbXrecord
280
     1
102
MATERIAL
148
0.0
149
0.0
149
0.0
 93
        0
 94
      127
282
     0
 72
     0
 77
     0
171
     0
175
     0
179
     0
273
     0
  0
XRECORD
  5
61F
102
{ACAD_REACTORS
330
61D
102
}
330
61D
100
AcDbXrecord
280
     1
270
     1
271
     1
  0
XRECORD
  5
61E
102
{ACAD_REACTORS
330
61D
102
}
330
61D
100
AcDbXrecord
280
     1
270
     1
271
     1
  0
XRECORD
  5
622
102
{ACAD_REACTORS
330
61D
102
}
330
61D
100
AcDbXrecord
280
     1
270
     1
271
     1
  0
XRECORD
  5
621
102
{ACAD_REACTORS
330
61D
102
}
330
61D
100
AcDbXrecord
280
     1
270
     1
271
     1
  0
XRECORD
  5
623
102
{ACAD_REACTORS
330
61D
102
}
330
61D
100
AcDbXrecord
280
     1
270
     1
271
     1
  0
XRECORD
  5
620
102
{ACAD_REACTORS
330
61D
102
}
330
61D
100
AcDbXrecord
280
     1
270
     1
271
     1
  0
XRECORD
  5
83F
102
{ACAD_REACTORS
330
62D
102
}
330
62D
100
AcDbXrecord
280
     1
102
MATERIAL
148
0.0
149
0.0
149
0.0
 93
        0
 94
      127
282
     0
 72
     0
 77
     0
171
     0
175
     0
179
     0
273
     0
  0
XRECORD
  5
62F
102
{ACAD_REACTORS
330
62D
102
}
330
62D
100
AcDbXrecord
280
     1
270
     1
271
     1
  0
XRECORD
  5
62E
102
{ACAD_REACTORS
330
62D
102
}
330
62D
100
AcDbXrecord
280
     1
270
     1
271
     1
  0
XRECORD
  5
632
102
{ACAD_REACTORS
330
62D
102
}
330
62D
100
AcDbXrecord
280
     1
270
     1
271
     1
  0
XRECORD
  5
631
102
{ACAD_REACTORS
330
62D
102
}
330
62D
100
AcDbXrecord
280
     1
270
     1
271
     1
  0
XRECORD
  5
633
102
{ACAD_REACTORS
330
62D
102
}
330
62D
100
AcDbXrecord
280
     1
270
     1
271
     1
  0
XRECORD
  5
630
102
{ACAD_REACTORS
330
62D
102
}
330
62D
100
AcDbXrecord
280
     1
270
     1
271
     1
  0
CELLSTYLEMAP
  5
83C
102
{ACAD_REACTORS
330
791
102
}
330
791
100
AcDbCellStyleMap
 90
        3
300
CELLSTYLE
  1
TABLEFORMAT_BEGIN
 90
        5
170
     1
 91
        0
 92
    32768
 62
   257
 93
        1
300
CONTENTFORMAT
  1
CONTENTFORMAT_BEGIN
 90
        0
 91
        0
 92
      512
 93
        0
300

 40
0.0
140
1.0
 94
        5
 62
     0
340
4D3
144
0.25
309
CONTENTFORMAT_END
171
     0
 94
        0
309
TABLEFORMAT_END
  1
CELLSTYLE_BEGIN
 90
        1
 91
        1
300
_TITLE
309
CELLSTYLE_END
300
CELLSTYLE
  1
TABLEFORMAT_BEGIN
 90
        5
170
     1
 91
        0
 92
        0
 62
   257
 93
        1
300
CONTENTFORMAT
  1
CONTENTFORMAT_BEGIN
 90
        0
 91
        0
 92
      512
 93
        0
300

 40
0.0
140
1.0
 94
        5
 62
     0
340
4D3
144
0.18
309
CONTENTFORMAT_END
171
     0
 94
        0
309
TABLEFORMAT_END
  1
CELLSTYLE_BEGIN
 90
        2
 91
        1
300
_HEADER
309
CELLSTYLE_END
300
CELLSTYLE
  1
TABLEFORMAT_BEGIN
 90
        5
170
     1
 91
        0
 92
        0
 62
   257
 93
        1
300
CONTENTFORMAT
  1
CONTENTFORMAT_BEGIN
 90
        0
 91
        0
 92
      512
 93
        0
300

 40
0.0
140
1.0
 94
        2
 62
     0
340
4D3
144
0.18
309
CONTENTFORMAT_END
171
     0
 94
        0
309
TABLEFORMAT_END
  1
CELLSTYLE_BEGIN
 90
        3
 91
        2
300
_DATA
309
CELLSTYLE_END
  0
XRECORD
  5
840
102
{ACAD_REACTORS
330
791
102
}
330
791
100
AcDbXrecord
280
     1
102
ACAD_ROUNDTRIP_PRE2007_TABLESTYLE
 90
      512
 91
        0
  1

 92
      512
 93
        0
  2

 94
      512
 95
        0
  3

  0
ENDSEC
  0
EOF
