  0
SECTION
  2
HEADER
  9
$ACADVER
  1
AC1015
  9
$ACADMAINTVER
 70
    13
  9
$DWGCODEPAGE
  3
ANSI_1252
  9
$INSBASE
 10
0.0
 20
0.0
 30
0.0
  9
$EXTMIN
 10
0.1064708094271038
 20
-0.1143646667846376
 30
0.0
  9
$EXTMAX
 10
16.59647080942709
 20
10.32563533321536
 30
0.03
  9
$LIMMIN
 10
0.0
 20
0.0
  9
$LIMMAX
 10
12.0
 20
9.0
  9
$ORTHOMODE
 70
     1
  9
$REGENMODE
 70
     1
  9
$FILLMODE
 70
     1
  9
$QTEXTMODE
 70
     0
  9
$MIRRTEXT
 70
     0
  9
$LTSCALE
 40
1.0
  9
$ATTMODE
 70
     1
  9
$TEXTSIZE
 40
0.1
  9
$TRACEWID
 40
0.05
  9
$TEXTSTYLE
  7
ROMANS
  9
$CLAYER
  8
OPTION-NOZ-ROTARY
  9
$CELTYPE
  6
ByLayer
  9
$CECOLOR
 62
   256
  9
$CELTSCALE
 40
1.0
  9
$DISPSILH
 70
     0
  9
$DIMSCALE
 40
1.0
  9
$DIMASZ
 40
0.18
  9
$DIMEXO
 40
0.0625
  9
$DIMDLI
 40
0.38
  9
$DIMRND
 40
0.0
  9
$DIMDLE
 40
0.0
  9
$DIMEXE
 40
0.18
  9
$DIMTP
 40
0.0
  9
$DIMTM
 40
0.0
  9
$DIMTXT
 40
0.18
  9
$DIMCEN
 40
0.09
  9
$DIMTSZ
 40
0.0
  9
$DIMTOL
 70
     0
  9
$DIMLIM
 70
     0
  9
$DIMTIH
 70
     1
  9
$DIMTOH
 70
     1
  9
$DIMSE1
 70
     0
  9
$DIMSE2
 70
     0
  9
$DIMTAD
 70
     0
  9
$DIMZIN
 70
     0
  9
$DIMBLK
  1

  9
$DIMASO
 70
     1
  9
$DIMSHO
 70
     1
  9
$DIMPOST
  1

  9
$DIMAPOST
  1

  9
$DIMALT
 70
     0
  9
$DIMALTD
 70
     2
  9
$DIMALTF
 40
25.4
  9
$DIMLFAC
 40
1.0
  9
$DIMTOFL
 70
     0
  9
$DIMTVP
 40
0.0
  9
$DIMTIX
 70
     0
  9
$DIMSOXD
 70
     0
  9
$DIMSAH
 70
     0
  9
$DIMBLK1
  1

  9
$DIMBLK2
  1

  9
$DIMSTYLE
  2
Standard
  9
$DIMCLRD
 70
     0
  9
$DIMCLRE
 70
     0
  9
$DIMCLRT
 70
     0
  9
$DIMTFAC
 40
1.0
  9
$DIMGAP
 40
0.09
  9
$DIMJUST
 70
     0
  9
$DIMSD1
 70
     0
  9
$DIMSD2
 70
     0
  9
$DIMTOLJ
 70
     1
  9
$DIMTZIN
 70
     0
  9
$DIMALTZ
 70
     0
  9
$DIMALTTZ
 70
     0
  9
$DIMUPT
 70
     0
  9
$DIMDEC
 70
     4
  9
$DIMTDEC
 70
     4
  9
$DIMALTU
 70
     2
  9
$DIMALTTD
 70
     2
  9
$DIMTXSTY
  7
STANDARD
  9
$DIMAUNIT
 70
     0
  9
$DIMADEC
 70
     0
  9
$DIMALTRND
 40
0.0
  9
$DIMAZIN
 70
     0
  9
$DIMDSEP
 70
    46
  9
$DIMATFIT
 70
     3
  9
$DIMFRAC
 70
     0
  9
$DIMLDRBLK
  1

  9
$DIMLUNIT
 70
     2
  9
$DIMLWD
 70
    -2
  9
$DIMLWE
 70
    -2
  9
$DIMTMOVE
 70
     2
  9
$LUNITS
 70
     2
  9
$LUPREC
 70
     4
  9
$SKETCHINC
 40
0.1
  9
$FILLETRAD
 40
0.0
  9
$AUNITS
 70
     0
  9
$AUPREC
 70
     0
  9
$MENU
  1
ACAD
  9
$ELEVATION
 40
0.0
  9
$PELEVATION
 40
0.0
  9
$THICKNESS
 40
0.0
  9
$LIMCHECK
 70
     0
  9
$CHAMFERA
 40
0.0
  9
$CHAMFERB
 40
0.0
  9
$CHAMFERC
 40
0.0
  9
$CHAMFERD
 40
0.0
  9
$SKPOLY
 70
     0
  9
$TDCREATE
 40
2449623.426764236
  9
$TDUCREATE
 40
2449623.676764236
  9
$TDUPDATE
 40
2453109.598452789
  9
$TDUUPDATE
 40
2453109.848452789
  9
$TDINDWG
 40
0.4142013889
  9
$TDUSRTIMER
 40
0.4142013889
  9
$USRTIMER
 70
     1
  9
$ANGBASE
 50
0.0
  9
$ANGDIR
 70
     0
  9
$PDMODE
 70
     0
  9
$PDSIZE
 40
0.0
  9
$PLINEWID
 40
0.0
  9
$SPLFRAME
 70
     0
  9
$SPLINETYPE
 70
     6
  9
$SPLINESEGS
 70
     8
  9
$HANDSEED
  5
39E
  9
$SURFTAB1
 70
     6
  9
$SURFTAB2
 70
     6
  9
$SURFTYPE
 70
     6
  9
$SURFU
 70
     6
  9
$SURFV
 70
     6
  9
$UCSBASE
  2

  9
$UCSNAME
  2

  9
$UCSORG
 10
0.0
 20
0.0
 30
0.0
  9
$UCSXDIR
 10
1.0
 20
0.0
 30
0.0
  9
$UCSYDIR
 10
0.0
 20
1.0
 30
0.0
  9
$UCSORTHOREF
  2

  9
$UCSORTHOVIEW
 70
     0
  9
$UCSORGTOP
 10
0.0
 20
0.0
 30
0.0
  9
$UCSORGBOTTOM
 10
0.0
 20
0.0
 30
0.0
  9
$UCSORGLEFT
 10
0.0
 20
0.0
 30
0.0
  9
$UCSORGRIGHT
 10
0.0
 20
0.0
 30
0.0
  9
$UCSORGFRONT
 10
0.0
 20
0.0
 30
0.0
  9
$UCSORGBACK
 10
0.0
 20
0.0
 30
0.0
  9
$PUCSBASE
  2

  9
$PUCSNAME
  2

  9
$PUCSORG
 10
0.0
 20
0.0
 30
0.0
  9
$PUCSXDIR
 10
1.0
 20
0.0
 30
0.0
  9
$PUCSYDIR
 10
0.0
 20
1.0
 30
0.0
  9
$PUCSORTHOREF
  2

  9
$PUCSORTHOVIEW
 70
     0
  9
$PUCSORGTOP
 10
0.0
 20
0.0
 30
0.0
  9
$PUCSORGBOTTOM
 10
0.0
 20
0.0
 30
0.0
  9
$PUCSORGLEFT
 10
0.0
 20
0.0
 30
0.0
  9
$PUCSORGRIGHT
 10
0.0
 20
0.0
 30
0.0
  9
$PUCSORGFRONT
 10
0.0
 20
0.0
 30
0.0
  9
$PUCSORGBACK
 10
0.0
 20
0.0
 30
0.0
  9
$USERI1
 70
     0
  9
$USERI2
 70
     0
  9
$USERI3
 70
     0
  9
$USERI4
 70
     0
  9
$USERI5
 70
     0
  9
$USERR1
 40
0.0
  9
$USERR2
 40
0.0
  9
$USERR3
 40
0.0
  9
$USERR4
 40
0.0
  9
$USERR5
 40
0.0
  9
$WORLDVIEW
 70
     1
  9
$SHADEDGE
 70
     3
  9
$SHADEDIF
 70
    70
  9
$TILEMODE
 70
     1
  9
$MAXACTVP
 70
    16
  9
$PINSBASE
 10
0.0
 20
0.0
 30
0.0
  9
$PLIMCHECK
 70
     0
  9
$PEXTMIN
 10
1.000000000000000E+20
 20
1.000000000000000E+20
 30
1.000000000000000E+20
  9
$PEXTMAX
 10
-1.000000000000000E+20
 20
-1.000000000000000E+20
 30
-1.000000000000000E+20
  9
$PLIMMIN
 10
0.0
 20
0.0
  9
$PLIMMAX
 10
12.0
 20
9.0
  9
$UNITMODE
 70
     0
  9
$VISRETAIN
 70
     0
  9
$PLINEGEN
 70
     1
  9
$PSLTSCALE
 70
     1
  9
$TREEDEPTH
 70
  3020
  9
$CMLSTYLE
  2
Standard
  9
$CMLJUST
 70
     0
  9
$CMLSCALE
 40
1.0
  9
$PROXYGRAPHICS
 70
     1
  9
$MEASUREMENT
 70
     0
  9
$CELWEIGHT
370
    -1
  9
$ENDCAPS
280
     0
  9
$JOINSTYLE
280
     0
  9
$LWDISPLAY
290
     0
  9
$INSUNITS
 70
     0
  9
$HYPERLINKBASE
  1

  9
$STYLESHEET
  1
8500Color.ctb
  9
$XEDIT
290
     1
  9
$CEPSNTYPE
380
     0
  9
$PSTYLEMODE
290
     1
  9
$FINGERPRINTGUID
  2
{FC71E344-C23D-4BC5-84A3-344016255673}
  9
$VERSIONGUID
  2
{4369D0FF-C487-459C-BBEA-9FFC1E4A8DA9}
  9
$EXTNAMES
290
     1
  9
$PSVPSCALE
 40
0.0
  9
$OLESTARTUP
290
     1
  0
ENDSEC
  0
SECTION
  2
CLASSES
  0
CLASS
  1
ACDBDICTIONARYWDFLT
  2
AcDbDictionaryWithDefault
  3
AutoCAD 2000
 90
        0
280
     0
281
     0
  0
CLASS
  1
ACDBPLACEHOLDER
  2
AcDbPlaceHolder
  3
AutoCAD 2000
 90
        0
280
     0
281
     0
  0
CLASS
  1
LAYOUT
  2
AcDbLayout
  3
AutoCAD 2000
 90
        0
280
     0
281
     0
  0
CLASS
  1
DICTIONARYVAR
  2
AcDbDictionaryVar
  3
AutoCAD 2000
 90
        0
280
     0
281
     0
  0
ENDSEC
  0
SECTION
  2
TABLES
  0
TABLE
  2
VPORT
  5
8
330
0
100
AcDbSymbolTable
 70
     2
  0
VPORT
  5
39D
330
8
100
AcDbSymbolTableRecord
100
AcDbViewportTableRecord
  2
*Active
 70
     0
 10
0.0
 20
0.0
 11
1.0
 21
1.0
 12
8.351464910137217
 22
5.105621383860576
 13
0.0
 23
0.0
 14
0.14
 24
0.14
 15
0.0
 25
0.0
 16
0.0
 26
0.0
 36
1.0
 17
0.0
 27
0.0
 37
0.0
 40
11.00738636125216
 41
1.505548705302096
 42
50.0
 43
0.0
 44
0.0
 50
0.0
 51
0.0
 71
     0
 72
  5000
 73
     1
 74
     1
 75
     0
 76
     0
 77
     0
 78
     0
281
     0
 65
     1
110
0.0
120
0.0
130
0.0
111
1.0
121
0.0
131
0.0
112
0.0
122
1.0
132
0.0
 79
     0
146
0.0
  0
ENDTAB
  0
TABLE
  2
LTYPE
  5
5
330
0
100
AcDbSymbolTable
 70
     1
  0
LTYPE
  5
13
330
5
100
AcDbSymbolTableRecord
100
AcDbLinetypeTableRecord
  2
ByBlock
 70
     0
  3

 72
    65
 73
     0
 40
0.0
  0
LTYPE
  5
14
330
5
100
AcDbSymbolTableRecord
100
AcDbLinetypeTableRecord
  2
ByLayer
 70
     0
  3

 72
    65
 73
     0
 40
0.0
  0
LTYPE
  5
15
330
5
100
AcDbSymbolTableRecord
100
AcDbLinetypeTableRecord
  2
CONTINUOUS
 70
     0
  3
Solid line
 72
    65
 73
     0
 40
0.0
  0
ENDTAB
  0
TABLE
  2
LAYER
  5
2
102
{ACAD_XDICTIONARY
360
283
102
}
330
0
100
AcDbSymbolTable
 70
    22
  0
LAYER
  5
10
330
2
100
AcDbSymbolTableRecord
100
AcDbLayerTableRecord
  2
0
 70
     0
 62
     7
  6
CONTINUOUS
370
    -3
390
F
  0
LAYER
  5
27
330
2
100
AcDbSymbolTableRecord
100
AcDbLayerTableRecord
  2
TEXT_BUBBLES
 70
     0
 62
     6
  6
CONTINUOUS
370
    -3
390
F
  0
LAYER
  5
28
330
2
100
AcDbSymbolTableRecord
100
AcDbLayerTableRecord
  2
IMAGE
 70
     0
 62
     7
  6
CONTINUOUS
370
    -3
390
F
  0
LAYER
  5
2B
330
2
100
AcDbSymbolTableRecord
100
AcDbLayerTableRecord
  2
TEXT_LEADERS
 70
     0
 62
    -5
  6
CONTINUOUS
370
    -3
390
F
  0
LAYER
  5
2C
330
2
100
AcDbSymbolTableRecord
100
AcDbLayerTableRecord
  2
OPTION-SAM
 70
     0
 62
    -1
  6
CONTINUOUS
370
    -3
390
F
  0
LAYER
  5
2D
330
2
100
AcDbSymbolTableRecord
100
AcDbLayerTableRecord
  2
OPTION-PRS
 70
     0
 62
    -1
  6
CONTINUOUS
370
    -3
390
F
  0
LAYER
  5
2E
330
2
100
AcDbSymbolTableRecord
100
AcDbLayerTableRecord
  2
OPTION-SAM-PRS
 70
     0
 62
    -1
  6
CONTINUOUS
370
    -3
390
F
  0
LAYER
  5
2F
330
2
100
AcDbSymbolTableRecord
100
AcDbLayerTableRecord
  2
OPTION-NOZ-VAN
 70
     0
 62
    -1
  6
CONTINUOUS
370
    -3
390
F
  0
LAYER
  5
31
330
2
100
AcDbSymbolTableRecord
100
AcDbLayerTableRecord
  2
OPTION-NOZ-U-SERIES
 70
     0
 62
    -1
  6
CONTINUOUS
370
    -3
390
F
  0
LAYER
  5
32
330
2
100
AcDbSymbolTableRecord
100
AcDbLayerTableRecord
  2
OPTION-NOZ-PLASTIC
 70
     0
 62
    -1
  6
CONTINUOUS
370
    -3
390
F
  0
LAYER
  5
33
330
2
100
AcDbSymbolTableRecord
100
AcDbLayerTableRecord
  2
OPTION-VPC
 70
     0
 62
    -1
  6
CONTINUOUS
370
    -3
390
F
  0
LAYER
  5
34
330
2
100
AcDbSymbolTableRecord
100
AcDbLayerTableRecord
  2
INSTRUCT-OPTION
 70
     0
 62
     7
  6
CONTINUOUS
370
    -3
390
F
  0
LAYER
  5
35
330
2
100
AcDbSymbolTableRecord
100
AcDbLayerTableRecord
  2
INSTRUCT-CALLOUT
 70
     0
 62
     4
  6
CONTINUOUS
370
    -3
390
F
  0
LAYER
  5
25F
330
2
100
AcDbSymbolTableRecord
100
AcDbLayerTableRecord
  2
TITLE
 70
     0
 62
     4
  6
CONTINUOUS
370
    -3
390
F
  0
LAYER
  5
360
330
2
100
AcDbSymbolTableRecord
100
AcDbLayerTableRecord
  2
OPTION-NP
 70
     0
 62
    -1
  6
CONTINUOUS
370
    -3
390
F
  0
LAYER
  5
362
330
2
100
AcDbSymbolTableRecord
100
AcDbLayerTableRecord
  2
OPTION-SAM-VPC
 70
     0
 62
    -1
  6
CONTINUOUS
370
    -3
390
F
  0
LAYER
  5
366
330
2
100
AcDbSymbolTableRecord
100
AcDbLayerTableRecord
  2
OPTION-SAM-NP
 70
     0
 62
     1
  6
CONTINUOUS
370
    -3
390
F
  0
LAYER
  5
368
330
2
100
AcDbSymbolTableRecord
100
AcDbLayerTableRecord
  2
OPTION-PRS-VPC
 70
     0
 62
    -1
  6
CONTINUOUS
370
    -3
390
F
  0
LAYER
  5
36B
330
2
100
AcDbSymbolTableRecord
100
AcDbLayerTableRecord
  2
OPTION-PRS-NP
 70
     0
 62
    -1
  6
CONTINUOUS
370
    -3
390
F
  0
LAYER
  5
36E
330
2
100
AcDbSymbolTableRecord
100
AcDbLayerTableRecord
  2
OPTION-SAM-PRS-NP
 70
     0
 62
    -1
  6
CONTINUOUS
370
    -3
390
F
  0
LAYER
  5
36F
330
2
100
AcDbSymbolTableRecord
100
AcDbLayerTableRecord
  2
OPTION-SAM-PRS-VPC
 70
     0
 62
    -1
  6
CONTINUOUS
370
    -3
390
F
  0
LAYER
  5
38D
330
2
100
AcDbSymbolTableRecord
100
AcDbLayerTableRecord
  2
OPTION-NOZ-ROTARY
 70
     0
 62
     1
  6
CONTINUOUS
370
    -3
390
F
  0
ENDTAB
  0
TABLE
  2
STYLE
  5
3
330
0
100
AcDbSymbolTable
 70
     5
  0
STYLE
  5
11
330
3
100
AcDbSymbolTableRecord
100
AcDbTextStyleTableRecord
  2
STANDARD
 70
     0
 40
0.0
 41
1.0
 50
0.0
 71
     0
 42
0.2
  3
txt
  4

  0
STYLE
  5
24
330
3
100
AcDbSymbolTableRecord
100
AcDbTextStyleTableRecord
  2
ROMANS
 70
     0
 40
0.0
 41
1.0
 50
0.0
 71
     0
 42
0.1
  3
ROMANS.SHX
  4

  0
STYLE
  5
260
330
3
100
AcDbSymbolTableRecord
100
AcDbTextStyleTableRecord
  2
L100
 70
     0
 40
0.1
 41
1.0
 50
0.0
 71
     0
 42
0.1
  3
romans.shx
  4

  0
STYLE
  5
261
330
3
100
AcDbSymbolTableRecord
100
AcDbTextStyleTableRecord
  2
L200
 70
     0
 40
0.2
 41
1.0
 50
0.0
 71
     0
 42
0.081
  3
ARIAL.TTF
  4

1001
ACAD
1000
Arial
1071
       34
  0
STYLE
  5
262
330
3
100
AcDbSymbolTableRecord
100
AcDbTextStyleTableRecord
  2
L80
 70
     0
 40
0.08
 41
1.0
 50
0.0
 71
     0
 42
0.08
  3
ROMANS
  4

  0
ENDTAB
  0
TABLE
  2
VIEW
  5
6
330
0
100
AcDbSymbolTable
 70
     0
  0
ENDTAB
  0
TABLE
  2
UCS
  5
7
330
0
100
AcDbSymbolTable
 70
     0
  0
ENDTAB
  0
TABLE
  2
APPID
  5
9
330
0
100
AcDbSymbolTable
 70
     3
  0
APPID
  5
12
330
9
100
AcDbSymbolTableRecord
100
AcDbRegAppTableRecord
  2
ACAD
 70
     0
  0
APPID
  5
263
330
9
100
AcDbSymbolTableRecord
100
AcDbRegAppTableRecord
  2
RAK
 70
     0
  0
APPID
  5
264
330
9
100
AcDbSymbolTableRecord
100
AcDbRegAppTableRecord
  2
DCO15
 70
     0
  0
ENDTAB
  0
TABLE
  2
DIMSTYLE
  5
A
330
0
100
AcDbSymbolTable
 70
     1
100
AcDbDimStyleTable
 71
     0
  0
DIMSTYLE
105
211
330
A
100
AcDbSymbolTableRecord
100
AcDbDimStyleTableRecord
  2
Standard
 70
     0
340
11
  0
ENDTAB
  0
TABLE
  2
BLOCK_RECORD
  5
1
330
0
100
AcDbSymbolTable
 70
     1
  0
BLOCK_RECORD
  5
1E
330
1
100
AcDbSymbolTableRecord
100
AcDbBlockTableRecord
  2
*Model_Space
340
21
  0
BLOCK_RECORD
  5
1A
330
1
100
AcDbSymbolTableRecord
100
AcDbBlockTableRecord
  2
*Paper_Space
340
1D
  0
BLOCK_RECORD
  5
265
330
1
100
AcDbSymbolTableRecord
100
AcDbBlockTableRecord
  2
titleblock
340
0
102
{BLKREFS
331
274
102
}
  0
ENDTAB
  0
ENDSEC
  0
SECTION
  2
BLOCKS
  0
BLOCK
  5
39
330
1E
100
AcDbEntity
  8
0
100
AcDbBlockBegin
  2
*Model_Space
 70
     0
 10
0.0
 20
0.0
 30
0.0
  3
*Model_Space
  1

  0
ENDBLK
  5
3A
330
1E
100
AcDbEntity
  8
0
100
AcDbBlockEnd
  0
BLOCK
  5
37
330
1A
100
AcDbEntity
 67
     1
  8
0
100
AcDbBlockBegin
  2
*Paper_Space
 70
     0
 10
0.0
 20
0.0
 30
0.0
  3
*Paper_Space
  1

  0
ENDBLK
  5
38
330
1A
100
AcDbEntity
 67
     1
  8
0
100
AcDbBlockEnd
  0
BLOCK
  5
271
330
265
100
AcDbEntity
  8
0
100
AcDbBlockBegin
  2
titleblock
 70
     2
 10
0.0
 20
0.0
 30
0.0
  3
titleblock
  1

  0
LWPOLYLINE
  5
266
330
265
100
AcDbEntity
  8
IMAGE
100
AcDbPolyline
 90
        4
 70
     1
 43
0.0
 10
0.0
 20
0.0
 10
16.48999999999999
 20
0.0000000000000001
 10
16.48999999999999
 20
10.44
 10
0.0
 20
10.44
  0
ATTDEF
  5
267
330
265
100
AcDbEntity
  8
TITLE
100
AcDbText
 10
0.5055556038023421
 20
0.7842270964783673
 30
0.0
 40
0.2
  1
D
  7
L200
 72
     4
 11
0.6064423705144839
 21
0.8842270964783672
 31
0.0
100
AcDbAttributeDefinition
  3
#
  2
D
 70
     0
  0
ATTDEF
  5
268
330
265
100
AcDbEntity
  8
TITLE
100
AcDbText
 10
1.231442370514484
 20
1.34371230274675
 30
0.0
 40
0.2
  1

  7
L200
100
AcDbAttributeDefinition
  3
DETAIL TITLE TOP LINE
  2
TITLE1
 70
     0
  0
ATTDEF
  5
269
330
265
100
AcDbEntity
  8
TITLE
100
AcDbText
 10
1.231442370514484
 20
0.9842270964783674
 30
0.0
 40
0.2
  1
TITLE
  7
L200
100
AcDbAttributeDefinition
  3
DETAIL TITLE TOP 2ND LINE
  2
TITLE2
 70
     0
  0
ATTDEF
  5
26A
330
265
100
AcDbEntity
  8
TITLE
100
AcDbText
 10
2.713645751168312
 20
0.5927927664583189
 30
0.0
 40
0.2
  1
TITLE2
  7
L200
100
AcDbAttributeDefinition
  3
DETAIL TITLE BOTTOM 1
  2
TITLE3
 70
     0
  0
ATTDEF
  5
26B
330
265
100
AcDbEntity
  8
TITLE
100
AcDbText
 10
2.713645751168312
 20
0.2692560808167741
 30
0.0
 40
0.2
  1

  7
L200
100
AcDbAttributeDefinition
  3
DETAIL TITLE BOTTOM 2
  2
TITLE4
 70
     0
  0
ATTDEF
  5
26C
330
265
100
AcDbEntity
  8
TITLE
 62
     7
100
AcDbText
 10
8.177214829966379
 20
0.9696027915446398
 30
0.0
 40
0.08
  1
-
  7
L80
 72
     2
 11
8.261024353775903
 21
0.9696027915446398
 31
0.0
100
AcDbAttributeDefinition
  3
REVISION DATE
  2
REVISED
 70
     0
  0
ATTDEF
  5
26D
330
265
100
AcDbEntity
  8
TITLE
 62
     7
100
AcDbText
 10
0.2639423705144838
 20
0.0847116480207214
 30
0.0
 40
0.08
  1
-
  7
L80
100
AcDbAttributeDefinition
  3
DWG-NAME
  2
DWG-NAME
 70
     0
  0
LWPOLYLINE
  5
26E
330
265
100
AcDbEntity
  8
TITLE
 62
     3
100
AcDbPolyline
 90
        2
 70
     1
 43
0.03
 10
0.6064423705144839
 20
0.5417270964783675
 42
0.9999999999999998
 10
0.6064423705144839
 20
1.226727096478367
 42
0.9999999999999998
  0
ATTDEF
  5
26F
330
265
100
AcDbEntity
  8
TITLE
 62
     7
100
AcDbText
 10
1.231442370514484
 20
0.7005637793954894
 30
0.0
 40
0.1
  1
N.T.S.
  7
L100
100
AcDbAttributeDefinition
  3
SCALE
  2
SCALE
 70
     0
  0
LWPOLYLINE
  5
270
330
265
100
AcDbEntity
  8
TITLE
 62
     3
100
AcDbPolyline
 90
        2
 70
     0
 43
0.04
 39
0.03
 10
0.9489423705144833
 20
0.8842270964783672
 10
8.261024353775903
 20
0.8842270964783672
  0
ENDBLK
  5
272
330
265
100
AcDbEntity
  8
0
100
AcDbBlockEnd
  0
ENDSEC
  0
SECTION
  2
ENTITIES
  0
LINE
  5
CA
330
1E
100
AcDbEntity
  8
IMAGE
100
AcDbLine
 10
2.067988345716988
 20
5.403722304830212
 30
0.0
 11
1.218991517176728
 21
5.403722304830212
 31
0.0
  0
LINE
  5
CB
330
1E
100
AcDbEntity
  8
IMAGE
100
AcDbLine
 10
1.614313624465766
 20
5.70531163678037
 30
0.0
 11
1.65112641374286
 21
5.403446764708213
 31
0.0
  0
LINE
  5
CC
330
1E
100
AcDbEntity
  8
IMAGE
100
AcDbLine
 10
1.798887830841207
 20
5.691468571302205
 30
0.0
 11
1.87271751339139
 21
5.40999290657967
 31
0.0
  0
LINE
  5
CD
330
1E
100
AcDbEntity
  8
IMAGE
100
AcDbLine
 10
1.951161551100944
 20
5.686854216142831
 30
0.0
 11
1.977730999672939
 21
5.403446764708213
 31
0.0
  0
LINE
  5
CE
330
1E
100
AcDbEntity
  8
IMAGE
100
AcDbLine
 10
2.04977296122374
 20
5.733200225732716
 30
0.0
 11
1.970317481450789
 21
5.403446764708213
 31
0.0
  0
LINE
  5
CF
330
1E
100
AcDbEntity
  8
IMAGE
100
AcDbLine
 10
1.576707258575518
 20
5.645265969459513
 30
0.0
 11
1.772195947863069
 21
5.403446764708213
 31
0.0
  0
LINE
  5
D0
330
1E
100
AcDbEntity
  8
IMAGE
100
AcDbLine
 10
1.71972712216684
 20
5.744192007766859
 30
0.0
 11
1.71972712216684
 21
5.403446764708213
 31
0.0
  0
LINE
  5
D1
330
1E
100
AcDbEntity
  8
IMAGE
100
AcDbLine
 10
1.884750041695295
 20
5.689233097596112
 30
0.0
 11
1.953150846021578
 21
5.403446764708224
 31
0.0
  0
LINE
  5
D2
330
1E
100
AcDbEntity
  8
IMAGE
100
AcDbLine
 10
2.001680567532586
 20
5.686854216142831
 30
0.0
 11
2.028250016104581
 21
5.403446764708213
 31
0.0
  0
LINE
  5
D3
330
1E
100
AcDbEntity
  8
IMAGE
100
AcDbLine
 10
1.425416341480965
 20
5.691468571302205
 30
0.0
 11
1.499246024031148
 21
5.40999290657967
 31
0.0
  0
LINE
  5
D4
330
1E
100
AcDbEntity
  8
IMAGE
100
AcDbLine
 10
1.577690061740703
 20
5.686854216142831
 30
0.0
 11
1.604259510312696
 21
5.403446764708213
 31
0.0
  0
LINE
  5
D5
330
1E
100
AcDbEntity
  8
IMAGE
100
AcDbLine
 10
1.456270912492229
 20
5.711216661664408
 30
0.0
 11
1.430600680565584
 21
5.403446764708224
 31
0.0
  0
LINE
  5
D6
330
1E
100
AcDbEntity
  8
IMAGE
100
AcDbLine
 10
1.346255632806601
 20
5.744192007766859
 30
0.0
 11
1.346255632806601
 21
5.403446764708213
 31
0.0
  0
LINE
  5
D7
330
1E
100
AcDbEntity
  8
IMAGE
100
AcDbLine
 10
1.511278552335054
 20
5.689233097596112
 30
0.0
 11
1.579679356661338
 21
5.403446764708224
 31
0.0
  0
LINE
  5
D8
330
1E
100
AcDbEntity
  8
IMAGE
100
AcDbLine
 10
1.808319807486265
 20
5.722208443698567
 30
0.0
 11
1.656393945063238
 21
5.403446764708213
 31
0.0
  0
LINE
  5
D9
330
1E
100
AcDbEntity
  8
IMAGE
100
AcDbLine
 10
1.511535254654313
 20
5.682239860983441
 30
0.0
 11
1.485162934736391
 21
5.403446764708213
 31
0.0
  0
LINE
  5
DA
330
1E
100
AcDbEntity
  8
IMAGE
100
AcDbLine
 10
1.225445234772379
 20
5.691468571302205
 30
0.0
 11
1.299274917322562
 21
5.40999290657967
 31
0.0
  0
LINE
  5
DB
330
1E
100
AcDbEntity
  8
IMAGE
100
AcDbLine
 10
1.311307445626467
 20
5.689233097596112
 30
0.0
 11
1.379708249952752
 21
5.403446764708224
 31
0.0
  0
LINE
  5
DC
330
1E
100
AcDbEntity
  8
IMAGE
100
AcDbLine
 10
1.60834870077768
 20
5.722208443698567
 30
0.0
 11
1.456422838354652
 21
5.403446764708213
 31
0.0
  0
LINE
  5
DD
330
1E
100
AcDbEntity
  8
IMAGE
100
AcDbLine
 10
1.328983233895952
 20
5.733200225732716
 30
0.0
 11
1.249527754123001
 21
5.403446764708213
 31
0.0
  0
LINE
  5
DE
330
1E
100
AcDbEntity
  8
IMAGE
100
AcDbLine
 10
1.46100156951872
 20
5.722208443698567
 30
0.0
 11
1.309075707095693
 21
5.403446764708213
 31
0.0
  0
LINE
  5
DF
330
1E
100
AcDbEntity
  8
IMAGE
100
AcDbLine
 10
3.972669293562648
 20
5.70531163678037
 30
0.0
 11
4.009482082839742
 21
5.403446764708213
 31
0.0
  0
LINE
  5
E0
330
1E
100
AcDbEntity
  8
IMAGE
100
AcDbLine
 10
1.402062717015137
 20
5.722208443698567
 30
0.0
 11
1.250136854592108
 21
5.403446764708213
 31
0.0
  0
LINE
  5
E1
330
1E
100
AcDbEntity
  8
IMAGE
100
AcDbLine
 10
1.936736976287309
 20
5.682239860983441
 30
0.0
 11
1.910364656369387
 21
5.403446764708213
 31
0.0
  0
LINE
  5
E2
330
1E
100
AcDbEntity
  8
IMAGE
100
AcDbLine
 10
1.650646956405374
 20
5.691468571302205
 30
0.0
 11
1.724476638955557
 21
5.40999290657967
 31
0.0
  0
LINE
  5
E3
330
1E
100
AcDbEntity
  8
IMAGE
100
AcDbLine
 10
1.901532086787907
 20
5.733200225732716
 30
0.0
 11
1.822076607014954
 21
5.403446764708213
 31
0.0
  0
LINE
  5
E4
330
1E
100
AcDbEntity
  8
IMAGE
100
AcDbLine
 10
1.571486247731009
 20
5.744192007766859
 30
0.0
 11
1.571486247731009
 21
5.403446764708213
 31
0.0
  0
LINE
  5
E5
330
1E
100
AcDbEntity
  8
IMAGE
100
AcDbLine
 10
1.736509167259463
 20
5.689233097596112
 30
0.0
 11
1.804909971585746
 21
5.403446764708224
 31
0.0
  0
LINE
  5
E6
330
1E
100
AcDbEntity
  8
IMAGE
100
AcDbLine
 10
2.033550422410675
 20
5.722208443698567
 30
0.0
 11
1.881624559987646
 21
5.403446764708213
 31
0.0
  0
LINE
  5
E7
330
1E
100
AcDbEntity
  8
IMAGE
100
AcDbLine
 10
2.548150813570874
 20
5.357218630412788
 30
0.0
 11
2.548150813570874
 21
5.223313502873635
 31
0.0
  0
LINE
  5
E8
330
1E
100
AcDbEntity
  8
IMAGE
100
AcDbLine
 10
2.509677890531444
 20
5.357218630412788
 30
0.0
 11
2.509677890531444
 21
5.223313502873635
 31
0.0
  0
LINE
  5
E9
330
1E
100
AcDbEntity
  8
IMAGE
100
AcDbLine
 10
2.337550673361027
 20
5.357218630412788
 30
0.0
 11
2.337550673361027
 21
5.223313502873635
 31
0.0
  0
LINE
  5
EA
330
1E
100
AcDbEntity
  8
IMAGE
100
AcDbLine
 10
2.300369662651505
 20
5.357218630412788
 30
0.0
 11
2.300369662651505
 21
5.223313502873635
 31
0.0
  0
LINE
  5
EB
330
1E
100
AcDbEntity
  8
IMAGE
100
AcDbLine
 10
2.215426355022171
 20
5.223313502873635
 30
0.0
 11
2.627404140081108
 21
5.223313502873635
 31
0.0
  0
LINE
  5
EC
330
1E
100
AcDbEntity
  8
IMAGE
100
AcDbLine
 10
2.14235036713603
 20
5.357218630412788
 30
0.0
 11
2.700480127967246
 21
5.357218630412788
 31
0.0
  0
LINE
  5
ED
330
1E
100
AcDbEntity
  8
IMAGE
100
AcDbLine
 10
2.067988345716984
 20
5.403722304830212
 30
0.0
 11
2.774842149386294
 21
5.403722304830212
 31
0.0
  0
LINE
  5
EE
330
1E
100
AcDbEntity
  8
IMAGE
100
AcDbLine
 10
2.627404140081108
 20
5.223313502873635
 30
0.0
 11
2.700480127967246
 21
5.223313502873635
 31
0.0
  0
LINE
  5
EF
330
1E
100
AcDbEntity
  8
IMAGE
100
AcDbLine
 10
2.700480127967246
 20
5.223313502873635
 30
0.0
 11
2.700480127967246
 21
5.357218630412788
 31
0.0
  0
LINE
  5
F0
330
1E
100
AcDbEntity
  8
IMAGE
100
AcDbLine
 10
2.700480127967246
 20
5.357218630412788
 30
0.0
 11
2.774842149386294
 21
5.357218630412788
 31
0.0
  0
LINE
  5
F1
330
1E
100
AcDbEntity
  8
IMAGE
100
AcDbLine
 10
2.774842149386294
 20
5.357218630412788
 30
0.0
 11
2.774842149386294
 21
5.403722304830212
 31
0.0
  0
LINE
  5
F2
330
1E
100
AcDbEntity
  8
IMAGE
100
AcDbLine
 10
2.774842149386294
 20
5.357218630412777
 30
0.0
 11
2.700480127967246
 21
5.223313502873635
 31
0.0
  0
LINE
  5
F3
330
1E
100
AcDbEntity
  8
IMAGE
100
AcDbLine
 10
2.067988345716982
 20
5.357218630412777
 30
0.0
 11
2.14235036713603
 21
5.223313502873635
 31
0.0
  0
LINE
  5
F4
330
1E
100
AcDbEntity
  8
IMAGE
100
AcDbLine
 10
2.067988345716984
 20
5.357218630412788
 30
0.0
 11
2.067988345716984
 21
5.403722304830212
 31
0.0
  0
LINE
  5
F5
330
1E
100
AcDbEntity
  8
IMAGE
100
AcDbLine
 10
2.14235036713603
 20
5.357218630412788
 30
0.0
 11
2.067988345716984
 21
5.357218630412788
 31
0.0
  0
LINE
  5
F6
330
1E
100
AcDbEntity
  8
IMAGE
100
AcDbLine
 10
2.14235036713603
 20
5.223313502873635
 30
0.0
 11
2.14235036713603
 21
5.357218630412788
 31
0.0
  0
LINE
  5
F7
330
1E
100
AcDbEntity
  8
IMAGE
100
AcDbLine
 10
2.215426355022171
 20
5.223313502873635
 30
0.0
 11
2.14235036713603
 21
5.223313502873635
 31
0.0
  0
LINE
  5
F8
330
1E
100
AcDbEntity
  8
IMAGE
100
AcDbLine
 10
2.627404140081108
 20
5.223313502873635
 30
0.0
 11
2.627404140081108
 21
4.790744156519599
 31
0.0
  0
LINE
  5
F9
330
1E
100
AcDbEntity
  8
IMAGE
100
AcDbLine
 10
2.627404140081108
 20
4.790744156519599
 30
0.0
 11
2.627404140081108
 21
3.591500621557042
 31
0.0
  0
LINE
  5
FA
330
1E
100
AcDbEntity
  8
IMAGE
100
AcDbLine
 10
2.215426355022171
 20
3.591500621557042
 30
0.0
 11
2.307166043372589
 21
3.467941052104118
 31
0.0
  0
LINE
  5
FB
330
1E
100
AcDbEntity
  8
IMAGE
100
AcDbLine
 10
2.307166043372589
 20
3.467941052104118
 30
0.0
 11
2.421415247551639
 21
3.467941052104118
 31
0.0
  0
LINE
  5
FC
330
1E
100
AcDbEntity
  8
IMAGE
100
AcDbLine
 10
2.215426355022171
 20
3.591500621557042
 30
0.0
 11
2.627404140081108
 21
3.591500621557042
 31
0.0
  0
LINE
  5
FD
330
1E
100
AcDbEntity
  8
IMAGE
100
AcDbLine
 10
2.215426355022171
 20
4.790744156519599
 30
0.0
 11
2.215426355022171
 21
3.591500621557042
 31
0.0
  0
LINE
  5
FE
330
1E
100
AcDbEntity
  8
IMAGE
100
AcDbLine
 10
2.215426355022171
 20
5.223313502873635
 30
0.0
 11
2.215426355022171
 21
4.790744156519599
 31
0.0
  0
LINE
  5
FF
330
1E
100
AcDbEntity
  8
IMAGE
100
AcDbLine
 10
2.311024422174154
 20
3.467941052104118
 30
0.0
 11
2.311024422174154
 21
3.591500621557042
 31
0.0
  0
LINE
  5
100
330
1E
100
AcDbEntity
  8
IMAGE
100
AcDbLine
 10
2.413039983297283
 20
3.591500621557042
 30
0.0
 11
2.413039983297283
 21
3.467941052104118
 31
0.0
  0
LINE
  5
101
330
1E
100
AcDbEntity
  8
IMAGE
100
AcDbLine
 10
2.215426355022171
 20
5.190188727875986
 30
0.0
 11
2.627404140081108
 21
5.190188727875986
 31
0.0
  0
LINE
  5
102
330
1E
100
AcDbEntity
  8
IMAGE
100
AcDbLine
 10
2.627404140081108
 20
5.171832193620362
 30
0.0
 11
2.215426355022171
 21
5.171832193620362
 31
0.0
  0
LINE
  5
103
330
1E
100
AcDbEntity
  8
IMAGE
100
AcDbLine
 10
2.53566445173069
 20
3.467941052104118
 30
0.0
 11
2.421415247551639
 21
3.467941052104118
 31
0.0
  0
LINE
  5
104
330
1E
100
AcDbEntity
  8
IMAGE
100
AcDbLine
 10
2.531806072929124
 20
3.467941052104118
 30
0.0
 11
2.531806072929124
 21
3.591500621557042
 31
0.0
  0
LINE
  5
105
330
1E
100
AcDbEntity
  8
IMAGE
100
AcDbLine
 10
2.429790511805995
 20
3.591500621557042
 30
0.0
 11
2.429790511805995
 21
3.467941052104118
 31
0.0
  0
LINE
  5
106
330
1E
100
AcDbEntity
  8
IMAGE
100
AcDbLine
 10
2.627404140081108
 20
3.591500621557042
 30
0.0
 11
2.53566445173069
 21
3.467941052104118
 31
0.0
  0
CIRCLE
  5
10A
330
1E
100
AcDbEntity
  8
TEXT_BUBBLES
100
AcDbCircle
 10
4.418220173282479
 20
5.478610189230373
 30
0.0
 40
0.15625
  0
TEXT
  5
10B
330
1E
100
AcDbEntity
  8
TEXT_BUBBLES
100
AcDbText
 10
4.367624935187241
 20
5.416110189230373
 30
0.0
 40
0.125
  1
1
  7
ROMANS
 72
     4
 11
4.418220173282479
 21
5.478610189230373
 31
0.0
100
AcDbText
  0
CIRCLE
  5
10C
330
1E
100
AcDbEntity
  8
TEXT_BUBBLES
100
AcDbCircle
 10
4.418220173282479
 20
5.120016349857091
 30
0.0
 40
0.15625
  0
TEXT
  5
10D
330
1E
100
AcDbEntity
  8
TEXT_BUBBLES
100
AcDbText
 10
4.35869636375867
 20
5.057516349857091
 30
0.0
 40
0.125
  1
2
  7
ROMANS
 72
     4
 11
4.418220173282479
 21
5.120016349857091
 31
0.0
100
AcDbText
  0
CIRCLE
  5
10E
330
1E
100
AcDbEntity
  8
TEXT_BUBBLES
100
AcDbCircle
 10
4.42683571506445
 20
4.547322539806863
 30
0.0
 40
0.15625
  0
TEXT
  5
10F
330
1E
100
AcDbEntity
  8
TEXT_BUBBLES
100
AcDbText
 10
4.367311905540641
 20
4.484822539806863
 30
0.0
 40
0.125
  1
3
  7
ROMANS
 72
     4
 11
4.42683571506445
 21
4.547322539806863
 31
0.0
100
AcDbText
  0
CIRCLE
  5
110
330
1E
100
AcDbEntity
  8
TEXT_BUBBLES
100
AcDbCircle
 10
4.418220173282479
 20
4.125897206350101
 30
0.0
 40
0.15625
  0
TEXT
  5
111
330
1E
100
AcDbEntity
  8
TEXT_BUBBLES
100
AcDbText
 10
4.355720173282479
 20
4.063397206350101
 30
0.0
 40
0.125
  1
4
  7
ROMANS
 72
     4
 11
4.418220173282479
 21
4.125897206350101
 31
0.0
100
AcDbText
  0
CIRCLE
  5
112
330
1E
100
AcDbEntity
  8
TEXT_BUBBLES
100
AcDbCircle
 10
4.418220173282479
 20
3.775642058220371
 30
0.0
 40
0.15625
  0
TEXT
  5
113
330
1E
100
AcDbEntity
  8
TEXT_BUBBLES
100
AcDbText
 10
4.35869636375867
 20
3.713142058220371
 30
0.0
 40
0.125
  1
5
  7
ROMANS
 72
     4
 11
4.418220173282479
 21
3.775642058220371
 31
0.0
100
AcDbText
  0
CIRCLE
  5
114
330
1E
100
AcDbEntity
  8
TEXT_BUBBLES
100
AcDbCircle
 10
4.418220173282479
 20
3.41762470626266
 30
0.0
 40
0.15625
  0
TEXT
  5
115
330
1E
100
AcDbEntity
  8
TEXT_BUBBLES
100
AcDbText
 10
4.355720173282479
 20
3.35512470626266
 30
0.0
 40
0.125
  1
6
  7
ROMANS
 72
     4
 11
4.418220173282479
 21
3.41762470626266
 31
0.0
100
AcDbText
  0
CIRCLE
  5
11B
330
1E
100
AcDbEntity
  8
TEXT_BUBBLES
100
AcDbCircle
 10
3.588249345650492
 20
1.80347095916251
 30
0.0
 40
0.15625
  0
TEXT
  5
11C
330
1E
100
AcDbEntity
  8
TEXT_BUBBLES
100
AcDbText
 10
3.528725536126683
 20
1.74097095916251
 30
0.0
 40
0.125
  1
3
  7
ROMANS
 72
     4
 11
3.588249345650492
 21
1.80347095916251
 31
0.0
100
AcDbText
  0
CIRCLE
  5
11D
330
1E
100
AcDbEntity
  8
TEXT_BUBBLES
100
AcDbCircle
 10
4.665544895021538
 20
1.803884257173425
 30
0.0
 40
0.15625
  0
TEXT
  5
11E
330
1E
100
AcDbEntity
  8
TEXT_BUBBLES
100
AcDbText
 10
4.606021085497729
 20
1.741384257173425
 30
0.0
 40
0.125
  1
7
  7
ROMANS
 72
     4
 11
4.665544895021538
 21
1.803884257173425
 31
0.0
100
AcDbText
  0
CIRCLE
  5
11F
330
1E
100
AcDbEntity
  8
TEXT_BUBBLES
100
AcDbCircle
 10
2.829549934577273
 20
1.803744500292894
 30
0.0
 40
0.15625
  0
TEXT
  5
120
330
1E
100
AcDbEntity
  8
TEXT_BUBBLES
100
AcDbText
 10
2.770026125053464
 20
1.741244500292894
 30
0.0
 40
0.125
  1
5
  7
ROMANS
 72
     4
 11
2.829549934577273
 21
1.803744500292894
 31
0.0
100
AcDbText
  0
TEXT
  5
127
330
1E
100
AcDbEntity
  8
TEXT_BUBBLES
100
AcDbText
 10
0.6563833327298038
 20
3.727274398326072
 30
0.0
 40
0.125
  1
3
  7
ROMANS
 72
     4
 11
0.7159071422536134
 21
3.789774398326072
 31
0.0
100
AcDbText
  0
CIRCLE
  5
128
330
1E
100
AcDbEntity
  8
TEXT_BUBBLES
100
AcDbCircle
 10
0.7159071422536134
 20
3.789774398326072
 30
0.0
 40
0.15625
  0
TEXT
  5
129
330
1E
100
AcDbEntity
  8
TEXT_BUBBLES
100
AcDbText
 10
0.6563833327298038
 20
5.012785388808097
 30
0.0
 40
0.125
  1
2
  7
ROMANS
 72
     4
 11
0.7159071422536134
 21
5.075285388808097
 31
0.0
100
AcDbText
  0
CIRCLE
  5
12A
330
1E
100
AcDbEntity
  8
TEXT_BUBBLES
100
AcDbCircle
 10
0.7159071422536134
 20
5.075285388808097
 30
0.0
 40
0.15625
  0
TEXT
  5
12D
330
1E
100
AcDbEntity
  8
TEXT_BUBBLES
100
AcDbText
 10
4.252459832317176
 20
1.74125502874357
 30
0.0
 40
0.125
  1
5
  7
ROMANS
 72
     4
 11
4.311983641840986
 21
1.80375502874357
 31
0.0
100
AcDbText
  0
CIRCLE
  5
12E
330
1E
100
AcDbEntity
  8
TEXT_BUBBLES
100
AcDbCircle
 10
4.311983641840986
 20
1.80375502874357
 30
0.0
 40
0.15625
  0
CIRCLE
  5
12F
330
1E
100
AcDbEntity
  8
TEXT_BUBBLES
100
AcDbCircle
 10
0.7159071422536134
 20
5.541069538776902
 30
0.0
 40
0.15625
  0
TEXT
  5
130
330
1E
100
AcDbEntity
  8
TEXT_BUBBLES
100
AcDbText
 10
0.6653119041583752
 20
5.478569538776902
 30
0.0
 40
0.125
  1
1
  7
ROMANS
 72
     4
 11
0.7159071422536134
 21
5.541069538776902
 31
0.0
100
AcDbText
  0
TEXT
  5
133
330
1E
100
AcDbEntity
  8
TEXT_LEADERS
100
AcDbText
 10
4.760000000000001
 20
5.564249207376819
 30
0.0
 40
0.125
  1
FINISH GRADE/TOP OF MULCH
  7
ROMANS
100
AcDbText
  0
TEXT
  5
134
330
1E
100
AcDbEntity
  8
TEXT_LEADERS
100
AcDbText
 10
4.760000000000001
 20
4.896335977253028
 30
0.0
 40
0.125
  1
  RAIN BIRD 1804
  7
ROMANS
100
AcDbText
  0
TEXT
  5
135
330
1E
100
AcDbEntity
  8
TEXT_LEADERS
100
AcDbText
 10
4.760000000000001
 20
5.081541166194861
 30
0.0
 40
0.125
  1
POP-UP SPRAY SPRINKLER:
  7
ROMANS
100
AcDbText
  0
LINE
  5
141
330
1E
100
AcDbEntity
  8
IMAGE
100
AcDbLine
 10
2.337697083802058
 20
3.42115639413445
 30
0.0
 11
2.504530234049994
 21
3.42115639413445
 31
0.0
  0
LWPOLYLINE
  5
142
330
1E
100
AcDbEntity
  8
IMAGE
100
AcDbPolyline
 90
        2
 70
     0
 43
0.0
 10
2.349727560073423
 20
3.440479473232284
 10
2.492216032321856
 20
3.440479473232284
  0
LINE
  5
146
330
1E
100
AcDbEntity
  8
IMAGE
100
AcDbLine
 10
2.504530234049993
 20
3.467941052104118
 30
0.0
 11
2.504530234049994
 21
3.100097288830757
 31
0.0
  0
LINE
  5
147
330
1E
100
AcDbEntity
  8
IMAGE
100
AcDbLine
 10
2.337697083802058
 20
3.467941052104118
 30
0.0
 11
2.337697083802058
 21
3.100097288830757
 31
0.0
  0
LWPOLYLINE
  5
148
330
1E
100
AcDbEntity
  8
IMAGE
100
AcDbPolyline
 90
        2
 70
     0
 43
0.0
 10
2.699759896723575
 20
2.954575019455444
 10
2.670247000353834
 20
2.81517647688214
  0
LINE
  5
14C
330
1E
100
AcDbEntity
  8
IMAGE
100
AcDbLine
 10
2.721105390742197
 20
2.962248232864808
 30
0.0
 11
2.686550107801691
 21
2.799032938107999
 31
0.0
  0
LINE
  5
14D
330
1E
100
AcDbEntity
  8
IMAGE
100
AcDbLine
 10
3.686527083209988
 20
2.757341164912409
 30
0.0
 11
3.651971800269482
 21
2.5941258701556
 31
0.0
  0
LWPOLYLINE
  5
14E
330
1E
100
AcDbEntity
  8
IMAGE
100
AcDbPolyline
 90
        2
 70
     0
 43
0.0
 10
3.70331790327595
 20
2.741453834848466
 10
3.673805006906208
 20
2.602055292275162
  0
LWPOLYLINE
  5
152
330
1E
100
AcDbEntity
  8
IMAGE
100
AcDbPolyline
 90
        2
 70
     0
 43
0.0
 10
2.349727560073423
 20
3.119333914776232
 10
2.492216032321856
 20
3.119333914776232
  0
LINE
  5
156
330
1E
100
AcDbEntity
  8
IMAGE
100
AcDbLine
 10
2.337697083802058
 20
3.139884986135297
 30
0.0
 11
2.504530234049994
 21
3.139884986135297
 31
0.0
  0
LWPOLYLINE
  5
157
330
1E
100
AcDbEntity
  8
IMAGE
100
AcDbPolyline
 90
        4
 70
     0
 43
0.0
 10
1.796597316440745
 20
2.711888063958301
 42
0.6332430429610296
 10
1.796597316440745
 20
2.612410852502446
 42
-0.6332430429610812
 10
1.796597316440745
 20
2.512933641046591
 42
-0.6134111328532366
 10
1.796597316440747
 20
2.612410852502445
 42
-0.6134111328532366
  0
LWPOLYLINE
  5
15D
330
1E
100
AcDbEntity
  8
IMAGE
100
AcDbPolyline
 90
        4
 70
     0
 43
0.0
 10
4.601898187686517
 20
2.713321798670927
 42
-0.6332430429610296
 10
4.601898187686517
 20
2.613844587215072
 42
0.6332430429610812
 10
4.601898187686517
 20
2.514367375759217
 42
0.6134111328532366
 10
4.601898187686515
 20
2.613844587215071
 42
0.6134111328532366
  0
ARC
  5
163
330
1E
100
AcDbEntity
  8
IMAGE
100
AcDbCircle
 10
2.421494841468657
 20
2.943592953724656
 30
0.0
 40
0.0983684976157295
100
AcDbArc
 50
179.379115872957
 51
0.2371380430744057
  0
LINE
  5
164
330
1E
100
AcDbEntity
  8
IMAGE
100
AcDbLine
 10
3.690194552909176
 20
2.585857722177621
 30
0.0
 11
2.647512933309796
 21
2.806610063040076
 31
0.0
  0
LINE
  5
165
330
1E
100
AcDbEntity
  8
IMAGE
100
AcDbLine
 10
3.725078007954081
 20
2.749003192803624
 30
0.0
 11
2.682396388354701
 21
2.969755533666079
 31
0.0
  0
LINE
  5
166
330
1E
100
AcDbEntity
  8
IMAGE
100
AcDbLine
 10
2.323943845252239
 20
3.100097288830756
 30
0.0
 11
2.519551108419216
 21
3.100097288830756
 31
0.0
  0
LINE
  5
167
330
1E
100
AcDbEntity
  8
IMAGE
100
AcDbLine
 10
2.323943845252239
 20
3.100097288830756
 30
0.0
 11
2.323126343852928
 21
2.943592953724656
 31
0.0
  0
LINE
  5
168
330
1E
100
AcDbEntity
  8
IMAGE
100
AcDbLine
 10
2.519551108419216
 20
3.100097288830756
 30
0.0
 11
2.519863339084386
 21
2.943592953724656
 31
0.0
  0
LINE
  5
169
330
1E
100
AcDbEntity
  8
IMAGE
100
AcDbLine
 10
4.225373934337723
 20
2.737838080659785
 30
0.0
 11
4.225373934337721
 21
2.490768401263157
 31
0.0
  0
LINE
  5
16A
330
1E
100
AcDbEntity
  8
IMAGE
100
AcDbLine
 10
3.726814776526451
 20
2.758220127188914
 30
0.0
 11
3.967378292427719
 21
2.707155584202828
 31
0.0
  0
LINE
  5
16B
330
1E
100
AcDbEntity
  8
IMAGE
100
AcDbLine
 10
3.68788707440693
 20
2.576160228749889
 30
0.0
 11
3.928374467798901
 21
2.524739670495556
 31
0.0
  0
LINE
  5
16C
330
1E
100
AcDbEntity
  8
IMAGE
100
AcDbLine
 10
3.967378292427719
 20
2.707155584202828
 30
0.0
 11
3.978868390765565
 21
2.685467632378403
 31
0.0
  0
LINE
  5
16D
330
1E
100
AcDbEntity
  8
IMAGE
100
AcDbLine
 10
3.928374467798901
 20
2.524739670495556
 30
0.0
 11
3.948944290924199
 21
2.537344961646708
 31
0.0
  0
LINE
  5
16E
330
1E
100
AcDbEntity
  8
IMAGE
100
AcDbLine
 10
3.948944290924199
 20
2.537344961646708
 30
0.0
 11
3.978868390765565
 21
2.685467632378403
 31
0.0
  0
ARC
  5
16F
330
1E
100
AcDbEntity
  8
IMAGE
100
AcDbCircle
 10
3.945701560911047
 20
2.615084070641933
 30
0.0
 40
0.077806711569825
100
AcDbArc
 50
272.3885930691139
 51
64.76879059918148
  0
LINE
  5
170
330
1E
100
AcDbEntity
  8
IMAGE
100
AcDbLine
 10
2.645544585520326
 20
2.797255255525233
 30
0.0
 11
2.416333744974473
 21
2.845359942948466
 31
0.0
  0
LINE
  5
171
330
1E
100
AcDbEntity
  8
IMAGE
100
AcDbLine
 10
2.683878369188098
 20
2.979441132150306
 30
0.0
 11
2.519728796415503
 21
3.014233734847366
 31
0.0
  0
LINE
  5
172
330
1E
100
AcDbEntity
  8
IMAGE
100
AcDbLine
 10
2.683878369188098
 20
2.979441132150306
 30
0.0
 11
2.645544585520326
 21
2.797255255525234
 31
0.0
  0
LINE
  5
173
330
1E
100
AcDbEntity
  8
IMAGE
100
AcDbLine
 10
3.726814776526451
 20
2.758220127188914
 30
0.0
 11
3.68788707440693
 21
2.57616022874989
 31
0.0
  0
LINE
  5
174
330
1E
100
AcDbEntity
  8
IMAGE
100
AcDbLine
 10
4.225373934337723
 20
2.490768401263157
 30
0.0
 11
3.664808887494137
 21
2.490768401263157
 31
0.0
  0
LINE
  5
175
330
1E
100
AcDbEntity
  8
IMAGE
100
AcDbLine
 10
3.664808887494137
 20
2.59123227272055
 30
0.0
 11
3.664808887494137
 21
2.490768401263158
 31
0.0
  0
LINE
  5
176
330
1E
100
AcDbEntity
  8
IMAGE
100
AcDbLine
 10
3.967378292427721
 20
2.707155584202829
 30
0.0
 11
3.928374467798901
 21
2.524739670495556
 31
0.0
  0
LINE
  5
177
330
1E
100
AcDbEntity
  8
IMAGE
100
AcDbLine
 10
4.601898187686517
 20
2.713321798670927
 30
0.0
 11
4.225373934337723
 21
2.713321798670927
 31
0.0
  0
LINE
  5
178
330
1E
100
AcDbEntity
  8
IMAGE
100
AcDbLine
 10
4.601898187686517
 20
2.514367375759217
 30
0.0
 11
4.225373934337721
 21
2.514367375759217
 31
0.0
  0
LINE
  5
179
330
1E
100
AcDbEntity
  8
IMAGE
100
AcDbLine
 10
3.664808887494137
 20
2.512933641046591
 30
0.0
 11
1.796597316440745
 21
2.512933641046591
 31
0.0
  0
LINE
  5
17A
330
1E
100
AcDbEntity
  8
IMAGE
100
AcDbLine
 10
3.094914247508372
 20
2.711888063958302
 30
0.0
 11
1.796597316440745
 21
2.711888063958301
 31
0.0
  0
LINE
  5
17B
330
1E
100
AcDbEntity
  8
IMAGE
100
AcDbLine
 10
3.822833980607967
 20
2.737838080659786
 30
0.0
 11
4.225373934337723
 21
2.737838080659787
 31
0.0
  0
CIRCLE
  5
17C
330
1E
100
AcDbEntity
  8
TEXT_BUBBLES
100
AcDbCircle
 10
3.935796563451078
 20
1.80375502874357
 30
0.0
 40
0.15625
  0
TEXT
  5
17D
330
1E
100
AcDbEntity
  8
TEXT_BUBBLES
100
AcDbText
 10
3.873296563451078
 20
1.74125502874357
 30
0.0
 40
0.125
  1
6
  7
ROMANS
 72
     4
 11
3.935796563451078
 21
1.80375502874357
 31
0.0
100
AcDbText
  0
CIRCLE
  5
182
330
1E
100
AcDbEntity
  8
TEXT_BUBBLES
100
AcDbCircle
 10
0.7159071422536134
 20
3.449657701191062
 30
0.0
 40
0.15625
  0
TEXT
  5
183
330
1E
100
AcDbEntity
  8
TEXT_BUBBLES
100
AcDbText
 10
0.6534071422536134
 20
3.387157701191062
 30
0.0
 40
0.125
  1
4
  7
ROMANS
 72
     4
 11
0.7159071422536134
 21
3.449657701191062
 31
0.0
100
AcDbText
  0
TEXT
  5
188
330
1E
100
AcDbEntity
  8
TEXT_LEADERS
100
AcDbText
 10
4.760000000000001
 20
1.805191905946225
 30
0.0
 40
0.125
  1
PVC SCH 40 TEE OR ELL
  7
ROMANS
100
AcDbText
  0
TEXT
  5
189
330
1E
100
AcDbEntity
  8
TEXT_LEADERS
100
AcDbText
 10
4.760000000000001
 20
2.163833783875351
 30
0.0
 40
0.125
  1
PVC LATERAL PIPE
  7
ROMANS
100
AcDbText
  0
TEXT
  5
18C
330
1E
100
AcDbEntity
  8
TEXT_LEADERS
100
AcDbText
 10
4.760000000000001
 20
2.804101118216927
 30
0.0
 40
0.125
  1
PVC SCH 40 STREET ELL
  7
ROMANS
100
AcDbText
  0
TEXT
  5
18E
330
1E
100
AcDbEntity
  8
TEXT_LEADERS
100
AcDbText
 10
4.760000000000001
 20
3.077645063401954
 30
0.0
 40
0.125
  1
  (LENGTH AS REQUIRED)
  7
ROMANS
100
AcDbText
  0
TEXT
  5
18F
330
1E
100
AcDbEntity
  8
TEXT_LEADERS
100
AcDbText
 10
4.760000000000001
 20
3.272149060409521
 30
0.0
 40
0.125
  1
PVC SCH 80 NIPPLE
  7
ROMANS
100
AcDbText
  0
TEXT
  5
193
330
1E
100
AcDbEntity
  8
TEXT_LEADERS
100
AcDbText
 10
4.760000000000001
 20
4.110260816241147
 30
0.0
 40
0.125
  1
  (LENGTH AS REQUIRED)
  7
ROMANS
100
AcDbText
  0
TEXT
  5
198
330
1E
100
AcDbEntity
  8
TEXT_LEADERS
100
AcDbText
 10
4.760000000000001
 20
4.290216804053102
 30
0.0
 40
0.125
  1
PVC SCH 80 NIPPLE
  7
ROMANS
100
AcDbText
  0
TEXT
  5
199
330
1E
100
AcDbEntity
  8
TEXT_LEADERS
100
AcDbText
 10
4.760000000000001
 20
3.900616991880548
 30
0.0
 40
0.125
  1
PVC SCH 40 ELL
  7
ROMANS
100
AcDbText
  0
TEXT
  5
19A
330
1E
100
AcDbEntity
  8
TEXT_LEADERS
100
AcDbText
 10
4.760000000000001
 20
3.700195773792132
 30
0.0
 40
0.125
  1
PVC SCH 40 STREET ELL
  7
ROMANS
100
AcDbText
  0
TEXT
  5
1A0
330
1E
100
AcDbEntity
  8
TEXT_BUBBLES
100
AcDbText
 10
4.760000000000001
 20
2.996564498667342
 30
0.0
 40
0.125
  1
PVC LATERAL PIPE
  7
ROMANS
100
AcDbText
  0
TEXT
  5
1A1
330
1E
100
AcDbEntity
  8
TEXT_BUBBLES
100
AcDbText
 10
4.760000000000001
 20
3.711250611753629
 30
0.0
 40
0.125
  1
PVC SCH 40 STREET ELL
  7
ROMANS
100
AcDbText
  0
TEXT
  5
1A2
330
1E
100
AcDbEntity
  8
TEXT_BUBBLES
100
AcDbText
 10
4.760000000000001
 20
4.06
 30
0.0
 40
0.125
  1
PVC SCH 40 ELL
  7
ROMANS
100
AcDbText
  0
TEXT
  5
1A3
330
1E
100
AcDbEntity
  8
TEXT_BUBBLES
100
AcDbText
 10
4.760000000000001
 20
4.288715363249814
 30
0.0
 40
0.125
  1
  (LENGTH AS REQUIRED)
  7
ROMANS
100
AcDbText
  0
TEXT
  5
1A4
330
1E
100
AcDbEntity
  8
TEXT_BUBBLES
100
AcDbText
 10
4.760000000000001
 20
4.48
 30
0.0
 40
0.125
  1
PVC SCH 80 NIPPLE
  7
ROMANS
100
AcDbText
  0
TEXT
  5
1A5
330
1E
100
AcDbEntity
  8
TEXT_BUBBLES
100
AcDbText
 10
4.760000000000001
 20
5.405936745776008
 30
0.0
 40
0.125
  1
FINISH GRADE/TOP OF MULCH
  7
ROMANS
100
AcDbText
  0
TEXT
  5
1A6
330
1E
100
AcDbEntity
  8
TEXT_BUBBLES
100
AcDbText
 10
4.760000000000001
 20
3.345313886913712
 30
0.0
 40
0.125
  1
PVC SCH 40 TEE OR ELL
  7
ROMANS
100
AcDbText
  0
TEXT
  5
1A7
330
1E
100
AcDbEntity
  8
TEXT_BUBBLES
100
AcDbText
 10
4.760000000000001
 20
4.888585618148939
 30
0.0
 40
0.125
  1
  RAIN BIRD 1804
  7
ROMANS
100
AcDbText
  0
TEXT
  5
1A8
330
1E
100
AcDbEntity
  8
TEXT_BUBBLES
100
AcDbText
 10
4.760000000000001
 20
5.04
 30
0.0
 40
0.125
  1
POP-UP SPRAY SPRINKLER:
  7
ROMANS
100
AcDbText
  0
TEXT
  5
1A9
330
1E
100
AcDbEntity
  8
TEXT_BUBBLES
100
AcDbText
 10
4.35869636375867
 20
3.006145403462033
 30
0.0
 40
0.125
  1
7
  7
ROMANS
 72
     4
 11
4.418220173282479
 21
3.068645403462033
 31
0.0
100
AcDbText
  0
CIRCLE
  5
1AA
330
1E
100
AcDbEntity
  8
TEXT_BUBBLES
100
AcDbCircle
 10
4.418220173282479
 20
3.068645403462033
 30
0.0
 40
0.15625
  0
TEXT
  5
1B3
330
1E
100
AcDbEntity
  8
OPTION-NOZ-VAN
100
AcDbText
 10
4.760000000000001
 20
4.724486289605502
 30
0.0
 40
0.125
  1
  WITH VAN NOZZLE
  7
ROMANS
100
AcDbText
  0
TEXT
  5
1B4
330
1E
100
AcDbEntity
  8
OPTION-NOZ-U-SERIES
100
AcDbText
 10
4.760000000000001
 20
4.724486289605502
 30
0.0
 40
0.125
  1
  WITH U-SERIES NOZZLE
  7
ROMANS
100
AcDbText
  0
TEXT
  5
1B5
330
1E
100
AcDbEntity
  8
OPTION-PRS
100
AcDbText
 10
6.562598292549683
 20
4.895778615198771
 30
0.0
 40
0.125
  1
-PRS
  7
ROMANS
100
AcDbText
  0
TEXT
  5
1B6
330
1E
100
AcDbEntity
  8
OPTION-SAM-PRS-VPC
100
AcDbText
 10
6.563363006628161
 20
4.889196365768576
 30
0.0
 40
0.125
  1
-SAM-PRS WITH 1800 VPC
  7
ROMANS
100
AcDbText
  0
TEXT
  5
1B7
330
1E
100
AcDbEntity
  8
OPTION-NP
100
AcDbText
 10
6.660548139394407
 20
4.878980705297461
 30
0.0
 40
0.125
  1
WITH 1800 NP
  7
ROMANS
100
AcDbText
  0
TEXT
  5
1B8
330
1E
100
AcDbEntity
  8
OPTION-SAM-PRS
100
AcDbText
 10
6.576525345682611
 20
4.884994705898552
 30
0.0
 40
0.125
  1
-SAM-PRS
  7
ROMANS
100
AcDbText
  0
LWPOLYLINE
  5
1D4
330
1E
100
AcDbEntity
  8
INSTRUCT-CALLOUT
100
AcDbPolyline
 90
        4
 70
     1
 43
0.0
 10
11.84072718331551
 20
10.00891746304441
 10
11.84072718331551
 20
8.577431441702172
 10
16.27242397469758
 20
8.577431441702172
 10
16.27242397469758
 20
10.00891746304441
  0
TEXT
  5
1DA
330
1E
100
AcDbEntity
  8
INSTRUCT-CALLOUT
100
AcDbText
 10
12.17131960325753
 20
10.06603295376161
 30
0.0
 40
0.10000000149
  1
CHOOSING EQUIPMENT CALLOUT METHOD
  7
ROMANS
100
AcDbText
  0
TEXT
  5
1DB
330
1E
100
AcDbEntity
  8
INSTRUCT-CALLOUT
100
AcDbText
 10
11.93856983421081
 20
9.691921890286732
 30
0.0
 40
0.10000000149
  1
CHOOSE EITHER LEADERS OR BUBBLE CALLOUTS
  7
ROMANS
100
AcDbText
  0
TEXT
  5
1DC
330
1E
100
AcDbEntity
  8
INSTRUCT-CALLOUT
100
AcDbText
 10
11.93856983421081
 20
9.530021846799732
 30
0.0
 40
0.10000000149
  1
BY TURNING ON THE APPROPRIATE LAYER:
  7
ROMANS
100
AcDbText
  0
TEXT
  5
1DD
330
1E
100
AcDbEntity
  8
INSTRUCT-CALLOUT
100
AcDbText
 10
12.37491356647363
 20
9.193004552324556
 30
0.0
 40
0.10000000149
  1
TEXT_LEADERS         TEXT_BUBBLES
  7
ROMANS
100
AcDbText
  0
LINE
  5
1DE
330
1E
100
AcDbEntity
  8
INSTRUCT-CALLOUT
100
AcDbLine
 10
12.68203821843043
 20
8.940533298622941
 30
0.0
 11
12.81830676428905
 21
8.940533298622939
 31
0.0
  0
LINE
  5
1DF
330
1E
100
AcDbEntity
  8
INSTRUCT-CALLOUT
100
AcDbLine
 10
12.3942678039521
 20
8.820781596816658
 30
0.0
 11
12.68203821843043
 21
8.940533298622941
 31
0.0
  0
SOLID
  5
1E0
330
1E
100
AcDbEntity
  8
INSTRUCT-CALLOUT
100
AcDbTrace
 10
12.47965380149243
 20
8.823819922678547
 30
0.0
 11
12.4566019166007
 21
8.879214963999393
 31
0.0
 12
12.30194273508402
 22
8.78236178866377
 32
0.0
 13
12.30194273508402
 23
8.78236178866377
 33
0.0
  0
TEXT
  5
1E1
330
1E
100
AcDbEntity
  8
INSTRUCT-CALLOUT
100
AcDbText
 10
12.84428150130618
 20
8.875782689229041
 30
0.0
 40
0.10000000149
  1
ITEM 1
  7
ROMANS
100
AcDbText
  0
SOLID
  5
1E2
330
1E
100
AcDbEntity
  8
INSTRUCT-CALLOUT
100
AcDbTrace
 10
14.62212312954185
 20
8.837245957229946
 30
0.0
 11
14.63792542319619
 21
8.779364289015717
 31
0.0
 12
14.45637927172633
 22
8.760898242159814
 32
0.0
 13
14.45637927172633
 23
8.760898242159814
 33
0.0
  0
LINE
  5
1E3
330
1E
100
AcDbEntity
  8
INSTRUCT-CALLOUT
100
AcDbLine
 10
14.55284871875005
 20
8.787235398250381
 30
0.0
 11
14.8087301356749
 21
8.857093669714998
 31
0.0
  0
TEXT
  5
1E4
330
1E
100
AcDbEntity
  8
INSTRUCT-CALLOUT
100
AcDbText
 10
14.88884075397835
 20
8.840015114828203
 30
0.0
 40
0.1
  1
1
  7
ROMANS
 72
     4
 11
14.92931694445454
 21
8.890015114828203
 31
0.0
100
AcDbText
  0
CIRCLE
  5
1E5
330
1E
100
AcDbEntity
  8
INSTRUCT-CALLOUT
100
AcDbCircle
 10
14.92931694445454
 20
8.890015114828203
 30
0.0
 40
0.125
  0
TEXT
  5
1E6
330
1E
100
AcDbEntity
  8
INSTRUCT-CALLOUT
100
AcDbText
 10
11.8797545305326
 20
8.22620338496676
 30
0.0
 40
0.10000000149
  1
LAYER "INSTRUCT-CALLOUT".
  7
ROMANS
100
AcDbText
  0
TEXT
  5
1E7
330
1E
100
AcDbEntity
  8
INSTRUCT-CALLOUT
100
AcDbText
 10
11.8797545305326
 20
8.38810342845476
 30
0.0
 40
0.10000000149
  1
TO TURN OFF THIS INSTRUCTION BOX, TURN OFF
  7
ROMANS
100
AcDbText
  0
LINE
  5
1E8
330
1E
100
AcDbEntity
  8
IMAGE
100
AcDbLine
 10
4.006316214713946
 20
5.403722304830212
 30
0.0
 11
2.774842149386292
 21
5.403722304830212
 31
0.0
  0
LINE
  5
1E9
330
1E
100
AcDbEntity
  8
IMAGE
100
AcDbLine
 10
3.552641493462724
 20
5.70531163678037
 30
0.0
 11
3.589454282739819
 21
5.403446764708213
 31
0.0
  0
LINE
  5
1EA
330
1E
100
AcDbEntity
  8
IMAGE
100
AcDbLine
 10
3.737215699838165
 20
5.691468571302205
 30
0.0
 11
3.811045382388348
 21
5.40999290657967
 31
0.0
  0
LINE
  5
1EB
330
1E
100
AcDbEntity
  8
IMAGE
100
AcDbLine
 10
3.889489420097902
 20
5.686854216142831
 30
0.0
 11
3.916058868669897
 21
5.403446764708213
 31
0.0
  0
LINE
  5
1EC
330
1E
100
AcDbEntity
  8
IMAGE
100
AcDbLine
 10
3.988100830220698
 20
5.733200225732716
 30
0.0
 11
3.908645350447747
 21
5.403446764708213
 31
0.0
  0
LINE
  5
1ED
330
1E
100
AcDbEntity
  8
IMAGE
100
AcDbLine
 10
3.515035127572476
 20
5.645265969459513
 30
0.0
 11
3.710523816860027
 21
5.403446764708213
 31
0.0
  0
LINE
  5
1EE
330
1E
100
AcDbEntity
  8
IMAGE
100
AcDbLine
 10
3.658054991163799
 20
5.744192007766859
 30
0.0
 11
3.658054991163799
 21
5.403446764708213
 31
0.0
  0
LINE
  5
1EF
330
1E
100
AcDbEntity
  8
IMAGE
100
AcDbLine
 10
3.823077910692253
 20
5.689233097596112
 30
0.0
 11
3.891478715018537
 21
5.403446764708224
 31
0.0
  0
LINE
  5
1F0
330
1E
100
AcDbEntity
  8
IMAGE
100
AcDbLine
 10
3.940008436529544
 20
5.686854216142831
 30
0.0
 11
3.966577885101539
 21
5.403446764708213
 31
0.0
  0
LINE
  5
1F1
330
1E
100
AcDbEntity
  8
IMAGE
100
AcDbLine
 10
3.363744210477924
 20
5.691468571302205
 30
0.0
 11
3.437573893028107
 21
5.40999290657967
 31
0.0
  0
LINE
  5
1F2
330
1E
100
AcDbEntity
  8
IMAGE
100
AcDbLine
 10
3.516017930737661
 20
5.686854216142831
 30
0.0
 11
3.542587379309655
 21
5.403446764708213
 31
0.0
  0
LINE
  5
1F3
330
1E
100
AcDbEntity
  8
IMAGE
100
AcDbLine
 10
3.394598781489188
 20
5.711216661664408
 30
0.0
 11
3.368928549562543
 21
5.403446764708224
 31
0.0
  0
LINE
  5
1F4
330
1E
100
AcDbEntity
  8
IMAGE
100
AcDbLine
 10
3.284583501803559
 20
5.744192007766859
 30
0.0
 11
3.284583501803559
 21
5.403446764708213
 31
0.0
  0
LINE
  5
1F5
330
1E
100
AcDbEntity
  8
IMAGE
100
AcDbLine
 10
3.449606421332012
 20
5.689233097596112
 30
0.0
 11
3.518007225658297
 21
5.403446764708224
 31
0.0
  0
LINE
  5
1F6
330
1E
100
AcDbEntity
  8
IMAGE
100
AcDbLine
 10
3.746647676483224
 20
5.722208443698567
 30
0.0
 11
3.594721814060197
 21
5.403446764708213
 31
0.0
  0
LINE
  5
1F7
330
1E
100
AcDbEntity
  8
IMAGE
100
AcDbLine
 10
3.449863123651272
 20
5.682239860983441
 30
0.0
 11
3.423490803733349
 21
5.403446764708213
 31
0.0
  0
LINE
  5
1F8
330
1E
100
AcDbEntity
  8
IMAGE
100
AcDbLine
 10
3.163773103769337
 20
5.691468571302205
 30
0.0
 11
3.23760278631952
 21
5.40999290657967
 31
0.0
  0
LINE
  5
1F9
330
1E
100
AcDbEntity
  8
IMAGE
100
AcDbLine
 10
3.084612395094973
 20
5.744192007766859
 30
0.0
 11
3.084612395094973
 21
5.403446764708213
 31
0.0
  0
LINE
  5
1FA
330
1E
100
AcDbEntity
  8
IMAGE
100
AcDbLine
 10
3.249635314623426
 20
5.689233097596112
 30
0.0
 11
3.31803611894971
 21
5.403446764708224
 31
0.0
  0
LINE
  5
1FB
330
1E
100
AcDbEntity
  8
IMAGE
100
AcDbLine
 10
3.546676569774639
 20
5.722208443698567
 30
0.0
 11
3.39475070735161
 21
5.403446764708213
 31
0.0
  0
LINE
  5
1FC
330
1E
100
AcDbEntity
  8
IMAGE
100
AcDbLine
 10
2.831851766134938
 20
5.70531163678037
 30
0.0
 11
2.868664555412033
 21
5.403446764708213
 31
0.0
  0
LINE
  5
1FD
330
1E
100
AcDbEntity
  8
IMAGE
100
AcDbLine
 10
3.016425972510379
 20
5.691468571302205
 30
0.0
 11
3.090255655060562
 21
5.40999290657967
 31
0.0
  0
LINE
  5
1FE
330
1E
100
AcDbEntity
  8
IMAGE
100
AcDbLine
 10
3.26731110289291
 20
5.733200225732716
 30
0.0
 11
3.187855623119959
 21
5.403446764708213
 31
0.0
  0
LINE
  5
1FF
330
1E
100
AcDbEntity
  8
IMAGE
100
AcDbLine
 10
3.047280543521643
 20
5.711216661664408
 30
0.0
 11
3.021610311594998
 21
5.403446764708224
 31
0.0
  0
LINE
  5
200
330
1E
100
AcDbEntity
  8
IMAGE
100
AcDbLine
 10
2.79424540024469
 20
5.645265969459513
 30
0.0
 11
2.989734089532241
 21
5.403446764708213
 31
0.0
  0
LINE
  5
201
330
1E
100
AcDbEntity
  8
IMAGE
100
AcDbLine
 10
2.937265263836014
 20
5.744192007766859
 30
0.0
 11
2.937265263836014
 21
5.403446764708213
 31
0.0
  0
LINE
  5
202
330
1E
100
AcDbEntity
  8
IMAGE
100
AcDbLine
 10
3.102288183364467
 20
5.689233097596112
 30
0.0
 11
3.170688987690752
 21
5.403446764708224
 31
0.0
  0
LINE
  5
203
330
1E
100
AcDbEntity
  8
IMAGE
100
AcDbLine
 10
3.399329438515679
 20
5.722208443698567
 30
0.0
 11
3.247403576092652
 21
5.403446764708213
 31
0.0
  0
LINE
  5
204
330
1E
100
AcDbEntity
  8
IMAGE
100
AcDbLine
 10
2.906729213253552
 20
5.663782440345897
 30
0.0
 11
2.978111575928401
 21
5.403446764708213
 31
0.0
  0
LINE
  5
205
330
1E
100
AcDbEntity
  8
IMAGE
100
AcDbLine
 10
2.772912913631356
 20
5.70531163678037
 30
0.0
 11
2.809725702908449
 21
5.403446764708213
 31
0.0
  0
LINE
  5
206
330
1E
100
AcDbEntity
  8
IMAGE
100
AcDbLine
 10
3.109760840266533
 20
5.686854216142831
 30
0.0
 11
3.136330288838526
 21
5.403446764708213
 31
0.0
  0
LINE
  5
207
330
1E
100
AcDbEntity
  8
IMAGE
100
AcDbLine
 10
3.208372250389329
 20
5.733200225732716
 30
0.0
 11
3.128916770616376
 21
5.403446764708213
 31
0.0
  0
LINE
  5
208
330
1E
100
AcDbEntity
  8
IMAGE
100
AcDbLine
 10
2.988341691018059
 20
5.711216661664408
 30
0.0
 11
2.962671459091414
 21
5.403446764708224
 31
0.0
  0
LINE
  5
209
330
1E
100
AcDbEntity
  8
IMAGE
100
AcDbLine
 10
2.878326411332429
 20
5.744192007766859
 30
0.0
 11
2.878326411332429
 21
5.403446764708213
 31
0.0
  0
LINE
  5
20A
330
1E
100
AcDbEntity
  8
IMAGE
100
AcDbLine
 10
3.340390586012095
 20
5.722208443698567
 30
0.0
 11
3.188464723589067
 21
5.403446764708213
 31
0.0
  0
LINE
  5
20B
330
1E
100
AcDbEntity
  8
IMAGE
100
AcDbLine
 10
3.875064845284268
 20
5.682239860983441
 30
0.0
 11
3.848692525366345
 21
5.403446764708213
 31
0.0
  0
LINE
  5
20C
330
1E
100
AcDbEntity
  8
IMAGE
100
AcDbLine
 10
3.588974825402332
 20
5.691468571302205
 30
0.0
 11
3.662804507952515
 21
5.40999290657967
 31
0.0
  0
LINE
  5
20D
330
1E
100
AcDbEntity
  8
IMAGE
100
AcDbLine
 10
3.839859955784865
 20
5.733200225732716
 30
0.0
 11
3.760404476011913
 21
5.403446764708213
 31
0.0
  0
LINE
  5
20E
330
1E
100
AcDbEntity
  8
IMAGE
100
AcDbLine
 10
3.509814116727967
 20
5.744192007766859
 30
0.0
 11
3.509814116727967
 21
5.403446764708213
 31
0.0
  0
LINE
  5
20F
330
1E
100
AcDbEntity
  8
IMAGE
100
AcDbLine
 10
3.674837036256421
 20
5.689233097596112
 30
0.0
 11
3.743237840582705
 21
5.403446764708224
 31
0.0
  0
LINE
  5
210
330
1E
100
AcDbEntity
  8
IMAGE
100
AcDbLine
 10
3.971878291407633
 20
5.722208443698567
 30
0.0
 11
3.819952428984605
 21
5.403446764708213
 31
0.0
  0
HATCH
  5
23B
330
1E
100
AcDbEntity
  8
IMAGE
100
AcDbHatch
 10
0.0
 20
0.0
 30
0.0
210
0.0
220
0.0
230
1.0
  2
EARTH
 70
     0
 71
     0
 91
        2
 92
        7
 72
     0
 73
     1
 93
       12
 10
2.215426355022171
 20
5.223313502873635
 10
2.142350367136029
 20
5.223313502873635
 10
2.067988345716984
 20
5.357218630412775
 10
2.067988345716984
 20
5.403722304830213
 10
1.384930535582095
 20
5.403722304830212
 10
1.502408203169483
 20
5.235932007834456
 10
1.567125731822293
 20
5.130943909002489
 10
1.659047991693691
 20
5.016040022707315
 10
1.760493732344668
 20
4.905997033714548
 10
1.875871438569384
 20
4.822703134332931
 10
2.09518947400835
 20
4.810479513764696
 10
2.215426355022171
 20
4.796995772139444
 97
        0
 92
        7
 72
     0
 73
     1
 93
       13
 10
3.284380594970638
 20
5.151142497303124
 10
3.376703463833696
 20
5.22171499539472
 10
3.452700331962805
 20
5.360909860746422
 10
3.478339829239475
 20
5.403722304830212
 10
2.774842149386294
 20
5.403722304830212
 10
2.774842149386294
 20
5.357218630412777
 10
2.700480127967246
 20
5.223313502873635
 10
2.627404140081108
 20
5.223313502873635
 10
2.627404140081108
 20
4.790744156519599
 10
2.789363461796343
 20
4.825830991613599
 10
2.921067554922057
 20
4.844397999749467
 10
3.011172969886145
 20
4.908422979403181
 10
3.142124768165825
 20
5.003745351103199
 97
        0
 75
     0
 76
     1
 52
45.0
 41
0.65
 77
     0
 78
     6
 53
45.0
 43
0.0
 44
0.0
 45
0.0
 46
0.229809703885628
 79
     2
 49
0.1625
 49
-0.1625
 53
45.0
 43
-0.0430893194785553
 44
0.0430893194785553
 45
0.0
 46
0.229809703885628
 79
     2
 49
0.1625
 49
-0.1625
 53
45.0
 43
-0.0861786389571105
 44
0.0861786389571105
 45
0.0
 46
0.229809703885628
 79
     2
 49
0.1625
 49
-0.1625
 53
135.0
 43
-0.0861786389571105
 44
0.114904851942814
 45
-0.2298097038856279
 46
0.0
 79
     2
 49
0.1625
 49
-0.1625
 53
135.0
 43
-0.0430893194785552
 44
0.1579941714213692
 45
-0.2298097038856279
 46
0.0
 79
     2
 49
0.1625
 49
-0.1625
 53
135.0
 43
0.0
 44
0.2010834908999244
 45
-0.2298097038856279
 46
0.0
 79
     2
 49
0.1625
 49
-0.1625
 47
0.005168235573776
 98
        2
 10
1.932534447650532
 20
5.058747249359971
 10
2.966609218059534
 20
5.079420193717743
  0
LEADER
  5
23F
330
1E
100
AcDbEntity
  8
TEXT_LEADERS
100
AcDbLeader
  3
Standard
 76
     3
 10
4.017390347188547
 20
2.490768401263158
 30
0.0
 10
4.547671385504213
 20
1.854146957075354
 30
0.0
 10
4.734025262982872
 20
1.854146957075354
 30
0.0
211
-1.0
221
0.0
231
0.0
210
0.0
220
0.0
230
-1.0
  0
LEADER
  5
241
330
1E
100
AcDbEntity
  8
TEXT_LEADERS
100
AcDbLeader
  3
Standard
 76
     3
 10
4.29762143997226
 20
2.514367375759217
 30
0.0
 10
4.547671385504212
 20
2.216369454843527
 30
0.0
 10
4.734025262982871
 20
2.216369454843528
 30
0.0
211
-1.0
221
0.0
231
0.0
210
0.0
220
0.0
230
-1.0
  0
LEADER
  5
242
330
1E
100
AcDbEntity
  8
TEXT_LEADERS
100
AcDbLeader
  3
Standard
 76
     3
 10
4.023508272480872
 20
2.615084070641933
 30
0.0
 10
4.553141627621172
 20
2.851022075562393
 30
0.0
 10
4.734025262982871
 20
2.851022075562392
 30
0.0
  0
LEADER
  5
243
330
1E
100
AcDbEntity
  8
TEXT_LEADERS
100
AcDbLeader
  3
Standard
 76
     3
 10
3.329591696293942
 20
2.825823828639862
 30
0.0
 10
4.553141627621172
 20
3.334987311574725
 30
0.0
 10
4.734025262982871
 20
3.334987311574724
 30
0.0
  0
LEADER
  5
244
330
1E
100
AcDbEntity
  8
TEXT_LEADERS
100
AcDbLeader
  3
Standard
 76
     3
 10
2.504530234049993
 20
3.399250602292395
 30
0.0
 10
4.553141627621174
 20
4.360133288270055
 30
0.0
 10
4.734025262982871
 20
4.360133288270055
 30
0.0
  0
LEADER
  5
245
330
1E
100
AcDbEntity
  8
TEXT_LEADERS
100
AcDbLeader
  3
Standard
 76
     3
 10
2.672843235015546
 20
2.981780102837157
 30
0.0
 10
4.553141627621174
 20
3.764240429157801
 30
0.0
 10
4.734025262982871
 20
3.7642404291578
 30
0.0
  0
LEADER
  5
248
330
1E
100
AcDbEntity
  8
TEXT_LEADERS
100
AcDbLeader
  3
Standard
 76
     3
 10
2.519604000704021
 20
3.073585248890471
 30
0.0
 10
4.553141627621174
 20
3.968766833315472
 30
0.0
 10
4.734025262982871
 20
3.968766833315471
 30
0.0
  0
LEADER
  5
24E
330
1E
100
AcDbEntity
  8
TEXT_LEADERS
100
AcDbLeader
  3
Standard
 76
     3
 10
2.627828782382153
 20
4.314429601266857
 30
0.0
 10
4.547671385504211
 20
5.155096412981608
 30
0.0
 10
4.734025262982871
 20
5.155096412981607
 30
0.0
  0
LEADER
  5
24F
330
1E
100
AcDbEntity
  8
TEXT_LEADERS
100
AcDbLeader
  3
Standard
 76
     3
 10
4.006316214713947
 20
5.403722304830214
 30
0.0
 10
4.547671385504212
 20
5.628999816770719
 30
0.0
 10
4.734025262982871
 20
5.628999816770718
 30
0.0
  0
LEADER
  5
255
330
1E
100
AcDbEntity
  8
TEXT_BUBBLES
100
AcDbLeader
  3
Standard
 76
     2
 10
2.323424182674922
 20
3.000611898088905
 30
0.0
 10
0.8721571422536133
 20
3.449657701191062
 30
0.0
  0
LEADER
  5
256
330
1E
100
AcDbEntity
  8
TEXT_BUBBLES
100
AcDbLeader
  3
Standard
 76
     2
 10
3.764201493254164
 20
2.490768401263157
 30
0.0
 10
3.897933242317456
 20
1.955348008174453
 30
0.0
  0
LEADER
  5
257
330
1E
100
AcDbEntity
  8
TEXT_BUBBLES
100
AcDbLeader
  3
Standard
 76
     2
 10
1.218991517176728
 20
5.403722304830212
 30
0.0
 10
0.8721571422536133
 20
5.541069538776902
 30
0.0
  0
LEADER
  5
258
330
1E
100
AcDbEntity
  8
TEXT_BUBBLES
100
AcDbLeader
  3
Standard
 76
     2
 10
3.985065673734272
 20
2.547969608810296
 30
0.0
 10
4.274120320707364
 20
1.955348008174453
 30
0.0
  0
LEADER
  5
259
330
1E
100
AcDbEntity
  8
TEXT_BUBBLES
100
AcDbLeader
  3
Standard
 76
     2
 10
2.578089725621017
 20
2.811412068278533
 30
0.0
 10
2.79189800336527
 20
1.955390121977157
 30
0.0
  0
LEADER
  5
25A
330
1E
100
AcDbEntity
  8
TEXT_BUBBLES
100
AcDbLeader
  3
Standard
 76
     2
 10
4.485427435212832
 20
2.514367375759217
 30
0.0
 10
4.625182600554063
 20
1.954831094455034
 30
0.0
  0
LEADER
  5
25B
330
1E
100
AcDbEntity
  8
TEXT_BUBBLES
100
AcDbLeader
  3
Standard
 76
     2
 10
3.38317752017002
 20
2.650858128234317
 30
0.0
 10
3.556611011978984
 20
1.956484286498694
 30
0.0
  0
LEADER
  5
25C
330
1E
100
AcDbEntity
  8
TEXT_BUBBLES
100
AcDbLeader
  3
Standard
 76
     2
 10
2.337697083802058
 20
3.292905209985559
 30
0.0
 10
0.8721571422536133
 20
3.789774398326072
 30
0.0
  0
LEADER
  5
25D
330
1E
100
AcDbEntity
  8
TEXT_BUBBLES
100
AcDbLeader
  3
Standard
 76
     2
 10
2.215426355022171
 20
4.616330923260133
 30
0.0
 10
0.8721571422536133
 20
5.075285388808097
 30
0.0
  0
INSERT
  5
274
330
1E
100
AcDbEntity
  8
TITLE
100
AcDbBlockReference
 66
     1
  2
titleblock
 10
0.1064708094271038
 20
-0.1143646667846376
 30
0.0
  0
ATTRIB
  5
275
330
274
100
AcDbEntity
  8
TITLE
100
AcDbText
 10
0.6120264132294459
 20
0.6698624296937297
 30
0.0
 40
0.2
  1
D
  7
L200
 72
     4
 11
0.7129131799415878
 21
0.7698624296937297
 31
0.0
100
AcDbAttribute
  2
D
 70
     0
  0
ATTRIB
  5
276
330
274
100
AcDbEntity
  8
TITLE
100
AcDbText
 10
1.337913179941587
 20
1.229347635962112
 30
0.0
 40
0.2
  1

  7
L200
100
AcDbAttribute
  2
TITLE1
 70
     0
  0
ATTRIB
  5
277
330
274
100
AcDbEntity
  8
TITLE
100
AcDbText
 10
1.337913179941587
 20
0.8698624296937298
 30
0.0
 40
0.2
  1
POP-UP SPRAY SPRINKLER
  7
L200
100
AcDbAttribute
  2
TITLE2
 70
     0
  0
ATTRIB
  5
278
330
274
100
AcDbEntity
  8
TITLE
100
AcDbText
 10
2.820116560595416
 20
0.4784280996736813
 30
0.0
 40
0.2
  1
1804 WITH SWING JOINT
  7
L200
100
AcDbAttribute
  2
TITLE3
 70
     0
  0
ATTRIB
  5
279
330
274
100
AcDbEntity
  8
TITLE
100
AcDbText
 10
2.820116560595416
 20
0.1548914140321366
 30
0.0
 40
0.2
  1

  7
L200
100
AcDbAttribute
  2
TITLE4
 70
     0
  0
ATTRIB
  5
27A
330
274
100
AcDbEntity
  8
TITLE
 62
     7
100
AcDbText
 10
7.796066591774437
 20
0.8552381247600022
 30
0.0
 40
0.08
  1
4-13-04
  7
L80
 72
     2
 11
8.367495163203008
 21
0.8552381247600022
 31
0.0
100
AcDbAttribute
  2
REVISED
 70
     0
  0
ATTRIB
  5
27B
330
274
100
AcDbEntity
  8
TITLE
 62
     7
100
AcDbText
 10
0.3704131799415877
 20
-0.0296530187639163
 30
0.0
 40
0.08
  1
S-1804-SJ.DWG
  7
L80
100
AcDbAttribute
  2
DWG-NAME
 70
     0
  0
ATTRIB
  5
27C
330
274
100
AcDbEntity
  8
TITLE
 62
     7
100
AcDbText
 10
1.337913179941587
 20
0.5861991126108518
 30
0.0
 40
0.1
  1
N.T.S.
  7
L100
100
AcDbAttribute
  2
SCALE
 70
     0
  0
SEQEND
  5
27D
330
274
100
AcDbEntity
  8
IMAGE
  0
TEXT
  5
27F
330
1E
100
AcDbEntity
  8
OPTION-NOZ-PLASTIC
100
AcDbText
 10
4.760000000000001
 20
4.724486289605502
 30
0.0
 40
0.125
  1
  WITH PLASTIC MPR NOZZLE
  7
ROMANS
100
AcDbText
  0
TEXT
  5
31F
330
1E
100
AcDbEntity
  8
INSTRUCT-OPTION
100
AcDbText
 10
10.53039397637807
 20
3.997362644367131
 30
0.0
 40
0.1
  1
  OPTION-SAM-PRS-VPC
  7
ROMANS
100
AcDbText
  0
TEXT
  5
320
330
1E
100
AcDbEntity
  8
INSTRUCT-OPTION
100
AcDbText
 10
10.53039397637807
 20
4.201437600620929
 30
0.0
 40
0.1
  1
%%uVANDAL-PROOF CAP%%u
  7
ROMANS
100
AcDbText
  0
TEXT
  5
321
330
1E
100
AcDbEntity
  8
INSTRUCT-OPTION
100
AcDbText
 10
10.53039397637807
 20
4.364617388257528
 30
0.0
 40
0.1
  1
SAM-PRS SERIES WITH
  7
ROMANS
100
AcDbText
  0
TEXT
  5
322
330
1E
100
AcDbEntity
  8
INSTRUCT-OPTION
100
AcDbText
 10
12.68011388422411
 20
4.364617408765636
 30
0.0
 40
0.1
  1
SAM-PRS SERIES WITH
  7
ROMANS
100
AcDbText
  0
TEXT
  5
323
330
1E
100
AcDbEntity
  8
INSTRUCT-OPTION
100
AcDbText
 10
12.68011388422411
 20
3.999314914213602
 30
0.0
 40
0.1
  1
  OPTION-SAM-PRS-NP
  7
ROMANS
100
AcDbText
  0
TEXT
  5
324
330
1E
100
AcDbEntity
  8
INSTRUCT-OPTION
100
AcDbText
 10
12.68011388422411
 20
4.204393494922808
 30
0.0
 40
0.1
  1
%%uNON-POTABLE CAP%%u
  7
ROMANS
100
AcDbText
  0
TEXT
  5
325
330
1E
100
AcDbEntity
  8
INSTRUCT-OPTION
100
AcDbText
 10
14.67349054400917
 20
4.907647271164225
 30
0.0
 40
0.1
  1
%%uNON-POTABLE CAP%%u
  7
ROMANS
100
AcDbText
  0
TEXT
  5
326
330
1E
100
AcDbEntity
  8
INSTRUCT-OPTION
100
AcDbText
 10
14.67349054400917
 20
4.702568690455019
 30
0.0
 40
0.1
  1
  OPTION-PRS-NP
  7
ROMANS
100
AcDbText
  0
TEXT
  5
327
330
1E
100
AcDbEntity
  8
INSTRUCT-OPTION
100
AcDbText
 10
14.67349054400917
 20
5.067871185007053
 30
0.0
 40
0.1
  1
PRS SERIES WITH
  7
ROMANS
100
AcDbText
  0
TEXT
  5
328
330
1E
100
AcDbEntity
  8
INSTRUCT-OPTION
100
AcDbText
 10
12.68011388422411
 20
4.700616420608547
 30
0.0
 40
0.1
  1
  OPTION-PRS-VPC
  7
ROMANS
100
AcDbText
  0
TEXT
  5
329
330
1E
100
AcDbEntity
  8
INSTRUCT-OPTION
100
AcDbText
 10
12.68011388422411
 20
4.904691376862345
 30
0.0
 40
0.1
  1
%%uVANDAL-PROOF CAP%%u
  7
ROMANS
100
AcDbText
  0
TEXT
  5
32A
330
1E
100
AcDbEntity
  8
INSTRUCT-OPTION
100
AcDbText
 10
12.68011388422411
 20
5.067871164498944
 30
0.0
 40
0.1
  1
PRS SERIES WITH
  7
ROMANS
100
AcDbText
  0
TEXT
  5
32B
330
1E
100
AcDbEntity
  8
INSTRUCT-OPTION
100
AcDbText
 10
10.53039397637807
 20
5.060057246868153
 30
0.0
 40
0.1
  1
SAM SERIES WITH
  7
ROMANS
100
AcDbText
  0
TEXT
  5
32C
330
1E
100
AcDbEntity
  8
INSTRUCT-OPTION
100
AcDbText
 10
10.53039397637807
 20
4.69475475231612
 30
0.0
 40
0.1
  1
  OPTION-SAM-NP
  7
ROMANS
100
AcDbText
  0
TEXT
  5
32D
330
1E
100
AcDbEntity
  8
INSTRUCT-OPTION
100
AcDbText
 10
10.53039397637807
 20
4.899833333025326
 30
0.0
 40
0.1
  1
%%uNON-POTABLE CAP%%u
  7
ROMANS
100
AcDbText
  0
TEXT
  5
32E
330
1E
100
AcDbEntity
  8
INSTRUCT-OPTION
100
AcDbText
 10
14.68130774963856
 20
5.739869208692874
 30
0.0
 40
0.1
  1
SAM SERIES WITH
  7
ROMANS
100
AcDbText
  0
TEXT
  5
32F
330
1E
100
AcDbEntity
  8
INSTRUCT-OPTION
100
AcDbText
 10
14.68130774963856
 20
5.576689421056276
 30
0.0
 40
0.1
  1
%%uVANDAL-PROOF CAP%%u
  7
ROMANS
100
AcDbText
  0
TEXT
  5
330
330
1E
100
AcDbEntity
  8
INSTRUCT-OPTION
100
AcDbText
 10
14.68130774963856
 20
5.372614464802477
 30
0.0
 40
0.1
  1
  OPTION-SAM-VPC
  7
ROMANS
100
AcDbText
  0
TEXT
  5
331
330
1E
100
AcDbEntity
  8
INSTRUCT-OPTION
100
AcDbText
 10
12.68011388422411
 20
5.36675279651005
 30
0.0
 40
0.1
  1
  OPTION-NP
  7
ROMANS
100
AcDbText
  0
TEXT
  5
332
330
1E
100
AcDbEntity
  8
INSTRUCT-OPTION
100
AcDbText
 10
12.68011388422411
 20
5.571831377219256
 30
0.0
 40
0.1
  1
%%uNON-POTABLE CAP%%u
  7
ROMANS
100
AcDbText
  0
TEXT
  5
333
330
1E
100
AcDbEntity
  8
INSTRUCT-OPTION
100
AcDbText
 10
14.67349054400917
 20
6.204759751226799
 30
0.0
 40
0.1
  1
%%uSAM-PRS SERIES%%u
  7
ROMANS
100
AcDbText
  0
TEXT
  5
334
330
1E
100
AcDbEntity
  8
INSTRUCT-OPTION
100
AcDbText
 10
14.67349054400917
 20
5.999681170517595
 30
0.0
 40
0.1
  1
  OPTION-SAM-PRS
  7
ROMANS
100
AcDbText
  0
TEXT
  5
335
330
1E
100
AcDbEntity
  8
INSTRUCT-OPTION
100
AcDbText
 10
10.53039397637807
 20
5.372614464802477
 30
0.0
 40
0.1
  1
  OPTION-VPC
  7
ROMANS
100
AcDbText
  0
TEXT
  5
336
330
1E
100
AcDbEntity
  8
INSTRUCT-OPTION
100
AcDbText
 10
10.53039397637807
 20
5.576689421056276
 30
0.0
 40
0.1
  1
%%uVANDAL-PROOF CAP%%u
  7
ROMANS
100
AcDbText
  0
TEXT
  5
337
330
1E
100
AcDbEntity
  8
INSTRUCT-OPTION
100
AcDbText
 10
12.68011388422411
 20
5.999681170517595
 30
0.0
 40
0.1
  1
  OPTION-PRS
  7
ROMANS
100
AcDbText
  0
TEXT
  5
338
330
1E
100
AcDbEntity
  8
INSTRUCT-OPTION
100
AcDbText
 10
12.68011388422411
 20
6.204759751226799
 30
0.0
 40
0.1
  1
%%uPRS SERIES%%u
  7
ROMANS
100
AcDbText
  0
TEXT
  5
339
330
1E
100
AcDbEntity
  8
INSTRUCT-OPTION
100
AcDbText
 10
10.53039397637807
 20
5.997728921179231
 30
0.0
 40
0.1
  1
  OPTION-SAM
  7
ROMANS
100
AcDbText
  0
TEXT
  5
33A
330
1E
100
AcDbEntity
  8
INSTRUCT-OPTION
100
AcDbText
 10
10.53039397637807
 20
6.201803877433031
 30
0.0
 40
0.1
  1
%%uSAM SERIES%%u
  7
ROMANS
100
AcDbText
  0
TEXT
  5
33B
330
1E
100
AcDbEntity
  8
INSTRUCT-OPTION
100
AcDbText
 10
10.50694245211778
 20
6.419800947681016
 30
0.0
 40
0.1
  1
BY TURNING ON THE APPROPRIATE LAYER:
  7
ROMANS
100
AcDbText
  0
TEXT
  5
33C
330
1E
100
AcDbEntity
  8
INSTRUCT-OPTION
100
AcDbText
 10
10.50694245211778
 20
6.559800947681017
 30
0.0
 40
0.1
  1
CHOOSE ONE OF THE FOLLOWING OPTIONS
  7
ROMANS
100
AcDbText
  0
TEXT
  5
33D
330
1E
100
AcDbEntity
  8
INSTRUCT-OPTION
100
AcDbText
 10
10.50694245211777
 20
7.489569674223361
 30
0.0
 40
0.1
  1
BY TURNING ON THE APPROPRIATE LAYER:
  7
ROMANS
100
AcDbText
  0
TEXT
  5
33E
330
1E
100
AcDbEntity
  8
INSTRUCT-OPTION
100
AcDbText
 10
10.53039397637807
 20
7.137674265325006
 30
0.0
 40
0.1
  1
  OPTION-NOZ-PLASTIC
  7
ROMANS
100
AcDbText
  0
TEXT
  5
33F
330
1E
100
AcDbEntity
  8
INSTRUCT-OPTION
100
AcDbText
 10
10.65101751595362
 20
7.829318534195838
 30
0.0
 40
0.1
  1
CHOOSING NOZZLES AND OPTIONAL FEATURES
  7
ROMANS
100
AcDbText
  0
TEXT
  5
340
330
1E
100
AcDbEntity
  8
INSTRUCT-OPTION
100
AcDbText
 10
10.4895584901387
 20
3.65998094161088
 30
0.0
 40
0.1
  1
TO TURN OFF THIS INSTRUCTION BOX, TURN OFF
  7
ROMANS
100
AcDbText
  0
TEXT
  5
341
330
1E
100
AcDbEntity
  8
INSTRUCT-OPTION
100
AcDbText
 10
10.4895584901387
 20
3.490060370183678
 30
0.0
 40
0.1
  1
LAYER "INSTRUCT-OPTION".
  7
ROMANS
100
AcDbText
  0
TEXT
  5
342
330
1E
100
AcDbEntity
  8
INSTRUCT-OPTION
100
AcDbText
 10
12.6937147087228
 20
7.135312562671608
 30
0.0
 40
0.1
  1
  OPTION-NOZ-U-SERIES
  7
ROMANS
100
AcDbText
  0
TEXT
  5
343
330
1E
100
AcDbEntity
  8
INSTRUCT-OPTION
100
AcDbText
 10
10.53039397637807
 20
6.758976339271194
 30
0.0
 40
0.1
  1
  OPTION-NOZ-VAN
  7
ROMANS
100
AcDbText
  0
TEXT
  5
346
330
1E
100
AcDbEntity
  8
INSTRUCT-OPTION
100
AcDbText
 10
10.50694245211777
 20
7.629569674223359
 30
0.0
 40
0.1
  1
CHOOSE A DIFFERENT SPRINKLER NOZZLE 
  7
ROMANS
100
AcDbText
  0
TEXT
  5
348
330
1E
100
AcDbEntity
  8
INSTRUCT-OPTION
100
AcDbText
 10
10.53039397637807
 20
7.318363203029715
 30
0.0
 40
0.1
  1
%%uPLASTIC MPR NOZZLE%%u
  7
ROMANS
100
AcDbText
  0
TEXT
  5
350
330
1E
100
AcDbEntity
  8
INSTRUCT-OPTION
100
AcDbText
 10
12.68011388422411
 20
7.310514317755647
 30
0.0
 40
0.1
  1
%%uU-SERIES NOZZLE%%u
  7
ROMANS
100
AcDbText
  0
TEXT
  5
351
330
1E
100
AcDbEntity
  8
INSTRUCT-OPTION
100
AcDbText
 10
10.53039397637807
 20
6.925102260931662
 30
0.0
 40
0.1
  1
%%uVAN NOZZLE%%u
  7
ROMANS
100
AcDbText
  0
LINE
  5
352
330
1E
100
AcDbEntity
  8
INSTRUCT-OPTION
100
AcDbLine
 10
16.39210071617785
 20
3.82491070884541
 30
0.0
 11
16.39210071617786
 21
7.794199907622217
 31
0.0
  0
LINE
  5
353
330
1E
100
AcDbEntity
  8
INSTRUCT-OPTION
100
AcDbLine
 10
16.39210071617786
 20
7.794199907622217
 30
0.0
 11
10.44085838148619
 21
7.794199907622219
 31
0.0
  0
LINE
  5
354
330
1E
100
AcDbEntity
  8
INSTRUCT-OPTION
100
AcDbLine
 10
10.44085838148619
 20
3.824910708845411
 30
0.0
 11
16.39210071617785
 21
3.82491070884541
 31
0.0
  0
LINE
  5
355
330
1E
100
AcDbEntity
  8
INSTRUCT-OPTION
100
AcDbLine
 10
10.44085838148619
 20
7.794199907622219
 30
0.0
 11
10.44085838148619
 21
3.824910708845411
 31
0.0
  0
CIRCLE
  5
35E
330
1E
100
AcDbEntity
  8
OPTION-PRS-VPC
100
AcDbCircle
 10
2.423333297537551
 20
5.288610696622315
 30
0.0
 40
0.0139560404963533
  0
TEXT
  5
361
330
1E
100
AcDbEntity
  8
OPTION-VPC
100
AcDbText
 10
6.660548139394407
 20
4.878980705297461
 30
0.0
 40
0.125
  1
WITH 1800 VPC
  7
ROMANS
100
AcDbText
  0
TEXT
  5
364
330
1E
100
AcDbEntity
  8
OPTION-SAM
100
AcDbText
 10
6.562598292549683
 20
4.895778615198771
 30
0.0
 40
0.125
  1
-SAM
  7
ROMANS
100
AcDbText
  0
TEXT
  5
367
330
1E
100
AcDbEntity
  8
OPTION-PRS-NP
100
AcDbText
 10
6.563363006628161
 20
4.889196365768576
 30
0.0
 40
0.125
  1
-PRS WITH 1800 NP
  7
ROMANS
100
AcDbText
  0
TEXT
  5
369
330
1E
100
AcDbEntity
  8
OPTION-SAM-NP
100
AcDbText
 10
6.563363006628161
 20
4.889196365768576
 30
0.0
 40
0.125
  1
-SAM WITH 1800 NP
  7
ROMANS
100
AcDbText
  0
TEXT
  5
36C
330
1E
100
AcDbEntity
  8
OPTION-PRS-VPC
100
AcDbText
 10
6.563363006628161
 20
4.889196365768576
 30
0.0
 40
0.125
  1
-PRS WITH 1800 VPC
  7
ROMANS
100
AcDbText
  0
TEXT
  5
370
330
1E
100
AcDbEntity
  8
OPTION-SAM-PRS-NP
100
AcDbText
 10
6.563363006628161
 20
4.889196365768576
 30
0.0
 40
0.125
  1
-SAM-PRS WITH 1800 NP
  7
ROMANS
100
AcDbText
  0
CIRCLE
  5
371
330
1E
100
AcDbEntity
  8
OPTION-SAM-PRS-VPC
100
AcDbCircle
 10
2.423333297537551
 20
5.288610696622315
 30
0.0
 40
0.0139560404963533
  0
CIRCLE
  5
373
330
1E
100
AcDbEntity
  8
OPTION-SAM-VPC
100
AcDbCircle
 10
2.423333297537551
 20
5.288610696622315
 30
0.0
 40
0.0139560404963533
  0
CIRCLE
  5
374
330
1E
100
AcDbEntity
  8
OPTION-VPC
100
AcDbCircle
 10
2.423333297537551
 20
5.288610696622315
 30
0.0
 40
0.0139560404963533
  0
TEXT
  5
378
330
1E
100
AcDbEntity
  8
OPTION-SAM-VPC
100
AcDbText
 10
6.563363006628161
 20
4.889196365768576
 30
0.0
 40
0.125
  1
-SAM WITH 1800 VPC
  7
ROMANS
100
AcDbText
  0
TEXT
  5
38E
330
1E
100
AcDbEntity
  8
OPTION-NOZ-ROTARY
100
AcDbText
 10
4.760000000000001
 20
4.724486289605502
 30
0.0
 40
0.125
  1
  WITH RAIN BIRD ROTARY NOZZLE
  7
ROMANS
100
AcDbText
  0
TEXT
  5
38F
330
1E
100
AcDbEntity
  8
INSTRUCT-OPTION
100
AcDbText
 10
12.68667291766491
 20
6.925102260931662
 30
0.0
 40
0.1
  1
%%uROTARY NOZZLE%%u
  7
ROMANS
100
AcDbText
  0
TEXT
  5
390
330
1E
100
AcDbEntity
  8
INSTRUCT-OPTION
100
AcDbText
 10
12.68667291766491
 20
6.758976339271194
 30
0.0
 40
0.1
  1
  OPTION-NOZ-ROTARY
  7
ROMANS
100
AcDbText
  0
ENDSEC
  0
SECTION
  2
OBJECTS
  0
DICTIONARY
  5
C
330
0
100
AcDbDictionary
281
     1
  3
ACAD_GROUP
350
D
  3
ACAD_LAYOUT
350
19
  3
ACAD_MLINESTYLE
350
16
  3
ACAD_PLOTSETTINGS
350
18
  3
ACAD_PLOTSTYLENAME
350
E
  3
AcDbVariableDictionary
350
215
  0
DICTIONARY
  5
283
330
2
100
AcDbDictionary
280
     1
281
     1
  3
ACAD_LAYERFILTERS
360
356
  3
ACAD_LAYERSTATES
360
284
  0
DICTIONARY
  5
D
102
{ACAD_REACTORS
330
C
102
}
330
C
100
AcDbDictionary
281
     1
  0
DICTIONARY
  5
19
102
{ACAD_REACTORS
330
C
102
}
330
C
100
AcDbDictionary
281
     1
  3
Layout1
350
1D
  3
Model
350
21
  0
DICTIONARY
  5
16
102
{ACAD_REACTORS
330
C
102
}
330
C
100
AcDbDictionary
281
     1
  3
Standard
350
17
  0
DICTIONARY
  5
18
102
{ACAD_REACTORS
330
C
102
}
330
C
100
AcDbDictionary
281
     1
  0
ACDBDICTIONARYWDFLT
  5
E
102
{ACAD_REACTORS
330
C
102
}
330
C
100
AcDbDictionary
281
     1
  3
Normal
350
F
100
AcDbDictionaryWithDefault
340
F
  0
DICTIONARY
  5
215
102
{ACAD_REACTORS
330
C
102
}
330
C
100
AcDbDictionary
281
     1
  3
DIMASSOC
350
218
  3
HIDETEXT
350
217
  3
SORTENTS
350
216
  0
DICTIONARY
  5
356
102
{ACAD_REACTORS
330
283
102
}
330
283
100
AcDbDictionary
280
     1
281
     1
  0
DICTIONARY
  5
284
102
{ACAD_REACTORS
330
283
102
}
330
283
100
AcDbDictionary
281
     1
  0
LAYOUT
  5
1D
102
{ACAD_REACTORS
330
19
102
}
330
19
100
AcDbPlotSettings
  1

  2
S:\AutoCAD 2002\Plotters\1055B&WDraftShaded.pc3
  4

  6

 40
0.0
 41
0.0
 42
0.0
 43
0.0
 44
0.0
 45
0.0
 46
0.0
 47
0.0
 48
0.0
 49
0.0
140
0.0
141
0.0
142
1.0
143
1.0
 70
   688
 72
     0
 73
     0
 74
     5
  7
8500Color.ctb
 75
    16
147
1.0
148
0.0
149
0.0
100
AcDbLayout
  1
Layout1
 70
     1
 71
     1
 10
0.0
 20
0.0
 11
12.0
 21
9.0
 12
0.0
 22
0.0
 32
0.0
 14
1.000000000000000E+20
 24
1.000000000000000E+20
 34
1.000000000000000E+20
 15
-1.000000000000000E+20
 25
-1.000000000000000E+20
 35
-1.000000000000000E+20
146
0.0
 13
0.0
 23
0.0
 33
0.0
 16
1.0
 26
0.0
 36
0.0
 17
0.0
 27
1.0
 37
0.0
 76
     0
330
1A
  0
LAYOUT
  5
21
102
{ACAD_REACTORS
330
19
102
}
330
19
100
AcDbPlotSettings
  1

  2
8500ColorShaded.pc3
  4
Letter
  6

 40
5.027083396911621
 41
5.027085304260253
 42
5.027084350585937
 43
5.027069091796875
 44
215.8999938964843
 45
279.3999938964843
 46
0.0
 47
0.0
 48
10.32427554345823
 49
3.309499280594682
140
16.49464271188265
141
8.013305812965935
142
1.0
143
0.5818813699468021
 70
 11952
 72
     0
 73
     1
 74
     4
  7
8500Color.ctb
 75
     0
147
1.718563356120894
148
-262.2365988038392
149
-84.06128172710493
100
AcDbLayout
  1
Model
 70
     1
 71
     0
 10
0.0
 20
0.0
 11
12.0
 21
9.0
 12
0.0
 22
0.0
 32
0.0
 14
0.0
 24
0.0
 34
0.0
 15
0.0
 25
0.0
 35
0.0
146
0.0
 13
0.0
 23
0.0
 33
0.0
 16
1.0
 26
0.0
 36
0.0
 17
0.0
 27
1.0
 37
0.0
 76
     0
330
1E
  0
MLINESTYLE
  5
17
102
{ACAD_REACTORS
330
16
102
}
330
16
100
AcDbMlineStyle
  2
STANDARD
 70
     0
  3

 62
   256
 51
90.0
 52
90.0
 71
     2
 49
0.5
 62
   256
  6
BYLAYER
 49
-0.5
 62
   256
  6
BYLAYER
  0
ACDBPLACEHOLDER
  5
F
102
{ACAD_REACTORS
330
E
102
}
330
E
  0
DICTIONARYVAR
  5
218
102
{ACAD_REACTORS
330
215
102
}
330
215
100
DictionaryVariables
280
     0
  1
1
  0
DICTIONARYVAR
  5
217
102
{ACAD_REACTORS
330
215
102
}
330
215
100
DictionaryVariables
280
     0
  1
1
  0
DICTIONARYVAR
  5
216
102
{ACAD_REACTORS
330
215
102
}
330
215
100
DictionaryVariables
280
     0
  1
1
  0
ENDSEC
  0
EOF
