  0
SECTION
  2
HEADER
  9
$ACADVER
  1
AC1015
  9
$ACADMAINTVER
 70
    13
  9
$DWGCODEPAGE
  3
ANSI_1252
  9
$INSBASE
 10
8.573973228193436
 20
4.267541144724228
 30
0.0
  9
$EXTMIN
 10
-0.0005031964700925
 20
-0.0003185792084783
 30
-0.0000009154574956
  9
$EXTMAX
 10
16.49050327325764
 20
10.44031862782351
 30
0.030000915597194
  9
$LIMMIN
 10
0.0
 20
0.0
  9
$LIMMAX
 10
12.0
 20
9.0
  9
$ORTHOMODE
 70
     1
  9
$REGENMODE
 70
     1
  9
$FILLMODE
 70
     1
  9
$QTEXTMODE
 70
     0
  9
$MIRRTEXT
 70
     0
  9
$LTSCALE
 40
1.0
  9
$ATTMODE
 70
     1
  9
$TEXTSIZE
 40
0.1
  9
$TRACEWID
 40
0.05
  9
$TEXTSTYLE
  7
L200
  9
$CLAYER
  8
TITLE
  9
$CELTYPE
  6
ByLayer
  9
$CECOLOR
 62
   256
  9
$CELTSCALE
 40
1.0
  9
$DISPSILH
 70
     0
  9
$DIMSCALE
 40
1.0
  9
$DIMASZ
 40
0.1
  9
$DIMEXO
 40
0.0625
  9
$DIMDLI
 40
0.38
  9
$DIMRND
 40
0.0
  9
$DIMDLE
 40
0.0
  9
$DIMEXE
 40
0.18
  9
$DIMTP
 40
0.0
  9
$DIMTM
 40
0.0
  9
$DIMTXT
 40
0.18
  9
$DIMCEN
 40
0.09
  9
$DIMTSZ
 40
0.0
  9
$DIMTOL
 70
     0
  9
$DIMLIM
 70
     0
  9
$DIMTIH
 70
     1
  9
$DIMTOH
 70
     1
  9
$DIMSE1
 70
     0
  9
$DIMSE2
 70
     0
  9
$DIMTAD
 70
     0
  9
$DIMZIN
 70
     0
  9
$DIMBLK
  1

  9
$DIMASO
 70
     1
  9
$DIMSHO
 70
     0
  9
$DIMPOST
  1

  9
$DIMAPOST
  1

  9
$DIMALT
 70
     0
  9
$DIMALTD
 70
     2
  9
$DIMALTF
 40
25.4
  9
$DIMLFAC
 40
1.0
  9
$DIMTOFL
 70
     0
  9
$DIMTVP
 40
0.0
  9
$DIMTIX
 70
     0
  9
$DIMSOXD
 70
     0
  9
$DIMSAH
 70
     0
  9
$DIMBLK1
  1

  9
$DIMBLK2
  1

  9
$DIMSTYLE
  2
Standard
  9
$DIMCLRD
 70
     0
  9
$DIMCLRE
 70
     0
  9
$DIMCLRT
 70
     0
  9
$DIMTFAC
 40
1.0
  9
$DIMGAP
 40
0.09
  9
$DIMJUST
 70
     0
  9
$DIMSD1
 70
     0
  9
$DIMSD2
 70
     0
  9
$DIMTOLJ
 70
     1
  9
$DIMTZIN
 70
     0
  9
$DIMALTZ
 70
     0
  9
$DIMALTTZ
 70
     0
  9
$DIMUPT
 70
     0
  9
$DIMDEC
 70
     4
  9
$DIMTDEC
 70
     4
  9
$DIMALTU
 70
     2
  9
$DIMALTTD
 70
     2
  9
$DIMTXSTY
  7
STANDARD
  9
$DIMAUNIT
 70
     0
  9
$DIMADEC
 70
     0
  9
$DIMALTRND
 40
0.0
  9
$DIMAZIN
 70
     0
  9
$DIMDSEP
 70
    46
  9
$DIMATFIT
 70
     3
  9
$DIMFRAC
 70
     0
  9
$DIMLDRBLK
  1

  9
$DIMLUNIT
 70
     2
  9
$DIMLWD
 70
    -2
  9
$DIMLWE
 70
    -2
  9
$DIMTMOVE
 70
     2
  9
$LUNITS
 70
     2
  9
$LUPREC
 70
     4
  9
$SKETCHINC
 40
0.1
  9
$FILLETRAD
 40
0.0
  9
$AUNITS
 70
     0
  9
$AUPREC
 70
     0
  9
$MENU
  1
acad
  9
$ELEVATION
 40
0.0
  9
$PELEVATION
 40
0.0
  9
$THICKNESS
 40
0.0
  9
$LIMCHECK
 70
     0
  9
$CHAMFERA
 40
0.0
  9
$CHAMFERB
 40
0.0
  9
$CHAMFERC
 40
0.0
  9
$CHAMFERD
 40
0.0
  9
$SKPOLY
 70
     0
  9
$TDCREATE
 40
2450446.327963426
  9
$TDUCREATE
 40
2450446.619630092
  9
$TDUPDATE
 40
2453021.563160567
  9
$TDUUPDATE
 40
2453021.854827233
  9
$TDINDWG
 40
0.6859105324
  9
$TDUSRTIMER
 40
0.6859105324
  9
$USRTIMER
 70
     1
  9
$ANGBASE
 50
0.0
  9
$ANGDIR
 70
     0
  9
$PDMODE
 70
     0
  9
$PDSIZE
 40
0.0
  9
$PLINEWID
 40
0.01
  9
$SPLFRAME
 70
     0
  9
$SPLINETYPE
 70
     6
  9
$SPLINESEGS
 70
     8
  9
$HANDSEED
  5
2006
  9
$SURFTAB1
 70
     6
  9
$SURFTAB2
 70
     6
  9
$SURFTYPE
 70
     6
  9
$SURFU
 70
     6
  9
$SURFV
 70
     6
  9
$UCSBASE
  2

  9
$UCSNAME
  2

  9
$UCSORG
 10
0.0
 20
0.0
 30
0.0
  9
$UCSXDIR
 10
1.0
 20
0.0
 30
0.0
  9
$UCSYDIR
 10
0.0
 20
1.0
 30
0.0
  9
$UCSORTHOREF
  2

  9
$UCSORTHOVIEW
 70
     0
  9
$UCSORGTOP
 10
0.0
 20
0.0
 30
0.0
  9
$UCSORGBOTTOM
 10
0.0
 20
0.0
 30
0.0
  9
$UCSORGLEFT
 10
0.0
 20
0.0
 30
0.0
  9
$UCSORGRIGHT
 10
0.0
 20
0.0
 30
0.0
  9
$UCSORGFRONT
 10
0.0
 20
0.0
 30
0.0
  9
$UCSORGBACK
 10
0.0
 20
0.0
 30
0.0
  9
$PUCSBASE
  2

  9
$PUCSNAME
  2

  9
$PUCSORG
 10
0.0
 20
0.0
 30
0.0
  9
$PUCSXDIR
 10
1.0
 20
0.0
 30
0.0
  9
$PUCSYDIR
 10
0.0
 20
1.0
 30
0.0
  9
$PUCSORTHOREF
  2

  9
$PUCSORTHOVIEW
 70
     0
  9
$PUCSORGTOP
 10
0.0
 20
0.0
 30
0.0
  9
$PUCSORGBOTTOM
 10
0.0
 20
0.0
 30
0.0
  9
$PUCSORGLEFT
 10
0.0
 20
0.0
 30
0.0
  9
$PUCSORGRIGHT
 10
0.0
 20
0.0
 30
0.0
  9
$PUCSORGFRONT
 10
0.0
 20
0.0
 30
0.0
  9
$PUCSORGBACK
 10
0.0
 20
0.0
 30
0.0
  9
$USERI1
 70
     0
  9
$USERI2
 70
     0
  9
$USERI3
 70
     0
  9
$USERI4
 70
     0
  9
$USERI5
 70
     0
  9
$USERR1
 40
1.0
  9
$USERR2
 40
1.0
  9
$USERR3
 40
0.0
  9
$USERR4
 40
0.0
  9
$USERR5
 40
0.0
  9
$WORLDVIEW
 70
     1
  9
$SHADEDGE
 70
     3
  9
$SHADEDIF
 70
    70
  9
$TILEMODE
 70
     1
  9
$MAXACTVP
 70
    16
  9
$PINSBASE
 10
0.0
 20
0.0
 30
0.0
  9
$PLIMCHECK
 70
     0
  9
$PEXTMIN
 10
1.000000000000000E+20
 20
1.000000000000000E+20
 30
1.000000000000000E+20
  9
$PEXTMAX
 10
-1.000000000000000E+20
 20
-1.000000000000000E+20
 30
-1.000000000000000E+20
  9
$PLIMMIN
 10
0.0
 20
0.0
  9
$PLIMMAX
 10
12.0
 20
9.0
  9
$UNITMODE
 70
     0
  9
$VISRETAIN
 70
     0
  9
$PLINEGEN
 70
     1
  9
$PSLTSCALE
 70
     0
  9
$TREEDEPTH
 70
  3020
  9
$CMLSTYLE
  2
Standard
  9
$CMLJUST
 70
     0
  9
$CMLSCALE
 40
1.0
  9
$PROXYGRAPHICS
 70
     1
  9
$MEASUREMENT
 70
     0
  9
$CELWEIGHT
370
    -1
  9
$ENDCAPS
280
     0
  9
$JOINSTYLE
280
     0
  9
$LWDISPLAY
290
     0
  9
$INSUNITS
 70
     0
  9
$HYPERLINKBASE
  1

  9
$STYLESHEET
  1
8500ColorShaded.ctb
  9
$XEDIT
290
     1
  9
$CEPSNTYPE
380
     0
  9
$PSTYLEMODE
290
     1
  9
$FINGERPRINTGUID
  2
{FD549077-16AA-4B22-8FFD-CE7FD5B9FA75}
  9
$VERSIONGUID
  2
{70DEC419-A5AB-406F-8C14-01E5230C10F1}
  9
$EXTNAMES
290
     1
  9
$PSVPSCALE
 40
0.0
  9
$OLESTARTUP
290
     0
  0
ENDSEC
  0
SECTION
  2
CLASSES
  0
CLASS
  1
ACDBDICTIONARYWDFLT
  2
AcDbDictionaryWithDefault
  3
AutoCAD 2000
 90
        0
280
     0
281
     0
  0
CLASS
  1
ACDBPLACEHOLDER
  2
AcDbPlaceHolder
  3
AutoCAD 2000
 90
        0
280
     0
281
     0
  0
CLASS
  1
LAYOUT
  2
AcDbLayout
  3
AutoCAD 2000
 90
        0
280
     0
281
     0
  0
CLASS
  1
PLOTSETTINGS
  2
AcDbPlotSettings
  3
AutoCAD 2000
 90
        0
280
     0
281
     0
  0
CLASS
  1
DICTIONARYVAR
  2
AcDbDictionaryVar
  3
AutoCAD 2000
 90
        0
280
     0
281
     0
  0
ENDSEC
  0
SECTION
  2
TABLES
  0
TABLE
  2
VPORT
  5
8
330
0
100
AcDbSymbolTable
 70
     4
  0
VPORT
  5
2005
330
8
100
AcDbSymbolTableRecord
100
AcDbViewportTableRecord
  2
*Active
 70
     0
 10
0.0
 20
0.0
 11
1.0
 21
1.0
 12
8.245000038393776
 22
5.220000024307515
 13
0.0
 23
0.0
 14
1.0
 24
1.0
 15
0.0
 25
0.0
 16
0.0
 26
0.0
 36
1.0
 17
0.0
 27
0.0
 37
0.0
 40
10.52692346494134
 41
1.609655172413793
 42
50.0
 43
0.0
 44
0.0
 50
0.0
 51
0.0
 71
     0
 72
  1000
 73
     1
 74
     0
 75
     0
 76
     0
 77
     0
 78
     0
281
     0
 65
     1
110
0.0
120
0.0
130
0.0
111
1.0
121
0.0
131
0.0
112
0.0
122
1.0
132
0.0
 79
     0
146
0.0
  0
ENDTAB
  0
TABLE
  2
LTYPE
  5
5
330
0
100
AcDbSymbolTable
 70
     1
  0
LTYPE
  5
13
330
5
100
AcDbSymbolTableRecord
100
AcDbLinetypeTableRecord
  2
ByBlock
 70
     0
  3

 72
    65
 73
     0
 40
0.0
  0
LTYPE
  5
14
330
5
100
AcDbSymbolTableRecord
100
AcDbLinetypeTableRecord
  2
ByLayer
 70
     0
  3

 72
    65
 73
     0
 40
0.0
  0
LTYPE
  5
15
330
5
100
AcDbSymbolTableRecord
100
AcDbLinetypeTableRecord
  2
CONTINUOUS
 70
     0
  3
Solid line
 72
    65
 73
     0
 40
0.0
  0
ENDTAB
  0
TABLE
  2
LAYER
  5
2
102
{ACAD_XDICTIONARY
360
2004
102
}
330
0
100
AcDbSymbolTable
 70
     4
  0
LAYER
  5
10
330
2
100
AcDbSymbolTableRecord
100
AcDbLayerTableRecord
  2
0
 70
     0
 62
     7
  6
CONTINUOUS
370
    -3
390
F
  0
LAYER
  5
3A
330
2
100
AcDbSymbolTableRecord
100
AcDbLayerTableRecord
  2
TITLE
 70
     0
 62
     7
  6
CONTINUOUS
370
    -3
390
F
  0
LAYER
  5
1B67
330
2
100
AcDbSymbolTableRecord
100
AcDbLayerTableRecord
  2
IMAGE
 70
     0
 62
     7
  6
CONTINUOUS
370
    -3
390
F
  0
LAYER
  5
1B68
330
2
100
AcDbSymbolTableRecord
100
AcDbLayerTableRecord
  2
TEXT_BUBBLES
 70
     0
 62
     7
  6
CONTINUOUS
370
    -3
390
F
  0
ENDTAB
  0
TABLE
  2
STYLE
  5
3
330
0
100
AcDbSymbolTable
 70
     5
  0
STYLE
  5
11
330
3
100
AcDbSymbolTableRecord
100
AcDbTextStyleTableRecord
  2
STANDARD
 70
     0
 40
0.0
 41
1.0
 50
0.0
 71
     0
 42
0.2
  3
txt
  4

  0
STYLE
  5
2E
330
3
100
AcDbSymbolTableRecord
100
AcDbTextStyleTableRecord
  2
L100
 70
     0
 40
0.07
 41
1.0
 50
0.0
 71
     0
 42
0.07
  3
SIMPLEX
  4

  0
STYLE
  5
2F
330
3
100
AcDbSymbolTableRecord
100
AcDbTextStyleTableRecord
  2
L200
 70
     0
 40
0.2
 41
1.0
 50
0.0
 71
     0
 42
0.1
  3
ARIAL.TTF
  4

1001
ACAD
1000
Arial
1071
       34
  0
STYLE
  5
30
330
3
100
AcDbSymbolTableRecord
100
AcDbTextStyleTableRecord
  2
L80
 70
     0
 40
0.08
 41
1.0
 50
0.0
 71
     0
 42
0.08
  3
simplex
  4

  0
STYLE
  5
1B69
330
3
100
AcDbSymbolTableRecord
100
AcDbTextStyleTableRecord
  2
ROMANS
 70
     0
 40
0.0
 41
1.0
 50
0.0
 71
     0
 42
0.1
  3
romans
  4

  0
ENDTAB
  0
TABLE
  2
VIEW
  5
6
330
0
100
AcDbSymbolTable
 70
     1
  0
VIEW
  5
1E69
330
6
100
AcDbSymbolTableRecord
100
AcDbViewTableRecord
  2
ps1
 70
     0
 40
10.44
 10
8.245
 20
5.219999999999999
 41
16.49
 11
0.0
 21
0.0
 31
1.0
 12
0.0
 22
0.0
 32
0.0
 42
50.0
 43
0.0
 44
0.0
 50
0.0
 71
     0
281
     0
 72
     1
110
0.0
120
0.0
130
0.0
111
1.0
121
0.0
131
0.0
112
0.0
122
1.0
132
0.0
 79
     0
146
0.0
  0
ENDTAB
  0
TABLE
  2
UCS
  5
7
330
0
100
AcDbSymbolTable
 70
     0
  0
ENDTAB
  0
TABLE
  2
APPID
  5
9
330
0
100
AcDbSymbolTable
 70
    28
  0
APPID
  5
12
330
9
100
AcDbSymbolTableRecord
100
AcDbRegAppTableRecord
  2
ACAD
 70
     0
  0
APPID
  5
33
330
9
100
AcDbSymbolTableRecord
100
AcDbRegAppTableRecord
  2
CLSI_CADWRITER
 70
     0
  0
APPID
  5
1D20
330
9
100
AcDbSymbolTableRecord
100
AcDbRegAppTableRecord
  2
RAK
 70
     0
  0
APPID
  5
1D21
330
9
100
AcDbSymbolTableRecord
100
AcDbRegAppTableRecord
  2
WID_Sprinkler
 70
     0
  0
APPID
  5
1D22
330
9
100
AcDbSymbolTableRecord
100
AcDbRegAppTableRecord
  2
WID_Valve
 70
     0
  0
APPID
  5
1D23
330
9
100
AcDbSymbolTableRecord
100
AcDbRegAppTableRecord
  2
WID_Fitting
 70
     0
  0
APPID
  5
1D24
330
9
100
AcDbSymbolTableRecord
100
AcDbRegAppTableRecord
  2
WID_HPNode
 70
     0
  0
APPID
  5
1D25
330
9
100
AcDbSymbolTableRecord
100
AcDbRegAppTableRecord
  2
WID_Node
 70
     0
  0
APPID
  5
1D26
330
9
100
AcDbSymbolTableRecord
100
AcDbRegAppTableRecord
  2
WID_Conduit
 70
     0
  0
APPID
  5
1D27
330
9
100
AcDbSymbolTableRecord
100
AcDbRegAppTableRecord
  2
WID_SprinklerSection
 70
     0
  0
APPID
  5
1D28
330
9
100
AcDbSymbolTableRecord
100
AcDbRegAppTableRecord
  2
WID_MainLineSection
 70
     0
  0
APPID
  5
1D29
330
9
100
AcDbSymbolTableRecord
100
AcDbRegAppTableRecord
  2
WID_ManifoldSection
 70
     0
  0
APPID
  5
1D2A
330
9
100
AcDbSymbolTableRecord
100
AcDbRegAppTableRecord
  2
WID_DripSection
 70
     0
  0
APPID
  5
1D2B
330
9
100
AcDbSymbolTableRecord
100
AcDbRegAppTableRecord
  2
WID_HPSection
 70
     0
  0
APPID
  5
1D2C
330
9
100
AcDbSymbolTableRecord
100
AcDbRegAppTableRecord
  2
WID_Sleeve
 70
     0
  0
APPID
  5
1D2D
330
9
100
AcDbSymbolTableRecord
100
AcDbRegAppTableRecord
  2
WID_Layout
 70
     0
  0
APPID
  5
1D2E
330
9
100
AcDbSymbolTableRecord
100
AcDbRegAppTableRecord
  2
WID_Island
 70
     0
  0
APPID
  5
1D2F
330
9
100
AcDbSymbolTableRecord
100
AcDbRegAppTableRecord
  2
WID_Controller
 70
     0
  0
APPID
  5
1D30
330
9
100
AcDbSymbolTableRecord
100
AcDbRegAppTableRecord
  2
WID_SprinklerLateral
 70
     0
  0
APPID
  5
1D31
330
9
100
AcDbSymbolTableRecord
100
AcDbRegAppTableRecord
  2
WID_HPDripLateral
 70
     0
  0
APPID
  5
1D32
330
9
100
AcDbSymbolTableRecord
100
AcDbRegAppTableRecord
  2
WID_LabelPipeSize
 70
     0
  0
APPID
  5
1D33
330
9
100
AcDbSymbolTableRecord
100
AcDbRegAppTableRecord
  2
WID_LabelPipeSegment
 70
     0
  0
APPID
  5
1D34
330
9
100
AcDbSymbolTableRecord
100
AcDbRegAppTableRecord
  2
WID_LabelValveDesignator
 70
     0
  0
APPID
  5
1D35
330
9
100
AcDbSymbolTableRecord
100
AcDbRegAppTableRecord
  2
WID_CheckArc
 70
     0
  0
APPID
  5
1D36
330
9
100
AcDbSymbolTableRecord
100
AcDbRegAppTableRecord
  2
WID_ObjectType
 70
     0
  0
APPID
  5
1D37
330
9
100
AcDbSymbolTableRecord
100
AcDbRegAppTableRecord
  2
WID_DripLateral
 70
     0
  0
APPID
  5
1D38
330
9
100
AcDbSymbolTableRecord
100
AcDbRegAppTableRecord
  2
ABNSLEADERTOOLS
 70
     0
  0
APPID
  5
1D39
330
9
100
AcDbSymbolTableRecord
100
AcDbRegAppTableRecord
  2
DCO15
 70
     0
  0
ENDTAB
  0
TABLE
  2
DIMSTYLE
  5
A
330
0
100
AcDbSymbolTable
 70
     1
100
AcDbDimStyleTable
 71
     0
  0
DIMSTYLE
105
1B61
330
A
100
AcDbSymbolTableRecord
100
AcDbDimStyleTableRecord
  2
Standard
 70
     0
340
11
  0
ENDTAB
  0
TABLE
  2
BLOCK_RECORD
  5
1
330
0
100
AcDbSymbolTable
 70
     7
  0
BLOCK_RECORD
  5
1E
330
1
100
AcDbSymbolTableRecord
100
AcDbBlockTableRecord
  2
*Model_Space
340
21
  0
BLOCK_RECORD
  5
1A
330
1
100
AcDbSymbolTableRecord
100
AcDbBlockTableRecord
  2
*Paper_Space
340
1D
  0
BLOCK_RECORD
  5
22
330
1
100
AcDbSymbolTableRecord
100
AcDbBlockTableRecord
  2
*X0
340
0
102
{BLKREFS
331
1B22
102
}
  0
BLOCK_RECORD
  5
24
330
1
100
AcDbSymbolTableRecord
100
AcDbBlockTableRecord
  2
TITLBLK
340
0
102
{BLKREFS
331
1DBF
102
}
  0
BLOCK_RECORD
  5
1B63
330
1
100
AcDbSymbolTableRecord
100
AcDbBlockTableRecord
  2
IDAEP
340
0
102
{BLKREFS
331
1FA6
331
1FA8
331
1FC4
331
1FC5
102
}
  0
BLOCK_RECORD
  5
1C44
330
1
100
AcDbSymbolTableRecord
100
AcDbBlockTableRecord
  2
bubble
340
0
310
2800000020000000200000000100080000000000000400000000000000000000000000000000000000000000000080000080000000808000800000008000800080800000C0C0C000C0DCC000F0CAA6000020400000206000002080000020A0000020C0000020E00000400000004020000040400000406000004080000040A0
310
000040C0000040E00000600000006020000060400000606000006080000060A0000060C0000060E00000800000008020000080400000806000008080000080A0000080C0000080E00000A0000000A0200000A0400000A0600000A0800000A0A00000A0C00000A0E00000C0000000C0200000C0400000C0600000C0800000C0
310
A00000C0C00000C0E00000E0000000E0200000E0400000E0600000E0800000E0A00000E0C00000E0E00040000000400020004000400040006000400080004000A0004000C0004000E00040200000402020004020400040206000402080004020A0004020C0004020E000404000004040200040404000404060004040800040
310
40A0004040C0004040E00040600000406020004060400040606000406080004060A0004060C0004060E00040800000408020004080400040806000408080004080A0004080C0004080E00040A0000040A0200040A0400040A0600040A0800040A0A00040A0C00040A0E00040C0000040C0200040C0400040C0600040C08000
310
40C0A00040C0C00040C0E00040E0000040E0200040E0400040E0600040E0800040E0A00040E0C00040E0E00080000000800020008000400080006000800080008000A0008000C0008000E00080200000802020008020400080206000802080008020A0008020C0008020E00080400000804020008040400080406000804080
310
008040A0008040C0008040E00080600000806020008060400080606000806080008060A0008060C0008060E00080800000808020008080400080806000808080008080A0008080C0008080E00080A0000080A0200080A0400080A0600080A0800080A0A00080A0C00080A0E00080C0000080C0200080C0400080C0600080C0
310
800080C0A00080C0C00080C0E00080E0000080E0200080E0400080E0600080E0800080E0A00080E0C00080E0E000C0000000C0002000C0004000C0006000C0008000C000A000C000C000C000E000C0200000C0202000C0204000C0206000C0208000C020A000C020C000C020E000C0400000C0402000C0404000C0406000C0
310
408000C040A000C040C000C040E000C0600000C0602000C0604000C0606000C0608000C060A000C060C000C060E000C0800000C0802000C0804000C0806000C0808000C080A000C080C000C080E000C0A00000C0A02000C0A04000C0A06000C0A08000C0A0A000C0A0C000C0A0E000C0C00000C0C02000C0C04000C0C06000
310
C0C08000C0C0A000F0FBFF00A4A0A000808080000000FF0000FF000000FFFF00FF000000FF00FF00FFFF0000FFFFFF0008080808080808080808080808080808080808080808080808080808080808080808080808080808080808080808080808080808080808080808080808080808080808080808080808080808FDFDFD
310
08080808080808080808080808080808080808080808080808080808FD080808FDFDFDFDFDFD0808080808080808080808080808080808080808FDFD08080808080808080808FDFDFDFD080808080808080808080808080808FD08080808080808080808080808080808FD08080808080808080808080808FD080808080808
310
0808080808080808080808FD0808080808080808080808FDFD08080808080808080808080808080808080808FD080808080808080808FD080808080808080808080808080808080808080808FD0808080808080808FD08FD0808080808080808FD0808FD0808080808080808FDFD08080808080808FD0808FD080808080808
310
FD08080808FD080808080808FD08FD08080808080808FD0808FD080808080808FD08080808FD080808080808FD0808FD080808080808FD080808FD08080808FD080808080808FD08080808FD080808FD080808080808FD08080808FD0808FD0808080808080808FD0808FD0808080808FD0808080808FD08080808FD0808FD
310
0808080808080808FD0808FD0808080808FD0808080808FD0808080808FDFD08080808080808080808FDFD08080808080808FD08080808FD0808080808FDFD08080808080808080808FDFD08080808080808FD08080808FD08080808FD0808FD0808080808080808FD0808FD0808080808FD0808080808FD08080808FD0808
310
FD0808080808080808FD0808FD0808080808FD0808080808FD080808FD08080808FD080808080808FD08080808FD080808FD080808080808FD0808FD080808080808FD08080808FD080808080808FD0808FD080808080808FD0808FD080808080808FD08080808FD080808080808FD08FD08080808080808FD08FD08080808
310
08080808FD0808FD0808080808080808FDFD0808080808080808FD080808080808080808080808080808080808080808FD08080808080808080808FDFD08080808080808080808080808080808080808FD080808080808080808080808FD0808080808080808080808080808080808FD0808080808080808080808080808FD
310
08080808080808080808080808080808FD080808080808080808080808080808FDFD0808080808080808080808FDFDFD080808080808080808080808080808080808FD08080808FDFDFDFDFDFD08080808080808080808080808080808080808080808FDFDFDFD080808080808080808080808080808080808080808080808
310
0808080808080808080808080808080808080808080808080808080808080808080808080808080808080808080808080808080808080808
102
{BLKREFS
331
1D8F
331
1D92
331
1D95
331
1DB9
331
1DF2
331
1DF7
102
}
  0
BLOCK_RECORD
  5
1C49
330
1
100
AcDbSymbolTableRecord
100
AcDbBlockTableRecord
  2
PlotLayout2002
340
0
102
{BLKREFS
331
1C4D
331
1E64
102
}
  0
BLOCK_RECORD
  5
1C4C
330
1
100
AcDbSymbolTableRecord
100
AcDbBlockTableRecord
  2
wid
340
0
102
{BLKREFS
331
1DBC
331
1DBD
102
}
  0
BLOCK_RECORD
  5
1E63
330
1
100
AcDbSymbolTableRecord
100
AcDbBlockTableRecord
  2
pagesetups
340
0
102
{BLKREFS
331
1E68
102
}
  0
ENDTAB
  0
ENDSEC
  0
SECTION
  2
BLOCKS
  0
BLOCK
  5
47
330
1E
100
AcDbEntity
  8
0
100
AcDbBlockBegin
  2
*Model_Space
 70
     0
 10
0.0
 20
0.0
 30
0.0
  3
*Model_Space
  1

  0
ENDBLK
  5
48
330
1E
100
AcDbEntity
  8
0
100
AcDbBlockEnd
  0
BLOCK
  5
45
330
1A
100
AcDbEntity
 67
     1
  8
0
100
AcDbBlockBegin
  2
*Paper_Space
 70
     0
 10
0.0
 20
0.0
 30
0.0
  3
*Paper_Space
  1

  0
ENDBLK
  5
46
330
1A
100
AcDbEntity
 67
     1
  8
0
100
AcDbBlockEnd
  0
BLOCK
  5
49
330
22
100
AcDbEntity
  8
0
100
AcDbBlockBegin
  2
*X0
 70
     1
 10
0.0
 20
0.0
 30
0.0
  3
*X0
  1

  0
LINE
  5
4A
330
22
100
AcDbEntity
  8
0
100
AcDbLine
 10
10.06404563959276
 20
-6.701456142340282
 30
0.0
 11
10.29375950845557
 21
-6.471742273477464
 31
0.0
  0
LINE
  5
4B
330
22
100
AcDbEntity
  8
0
100
AcDbLine
 10
10.06232255479329
 20
-6.701411460186778
 30
0.0
 11
10.29203516396514
 21
-6.471698851014934
 31
0.0
  0
LINE
  5
4C
330
22
100
AcDbEntity
  8
0
100
AcDbLine
 10
10.06060011402006
 20
-6.701366134007046
 30
0.0
 11
10.29031017336603
 21
-6.471656074661081
 31
0.0
  0
LINE
  5
4D
330
22
100
AcDbEntity
  8
0
100
AcDbLine
 10
10.05887831657092
 20
-6.701320164503222
 30
0.0
 11
10.28858453594989
 21
-6.47161394512425
 31
0.0
  0
LINE
  5
4E
330
22
100
AcDbEntity
  8
0
100
AcDbLine
 10
10.05715716174525
 20
-6.701273552375922
 30
0.0
 11
10.2868582510068
 21
-6.471572463114379
 31
0.0
  0
LINE
  5
4F
330
22
100
AcDbEntity
  8
0
100
AcDbLine
 10
10.05543664884405
 20
-6.701226298324154
 30
0.0
 11
10.28513131782522
 21
-6.47153162934299
 31
0.0
  0
LINE
  5
50
330
22
100
AcDbEntity
  8
0
100
AcDbLine
 10
10.05371677716981
 20
-6.701178403045426
 30
0.0
 11
10.28340373569204
 21
-6.471491444523195
 31
0.0
  0
LINE
  5
51
330
22
100
AcDbEntity
  8
0
100
AcDbLine
 10
10.05199754602661
 20
-6.701129867235664
 30
0.0
 11
10.28167550389258
 21
-6.471451909369699
 31
0.0
  0
LINE
  5
52
330
22
100
AcDbEntity
  8
0
100
AcDbLine
 10
10.05027895472001
 20
-6.701080691589299
 30
0.0
 11
10.27994662171049
 21
-6.471413024598814
 31
0.0
  0
LINE
  5
53
330
22
100
AcDbEntity
  8
0
100
AcDbLine
 10
10.04856100255716
 20
-6.701030876799181
 30
0.0
 11
10.27821708842789
 21
-6.471374790928455
 31
0.0
  0
LINE
  5
54
330
22
100
AcDbEntity
  8
0
100
AcDbLine
 10
10.04684368884673
 20
-6.700980423556649
 30
0.0
 11
10.27648690332523
 21
-6.471337209078151
 31
0.0
  0
LINE
  5
55
330
22
100
AcDbEntity
  8
0
100
AcDbLine
 10
10.04512701289887
 20
-6.700929332551543
 30
0.0
 11
10.27475606568136
 21
-6.471300279769049
 31
0.0
  0
LINE
  5
56
330
22
100
AcDbEntity
  8
0
100
AcDbLine
 10
10.0434109740253
 20
-6.700877604472141
 30
0.0
 11
10.27302457477353
 21
-6.471264003723913
 31
0.0
  0
LINE
  5
57
330
22
100
AcDbEntity
  8
0
100
AcDbLine
 10
10.04169557153923
 20
-6.700825240005242
 30
0.0
 11
10.27129242987735
 21
-6.471228381667131
 31
0.0
  0
LINE
  5
58
330
22
100
AcDbEntity
  8
0
100
AcDbLine
 10
10.03998080475541
 20
-6.700772239836101
 30
0.0
 11
10.26955963026678
 21
-6.47119341432473
 31
0.0
  0
LINE
  5
59
330
22
100
AcDbEntity
  8
0
100
AcDbLine
 10
10.03826667299006
 20
-6.700718604648487
 30
0.0
 11
10.26782617521417
 21
-6.471159102424373
 31
0.0
  0
LINE
  5
5A
330
22
100
AcDbEntity
  8
0
100
AcDbLine
 10
10.03655317556091
 20
-6.700664335124669
 30
0.0
 11
10.26609206399022
 21
-6.47112544669536
 31
0.0
  0
LINE
  5
5B
330
22
100
AcDbEntity
  8
0
100
AcDbLine
 10
10.03484031178721
 20
-6.700609431945397
 30
0.0
 11
10.26435729586397
 21
-6.471092447868637
 31
0.0
  0
LINE
  5
5C
330
22
100
AcDbEntity
  8
0
100
AcDbLine
 10
10.03312808098968
 20
-6.700553895789965
 30
0.0
 11
10.26262187010284
 21
-6.471060106676808
 31
0.0
  0
LINE
  5
5D
330
22
100
AcDbEntity
  8
0
100
AcDbLine
 10
10.03141648249054
 20
-6.700497727336137
 30
0.0
 11
10.26088578597254
 21
-6.471028423854135
 31
0.0
  0
LINE
  5
5E
330
22
100
AcDbEntity
  8
0
100
AcDbLine
 10
10.02970551561347
 20
-6.700440927260236
 30
0.0
 11
10.25914904273718
 21
-6.470997400136536
 31
0.0
  0
LINE
  5
5F
330
22
100
AcDbEntity
  8
0
100
AcDbLine
 10
10.02799517968368
 20
-6.700383496237069
 30
0.0
 11
10.25741163965915
 21
-6.470967036261598
 31
0.0
  0
LINE
  5
60
330
22
100
AcDbEntity
  8
0
100
AcDbLine
 10
10.02628547402779
 20
-6.700325434939989
 30
0.0
 11
10.2556735759992
 21
-6.470937332968583
 31
0.0
  0
LINE
  5
61
330
22
100
AcDbEntity
  8
0
100
AcDbLine
 10
10.02457639797393
 20
-6.700266744040882
 30
0.0
 11
10.25393485101638
 21
-6.470908290998431
 31
0.0
  0
LINE
  5
62
330
22
100
AcDbEntity
  8
0
100
AcDbLine
 10
10.02286795085171
 20
-6.700207424210136
 30
0.0
 11
10.25219546396808
 21
-6.470879911093769
 31
0.0
  0
LINE
  5
63
330
22
100
AcDbEntity
  8
0
100
AcDbLine
 10
10.02116013199216
 20
-6.700147476116721
 30
0.0
 11
10.25045541410998
 21
-6.470852193998898
 31
0.0
  0
LINE
  5
64
330
22
100
AcDbEntity
  8
0
100
AcDbLine
 10
10.01945294072779
 20
-6.700086900428125
 30
0.0
 11
10.24871470069607
 21
-6.470825140459838
 31
0.0
  0
LINE
  5
65
330
22
100
AcDbEntity
  8
0
100
AcDbLine
 10
10.01774637639255
 20
-6.700025697810395
 30
0.0
 11
10.24697332297866
 21
-6.470798751224283
 31
0.0
  0
LINE
  5
66
330
22
100
AcDbEntity
  8
0
100
AcDbLine
 10
10.01604043832188
 20
-6.699963868928101
 30
0.0
 11
10.24523128020833
 21
-6.470773027041655
 31
0.0
  0
LINE
  5
67
330
22
100
AcDbEntity
  8
0
100
AcDbLine
 10
10.01433512585259
 20
-6.699901414444423
 30
0.0
 11
10.24348857163395
 21
-6.470747968663061
 31
0.0
  0
LINE
  5
68
330
22
100
AcDbEntity
  8
0
100
AcDbLine
 10
10.01263043832299
 20
-6.699838335021055
 30
0.0
 11
10.2417451965027
 21
-6.470723576841347
 31
0.0
  0
LINE
  5
69
330
22
100
AcDbEntity
  8
0
100
AcDbLine
 10
10.01092637507282
 20
-6.699774631318258
 30
0.0
 11
10.24000115406002
 21
-6.470699852331061
 31
0.0
  0
LINE
  5
6A
330
22
100
AcDbEntity
  8
0
100
AcDbLine
 10
10.00922293544321
 20
-6.699710303994903
 30
0.0
 11
10.23825644354962
 21
-6.470676795888499
 31
0.0
  0
LINE
  5
6B
330
22
100
AcDbEntity
  8
0
100
AcDbLine
 10
10.00752011877678
 20
-6.699645353708373
 30
0.0
 11
10.23651106421348
 21
-6.470654408271664
 31
0.0
  0
LINE
  5
6C
330
22
100
AcDbEntity
  8
0
100
AcDbLine
 10
10.00581792441749
 20
-6.699579781114694
 30
0.0
 11
10.23476501529187
 21
-6.470632690240316
 31
0.0
  0
LINE
  5
6D
330
22
100
AcDbEntity
  8
0
100
AcDbLine
 10
10.0041163517108
 20
-6.699513586868419
 30
0.0
 11
10.23301829602327
 21
-6.470611642555948
 31
0.0
  0
LINE
  5
6E
330
22
100
AcDbEntity
  8
0
100
AcDbLine
 10
10.00241540000352
 20
-6.699446771622733
 30
0.0
 11
10.23127090564444
 21
-6.470591265981809
 31
0.0
  0
LINE
  5
6F
330
22
100
AcDbEntity
  8
0
100
AcDbLine
 10
10.00071506864392
 20
-6.699379336029362
 30
0.0
 11
10.22952284339039
 21
-6.470571561282892
 31
0.0
  0
LINE
  5
70
330
22
100
AcDbEntity
  8
0
100
AcDbLine
 10
9.999015356981661
 20
-6.69931128073866
 30
0.0
 11
10.22777410849436
 21
-6.470552529225958
 31
0.0
  0
LINE
  5
71
330
22
100
AcDbEntity
  8
0
100
AcDbLine
 10
9.997316264367769
 20
-6.699242606399585
 30
0.0
 11
10.22602470018782
 21
-6.470534170579527
 31
0.0
  0
LINE
  5
72
330
22
100
AcDbEntity
  8
0
100
AcDbLine
 10
9.995617790154723
 20
-6.699173313659667
 30
0.0
 11
10.22427461770048
 21
-6.470516486113904
 31
0.0
  0
LINE
  5
73
330
22
100
AcDbEntity
  8
0
100
AcDbLine
 10
9.993919933696339
 20
-6.699103403165083
 30
0.0
 11
10.22252386026027
 21
-6.470499476601148
 31
0.0
  0
LINE
  5
74
330
22
100
AcDbEntity
  8
0
100
AcDbLine
 10
9.992222694347887
 20
-6.699032875560568
 30
0.0
 11
10.22077242709333
 21
-6.470483142815123
 31
0.0
  0
LINE
  5
75
330
22
100
AcDbEntity
  8
0
100
AcDbLine
 10
9.99052607146595
 20
-6.69896173148954
 30
0.0
 11
10.21902031742402
 21
-6.470467485531464
 31
0.0
  0
LINE
  5
76
330
22
100
AcDbEntity
  8
0
100
AcDbLine
 10
9.988830064408556
 20
-6.698889971593967
 30
0.0
 11
10.21726753047491
 21
-6.470452505527608
 31
0.0
  0
LINE
  5
77
330
22
100
AcDbEntity
  8
0
100
AcDbLine
 10
9.987134672535058
 20
-6.698817596514498
 30
0.0
 11
10.21551406546676
 21
-6.470438203582792
 31
0.0
  0
LINE
  5
78
330
22
100
AcDbEntity
  8
0
100
AcDbLine
 10
9.985439895206223
 20
-6.698744606890368
 30
0.0
 11
10.21375992161853
 21
-6.470424580478054
 31
0.0
  0
LINE
  5
79
330
22
100
AcDbEntity
  8
0
100
AcDbLine
 10
9.98374573178415
 20
-6.698671003359474
 30
0.0
 11
10.21200509814738
 21
-6.470411636996245
 31
0.0
  0
LINE
  5
7A
330
22
100
AcDbEntity
  8
0
100
AcDbLine
 10
9.982052181632333
 20
-6.698596786558323
 30
0.0
 11
10.21024959426861
 21
-6.470399373922037
 31
0.0
  0
LINE
  5
7B
330
22
100
AcDbEntity
  8
0
100
AcDbLine
 10
9.980359244115618
 20
-6.698521957122074
 30
0.0
 11
10.20849340919577
 21
-6.470387792041919
 31
0.0
  0
LINE
  5
7C
330
22
100
AcDbEntity
  8
0
100
AcDbLine
 10
9.978666918600186
 20
-6.698446515684538
 30
0.0
 11
10.20673654214051
 21
-6.470376892144213
 31
0.0
  0
LINE
  5
7D
330
22
100
AcDbEntity
  8
0
100
AcDbLine
 10
9.976975204453605
 20
-6.698370462878152
 30
0.0
 11
10.20497899231268
 21
-6.470366675019075
 31
0.0
  0
LINE
  5
7E
330
22
100
AcDbEntity
  8
0
100
AcDbLine
 10
9.975284101044767
 20
-6.698293799334026
 30
0.0
 11
10.2032207589203
 21
-6.470357141458492
 31
0.0
  0
LINE
  5
7F
330
22
100
AcDbEntity
  8
0
100
AcDbLine
 10
9.973593607743913
 20
-6.698216525681912
 30
0.0
 11
10.20146184116951
 21
-6.470348292256314
 31
0.0
  0
LINE
  5
80
330
22
100
AcDbEntity
  8
0
100
AcDbLine
 10
9.971903723922631
 20
-6.69813864255023
 30
0.0
 11
10.19970223826462
 21
-6.470340128208231
 31
0.0
  0
LINE
  5
81
330
22
100
AcDbEntity
  8
0
100
AcDbLine
 10
9.97021444895383
 20
-6.698060150566063
 30
0.0
 11
10.19794194940809
 21
-6.4703326501118
 31
0.0
  0
LINE
  5
82
330
22
100
AcDbEntity
  8
0
100
AcDbLine
 10
9.968525782211781
 20
-6.697981050355145
 30
0.0
 11
10.19618097380049
 21
-6.47032585876643
 31
0.0
  0
LINE
  5
83
330
22
100
AcDbEntity
  8
0
100
AcDbLine
 10
9.966837723072053
 20
-6.697901342541908
 30
0.0
 11
10.19441931064054
 21
-6.470319754973417
 31
0.0
  0
LINE
  5
84
330
22
100
AcDbEntity
  8
0
100
AcDbLine
 10
9.965150270911562
 20
-6.697821027749431
 30
0.0
 11
10.19265695912507
 21
-6.470314339535923
 31
0.0
  0
LINE
  5
85
330
22
100
AcDbEntity
  8
0
100
AcDbLine
 10
9.963463425108527
 20
-6.6977401065995
 30
0.0
 11
10.19089391844903
 21
-6.470309613258997
 31
0.0
  0
LINE
  5
86
330
22
100
AcDbEntity
  8
0
100
AcDbLine
 10
9.961777185042507
 20
-6.697658579712555
 30
0.0
 11
10.18913018780549
 21
-6.47030557694957
 31
0.0
  0
LINE
  5
87
330
22
100
AcDbEntity
  8
0
100
AcDbLine
 10
9.960091550094336
 20
-6.697576447707758
 30
0.0
 11
10.18736576638562
 21
-6.470302231416475
 31
0.0
  0
LINE
  5
88
330
22
100
AcDbEntity
  8
0
100
AcDbLine
 10
9.958406519646207
 20
-6.697493711202921
 30
0.0
 11
10.18560065337868
 21
-6.470299577470442
 31
0.0
  0
LINE
  5
89
330
22
100
AcDbEntity
  8
0
100
AcDbLine
 10
9.956722093081577
 20
-6.697410370814585
 30
0.0
 11
10.18383484797203
 21
-6.470297615924122
 31
0.0
  0
LINE
  5
8A
330
22
100
AcDbEntity
  8
0
100
AcDbLine
 10
9.955038269785228
 20
-6.697326427157967
 30
0.0
 11
10.18206834935113
 21
-6.470296347592056
 31
0.0
  0
LINE
  5
8B
330
22
100
AcDbEntity
  8
0
100
AcDbLine
 10
9.953355049143237
 20
-6.697241880846994
 30
0.0
 11
10.18030115669951
 21
-6.470295773290721
 31
0.0
  0
LINE
  5
8C
330
22
100
AcDbEntity
  8
0
100
AcDbLine
 10
9.951672430542966
 20
-6.697156732494296
 30
0.0
 11
10.17853326919874
 21
-6.470295893838518
 31
0.0
  0
LINE
  5
8D
330
22
100
AcDbEntity
  8
0
100
AcDbLine
 10
9.949990413373084
 20
-6.697070982711212
 30
0.0
 11
10.17676468602851
 21
-6.47029671005578
 31
0.0
  0
LINE
  5
8E
330
22
100
AcDbEntity
  8
0
100
AcDbLine
 10
9.948308997023517
 20
-6.696984632107814
 30
0.0
 11
10.17499540636655
 21
-6.470298222764776
 31
0.0
  0
LINE
  5
8F
330
22
100
AcDbEntity
  8
0
100
AcDbLine
 10
9.946628180885504
 20
-6.69689768129286
 30
0.0
 11
10.17322542938864
 21
-6.470300432789723
 31
0.0
  0
LINE
  5
90
330
22
100
AcDbEntity
  8
0
100
AcDbLine
 10
9.944947964351554
 20
-6.696810130873843
 30
0.0
 11
10.1714547542686
 21
-6.470303340956788
 31
0.0
  0
LINE
  5
91
330
22
100
AcDbEntity
  8
0
100
AcDbLine
 10
9.943268346815447
 20
-6.696721981456985
 30
0.0
 11
10.16968338017833
 21
-6.470306948094101
 31
0.0
  0
LINE
  5
92
330
22
100
AcDbEntity
  8
0
100
AcDbLine
 10
9.941589327672248
 20
-6.696633233647216
 30
0.0
 11
10.16791130628771
 21
-6.470311255031748
 31
0.0
  0
LINE
  5
93
330
22
100
AcDbEntity
  8
0
100
AcDbLine
 10
9.939910906318266
 20
-6.696543888048232
 30
0.0
 11
10.1661385317647
 21
-6.470316262601796
 31
0.0
  0
LINE
  5
94
330
22
100
AcDbEntity
  8
0
100
AcDbLine
 10
9.938233082151104
 20
-6.696453945262429
 30
0.0
 11
10.16436505577525
 21
-6.470321971638276
 31
0.0
  0
LINE
  5
95
330
22
100
AcDbEntity
  8
0
100
AcDbLine
 10
9.936555854569597
 20
-6.696363405890968
 30
0.0
 11
10.16259087748334
 21
-6.470328382977221
 31
0.0
  0
LINE
  5
96
330
22
100
AcDbEntity
  8
0
100
AcDbLine
 10
9.93487922297386
 20
-6.696272270533738
 30
0.0
 11
10.16081599605095
 21
-6.47033549745664
 31
0.0
  0
LINE
  5
97
330
22
100
AcDbEntity
  8
0
100
AcDbLine
 10
9.933203186765265
 20
-6.696180539789368
 30
0.0
 11
10.15904041063809
 21
-6.470343315916542
 31
0.0
  0
LINE
  5
98
330
22
100
AcDbEntity
  8
0
100
AcDbLine
 10
9.931527745346395
 20
-6.696088214255271
 30
0.0
 11
10.15726412040272
 21
-6.470351839198944
 31
0.0
  0
LINE
  5
99
330
22
100
AcDbEntity
  8
0
100
AcDbLine
 10
9.929852898121126
 20
-6.695995294527575
 30
0.0
 11
10.15548712450082
 21
-6.470361068147873
 31
0.0
  0
LINE
  5
9A
330
22
100
AcDbEntity
  8
0
100
AcDbLine
 10
9.928178644494554
 20
-6.69590178120118
 30
0.0
 11
10.15370942208636
 21
-6.470371003609369
 31
0.0
  0
LINE
  5
9B
330
22
100
AcDbEntity
  8
0
100
AcDbLine
 10
9.926504983873032
 20
-6.695807674869735
 30
0.0
 11
10.15193101231126
 21
-6.470381646431507
 31
0.0
  0
LINE
  5
9C
330
22
100
AcDbEntity
  8
0
100
AcDbLine
 10
9.924831915664109
 20
-6.695712976125693
 30
0.0
 11
10.15015189432543
 21
-6.470392997464371
 31
0.0
  0
LINE
  5
9D
330
22
100
AcDbEntity
  8
0
100
AcDbLine
 10
9.923159439276618
 20
-6.695617685560216
 30
0.0
 11
10.14837206727672
 21
-6.470405057560107
 31
0.0
  0
LINE
  5
9E
330
22
100
AcDbEntity
  8
0
100
AcDbLine
 10
9.921487554120574
 20
-6.695521803763293
 30
0.0
 11
10.14659153031097
 21
-6.470417827572887
 31
0.0
  0
LINE
  5
9F
330
22
100
AcDbEntity
  8
0
100
AcDbLine
 10
9.919816259607266
 20
-6.695425331323637
 30
0.0
 11
10.14481028257196
 21
-6.470431308358943
 31
0.0
  0
LINE
  5
A0
330
22
100
AcDbEntity
  8
0
100
AcDbLine
 10
9.918145555149154
 20
-6.695328268828782
 30
0.0
 11
10.14302832320137
 21
-6.47044550077656
 31
0.0
  0
LINE
  5
A1
330
22
100
AcDbEntity
  8
0
100
AcDbLine
 10
9.916475440159942
 20
-6.695230616865026
 30
0.0
 11
10.14124565133887
 21
-6.470460405686096
 31
0.0
  0
LINE
  5
A2
330
22
100
AcDbEntity
  8
0
100
AcDbLine
 10
9.914805914054563
 20
-6.695132376017441
 30
0.0
 11
10.13946226612203
 21
-6.470476023949969
 31
0.0
  0
LINE
  5
A3
330
22
100
AcDbEntity
  8
0
100
AcDbLine
 10
9.913136976249134
 20
-6.695033546869902
 30
0.0
 11
10.13767816668635
 21
-6.470492356432687
 31
0.0
  0
LINE
  5
A4
330
22
100
AcDbEntity
  8
0
100
AcDbLine
 10
9.911468626160999
 20
-6.694934130005072
 30
0.0
 11
10.13589335216523
 21
-6.470509404000837
 31
0.0
  0
LINE
  5
A5
330
22
100
AcDbEntity
  8
0
100
AcDbLine
 10
9.909800863208687
 20
-6.694834126004417
 30
0.0
 11
10.13410782169
 21
-6.470527167523098
 31
0.0
  0
LINE
  5
A6
330
22
100
AcDbEntity
  8
0
100
AcDbLine
 10
9.908133686811954
 20
-6.694733535448182
 30
0.0
 11
10.13232157438988
 21
-6.470545647870249
 31
0.0
  0
LINE
  5
A7
330
22
100
AcDbEntity
  8
0
100
AcDbLine
 10
9.906467096391734
 20
-6.694632358915438
 30
0.0
 11
10.13053460939199
 21
-6.470564845915179
 31
0.0
  0
LINE
  5
A8
330
22
100
AcDbEntity
  8
0
100
AcDbLine
 10
9.904801091370158
 20
-6.694530596984047
 30
0.0
 11
10.12874692582131
 21
-6.470584762532889
 31
0.0
  0
LINE
  5
A9
330
22
100
AcDbEntity
  8
0
100
AcDbLine
 10
9.903135671170563
 20
-6.694428250230674
 30
0.0
 11
10.12695852280074
 21
-6.470605398600496
 31
0.0
  0
LINE
  5
AA
330
22
100
AcDbEntity
  8
0
100
AcDbLine
 10
9.901470835217443
 20
-6.69432531923083
 30
0.0
 11
10.12516939945101
 21
-6.470626754997257
 31
0.0
  0
LINE
  5
AB
330
22
100
AcDbEntity
  8
0
100
AcDbLine
 10
9.899806582936513
 20
-6.694221804558792
 30
0.0
 11
10.12337955489075
 21
-6.470648832604553
 31
0.0
  0
LINE
  5
AC
330
22
100
AcDbEntity
  8
0
100
AcDbLine
 10
9.898142913754632
 20
-6.694117706787706
 30
0.0
 11
10.12158898823642
 21
-6.470671632305915
 31
0.0
  0
LINE
  5
AD
330
22
100
AcDbEntity
  8
0
100
AcDbLine
 10
9.896479827099875
 20
-6.694013026489498
 30
0.0
 11
10.11979769860235
 21
-6.470695154987016
 31
0.0
  0
LINE
  5
AE
330
22
100
AcDbEntity
  8
0
100
AcDbLine
 10
9.894817322401451
 20
-6.693907764234955
 30
0.0
 11
10.11800568510071
 21
-6.47071940153569
 31
0.0
  0
LINE
  5
AF
330
22
100
AcDbEntity
  8
0
100
AcDbLine
 10
9.893155399089778
 20
-6.693801920593661
 30
0.0
 11
10.1162129468415
 21
-6.470744372841934
 31
0.0
  0
LINE
  5
B0
330
22
100
AcDbEntity
  8
0
100
AcDbLine
 10
9.891494056596418
 20
-6.693695496134056
 30
0.0
 11
10.11441948293255
 21
-6.470770069797923
 31
0.0
  0
LINE
  5
B1
330
22
100
AcDbEntity
  8
0
100
AcDbLine
 10
9.889833294354104
 20
-6.693588491423402
 30
0.0
 11
10.1126252924795
 21
-6.470796493298002
 31
0.0
  0
LINE
  5
B2
330
22
100
AcDbEntity
  8
0
100
AcDbLine
 10
9.888173111796724
 20
-6.693480907027818
 30
0.0
 11
10.11083037458583
 21
-6.470823644238708
 31
0.0
  0
LINE
  5
B3
330
22
100
AcDbEntity
  8
0
100
AcDbLine
 10
9.886513508359332
 20
-6.693372743512242
 30
0.0
 11
10.1090347283528
 21
-6.470851523518772
 31
0.0
  0
LINE
  5
B4
330
22
100
AcDbEntity
  8
0
100
AcDbLine
 10
9.884854483478141
 20
-6.693264001440466
 30
0.0
 11
10.10723835287948
 21
-6.470880132039122
 31
0.0
  0
LINE
  5
B5
330
22
100
AcDbEntity
  8
0
100
AcDbLine
 10
9.88319603659049
 20
-6.693154681375153
 30
0.0
 11
10.10544124726274
 21
-6.470909470702899
 31
0.0
  0
LINE
  5
B6
330
22
100
AcDbEntity
  8
0
100
AcDbLine
 10
9.881538167134896
 20
-6.693044783877779
 30
0.0
 11
10.10364341059721
 21
-6.470939540415457
 31
0.0
  0
LINE
  5
B7
330
22
100
AcDbEntity
  8
0
100
AcDbLine
 10
9.879880980559338
 20
-6.69293420350037
 30
0.0
 11
10.10184484197533
 21
-6.470970342084373
 31
0.0
  0
LINE
  5
B8
330
22
100
AcDbEntity
  8
0
100
AcDbLine
 10
9.878224878819848
 20
-6.692822538286895
 30
0.0
 11
10.10004554048727
 21
-6.471001876619469
 31
0.0
  0
LINE
  5
B9
330
22
100
AcDbEntity
  8
0
100
AcDbLine
 10
9.876569899065618
 20
-6.692709751088158
 30
0.0
 11
10.09824550522099
 21
-6.471034144932786
 31
0.0
  0
LINE
  5
BA
330
22
100
AcDbEntity
  8
0
100
AcDbLine
 10
9.874916039184025
 20
-6.692595844016784
 30
0.0
 11
10.09644473526218
 21
-6.471067147938628
 31
0.0
  0
LINE
  5
BB
330
22
100
AcDbEntity
  8
0
100
AcDbLine
 10
9.873263297070849
 20
-6.692480819176995
 30
0.0
 11
10.0946432296943
 21
-6.47110088655354
 31
0.0
  0
LINE
  5
BC
330
22
100
AcDbEntity
  8
0
100
AcDbLine
 10
9.871611670630118
 20
-6.692364678664759
 30
0.0
 11
10.09284098759853
 21
-6.471135361696346
 31
0.0
  0
LINE
  5
BD
330
22
100
AcDbEntity
  8
0
100
AcDbLine
 10
9.869961157774209
 20
-6.692247424567702
 30
0.0
 11
10.09103800805378
 21
-6.471170574288122
 31
0.0
  0
LINE
  5
BE
330
22
100
AcDbEntity
  8
0
100
AcDbLine
 10
9.868311756423633
 20
-6.692129058965312
 30
0.0
 11
10.0892342901367
 21
-6.471206525252238
 31
0.0
  0
LINE
  5
BF
330
22
100
AcDbEntity
  8
0
100
AcDbLine
 10
9.866663464507151
 20
-6.692009583928826
 30
0.0
 11
10.08742983292164
 21
-6.471243215514335
 31
0.0
  0
LINE
  5
C0
330
22
100
AcDbEntity
  8
0
100
AcDbLine
 10
9.865016279961622
 20
-6.69188900152139
 30
0.0
 11
10.08562463548064
 21
-6.471280646002366
 31
0.0
  0
LINE
  5
C1
330
22
100
AcDbEntity
  8
0
100
AcDbLine
 10
9.863370200731989
 20
-6.691767313798057
 30
0.0
 11
10.08381869688348
 21
-6.471318817646563
 31
0.0
  0
LINE
  5
C2
330
22
100
AcDbEntity
  8
0
100
AcDbLine
 10
9.861725224771262
 20
-6.691644522805816
 30
0.0
 11
10.08201201619758
 21
-6.471357731379491
 31
0.0
  0
LINE
  5
C3
330
22
100
AcDbEntity
  8
0
100
AcDbLine
 10
9.860081350040465
 20
-6.691520630583648
 30
0.0
 11
10.0802045924881
 21
-6.471397388136012
 31
0.0
  0
LINE
  5
C4
330
22
100
AcDbEntity
  8
0
100
AcDbLine
 10
9.858438574508532
 20
-6.691395639162614
 30
0.0
 11
10.07839642481781
 21
-6.471437788853332
 31
0.0
  0
LINE
  5
C5
330
22
100
AcDbEntity
  8
0
100
AcDbLine
 10
9.856796896152383
 20
-6.691269550565795
 30
0.0
 11
10.0765875122472
 21
-6.471478934470972
 31
0.0
  0
LINE
  5
C6
330
22
100
AcDbEntity
  8
0
100
AcDbLine
 10
9.855156312956747
 20
-6.691142366808467
 30
0.0
 11
10.0747778538344
 21
-6.471520825930811
 31
0.0
  0
LINE
  5
C7
330
22
100
AcDbEntity
  8
0
100
AcDbLine
 10
9.85351682291424
 20
-6.691014089898007
 30
0.0
 11
10.07296744863518
 21
-6.471563464177065
 31
0.0
  0
LINE
  5
C8
330
22
100
AcDbEntity
  8
0
100
AcDbLine
 10
9.851878424025233
 20
-6.690884721834046
 30
0.0
 11
10.07115629570295
 21
-6.471606850156322
 31
0.0
  0
LINE
  5
C9
330
22
100
AcDbEntity
  8
0
100
AcDbLine
 10
9.850241114297883
 20
-6.690754264608432
 30
0.0
 11
10.06934439408879
 21
-6.471650984817524
 31
0.0
  0
LINE
  5
CA
330
22
100
AcDbEntity
  8
0
100
AcDbLine
 10
9.848604891748015
 20
-6.690622720205332
 30
0.0
 11
10.06753174284135
 21
-6.471695869111995
 31
0.0
  0
LINE
  5
CB
330
22
100
AcDbEntity
  8
0
100
AcDbLine
 10
9.84696975439918
 20
-6.690490090601202
 30
0.0
 11
10.06571834100695
 21
-6.471741503993432
 31
0.0
  0
LINE
  5
CC
330
22
100
AcDbEntity
  8
0
100
AcDbLine
 10
9.845335700282483
 20
-6.690356377764933
 30
0.0
 11
10.06390418762947
 21
-6.471787890417941
 31
0.0
  0
LINE
  5
CD
330
22
100
AcDbEntity
  8
0
100
AcDbLine
 10
9.84370272743668
 20
-6.690221583657768
 30
0.0
 11
10.06208928175043
 21
-6.47183502934401
 31
0.0
  0
LINE
  5
CE
330
22
100
AcDbEntity
  8
0
100
AcDbLine
 10
9.842070833908072
 20
-6.690085710233411
 30
0.0
 11
10.06027362240894
 21
-6.471882921732539
 31
0.0
  0
LINE
  5
CF
330
22
100
AcDbEntity
  8
0
100
AcDbLine
 10
9.840440017750417
 20
-6.6899487594381
 30
0.0
 11
10.05845720864166
 21
-6.471931568546854
 31
0.0
  0
LINE
  5
D0
330
22
100
AcDbEntity
  8
0
100
AcDbLine
 10
9.838810277025002
 20
-6.689810733210546
 30
0.0
 11
10.05664003948285
 21
-6.471980970752695
 31
0.0
  0
LINE
  5
D1
330
22
100
AcDbEntity
  8
0
100
AcDbLine
 10
9.837181609800497
 20
-6.689671633482087
 30
0.0
 11
10.05482211396434
 21
-6.472031129318239
 31
0.0
  0
LINE
  5
D2
330
22
100
AcDbEntity
  8
0
100
AcDbLine
 10
9.835554014153011
 20
-6.689531462176605
 30
0.0
 11
10.05300343111551
 21
-6.472082045214105
 31
0.0
  0
LINE
  5
D3
330
22
100
AcDbEntity
  8
0
100
AcDbLine
 10
9.833927488165958
 20
-6.689390221210691
 30
0.0
 11
10.05118398996328
 21
-6.472133719413369
 31
0.0
  0
LINE
  5
D4
330
22
100
AcDbEntity
  8
0
100
AcDbLine
 10
9.832302029930088
 20
-6.689247912493597
 30
0.0
 11
10.04936378953213
 21
-6.47218615289155
 31
0.0
  0
LINE
  5
D5
330
22
100
AcDbEntity
  8
0
100
AcDbLine
 10
9.830677637543452
 20
-6.689104537927265
 30
0.0
 11
10.04754282884406
 21
-6.472239346626649
 31
0.0
  0
LINE
  5
D6
330
22
100
AcDbEntity
  8
0
100
AcDbLine
 10
9.829054309111283
 20
-6.68896009940647
 30
0.0
 11
10.04572110691861
 21
-6.472293301599137
 31
0.0
  0
LINE
  5
D7
330
22
100
AcDbEntity
  8
0
100
AcDbLine
 10
9.82743204274608
 20
-6.688814598818705
 30
0.0
 11
10.04389862277281
 21
-6.472348018791976
 31
0.0
  0
LINE
  5
D8
330
22
100
AcDbEntity
  8
0
100
AcDbLine
 10
9.825810836567443
 20
-6.688668038044375
 30
0.0
 11
10.0420753754212
 21
-6.472403499190613
 31
0.0
  0
LINE
  5
D9
330
22
100
AcDbEntity
  8
0
100
AcDbLine
 10
9.824190688702154
 20
-6.6885204189567
 30
0.0
 11
10.04025136387584
 21
-6.472459743783004
 31
0.0
  0
LINE
  5
DA
330
22
100
AcDbEntity
  8
0
100
AcDbLine
 10
9.822571597284037
 20
-6.688371743421849
 30
0.0
 11
10.03842658714626
 21
-6.472516753559625
 31
0.0
  0
LINE
  5
DB
330
22
100
AcDbEntity
  8
0
100
AcDbLine
 10
9.82095356045399
 20
-6.688222013298929
 30
0.0
 11
10.03660104423946
 21
-6.472574529513453
 31
0.0
  0
LINE
  5
DC
330
22
100
AcDbEntity
  8
0
100
AcDbLine
 10
9.819336576359965
 20
-6.688071230439989
 30
0.0
 11
10.03477473415995
 21
-6.472633072640006
 31
0.0
  0
LINE
  5
DD
330
22
100
AcDbEntity
  8
0
100
AcDbLine
 10
9.817720643156821
 20
-6.687919396690165
 30
0.0
 11
10.03294765590964
 21
-6.472692383937344
 31
0.0
  0
LINE
  5
DE
330
22
100
AcDbEntity
  8
0
100
AcDbLine
 10
9.816105759006429
 20
-6.687766513887591
 30
0.0
 11
10.03111980848795
 21
-6.472752464406066
 31
0.0
  0
LINE
  5
DF
330
22
100
AcDbEntity
  8
0
100
AcDbLine
 10
9.814491922077504
 20
-6.68761258386355
 30
0.0
 11
10.02929119089171
 21
-6.472813315049338
 31
0.0
  0
LINE
  5
E0
330
22
100
AcDbEntity
  8
0
100
AcDbLine
 10
9.812879130545711
 20
-6.687457608442376
 30
0.0
 11
10.02746180211521
 21
-6.472874936872877
 31
0.0
  0
LINE
  5
E1
330
22
100
AcDbEntity
  8
0
100
AcDbLine
 10
9.811267382593491
 20
-6.687301589441629
 30
0.0
 11
10.02563164115013
 21
-6.47293733088499
 31
0.0
  0
LINE
  5
E2
330
22
100
AcDbEntity
  8
0
100
AcDbLine
 10
9.809656676410121
 20
-6.687144528672035
 30
0.0
 11
10.02380070698559
 21
-6.473000498096562
 31
0.0
  0
LINE
  5
E3
330
22
100
AcDbEntity
  8
0
100
AcDbLine
 10
9.808047010191632
 20
-6.686986427937556
 30
0.0
 11
10.02196899860811
 21
-6.473064439521069
 31
0.0
  0
LINE
  5
E4
330
22
100
AcDbEntity
  8
0
100
AcDbLine
 10
9.806438382140807
 20
-6.686827289035416
 30
0.0
 11
10.02013651500163
 21
-6.47312915617459
 31
0.0
  0
LINE
  5
E5
330
22
100
AcDbEntity
  8
0
100
AcDbLine
 10
9.804830790467102
 20
-6.686667113756154
 30
0.0
 11
10.01830325514743
 21
-6.473194649075823
 31
0.0
  0
LINE
  5
E6
330
22
100
AcDbEntity
  8
0
100
AcDbLine
 10
9.803224233386673
 20
-6.686505903883616
 30
0.0
 11
10.01646921802421
 21
-6.473260919246079
 31
0.0
  0
LINE
  5
E7
330
22
100
AcDbEntity
  8
0
100
AcDbLine
 10
9.801618709122301
 20
-6.686343661195023
 30
0.0
 11
10.01463440260802
 21
-6.473327967709305
 31
0.0
  0
LINE
  5
E8
330
22
100
AcDbEntity
  8
0
100
AcDbLine
 10
9.800014215903338
 20
-6.686180387461019
 30
0.0
 11
10.01279880787227
 21
-6.473395795492085
 31
0.0
  0
LINE
  5
E9
330
22
100
AcDbEntity
  8
0
100
AcDbLine
 10
9.798410751965727
 20
-6.686016084445663
 30
0.0
 11
10.01096243278773
 21
-6.473464403623655
 31
0.0
  0
LINE
  5
EA
330
22
100
AcDbEntity
  8
0
100
AcDbLine
 10
9.796808315551956
 20
-6.685850753906469
 30
0.0
 11
10.00912527632251
 21
-6.473533793135911
 31
0.0
  0
LINE
  5
EB
330
22
100
AcDbEntity
  8
0
100
AcDbLine
 10
9.79520690491098
 20
-6.685684397594478
 30
0.0
 11
10.00728733744204
 21
-6.473603965063416
 31
0.0
  0
LINE
  5
EC
330
22
100
AcDbEntity
  8
0
100
AcDbLine
 10
9.793606518298251
 20
-6.68551701725424
 30
0.0
 11
10.00544861510908
 21
-6.47367492044341
 31
0.0
  0
LINE
  5
ED
330
22
100
AcDbEntity
  8
0
100
AcDbLine
 10
9.792007153975628
 20
-6.685348614623897
 30
0.0
 11
10.0036091082837
 21
-6.473746660315823
 31
0.0
  0
LINE
  5
EE
330
22
100
AcDbEntity
  8
0
100
AcDbLine
 10
9.790408810211408
 20
-6.685179191435151
 30
0.0
 11
10.00176881592327
 21
-6.473819185723287
 31
0.0
  0
LINE
  5
EF
330
22
100
AcDbEntity
  8
0
100
AcDbLine
 10
9.788811485280218
 20
-6.685008749413375
 30
0.0
 11
9.999927736982455
 21
-6.473892497711139
 31
0.0
  0
LINE
  5
F0
330
22
100
AcDbEntity
  8
0
100
AcDbLine
 10
9.787215177463075
 20
-6.684837290277552
 30
0.0
 11
9.9980858704132
 21
-6.473966597327426
 31
0.0
  0
LINE
  5
F1
330
22
100
AcDbEntity
  8
0
100
AcDbLine
 10
9.785619885047246
 20
-6.684664815740413
 30
0.0
 11
9.996243215164724
 21
-6.474041485622935
 31
0.0
  0
LINE
  5
F2
330
22
100
AcDbEntity
  8
0
100
AcDbLine
 10
9.784025606326318
 20
-6.684491327508376
 30
0.0
 11
9.994399770183511
 21
-6.474117163651183
 31
0.0
  0
LINE
  5
F3
330
22
100
AcDbEntity
  8
0
100
AcDbLine
 10
9.782432339600093
 20
-6.684316827281634
 30
0.0
 11
9.992555534413291
 21
-6.474193632468436
 31
0.0
  0
LINE
  5
F4
330
22
100
AcDbEntity
  8
0
100
AcDbLine
 10
9.780840083174609
 20
-6.68414131675415
 30
0.0
 11
9.990710506795041
 21
-6.474270893133718
 31
0.0
  0
LINE
  5
F5
330
22
100
AcDbEntity
  8
0
100
AcDbLine
 10
9.779248835362087
 20
-6.683964797613707
 30
0.0
 11
9.988864686266976
 21
-6.474348946708818
 31
0.0
  0
LINE
  5
F6
330
22
100
AcDbEntity
  8
0
100
AcDbLine
 10
9.777658594480882
 20
-6.683787271541945
 30
0.0
 11
9.987018071764525
 21
-6.474427794258303
 31
0.0
  0
LINE
  5
F7
330
22
100
AcDbEntity
  8
0
100
AcDbLine
 10
9.77606935885549
 20
-6.68360874021437
 30
0.0
 11
9.98517066222033
 21
-6.47450743684953
 31
0.0
  0
LINE
  5
F8
330
22
100
AcDbEntity
  8
0
100
AcDbLine
 10
9.774481126816478
 20
-6.683429205300417
 30
0.0
 11
9.983322456564241
 21
-6.474587875552654
 31
0.0
  0
LINE
  5
F9
330
22
100
AcDbEntity
  8
0
100
AcDbLine
 10
9.772893896700502
 20
-6.683248668463426
 30
0.0
 11
9.981473453723292
 21
-6.474669111440635
 31
0.0
  0
LINE
  5
FA
330
22
100
AcDbEntity
  8
0
100
AcDbLine
 10
9.771307666850219
 20
-6.683067131360742
 30
0.0
 11
9.979623652621702
 21
-6.474751145589259
 31
0.0
  0
LINE
  5
FB
330
22
100
AcDbEntity
  8
0
100
AcDbLine
 10
9.769722435614312
 20
-6.682884595643685
 30
0.0
 11
9.977773052180875
 21
-6.474833979077121
 31
0.0
  0
LINE
  5
FC
330
22
100
AcDbEntity
  8
0
100
AcDbLine
 10
9.76813820134744
 20
-6.682701062957589
 30
0.0
 11
9.975921651319346
 21
-6.474917612985683
 31
0.0
  0
LINE
  5
FD
330
22
100
AcDbEntity
  8
0
100
AcDbLine
 10
9.766554962410175
 20
-6.682516534941889
 30
0.0
 11
9.97406944895283
 21
-6.475002048399234
 31
0.0
  0
LINE
  5
FE
330
22
100
AcDbEntity
  8
0
100
AcDbLine
 10
9.764972717169049
 20
-6.682331013230048
 30
0.0
 11
9.972216443994165
 21
-6.475087286404932
 31
0.0
  0
LINE
  5
FF
330
22
100
AcDbEntity
  8
0
100
AcDbLine
 10
9.763391463996436
 20
-6.682144499449694
 30
0.0
 11
9.970362635353325
 21
-6.475173328092805
 31
0.0
  0
LINE
  5
100
330
22
100
AcDbEntity
  8
0
100
AcDbLine
 10
9.761811201270603
 20
-6.681956995222562
 30
0.0
 11
9.968508021937399
 21
-6.475260174555766
 31
0.0
  0
LINE
  5
101
330
22
100
AcDbEntity
  8
0
100
AcDbLine
 10
9.760231927375604
 20
-6.681768502164593
 30
0.0
 11
9.966652602650579
 21
-6.475347826889618
 31
0.0
  0
LINE
  5
102
330
22
100
AcDbEntity
  8
0
100
AcDbLine
 10
9.758653640701329
 20
-6.681579021885902
 30
0.0
 11
9.964796376394174
 21
-6.475436286193057
 31
0.0
  0
LINE
  5
103
330
22
100
AcDbEntity
  8
0
100
AcDbLine
 10
9.757076339643447
 20
-6.681388555990819
 30
0.0
 11
9.962939342066565
 21
-6.475525553567701
 31
0.0
  0
LINE
  5
104
330
22
100
AcDbEntity
  8
0
100
AcDbLine
 10
9.755500022603333
 20
-6.681197106077965
 30
0.0
 11
9.961081498563203
 21
-6.475615630118095
 31
0.0
  0
LINE
  5
105
330
22
100
AcDbEntity
  8
0
100
AcDbLine
 10
9.753924687988114
 20
-6.681004673740218
 30
0.0
 11
9.959222844776622
 21
-6.475706516951709
 31
0.0
  0
LINE
  5
106
330
22
100
AcDbEntity
  8
0
100
AcDbLine
 10
9.752350334210577
 20
-6.680811260564789
 30
0.0
 11
9.957363379596392
 21
-6.475798215178974
 31
0.0
  0
LINE
  5
107
330
22
100
AcDbEntity
  8
0
100
AcDbLine
 10
9.750776959689201
 20
-6.680616868133198
 30
0.0
 11
9.955503101909144
 21
-6.475890725913255
 31
0.0
  0
LINE
  5
108
330
22
100
AcDbEntity
  8
0
100
AcDbLine
 10
9.749204562848053
 20
-6.680421498021382
 30
0.0
 11
9.953642010598525
 21
-6.47598405027091
 31
0.0
  0
LINE
  5
109
330
22
100
AcDbEntity
  8
0
100
AcDbLine
 10
9.747633142116884
 20
-6.680225151799583
 30
0.0
 11
9.951780104545209
 21
-6.476078189371258
 31
0.0
  0
LINE
  5
10A
330
22
100
AcDbEntity
  8
0
100
AcDbLine
 10
9.746062695930929
 20
-6.680027831032571
 30
0.0
 11
9.949917382626885
 21
-6.476173144336614
 31
0.0
  0
LINE
  5
10B
330
22
100
AcDbEntity
  8
0
100
AcDbLine
 10
9.744493222731055
 20
-6.67982953727948
 30
0.0
 11
9.948053843718239
 21
-6.476268916292295
 31
0.0
  0
LINE
  5
10C
330
22
100
AcDbEntity
  8
0
100
AcDbLine
 10
9.742924720963605
 20
-6.679630272093962
 30
0.0
 11
9.946189486690938
 21
-6.476365506366629
 31
0.0
  0
LINE
  5
10D
330
22
100
AcDbEntity
  8
0
100
AcDbLine
 10
9.741357189080463
 20
-6.679430037024137
 30
0.0
 11
9.944324310413634
 21
-6.476462915690967
 31
0.0
  0
LINE
  5
10E
330
22
100
AcDbEntity
  8
0
100
AcDbLine
 10
9.739790625538967
 20
-6.679228833612668
 30
0.0
 11
9.942458313751938
 21
-6.476561145399697
 31
0.0
  0
LINE
  5
10F
330
22
100
AcDbEntity
  8
0
100
AcDbLine
 10
9.738225028801887
 20
-6.679026663396782
 30
0.0
 11
9.940591495568423
 21
-6.476660196630246
 31
0.0
  0
LINE
  5
110
330
22
100
AcDbEntity
  8
0
100
AcDbLine
 10
9.736660397337438
 20
-6.678823527908264
 30
0.0
 11
9.938723854722585
 21
-6.476760070523116
 31
0.0
  0
LINE
  5
111
330
22
100
AcDbEntity
  8
0
100
AcDbLine
 10
9.735096729619236
 20
-6.6786194286735
 30
0.0
 11
9.93685539007088
 21
-6.476860768221857
 31
0.0
  0
LINE
  5
112
330
22
100
AcDbEntity
  8
0
100
AcDbLine
 10
9.733534024126244
 20
-6.678414367213525
 30
0.0
 11
9.934986100466655
 21
-6.476962290873114
 31
0.0
  0
LINE
  5
113
330
22
100
AcDbEntity
  8
0
100
AcDbLine
 10
9.7319722793428
 20
-6.678208345044002
 30
0.0
 11
9.933115984760181
 21
-6.477064639626621
 31
0.0
  0
LINE
  5
114
330
22
100
AcDbEntity
  8
0
100
AcDbLine
 10
9.730411493758506
 20
-6.678001363675331
 30
0.0
 11
9.931245041798625
 21
-6.477167815635212
 31
0.0
  0
LINE
  5
115
330
22
100
AcDbEntity
  8
0
100
AcDbLine
 10
9.728851665868342
 20
-6.677793424612528
 30
0.0
 11
9.929373270426033
 21
-6.477271820054837
 31
0.0
  0
LINE
  5
116
330
22
100
AcDbEntity
  8
0
100
AcDbLine
 10
9.727292794172482
 20
-6.677584529355423
 30
0.0
 11
9.927500669483318
 21
-6.477376654044586
 31
0.0
  0
LINE
  5
117
330
22
100
AcDbEntity
  8
0
100
AcDbLine
 10
9.725734877176403
 20
-6.677374679398535
 30
0.0
 11
9.925627237808265
 21
-6.477482318766672
 31
0.0
  0
LINE
  5
118
330
22
100
AcDbEntity
  8
0
100
AcDbLine
 10
9.724177913390748
 20
-6.677163876231222
 30
0.0
 11
9.923752974235499
 21
-6.477588815386472
 31
0.0
  0
LINE
  5
119
330
22
100
AcDbEntity
  8
0
100
AcDbLine
 10
9.7226219013314
 20
-6.676952121337605
 30
0.0
 11
9.921877877596497
 21
-6.477696145072509
 31
0.0
  0
LINE
  5
11A
330
22
100
AcDbEntity
  8
0
100
AcDbLine
 10
9.721066839519394
 20
-6.676739416196644
 30
0.0
 11
9.920001946719533
 21
-6.477804308996505
 31
0.0
  0
LINE
  5
11B
330
22
100
AcDbEntity
  8
0
100
AcDbLine
 10
9.719512726480907
 20
-6.676525762282164
 30
0.0
 11
9.918125180429719
 21
-6.477913308333352
 31
0.0
  0
LINE
  5
11C
330
22
100
AcDbEntity
  8
0
100
AcDbLine
 10
9.717959560747267
 20
-6.676311161062839
 30
0.0
 11
9.916247577548965
 21
-6.478023144261142
 31
0.0
  0
LINE
  5
11D
330
22
100
AcDbEntity
  8
0
100
AcDbLine
 10
9.716407340854855
 20
-6.676095614002284
 30
0.0
 11
9.914369136895953
 21
-6.478133817961187
 31
0.0
  0
LINE
  5
11E
330
22
100
AcDbEntity
  8
0
100
AcDbLine
 10
9.714856065345184
 20
-6.675879122558987
 30
0.0
 11
9.912489857286152
 21
-6.47824533061802
 31
0.0
  0
LINE
  5
11F
330
22
100
AcDbEntity
  8
0
100
AcDbLine
 10
9.71330573276476
 20
-6.675661688186447
 30
0.0
 11
9.910609737531796
 21
-6.478357683419411
 31
0.0
  0
LINE
  5
120
330
22
100
AcDbEntity
  8
0
100
AcDbLine
 10
9.711756341665177
 20
-6.675443312333063
 30
0.0
 11
9.90872877644187
 21
-6.47847087755637
 31
0.0
  0
LINE
  5
121
330
22
100
AcDbEntity
  8
0
100
AcDbLine
 10
9.710207890602967
 20
-6.675223996442308
 30
0.0
 11
9.906846972822098
 21
-6.478584914223177
 31
0.0
  0
LINE
  5
122
330
22
100
AcDbEntity
  8
0
100
AcDbLine
 10
9.708660378139697
 20
-6.675003741952611
 30
0.0
 11
9.904964325474919
 21
-6.478699794617389
 31
0.0
  0
LINE
  5
123
330
22
100
AcDbEntity
  8
0
100
AcDbLine
 10
9.707113802841899
 20
-6.674782550297441
 30
0.0
 11
9.903080833199505
 21
-6.478815519939836
 31
0.0
  0
LINE
  5
124
330
22
100
AcDbEntity
  8
0
100
AcDbLine
 10
9.705568163280979
 20
-6.674560422905397
 30
0.0
 11
9.901196494791722
 21
-6.478932091394653
 31
0.0
  0
LINE
  5
125
330
22
100
AcDbEntity
  8
0
100
AcDbLine
 10
9.704023458033319
 20
-6.67433736120009
 30
0.0
 11
9.89931130904412
 21
-6.479049510189288
 31
0.0
  0
LINE
  5
126
330
22
100
AcDbEntity
  8
0
100
AcDbLine
 10
9.702479685680149
 20
-6.674113366600292
 30
0.0
 11
9.897425274745923
 21
-6.479167777534518
 31
0.0
  0
LINE
  5
127
330
22
100
AcDbEntity
  8
0
100
AcDbLine
 10
9.700936844807607
 20
-6.67388844051987
 30
0.0
 11
9.895538390683032
 21
-6.479286894644444
 31
0.0
  0
LINE
  5
128
330
22
100
AcDbEntity
  8
0
100
AcDbLine
 10
9.69939493400663
 20
-6.673662584367879
 30
0.0
 11
9.893650655637978
 21
-6.479406862736531
 31
0.0
  0
LINE
  5
129
330
22
100
AcDbEntity
  8
0
100
AcDbLine
 10
9.697853951873016
 20
-6.673435799548526
 30
0.0
 11
9.891762068389946
 21
-6.479527683031596
 31
0.0
  0
LINE
  5
12A
330
22
100
AcDbEntity
  8
0
100
AcDbLine
 10
9.69631389700736
 20
-6.673208087461217
 30
0.0
 11
9.889872627714749
 21
-6.479649356753828
 31
0.0
  0
LINE
  5
12B
330
22
100
AcDbEntity
  8
0
100
AcDbLine
 10
9.694774768015005
 20
-6.672979449500605
 30
0.0
 11
9.887982332384789
 21
-6.479771885130821
 31
0.0
  0
LINE
  5
12C
330
22
100
AcDbEntity
  8
0
100
AcDbLine
 10
9.693236563506095
 20
-6.672749887056547
 30
0.0
 11
9.886091181169087
 21
-6.479895269393556
 31
0.0
  0
LINE
  5
12D
330
22
100
AcDbEntity
  8
0
100
AcDbLine
 10
9.691699282095465
 20
-6.672519401514213
 30
0.0
 11
9.884199172833234
 21
-6.480019510776443
 31
0.0
  0
LINE
  5
12E
330
22
100
AcDbEntity
  8
0
100
AcDbLine
 10
9.690162922402706
 20
-6.672287994254005
 30
0.0
 11
9.882306306139412
 21
-6.480144610517299
 31
0.0
  0
LINE
  5
12F
330
22
100
AcDbEntity
  8
0
100
AcDbLine
 10
9.688627483052062
 20
-6.672055666651684
 30
0.0
 11
9.880412551455107
 21
-6.480270598248639
 31
0.0
  0
LINE
  5
130
330
22
100
AcDbEntity
  8
0
100
AcDbLine
 10
9.687092962672492
 20
-6.671822420078286
 30
0.0
 11
9.878517338107698
 21
-6.48039804464308
 31
0.0
  0
LINE
  5
131
330
22
100
AcDbEntity
  8
0
100
AcDbLine
 10
9.685559359897565
 20
-6.671588255900246
 30
0.0
 11
9.876620439333738
 21
-6.480527176464073
 31
0.0
  0
LINE
  5
132
330
22
100
AcDbEntity
  8
0
100
AcDbLine
 10
9.684026673365499
 20
-6.671353175479348
 30
0.0
 11
9.874721850343334
 21
-6.480657998501513
 31
0.0
  0
LINE
  5
133
330
22
100
AcDbEntity
  8
0
100
AcDbLine
 10
9.682494901719122
 20
-6.671117180172757
 30
0.0
 11
9.872821566320421
 21
-6.480790515571458
 31
0.0
  0
LINE
  5
134
330
22
100
AcDbEntity
  8
0
100
AcDbLine
 10
9.680964043605827
 20
-6.670880271333085
 30
0.0
 11
9.87091958242251
 21
-6.480924732516402
 31
0.0
  0
LINE
  5
135
330
22
100
AcDbEntity
  8
0
100
AcDbLine
 10
9.679434097677615
 20
-6.670642450308331
 30
0.0
 11
9.869015893780522
 21
-6.481060654205425
 31
0.0
  0
LINE
  5
136
330
22
100
AcDbEntity
  8
0
100
AcDbLine
 10
9.677905062590992
 20
-6.670403718441987
 30
0.0
 11
9.867110495498568
 21
-6.481198285534412
 31
0.0
  0
LINE
  5
137
330
22
100
AcDbEntity
  8
0
100
AcDbLine
 10
9.676376937007004
 20
-6.670164077073009
 30
0.0
 11
9.865203382653712
 21
-6.481337631426301
 31
0.0
  0
LINE
  5
138
330
22
100
AcDbEntity
  8
0
100
AcDbLine
 10
9.674849719591216
 20
-6.669923527535831
 30
0.0
 11
9.863294550295808
 21
-6.481478696831239
 31
0.0
  0
LINE
  5
139
330
22
100
AcDbEntity
  8
0
100
AcDbLine
 10
9.673323409013649
 20
-6.669682071160432
 30
0.0
 11
9.861383993447276
 21
-6.481621486726805
 31
0.0
  0
LINE
  5
13A
330
22
100
AcDbEntity
  8
0
100
AcDbLine
 10
9.671798003948836
 20
-6.669439709272277
 30
0.0
 11
9.859471707102846
 21
-6.481766006118268
 31
0.0
  0
LINE
  5
13B
330
22
100
AcDbEntity
  8
0
100
AcDbLine
 10
9.670273503075682
 20
-6.669196443192467
 30
0.0
 11
9.857557686229451
 21
-6.481912260038697
 31
0.0
  0
LINE
  5
13C
330
22
100
AcDbEntity
  8
0
100
AcDbLine
 10
9.668749905077598
 20
-6.668952274237583
 30
0.0
 11
9.855641925765832
 21
-6.48206025354935
 31
0.0
  0
LINE
  5
13D
330
22
100
AcDbEntity
  8
0
100
AcDbLine
 10
9.667227510573162
 20
-6.668706901789054
 30
0.0
 11
9.85372442062254
 21
-6.482209991739676
 31
0.0
  0
LINE
  5
13E
330
22
100
AcDbEntity
  8
0
100
AcDbLine
 10
9.665707251554655
 20
-6.668459393854594
 30
0.0
 11
9.851805165681492
 21
-6.482361479727758
 31
0.0
  0
LINE
  5
13F
330
22
100
AcDbEntity
  8
0
100
AcDbLine
 10
9.664189187071812
 20
-6.66820969138447
 30
0.0
 11
9.849884155795923
 21
-6.48251472266036
 31
0.0
  0
LINE
  5
140
330
22
100
AcDbEntity
  8
0
100
AcDbLine
 10
9.662673309409395
 20
-6.667957802093922
 30
0.0
 11
9.847961385790046
 21
-6.482669725713271
 31
0.0
  0
LINE
  5
141
330
22
100
AcDbEntity
  8
0
100
AcDbLine
 10
9.661159610914834
 20
-6.667703733635516
 30
0.0
 11
9.846036850458908
 21
-6.482826494091442
 31
0.0
  0
LINE
  5
142
330
22
100
AcDbEntity
  8
0
100
AcDbLine
 10
9.659648083997284
 20
-6.667447493600099
 30
0.0
 11
9.84411054456808
 21
-6.482985033029303
 31
0.0
  0
LINE
  5
143
330
22
100
AcDbEntity
  8
0
100
AcDbLine
 10
9.65813872112721
 20
-6.667189089517208
 30
0.0
 11
9.842182462853443
 21
-6.483145347790975
 31
0.0
  0
LINE
  5
144
330
22
100
AcDbEntity
  8
0
100
AcDbLine
 10
9.656631514835551
 20
-6.6669285288559
 30
0.0
 11
9.840252600021038
 21
-6.483307443670413
 31
0.0
  0
LINE
  5
145
330
22
100
AcDbEntity
  8
0
100
AcDbLine
 10
9.655126457713217
 20
-6.666665819025266
 30
0.0
 11
9.83832095074668
 21
-6.483471325991803
 31
0.0
  0
LINE
  5
146
330
22
100
AcDbEntity
  8
0
100
AcDbLine
 10
9.65362354241039
 20
-6.666400967375129
 30
0.0
 11
9.83638750967586
 21
-6.483637000109658
 31
0.0
  0
LINE
  5
147
330
22
100
AcDbEntity
  8
0
100
AcDbLine
 10
9.652122761635796
 20
-6.666133981196756
 30
0.0
 11
9.834452271423399
 21
-6.483804471409152
 31
0.0
  0
LINE
  5
148
330
22
100
AcDbEntity
  8
0
100
AcDbLine
 10
9.650624108156367
 20
-6.665864867723219
 30
0.0
 11
9.832515230573227
 21
-6.48397374530636
 31
0.0
  0
LINE
  5
149
330
22
100
AcDbEntity
  8
0
100
AcDbLine
 10
9.649127574796253
 20
-6.665593634130367
 30
0.0
 11
9.830576381678195
 21
-6.484144827248425
 31
0.0
  0
LINE
  5
14A
330
22
100
AcDbEntity
  8
0
100
AcDbLine
 10
9.647633154436615
 20
-6.665320287537037
 30
0.0
 11
9.828635719259722
 21
-6.48431772271393
 31
0.0
  0
LINE
  5
14B
330
22
100
AcDbEntity
  8
0
100
AcDbLine
 10
9.646140840014648
 20
-6.665044835006039
 30
0.0
 11
9.82669323780766
 21
-6.484492437213027
 31
0.0
  0
LINE
  5
14C
330
22
100
AcDbEntity
  8
0
100
AcDbLine
 10
9.644650624523334
 20
-6.664767283544386
 30
0.0
 11
9.824748931779888
 21
-6.484668976287832
 31
0.0
  0
LINE
  5
14D
330
22
100
AcDbEntity
  8
0
100
AcDbLine
 10
9.643162501010703
 20
-6.66448764010405
 30
0.0
 11
9.822802795602225
 21
-6.484847345512528
 31
0.0
  0
LINE
  5
14E
330
22
100
AcDbEntity
  8
0
100
AcDbLine
 10
9.641676462579162
 20
-6.664205911582626
 30
0.0
 11
9.820854823668028
 21
-6.48502755049376
 31
0.0
  0
LINE
  5
14F
330
22
100
AcDbEntity
  8
0
100
AcDbLine
 10
9.64019250238522
 20
-6.6639221048236
 30
0.0
 11
9.818905010338003
 21
-6.485209596870817
 31
0.0
  0
LINE
  5
150
330
22
100
AcDbEntity
  8
0
100
AcDbLine
 10
9.638710613638615
 20
-6.663636226617239
 30
0.0
 11
9.816953349939902
 21
-6.485393490315951
 31
0.0
  0
LINE
  5
151
330
22
100
AcDbEntity
  8
0
100
AcDbLine
 10
9.63723078960206
 20
-6.663348283700829
 30
0.0
 11
9.814999836768249
 21
-6.48557923653464
 31
0.0
  0
LINE
  5
152
330
22
100
AcDbEntity
  8
0
100
AcDbLine
 10
9.635753023590407
 20
-6.663058282759514
 30
0.0
 11
9.813044465084146
 21
-6.485766841265775
 31
0.0
  0
LINE
  5
153
330
22
100
AcDbEntity
  8
0
100
AcDbLine
 10
9.634277308970428
 20
-6.662766230426526
 30
0.0
 11
9.811087229114859
 21
-6.485956310282095
 31
0.0
  0
LINE
  5
154
330
22
100
AcDbEntity
  8
0
100
AcDbLine
 10
9.632803639160078
 20
-6.662472133283912
 30
0.0
 11
9.809128123053692
 21
-6.486147649390297
 31
0.0
  0
LINE
  5
155
330
22
100
AcDbEntity
  8
0
100
AcDbLine
 10
9.631332007627969
 20
-6.662175997863053
 30
0.0
 11
9.80716714105954
 21
-6.486340864431482
 31
0.0
  0
LINE
  5
156
330
22
100
AcDbEntity
  8
0
100
AcDbLine
 10
9.629862407893048
 20
-6.66187783064501
 30
0.0
 11
9.805204277256793
 21
-6.486535961281265
 31
0.0
  0
LINE
  5
157
330
22
100
AcDbEntity
  8
0
100
AcDbLine
 10
9.62839483352385
 20
-6.661577638061239
 30
0.0
 11
9.80323952573485
 21
-6.486732945850239
 31
0.0
  0
LINE
  5
158
330
22
100
AcDbEntity
  8
0
100
AcDbLine
 10
9.626929278138275
 20
-6.661275426493848
 30
0.0
 11
9.801272880548006
 21
-6.486931824084116
 31
0.0
  0
LINE
  5
159
330
22
100
AcDbEntity
  8
0
100
AcDbLine
 10
9.625465735402748
 20
-6.66097120227641
 30
0.0
 11
9.799304335715037
 21
-6.487132601964122
 31
0.0
  0
LINE
  5
15A
330
22
100
AcDbEntity
  8
0
100
AcDbLine
 10
9.624004199032155
 20
-6.660664971694036
 30
0.0
 11
9.797333885218922
 21
-6.487335285507269
 31
0.0
  0
LINE
  5
15B
330
22
100
AcDbEntity
  8
0
100
AcDbLine
 10
9.622544662788945
 20
-6.660356740984279
 30
0.0
 11
9.795361523006617
 21
-6.487539880766607
 31
0.0
  0
LINE
  5
15C
330
22
100
AcDbEntity
  8
0
100
AcDbLine
 10
9.621087120483005
 20
-6.660046516337253
 30
0.0
 11
9.793387242988659
 21
-6.487746393831599
 31
0.0
  0
LINE
  5
15D
330
22
100
AcDbEntity
  8
0
100
AcDbLine
 10
9.61963156597096
 20
-6.659734303896331
 30
0.0
 11
9.791411039038919
 21
-6.487954830828372
 31
0.0
  0
LINE
  5
15E
330
22
100
AcDbEntity
  8
0
100
AcDbLine
 10
9.618177993155855
 20
-6.659420109758469
 30
0.0
 11
9.789432904994258
 21
-6.488165197920066
 31
0.0
  0
LINE
  5
15F
330
22
100
AcDbEntity
  8
0
100
AcDbLine
 10
9.616726395986637
 20
-6.659103939974722
 30
0.0
 11
9.787452834654207
 21
-6.488377501307152
 31
0.0
  0
LINE
  5
160
330
22
100
AcDbEntity
  8
0
100
AcDbLine
 10
9.615276768457666
 20
-6.658785800550726
 30
0.0
 11
9.785470821780705
 21
-6.488591747227687
 31
0.0
  0
LINE
  5
161
330
22
100
AcDbEntity
  8
0
100
AcDbLine
 10
9.61382910460844
 20
-6.658465697446987
 30
0.0
 11
9.783486860097717
 21
-6.48880794195771
 31
0.0
  0
LINE
  5
162
330
22
100
AcDbEntity
  8
0
100
AcDbLine
 10
9.612383398522942
 20
-6.658143636579518
 30
0.0
 11
9.781500943290946
 21
-6.489026091811513
 31
0.0
  0
LINE
  5
163
330
22
100
AcDbEntity
  8
0
100
AcDbLine
 10
9.610939644329357
 20
-6.657819623820135
 30
0.0
 11
9.779513065007458
 21
-6.489246203142035
 31
0.0
  0
LINE
  5
164
330
22
100
AcDbEntity
  8
0
100
AcDbLine
 10
9.609497836199647
 20
-6.657493664996881
 30
0.0
 11
9.777523218855465
 21
-6.489468282341062
 31
0.0
  0
LINE
  5
165
330
22
100
AcDbEntity
  8
0
100
AcDbLine
 10
9.608057968348989
 20
-6.657165765894572
 30
0.0
 11
9.775531398403778
 21
-6.489692335839783
 31
0.0
  0
LINE
  5
166
330
22
100
AcDbEntity
  8
0
100
AcDbLine
 10
9.606620035035589
 20
-6.656835932255004
 30
0.0
 11
9.773537597181736
 21
-6.489918370108858
 31
0.0
  0
LINE
  5
167
330
22
100
AcDbEntity
  8
0
100
AcDbLine
 10
9.605184030560034
 20
-6.656504169777595
 30
0.0
 11
9.771541808678632
 21
-6.490146391658996
 31
0.0
  0
LINE
  5
168
330
22
100
AcDbEntity
  8
0
100
AcDbLine
 10
9.603749949265077
 20
-6.656170484119584
 30
0.0
 11
9.769544026343513
 21
-6.490376407041148
 31
0.0
  0
LINE
  5
169
330
22
100
AcDbEntity
  8
0
100
AcDbLine
 10
9.602317785535102
 20
-6.655834880896592
 30
0.0
 11
9.767544243584746
 21
-6.490608422846949
 31
0.0
  0
LINE
  5
16A
330
22
100
AcDbEntity
  8
0
100
AcDbLine
 10
9.600887533795868
 20
-6.655497365682862
 30
0.0
 11
9.765542453769683
 21
-6.490842445709047
 31
0.0
  0
LINE
  5
16B
330
22
100
AcDbEntity
  8
0
100
AcDbLine
 10
9.599459188513977
 20
-6.655157944011786
 30
0.0
 11
9.763538650224372
 21
-6.49107848230139
 31
0.0
  0
LINE
  5
16C
330
22
100
AcDbEntity
  8
0
100
AcDbLine
 10
9.598032744196585
 20
-6.65481662137621
 30
0.0
 11
9.761532826233054
 21
-6.491316539339741
 31
0.0
  0
LINE
  5
16D
330
22
100
AcDbEntity
  8
0
100
AcDbLine
 10
9.596608195391034
 20
-6.654473403228796
 30
0.0
 11
9.759524975037964
 21
-6.491556623581867
 31
0.0
  0
LINE
  5
16E
330
22
100
AcDbEntity
  8
0
100
AcDbLine
 10
9.595185536684345
 20
-6.654128294982518
 30
0.0
 11
9.757515089838804
 21
-6.491798741828059
 31
0.0
  0
LINE
  5
16F
330
22
100
AcDbEntity
  8
0
100
AcDbLine
 10
9.593764762703081
 20
-6.653781302010817
 30
0.0
 11
9.755503163792459
 21
-6.492042900921439
 31
0.0
  0
LINE
  5
170
330
22
100
AcDbEntity
  8
0
100
AcDbLine
 10
9.592345868112689
 20
-6.653432429648242
 30
0.0
 11
9.753489190012615
 21
-6.492289107748316
 31
0.0
  0
LINE
  5
171
330
22
100
AcDbEntity
  8
0
100
AcDbLine
 10
9.590928847617439
 20
-6.653081683190524
 30
0.0
 11
9.751473161569325
 21
-6.492537369238638
 31
0.0
  0
LINE
  5
172
330
22
100
AcDbEntity
  8
0
100
AcDbLine
 10
9.589513695959817
 20
-6.652729067895181
 30
0.0
 11
9.749455071488704
 21
-6.492787692366295
 31
0.0
  0
LINE
  5
173
330
22
100
AcDbEntity
  8
0
100
AcDbLine
 10
9.588100407920341
 20
-6.65237458898169
 30
0.0
 11
9.747434912752385
 21
-6.493040084149646
 31
0.0
  0
LINE
  5
174
330
22
100
AcDbEntity
  8
0
100
AcDbLine
 10
9.586688978317186
 20
-6.652018251631878
 30
0.0
 11
9.745412678297354
 21
-6.49329455165171
 31
0.0
  0
LINE
  5
175
330
22
100
AcDbEntity
  8
0
100
AcDbLine
 10
9.585279402005697
 20
-6.651660060990402
 30
0.0
 11
9.743388361015295
 21
-6.493551101980805
 31
0.0
  0
LINE
  5
176
330
22
100
AcDbEntity
  8
0
100
AcDbLine
 10
9.583871673878304
 20
-6.651300022164829
 30
0.0
 11
9.741361953752377
 21
-6.493809742290755
 31
0.0
  0
LINE
  5
177
330
22
100
AcDbEntity
  8
0
100
AcDbLine
 10
9.582465788863895
 20
-6.650938140226269
 30
0.0
 11
9.739333449308753
 21
-6.494070479781411
 31
0.0
  0
LINE
  5
178
330
22
100
AcDbEntity
  8
0
100
AcDbLine
 10
9.581061741927788
 20
-6.650574420209412
 30
0.0
 11
9.737302840438124
 21
-6.494333321699077
 31
0.0
  0
LINE
  5
179
330
22
100
AcDbEntity
  8
0
100
AcDbLine
 10
9.579659528071136
 20
-6.650208867113096
 30
0.0
 11
9.735270119847402
 21
-6.49459827533683
 31
0.0
  0
LINE
  5
17A
330
22
100
AcDbEntity
  8
0
100
AcDbLine
 10
9.578259142330818
 20
-6.64984148590045
 30
0.0
 11
9.733235280196206
 21
-6.494865348035062
 31
0.0
  0
LINE
  5
17B
330
22
100
AcDbEntity
  8
0
100
AcDbLine
 10
9.576860579778943
 20
-6.649472281499359
 30
0.0
 11
9.731198314096491
 21
-6.49513454718181
 31
0.0
  0
LINE
  5
17C
330
22
100
AcDbEntity
  8
0
100
AcDbLine
 10
9.575463835522638
 20
-6.649101258802695
 30
0.0
 11
9.729159214112033
 21
-6.4954058802133
 31
0.0
  0
LINE
  5
17D
330
22
100
AcDbEntity
  8
0
100
AcDbLine
 10
9.574068904703777
 20
-6.648728422668592
 30
0.0
 11
9.727117972758108
 21
-6.495679354614261
 31
0.0
  0
LINE
  5
17E
330
22
100
AcDbEntity
  8
0
100
AcDbLine
 10
9.572675782498526
 20
-6.648353777920875
 30
0.0
 11
9.725074582500885
 21
-6.495954977918516
 31
0.0
  0
LINE
  5
17F
330
22
100
AcDbEntity
  8
0
100
AcDbLine
 10
9.571284464117175
 20
-6.647977329349259
 30
0.0
 11
9.723029035757161
 21
-6.496232757709273
 31
0.0
  0
LINE
  5
180
330
22
100
AcDbEntity
  8
0
100
AcDbLine
 10
9.56989494480377
 20
-6.647599081709699
 30
0.0
 11
9.720981324893742
 21
-6.496512701619728
 31
0.0
  0
LINE
  5
181
330
22
100
AcDbEntity
  8
0
100
AcDbLine
 10
9.56850721983587
 20
-6.647219039724632
 30
0.0
 11
9.718931442227022
 21
-6.49679481733348
 31
0.0
  0
LINE
  5
182
330
22
100
AcDbEntity
  8
0
100
AcDbLine
 10
9.567121284524136
 20
-6.646837208083399
 30
0.0
 11
9.716879380022643
 21
-6.497079112584892
 31
0.0
  0
LINE
  5
183
330
22
100
AcDbEntity
  8
0
100
AcDbLine
 10
9.565737134212234
 20
-6.646453591442336
 30
0.0
 11
9.714825130494803
 21
-6.497365595159767
 31
0.0
  0
LINE
  5
184
330
22
100
AcDbEntity
  8
0
100
AcDbLine
 10
9.564354764276339
 20
-6.646068194425263
 30
0.0
 11
9.71276868580597
 21
-6.497654272895633
 31
0.0
  0
LINE
  5
185
330
22
100
AcDbEntity
  8
0
100
AcDbLine
 10
9.56297417012502
 20
-6.645681021623616
 30
0.0
 11
9.71071003806627
 21
-6.497945153682366
 31
0.0
  0
LINE
  5
186
330
22
100
AcDbEntity
  8
0
100
AcDbLine
 10
9.561595347198881
 20
-6.645292077596789
 30
0.0
 11
9.708649179333049
 21
-6.498238245462622
 31
0.0
  0
LINE
  5
187
330
22
100
AcDbEntity
  8
0
100
AcDbLine
 10
9.560218290970235
 20
-6.644901366872469
 30
0.0
 11
9.706586101610394
 21
-6.49853355623231
 31
0.0
  0
LINE
  5
188
330
22
100
AcDbEntity
  8
0
100
AcDbLine
 10
9.558842996943035
 20
-6.644508893946705
 30
0.0
 11
9.70452079684858
 21
-6.498831094041159
 31
0.0
  0
LINE
  5
189
330
22
100
AcDbEntity
  8
0
100
AcDbLine
 10
9.557469460652262
 20
-6.64411466328451
 30
0.0
 11
9.702453256943597
 21
-6.499130866993175
 31
0.0
  0
LINE
  5
18A
330
22
100
AcDbEntity
  8
0
100
AcDbLine
 10
9.556097677664034
 20
-6.64371867931977
 30
0.0
 11
9.700383473736618
 21
-6.499432883247187
 31
0.0
  0
LINE
  5
18B
330
22
100
AcDbEntity
  8
0
100
AcDbLine
 10
9.554727643575096
 20
-6.643320946455743
 30
0.0
 11
9.69831143901351
 21
-6.499737151017329
 31
0.0
  0
LINE
  5
18C
330
22
100
AcDbEntity
  8
0
100
AcDbLine
 10
9.553359354012593
 20
-6.642921469065279
 30
0.0
 11
9.696237144504213
 21
-6.50004367857366
 31
0.0
  0
LINE
  5
18D
330
22
100
AcDbEntity
  8
0
100
AcDbLine
 10
9.551992804633938
 20
-6.642520251490967
 30
0.0
 11
9.694160581882348
 21
-6.500352474242557
 31
0.0
  0
LINE
  5
18E
330
22
100
AcDbEntity
  8
0
100
AcDbLine
 10
9.55062799112636
 20
-6.64211729804558
 30
0.0
 11
9.692081742764532
 21
-6.500663546407408
 31
0.0
  0
LINE
  5
18F
330
22
100
AcDbEntity
  8
0
100
AcDbLine
 10
9.549264909206886
 20
-6.641712613012087
 30
0.0
 11
9.69000061870995
 21
-6.500976903509023
 31
0.0
  0
LINE
  5
190
330
22
100
AcDbEntity
  8
0
100
AcDbLine
 10
9.547903554621834
 20
-6.641306200644172
 30
0.0
 11
9.687917201219717
 21
-6.50129255404629
 31
0.0
  0
LINE
  5
191
330
22
100
AcDbEntity
  8
0
100
AcDbLine
 10
9.546543923146824
 20
-6.640898065166217
 30
0.0
 11
9.685831481736324
 21
-6.501610506576717
 31
0.0
  0
LINE
  5
192
330
22
100
AcDbEntity
  8
0
100
AcDbLine
 10
9.545186010586309
 20
-6.640488210773765
 30
0.0
 11
9.683743451643142
 21
-6.501930769716932
 31
0.0
  0
LINE
  5
193
330
22
100
AcDbEntity
  8
0
100
AcDbLine
 10
9.543829812773514
 20
-6.640076641633594
 30
0.0
 11
9.681653102263743
 21
-6.502253352143366
 31
0.0
  0
LINE
  5
194
330
22
100
AcDbEntity
  8
0
100
AcDbLine
 10
9.542475325570054
 20
-6.639663361884088
 30
0.0
 11
9.679560424861403
 21
-6.502578262592739
 31
0.0
  0
LINE
  5
195
330
22
100
AcDbEntity
  8
0
100
AcDbLine
 10
9.541122544865823
 20
-6.639248375635352
 30
0.0
 11
9.677465410638454
 21
-6.502905509862721
 31
0.0
  0
LINE
  5
196
330
22
100
AcDbEntity
  8
0
100
AcDbLine
 10
9.539771466578706
 20
-6.638831686969504
 30
0.0
 11
9.675368050735711
 21
-6.503235102812499
 31
0.0
  0
LINE
  5
197
330
22
100
AcDbEntity
  8
0
100
AcDbLine
 10
9.538422086654275
 20
-6.638413299940967
 30
0.0
 11
9.673268336231874
 21
-6.503567050363368
 31
0.0
  0
LINE
  5
198
330
22
100
AcDbEntity
  8
0
100
AcDbLine
 10
9.537074401065732
 20
-6.637993218576544
 30
0.0
 11
9.671166258142866
 21
-6.503901361499409
 31
0.0
  0
LINE
  5
199
330
22
100
AcDbEntity
  8
0
100
AcDbLine
 10
9.535728405813483
 20
-6.637571446875828
 30
0.0
 11
9.669061807421325
 21
-6.504238045267985
 31
0.0
  0
LINE
  5
19A
330
22
100
AcDbEntity
  8
0
100
AcDbLine
 10
9.534384096925101
 20
-6.637147988811242
 30
0.0
 11
9.666954307030319
 21
-6.504577778706024
 31
0.0
  0
LINE
  5
19B
330
22
100
AcDbEntity
  8
0
100
AcDbLine
 10
9.533041470455032
 20
-6.636722848328344
 30
0.0
 11
9.664841177270172
 21
-6.504923141513203
 31
0.0
  0
LINE
  5
19C
330
22
100
AcDbEntity
  8
0
100
AcDbLine
 10
9.531700522484277
 20
-6.636296029346135
 30
0.0
 11
9.662722113653822
 21
-6.505274438176589
 31
0.0
  0
LINE
  5
19D
330
22
100
AcDbEntity
  8
0
100
AcDbLine
 10
9.530361249120391
 20
-6.635867535757054
 30
0.0
 11
9.660597059078728
 21
-6.505631725798716
 31
0.0
  0
LINE
  5
19E
330
22
100
AcDbEntity
  8
0
100
AcDbLine
 10
9.529023646497048
 20
-6.635437371427428
 30
0.0
 11
9.658465955424926
 21
-6.50599506249955
 31
0.0
  0
LINE
  5
19F
330
22
100
AcDbEntity
  8
0
100
AcDbLine
 10
9.52768771077403
 20
-6.635005540197482
 30
0.0
 11
9.656328743529357
 21
-6.506364507442155
 31
0.0
  0
LINE
  5
1A0
330
22
100
AcDbEntity
  8
0
100
AcDbLine
 10
9.526353438136817
 20
-6.634572045881727
 30
0.0
 11
9.654185363159545
 21
-6.506740120858999
 31
0.0
  0
LINE
  5
1A1
330
22
100
AcDbEntity
  8
0
100
AcDbLine
 10
9.525020824796586
 20
-6.634136892268994
 30
0.0
 11
9.652035752986046
 21
-6.507121964079534
 31
0.0
  0
LINE
  5
1A2
330
22
100
AcDbEntity
  8
0
100
AcDbLine
 10
9.523689866989817
 20
-6.633700083122795
 30
0.0
 11
9.649879850554288
 21
-6.507510099558325
 31
0.0
  0
LINE
  5
1A3
330
22
100
AcDbEntity
  8
0
100
AcDbLine
 10
9.522360560978299
 20
-6.633261622181346
 30
0.0
 11
9.647717592255242
 21
-6.507904590904403
 31
0.0
  0
LINE
  5
1A4
330
22
100
AcDbEntity
  8
0
100
AcDbLine
 10
9.521032903048723
 20
-6.632821513157957
 30
0.0
 11
9.64554891329538
 21
-6.508305502911301
 31
0.0
  0
LINE
  5
1A5
330
22
100
AcDbEntity
  8
0
100
AcDbLine
 10
9.519706889512601
 20
-6.632379759741112
 30
0.0
 11
9.643373747665188
 21
-6.508712901588524
 31
0.0
  0
LINE
  5
1A6
330
22
100
AcDbEntity
  8
0
100
AcDbLine
 10
9.51838251670609
 20
-6.631936365594656
 30
0.0
 11
9.641192028107168
 21
-6.509126854193578
 31
0.0
  0
LINE
  5
1A7
330
22
100
AcDbEntity
  8
0
100
AcDbLine
 10
9.517059780989669
 20
-6.631491334358113
 30
0.0
 11
9.639003686082165
 21
-6.509547429265616
 31
0.0
  0
LINE
  5
1A8
330
22
100
AcDbEntity
  8
0
100
AcDbLine
 10
9.515738678748165
 20
-6.631044669646648
 30
0.0
 11
9.636808651734762
 21
-6.509974696660052
 31
0.0
  0
LINE
  5
1A9
330
22
100
AcDbEntity
  8
0
100
AcDbLine
 10
9.514419206390329
 20
-6.630596375051518
 30
0.0
 11
9.634606853857759
 21
-6.510408727584088
 31
0.0
  0
LINE
  5
1AA
330
22
100
AcDbEntity
  8
0
100
AcDbLine
 10
9.51310136034883
 20
-6.630146454140052
 30
0.0
 11
9.632398219854817
 21
-6.510849594634065
 31
0.0
  0
LINE
  5
1AB
330
22
100
AcDbEntity
  8
0
100
AcDbLine
 10
9.511785137079945
 20
-6.629694910455969
 30
0.0
 11
9.630182675702217
 21
-6.511297371833697
 31
0.0
  0
LINE
  5
1AC
330
22
100
AcDbEntity
  8
0
100
AcDbLine
 10
9.510470533063486
 20
-6.629241747519464
 30
0.0
 11
9.627960145908989
 21
-6.511752134673961
 31
0.0
  0
LINE
  5
1AD
330
22
100
AcDbEntity
  8
0
100
AcDbLine
 10
9.509157544802565
 20
-6.628786968827417
 30
0.0
 11
9.625730553475852
 21
-6.51221396015413
 31
0.0
  0
LINE
  5
1AE
330
22
100
AcDbEntity
  8
0
100
AcDbLine
 10
9.507846168823336
 20
-6.628330577853679
 30
0.0
 11
9.623493819852313
 21
-6.512682926824702
 31
0.0
  0
LINE
  5
1AF
330
22
100
AcDbEntity
  8
0
100
AcDbLine
 10
9.506536401675022
 20
-6.627872578049029
 30
0.0
 11
9.621249864892487
 21
-6.513159114831564
 31
0.0
  0
LINE
  5
1B0
330
22
100
AcDbEntity
  8
0
100
AcDbLine
 10
9.505228239929509
 20
-6.627412972841574
 30
0.0
 11
9.618998606809229
 21
-6.513642605961853
 31
0.0
  0
LINE
  5
1B1
330
22
100
AcDbEntity
  8
0
100
AcDbLine
 10
9.503921680181363
 20
-6.626951765636753
 30
0.0
 11
9.616739962126237
 21
-6.514133483691879
 31
0.0
  0
LINE
  5
1B2
330
22
100
AcDbEntity
  8
0
100
AcDbLine
 10
9.502616719047535
 20
-6.626488959817615
 30
0.0
 11
9.614473845629007
 21
-6.514631833236144
 31
0.0
  0
LINE
  5
1B3
330
22
100
AcDbEntity
  8
0
100
AcDbLine
 10
9.50131335316723
 20
-6.626024558744954
 30
0.0
 11
9.612200170312945
 21
-6.515137741599239
 31
0.0
  0
LINE
  5
1B4
330
22
100
AcDbEntity
  8
0
100
AcDbLine
 10
9.50001157920181
 20
-6.625558565757406
 30
0.0
 11
9.609918847330698
 21
-6.515651297628519
 31
0.0
  0
LINE
  5
1B5
330
22
100
AcDbEntity
  8
0
100
AcDbLine
 10
9.498711393834447
 20
-6.625090984171804
 30
0.0
 11
9.607629785936138
 21
-6.516172592070113
 31
0.0
  0
LINE
  5
1B6
330
22
100
AcDbEntity
  8
0
100
AcDbLine
 10
9.497412793770237
 20
-6.624621817283047
 30
0.0
 11
9.605332893427409
 21
-6.516701717625876
 31
0.0
  0
LINE
  5
1B7
330
22
100
AcDbEntity
  8
0
100
AcDbLine
 10
9.496115775735693
 20
-6.624151068364624
 30
0.0
 11
9.603028075086683
 21
-6.517238769013634
 31
0.0
  0
LINE
  5
1B8
330
22
100
AcDbEntity
  8
0
100
AcDbLine
 10
9.494820336478936
 20
-6.623678740668417
 30
0.0
 11
9.60071523411813
 21
-6.517783843029222
 31
0.0
  0
LINE
  5
1B9
330
22
100
AcDbEntity
  8
0
100
AcDbLine
 10
9.493526472769254
 20
-6.623204837425132
 30
0.0
 11
9.598394271583369
 21
-6.518337038611016
 31
0.0
  0
LINE
  5
1BA
330
22
100
AcDbEntity
  8
0
100
AcDbLine
 10
9.492234181397137
 20
-6.622729361844283
 30
0.0
 11
9.596065086333958
 21
-6.518898456907463
 31
0.0
  0
LINE
  5
1BB
330
22
100
AcDbEntity
  8
0
100
AcDbLine
 10
9.49094345917399
 20
-6.622252317114463
 30
0.0
 11
9.593727574941556
 21
-6.519468201346897
 31
0.0
  0
LINE
  5
1BC
330
22
100
AcDbEntity
  8
0
100
AcDbLine
 10
9.489654302932079
 20
-6.621773706403407
 30
0.0
 11
9.591381631624697
 21
-6.520046377710789
 31
0.0
  0
LINE
  5
1BD
330
22
100
AcDbEntity
  8
0
100
AcDbLine
 10
9.488366709524321
 20
-6.6212935328582
 30
0.0
 11
9.589027148173141
 21
-6.52063309420938
 31
0.0
  0
LINE
  5
1BE
330
22
100
AcDbEntity
  8
0
100
AcDbLine
 10
9.487080675824106
 20
-6.620811799605448
 30
0.0
 11
9.586664013868482
 21
-6.521228461561072
 31
0.0
  0
LINE
  5
1BF
330
22
100
AcDbEntity
  8
0
100
AcDbLine
 10
9.485796198725237
 20
-6.62032850975135
 30
0.0
 11
9.58429211540167
 21
-6.521832593074917
 31
0.0
  0
LINE
  5
1C0
330
22
100
AcDbEntity
  8
0
100
AcDbLine
 10
9.484513275141775
 20
-6.619843666381846
 30
0.0
 11
9.581911336787154
 21
-6.522445604736468
 31
0.0
  0
LINE
  5
1C1
330
22
100
AcDbEntity
  8
0
100
AcDbLine
 10
9.483231902007727
 20
-6.619357272562928
 30
0.0
 11
9.57952155927267
 21
-6.523067615297985
 31
0.0
  0
LINE
  5
1C2
330
22
100
AcDbEntity
  8
0
100
AcDbLine
 10
9.481952076277162
 20
-6.618869331340525
 30
0.0
 11
9.577122661245994
 21
-6.523698746371693
 31
0.0
  0
LINE
  5
1C3
330
22
100
AcDbEntity
  8
0
100
AcDbLine
 10
9.480673794923832
 20
-6.61837984574089
 30
0.0
 11
9.57471451813681
 21
-6.524339122527913
 31
0.0
  0
LINE
  5
1C4
330
22
100
AcDbEntity
  8
0
100
AcDbLine
 10
9.479397054941216
 20
-6.61788881877054
 30
0.0
 11
9.572297002314739
 21
-6.524988871397017
 31
0.0
  0
LINE
  5
1C5
330
22
100
AcDbEntity
  8
0
100
AcDbLine
 10
9.4781218533422
 20
-6.617396253416591
 30
0.0
 11
9.569869982982298
 21
-6.525648123776492
 31
0.0
  0
LINE
  5
1C6
330
22
100
AcDbEntity
  8
0
100
AcDbLine
 10
9.476850196692751
 20
-6.616900143113072
 30
0.0
 11
9.567433326063611
 21
-6.526317013742213
 31
0.0
  0
LINE
  5
1C7
330
22
100
AcDbEntity
  8
0
100
AcDbLine
 10
9.475611659861609
 20
-6.616370912991246
 30
0.0
 11
9.564986894087283
 21
-6.526995678765572
 31
0.0
  0
LINE
  5
1C8
330
22
100
AcDbEntity
  8
0
100
AcDbLine
 10
9.474414479857308
 20
-6.615800326042583
 30
0.0
 11
9.562530546064422
 21
-6.527684259835469
 31
0.0
  0
LINE
  5
1C9
330
22
100
AcDbEntity
  8
0
100
AcDbLine
 10
9.473256904470012
 20
-6.615190134476912
 30
0.0
 11
9.560064137360848
 21
-6.528382901586076
 31
0.0
  0
LINE
  5
1CA
330
22
100
AcDbEntity
  8
0
100
AcDbLine
 10
9.472137483256977
 20
-6.614541788736979
 30
0.0
 11
9.557587519562835
 21
-6.529091752431122
 31
0.0
  0
LINE
  5
1CB
330
22
100
AcDbEntity
  8
0
100
AcDbLine
 10
9.471055024253058
 20
-6.613856480787934
 30
0.0
 11
9.55510054033712
 21
-6.529810964703872
 31
0.0
  0
LINE
  5
1CC
330
22
100
AcDbEntity
  8
0
100
AcDbLine
 10
9.470008560890324
 20
-6.613135177197701
 30
0.0
 11
9.55260304328331
 21
-6.530540694804715
 31
0.0
  0
LINE
  5
1CD
330
22
100
AcDbEntity
  8
0
100
AcDbLine
 10
9.468997326793626
 20
-6.612378644341431
 30
0.0
 11
9.550094867779977
 21
-6.53128110335508
 31
0.0
  0
LINE
  5
1CE
330
22
100
AcDbEntity
  8
0
100
AcDbLine
 10
9.468020736801783
 20
-6.61158746738031
 30
0.0
 11
9.547575848822303
 21
-6.53203235535979
 31
0.0
  0
LINE
  5
1CF
330
22
100
AcDbEntity
  8
0
100
AcDbLine
 10
9.467078373081198
 20
-6.610762064147927
 30
0.0
 11
9.545045816852164
 21
-6.532794620376961
 31
0.0
  0
LINE
  5
1D0
330
22
100
AcDbEntity
  8
0
100
AcDbLine
 10
9.466169975512487
 20
-6.609902694763671
 30
0.0
 11
9.542504597579513
 21
-6.533568072696644
 31
0.0
  0
LINE
  5
1D1
330
22
100
AcDbEntity
  8
0
100
AcDbLine
 10
9.465295435842575
 20
-6.609009467480619
 30
0.0
 11
9.539952011794291
 21
-6.534352891528903
 31
0.0
  0
LINE
  5
1D2
330
22
100
AcDbEntity
  8
0
100
AcDbLine
 10
9.46445479528028
 20
-6.608082341089946
 30
0.0
 11
9.537387875169221
 21
-6.535149261201005
 31
0.0
  0
LINE
  5
1D3
330
22
100
AcDbEntity
  8
0
100
AcDbLine
 10
9.46364824540478
 20
-6.607121124012482
 30
0.0
 11
9.534811998051585
 21
-6.535957371365676
 31
0.0
  0
LINE
  5
1D4
330
22
100
AcDbEntity
  8
0
100
AcDbLine
 10
9.462876132453461
 20
-6.606125470010833
 30
0.0
 11
9.532224185244597
 21
-6.536777417219696
 31
0.0
  0
LINE
  5
1D5
330
22
100
AcDbEntity
  8
0
100
AcDbLine
 10
9.46213896518814
 20
-6.605094870323187
 30
0.0
 11
9.529624235776614
 21
-6.537609599734713
 31
0.0
  0
LINE
  5
1D6
330
22
100
AcDbEntity
  8
0
100
AcDbLine
 10
9.461437426794134
 20
-6.604028641764228
 30
0.0
 11
9.527011942657964
 21
-6.538454125900399
 31
0.0
  0
LINE
  5
1D7
330
22
100
AcDbEntity
  8
0
100
AcDbLine
 10
9.460772391454097
 20
-6.602925910151297
 30
0.0
 11
9.524387092624703
 21
-6.539311208980691
 31
0.0
  0
LINE
  5
1D8
330
22
100
AcDbEntity
  8
0
100
AcDbLine
 10
9.460144946595971
 20
-6.601785588056457
 30
0.0
 11
9.521749465867495
 21
-6.540181068784932
 31
0.0
  0
LINE
  5
1D9
330
22
100
AcDbEntity
  8
0
100
AcDbLine
 10
9.459556422206333
 20
-6.60060634549313
 30
0.0
 11
9.519098835746065
 21
-6.541063931953397
 31
0.0
  0
LINE
  5
1DA
330
22
100
AcDbEntity
  8
0
100
AcDbLine
 10
9.459008429197803
 20
-6.599386571548692
 30
0.0
 11
9.516434968486331
 21
-6.541960032260164
 31
0.0
  0
LINE
  5
1DB
330
22
100
AcDbEntity
  8
0
100
AcDbLine
 10
9.458502909682197
 20
-6.598124324111331
 30
0.0
 11
9.513757622861247
 21
-6.542869610932282
 31
0.0
  0
LINE
  5
1DC
330
22
100
AcDbEntity
  8
0
100
AcDbLine
 10
9.458042203231265
 20
-6.596817263609298
 30
0.0
 11
9.51106654985198
 21
-6.543792916988583
 31
0.0
  0
LINE
  5
1DD
330
22
100
AcDbEntity
  8
0
100
AcDbLine
 10
9.457629135169618
 20
-6.595462564717978
 30
0.0
 11
9.508361492289457
 21
-6.544730207598139
 31
0.0
  0
LINE
  5
1DE
330
22
100
AcDbEntity
  8
0
100
AcDbLine
 10
9.457267135911017
 20
-6.594056797023615
 30
0.0
 11
9.505642184474346
 21
-6.545681748460285
 31
0.0
  0
LINE
  5
1DF
330
22
100
AcDbEntity
  8
0
100
AcDbLine
 10
9.456960405276888
 20
-6.592595760704776
 30
0.0
 11
9.502908351773958
 21
-6.546647814207705
 31
0.0
  0
LINE
  5
1E0
330
22
100
AcDbEntity
  8
0
100
AcDbLine
 10
9.456714143861754
 20
-6.591074255166943
 30
0.0
 11
9.500159710193948
 21
-6.547628688834749
 31
0.0
  0
LINE
  5
1E1
330
22
100
AcDbEntity
  8
0
100
AcDbLine
 10
9.45653488782055
 20
-6.589485744255181
 30
0.0
 11
9.497395965923589
 21
-6.548624666152143
 31
0.0
  0
LINE
  5
1E2
330
22
100
AcDbEntity
  8
0
100
AcDbLine
 10
9.456431009489943
 20
-6.587821855632822
 30
0.0
 11
9.494616814852111
 21
-6.549636050270653
 31
0.0
  0
LINE
  5
1E3
330
22
100
AcDbEntity
  8
0
100
AcDbLine
 10
9.456413496722753
 20
-6.586071601447045
 30
0.0
 11
9.49182194205359
 21
-6.550663156116208
 31
0.0
  0
LINE
  5
1E4
330
22
100
AcDbEntity
  8
0
100
AcDbLine
 10
9.456497228081373
 20
-6.58422010313546
 30
0.0
 11
9.489011021238548
 21
-6.551706309978285
 31
0.0
  0
LINE
  5
1E5
330
22
100
AcDbEntity
  8
0
100
AcDbLine
 10
9.456703195737791
 20
-6.582246368526075
 30
0.0
 11
9.486183714169253
 21
-6.552765850094612
 31
0.0
  0
LINE
  5
1E6
330
22
100
AcDbEntity
  8
0
100
AcDbLine
 10
9.457062715890995
 20
-6.580119081419904
 30
0.0
 11
9.483339670035018
 21
-6.55384212727588
 31
0.0
  0
LINE
  5
1E7
330
22
100
AcDbEntity
  8
0
100
AcDbLine
 10
9.45762636935761
 20
-6.577787661000323
 30
0.0
 11
9.480478524785928
 21
-6.554935505572005
 31
0.0
  0
LINE
  5
1E8
330
22
100
AcDbEntity
  8
0
100
AcDbLine
 10
9.458486487371176
 20
-6.57515977603379
 30
0.0
 11
9.477599900419086
 21
-6.55604636298588
 31
0.0
  0
LINE
  5
1E9
330
22
100
AcDbEntity
  8
0
100
AcDbLine
 10
9.459852404325673
 20
-6.572026092126326
 30
0.0
 11
9.474462458303921
 21
-6.557416038148077
 31
0.0
  0
LINE
  5
1EA
330
22
100
AcDbEntity
  8
0
100
AcDbLine
 10
9.462549355094571
 20
-6.567561374404463
 30
0.0
 11
9.469997740582059
 21
-6.560112988916976
 31
0.0
  0
LINE
  5
1EB
330
22
100
AcDbEntity
  8
0
100
AcDbLine
 10
10.06576936912215
 20
-6.701500179763851
 30
0.0
 11
10.29548320754411
 21
-6.471786341341893
 31
0.0
  0
LINE
  5
1EC
330
22
100
AcDbEntity
  8
0
100
AcDbLine
 10
10.06749374408677
 20
-6.701543571752196
 30
0.0
 11
10.29720626193595
 21
-6.471831053903017
 31
0.0
  0
LINE
  5
1ED
330
22
100
AcDbEntity
  8
0
100
AcDbLine
 10
10.06921876519345
 20
-6.701586317598485
 30
0.0
 11
10.29892867233474
 21
-6.4718764104572
 31
0.0
  0
LINE
  5
1EE
330
22
100
AcDbEntity
  8
0
100
AcDbLine
 10
10.07094443315064
 20
-6.701628416594267
 30
0.0
 11
10.30065043944254
 21
-6.471922410302368
 31
0.0
  0
LINE
  5
1EF
330
22
100
AcDbEntity
  8
0
100
AcDbLine
 10
10.07267074866831
 20
-6.701669868029563
 30
0.0
 11
10.30237156395987
 21
-6.471969052738005
 31
0.0
  0
LINE
  5
1F0
330
22
100
AcDbEntity
  8
0
100
AcDbLine
 10
10.07439771245808
 20
-6.701710671192754
 30
0.0
 11
10.30409204658569
 21
-6.472016337065148
 31
0.0
  0
LINE
  5
1F1
330
22
100
AcDbEntity
  8
0
100
AcDbLine
 10
10.07612532523314
 20
-6.70175082537067
 30
0.0
 11
10.30581188801742
 21
-6.472064262586387
 31
0.0
  0
LINE
  5
1F2
330
22
100
AcDbEntity
  8
0
100
AcDbLine
 10
10.07785358770826
 20
-6.701790329848505
 30
0.0
 11
10.30753108895093
 21
-6.472112828605841
 31
0.0
  0
LINE
  5
1F3
330
22
100
AcDbEntity
  8
0
100
AcDbLine
 10
10.07958250059984
 20
-6.701829183909893
 30
0.0
 11
10.30924965008055
 21
-6.472162034429185
 31
0.0
  0
LINE
  5
1F4
330
22
100
AcDbEntity
  8
0
100
AcDbLine
 10
10.08131206462586
 20
-6.70186738683684
 30
0.0
 11
10.31096757209909
 21
-6.472211879363613
 31
0.0
  0
LINE
  5
1F5
330
22
100
AcDbEntity
  8
0
100
AcDbLine
 10
10.08304228050594
 20
-6.701904937909731
 30
0.0
 11
10.31268485569781
 21
-6.472262362717859
 31
0.0
  0
LINE
  5
1F6
330
22
100
AcDbEntity
  8
0
100
AcDbLine
 10
10.08477314896128
 20
-6.701941836407358
 30
0.0
 11
10.31440150156646
 21
-6.472313483802177
 31
0.0
  0
LINE
  5
1F7
330
22
100
AcDbEntity
  8
0
100
AcDbLine
 10
10.08650467071474
 20
-6.701978081606856
 30
0.0
 11
10.31611751039327
 21
-6.472365241928336
 31
0.0
  0
LINE
  5
1F8
330
22
100
AcDbEntity
  8
0
100
AcDbLine
 10
10.08823684649078
 20
-6.702013672783793
 30
0.0
 11
10.31783288286493
 21
-6.47241763640964
 31
0.0
  0
LINE
  5
1F9
330
22
100
AcDbEntity
  8
0
100
AcDbLine
 10
10.0899696770155
 20
-6.702048609212036
 30
0.0
 11
10.31954761966666
 21
-6.472470666560875
 31
0.0
  0
LINE
  5
1FA
330
22
100
AcDbEntity
  8
0
100
AcDbLine
 10
10.09170316301664
 20
-6.702082890163864
 30
0.0
 11
10.32126172148215
 21
-6.472524331698349
 31
0.0
  0
LINE
  5
1FB
330
22
100
AcDbEntity
  8
0
100
AcDbLine
 10
10.09343730522358
 20
-6.702116514909887
 30
0.0
 11
10.32297518899359
 21
-6.472578631139876
 31
0.0
  0
LINE
  5
1FC
330
22
100
AcDbEntity
  8
0
100
AcDbLine
 10
10.09517210436736
 20
-6.702149482719078
 30
0.0
 11
10.32468802288167
 21
-6.47263356420476
 31
0.0
  0
LINE
  5
1FD
330
22
100
AcDbEntity
  8
0
100
AcDbLine
 10
10.09690756118063
 20
-6.702181792858768
 30
0.0
 11
10.32640022382561
 21
-6.472689130213788
 31
0.0
  0
LINE
  5
1FE
330
22
100
AcDbEntity
  8
0
100
AcDbLine
 10
10.09864367639775
 20
-6.702213444594613
 30
0.0
 11
10.32811179250311
 21
-6.472745328489259
 31
0.0
  0
LINE
  5
1FF
330
22
100
AcDbEntity
  8
0
100
AcDbLine
 10
10.10038045075471
 20
-6.702244437190624
 30
0.0
 11
10.32982272959041
 21
-6.472802158354926
 31
0.0
  0
LINE
  5
200
330
22
100
AcDbEntity
  8
0
100
AcDbLine
 10
10.10211788498919
 20
-6.702274769909112
 30
0.0
 11
10.33153303576224
 21
-6.472859619136056
 31
0.0
  0
LINE
  5
201
330
22
100
AcDbEntity
  8
0
100
AcDbLine
 10
10.10385597984051
 20
-6.702304442010753
 30
0.0
 11
10.33324271169192
 21
-6.47291771015935
 31
0.0
  0
LINE
  5
202
330
22
100
AcDbEntity
  8
0
100
AcDbLine
 10
10.10559473604971
 20
-6.702333452754522
 30
0.0
 11
10.3349517580512
 21
-6.472976430753026
 31
0.0
  0
LINE
  5
203
330
22
100
AcDbEntity
  8
0
100
AcDbLine
 10
10.10733415435947
 20
-6.702361801397723
 30
0.0
 11
10.33666017551049
 21
-6.473035780246711
 31
0.0
  0
LINE
  5
204
330
22
100
AcDbEntity
  8
0
100
AcDbLine
 10
10.10907423551421
 20
-6.702389487195953
 30
0.0
 11
10.33836796473862
 21
-6.473095757971547
 31
0.0
  0
LINE
  5
205
330
22
100
AcDbEntity
  8
0
100
AcDbLine
 10
10.11081498026
 20
-6.702416509403132
 30
0.0
 11
10.34007512640303
 21
-6.473156363260098
 31
0.0
  0
LINE
  5
206
330
22
100
AcDbEntity
  8
0
100
AcDbLine
 10
10.11255638934461
 20
-6.702442867271485
 30
0.0
 11
10.3417816611697
 21
-6.473217595446397
 31
0.0
  0
LINE
  5
207
330
22
100
AcDbEntity
  8
0
100
AcDbLine
 10
10.11429846351756
 20
-6.702468560051502
 30
0.0
 11
10.34348756970315
 21
-6.473279453865916
 31
0.0
  0
LINE
  5
208
330
22
100
AcDbEntity
  8
0
100
AcDbLine
 10
10.11604120353003
 20
-6.702493586991995
 30
0.0
 11
10.34519285266646
 21
-6.473341937855571
 31
0.0
  0
LINE
  5
209
330
22
100
AcDbEntity
  8
0
100
AcDbLine
 10
10.11778461013495
 20
-6.702517947340044
 30
0.0
 11
10.34689751072127
 21
-6.473405046753732
 31
0.0
  0
LINE
  5
20A
330
22
100
AcDbEntity
  8
0
100
AcDbLine
 10
10.11952868408697
 20
-6.702541640340998
 30
0.0
 11
10.34860154452779
 21
-6.473468779900176
 31
0.0
  0
LINE
  5
20B
330
22
100
AcDbEntity
  8
0
100
AcDbLine
 10
10.12127342614242
 20
-6.702564665238513
 30
0.0
 11
10.35030495474478
 21
-6.473533136636152
 31
0.0
  0
LINE
  5
20C
330
22
100
AcDbEntity
  8
0
100
AcDbLine
 10
10.12301883705942
 20
-6.702587021274478
 30
0.0
 11
10.35200774202961
 21
-6.473598116304284
 31
0.0
  0
LINE
  5
20D
330
22
100
AcDbEntity
  8
0
100
AcDbLine
 10
10.1247649175978
 20
-6.702608707689067
 30
0.0
 11
10.3537099070382
 21
-6.473663718248665
 31
0.0
  0
LINE
  5
20E
330
22
100
AcDbEntity
  8
0
100
AcDbLine
 10
10.12651166851913
 20
-6.702629723720694
 30
0.0
 11
10.35541145042504
 21
-6.473729941814784
 31
0.0
  0
LINE
  5
20F
330
22
100
AcDbEntity
  8
0
100
AcDbLine
 10
10.12825909058676
 20
-6.702650068606037
 30
0.0
 11
10.35711237284327
 21
-6.473796786349528
 31
0.0
  0
LINE
  5
210
330
22
100
AcDbEntity
  8
0
100
AcDbLine
 10
10.13000718456575
 20
-6.702669741580007
 30
0.0
 11
10.35881267494453
 21
-6.473864251201232
 31
0.0
  0
LINE
  5
211
330
22
100
AcDbEntity
  8
0
100
AcDbLine
 10
10.13175595122295
 20
-6.702688741875776
 30
0.0
 11
10.36051235737913
 21
-6.4739323357196
 31
0.0
  0
LINE
  5
212
330
22
100
AcDbEntity
  8
0
100
AcDbLine
 10
10.13350539132698
 20
-6.702707068724711
 30
0.0
 11
10.36221142079593
 21
-6.474001039255769
 31
0.0
  0
LINE
  5
213
330
22
100
AcDbEntity
  8
0
100
AcDbLine
 10
10.13525550564819
 20
-6.702724721356464
 30
0.0
 11
10.36390986584242
 21
-6.47407036116224
 31
0.0
  0
LINE
  5
214
330
22
100
AcDbEntity
  8
0
100
AcDbLine
 10
10.13700629495877
 20
-6.702741698998854
 30
0.0
 11
10.36560769316468
 21
-6.474140300792942
 31
0.0
  0
LINE
  5
215
330
22
100
AcDbEntity
  8
0
100
AcDbLine
 10
10.13875776003263
 20
-6.702758000877962
 30
0.0
 11
10.36730490340744
 21
-6.474210857503158
 31
0.0
  0
LINE
  5
216
330
22
100
AcDbEntity
  8
0
100
AcDbLine
 10
10.1405099016455
 20
-6.702773626218062
 30
0.0
 11
10.36900149721398
 21
-6.474282030649577
 31
0.0
  0
LINE
  5
217
330
22
100
AcDbEntity
  8
0
100
AcDbLine
 10
10.14226272057491
 20
-6.70278857424162
 30
0.0
 11
10.37069747522626
 21
-6.474353819590271
 31
0.0
  0
LINE
  5
218
330
22
100
AcDbEntity
  8
0
100
AcDbLine
 10
10.14401621760017
 20
-6.702802844169326
 30
0.0
 11
10.37239283808483
 21
-6.474426223684666
 31
0.0
  0
LINE
  5
219
330
22
100
AcDbEntity
  8
0
100
AcDbLine
 10
10.14577039350241
 20
-6.702816435220046
 30
0.0
 11
10.37408758642887
 21
-6.47449924229359
 31
0.0
  0
LINE
  5
21A
330
22
100
AcDbEntity
  8
0
100
AcDbLine
 10
10.14752524906458
 20
-6.702829346610846
 30
0.0
 11
10.37578172089622
 21
-6.474572874779209
 31
0.0
  0
LINE
  5
21B
330
22
100
AcDbEntity
  8
0
100
AcDbLine
 10
10.14928078507141
 20
-6.702841577556976
 30
0.0
 11
10.3774752421233
 21
-6.474647120505088
 31
0.0
  0
LINE
  5
21C
330
22
100
AcDbEntity
  8
0
100
AcDbLine
 10
10.15103700230951
 20
-6.702853127271851
 30
0.0
 11
10.37916815074525
 21
-6.474721978836109
 31
0.0
  0
LINE
  5
21D
330
22
100
AcDbEntity
  8
0
100
AcDbLine
 10
10.15279390156725
 20
-6.702863994967072
 30
0.0
 11
10.38086044739576
 21
-6.47479744913856
 31
0.0
  0
LINE
  5
21E
330
22
100
AcDbEntity
  8
0
100
AcDbLine
 10
10.15455148363489
 20
-6.702874179852397
 30
0.0
 11
10.38255213270726
 21
-6.474873530780032
 31
0.0
  0
LINE
  5
21F
330
22
100
AcDbEntity
  8
0
100
AcDbLine
 10
10.15630974930451
 20
-6.702883681135744
 30
0.0
 11
10.38424320731075
 21
-6.474950223129506
 31
0.0
  0
LINE
  5
220
330
22
100
AcDbEntity
  8
0
100
AcDbLine
 10
10.15806869937005
 20
-6.702892498023173
 30
0.0
 11
10.38593367183594
 21
-6.47502752555728
 31
0.0
  0
LINE
  5
221
330
22
100
AcDbEntity
  8
0
100
AcDbLine
 10
10.15982833462726
 20
-6.702900629718924
 30
0.0
 11
10.38762352691119
 21
-6.475105437434996
 31
0.0
  0
LINE
  5
222
330
22
100
AcDbEntity
  8
0
100
AcDbLine
 10
10.16158865587383
 20
-6.702908075425328
 30
0.0
 11
10.38931277316351
 21
-6.475183958135646
 31
0.0
  0
LINE
  5
223
330
22
100
AcDbEntity
  8
0
100
AcDbLine
 10
10.16334966390923
 20
-6.702914834342897
 30
0.0
 11
10.39100141121857
 21
-6.475263087033549
 31
0.0
  0
LINE
  5
224
330
22
100
AcDbEntity
  8
0
100
AcDbLine
 10
10.16511135953483
 20
-6.702920905670259
 30
0.0
 11
10.39268944170075
 21
-6.475342823504336
 31
0.0
  0
LINE
  5
225
330
22
100
AcDbEntity
  8
0
100
AcDbLine
 10
10.1668737435539
 20
-6.702926288604152
 30
0.0
 11
10.39437686523307
 21
-6.475423166924985
 31
0.0
  0
LINE
  5
226
330
22
100
AcDbEntity
  8
0
100
AcDbLine
 10
10.16863681677157
 20
-6.702930982339451
 30
0.0
 11
10.39606368243724
 21
-6.475504116673787
 31
0.0
  0
LINE
  5
227
330
22
100
AcDbEntity
  8
0
100
AcDbLine
 10
10.17040057999488
 20
-6.702934986069107
 30
0.0
 11
10.39774989393364
 21
-6.475585672130347
 31
0.0
  0
LINE
  5
228
330
22
100
AcDbEntity
  8
0
100
AcDbLine
 10
10.17216503403273
 20
-6.702938298984227
 30
0.0
 11
10.39943550034137
 21
-6.475667832675581
 31
0.0
  0
LINE
  5
229
330
22
100
AcDbEntity
  8
0
100
AcDbLine
 10
10.17393017969596
 20
-6.70294092027396
 30
0.0
 11
10.40112050227819
 21
-6.475750597691731
 31
0.0
  0
LINE
  5
22A
330
22
100
AcDbEntity
  8
0
100
AcDbLine
 10
10.17569601779728
 20
-6.702942849125609
 30
0.0
 11
10.40280490036057
 21
-6.475833966562317
 31
0.0
  0
LINE
  5
22B
330
22
100
AcDbEntity
  8
0
100
AcDbLine
 10
10.17746254915135
 20
-6.702944084724501
 30
0.0
 11
10.40448869520367
 21
-6.475917938672189
 31
0.0
  0
LINE
  5
22C
330
22
100
AcDbEntity
  8
0
100
AcDbLine
 10
10.17922977457474
 20
-6.702944626254081
 30
0.0
 11
10.40617188742135
 21
-6.47600251340747
 31
0.0
  0
LINE
  5
22D
330
22
100
AcDbEntity
  8
0
100
AcDbLine
 10
10.18099769488591
 20
-6.702944472895878
 30
0.0
 11
10.40785447762618
 21
-6.476087690155602
 31
0.0
  0
LINE
  5
22E
330
22
100
AcDbEntity
  8
0
100
AcDbLine
 10
10.18276631090532
 20
-6.702943623829436
 30
0.0
 11
10.40953646642946
 21
-6.476173468305296
 31
0.0
  0
LINE
  5
22F
330
22
100
AcDbEntity
  8
0
100
AcDbLine
 10
10.1845356234553
 20
-6.702942078232418
 30
0.0
 11
10.41121785444117
 21
-6.476259847246553
 31
0.0
  0
LINE
  5
230
330
22
100
AcDbEntity
  8
0
100
AcDbLine
 10
10.18630563336018
 20
-6.702939835280501
 30
0.0
 11
10.41289864227001
 21
-6.47634682637067
 31
0.0
  0
LINE
  5
231
330
22
100
AcDbEntity
  8
0
100
AcDbLine
 10
10.18807634144621
 20
-6.702936894147441
 30
0.0
 11
10.41457883052344
 21
-6.476434405070211
 31
0.0
  0
LINE
  5
232
330
22
100
AcDbEntity
  8
0
100
AcDbLine
 10
10.18984774854163
 20
-6.702933254004991
 30
0.0
 11
10.41625841980759
 21
-6.476522582739024
 31
0.0
  0
LINE
  5
233
330
22
100
AcDbEntity
  8
0
100
AcDbLine
 10
10.19161985547659
 20
-6.702928914022999
 30
0.0
 11
10.41793741072736
 21
-6.476611358772228
 31
0.0
  0
LINE
  5
234
330
22
100
AcDbEntity
  8
0
100
AcDbLine
 10
10.19339266308327
 20
-6.70292387336928
 30
0.0
 11
10.41961580388637
 21
-6.476700732566183
 31
0.0
  0
LINE
  5
235
330
22
100
AcDbEntity
  8
0
100
AcDbLine
 10
10.19516617219579
 20
-6.70291813120973
 30
0.0
 11
10.42129359988695
 21
-6.476790703518569
 31
0.0
  0
LINE
  5
236
330
22
100
AcDbEntity
  8
0
100
AcDbLine
 10
10.19694038365028
 20
-6.702911686708204
 30
0.0
 11
10.42297079933022
 21
-6.476881271028269
 31
0.0
  0
LINE
  5
237
330
22
100
AcDbEntity
  8
0
100
AcDbLine
 10
10.19871529828483
 20
-6.702904539026618
 30
0.0
 11
10.42464740281598
 21
-6.476972434495468
 31
0.0
  0
LINE
  5
238
330
22
100
AcDbEntity
  8
0
100
AcDbLine
 10
10.20049091693956
 20
-6.702896687324852
 30
0.0
 11
10.42632341094285
 21
-6.477064193321571
 31
0.0
  0
LINE
  5
239
330
22
100
AcDbEntity
  8
0
100
AcDbLine
 10
10.20226724045658
 20
-6.702888130760804
 30
0.0
 11
10.42799882430813
 21
-6.477156546909258
 31
0.0
  0
LINE
  5
23A
330
22
100
AcDbEntity
  8
0
100
AcDbLine
 10
10.20404426968
 20
-6.702878868490348
 30
0.0
 11
10.42967364350791
 21
-6.477249494662437
 31
0.0
  0
LINE
  5
23B
330
22
100
AcDbEntity
  8
0
100
AcDbLine
 10
10.20582200545597
 20
-6.702868899667347
 30
0.0
 11
10.43134786913704
 21
-6.477343035986278
 31
0.0
  0
LINE
  5
23C
330
22
100
AcDbEntity
  8
0
100
AcDbLine
 10
10.20760044863264
 20
-6.702858223443638
 30
0.0
 11
10.43302150178911
 21
-6.477437170287173
 31
0.0
  0
LINE
  5
23D
330
22
100
AcDbEntity
  8
0
100
AcDbLine
 10
10.20937960006021
 20
-6.70284683896904
 30
0.0
 11
10.4346945420565
 21
-6.477531896972749
 31
0.0
  0
LINE
  5
23E
330
22
100
AcDbEntity
  8
0
100
AcDbLine
 10
10.21115946059092
 20
-6.702834745391299
 30
0.0
 11
10.43636699053033
 21
-6.477627215451884
 31
0.0
  0
LINE
  5
23F
330
22
100
AcDbEntity
  8
0
100
AcDbLine
 10
10.21294003107902
 20
-6.702821941856164
 30
0.0
 11
10.43803884780052
 21
-6.477723125134659
 31
0.0
  0
LINE
  5
240
330
22
100
AcDbEntity
  8
0
100
AcDbLine
 10
10.21472131238086
 20
-6.702808427507291
 30
0.0
 11
10.43971011445574
 21
-6.47781962543241
 31
0.0
  0
LINE
  5
241
330
22
100
AcDbEntity
  8
0
100
AcDbLine
 10
10.21650330535481
 20
-6.702794201486305
 30
0.0
 11
10.44138079108345
 21
-6.477916715757666
 31
0.0
  0
LINE
  5
242
330
22
100
AcDbEntity
  8
0
100
AcDbLine
 10
10.21828601086133
 20
-6.702779262932743
 30
0.0
 11
10.44305087826988
 21
-6.478014395524196
 31
0.0
  0
LINE
  5
243
330
22
100
AcDbEntity
  8
0
100
AcDbLine
 10
10.22006942976295
 20
-6.702763610984101
 30
0.0
 11
10.44472037660008
 21
-6.478112664146966
 31
0.0
  0
LINE
  5
244
330
22
100
AcDbEntity
  8
0
100
AcDbLine
 10
10.22185356292425
 20
-6.702747244775758
 30
0.0
 11
10.44638928665784
 21
-6.47821152104217
 31
0.0
  0
LINE
  5
245
330
22
100
AcDbEntity
  8
0
100
AcDbLine
 10
10.22363841121193
 20
-6.702730163441048
 30
0.0
 11
10.44805760902578
 21
-6.478310965627201
 31
0.0
  0
LINE
  5
246
330
22
100
AcDbEntity
  8
0
100
AcDbLine
 10
10.22542397549477
 20
-6.702712366111179
 30
0.0
 11
10.4497253442853
 21
-6.478410997320641
 31
0.0
  0
LINE
  5
247
330
22
100
AcDbEntity
  8
0
100
AcDbLine
 10
10.22721025664365
 20
-6.702693851915267
 30
0.0
 11
10.4513924930166
 21
-6.478511615542311
 31
0.0
  0
LINE
  5
248
330
22
100
AcDbEntity
  8
0
100
AcDbLine
 10
10.22899725553153
 20
-6.702674619980348
 30
0.0
 11
10.45305905579869
 21
-6.478612819713192
 31
0.0
  0
LINE
  5
249
330
22
100
AcDbEntity
  8
0
100
AcDbLine
 10
10.23078497303355
 20
-6.702654669431291
 30
0.0
 11
10.45472503320936
 21
-6.478714609255481
 31
0.0
  0
LINE
  5
24A
330
22
100
AcDbEntity
  8
0
100
AcDbLine
 10
10.23257341002691
 20
-6.7026339993909
 30
0.0
 11
10.45639042582525
 21
-6.478816983592563
 31
0.0
  0
LINE
  5
24B
330
22
100
AcDbEntity
  8
0
100
AcDbLine
 10
10.23436256739097
 20
-6.702612608979801
 30
0.0
 11
10.45805523422178
 21
-6.478919942148996
 31
0.0
  0
LINE
  5
24C
330
22
100
AcDbEntity
  8
0
100
AcDbLine
 10
10.23615244600722
 20
-6.702590497316527
 30
0.0
 11
10.4597194589732
 21
-6.47902348435054
 31
0.0
  0
LINE
  5
24D
330
22
100
AcDbEntity
  8
0
100
AcDbLine
 10
10.23794304675926
 20
-6.70256766351745
 30
0.0
 11
10.46138310065259
 21
-6.479127609624124
 31
0.0
  0
LINE
  5
24E
330
22
100
AcDbEntity
  8
0
100
AcDbLine
 10
10.23973437053291
 20
-6.702544106696762
 30
0.0
 11
10.46304615983181
 21
-6.479232317397868
 31
0.0
  0
LINE
  5
24F
330
22
100
AcDbEntity
  8
0
100
AcDbLine
 10
10.24152641821607
 20
-6.702519825966572
 30
0.0
 11
10.46470863708161
 21
-6.479337607101038
 31
0.0
  0
LINE
  5
250
330
22
100
AcDbEntity
  8
0
100
AcDbLine
 10
10.24331919069886
 20
-6.70249482043675
 30
0.0
 11
10.46637053297149
 21
-6.479443478164117
 31
0.0
  0
LINE
  5
251
330
22
100
AcDbEntity
  8
0
100
AcDbLine
 10
10.24511268887354
 20
-6.702469089215034
 30
0.0
 11
10.46803184806988
 21
-6.479549930018698
 31
0.0
  0
LINE
  5
252
330
22
100
AcDbEntity
  8
0
100
AcDbLine
 10
10.24690691363459
 20
-6.702442631406955
 30
0.0
 11
10.46969258294395
 21
-6.479656962097593
 31
0.0
  0
LINE
  5
253
330
22
100
AcDbEntity
  8
0
100
AcDbLine
 10
10.24870186587861
 20
-6.7024154461159
 30
0.0
 11
10.47135273815977
 21
-6.479764573834735
 31
0.0
  0
LINE
  5
254
330
22
100
AcDbEntity
  8
0
100
AcDbLine
 10
10.25049754650446
 20
-6.702387532443016
 30
0.0
 11
10.47301231428224
 21
-6.479872764665237
 31
0.0
  0
LINE
  5
255
330
22
100
AcDbEntity
  8
0
100
AcDbLine
 10
10.25229395641316
 20
-6.702358889487277
 30
0.0
 11
10.47467131187509
 21
-6.479981534025355
 31
0.0
  0
LINE
  5
256
330
22
100
AcDbEntity
  8
0
100
AcDbLine
 10
10.25409109650796
 20
-6.702329516345444
 30
0.0
 11
10.47632973150091
 21
-6.480090881352498
 31
0.0
  0
LINE
  5
257
330
22
100
AcDbEntity
  8
0
100
AcDbLine
 10
10.25588896769433
 20
-6.702299412112042
 30
0.0
 11
10.47798757372114
 21
-6.48020080608523
 31
0.0
  0
LINE
  5
258
330
22
100
AcDbEntity
  8
0
100
AcDbLine
 10
10.25768757087994
 20
-6.702268575879397
 30
0.0
 11
10.47964471639085
 21
-6.480311430368491
 31
0.0
  0
LINE
  5
259
330
22
100
AcDbEntity
  8
0
100
AcDbLine
 10
10.25948690697471
 20
-6.70223700673759
 30
0.0
 11
10.48130076513585
 21
-6.48042314857645
 31
0.0
  0
LINE
  5
25A
330
22
100
AcDbEntity
  8
0
100
AcDbLine
 10
10.26128697689081
 20
-6.702204703774466
 30
0.0
 11
10.48295569199549
 21
-6.48053598866978
 31
0.0
  0
LINE
  5
25B
330
22
100
AcDbEntity
  8
0
100
AcDbLine
 10
10.26308778154262
 20
-6.702171666075614
 30
0.0
 11
10.48460949908199
 21
-6.480649948536251
 31
0.0
  0
LINE
  5
25C
330
22
100
AcDbEntity
  8
0
100
AcDbLine
 10
10.26488932184683
 20
-6.702137892724379
 30
0.0
 11
10.48626218849916
 21
-6.480765026072041
 31
0.0
  0
LINE
  5
25D
330
22
100
AcDbEntity
  8
0
100
AcDbLine
 10
10.26669159872234
 20
-6.702103382801834
 30
0.0
 11
10.48791376234259
 21
-6.480881219181587
 31
0.0
  0
LINE
  5
25E
330
22
100
AcDbEntity
  8
0
100
AcDbLine
 10
10.26849461309033
 20
-6.702068135386805
 30
0.0
 11
10.4895642226995
 21
-6.480998525777637
 31
0.0
  0
LINE
  5
25F
330
22
100
AcDbEntity
  8
0
100
AcDbLine
 10
10.2702983658743
 20
-6.702032149555802
 30
0.0
 11
10.49121357164902
 21
-6.481116943781084
 31
0.0
  0
LINE
  5
260
330
22
100
AcDbEntity
  8
0
100
AcDbLine
 10
10.272102858
 20
-6.701995424383076
 30
0.0
 11
10.49286181126198
 21
-6.481236471121091
 31
0.0
  0
LINE
  5
261
330
22
100
AcDbEntity
  8
0
100
AcDbLine
 10
10.27390809039546
 20
-6.701957958940573
 30
0.0
 11
10.49450894360116
 21
-6.481357105734877
 31
0.0
  0
LINE
  5
262
330
22
100
AcDbEntity
  8
0
100
AcDbLine
 10
10.27571406399107
 20
-6.701919752297939
 30
0.0
 11
10.4961549707212
 21
-6.481478845567805
 31
0.0
  0
LINE
  5
263
330
22
100
AcDbEntity
  8
0
100
AcDbLine
 10
10.27752077971946
 20
-6.701880803522514
 30
0.0
 11
10.49779989466873
 21
-6.481601688573243
 31
0.0
  0
LINE
  5
264
330
22
100
AcDbEntity
  8
0
100
AcDbLine
 10
10.2793282385156
 20
-6.701841111679333
 30
0.0
 11
10.49944371748239
 21
-6.481725632712545
 31
0.0
  0
LINE
  5
265
330
22
100
AcDbEntity
  8
0
100
AcDbLine
 10
10.28113644131684
 20
-6.701800675831065
 30
0.0
 11
10.5010864411928
 21
-6.4818506759551
 31
0.0
  0
LINE
  5
266
330
22
100
AcDbEntity
  8
0
100
AcDbLine
 10
10.28294538906279
 20
-6.701759495038077
 30
0.0
 11
10.50272806782274
 21
-6.481976816278134
 31
0.0
  0
LINE
  5
267
330
22
100
AcDbEntity
  8
0
100
AcDbLine
 10
10.28475508269546
 20
-6.70171756835838
 30
0.0
 11
10.50436859938703
 21
-6.482104051666801
 31
0.0
  0
LINE
  5
268
330
22
100
AcDbEntity
  8
0
100
AcDbLine
 10
10.28656552315914
 20
-6.701674894847659
 30
0.0
 11
10.50600803789277
 21
-6.482232380114036
 31
0.0
  0
LINE
  5
269
330
22
100
AcDbEntity
  8
0
100
AcDbLine
 10
10.28837671140056
 20
-6.701631473559205
 30
0.0
 11
10.50764638533914
 21
-6.482361799620626
 31
0.0
  0
LINE
  5
26A
330
22
100
AcDbEntity
  8
0
100
AcDbLine
 10
10.29018864836876
 20
-6.701587303543972
 30
0.0
 11
10.5092836437177
 21
-6.482492308195038
 31
0.0
  0
LINE
  5
26B
330
22
100
AcDbEntity
  8
0
100
AcDbLine
 10
10.29200133501519
 20
-6.701542383850511
 30
0.0
 11
10.51091981501218
 21
-6.482623903853521
 31
0.0
  0
LINE
  5
26C
330
22
100
AcDbEntity
  8
0
100
AcDbLine
 10
10.29381477229364
 20
-6.701496713525028
 30
0.0
 11
10.51255490119873
 21
-6.482756584619934
 31
0.0
  0
LINE
  5
26D
330
22
100
AcDbEntity
  8
0
100
AcDbLine
 10
10.29562896116035
 20
-6.701450291611288
 30
0.0
 11
10.51418890424587
 21
-6.482890348525763
 31
0.0
  0
LINE
  5
26E
330
22
100
AcDbEntity
  8
0
100
AcDbLine
 10
10.29744390257391
 20
-6.701403117150695
 30
0.0
 11
10.51582182611446
 21
-6.483025193610137
 31
0.0
  0
LINE
  5
26F
330
22
100
AcDbEntity
  8
0
100
AcDbLine
 10
10.29925959749532
 20
-6.701355189182241
 30
0.0
 11
10.5174536687579
 21
-6.483161117919666
 31
0.0
  0
LINE
  5
270
330
22
100
AcDbEntity
  8
0
100
AcDbLine
 10
10.30107604688806
 20
-6.701306506742476
 30
0.0
 11
10.51908443412201
 21
-6.483298119508521
 31
0.0
  0
LINE
  5
271
330
22
100
AcDbEntity
  8
0
100
AcDbLine
 10
10.30289325171793
 20
-6.701257068865564
 30
0.0
 11
10.5207141241452
 21
-6.483436196438296
 31
0.0
  0
LINE
  5
272
330
22
100
AcDbEntity
  8
0
100
AcDbLine
 10
10.30471121295328
 20
-6.701206874583187
 30
0.0
 11
10.52234274075843
 21
-6.48357534677803
 31
0.0
  0
LINE
  5
273
330
22
100
AcDbEntity
  8
0
100
AcDbLine
 10
10.3065299315648
 20
-6.701155922924628
 30
0.0
 11
10.52397028588527
 21
-6.483715568604163
 31
0.0
  0
LINE
  5
274
330
22
100
AcDbEntity
  8
0
100
AcDbLine
 10
10.3083494085257
 20
-6.701104212916696
 30
0.0
 11
10.52559676144193
 21
-6.48385686000047
 31
0.0
  0
LINE
  5
275
330
22
100
AcDbEntity
  8
0
100
AcDbLine
 10
10.31016964481162
 20
-6.70105174358374
 30
0.0
 11
10.5272221693373
 21
-6.483999219058062
 31
0.0
  0
LINE
  5
276
330
22
100
AcDbEntity
  8
0
100
AcDbLine
 10
10.31199064140067
 20
-6.700998513947663
 30
0.0
 11
10.52884651147306
 21
-6.484142643875275
 31
0.0
  0
LINE
  5
277
330
22
100
AcDbEntity
  8
0
100
AcDbLine
 10
10.31381239927344
 20
-6.700944523027854
 30
0.0
 11
10.53046978974353
 21
-6.484287132557766
 31
0.0
  0
LINE
  5
278
330
22
100
AcDbEntity
  8
0
100
AcDbLine
 10
10.315634919413
 20
-6.700889769841266
 30
0.0
 11
10.53209200603599
 21
-6.484432683218276
 31
0.0
  0
LINE
  5
279
330
22
100
AcDbEntity
  8
0
100
AcDbLine
 10
10.31745820280492
 20
-6.700834253402306
 30
0.0
 11
10.5337131622304
 21
-6.484579293976833
 31
0.0
  0
LINE
  5
27A
330
22
100
AcDbEntity
  8
0
100
AcDbLine
 10
10.31928225043729
 20
-6.700777972722901
 30
0.0
 11
10.53533326019971
 21
-6.484726962960483
 31
0.0
  0
LINE
  5
27B
330
22
100
AcDbEntity
  8
0
100
AcDbLine
 10
10.32110706330069
 20
-6.700720926812471
 30
0.0
 11
10.53695230180972
 21
-6.48487568830344
 31
0.0
  0
LINE
  5
27C
330
22
100
AcDbEntity
  8
0
100
AcDbLine
 10
10.32293264238822
 20
-6.700663114677909
 30
0.0
 11
10.53857028891921
 21
-6.485025468146925
 31
0.0
  0
LINE
  5
27D
330
22
100
AcDbEntity
  8
0
100
AcDbLine
 10
10.32475898869552
 20
-6.700604535323578
 30
0.0
 11
10.54018722337993
 21
-6.485176300639163
 31
0.0
  0
LINE
  5
27E
330
22
100
AcDbEntity
  8
0
100
AcDbLine
 10
10.32658610322076
 20
-6.700545187751304
 30
0.0
 11
10.54180310703665
 21
-6.485328183935415
 31
0.0
  0
LINE
  5
27F
330
22
100
AcDbEntity
  8
0
100
AcDbLine
 10
10.32841398696466
 20
-6.700485070960368
 30
0.0
 11
10.54341794172722
 21
-6.485481116197808
 31
0.0
  0
LINE
  5
280
330
22
100
AcDbEntity
  8
0
100
AcDbLine
 10
10.33024264093052
 20
-6.700424183947474
 30
0.0
 11
10.54503172928253
 21
-6.485635095595467
 31
0.0
  0
LINE
  5
281
330
22
100
AcDbEntity
  8
0
100
AcDbLine
 10
10.33207206612417
 20
-6.700362525706793
 30
0.0
 11
10.54664447152665
 21
-6.485790120304315
 31
0.0
  0
LINE
  5
282
330
22
100
AcDbEntity
  8
0
100
AcDbLine
 10
10.33390226355404
 20
-6.700300095229883
 30
0.0
 11
10.5482561702768
 21
-6.485946188507126
 31
0.0
  0
LINE
  5
283
330
22
100
AcDbEntity
  8
0
100
AcDbLine
 10
10.33573323423114
 20
-6.700236891505755
 30
0.0
 11
10.54986682734338
 21
-6.486103298393515
 31
0.0
  0
LINE
  5
284
330
22
100
AcDbEntity
  8
0
100
AcDbLine
 10
10.33756497916907
 20
-6.700172913520792
 30
0.0
 11
10.55147644453005
 21
-6.486261448159807
 31
0.0
  0
LINE
  5
285
330
22
100
AcDbEntity
  8
0
100
AcDbLine
 10
10.33939749938401
 20
-6.700108160258815
 30
0.0
 11
10.55308502363369
 21
-6.486420636009138
 31
0.0
  0
LINE
  5
286
330
22
100
AcDbEntity
  8
0
100
AcDbLine
 10
10.34123079589482
 20
-6.700042630700973
 30
0.0
 11
10.55469256644455
 21
-6.486580860151246
 31
0.0
  0
LINE
  5
287
330
22
100
AcDbEntity
  8
0
100
AcDbLine
 10
10.34306486972291
 20
-6.699976323825852
 30
0.0
 11
10.55629907474614
 21
-6.486742118802625
 31
0.0
  0
LINE
  5
288
330
22
100
AcDbEntity
  8
0
100
AcDbLine
 10
10.34489972189234
 20
-6.699909238609386
 30
0.0
 11
10.55790455031539
 21
-6.486904410186337
 31
0.0
  0
LINE
  5
289
330
22
100
AcDbEntity
  8
0
100
AcDbLine
 10
10.34673535342984
 20
-6.699841374024849
 30
0.0
 11
10.55950899492261
 21
-6.487067732532084
 31
0.0
  0
LINE
  5
28A
330
22
100
AcDbEntity
  8
0
100
AcDbLine
 10
10.34857176536478
 20
-6.699772729042881
 30
0.0
 11
10.56111241033156
 21
-6.487232084076103
 31
0.0
  0
LINE
  5
28B
330
22
100
AcDbEntity
  8
0
100
AcDbLine
 10
10.35040895872916
 20
-6.699703302631466
 30
0.0
 11
10.56271479829947
 21
-6.487397463061156
 31
0.0
  0
LINE
  5
28C
330
22
100
AcDbEntity
  8
0
100
AcDbLine
 10
10.35224693455767
 20
-6.699633093755925
 30
0.0
 11
10.56431616057703
 21
-6.487563867736558
 31
0.0
  0
LINE
  5
28D
330
22
100
AcDbEntity
  8
0
100
AcDbLine
 10
10.35408569388768
 20
-6.699562101378881
 30
0.0
 11
10.56591649890854
 21
-6.487731296358016
 31
0.0
  0
LINE
  5
28E
330
22
100
AcDbEntity
  8
0
100
AcDbLine
 10
10.35592523775927
 20
-6.699490324460257
 30
0.0
 11
10.56751581503178
 21
-6.487899747187742
 31
0.0
  0
LINE
  5
28F
330
22
100
AcDbEntity
  8
0
100
AcDbLine
 10
10.35776556721516
 20
-6.699417761957334
 30
0.0
 11
10.56911411067822
 21
-6.488069218494274
 31
0.0
  0
LINE
  5
290
330
22
100
AcDbEntity
  8
0
100
AcDbLine
 10
10.35960668330083
 20
-6.69934441282462
 30
0.0
 11
10.57071138757284
 21
-6.488239708552615
 31
0.0
  0
LINE
  5
291
330
22
100
AcDbEntity
  8
0
100
AcDbLine
 10
10.36144858706447
 20
-6.699270276013955
 30
0.0
 11
10.57230764743442
 21
-6.488411215644001
 31
0.0
  0
LINE
  5
292
330
22
100
AcDbEntity
  8
0
100
AcDbLine
 10
10.363291279557
 20
-6.699195350474393
 30
0.0
 11
10.57390289197533
 21
-6.488583738056058
 31
0.0
  0
LINE
  5
293
330
22
100
AcDbEntity
  8
0
100
AcDbLine
 10
10.36513476183203
 20
-6.699119635152325
 30
0.0
 11
10.57549712290172
 21
-6.488757274082637
 31
0.0
  0
LINE
  5
294
330
22
100
AcDbEntity
  8
0
100
AcDbLine
 10
10.36697903494599
 20
-6.699043128991333
 30
0.0
 11
10.57709034191349
 21
-6.488931822023833
 31
0.0
  0
LINE
  5
295
330
22
100
AcDbEntity
  8
0
100
AcDbLine
 10
10.36882409995803
 20
-6.698965830932261
 30
0.0
 11
10.57868255070428
 21
-6.489107380186005
 31
0.0
  0
LINE
  5
296
330
22
100
AcDbEntity
  8
0
100
AcDbLine
 10
10.37066995793005
 20
-6.698887739913208
 30
0.0
 11
10.58027375096163
 21
-6.489283946881619
 31
0.0
  0
LINE
  5
297
330
22
100
AcDbEntity
  8
0
100
AcDbLine
 10
10.37251660992677
 20
-6.698808854869451
 30
0.0
 11
10.58186394436686
 21
-6.489461520429362
 31
0.0
  0
LINE
  5
298
330
22
100
AcDbEntity
  8
0
100
AcDbLine
 10
10.37436405701566
 20
-6.698729174733531
 30
0.0
 11
10.5834531325952
 21
-6.48964009915399
 31
0.0
  0
LINE
  5
299
330
22
100
AcDbEntity
  8
0
100
AcDbLine
 10
10.37621230026703
 20
-6.698648698435123
 30
0.0
 11
10.58504131731578
 21
-6.48981968138637
 31
0.0
  0
LINE
  5
29A
330
22
100
AcDbEntity
  8
0
100
AcDbLine
 10
10.37806134075395
 20
-6.698567424901175
 30
0.0
 11
10.58662850019168
 21
-6.49000026546344
 31
0.0
  0
LINE
  5
29B
330
22
100
AcDbEntity
  8
0
100
AcDbLine
 10
10.37991117955235
 20
-6.698485353055737
 30
0.0
 11
10.58821468287995
 21
-6.49018184972814
 31
0.0
  0
LINE
  5
29C
330
22
100
AcDbEntity
  8
0
100
AcDbLine
 10
10.38176181774097
 20
-6.698402481820084
 30
0.0
 11
10.5897998670316
 21
-6.490364432529452
 31
0.0
  0
LINE
  5
29D
330
22
100
AcDbEntity
  8
0
100
AcDbLine
 10
10.38361325640137
 20
-6.698318810112649
 30
0.0
 11
10.59138405429175
 21
-6.490548012222275
 31
0.0
  0
LINE
  5
29E
330
22
100
AcDbEntity
  8
0
100
AcDbLine
 10
10.38546549661802
 20
-6.698234336848968
 30
0.0
 11
10.59296724629947
 21
-6.490732587167518
 31
0.0
  0
LINE
  5
29F
330
22
100
AcDbEntity
  8
0
100
AcDbLine
 10
10.38731853947818
 20
-6.698149060941773
 30
0.0
 11
10.59454944468802
 21
-6.490918155731932
 31
0.0
  0
LINE
  5
2A0
330
22
100
AcDbEntity
  8
0
100
AcDbLine
 10
10.38917238607203
 20
-6.698062981300886
 30
0.0
 11
10.5961306510847
 21
-6.491104716288217
 31
0.0
  0
LINE
  5
2A1
330
22
100
AcDbEntity
  8
0
100
AcDbLine
 10
10.39102703749261
 20
-6.697976096833269
 30
0.0
 11
10.59771086711102
 21
-6.491292267214866
 31
0.0
  0
LINE
  5
2A2
330
22
100
AcDbEntity
  8
0
100
AcDbLine
 10
10.39288249483587
 20
-6.697888406442982
 30
0.0
 11
10.59929009438258
 21
-6.491480806896267
 31
0.0
  0
LINE
  5
2A3
330
22
100
AcDbEntity
  8
0
100
AcDbLine
 10
10.39473875920064
 20
-6.697799909031181
 30
0.0
 11
10.60086833450925
 21
-6.491670333722564
 31
0.0
  0
LINE
  5
2A4
330
22
100
AcDbEntity
  8
0
100
AcDbLine
 10
10.39659583168866
 20
-6.697710603496127
 30
0.0
 11
10.60244558909513
 21
-6.491860846089655
 31
0.0
  0
LINE
  5
2A5
330
22
100
AcDbEntity
  8
0
100
AcDbLine
 10
10.39845371340464
 20
-6.697620488733113
 30
0.0
 11
10.60402185973851
 21
-6.492052342399238
 31
0.0
  0
LINE
  5
2A6
330
22
100
AcDbEntity
  8
0
100
AcDbLine
 10
10.40031240545616
 20
-6.697529563634557
 30
0.0
 11
10.60559714803205
 21
-6.492244821058668
 31
0.0
  0
LINE
  5
2A7
330
22
100
AcDbEntity
  8
0
100
AcDbLine
 10
10.40217190895381
 20
-6.697437827089872
 30
0.0
 11
10.60717145556264
 21
-6.492438280481037
 31
0.0
  0
LINE
  5
2A8
330
22
100
AcDbEntity
  8
0
100
AcDbLine
 10
10.4040322250111
 20
-6.697345277985551
 30
0.0
 11
10.60874478391159
 21
-6.492632719085063
 31
0.0
  0
LINE
  5
2A9
330
22
100
AcDbEntity
  8
0
100
AcDbLine
 10
10.40589335474451
 20
-6.697251915205109
 30
0.0
 11
10.61031713465452
 21
-6.492828135295097
 31
0.0
  0
LINE
  5
2AA
330
22
100
AcDbEntity
  8
0
100
AcDbLine
 10
10.4077552992735
 20
-6.697157737629082
 30
0.0
 11
10.61188850936146
 21
-6.493024527541126
 31
0.0
  0
LINE
  5
2AB
330
22
100
AcDbEntity
  8
0
100
AcDbLine
 10
10.40961805972055
 20
-6.697062744135002
 30
0.0
 11
10.61345890959687
 21
-6.493221894258678
 31
0.0
  0
LINE
  5
2AC
330
22
100
AcDbEntity
  8
0
100
AcDbLine
 10
10.4114816372111
 20
-6.696966933597416
 30
0.0
 11
10.61502833691964
 21
-6.493420233888879
 31
0.0
  0
LINE
  5
2AD
330
22
100
AcDbEntity
  8
0
100
AcDbLine
 10
10.41334603287362
 20
-6.696870304887863
 30
0.0
 11
10.61659679288316
 21
-6.49361954487832
 31
0.0
  0
LINE
  5
2AE
330
22
100
AcDbEntity
  8
0
100
AcDbLine
 10
10.41521124783961
 20
-6.696772856874844
 30
0.0
 11
10.6181642790353
 21
-6.49381982567915
 31
0.0
  0
LINE
  5
2AF
330
22
100
AcDbEntity
  8
0
100
AcDbLine
 10
10.41707728324359
 20
-6.696674588423826
 30
0.0
 11
10.61973079691846
 21
-6.49402107474895
 31
0.0
  0
LINE
  5
2B0
330
22
100
AcDbEntity
  8
0
100
AcDbLine
 10
10.41894414022315
 20
-6.696575498397228
 30
0.0
 11
10.62129634806961
 21
-6.494223290550769
 31
0.0
  0
LINE
  5
2B1
330
22
100
AcDbEntity
  8
0
100
AcDbLine
 10
10.42081181991893
 20
-6.696475585654421
 30
0.0
 11
10.62286093402027
 21
-6.494426471553075
 31
0.0
  0
LINE
  5
2B2
330
22
100
AcDbEntity
  8
0
100
AcDbLine
 10
10.42268032347461
 20
-6.696374849051701
 30
0.0
 11
10.6244245562966
 21
-6.494630616229714
 31
0.0
  0
LINE
  5
2B3
330
22
100
AcDbEntity
  8
0
100
AcDbLine
 10
10.424549652037
 20
-6.696273287442276
 30
0.0
 11
10.62598721641935
 21
-6.494835723059927
 31
0.0
  0
LINE
  5
2B4
330
22
100
AcDbEntity
  8
0
100
AcDbLine
 10
10.42641980675597
 20
-6.696170899676279
 30
0.0
 11
10.62754891590397
 21
-6.495041790528271
 31
0.0
  0
LINE
  5
2B5
330
22
100
AcDbEntity
  8
0
100
AcDbLine
 10
10.42829078878451
 20
-6.696067684600707
 30
0.0
 11
10.62910965626055
 21
-6.495248817124664
 31
0.0
  0
LINE
  5
2B6
330
22
100
AcDbEntity
  8
0
100
AcDbLine
 10
10.4301625992787
 20
-6.69596364105948
 30
0.0
 11
10.63066943899394
 21
-6.495456801344243
 31
0.0
  0
LINE
  5
2B7
330
22
100
AcDbEntity
  8
0
100
AcDbLine
 10
10.4320352393978
 20
-6.695858767893342
 30
0.0
 11
10.63222826560362
 21
-6.495665741687522
 31
0.0
  0
LINE
  5
2B8
330
22
100
AcDbEntity
  8
0
100
AcDbLine
 10
10.43390871030416
 20
-6.695753063939953
 30
0.0
 11
10.63378613758396
 21
-6.49587563666015
 31
0.0
  0
LINE
  5
2B9
330
22
100
AcDbEntity
  8
0
100
AcDbLine
 10
10.43578301316329
 20
-6.695646528033786
 30
0.0
 11
10.63534305642401
 21
-6.496086484773072
 31
0.0
  0
LINE
  5
2BA
330
22
100
AcDbEntity
  8
0
100
AcDbLine
 10
10.4376581491439
 20
-6.695539159006147
 30
0.0
 11
10.63689902360765
 21
-6.496298284542396
 31
0.0
  0
LINE
  5
2BB
330
22
100
AcDbEntity
  8
0
100
AcDbLine
 10
10.43953411941783
 20
-6.695430955685179
 30
0.0
 11
10.63845404061364
 21
-6.496511034489372
 31
0.0
  0
LINE
  5
2BC
330
22
100
AcDbEntity
  8
0
100
AcDbLine
 10
10.44141092516014
 20
-6.69532191689584
 30
0.0
 11
10.64000810891551
 21
-6.496724733140473
 31
0.0
  0
LINE
  5
2BD
330
22
100
AcDbEntity
  8
0
100
AcDbLine
 10
10.44328856754906
 20
-6.695212041459888
 30
0.0
 11
10.64156122998173
 21
-6.496939379027213
 31
0.0
  0
LINE
  5
2BE
330
22
100
AcDbEntity
  8
0
100
AcDbLine
 10
10.44516704776607
 20
-6.695101328195841
 30
0.0
 11
10.64311340527565
 21
-6.497154970686263
 31
0.0
  0
LINE
  5
2BF
330
22
100
AcDbEntity
  8
0
100
AcDbLine
 10
10.44704636699583
 20
-6.69498977591904
 30
0.0
 11
10.64466463625554
 21
-6.49737150665933
 31
0.0
  0
LINE
  5
2C0
330
22
100
AcDbEntity
  8
0
100
AcDbLine
 10
10.4489265264263
 20
-6.694877383441546
 30
0.0
 11
10.64621492437465
 21
-6.497588985493196
 31
0.0
  0
LINE
  5
2C1
330
22
100
AcDbEntity
  8
0
100
AcDbLine
 10
10.45080752724861
 20
-6.6947641495722
 30
0.0
 11
10.64776427108115
 21
-6.497807405739657
 31
0.0
  0
LINE
  5
2C2
330
22
100
AcDbEntity
  8
0
100
AcDbLine
 10
10.4526893706572
 20
-6.694650073116569
 30
0.0
 11
10.64931267781826
 21
-6.498026765955511
 31
0.0
  0
LINE
  5
2C3
330
22
100
AcDbEntity
  8
0
100
AcDbLine
 10
10.4545720578498
 20
-6.694535152876937
 30
0.0
 11
10.65086014602418
 21
-6.498247064702558
 31
0.0
  0
LINE
  5
2C4
330
22
100
AcDbEntity
  8
0
100
AcDbLine
 10
10.45645559002738
 20
-6.694419387652327
 30
0.0
 11
10.6524066771322
 21
-6.498468300547513
 31
0.0
  0
LINE
  5
2C5
330
22
100
AcDbEntity
  8
0
100
AcDbLine
 10
10.45833996839424
 20
-6.694302776238431
 30
0.0
 11
10.65395227257058
 21
-6.498690472062095
 31
0.0
  0
LINE
  5
2C6
330
22
100
AcDbEntity
  8
0
100
AcDbLine
 10
10.46022519415798
 20
-6.69418531742766
 30
0.0
 11
10.6554969337628
 21
-6.49891357782284
 31
0.0
  0
LINE
  5
2C7
330
22
100
AcDbEntity
  8
0
100
AcDbLine
 10
10.46211126852953
 20
-6.694067010009074
 30
0.0
 11
10.65704066212733
 21
-6.499137616411277
 31
0.0
  0
LINE
  5
2C8
330
22
100
AcDbEntity
  8
0
100
AcDbLine
 10
10.46399819272316
 20
-6.693947852768415
 30
0.0
 11
10.65858345907786
 21
-6.499362586413713
 31
0.0
  0
LINE
  5
2C9
330
22
100
AcDbEntity
  8
0
100
AcDbLine
 10
10.46588596795648
 20
-6.693827844488063
 30
0.0
 11
10.66012532602317
 21
-6.499588486421367
 31
0.0
  0
LINE
  5
2CA
330
22
100
AcDbEntity
  8
0
100
AcDbLine
 10
10.46777459545047
 20
-6.693706983947035
 30
0.0
 11
10.66166626436727
 21
-6.499815315030232
 31
0.0
  0
LINE
  5
2CB
330
22
100
AcDbEntity
  8
0
100
AcDbLine
 10
10.46966407642948
 20
-6.693585269920988
 30
0.0
 11
10.66320627550936
 21
-6.500043070841114
 31
0.0
  0
LINE
  5
2CC
330
22
100
AcDbEntity
  8
0
100
AcDbLine
 10
10.47155441212128
 20
-6.693462701182157
 30
0.0
 11
10.66474536084382
 21
-6.500271752459623
 31
0.0
  0
LINE
  5
2CD
330
22
100
AcDbEntity
  8
0
100
AcDbLine
 10
10.47344560375698
 20
-6.693339276499426
 30
0.0
 11
10.66628352176032
 21
-6.500501358496081
 31
0.0
  0
LINE
  5
2CE
330
22
100
AcDbEntity
  8
0
100
AcDbLine
 10
10.47533765257118
 20
-6.693214994638193
 30
0.0
 11
10.66782075964378
 21
-6.50073188756559
 31
0.0
  0
LINE
  5
2CF
330
22
100
AcDbEntity
  8
0
100
AcDbLine
 10
10.47723055980183
 20
-6.693089854360507
 30
0.0
 11
10.6693570758744
 21
-6.500963338287937
 31
0.0
  0
LINE
  5
2D0
330
22
100
AcDbEntity
  8
0
100
AcDbLine
 10
10.4791243661743
 20
-6.692963814941006
 30
0.0
 11
10.6708924718277
 21
-6.5011957092876
 31
0.0
  0
LINE
  5
2D1
330
22
100
AcDbEntity
  8
0
100
AcDbLine
 10
10.48101965895023
 20
-6.692836289118036
 30
0.0
 11
10.67242694887452
 21
-6.501428999193746
 31
0.0
  0
LINE
  5
2D2
330
22
100
AcDbEntity
  8
0
100
AcDbLine
 10
10.48291663737817
 20
-6.692707077643064
 30
0.0
 11
10.67396050838108
 21
-6.501663206640157
 31
0.0
  0
LINE
  5
2D3
330
22
100
AcDbEntity
  8
0
100
AcDbLine
 10
10.48481530624924
 20
-6.692576175724957
 30
0.0
 11
10.6754931517089
 21
-6.501898330265304
 31
0.0
  0
LINE
  5
2D4
330
22
100
AcDbEntity
  8
0
100
AcDbLine
 10
10.48671567038075
 20
-6.692443578546424
 30
0.0
 11
10.67702488021499
 21
-6.502134368712177
 31
0.0
  0
LINE
  5
2D5
330
22
100
AcDbEntity
  8
0
100
AcDbLine
 10
10.48861773461642
 20
-6.692309281263717
 30
0.0
 11
10.67855569525169
 21
-6.502371320628448
 31
0.0
  0
LINE
  5
2D6
330
22
100
AcDbEntity
  8
0
100
AcDbLine
 10
10.49052150382659
 20
-6.692173279006514
 30
0.0
 11
10.68008559816682
 21
-6.502609184666281
 31
0.0
  0
LINE
  5
2D7
330
22
100
AcDbEntity
  8
0
100
AcDbLine
 10
10.49242698290846
 20
-6.692035566877612
 30
0.0
 11
10.68161459030364
 21
-6.502847959482425
 31
0.0
  0
LINE
  5
2D8
330
22
100
AcDbEntity
  8
0
100
AcDbLine
 10
10.49433417678619
 20
-6.691896139952845
 30
0.0
 11
10.68314267300091
 21
-6.503087643738124
 31
0.0
  0
LINE
  5
2D9
330
22
100
AcDbEntity
  8
0
100
AcDbLine
 10
10.49624309041126
 20
-6.691754993280738
 30
0.0
 11
10.68466984759284
 21
-6.50332823609916
 31
0.0
  0
LINE
  5
2DA
330
22
100
AcDbEntity
  8
0
100
AcDbLine
 10
10.49815372876254
 20
-6.691612121882426
 30
0.0
 11
10.68619611540919
 21
-6.503569735235784
 31
0.0
  0
LINE
  5
2DB
330
22
100
AcDbEntity
  8
0
100
AcDbLine
 10
10.50006609684658
 20
-6.691467520751349
 30
0.0
 11
10.68772147777525
 21
-6.503812139822685
 31
0.0
  0
LINE
  5
2DC
330
22
100
AcDbEntity
  8
0
100
AcDbLine
 10
10.50198019969783
 20
-6.69132118485307
 30
0.0
 11
10.68924593601185
 21
-6.504055448539051
 31
0.0
  0
LINE
  5
2DD
330
22
100
AcDbEntity
  8
0
100
AcDbLine
 10
10.50389604237878
 20
-6.691173109125088
 30
0.0
 11
10.69076949143544
 21
-6.504299660068429
 31
0.0
  0
LINE
  5
2DE
330
22
100
AcDbEntity
  8
0
100
AcDbLine
 10
10.50581362998034
 20
-6.691023288476491
 30
0.0
 11
10.69229180010946
 21
-6.504545118347371
 31
0.0
  0
LINE
  5
2DF
330
22
100
AcDbEntity
  8
0
100
AcDbLine
 10
10.50773296762187
 20
-6.690871717787933
 30
0.0
 11
10.69381195539272
 21
-6.504792730017085
 31
0.0
  0
LINE
  5
2E0
330
22
100
AcDbEntity
  8
0
100
AcDbLine
 10
10.5096540604515
 20
-6.69071839191127
 30
0.0
 11
10.69532991650586
 21
-6.505042535856911
 31
0.0
  0
LINE
  5
2E1
330
22
100
AcDbEntity
  8
0
100
AcDbLine
 10
10.51157691364642
 20
-6.690563305669308
 30
0.0
 11
10.69684569116102
 21
-6.505294528154709
 31
0.0
  0
LINE
  5
2E2
330
22
100
AcDbEntity
  8
0
100
AcDbLine
 10
10.51350153241293
 20
-6.690406453855767
 30
0.0
 11
10.69835928700801
 21
-6.505548699260688
 31
0.0
  0
LINE
  5
2E3
330
22
100
AcDbEntity
  8
0
100
AcDbLine
 10
10.51542792198691
 20
-6.690247831234753
 30
0.0
 11
10.69987071163463
 21
-6.505805041587038
 31
0.0
  0
LINE
  5
2E4
330
22
100
AcDbEntity
  8
0
100
AcDbLine
 10
10.51735608763382
 20
-6.690087432540816
 30
0.0
 11
10.70137997256764
 21
-6.506063547606987
 31
0.0
  0
LINE
  5
2E5
330
22
100
AcDbEntity
  8
0
100
AcDbLine
 10
10.5192860346491
 20
-6.689925252478504
 30
0.0
 11
10.70288707727316
 21
-6.506324209854437
 31
0.0
  0
LINE
  5
2E6
330
22
100
AcDbEntity
  8
0
100
AcDbLine
 10
10.52121776835827
 20
-6.689761285722289
 30
0.0
 11
10.70439203315755
 21
-6.506587020923014
 31
0.0
  0
LINE
  5
2E7
330
22
100
AcDbEntity
  8
0
100
AcDbLine
 10
10.5231512941174
 20
-6.689595526916127
 30
0.0
 11
10.70589484756783
 21
-6.506851973465701
 31
0.0
  0
LINE
  5
2E8
330
22
100
AcDbEntity
  8
0
100
AcDbLine
 10
10.52508661731305
 20
-6.689427970673448
 30
0.0
 11
10.70739552779246
 21
-6.507119060194038
 31
0.0
  0
LINE
  5
2E9
330
22
100
AcDbEntity
  8
0
100
AcDbLine
 10
10.52702374336272
 20
-6.68925861157674
 30
0.0
 11
10.70889408106193
 21
-6.507388273877534
 31
0.0
  0
LINE
  5
2EA
330
22
100
AcDbEntity
  8
0
100
AcDbLine
 10
10.52896267771513
 20
-6.689087444177297
 30
0.0
 11
10.71039051454921
 21
-6.507659607343218
 31
0.0
  0
LINE
  5
2EB
330
22
100
AcDbEntity
  8
0
100
AcDbLine
 10
10.53090342585025
 20
-6.688914462995144
 30
0.0
 11
10.71188483537067
 21
-6.507933053474726
 31
0.0
  0
LINE
  5
2EC
330
22
100
AcDbEntity
  8
0
100
AcDbLine
 10
10.53284599327981
 20
-6.688739662518549
 30
0.0
 11
10.71337705058627
 21
-6.508208605212096
 31
0.0
  0
LINE
  5
2ED
330
22
100
AcDbEntity
  8
0
100
AcDbLine
 10
10.53479038554737
 20
-6.688563037203962
 30
0.0
 11
10.71486716720057
 21
-6.508486255550764
 31
0.0
  0
LINE
  5
2EE
330
22
100
AcDbEntity
  8
0
100
AcDbLine
 10
10.53673660822871
 20
-6.688384581475589
 30
0.0
 11
10.71635519216291
 21
-6.508765997541389
 31
0.0
  0
LINE
  5
2EF
330
22
100
AcDbEntity
  8
0
100
AcDbLine
 10
10.53868466693193
 20
-6.68820428972533
 30
0.0
 11
10.71784113236828
 21
-6.50904782428898
 31
0.0
  0
LINE
  5
2F0
330
22
100
AcDbEntity
  8
0
100
AcDbLine
 10
10.54063456729795
 20
-6.688022156312283
 30
0.0
 11
10.71932499465771
 21
-6.509331728952523
 31
0.0
  0
LINE
  5
2F1
330
22
100
AcDbEntity
  8
0
100
AcDbLine
 10
10.54258631500052
 20
-6.687838175562671
 30
0.0
 11
10.72080678581887
 21
-6.509617704744329
 31
0.0
  0
LINE
  5
2F2
330
22
100
AcDbEntity
  8
0
100
AcDbLine
 10
10.54453991574668
 20
-6.687652341769475
 30
0.0
 11
10.72228651258671
 21
-6.509905744929453
 31
0.0
  0
LINE
  5
2F3
330
22
100
AcDbEntity
  8
0
100
AcDbLine
 10
10.54649537527698
 20
-6.687464649192149
 30
0.0
 11
10.72376418164377
 21
-6.510195842825359
 31
0.0
  0
LINE
  5
2F4
330
22
100
AcDbEntity
  8
0
100
AcDbLine
 10
10.5484526993657
 20
-6.687275092056391
 30
0.0
 11
10.72523979962093
 21
-6.510487991801164
 31
0.0
  0
LINE
  5
2F5
330
22
100
AcDbEntity
  8
0
100
AcDbLine
 10
10.5504118938212
 20
-6.687083664553858
 30
0.0
 11
10.72671337309782
 21
-6.510782185277237
 31
0.0
  0
LINE
  5
2F6
330
22
100
AcDbEntity
  8
0
100
AcDbLine
 10
10.55237296448615
 20
-6.686890360841878
 30
0.0
 11
10.72818490860341
 21
-6.511078416724617
 31
0.0
  0
LINE
  5
2F7
330
22
100
AcDbEntity
  8
0
100
AcDbLine
 10
10.55433591723782
 20
-6.686695175043176
 30
0.0
 11
10.72965441261648
 21
-6.511376679664508
 31
0.0
  0
LINE
  5
2F8
330
22
100
AcDbEntity
  8
0
100
AcDbLine
 10
10.5563007579885
 20
-6.686498101245461
 30
0.0
 11
10.73112189156605
 21
-6.511676967667907
 31
0.0
  0
LINE
  5
2F9
330
22
100
AcDbEntity
  8
0
100
AcDbLine
 10
10.5582674926855
 20
-6.686299133501422
 30
0.0
 11
10.73258735183204
 21
-6.511979274354882
 31
0.0
  0
LINE
  5
2FA
330
22
100
AcDbEntity
  8
0
100
AcDbLine
 10
10.56023612731182
 20
-6.686098265828074
 30
0.0
 11
10.73405079974558
 21
-6.51228359339431
 31
0.0
  0
LINE
  5
2FB
330
22
100
AcDbEntity
  8
0
100
AcDbLine
 10
10.56220666788607
 20
-6.685895492206787
 30
0.0
 11
10.73551224158969
 21
-6.512589918503165
 31
0.0
  0
LINE
  5
2FC
330
22
100
AcDbEntity
  8
0
100
AcDbLine
 10
10.56417912046309
 20
-6.685690806582739
 30
0.0
 11
10.73697168359952
 21
-6.512898243446308
 31
0.0
  0
LINE
  5
2FD
330
22
100
AcDbEntity
  8
0
100
AcDbLine
 10
10.56615349113399
 20
-6.685484202864802
 30
0.0
 11
10.73842913196307
 21
-6.513208562035719
 31
0.0
  0
LINE
  5
2FE
330
22
100
AcDbEntity
  8
0
100
AcDbLine
 10
10.5681297860267
 20
-6.685275674925053
 30
0.0
 11
10.73988459282147
 21
-6.51352086813029
 31
0.0
  0
LINE
  5
2FF
330
22
100
AcDbEntity
  8
0
100
AcDbLine
 10
10.57010801130609
 20
-6.685065216598633
 30
0.0
 11
10.74133807226952
 21
-6.5138351556352
 31
0.0
  0
LINE
  5
300
330
22
100
AcDbEntity
  8
0
100
AcDbLine
 10
10.5720881731744
 20
-6.684852821683292
 30
0.0
 11
10.7427895763561
 21
-6.514151418501591
 31
0.0
  0
LINE
  5
301
330
22
100
AcDbEntity
  8
0
100
AcDbLine
 10
10.57407027787147
 20
-6.684638483939186
 30
0.0
 11
10.74423911108469
 21
-6.514469650725962
 31
0.0
  0
LINE
  5
302
330
22
100
AcDbEntity
  8
0
100
AcDbLine
 10
10.57605433167513
 20
-6.68442219708849
 30
0.0
 11
10.74568668241377
 21
-6.514789846349848
 31
0.0
  0
LINE
  5
303
330
22
100
AcDbEntity
  8
0
100
AcDbLine
 10
10.57804034090152
 20
-6.684203954815069
 30
0.0
 11
10.74713229625717
 21
-6.515111999459422
 31
0.0
  0
LINE
  5
304
330
22
100
AcDbEntity
  8
0
100
AcDbLine
 10
10.58002831190534
 20
-6.683983750764214
 30
0.0
 11
10.74857595848468
 21
-6.515436104184876
 31
0.0
  0
LINE
  5
305
330
22
100
AcDbEntity
  8
0
100
AcDbLine
 10
10.58201825108032
 20
-6.683761578542195
 30
0.0
 11
10.75001767492226
 21
-6.515762154700261
 31
0.0
  0
LINE
  5
306
330
22
100
AcDbEntity
  8
0
100
AcDbLine
 10
10.58401016485942
 20
-6.683537431716066
 30
0.0
 11
10.75145745135269
 21
-6.516090145222801
 31
0.0
  0
LINE
  5
307
330
22
100
AcDbEntity
  8
0
100
AcDbLine
 10
10.58600405971522
 20
-6.683311303813238
 30
0.0
 11
10.75289529351582
 21
-6.516420070012631
 31
0.0
  0
LINE
  5
308
330
22
100
AcDbEntity
  8
0
100
AcDbLine
 10
10.58799994216033
 20
-6.683083188321085
 30
0.0
 11
10.75433120710897
 21
-6.516751923372452
 31
0.0
  0
LINE
  5
309
330
22
100
AcDbEntity
  8
0
100
AcDbLine
 10
10.58999781874759
 20
-6.682853078686798
 30
0.0
 11
10.75576519778753
 21
-6.517085699646863
 31
0.0
  0
LINE
  5
30A
330
22
100
AcDbEntity
  8
0
100
AcDbLine
 10
10.59199769607059
 20
-6.682620968316766
 30
0.0
 11
10.757197271165
 21
-6.517421393222355
 31
0.0
  0
LINE
  5
30B
330
22
100
AcDbEntity
  8
0
100
AcDbLine
 10
10.59399958076386
 20
-6.68238685057646
 30
0.0
 11
10.75862743281383
 21
-6.517758998526486
 31
0.0
  0
LINE
  5
30C
330
22
100
AcDbEntity
  8
0
100
AcDbLine
 10
10.59600347950339
 20
-6.682150718789891
 30
0.0
 11
10.76005568826538
 21
-6.518098510027904
 31
0.0
  0
LINE
  5
30D
330
22
100
AcDbEntity
  8
0
100
AcDbLine
 10
10.59800939900684
 20
-6.681912566239413
 30
0.0
 11
10.76148204301068
 21
-6.51843992223557
 31
0.0
  0
LINE
  5
30E
330
22
100
AcDbEntity
  8
0
100
AcDbLine
 10
10.60001734603406
 20
-6.681672386165157
 30
0.0
 11
10.76290650250045
 21
-6.518783229698764
 31
0.0
  0
LINE
  5
30F
330
22
100
AcDbEntity
  8
0
100
AcDbLine
 10
10.6020273273873
 20
-6.681430171764891
 30
0.0
 11
10.7643290721458
 21
-6.519128427006383
 31
0.0
  0
LINE
  5
310
330
22
100
AcDbEntity
  8
0
100
AcDbLine
 10
10.60403934991169
 20
-6.681185916193461
 30
0.0
 11
10.7657497573184
 21
-6.519475508786751
 31
0.0
  0
LINE
  5
311
330
22
100
AcDbEntity
  8
0
100
AcDbLine
 10
10.60605342049564
 20
-6.680939612562478
 30
0.0
 11
10.76716856335085
 21
-6.519824469707265
 31
0.0
  0
LINE
  5
312
330
22
100
AcDbEntity
  8
0
100
AcDbLine
 10
10.60806954607113
 20
-6.680691253939951
 30
0.0
 11
10.76858549553717
 21
-6.520175304473912
 31
0.0
  0
LINE
  5
313
330
22
100
AcDbEntity
  8
0
100
AcDbLine
 10
10.61008773361419
 20
-6.680440833349865
 30
0.0
 11
10.77000055913295
 21
-6.520528007831102
 31
0.0
  0
LINE
  5
314
330
22
100
AcDbEntity
  8
0
100
AcDbLine
 10
10.61210799014519
 20
-6.680188343771824
 30
0.0
 11
10.77141375935601
 21
-6.520882574561005
 31
0.0
  0
LINE
  5
315
330
22
100
AcDbEntity
  8
0
100
AcDbLine
 10
10.61413032272938
 20
-6.679933778140608
 30
0.0
 11
10.77282510138637
 21
-6.521238999483613
 31
0.0
  0
LINE
  5
316
330
22
100
AcDbEntity
  8
0
100
AcDbLine
 10
10.61615473847713
 20
-6.679677129345824
 30
0.0
 11
10.77423459036689
 21
-6.521597277456061
 31
0.0
  0
LINE
  5
317
330
22
100
AcDbEntity
  8
0
100
AcDbLine
 10
10.61818124454446
 20
-6.679418390231455
 30
0.0
 11
10.77564223140348
 21
-6.521957403372437
 31
0.0
  0
LINE
  5
318
330
22
100
AcDbEntity
  8
0
100
AcDbLine
 10
10.62020984813343
 20
-6.67915755359545
 30
0.0
 11
10.77704802956541
 21
-6.522319372163474
 31
0.0
  0
LINE
  5
319
330
22
100
AcDbEntity
  8
0
100
AcDbLine
 10
10.62224055649249
 20
-6.678894612189353
 30
0.0
 11
10.77845198988582
 21
-6.522683178796026
 31
0.0
  0
LINE
  5
31A
330
22
100
AcDbEntity
  8
0
100
AcDbLine
 10
10.62427337691699
 20
-6.678629558717824
 30
0.0
 11
10.77985411736173
 21
-6.523048818273084
 31
0.0
  0
LINE
  5
31B
330
22
100
AcDbEntity
  8
0
100
AcDbLine
 10
10.62630831674951
 20
-6.678362385838275
 30
0.0
 11
10.78125441695471
 21
-6.523416285633074
 31
0.0
  0
LINE
  5
31C
330
22
100
AcDbEntity
  8
0
100
AcDbLine
 10
10.62834538338041
 20
-6.678093086160343
 30
0.0
 11
10.78265289359088
 21
-6.523785575949867
 31
0.0
  0
LINE
  5
31D
330
22
100
AcDbEntity
  8
0
100
AcDbLine
 10
10.63038458424814
 20
-6.677821652245577
 30
0.0
 11
10.7840495521615
 21
-6.524156684332218
 31
0.0
  0
LINE
  5
31E
330
22
100
AcDbEntity
  8
0
100
AcDbLine
 10
10.63242592683977
 20
-6.67754807660691
 30
0.0
 11
10.78544439752313
 21
-6.524529605923554
 31
0.0
  0
LINE
  5
31F
330
22
100
AcDbEntity
  8
0
100
AcDbLine
 10
10.63446941869143
 20
-6.677272351708222
 30
0.0
 11
10.7868374344979
 21
-6.524904335901747
 31
0.0
  0
LINE
  5
320
330
22
100
AcDbEntity
  8
0
100
AcDbLine
 10
10.63651506738865
 20
-6.67699446996396
 30
0.0
 11
10.788228667874
 21
-6.525280869478611
 31
0.0
  0
LINE
  5
321
330
22
100
AcDbEntity
  8
0
100
AcDbLine
 10
10.63856288056709
 20
-6.676714423738492
 30
0.0
 11
10.78961810240572
 21
-6.525659201899862
 31
0.0
  0
LINE
  5
322
330
22
100
AcDbEntity
  8
0
100
AcDbLine
 10
10.64061286591259
 20
-6.67643220534596
 30
0.0
 11
10.79100574281403
 21
-6.526039328444515
 31
0.0
  0
LINE
  5
323
330
22
100
AcDbEntity
  8
0
100
AcDbLine
 10
10.64266503116206
 20
-6.676147807049448
 30
0.0
 11
10.79239159378657
 21
-6.526421244424944
 31
0.0
  0
LINE
  5
324
330
22
100
AcDbEntity
  8
0
100
AcDbLine
 10
10.64471938410364
 20
-6.67586122106084
 30
0.0
 11
10.79377565997827
 21
-6.526804945186205
 31
0.0
  0
LINE
  5
325
330
22
100
AcDbEntity
  8
0
100
AcDbLine
 10
10.64677593257741
 20
-6.675572439540041
 30
0.0
 11
10.79515794601132
 21
-6.527190426106124
 31
0.0
  0
LINE
  5
326
330
22
100
AcDbEntity
  8
0
100
AcDbLine
 10
10.64883468447563
 20
-6.675281454594783
 30
0.0
 11
10.7965384564757
 21
-6.527577682594714
 31
0.0
  0
LINE
  5
327
330
22
100
AcDbEntity
  8
0
100
AcDbLine
 10
10.65089564774351
 20
-6.674988258279864
 30
0.0
 11
10.79791719592925
 21
-6.527966710094127
 31
0.0
  0
LINE
  5
328
330
22
100
AcDbEntity
  8
0
100
AcDbLine
 10
10.6529588303795
 20
-6.674692842596841
 30
0.0
 11
10.79929416889815
 21
-6.528357504078193
 31
0.0
  0
LINE
  5
329
330
22
100
AcDbEntity
  8
0
100
AcDbLine
 10
10.65502424043582
 20
-6.674395199493489
 30
0.0
 11
10.8006693798771
 21
-6.528750060052208
 31
0.0
  0
LINE
  5
32A
330
22
100
AcDbEntity
  8
0
100
AcDbLine
 10
10.65709188601913
 20
-6.674095320863148
 30
0.0
 11
10.80204283332948
 21
-6.529144373552799
 31
0.0
  0
LINE
  5
32B
330
22
100
AcDbEntity
  8
0
100
AcDbLine
 10
10.65916177529077
 20
-6.673793198544473
 30
0.0
 11
10.80341453368783
 21
-6.529540440147416
 31
0.0
  0
LINE
  5
32C
330
22
100
AcDbEntity
  8
0
100
AcDbLine
 10
10.66123391646759
 20
-6.673488824320619
 30
0.0
 11
10.80478448535391
 21
-6.529938255434297
 31
0.0
  0
LINE
  5
32D
330
22
100
AcDbEntity
  8
0
100
AcDbLine
 10
10.66330831782224
 20
-6.673182189918938
 30
0.0
 11
10.80615269269916
 21
-6.530337815042022
 31
0.0
  0
LINE
  5
32E
330
22
100
AcDbEntity
  8
0
100
AcDbLine
 10
10.66538498768377
 20
-6.672873287010376
 30
0.0
 11
10.80751916006478
 21
-6.530739114629366
 31
0.0
  0
LINE
  5
32F
330
22
100
AcDbEntity
  8
0
100
AcDbLine
 10
10.66746393443828
 20
-6.672562107208826
 30
0.0
 11
10.80888389176206
 21
-6.531142149885051
 31
0.0
  0
LINE
  5
330
330
22
100
AcDbEntity
  8
0
100
AcDbLine
 10
10.66954516652931
 20
-6.672248642070765
 30
0.0
 11
10.81024689207269
 21
-6.531546916527383
 31
0.0
  0
LINE
  5
331
330
22
100
AcDbEntity
  8
0
100
AcDbLine
 10
10.67162869245854
 20
-6.671932883094497
 30
0.0
 11
10.81160816524883
 21
-6.531953410304214
 31
0.0
  0
LINE
  5
332
330
22
100
AcDbEntity
  8
0
100
AcDbLine
 10
10.67371452078617
 20
-6.671614821719834
 30
0.0
 11
10.81296771551364
 21
-6.532361626992366
 31
0.0
  0
LINE
  5
333
330
22
100
AcDbEntity
  8
0
100
AcDbLine
 10
10.67580266013171
 20
-6.671294449327264
 30
0.0
 11
10.81432554706118
 21
-6.532771562397796
 31
0.0
  0
LINE
  5
334
330
22
100
AcDbEntity
  8
0
100
AcDbLine
 10
10.67789311917437
 20
-6.670971757237564
 30
0.0
 11
10.81568166405696
 21
-6.53318321235498
 31
0.0
  0
LINE
  5
335
330
22
100
AcDbEntity
  8
0
100
AcDbLine
 10
10.6799859066538
 20
-6.670646736711105
 30
0.0
 11
10.81703607063795
 21
-6.53359657272696
 31
0.0
  0
LINE
  5
336
330
22
100
AcDbEntity
  8
0
100
AcDbLine
 10
10.68208103137051
 20
-6.670319378947364
 30
0.0
 11
10.81838877091297
 21
-6.534011639404904
 31
0.0
  0
LINE
  5
337
330
22
100
AcDbEntity
  8
0
100
AcDbLine
 10
10.68417850218659
 20
-6.669989675084251
 30
0.0
 11
10.81973976896289
 21
-6.534428408307948
 31
0.0
  0
LINE
  5
338
330
22
100
AcDbEntity
  8
0
100
AcDbLine
 10
10.68627832802632
 20
-6.669657616197487
 30
0.0
 11
10.82108906884072
 21
-6.534846875383085
 31
0.0
  0
LINE
  5
339
330
22
100
AcDbEntity
  8
0
100
AcDbLine
 10
10.68838051787673
 20
-6.669323193300039
 30
0.0
 11
10.82243667457208
 21
-6.535267036604698
 31
0.0
  0
LINE
  5
33A
330
22
100
AcDbEntity
  8
0
100
AcDbLine
 10
10.69048508078823
 20
-6.668986397341504
 30
0.0
 11
10.82378259015513
 21
-6.535688887974605
 31
0.0
  0
LINE
  5
33B
330
22
100
AcDbEntity
  8
0
100
AcDbLine
 10
10.69259279938973
 20
-6.668646445692971
 30
0.0
 11
10.82512681956114
 21
-6.536112425521562
 31
0.0
  0
LINE
  5
33C
330
22
100
AcDbEntity
  8
0
100
AcDbLine
 10
10.69470620790136
 20
-6.668300804134309
 30
0.0
 11
10.82646936673439
 21
-6.536537645301285
 31
0.0
  0
LINE
  5
33D
330
22
100
AcDbEntity
  8
0
100
AcDbLine
 10
10.69682555294141
 20
-6.667949226047232
 30
0.0
 11
10.82781023559258
 21
-6.536964543396054
 31
0.0
  0
LINE
  5
33E
330
22
100
AcDbEntity
  8
0
100
AcDbLine
 10
10.69895089165983
 20
-6.667591654281779
 30
0.0
 11
10.82914943002696
 21
-6.537393115914643
 31
0.0
  0
LINE
  5
33F
330
22
100
AcDbEntity
  8
0
100
AcDbLine
 10
10.7010822822252
 20
-6.667228030669367
 30
0.0
 11
10.83048695390257
 21
-6.537823358992003
 31
0.0
  0
LINE
  5
340
330
22
100
AcDbEntity
  8
0
100
AcDbLine
 10
10.70321978385047
 20
-6.666858295997069
 30
0.0
 11
10.8318228110585
 21
-6.538255268789039
 31
0.0
  0
LINE
  5
341
330
22
100
AcDbEntity
  8
0
100
AcDbLine
 10
10.70536345681922
 20
-6.666482389981288
 30
0.0
 11
10.83315700530794
 21
-6.538688841492563
 31
0.0
  0
LINE
  5
342
330
22
100
AcDbEntity
  8
0
100
AcDbLine
 10
10.70751336251347
 20
-6.666100251239998
 30
0.0
 11
10.8344895404386
 21
-6.539124073314872
 31
0.0
  0
LINE
  5
343
330
22
100
AcDbEntity
  8
0
100
AcDbLine
 10
10.70966956344146
 20
-6.665711817264977
 30
0.0
 11
10.83582042021273
 21
-6.539560960493707
 31
0.0
  0
LINE
  5
344
330
22
100
AcDbEntity
  8
0
100
AcDbLine
 10
10.71183212326753
 20
-6.665317024391876
 30
0.0
 11
10.83714964836743
 21
-6.539999499291973
 31
0.0
  0
LINE
  5
345
330
22
100
AcDbEntity
  8
0
100
AcDbLine
 10
10.71400110684184
 20
-6.664915807770531
 30
0.0
 11
10.83847722861481
 21
-6.540439685997556
 31
0.0
  0
LINE
  5
346
330
22
100
AcDbEntity
  8
0
100
AcDbLine
 10
10.71617658023202
 20
-6.664508101333312
 30
0.0
 11
10.83980316464218
 21
-6.540881516923152
 31
0.0
  0
LINE
  5
347
330
22
100
AcDbEntity
  8
0
100
AcDbLine
 10
10.71835861075543
 20
-6.664093837762877
 30
0.0
 11
10.84112746011227
 21
-6.541324988406033
 31
0.0
  0
LINE
  5
348
330
22
100
AcDbEntity
  8
0
100
AcDbLine
 10
10.72054726701242
 20
-6.663672948458848
 30
0.0
 11
10.84245011866335
 21
-6.541770096807922
 31
0.0
  0
LINE
  5
349
330
22
100
AcDbEntity
  8
0
100
AcDbLine
 10
10.72274261892139
 20
-6.663245363502847
 30
0.0
 11
10.84377114390959
 21
-6.542216838514642
 31
0.0
  0
LINE
  5
34A
330
22
100
AcDbEntity
  8
0
100
AcDbLine
 10
10.72494473775426
 20
-6.662811011622939
 30
0.0
 11
10.84509053944097
 21
-6.542665209936228
 31
0.0
  0
LINE
  5
34B
330
22
100
AcDbEntity
  8
0
100
AcDbLine
 10
10.72715369617393
 20
-6.662369820156234
 30
0.0
 11
10.84640830882386
 21
-6.543115207506312
 31
0.0
  0
LINE
  5
34C
330
22
100
AcDbEntity
  8
0
100
AcDbLine
 10
10.72936956827239
 20
-6.661921715010747
 30
0.0
 11
10.8477244556007
 21
-6.543566827682435
 31
0.0
  0
LINE
  5
34D
330
22
100
AcDbEntity
  8
0
100
AcDbLine
 10
10.73159242961083
 20
-6.661466620625267
 30
0.0
 11
10.84903898329069
 21
-6.544020066945414
 31
0.0
  0
LINE
  5
34E
330
22
100
AcDbEntity
  8
0
100
AcDbLine
 10
10.73382235726083
 20
-6.661004459928233
 30
0.0
 11
10.85035189538959
 21
-6.544474921799474
 31
0.0
  0
LINE
  5
34F
330
22
100
AcDbEntity
  8
0
100
AcDbLine
 10
10.73605942984707
 20
-6.660535154294966
 30
0.0
 11
10.85166319537013
 21
-6.544931388771904
 31
0.0
  0
LINE
  5
350
330
22
100
AcDbEntity
  8
0
100
AcDbLine
 10
10.73830372759194
 20
-6.660058623503055
 30
0.0
 11
10.85297288668209
 21
-6.545389464412903
 31
0.0
  0
LINE
  5
351
330
22
100
AcDbEntity
  8
0
100
AcDbLine
 10
10.74055533236115
 20
-6.659574785686814
 30
0.0
 11
10.85428097275241
 21
-6.545849145295552
 31
0.0
  0
LINE
  5
352
330
22
100
AcDbEntity
  8
0
100
AcDbLine
 10
10.74281432771188
 20
-6.659083557289052
 30
0.0
 11
10.85558745698556
 21
-6.546310428015372
 31
0.0
  0
LINE
  5
353
330
22
100
AcDbEntity
  8
0
100
AcDbLine
 10
10.74508079894201
 20
-6.658584853011889
 30
0.0
 11
10.85689234276346
 21
-6.546773309190438
 31
0.0
  0
LINE
  5
354
330
22
100
AcDbEntity
  8
0
100
AcDbLine
 10
10.74735483314183
 20
-6.658078585765039
 30
0.0
 11
10.85819563344585
 21
-6.547237785461012
 31
0.0
  0
LINE
  5
355
330
22
100
AcDbEntity
  8
0
100
AcDbLine
 10
10.74963651924708
 20
-6.657564666612752
 30
0.0
 11
10.85949733237045
 21
-6.547703853489381
 31
0.0
  0
LINE
  5
356
330
22
100
AcDbEntity
  8
0
100
AcDbLine
 10
10.75192594809477
 20
-6.657043004718029
 30
0.0
 11
10.8607974428529
 21
-6.548171509959895
 31
0.0
  0
LINE
  5
357
330
22
100
AcDbEntity
  8
0
100
AcDbLine
 10
10.7542232124807
 20
-6.65651350728507
 30
0.0
 11
10.86209596818723
 21
-6.548640751578534
 31
0.0
  0
LINE
  5
358
330
22
100
AcDbEntity
  8
0
100
AcDbLine
 10
10.75652840721919
 20
-6.655976079499542
 30
0.0
 11
10.86339291164575
 21
-6.549111575072982
 31
0.0
  0
LINE
  5
359
330
22
100
AcDbEntity
  8
0
100
AcDbLine
 10
10.75884162920575
 20
-6.655430624465941
 30
0.0
 11
10.86468827647949
 21
-6.549583977192209
 31
0.0
  0
LINE
  5
35A
330
22
100
AcDbEntity
  8
0
100
AcDbLine
 10
10.76116297748151
 20
-6.654877043143148
 30
0.0
 11
10.86598206591804
 21
-6.550057954706629
 31
0.0
  0
LINE
  5
35B
330
22
100
AcDbEntity
  8
0
100
AcDbLine
 10
10.76349255330095
 20
-6.654315234276682
 30
0.0
 11
10.86727428316999
 21
-6.550533504407637
 31
0.0
  0
LINE
  5
35C
330
22
100
AcDbEntity
  8
0
100
AcDbLine
 10
10.76583046020178
 20
-6.653745094328813
 30
0.0
 11
10.86856493142289
 21
-6.551010623107702
 31
0.0
  0
LINE
  5
35D
330
22
100
AcDbEntity
  8
0
100
AcDbLine
 10
10.76817680407826
 20
-6.6531665174053
 30
0.0
 11
10.86985401384354
 21
-6.551489307640021
 31
0.0
  0
LINE
  5
35E
330
22
100
AcDbEntity
  8
0
100
AcDbLine
 10
10.77053169325732
 20
-6.652579395179212
 30
0.0
 11
10.87114153357808
 21
-6.551969554858451
 31
0.0
  0
LINE
  5
35F
330
22
100
AcDbEntity
  8
0
100
AcDbLine
 10
10.7728952385776
 20
-6.651983616811897
 30
0.0
 11
10.87242749375206
 21
-6.552451361637436
 31
0.0
  0
LINE
  5
360
330
22
100
AcDbEntity
  8
0
100
AcDbLine
 10
10.77526755347259
 20
-6.651379068869875
 30
0.0
 11
10.87371189747081
 21
-6.552934724871651
 31
0.0
  0
LINE
  5
361
330
22
100
AcDbEntity
  8
0
100
AcDbLine
 10
10.77764875405634
 20
-6.650765635239085
 30
0.0
 11
10.87499474781928
 21
-6.553419641476151
 31
0.0
  0
LINE
  5
362
330
22
100
AcDbEntity
  8
0
100
AcDbLine
 10
10.78003895921394
 20
-6.650143197034459
 30
0.0
 11
10.87627604786254
 21
-6.553906108385852
 31
0.0
  0
LINE
  5
363
330
22
100
AcDbEntity
  8
0
100
AcDbLine
 10
10.78243829069493
 20
-6.649511632506433
 30
0.0
 11
10.87755580064553
 21
-6.554394122555823
 31
0.0
  0
LINE
  5
364
330
22
100
AcDbEntity
  8
0
100
AcDbLine
 10
10.78484687321175
 20
-6.648870816942576
 30
0.0
 11
10.87883400919365
 21
-6.55488368096068
 31
0.0
  0
LINE
  5
365
330
22
100
AcDbEntity
  8
0
100
AcDbLine
 10
10.7872648345418
 20
-6.648220622565495
 30
0.0
 11
10.88011067651244
 21
-6.555374780594855
 31
0.0
  0
LINE
  5
366
330
22
100
AcDbEntity
  8
0
100
AcDbLine
 10
10.78969230563462
 20
-6.647560918425639
 30
0.0
 11
10.88138580558806
 21
-6.5558674184722
 31
0.0
  0
LINE
  5
367
330
22
100
AcDbEntity
  8
0
100
AcDbLine
 10
10.79212942072384
 20
-6.646891570289386
 30
0.0
 11
10.88265672911092
 21
-6.556364261902301
 31
0.0
  0
LINE
  5
368
330
22
100
AcDbEntity
  8
0
100
AcDbLine
 10
10.79457631744389
 20
-6.646212440522305
 30
0.0
 11
10.88389326991343
 21
-6.556895488052767
 31
0.0
  0
LINE
  5
369
330
22
100
AcDbEntity
  8
0
100
AcDbLine
 10
10.79703313695286
 20
-6.645523387966293
 30
0.0
 11
10.88508854413276
 21
-6.557467980786396
 31
0.0
  0
LINE
  5
36A
330
22
100
AcDbEntity
  8
0
100
AcDbLine
 10
10.79950002406014
 20
-6.644824267811987
 30
0.0
 11
10.88624428857887
 21
-6.558080003293254
 31
0.0
  0
LINE
  5
36B
330
22
100
AcDbEntity
  8
0
100
AcDbLine
 10
10.80197712736128
 20
-6.644114931463811
 30
0.0
 11
10.88736194061757
 21
-6.558730118207525
 31
0.0
  0
LINE
  5
36C
330
22
100
AcDbEntity
  8
0
100
AcDbLine
 10
10.80446459937812
 20
-6.64339522639994
 30
0.0
 11
10.88844268090181
 21
-6.559417144876242
 31
0.0
  0
LINE
  5
36D
330
22
100
AcDbEntity
  8
0
100
AcDbLine
 10
10.80696259670668
 20
-6.642664996024341
 30
0.0
 11
10.88948746604073
 21
-6.560140126690298
 31
0.0
  0
LINE
  5
36E
330
22
100
AcDbEntity
  8
0
100
AcDbLine
 10
10.80947128017156
 20
-6.641924079512428
 30
0.0
 11
10.89049705347453
 21
-6.560898306209457
 31
0.0
  0
LINE
  5
36F
330
22
100
AcDbEntity
  8
0
100
AcDbLine
 10
10.81199081498855
 20
-6.641172311648406
 30
0.0
 11
10.8914720201919
 21
-6.561691106445057
 31
0.0
  0
LINE
  5
370
330
22
100
AcDbEntity
  8
0
100
AcDbLine
 10
10.81452137093499
 20
-6.640409522654938
 30
0.0
 11
10.89241277639915
 21
-6.562518117190773
 31
0.0
  0
LINE
  5
371
330
22
100
AcDbEntity
  8
0
100
AcDbLine
 10
10.8170631225288
 20
-6.639635538014093
 30
0.0
 11
10.89331957494578
 21
-6.563379085597108
 31
0.0
  0
LINE
  5
372
330
22
100
AcDbEntity
  8
0
100
AcDbLine
 10
10.81961624921701
 20
-6.63885017827885
 30
0.0
 11
10.89419251700273
 21
-6.564273910493128
 31
0.0
  0
LINE
  5
373
330
22
100
AcDbEntity
  8
0
100
AcDbLine
 10
10.82218093557346
 20
-6.63805325887536
 30
0.0
 11
10.89503155431304
 21
-6.565202640135782
 31
0.0
  0
LINE
  5
374
330
22
100
AcDbEntity
  8
0
100
AcDbLine
 10
10.82475737150741
 20
-6.637244589894374
 30
0.0
 11
10.89583648812232
 21
-6.566165473279472
 31
0.0
  0
LINE
  5
375
330
22
100
AcDbEntity
  8
0
100
AcDbLine
 10
10.82734575248302
 20
-6.636423975871738
 30
0.0
 11
10.89660696472968
 21
-6.567162763625073
 31
0.0
  0
LINE
  5
376
330
22
100
AcDbEntity
  8
0
100
AcDbLine
 10
10.82994627975023
 20
-6.635591215557496
 30
0.0
 11
10.89734246744289
 21
-6.568195027864834
 31
0.0
  0
LINE
  5
377
330
22
100
AcDbEntity
  8
0
100
AcDbLine
 10
10.83255916058897
 20
-6.634746101671718
 30
0.0
 11
10.89804230447743
 21
-6.569262957783252
 31
0.0
  0
LINE
  5
378
330
22
100
AcDbEntity
  8
0
100
AcDbLine
 10
10.83518460856586
 20
-6.633888420647791
 30
0.0
 11
10.89870559213575
 21
-6.570367437077901
 31
0.0
  0
LINE
  5
379
330
22
100
AcDbEntity
  8
0
100
AcDbLine
 10
10.83782284380605
 20
-6.633017952360567
 30
0.0
 11
10.89933123226617
 21
-6.571509563900454
 31
0.0
  0
LINE
  5
37A
330
22
100
AcDbEntity
  8
0
100
AcDbLine
 10
10.84047409327957
 20
-6.632134469840012
 30
0.0
 11
10.89991788256757
 21
-6.572690680552016
 31
0.0
  0
LINE
  5
37B
330
22
100
AcDbEntity
  8
0
100
AcDbLine
 10
10.84313859110481
 20
-6.631237738967738
 30
0.0
 11
10.90046391773627
 21
-6.573912412336281
 31
0.0
  0
LINE
  5
37C
330
22
100
AcDbEntity
  8
0
100
AcDbLine
 10
10.84581657886871
 20
-6.630327518156811
 30
0.0
 11
10.9009673785392
 21
-6.575176718486314
 31
0.0
  0
LINE
  5
37D
330
22
100
AcDbEntity
  8
0
100
AcDbLine
 10
10.84850830596667
 20
-6.629403558011811
 30
0.0
 11
10.90142590467101
 21
-6.576485959307473
 31
0.0
  0
LINE
  5
37E
330
22
100
AcDbEntity
  8
0
100
AcDbLine
 10
10.85121402996144
 20
-6.628465600970018
 30
0.0
 11
10.90183664522385
 21
-6.577842985707609
 31
0.0
  0
LINE
  5
37F
330
22
100
AcDbEntity
  8
0
100
AcDbLine
 10
10.85393401696465
 20
-6.627513380919771
 30
0.0
 11
10.90219613759682
 21
-6.579251260287599
 31
0.0
  0
LINE
  5
380
330
22
100
AcDbEntity
  8
0
100
AcDbLine
 10
10.85666854204107
 20
-6.626546622796318
 30
0.0
 11
10.90250014058451
 21
-6.580715024252874
 31
0.0
  0
LINE
  5
381
330
22
100
AcDbEntity
  8
0
100
AcDbLine
 10
10.85941788963769
 20
-6.625565042152663
 30
0.0
 11
10.90274339910169
 21
-6.582239532688658
 31
0.0
  0
LINE
  5
382
330
22
100
AcDbEntity
  8
0
100
AcDbLine
 10
10.86218235404034
 20
-6.624568344702977
 30
0.0
 11
10.90291930324697
 21
-6.58383139549635
 31
0.0
  0
LINE
  5
383
330
22
100
AcDbEntity
  8
0
100
AcDbLine
 10
10.86496223985831
 20
-6.623556225837978
 30
0.0
 11
10.90301937760551
 21
-6.585499088090772
 31
0.0
  0
LINE
  5
384
330
22
100
AcDbEntity
  8
0
100
AcDbLine
 10
10.86775786254098
 20
-6.622528370108272
 30
0.0
 11
10.90303248456485
 21
-6.587253748084397
 31
0.0
  0
LINE
  5
385
330
22
100
AcDbEntity
  8
0
100
AcDbLine
 10
10.87056954892841
 20
-6.621484450673803
 30
0.0
 11
10.90294351725434
 21
-6.589110482347872
 31
0.0
  0
LINE
  5
386
330
22
100
AcDbEntity
  8
0
100
AcDbLine
 10
10.87339763783722
 20
-6.620424128717959
 30
0.0
 11
10.90273111333966
 21
-6.591090653215528
 31
0.0
  0
LINE
  5
387
330
22
100
AcDbEntity
  8
0
100
AcDbLine
 10
10.87624248068755
 20
-6.619347052820598
 30
0.0
 11
10.90236330482732
 21
-6.593226228680833
 31
0.0
  0
LINE
  5
388
330
22
100
AcDbEntity
  8
0
100
AcDbLine
 10
10.87910444217134
 20
-6.618252858289772
 30
0.0
 11
10.90178822064152
 21
-6.595569079819598
 31
0.0
  0
LINE
  5
389
330
22
100
AcDbEntity
  8
0
100
AcDbLine
 10
10.88198390096839
 20
-6.617141166445689
 30
0.0
 11
10.90091046626157
 21
-6.598214601152507
 31
0.0
  0
LINE
  5
38A
330
22
100
AcDbEntity
  8
0
100
AcDbLine
 10
10.88515302340519
 20
-6.615739810961857
 30
0.0
 11
10.89951057488519
 21
-6.60138225948186
 31
0.0
  0
LINE
  5
38B
330
22
100
AcDbEntity
  8
0
100
AcDbLine
 10
10.88975630717076
 20
-6.612904294149256
 30
0.0
 11
10.89667505807259
 21
-6.605985543247429
 31
0.0
  0
ENDBLK
  5
38C
330
22
100
AcDbEntity
  8
0
100
AcDbBlockEnd
  0
BLOCK
  5
3A0
330
24
100
AcDbEntity
  8
0
100
AcDbBlockBegin
  2
TITLBLK
 70
     2
 10
0.0
 20
0.0
 30
0.0
  3
TITLBLK
  1

  0
LWPOLYLINE
  5
3A1
330
24
100
AcDbEntity
  8
0
100
AcDbPolyline
 90
        2
 70
     0
 43
0.04
 39
0.03
 10
0.3424999999999994
 20
-0.0000000000000003
 10
7.654581983261419
 20
-0.0000000000000003
  0
ATTDEF
  5
3A5
330
24
100
AcDbEntity
  8
0
100
AcDbText
 10
0.625
 20
0.0999999999999998
 30
0.0
 40
0.2
  1
TITLE
  7
L200
100
AcDbAttributeDefinition
  3
DETAIL TITLE
  2
TITLE
 70
     0
  0
LWPOLYLINE
  5
3A7
330
24
100
AcDbEntity
  8
0
100
AcDbPolyline
 90
        2
 70
     1
 43
0.03
 10
0.0
 20
-0.3425000000000002
 42
0.9999999999999998
 10
0.0
 20
0.3425000000000002
 42
0.9999999999999998
  0
ATTDEF
  5
3AB
330
24
100
AcDbEntity
  8
0
100
AcDbText
 10
-0.0776944065484311
 20
-0.1000000000000003
 30
0.0
 40
0.2
  1
#
  7
L200
 72
     4
 11
0.0
 21
-0.0000000000000003
 31
0.0
100
AcDbAttributeDefinition
  3
#
  2
#
 70
     0
  0
ATTDEF
  5
3AC
330
24
100
AcDbEntity
  8
0
100
AcDbText
 10
0.625
 20
-0.1836633170828782
 30
0.0
 40
0.1
  1
N.T.S.
  7
L100
100
AcDbAttributeDefinition
  3
SCALE
  2
SCALE
 70
     0
  0
ATTDEF
  5
3AE
330
24
100
AcDbEntity
  8
0
100
AcDbText
 10
2.107203380653828
 20
-0.2914343300200487
 30
0.0
 40
0.2
  1
TITLE2
  7
L200
100
AcDbAttributeDefinition
  3
DETAIL TITLE2
  2
TITLE2
 70
     0
  0
ATTDEF
  5
3AF
330
24
100
AcDbEntity
  8
0
100
AcDbText
 10
7.58601055468999
 20
-0.1618486459795794
 30
0.0
 40
0.08
  1
-
  7
L80
 72
     2
 11
7.654581983261419
 21
-0.1618486459795794
 31
0.0
100
AcDbAttributeDefinition
  3
DWG-NAME
  2
DWG-NAME
 70
     0
  0
ATTDEF
  5
3B0
330
24
100
AcDbEntity
  8
0
100
AcDbText
 10
7.58601055468999
 20
0.0853756950662722
 30
0.0
 40
0.08
  1
-
  7
L80
 72
     2
 11
7.654581983261419
 21
0.0853756950662722
 31
0.0
100
AcDbAttributeDefinition
  3
REVISION DATE
  2
REVISED
 70
     0
  0
ENDBLK
  5
3B1
330
24
100
AcDbEntity
  8
0
100
AcDbBlockEnd
  0
BLOCK
  5
1B65
330
1B63
100
AcDbEntity
  8
0
100
AcDbBlockBegin
  2
IDAEP
 70
     0
 10
0.0
 20
0.0
 30
0.0
  3
IDAEP
  1

  0
LWPOLYLINE
  5
1B64
330
1B63
100
AcDbEntity
  8
0
100
AcDbPolyline
 90
        3
 70
     0
 43
0.0016666666666667
 10
0.0
 20
0.4999999999999981
 42
0.9999999999999998
 10
0.0
 20
0.0
 42
-0.9999999999999998
 10
0.0
 20
-0.4999999999999981
 42
5441543991412035
  0
ENDBLK
  5
1B66
330
1B63
100
AcDbEntity
  8
0
100
AcDbBlockEnd
  0
BLOCK
  5
1C47
330
1C44
100
AcDbEntity
  8
0
100
AcDbBlockBegin
  2
bubble
 70
     2
 10
0.0
 20
0.0
 30
0.0
  3
bubble
  1

  0
CIRCLE
  5
1C45
330
1C44
100
AcDbEntity
  8
0
100
AcDbCircle
 10
0.0
 20
0.0
 30
0.0
 40
0.1398891854377198
  0
ATTDEF
  5
1C46
330
1C44
100
AcDbEntity
  8
0
100
AcDbText
 10
0.0
 20
0.0
 30
0.0
 40
0.125
  1

  7
ROMANS
 72
     4
 11
0.0
 21
0.0
 31
0.0
100
AcDbAttributeDefinition
  3
Number
  2
XX
 70
     0
  0
ENDBLK
  5
1C48
330
1C44
100
AcDbEntity
  8
0
100
AcDbBlockEnd
  0
BLOCK
  5
1C4A
330
1C49
100
AcDbEntity
  8
0
100
AcDbBlockBegin
  2
PlotLayout2002
 70
     0
 10
0.0
 20
0.0
 30
0.0
  3
PlotLayout2002
  1

  0
ENDBLK
  5
1C4B
330
1C49
100
AcDbEntity
  8
0
100
AcDbBlockEnd
  0
BLOCK
  5
1C4E
330
1C4C
100
AcDbEntity
  8
0
 62
    40
100
AcDbBlockBegin
  2
wid
 70
     0
 10
0.0
 20
0.0
 30
0.0
  3
wid
  1

  0
INSERT
  5
1C4D
330
1C4C
100
AcDbEntity
  8
0
100
AcDbBlockReference
  2
PlotLayout2002
 10
0.0
 20
0.0
 30
0.0
  0
ENDBLK
  5
1C4F
330
1C4C
100
AcDbEntity
  8
0
 62
    40
100
AcDbBlockEnd
  0
BLOCK
  5
1E65
330
1E63
100
AcDbEntity
  8
0
100
AcDbBlockBegin
  2
pagesetups
 70
     0
 10
0.0
 20
0.0
 30
0.0
  3
pagesetups
  1

  0
INSERT
  5
1E64
330
1E63
100
AcDbEntity
  8
0
100
AcDbBlockReference
  2
PlotLayout2002
 10
0.0
 20
0.0
 30
0.0
  0
ENDBLK
  5
1E66
330
1E63
100
AcDbEntity
  8
0
100
AcDbBlockEnd
  0
ENDSEC
  0
SECTION
  2
ENTITIES
  0
LWPOLYLINE
  5
1A8C
330
1E
100
AcDbEntity
  8
IMAGE
100
AcDbPolyline
 90
        4
 70
     0
 43
0.0
 10
7.414143521321879
 20
3.370581285489206
 10
7.139396019929165
 20
3.37058128548921
 42
-0.4142135623730941
 10
7.034702874544155
 20
3.47527443087422
 10
7.034702874544151
 20
3.945902710316632
  0
LWPOLYLINE
  5
1A92
330
1E
100
AcDbEntity
  8
IMAGE
100
AcDbPolyline
 90
        4
 70
     0
 43
0.0
 10
7.414751453415608
 20
3.37058128548921
 10
7.79237381429527
 20
3.37058128548921
 42
0.4142135623730941
 10
7.89706695968028
 20
3.47527443087422
 10
7.897066959680284
 20
3.945902710316632
  0
LWPOLYLINE
  5
1A98
330
1E
100
AcDbEntity
  8
IMAGE
100
AcDbPolyline
 90
        3
 70
     0
 10
6.82017629145055
 20
5.739515705930644
 40
0.0188
 41
0.0188
 10
6.82017629145055
 20
5.504206696856413
 40
0.0188
 41
0.0188
 10
6.900793882526265
 20
5.504206696856413
 40
0.0
 41
0.0
  0
LWPOLYLINE
  5
1A9C
330
1E
100
AcDbEntity
  8
IMAGE
100
AcDbPolyline
 90
        3
 70
     0
 10
6.695882236063649
 20
5.671875714379561
 40
0.0188
 41
0.0188
 10
6.695882236063649
 20
5.264092178571717
 40
0.0188
 41
0.0188
 10
6.615264644987934
 20
5.264092178571717
 40
0.0
 41
0.0
  0
LWPOLYLINE
  5
1AA0
330
1E
100
AcDbEntity
  8
IMAGE
100
AcDbPolyline
 90
        2
 70
     0
 43
0.0188
 10
6.695882236063649
 20
2.927553962227049
 10
7.600516210828864
 20
2.927553962227049
  0
LWPOLYLINE
  5
1AAC
330
1E
100
AcDbEntity
  8
IMAGE
100
AcDbPolyline
 90
        2
 70
     0
 43
0.0188
 10
7.600516210828864
 20
2.927553962227049
 10
7.600516210828864
 20
3.37058128548921
  0
LWPOLYLINE
  5
1AB1
330
1E
100
AcDbEntity
  8
IMAGE
100
AcDbPolyline
 90
        3
 70
     0
 10
3.192722189458681
 20
5.671875714379561
 40
0.0188
 41
0.0188
 10
4.610622645917838
 20
5.671875714379561
 40
0.0188
 41
0.0188
 10
4.610622645917838
 20
5.591258123303846
 40
0.0
 41
0.0
  0
LWPOLYLINE
  5
1AB5
330
1E
100
AcDbEntity
  8
IMAGE
100
AcDbPolyline
 90
        2
 70
     0
 43
0.0188
 10
6.82017629145055
 20
5.739515705930644
 10
5.758852809427846
 20
5.739515705930644
  0
TEXT
  5
1AC5
330
1E
100
AcDbEntity
  8
IMAGE
100
AcDbText
 10
3.330300623625258
 20
5.465899415400977
 30
0.0
 40
0.125
  1
BLUE/WHITE
  7
ROMANS
100
AcDbText
  0
TEXT
  5
1ACB
330
1E
100
AcDbEntity
  8
IMAGE
100
AcDbText
 10
4.247769775078912
 20
5.842704816843599
 30
0.0
 40
0.125
  1
BLUE
  7
ROMANS
100
AcDbText
  0
TEXT
  5
1AF4
330
1E
100
AcDbEntity
  8
IMAGE
100
AcDbText
 10
6.064281261350719
 20
4.904121822082403
 30
0.0
 40
0.125
  1
WHITE
  7
ROMANS
100
AcDbText
  0
LINE
  5
1AF5
330
1E
100
AcDbEntity
  8
IMAGE
100
AcDbLine
 10
7.902023298459486
 20
4.691068899076588
 30
0.0
 11
7.902023298459486
 21
4.137982546125149
 31
0.0
  0
LINE
  5
1AF6
330
1E
100
AcDbEntity
  8
IMAGE
100
AcDbLine
 10
7.035009755535494
 20
4.691068899076588
 30
0.0
 11
7.035009755535494
 21
4.137982546125149
 31
0.0
  0
LWPOLYLINE
  5
1AF7
330
1E
100
AcDbEntity
  8
IMAGE
100
AcDbPolyline
 90
        7
 70
     0
 43
0.0
 10
7.902042596368339
 20
4.131498364634344
 42
-0.0589848913374397
 10
7.809716066976253
 20
4.094030568932376
 42
-0.0386595529500941
 10
7.665177395107772
 20
4.066173226622558
 42
-0.0282869353074679
 10
7.464462922404354
 20
4.054808938870385
 42
-0.0282869353074699
 10
7.263748449700944
 20
4.066173226622558
 42
-0.0386595529500971
 10
7.119209777832459
 20
4.094030568932376
 42
-0.0563374964673141
 10
7.03081258472941
 20
4.129361604748384
 42
-0.2516024705219688
  0
LWPOLYLINE
  5
1B00
330
1E
100
AcDbEntity
  8
IMAGE
100
AcDbPolyline
 90
        7
 70
     0
 43
0.0
 10
7.898860496579171
 20
3.945706640164539
 42
-0.0551229281964926
 10
7.81227389538219
 20
3.911342211499478
 42
-0.0386595529500941
 10
7.667735223513709
 20
3.883484869189659
 42
-0.0282869353074679
 10
7.467020750810295
 20
3.872120581437487
 42
-0.0282869353074699
 10
7.266306278106878
 20
3.883484869189659
 42
-0.0386595529500971
 10
7.121767606238396
 20
3.911342211499478
 42
-0.0563374964673141
 10
7.033370413135347
 20
3.946673247315485
 42
-0.2516024705219688
  0
LWPOLYLINE
  5
1B09
330
1E
100
AcDbEntity
  8
IMAGE
100
AcDbPolyline
 90
        4
 70
     0
 43
0.0
 10
6.978490410790069
 20
4.060772000006336
 42
-0.033080860588272
 10
6.978078176406437
 20
4.06699588974739
 42
-0.2516024705219658
 10
6.999215777475075
 20
4.106342702379977
 42
-0.024230617489458
 10
7.034500110143095
 20
4.127320852316378
 42
-0.0386595529500941
  0
LINE
  5
1B0F
330
1E
100
AcDbEntity
  8
IMAGE
100
AcDbLine
 10
6.978078176406437
 20
4.06699588974739
 30
0.0
 11
6.97764543614949
 21
4.00658007441986
 31
0.0
  0
LWPOLYLINE
  5
1B10
330
1E
100
AcDbEntity
  8
IMAGE
100
AcDbPolyline
 90
        3
 70
     0
 43
0.0
 10
7.032256777980077
 20
3.947221719001818
 42
-0.023019134018635
 10
6.998783037218128
 20
3.967233261787276
 42
-0.2516024705219688
 10
6.97764543614949
 20
4.00658007441986
 42
-0.2516024705219658
  0
LWPOLYLINE
  5
1B15
330
1E
100
AcDbEntity
  8
IMAGE
100
AcDbPolyline
 90
        4
 70
     0
 43
0.0
 10
7.95375656077693
 20
4.068630174416208
 42
0.033080860588272
 10
7.954168795160562
 20
4.074854064157259
 42
0.2516024705219658
 10
7.93303119409192
 20
4.114200876789846
 42
0.0213642320298733
 10
7.902023298459486
 20
4.132877785780303
 42
0.0386595529500941
  0
LINE
  5
1B1B
330
1E
100
AcDbEntity
  8
IMAGE
100
AcDbLine
 10
7.95375656077693
 20
4.068630174416208
 30
0.0
 11
7.952642925621663
 21
4.011140982393103
 31
0.0
  0
LWPOLYLINE
  5
1B1C
330
1E
100
AcDbEntity
  8
IMAGE
100
AcDbPolyline
 90
        4
 70
     0
 43
0.0
 10
7.952642925621663
 20
4.011140982393103
 42
-0.033080860588272
 10
7.953055160005295
 20
4.004917092652048
 42
-0.2516024705219658
 10
7.931917558936657
 20
3.965570280019461
 42
-0.024230617489458
 10
7.89663322626864
 20
3.94459213008306
 42
-0.0386595529500941
  0
INSERT
  5
1B22
330
1E
100
AcDbEntity
  8
IMAGE
100
AcDbBlockReference
  2
*X0
 10
1.378651832206426
 20
8.640358636081826
 30
0.0
 41
0.597263328834769
 42
0.597263328834769
 43
0.597263328834769
  0
LWPOLYLINE
  5
1B23
330
1E
100
AcDbEntity
  8
IMAGE
100
AcDbPolyline
 90
       16
 70
     1
 43
0.0
 10
7.470049064581786
 20
4.630043511120101
 42
0.0166305588493846
 10
7.648518827058861
 20
4.635981257130522
 42
0.0232391528778
 10
7.775525875220704
 20
4.650392658030137
 42
0.0527704854443554
 10
7.889616710463407
 20
4.681342567612857
 42
0.3094606165145747
 10
7.902058513177824
 20
4.699519844483061
 42
0.3094606165145707
 10
7.889616710463407
 20
4.717697121353266
 42
0.0527704854443519
 10
7.775525875220704
 20
4.748647030935986
 42
0.0232391528777998
 10
7.648518827058857
 20
4.763058431835601
 42
0.0166305588493835
 10
7.470049064581786
 20
4.768996177846018
 42
0.0166305588493859
 10
7.291579302104711
 20
4.763058431835601
 42
0.0232391528778017
 10
7.164572253942864
 20
4.748647030935986
 42
0.0527704854443525
 10
7.050481418700169
 20
4.717697121353266
 42
0.3094606165145924
 10
7.038039615985749
 20
4.699519844483061
 42
0.3094606165145795
 10
7.050481418700169
 20
4.681342567612853
 42
0.0527704854443501
 10
7.164572253942864
 20
4.650392658030137
 42
0.0232391528777996
 10
7.291579302104704
 20
4.635981257130522
 42
0.0166305588493854
  0
TEXT
  5
1B35
330
1E
100
AcDbEntity
  8
IMAGE
100
AcDbText
 10
6.963971957392542
 20
4.910427674713455
 30
0.0
 40
0.125
  1
BLACK
  7
ROMANS
100
AcDbText
  0
LWPOLYLINE
  5
1B42
330
1E
100
AcDbEntity
  8
IMAGE
100
AcDbPolyline
 90
        2
 70
     0
 43
0.01
 10
6.695882236063649
 20
5.659187115736534
 10
6.695882236063649
 20
5.658338817502889
  0
LINE
  5
1BCF
330
1E
100
AcDbEntity
  8
IMAGE
100
AcDbLine
 10
2.788606114289262
 20
6.085715723826622
 30
0.0
 11
1.372179669138194
 21
6.085715723826622
 31
0.0
  0
LINE
  5
1BD0
330
1E
100
AcDbEntity
  8
IMAGE
100
AcDbLine
 10
2.788606114289262
 20
5.42515408331698
 30
0.0
 11
1.372179669138194
 21
5.42515408331698
 31
0.0
  0
ARC
  5
1BD3
330
1E
100
AcDbEntity
  8
IMAGE
100
AcDbCircle
 10
1.372179669138194
 20
6.02441183038198
 30
0.0
 40
0.0613038934446429
100
AcDbArc
 50
90.0
 51
180.0
  0
LINE
  5
1BD4
330
1E
100
AcDbEntity
  8
IMAGE
100
AcDbLine
 10
1.310875775693556
 20
5.486457976761622
 30
0.0
 11
1.310875775693556
 21
6.02441183038198
 31
0.0
  0
ARC
  5
1BD5
330
1E
100
AcDbEntity
  8
IMAGE
100
AcDbCircle
 10
1.372179669138194
 20
5.486457976761622
 30
0.0
 40
0.0613038934446429
100
AcDbArc
 50
180.0000000000002
 51
270.0
  0
LINE
  5
1BD7
330
1E
100
AcDbEntity
  8
IMAGE
100
AcDbLine
 10
3.038498557664244
 20
5.356599769604565
 30
0.0
 11
3.038498557664237
 21
6.154270037539037
 31
0.0
  0
LINE
  5
1BD8
330
1E
100
AcDbEntity
  8
IMAGE
100
AcDbLine
 10
3.008853185074091
 20
5.356599769604565
 30
0.0
 11
3.008853185074077
 21
6.154270037539037
 31
0.0
  0
LINE
  5
1BD9
330
1E
100
AcDbEntity
  8
IMAGE
100
AcDbLine
 10
3.056283238011911
 20
6.140317557254109
 30
0.0
 11
3.056283238011911
 21
6.088476996940256
 31
0.0
  0
LINE
  5
1BDA
330
1E
100
AcDbEntity
  8
IMAGE
100
AcDbLine
 10
2.917740051214966
 20
5.356599769604565
 30
0.0
 11
2.917740051214966
 21
6.154270037539044
 31
0.0
  0
ARC
  5
1BDB
330
1E
100
AcDbEntity
  8
IMAGE
100
AcDbCircle
 10
2.788606114289262
 20
6.096178223723752
 30
0.0
 40
0.0104624998971306
100
AcDbArc
 50
270.0
 51
0.0
  0
LINE
  5
1BDC
330
1E
100
AcDbEntity
  8
IMAGE
100
AcDbLine
 10
2.799068614186392
 20
5.414691583419847
 30
0.0
 11
2.799068614186392
 21
6.096178223723752
 31
0.0
  0
LINE
  5
1BDE
330
1E
100
AcDbEntity
  8
IMAGE
100
AcDbLine
 10
3.038498557664237
 20
5.356599769604565
 30
0.0
 11
2.917740051214966
 21
5.356599769604565
 31
0.0
  0
LINE
  5
1BDF
330
1E
100
AcDbEntity
  8
IMAGE
100
AcDbLine
 10
3.038498557664237
 20
6.074524516655328
 30
0.0
 11
2.917740051214966
 21
6.074524516655328
 31
0.0
  0
LINE
  5
1BE0
330
1E
100
AcDbEntity
  8
IMAGE
100
AcDbLine
 10
3.038498557664237
 20
5.436345290488274
 30
0.0
 11
2.917740051214966
 21
5.436345290488274
 31
0.0
  0
LINE
  5
1BE1
330
1E
100
AcDbEntity
  8
IMAGE
100
AcDbLine
 10
2.788606114289262
 20
6.085715723826622
 30
0.0
 11
2.788606114289262
 21
5.42515408331698
 31
0.0
  0
LINE
  5
1BE2
330
1E
100
AcDbEntity
  8
IMAGE
100
AcDbLine
 10
2.799068614186392
 20
5.412213771058448
 30
0.0
 11
2.799068614186392
 21
5.414691583419847
 31
0.0
  0
LINE
  5
1BE3
330
1E
100
AcDbEntity
  8
IMAGE
100
AcDbLine
 10
2.902294023834432
 20
5.398449769193087
 30
0.0
 11
2.81283261605176
 21
5.398449769193087
 31
0.0
  0
LINE
  5
1BE4
330
1E
100
AcDbEntity
  8
IMAGE
100
AcDbLine
 10
2.917740051214966
 20
5.376404712785324
 30
0.0
 11
2.910537425279112
 21
5.376404712785324
 31
0.0
  0
LINE
  5
1BE5
330
1E
100
AcDbEntity
  8
IMAGE
100
AcDbLine
 10
2.917740051214966
 20
5.416540347307515
 30
0.0
 11
2.910537425279112
 21
5.416540347307515
 31
0.0
  0
ARC
  5
1BE6
330
1E
100
AcDbEntity
  8
IMAGE
100
AcDbCircle
 10
2.930605242540206
 20
5.396472530046418
 30
0.0
 40
0.0283801793378639
100
AcDbArc
 50
134.9999999999999
 51
224.9999999999998
  0
ARC
  5
1BE7
330
1E
100
AcDbEntity
  8
IMAGE
100
AcDbCircle
 10
2.81283261605176
 20
5.412213771058448
 30
0.0
 40
0.0137640018653639
100
AcDbArc
 50
180.0000000000003
 51
270.0
  0
ARC
  5
1BE8
330
1E
100
AcDbEntity
  8
IMAGE
100
AcDbCircle
 10
2.788606114289262
 20
5.414691583419847
 30
0.0
 40
0.0104624998971306
100
AcDbArc
 50
0.0
 51
90.0
  0
LINE
  5
1BE9
330
1E
100
AcDbEntity
  8
IMAGE
100
AcDbLine
 10
3.056283238011911
 20
5.370552249889493
 30
0.0
 11
3.056283238011911
 21
5.422392810203346
 31
0.0
  0
LINE
  5
1BEA
330
1E
100
AcDbEntity
  8
IMAGE
100
AcDbLine
 10
3.038498557664237
 20
5.370552249889493
 30
0.0
 11
3.056283238011911
 21
5.370552249889493
 31
0.0
  0
LINE
  5
1BEB
330
1E
100
AcDbEntity
  8
IMAGE
100
AcDbLine
 10
3.076885442065314
 20
5.387578344282127
 30
0.0
 11
3.076885442065314
 21
5.405366715810705
 31
0.0
  0
LINE
  5
1BEC
330
1E
100
AcDbEntity
  8
IMAGE
100
AcDbLine
 10
3.056283238011911
 20
5.405366715810705
 30
0.0
 11
3.076885442065314
 21
5.405366715810705
 31
0.0
  0
LINE
  5
1BED
330
1E
100
AcDbEntity
  8
IMAGE
100
AcDbLine
 10
3.056283238011911
 20
5.387578344282127
 30
0.0
 11
3.076885442065314
 21
5.387578344282127
 31
0.0
  0
LINE
  5
1BEE
330
1E
100
AcDbEntity
  8
IMAGE
100
AcDbLine
 10
3.056283238011911
 20
5.410743392770841
 30
0.0
 11
3.038498557664237
 21
5.410743392770841
 31
0.0
  0
LINE
  5
1BEF
330
1E
100
AcDbEntity
  8
IMAGE
100
AcDbLine
 10
3.056283238011911
 20
5.382201667321995
 30
0.0
 11
3.038498557664237
 21
5.382201667321995
 31
0.0
  0
LINE
  5
1BF0
330
1E
100
AcDbEntity
  8
IMAGE
100
AcDbLine
 10
3.038498557664237
 20
5.422392810203346
 30
0.0
 11
3.056283238011911
 21
5.422392810203346
 31
0.0
  0
LINE
  5
1BF1
330
1E
100
AcDbEntity
  8
IMAGE
100
AcDbLine
 10
3.038498557664237
 20
5.650392020768565
 30
0.0
 11
3.192722189458681
 21
5.650392020768565
 31
0.0
  0
LINE
  5
1BF2
330
1E
100
AcDbEntity
  8
IMAGE
100
AcDbLine
 10
3.038498557664237
 20
6.088476996940256
 30
0.0
 11
3.056283238011911
 21
6.088476996940256
 31
0.0
  0
LINE
  5
1BF3
330
1E
100
AcDbEntity
  8
IMAGE
100
AcDbLine
 10
3.038498557664237
 20
5.86047778637503
 30
0.0
 11
3.192722189458681
 21
5.86047778637503
 31
0.0
  0
LINE
  5
1BF4
330
1E
100
AcDbEntity
  8
IMAGE
100
AcDbLine
 10
3.038498557664237
 20
6.154270037539037
 30
0.0
 11
2.917740051214966
 21
6.154270037539044
 31
0.0
  0
TEXT
  5
1BF5
330
1E
100
AcDbEntity
  8
IMAGE
100
AcDbText
 10
2.724943886013714
 20
6.270023755285942
 30
0.0
 40
0.125
  1
BLACK
  7
ROMANS
 72
     2
 11
3.290420076489905
 21
6.270023755285942
 31
0.0
100
AcDbText
  0
LINE
  5
1BFA
330
1E
100
AcDbEntity
  8
IMAGE
100
AcDbLine
 10
2.902294023834432
 20
6.112420037950515
 30
0.0
 11
2.81283261605176
 21
6.112420037950515
 31
0.0
  0
LINE
  5
1BFB
330
1E
100
AcDbEntity
  8
IMAGE
100
AcDbLine
 10
2.917740051214966
 20
6.134465094358278
 30
0.0
 11
2.910537425279112
 21
6.134465094358278
 31
0.0
  0
LINE
  5
1BFC
330
1E
100
AcDbEntity
  8
IMAGE
100
AcDbLine
 10
2.917740051214966
 20
6.094329459836091
 30
0.0
 11
2.910537425279112
 21
6.094329459836091
 31
0.0
  0
ARC
  5
1BFD
330
1E
100
AcDbEntity
  8
IMAGE
100
AcDbCircle
 10
2.930605242540206
 20
6.114397277097184
 30
0.0
 40
0.0283801793378639
100
AcDbArc
 50
134.9999999999999
 51
224.9999999999998
  0
ARC
  5
1BFE
330
1E
100
AcDbEntity
  8
IMAGE
100
AcDbCircle
 10
2.81283261605176
 20
6.098656036085154
 30
0.0
 40
0.0137640018653639
100
AcDbArc
 50
90.0
 51
180.0
  0
LINE
  5
1BFF
330
1E
100
AcDbEntity
  8
IMAGE
100
AcDbLine
 10
2.799068614186392
 20
6.098656036085154
 30
0.0
 11
2.799068614186392
 21
6.096178223723752
 31
0.0
  0
LINE
  5
1C02
330
1E
100
AcDbEntity
  8
IMAGE
100
AcDbLine
 10
3.038498557664237
 20
6.140317557254109
 30
0.0
 11
3.056283238011911
 21
6.140317557254109
 31
0.0
  0
LINE
  5
1C03
330
1E
100
AcDbEntity
  8
IMAGE
100
AcDbLine
 10
3.056283238011911
 20
6.128668139821611
 30
0.0
 11
3.038498557664237
 21
6.128668139821611
 31
0.0
  0
LINE
  5
1C04
330
1E
100
AcDbEntity
  8
IMAGE
100
AcDbLine
 10
3.056283238011911
 20
6.100126414372761
 30
0.0
 11
3.038498557664237
 21
6.100126414372761
 31
0.0
  0
LINE
  5
1C05
330
1E
100
AcDbEntity
  8
IMAGE
100
AcDbLine
 10
3.056283238011911
 20
6.123291462861471
 30
0.0
 11
3.076885442065314
 21
6.123291462861471
 31
0.0
  0
LINE
  5
1C06
330
1E
100
AcDbEntity
  8
IMAGE
100
AcDbLine
 10
3.056283238011911
 20
6.105503091332897
 30
0.0
 11
3.076885442065314
 21
6.105503091332897
 31
0.0
  0
LINE
  5
1C07
330
1E
100
AcDbEntity
  8
IMAGE
100
AcDbLine
 10
3.076885442065314
 20
6.123291462861471
 30
0.0
 11
3.076885442065314
 21
6.105503091332897
 31
0.0
  0
LWPOLYLINE
  5
1C0A
330
1E
100
AcDbEntity
  8
IMAGE
100
AcDbPolyline
 90
        7
 70
     0
 43
0.01875
 10
4.001702534704921
 20
7.265919288164676
 10
4.001702534704921
 20
7.185273741921127
 10
4.001702534704921
 20
6.646083546292894
 42
-1.0
 10
4.001702534704921
 20
6.562670452315101
 10
4.001702534704921
 20
5.810169497762261
 10
3.311849625646747
 20
5.810169497762261
 10
3.192722189458681
 20
5.783991579487318
  0
LWPOLYLINE
  5
1C0D
330
1E
100
AcDbEntity
  8
IMAGE
100
AcDbPolyline
 90
        5
 70
     0
 43
0.01875
 10
3.192722189458681
 20
5.835038525277989
 10
3.311849625646747
 20
5.870378730412761
 10
3.780946428648409
 20
5.870378730412761
 10
3.780946428648409
 20
6.604376999303999
 10
3.780946428648409
 20
6.685022545547548
  0
SOLID
  5
1C0E
330
1E
100
AcDbEntity
  8
IMAGE
100
AcDbTrace
 10
3.555946428648407
 20
6.37567571163129
 30
0.0
 11
3.555946428648407
 21
6.30067571163129
 31
0.0
 12
3.780946428648409
 22
6.338175711631288
 32
0.0
 13
3.780946428648409
 23
6.338175711631288
 33
0.0
  0
SOLID
  5
1C0F
330
1E
100
AcDbEntity
  8
IMAGE
100
AcDbTrace
 10
4.226702534704923
 20
6.37567571163129
 30
0.0
 11
4.226702534704923
 21
6.30067571163129
 31
0.0
 12
4.001702534704921
 22
6.338175711631288
 32
0.0
 13
4.001702534704921
 23
6.338175711631288
 33
0.0
  0
LINE
  5
1C12
330
1E
100
AcDbEntity
  8
IMAGE
100
AcDbLine
 10
3.772630772153558
 20
6.86261354630408
 30
0.0
 11
3.766914173748933
 21
6.70426053913505
 31
0.0
  0
LINE
  5
1C13
330
1E
100
AcDbEntity
  8
IMAGE
100
AcDbLine
 10
3.75631370677058
 20
6.862622816601534
 30
0.0
 11
3.743845315152679
 21
6.704273645363171
 31
0.0
  0
LINE
  5
1C14
330
1E
100
AcDbEntity
  8
IMAGE
100
AcDbLine
 10
3.805780936452233
 20
6.862594712532414
 30
0.0
 11
3.818069392637024
 21
6.704231476060028
 31
0.0
  0
LINE
  5
1C15
330
1E
100
AcDbEntity
  8
IMAGE
100
AcDbLine
 10
3.789463871069255
 20
6.862603982829872
 30
0.0
 11
3.79500053404077
 21
6.704244582288145
 31
0.0
  0
LINE
  5
1C16
330
1E
100
AcDbEntity
  8
IMAGE
100
AcDbLine
 10
3.836266200967816
 20
6.70422113781464
 30
0.0
 11
3.819525966934936
 21
6.867686337132534
 31
0.0
  0
LINE
  5
1C17
330
1E
100
AcDbEntity
  8
IMAGE
100
AcDbLine
 10
3.725648506821887
 20
6.704283983608556
 30
0.0
 11
3.742574470620414
 21
6.867730055978023
 31
0.0
  0
LINE
  5
1C18
330
1E
100
AcDbEntity
  8
IMAGE
100
AcDbLine
 10
3.711220183069119
 20
6.704292180845614
 30
0.0
 11
3.71120925782267
 21
6.685062165681555
 31
0.0
  0
LINE
  5
1C19
330
1E
100
AcDbEntity
  8
IMAGE
100
AcDbLine
 10
3.850694524720584
 20
6.704212940577589
 30
0.0
 11
3.711220183069119
 21
6.704292180845614
 31
0.0
  0
LINE
  5
1C1A
330
1E
100
AcDbEntity
  8
IMAGE
100
AcDbLine
 10
3.850694524720584
 20
6.704212940577589
 30
0.0
 11
3.850683599474141
 21
6.684982925413537
 31
0.0
  0
LINE
  5
1C1B
330
1E
100
AcDbEntity
  8
IMAGE
100
AcDbLine
 10
3.850683599474141
 20
6.684982925413537
 30
0.0
 11
3.71120925782267
 21
6.685062165681555
 31
0.0
  0
ARC
  5
1C1C
330
1E
100
AcDbEntity
  8
IMAGE
100
AcDbCircle
 10
3.781046947161417
 20
6.861949678385995
 30
0.0
 40
0.0389042956022208
100
AcDbArc
 50
8.479507237339326
 51
171.4553892836564
  0
TEXT
  5
1C1D
330
1E
100
AcDbEntity
  8
IMAGE
100
AcDbText
 10
4.443615906306956
 20
6.270242537601253
 30
0.0
 40
0.125
  1
RED
  7
ROMANS
100
AcDbText
  0
LINE
  5
1C21
330
1E
100
AcDbEntity
  8
IMAGE
100
AcDbLine
 10
3.946404612878399
 20
7.285180726225688
 30
0.0
 11
3.963330576676927
 21
7.448626798595151
 31
0.0
  0
LINE
  5
1C22
330
1E
100
AcDbEntity
  8
IMAGE
100
AcDbLine
 10
4.057022307024336
 20
7.285117880431771
 30
0.0
 11
4.040282072991448
 21
7.448583079749662
 31
0.0
  0
LINE
  5
1C23
330
1E
100
AcDbEntity
  8
IMAGE
100
AcDbLine
 10
4.010219977125768
 20
7.443500725447004
 30
0.0
 11
4.01575664009729
 21
7.285141324905277
 31
0.0
  0
LINE
  5
1C24
330
1E
100
AcDbEntity
  8
IMAGE
100
AcDbLine
 10
4.026537042508746
 20
7.443491455149546
 30
0.0
 11
4.038825498693537
 21
7.28512821867716
 31
0.0
  0
LINE
  5
1C25
330
1E
100
AcDbEntity
  8
IMAGE
100
AcDbLine
 10
3.977069812827092
 20
7.443519559218666
 30
0.0
 11
3.964601421209192
 21
7.285170387980302
 31
0.0
  0
LINE
  5
1C26
330
1E
100
AcDbEntity
  8
IMAGE
100
AcDbLine
 10
3.99338687821007
 20
7.443510288921212
 30
0.0
 11
3.987670279805445
 21
7.285157281752182
 31
0.0
  0
LINE
  5
1C27
330
1E
100
AcDbEntity
  8
IMAGE
100
AcDbLine
 10
4.071439705530654
 20
7.265879668030668
 30
0.0
 11
3.931965363879182
 21
7.265958908298687
 31
0.0
  0
LINE
  5
1C28
330
1E
100
AcDbEntity
  8
IMAGE
100
AcDbLine
 10
4.071450630777096
 20
7.285109683194717
 30
0.0
 11
3.931976289125632
 21
7.285188923462746
 31
0.0
  0
LINE
  5
1C29
330
1E
100
AcDbEntity
  8
IMAGE
100
AcDbLine
 10
3.931976289125632
 20
7.285188923462746
 30
0.0
 11
3.931965363879182
 21
7.265958908298687
 31
0.0
  0
LINE
  5
1C2A
330
1E
100
AcDbEntity
  8
IMAGE
100
AcDbLine
 10
4.071450630777096
 20
7.285109683194717
 30
0.0
 11
4.071439705530654
 21
7.265879668030668
 31
0.0
  0
ARC
  5
1C2B
330
1E
100
AcDbEntity
  8
IMAGE
100
AcDbCircle
 10
4.00180305321793
 20
7.442846421003123
 30
0.0
 40
0.0389042956022208
100
AcDbArc
 50
8.479507237339326
 51
171.4553892836564
  0
LINE
  5
1C2E
330
1E
100
AcDbEntity
  8
IMAGE
100
AcDbLine
 10
3.192722189458681
 20
5.86047778637503
 30
0.0
 11
3.192722189458681
 21
5.650392020768565
 31
0.0
  0
LWPOLYLINE
  5
1C2F
330
1E
100
AcDbEntity
  8
IMAGE
100
AcDbPolyline
 90
        3
 70
     0
 43
0.0188
 10
6.82017629145055
 20
3.058042269859052
 10
7.266862634987848
 20
3.058042269859052
 10
7.266862634987852
 20
3.37058128548921
  0
LINE
  5
1D8D
330
1E
100
AcDbEntity
  8
TEXT_BUBBLES
100
AcDbLine
 10
1.794403408968985
 20
6.085715723826622
 30
0.0
 11
2.108647852718569
 21
6.34995958847484
 31
0.0
  0
SOLID
  5
1D8E
330
1E
100
AcDbEntity
  8
TEXT_BUBBLES
100
AcDbTrace
 10
1.90348286082397
 20
6.150219219552001
 30
0.0
 11
1.876666621569523
 21
6.182109663627922
 31
0.0
 12
1.794403408968985
 22
6.085715723826622
 32
0.0
 13
1.794403408968985
 23
6.085715723826622
 33
0.0
  0
INSERT
  5
1D8F
330
1E
100
AcDbEntity
  8
TEXT_BUBBLES
100
AcDbBlockReference
 66
     1
  2
bubble
 10
9.992635374781926
 20
7.180573997669554
 30
0.0
  0
ATTRIB
  5
1D90
330
1D8F
100
AcDbEntity
  8
TEXT_BUBBLES
100
AcDbText
 10
9.942040136686689
 20
7.118073997669554
 30
0.0
 40
0.125
  1
1
  7
ROMANS
 72
     4
 11
9.992635374781926
 21
7.180573997669554
 31
0.0
100
AcDbAttribute
  2
XX
 70
     0
  0
SEQEND
  5
1D91
330
1D8F
100
AcDbEntity
  8
TEXT_BUBBLES
  0
INSERT
  5
1D92
330
1E
100
AcDbEntity
  8
TEXT_BUBBLES
100
AcDbBlockReference
 66
     1
  2
bubble
 10
9.992635374781926
 20
6.53496551380832
 30
0.0
  0
ATTRIB
  5
1D93
330
1D92
100
AcDbEntity
  8
TEXT_BUBBLES
100
AcDbText
 10
9.933111565258116
 20
6.47246551380832
 30
0.0
 40
0.125
  1
2
  7
ROMANS
 72
     4
 11
9.992635374781926
 21
6.53496551380832
 31
0.0
100
AcDbAttribute
  2
XX
 70
     0
  0
SEQEND
  5
1D94
330
1D92
100
AcDbEntity
  8
TEXT_BUBBLES
  0
INSERT
  5
1D95
330
1E
100
AcDbEntity
  8
TEXT_BUBBLES
100
AcDbBlockReference
 66
     1
  2
bubble
 10
9.992635374781926
 20
5.701176132415344
 30
0.0
  0
ATTRIB
  5
1D96
330
1D95
100
AcDbEntity
  8
TEXT_BUBBLES
100
AcDbText
 10
9.933111565258116
 20
5.638676132415344
 30
0.0
 40
0.125
  1
3
  7
ROMANS
 72
     4
 11
9.992635374781926
 21
5.701176132415344
 31
0.0
100
AcDbAttribute
  2
XX
 70
     0
  0
SEQEND
  5
1D97
330
1D95
100
AcDbEntity
  8
TEXT_BUBBLES
  0
INSERT
  5
1DB9
330
1E
100
AcDbEntity
  8
TEXT_BUBBLES
100
AcDbBlockReference
 66
     1
  2
bubble
 10
2.25238783790364
 20
6.348586030583982
 30
0.0
  0
ATTRIB
  5
1DBA
330
1DB9
100
AcDbEntity
  8
TEXT_BUBBLES
100
AcDbText
 10
2.201792599808402
 20
6.286086030583982
 30
0.0
 40
0.125
  1
1
  7
ROMANS
 72
     4
 11
2.25238783790364
 21
6.348586030583982
 31
0.0
100
AcDbAttribute
  2
XX
 70
     0
  0
SEQEND
  5
1DBB
330
1DB9
100
AcDbEntity
  8
TEXT_BUBBLES
  0
INSERT
  5
1DBC
330
1E
100
AcDbEntity
  8
TEXT_BUBBLES
100
AcDbBlockReference
  2
wid
 10
17.90511222075315
 20
4.980857450281078
 30
0.0
  0
INSERT
  5
1DBD
330
1E
100
AcDbEntity
  8
TEXT_BUBBLES
100
AcDbBlockReference
  2
wid
 10
17.90511222075315
 20
4.980857450281078
 30
0.0
  0
LWPOLYLINE
  5
1DBE
330
1E
100
AcDbEntity
  8
IMAGE
100
AcDbPolyline
 90
        4
 70
     1
 43
0.0
 10
0.0
 20
0.0
 10
16.49
 20
0.0
 10
16.49
 20
10.44
 10
0.0
 20
10.44
  0
INSERT
  5
1DBF
330
1E
100
AcDbEntity
  8
TEXT_BUBBLES
100
AcDbBlockReference
 66
     1
  2
TITLBLK
 10
0.6064423705144826
 20
0.8842270964783676
 30
0.0
  0
ATTRIB
  5
1DC0
330
1DBF
100
AcDbEntity
  8
TITLE
100
AcDbText
 10
1.231442370514482
 20
0.9842270964783672
 30
0.0
 40
0.2
  1
MAXICOM VARIABLE  RAIN-SHUT DOWN
  7
L200
100
AcDbAttribute
  2
TITLE2
 70
     0
  0
ATTRIB
  5
1DC1
330
1DBF
100
AcDbEntity
  8
TITLE
100
AcDbText
 10
0.3733591508691892
 20
0.785523140134575
 30
0.0
 40
0.2
  1
405
  7
L200
 72
     4
 11
0.6064423705144826
 21
0.8842270964783676
 31
0.0
100
AcDbAttribute
  2
#
 70
     0
  0
ATTRIB
  5
1DC2
330
1DBF
100
AcDbEntity
  8
TITLE
 62
     7
100
AcDbText
 10
1.231442370514482
 20
0.7005637793954893
 30
0.0
 40
0.1
  1
N.T.S.
  7
L100
100
AcDbAttribute
  2
SCALE
 70
     0
  0
ATTRIB
  5
1DC3
330
1DBF
100
AcDbEntity
  8
TITLE
100
AcDbText
 10
2.713645751168311
 20
0.5927927664583184
 30
0.0
 40
0.2
  1
TWO-WIRE COMMUNICATION
  7
L200
100
AcDbAttribute
  2
TITLE3
 70
     0
  0
ATTRIB
  5
1DC4
330
1DBF
100
AcDbEntity
  8
TITLE
 62
     7
100
AcDbText
 10
0.2593821575269557
 20
0.0383065409500312
 30
0.0
 40
0.08
  1
405-RAIN SHUTDOWN-TW.DWG
  7
L80
 72
     2
 11
2.11462025276505
 21
0.0383065409500312
 31
0.0
100
AcDbAttribute
  2
DWG-NAME
 70
     0
  0
ATTRIB
  5
1DC5
330
1DBF
100
AcDbEntity
  8
TITLE
 62
     7
100
AcDbText
 10
7.731500544252091
 20
0.9696027915446396
 30
0.0
 40
0.08
  1
1-16-04
  7
L80
 72
     2
 11
8.261024353775901
 21
0.9696027915446396
 31
0.0
100
AcDbAttribute
  2
REVISED
 70
     0
  0
ATTRIB
  5
1DC6
330
1DBF
100
AcDbEntity
  8
TITLE
100
AcDbText
 10
1.231442370514482
 20
1.34371230274675
 30
0.0
 40
0.2
  1

  7
L200
100
AcDbAttribute
  2
TITLE1
 70
     0
  0
ATTRIB
  5
1DC7
330
1DBF
100
AcDbEntity
  8
TITLE
100
AcDbText
 10
2.713645751168311
 20
0.2692560808167741
 30
0.0
 40
0.2
  1

  7
L200
100
AcDbAttribute
  2
TITLE4
 70
     0
  0
SEQEND
  5
1DC8
330
1DBF
100
AcDbEntity
  8
TEXT_BUBBLES
  0
MTEXT
  5
1DDC
330
1E
100
AcDbEntity
  8
TEXT_BUBBLES
100
AcDbMText
 10
10.35156625983431
 20
7.241994385541742
 30
0.0
 40
0.12500000271
 41
4.916699999999999
 71
     1
 72
     5
  3
RAIN BIRD PULSE DECODER SET FOR A CHANNEL (1 THRU 28) DEC-PUL\P\PRAIN BIRD RAIN GAUGE. NO MORE THAN 10 PULSES PER MINUTE MAXIMUM. MOUNT ON POLE WITH NO OBSTRUCTIONS TO RAINFALL \P\PAPPROVED CABLE WITH APPROPRIATE SPLICES-LENGTH AS REQUIRED (MAXIMUM 2
  1
5')
  7
ROMANS
 73
     1
 44
1.0
  0
LWPOLYLINE
  5
1DDD
330
1E
100
AcDbEntity
  8
IMAGE
100
AcDbPolyline
 90
        3
 70
     0
 10
4.911047391963847
 20
5.820133297006359
 40
0.0188
 41
0.0188
 10
4.911047391963847
 20
5.739515705930644
 40
0.0188
 41
0.0188
 10
3.191613508644209
 20
5.739515705930644
 40
0.0
 41
0.0
  0
LWPOLYLINE
  5
1DDE
330
1E
100
AcDbEntity
  8
IMAGE
100
AcDbPolyline
 90
        3
 70
     0
 43
0.0188
 10
4.689789312584504
 20
5.591258123303846
 10
4.689789312584504
 20
5.671875714379561
 10
5.653833513427342
 20
5.671875714379561
  0
LINE
  5
1DEA
330
1E
100
AcDbEntity
  8
IMAGE
100
AcDbLine
 10
3.555946428648407
 20
6.338175711631288
 30
0.0
 11
3.33203633319378
 21
6.338175711631288
 31
0.0
  0
LINE
  5
1DEB
330
1E
100
AcDbEntity
  8
IMAGE
100
AcDbLine
 10
4.226702534704923
 20
6.338175711631288
 30
0.0
 11
4.433623440119649
 21
6.338175711631288
 31
0.0
  0
LINE
  5
1DF0
330
1E
100
AcDbEntity
  8
TEXT_BUBBLES
100
AcDbLine
 10
6.057301909847851
 20
5.739515705930644
 30
0.0
 11
6.371546353597434
 21
6.003759570578862
 31
0.0
  0
SOLID
  5
1DF1
330
1E
100
AcDbEntity
  8
TEXT_BUBBLES
100
AcDbTrace
 10
6.166381361702836
 20
5.804019201656023
 30
0.0
 11
6.139565122448388
 21
5.835909645731945
 31
0.0
 12
6.057301909847851
 22
5.739515705930644
 32
0.0
 13
6.057301909847851
 23
5.739515705930644
 33
0.0
  0
INSERT
  5
1DF2
330
1E
100
AcDbEntity
  8
TEXT_BUBBLES
100
AcDbBlockReference
 66
     1
  2
bubble
 10
6.515286338782505
 20
6.002386012688004
 30
0.0
  0
ATTRIB
  5
1DF3
330
1DF2
100
AcDbEntity
  8
TEXT_BUBBLES
100
AcDbText
 10
6.455762529258696
 20
5.939886012688004
 30
0.0
 40
0.125
  1
3
  7
ROMANS
 72
     4
 11
6.515286338782505
 21
6.002386012688004
 31
0.0
100
AcDbAttribute
  2
XX
 70
     0
  0
SEQEND
  5
1DF4
330
1DF2
100
AcDbEntity
  8
TEXT_BUBBLES
  0
LINE
  5
1DF5
330
1E
100
AcDbEntity
  8
TEXT_BUBBLES
100
AcDbLine
 10
7.704497129440206
 20
4.763792324340057
 30
0.0
 11
8.018741573189789
 21
5.028036188988275
 31
0.0
  0
SOLID
  5
1DF6
330
1E
100
AcDbEntity
  8
TEXT_BUBBLES
100
AcDbTrace
 10
7.81357658129519
 20
4.828295820065436
 30
0.0
 11
7.786760342040743
 21
4.860186264141358
 31
0.0
 12
7.704497129440206
 22
4.763792324340057
 32
0.0
 13
7.704497129440206
 23
4.763792324340057
 33
0.0
  0
INSERT
  5
1DF7
330
1E
100
AcDbEntity
  8
TEXT_BUBBLES
100
AcDbBlockReference
 66
     1
  2
bubble
 10
8.16248155837486
 20
5.026662631097417
 30
0.0
  0
ATTRIB
  5
1DF8
330
1DF7
100
AcDbEntity
  8
TEXT_BUBBLES
100
AcDbText
 10
8.10295774885105
 20
4.964162631097417
 30
0.0
 40
0.125
  1
2
  7
ROMANS
 72
     4
 11
8.16248155837486
 21
5.026662631097417
 31
0.0
100
AcDbAttribute
  2
XX
 70
     0
  0
SEQEND
  5
1DF9
330
1DF7
100
AcDbEntity
  8
TEXT_BUBBLES
  0
ARC
  5
1DFE
330
1E
100
AcDbEntity
  8
IMAGE
100
AcDbCircle
 10
4.950226582698817
 20
5.997084799965202
 30
0.0
 40
0.0389042956022208
100
AcDbArc
 50
8.479507237339326
 51
171.4553892836564
  0
LINE
  5
1DFF
330
1E
100
AcDbEntity
  8
IMAGE
100
AcDbLine
 10
5.019874160257984
 20
5.839348062156796
 30
0.0
 11
5.019863235011541
 21
5.820118046992748
 31
0.0
  0
LINE
  5
1E00
330
1E
100
AcDbEntity
  8
IMAGE
100
AcDbLine
 10
4.894828142359287
 20
5.839419105187767
 30
0.0
 11
4.911754106157815
 21
6.002865177557231
 31
0.0
  0
LINE
  5
1E01
330
1E
100
AcDbEntity
  8
IMAGE
100
AcDbLine
 10
5.005445836505224
 20
5.83935625939385
 30
0.0
 11
4.988705602472336
 21
6.002821458711741
 31
0.0
  0
LINE
  5
1E02
330
1E
100
AcDbEntity
  8
IMAGE
100
AcDbLine
 10
4.958643506606655
 20
5.997739104409083
 30
0.0
 11
4.964180169578177
 21
5.839379703867356
 31
0.0
  0
LINE
  5
1E03
330
1E
100
AcDbEntity
  8
IMAGE
100
AcDbLine
 10
4.974960571989633
 20
5.997729834111625
 30
0.0
 11
4.987249028174424
 21
5.839366597639239
 31
0.0
  0
LINE
  5
1E04
330
1E
100
AcDbEntity
  8
IMAGE
100
AcDbLine
 10
4.92549334230798
 20
5.997757938180745
 30
0.0
 11
4.913024950690079
 21
5.839408766942382
 31
0.0
  0
LINE
  5
1E05
330
1E
100
AcDbEntity
  8
IMAGE
100
AcDbLine
 10
4.941810407690958
 20
5.997748667883291
 30
0.0
 11
4.936093809286333
 21
5.839395660714261
 31
0.0
  0
LINE
  5
1E06
330
1E
100
AcDbEntity
  8
IMAGE
100
AcDbLine
 10
4.88039981860652
 20
5.839427302424825
 30
0.0
 11
4.88038889336007
 21
5.820197287260766
 31
0.0
  0
LINE
  5
1E07
330
1E
100
AcDbEntity
  8
IMAGE
100
AcDbLine
 10
5.019863235011541
 20
5.820118046992748
 30
0.0
 11
4.88038889336007
 21
5.820197287260766
 31
0.0
  0
LINE
  5
1E08
330
1E
100
AcDbEntity
  8
IMAGE
100
AcDbLine
 10
5.019874160257984
 20
5.839348062156796
 30
0.0
 11
4.88039981860652
 21
5.839427302424825
 31
0.0
  0
LINE
  5
1E09
330
1E
100
AcDbEntity
  8
IMAGE
100
AcDbLine
 10
4.704000937562948
 20
5.572016838361984
 30
0.0
 11
4.687074973764421
 21
5.408570765992517
 31
0.0
  0
LINE
  5
1E0A
330
1E
100
AcDbEntity
  8
IMAGE
100
AcDbLine
 10
4.578954919664251
 20
5.572087881392952
 30
0.0
 11
4.718429261315716
 21
5.572008641124926
 31
0.0
  0
LINE
  5
1E0B
330
1E
100
AcDbEntity
  8
IMAGE
100
AcDbLine
 10
4.578965844910694
 20
5.591317896557003
 30
0.0
 11
4.718440186562165
 21
5.591238656288985
 31
0.0
  0
LINE
  5
1E0C
330
1E
100
AcDbEntity
  8
IMAGE
100
AcDbLine
 10
4.718429261315716
 20
5.572008641124926
 30
0.0
 11
4.718440186562165
 21
5.591238656288985
 31
0.0
  0
LINE
  5
1E0D
330
1E
100
AcDbEntity
  8
IMAGE
100
AcDbLine
 10
4.593383243417019
 20
5.572079684155901
 30
0.0
 11
4.610123477449899
 21
5.408614484838007
 31
0.0
  0
LINE
  5
1E0E
330
1E
100
AcDbEntity
  8
IMAGE
100
AcDbLine
 10
4.657018672231277
 20
5.41368727566646
 30
0.0
 11
4.662735270635902
 21
5.57204028283549
 31
0.0
  0
LINE
  5
1E0F
330
1E
100
AcDbEntity
  8
IMAGE
100
AcDbLine
 10
4.673335737614255
 20
5.413678005369006
 30
0.0
 11
4.685804129232156
 21
5.572027176607369
 31
0.0
  0
LINE
  5
1E10
330
1E
100
AcDbEntity
  8
IMAGE
100
AcDbLine
 10
4.623868507932602
 20
5.413706109438126
 30
0.0
 11
4.611580051747811
 21
5.572069345910512
 31
0.0
  0
LINE
  5
1E11
330
1E
100
AcDbEntity
  8
IMAGE
100
AcDbLine
 10
4.64018557331558
 20
5.413696839140668
 30
0.0
 11
4.634648910344065
 21
5.572056239682395
 31
0.0
  0
LINE
  5
1E12
330
1E
100
AcDbEntity
  8
IMAGE
100
AcDbLine
 10
4.578954919664251
 20
5.572087881392952
 30
0.0
 11
4.578965844910694
 21
5.591317896557003
 31
0.0
  0
ARC
  5
1E13
330
1E
100
AcDbEntity
  8
IMAGE
100
AcDbCircle
 10
4.648602497223418
 20
5.414351143584545
 30
0.0
 40
0.0389042956022208
100
AcDbArc
 50
188.4795072373393
 51
351.4553892836565
  0
LINE
  5
1E19
330
1E
100
AcDbEntity
  8
IMAGE
100
AcDbLine
 10
6.920036397193025
 20
5.521846840970462
 30
0.0
 11
7.083482469562488
 21
5.504920877171934
 31
0.0
  0
LINE
  5
1E1A
330
1E
100
AcDbEntity
  8
IMAGE
100
AcDbLine
 10
6.919973551399109
 20
5.411229146824525
 30
0.0
 11
7.083438750716998
 21
5.427969380857413
 31
0.0
  0
LINE
  5
1E1B
330
1E
100
AcDbEntity
  8
IMAGE
100
AcDbLine
 10
7.07835639641434
 20
5.458031476723093
 30
0.0
 11
6.919996995872614
 21
5.452494813751571
 31
0.0
  0
LINE
  5
1E1C
330
1E
100
AcDbEntity
  8
IMAGE
100
AcDbLine
 10
7.078347126116883
 20
5.441714411340115
 30
0.0
 11
6.919983889644497
 21
5.429425955155324
 31
0.0
  0
LINE
  5
1E1D
330
1E
100
AcDbEntity
  8
IMAGE
100
AcDbLine
 10
7.078375230186003
 20
5.491181641021769
 30
0.0
 11
6.92002605894764
 21
5.50365003263967
 31
0.0
  0
LINE
  5
1E1E
330
1E
100
AcDbEntity
  8
IMAGE
100
AcDbLine
 10
7.078365959888548
 20
5.474864575638791
 30
0.0
 11
6.920012952719519
 21
5.480581174043416
 31
0.0
  0
LINE
  5
1E1F
330
1E
100
AcDbEntity
  8
IMAGE
100
AcDbLine
 10
6.615280840692811
 20
5.295390219878497
 30
0.0
 11
6.615201600424793
 21
5.155915878227026
 31
0.0
  0
LINE
  5
1E20
330
1E
100
AcDbEntity
  8
IMAGE
100
AcDbLine
 10
6.596050825528759
 20
5.29540114512494
 30
0.0
 11
6.595971585260734
 21
5.155926803473476
 31
0.0
  0
LINE
  5
1E21
330
1E
100
AcDbEntity
  8
IMAGE
100
AcDbLine
 10
6.595971585260734
 20
5.155926803473476
 30
0.0
 11
6.615201600424793
 21
5.155915878227026
 31
0.0
  0
LINE
  5
1E22
330
1E
100
AcDbEntity
  8
IMAGE
100
AcDbLine
 10
6.596050825528759
 20
5.29540114512494
 30
0.0
 11
6.615280840692811
 21
5.295390219878497
 31
0.0
  0
LINE
  5
1E23
330
1E
100
AcDbEntity
  8
IMAGE
100
AcDbLine
 10
6.437659783276476
 20
5.234170491473611
 30
0.0
 11
6.596019183818203
 21
5.239707154445127
 31
0.0
  0
LINE
  5
1E24
330
1E
100
AcDbEntity
  8
IMAGE
100
AcDbLine
 10
6.437669053573934
 20
5.250487556856589
 30
0.0
 11
6.59603229004632
 21
5.26277601304138
 31
0.0
  0
LINE
  5
1E25
330
1E
100
AcDbEntity
  8
IMAGE
100
AcDbLine
 10
6.437640949504814
 20
5.201020327174936
 30
0.0
 11
6.595990120743177
 21
5.188551935557035
 31
0.0
  0
LINE
  5
1E26
330
1E
100
AcDbEntity
  8
IMAGE
100
AcDbLine
 10
6.437650219802268
 20
5.217337392557914
 30
0.0
 11
6.596003226971298
 21
5.211620794153289
 31
0.0
  0
LINE
  5
1E27
330
1E
100
AcDbEntity
  8
IMAGE
100
AcDbLine
 10
6.596042628291709
 20
5.280972821372173
 30
0.0
 11
6.432577428973814
 21
5.264232587339292
 31
0.0
  0
LINE
  5
1E28
330
1E
100
AcDbEntity
  8
IMAGE
100
AcDbLine
 10
6.595979782497792
 20
5.170355127226243
 30
0.0
 11
6.432533710128325
 21
5.187281091024771
 31
0.0
  0
ARC
  5
1E29
330
1E
100
AcDbEntity
  8
IMAGE
100
AcDbCircle
 10
6.438314087720353
 20
5.225753567565773
 30
0.0
 40
0.0389042956022208
100
AcDbArc
 50
98.4795072373393
 51
261.4553892836565
  0
LINE
  5
1E2A
330
1E
100
AcDbEntity
  8
IMAGE
100
AcDbLine
 10
6.919965354162054
 20
5.396800823071765
 30
0.0
 11
6.900735338998006
 21
5.396811748318207
 31
0.0
  0
LINE
  5
1E2B
330
1E
100
AcDbEntity
  8
IMAGE
100
AcDbLine
 10
6.920044594430083
 20
5.536275164723229
 30
0.0
 11
6.900814579266024
 21
5.536286089969679
 31
0.0
  0
LINE
  5
1E2C
330
1E
100
AcDbEntity
  8
IMAGE
100
AcDbLine
 10
6.900735338998006
 20
5.396811748318207
 30
0.0
 11
6.900814579266024
 21
5.536286089969679
 31
0.0
  0
LINE
  5
1E2D
330
1E
100
AcDbEntity
  8
IMAGE
100
AcDbLine
 10
6.919965354162054
 20
5.396800823071765
 30
0.0
 11
6.920044594430083
 21
5.536275164723229
 31
0.0
  0
ARC
  5
1E2E
330
1E
100
AcDbEntity
  8
IMAGE
100
AcDbCircle
 10
7.077702091970461
 20
5.46644840063093
 30
0.0
 40
0.0389042956022208
100
AcDbArc
 50
278.4795072373392
 51
81.45538928365647
  0
LWPOLYLINE
  5
1E34
330
1E
100
AcDbEntity
  8
IMAGE
100
AcDbPolyline
 90
        3
 70
     0
 10
6.900750921810931
 20
5.428589619354015
 40
0.0188
 41
0.0188
 10
6.820133330735217
 20
5.428589619354015
 40
0.0188
 41
0.0188
 10
6.82017629145055
 20
3.058042269859052
 40
0.0
 41
0.0
  0
LWPOLYLINE
  5
1E35
330
1E
100
AcDbEntity
  8
IMAGE
100
AcDbPolyline
 90
        3
 70
     0
 10
6.615221684272601
 20
5.188475101069319
 40
0.0188
 41
0.0188
 10
6.695882236063649
 20
5.188475101069319
 40
0.0188
 41
0.0188
 10
6.695882236063649
 20
2.927553962227049
 40
0.0
 41
0.0
  0
INSERT
  5
1E68
330
1E
100
AcDbEntity
  8
0
100
AcDbBlockReference
  2
pagesetups
 10
0.0
 20
0.0
 30
0.0
  0
LWPOLYLINE
  5
1EC8
330
1E
100
AcDbEntity
  8
IMAGE
100
AcDbPolyline
 90
        3
 70
     0
 43
0.0
 10
5.672511593997146
 20
5.780222840087995
 42
-0.5291747719520333
 10
5.672511593997146
 20
5.700832997880615
 42
0.5001668032613813
 10
5.672511593997146
 20
5.621443155673235
  0
LWPOLYLINE
  5
1EC9
330
1E
100
AcDbEntity
  8
IMAGE
100
AcDbPolyline
 90
        3
 70
     0
 43
0.0
 10
5.737857930402178
 20
5.780222840087995
 42
-0.5291747719520333
 10
5.737857930402178
 20
5.700832997880615
 42
0.5001668032613813
 10
5.737857930402178
 20
5.621443155673235
  0
LWPOLYLINE
  5
1ECA
330
1E
100
AcDbEntity
  8
IMAGE
100
AcDbPolyline
 90
        3
 70
     0
 10
5.693506473022814
 20
5.739515705930644
 40
0.0188
 41
0.0188
 10
4.990214058630512
 20
5.739515705930644
 40
0.0188
 41
0.0188
 10
4.990214058630512
 20
5.820133297006359
 40
0.0
 41
0.0
  0
LWPOLYLINE
  5
1ECB
330
1E
100
AcDbEntity
  8
IMAGE
100
AcDbPolyline
 90
        2
 70
     0
 10
5.719179849832374
 20
5.671875714379561
 40
0.0188
 41
0.0188
 10
6.701613546509388
 20
5.671875714379561
 40
0.0
 41
0.0
  0
MTEXT
  5
1EF0
330
1E
100
AcDbEntity
  8
TEXT_BUBBLES
100
AcDbMText
 10
10.35156625983431
 20
5.04520572467871
 30
0.0
 40
0.1250000019
 41
5.206611549747307
 71
     1
 72
     5
  1
NOTE:\PUSE RAIN BIRD MSP-1 FOR PROPER SURGE PROTECTION.
  7
L100
 73
     2
 44
1.0
  0
LWPOLYLINE
  5
1F9E
330
1E
100
AcDbEntity
  8
IMAGE
100
AcDbPolyline
 90
        3
 70
     0
 43
0.01875
 10
3.83015157051545
 20
6.684994590379714
 10
3.83015157051545
 20
6.604376999303999
 10
6.217382502533556
 20
6.604376999303999
  0
TEXT
  5
1FA0
330
1E
100
AcDbEntity
  8
IMAGE
100
AcDbText
 10
1.939540575933495
 20
6.756477627241242
 30
0.0
 40
0.125
  1
(SEE NOTE)
  7
ROMANS
100
AcDbText
  0
LWPOLYLINE
  5
1FA1
330
1E
100
AcDbEntity
  8
IMAGE
100
AcDbPolyline
 90
        3
 70
     0
 43
0.01875
 10
3.73174128678136
 20
6.684994590379714
 10
3.73174128678136
 20
6.604376999303999
 10
1.586303429085379
 20
6.604376999303999
  0
LWPOLYLINE
  5
1FA2
330
1E
100
AcDbEntity
  8
IMAGE
100
AcDbPolyline
 90
        3
 70
     0
 43
0.01875
 10
3.952497392837873
 20
7.265891332996842
 10
3.952497392837873
 20
7.185273741921127
 10
1.586303429085379
 20
7.185273741921127
  0
TEXT
  5
1FA3
330
1E
100
AcDbEntity
  8
IMAGE
100
AcDbText
 10
1.939540575933495
 20
6.944738418130363
 30
0.0
 40
0.125
  1
2 WIRE PATH
  7
ROMANS
100
AcDbText
  0
LINE
  5
1FA4
330
1E
100
AcDbEntity
  8
IMAGE
100
AcDbLine
 10
1.722645248481367
 20
6.895385836228351
 30
0.0
 11
1.890710352896921
 21
6.895385836228351
 31
0.0
  0
SOLID
  5
1FA5
330
1E
100
AcDbEntity
  8
IMAGE
100
AcDbTrace
 10
1.760145248481361
 20
6.840390453831703
 30
0.0
 11
1.685145248481365
 21
6.840390453831703
 31
0.0
 12
1.722645248481367
 22
6.615390453831706
 32
0.0
 13
1.722645248481367
 23
6.615390453831706
 33
0.0
  0
INSERT
  5
1FA6
330
1E
100
AcDbEntity
  8
IMAGE
100
AcDbBlockReference
  2
IDAEP
 10
1.586303429085379
 20
6.604376999303999
 30
0.0
 41
0.1875
 42
0.1875
 43
0.1875
  0
LINE
  5
1FA7
330
1E
100
AcDbEntity
  8
IMAGE
100
AcDbLine
 10
1.722645248481367
 20
6.840390453831703
 30
0.0
 11
1.722645248481367
 21
6.895385836228351
 31
0.0
  0
INSERT
  5
1FA8
330
1E
100
AcDbEntity
  8
IMAGE
100
AcDbBlockReference
  2
IDAEP
 10
1.586303429085379
 20
7.185273741921127
 30
0.0
 41
0.1875
 42
0.1875
 43
0.1875
  0
SOLID
  5
1FA9
330
1E
100
AcDbEntity
  8
IMAGE
100
AcDbTrace
 10
3.372020909112986
 20
6.944159129370662
 30
0.0
 11
3.447020909112989
 21
6.944159129370662
 31
0.0
 12
3.409520909112988
 22
7.16915912937066
 32
0.0
 13
3.409520909112988
 23
7.16915912937066
 33
0.0
  0
LINE
  5
1FAA
330
1E
100
AcDbEntity
  8
IMAGE
100
AcDbLine
 10
3.409520909112988
 20
6.895385836228351
 30
0.0
 11
3.247680456524388
 21
6.895385836228351
 31
0.0
  0
LINE
  5
1FB5
330
1E
100
AcDbEntity
  8
IMAGE
100
AcDbLine
 10
3.409520909112988
 20
6.944159129370662
 30
0.0
 11
3.409520909112988
 21
6.895385836228351
 31
0.0
  0
LWPOLYLINE
  5
1FBD
330
1E
100
AcDbEntity
  8
IMAGE
100
AcDbPolyline
 90
        3
 70
     0
 43
0.01875
 10
4.05090767657197
 20
7.265891332996842
 10
4.05090767657197
 20
7.185273741921127
 10
6.217382502533556
 20
7.185273741921127
  0
TEXT
  5
1FC2
330
1E
100
AcDbEntity
  8
IMAGE
100
AcDbText
 10
5.20063643885739
 20
6.644883616243474
 30
0.0
 40
0.125
  1
BLACK
  7
ROMANS
100
AcDbText
  0
TEXT
  5
1FC3
330
1E
100
AcDbEntity
  8
IMAGE
100
AcDbText
 10
5.20063643885739
 20
7.229719355647317
 30
0.0
 40
0.125
  1
RED
  7
ROMANS
100
AcDbText
  0
INSERT
  5
1FC4
330
1E
100
AcDbEntity
  8
IMAGE
100
AcDbBlockReference
  2
IDAEP
 10
6.217382502533556
 20
6.604376999303999
 30
0.0
 41
0.1875
 42
0.1875
 43
0.1875
 50
180.0
  0
INSERT
  5
1FC5
330
1E
100
AcDbEntity
  8
IMAGE
100
AcDbBlockReference
  2
IDAEP
 10
6.217382502533556
 20
7.185273741921127
 30
0.0
 41
0.1875
 42
0.1875
 43
0.1875
 50
180.0
  0
ENDSEC
  0
SECTION
  2
OBJECTS
  0
DICTIONARY
  5
C
330
0
100
AcDbDictionary
281
     1
  3
ACAD_GROUP
350
D
  3
ACAD_LAYOUT
350
19
  3
ACAD_MLINESTYLE
350
16
  3
ACAD_PLOTSETTINGS
350
18
  3
ACAD_PLOTSTYLENAME
350
E
  3
AcDbVariableDictionary
350
1DED
  0
DICTIONARY
  5
2004
330
2
100
AcDbDictionary
280
     1
281
     1
  0
DICTIONARY
  5
D
102
{ACAD_REACTORS
330
C
102
}
330
C
100
AcDbDictionary
281
     1
  0
DICTIONARY
  5
19
102
{ACAD_REACTORS
330
C
102
}
330
C
100
AcDbDictionary
281
     1
  3
Layout1
350
1D
  3
Model
350
21
  0
DICTIONARY
  5
16
102
{ACAD_REACTORS
330
C
102
}
330
C
100
AcDbDictionary
281
     1
  3
Standard
350
17
  0
DICTIONARY
  5
18
102
{ACAD_REACTORS
330
C
102
}
330
C
100
AcDbDictionary
281
     1
  3
1055 B&W Full Shaded Draft
350
1E51
  3
1055 B&W Full Shaded Final
350
1E52
  3
1055 B&W Half Shaded Draft
350
1E53
  3
1055 B&W Half Shaded Final
350
1E54
  3
1055 Color Full Shaded Draft
350
1E55
  3
1055 Color Full Shaded Final
350
1E56
  3
1055 Color Half Shaded Draft
350
1E57
  3
1055 Color Half Shaded Final
350
1E58
  3
1055-B&W-Shaded-Draft
350
1E59
  3
1055-B&W-Shaded-Final
350
1E5A
  3
1055-Color-Shaded-Draft
350
1E5B
  3
1055-Color-Shaded-Final
350
1E5C
  3
1055cm B&W Shaded Draft
350
1D3A
  3
1055cm B&W Shaded Final
350
1D3B
  3
1055cm Color Draft
350
1D3C
  3
1055cm Color Shaded Draft
350
1D3D
  3
1055cm Color Shaded Final
350
1D3E
  3
1055cmB&WShadedDraft
350
1D3F
  3
1055cmColorShadedDraft
350
1D40
  3
8500 B&W Shaded 11x17
350
1D41
  3
8500 B&W Shaded 8.5x11
350
1D42
  3
8500 Color Shaded 11x17
350
1D43
  3
8500 Color Shaded 8.5x11
350
1D44
  3
8500-B&W-Shaded-11x17
350
1E5D
  3
8500-B&W-Shaded-8.5x11
350
1E5E
  3
8500-Color-Shaded-11x17
350
1E5F
  3
8500-Color-Shaded-8.5x11
350
1E60
  3
8500B&WShaded11x17
350
1D45
  3
8500ColorShaded11x17
350
1D46
  3
Laser Jet 5 Shaded 11x17
350
1D47
  3
Laser Jet 5 Shaded 8.5x11
350
1D48
  3
LaserJet5-Shaded-11x17
350
1E61
  3
LaserJet5-Shaded-8.5x11
350
1E62
  3
LaserJet5Shaded 11x17
350
1D49
  0
ACDBDICTIONARYWDFLT
  5
E
102
{ACAD_REACTORS
330
C
102
}
330
C
100
AcDbDictionary
281
     1
  3
Normal
350
F
100
AcDbDictionaryWithDefault
340
F
  0
DICTIONARY
  5
1DED
102
{ACAD_REACTORS
330
C
102
}
330
C
100
AcDbDictionary
281
     1
  3
DIMASSOC
350
1DEF
  3
HIDETEXT
350
1DEE
  3
SORTENTS
350
1FFB
  0
LAYOUT
  5
1D
102
{ACAD_REACTORS
330
19
102
}
330
19
100
AcDbPlotSettings
  1

  2
S:\AutoCAD 2002\Plotters\1055ColorDraftShaded.pc3
  4

  6

 40
0.0
 41
0.0
 42
0.0
 43
0.0
 44
0.0
 45
0.0
 46
0.0
 47
0.0
 48
0.0
 49
0.0
140
0.0
141
0.0
142
1.0
143
1.0
 70
   688
 72
     0
 73
     0
 74
     5
  7
Black&White.ctb
 75
    16
147
1.0
148
0.0
149
0.0
100
AcDbLayout
  1
Layout1
 70
     0
 71
     1
 10
0.0
 20
0.0
 11
12.0
 21
9.0
 12
0.0
 22
0.0
 32
0.0
 14
1.000000000000000E+20
 24
1.000000000000000E+20
 34
1.000000000000000E+20
 15
-1.000000000000000E+20
 25
-1.000000000000000E+20
 35
-1.000000000000000E+20
146
0.0
 13
0.0
 23
0.0
 33
0.0
 16
1.0
 26
0.0
 36
0.0
 17
0.0
 27
1.0
 37
0.0
 76
     0
330
1A
  0
LAYOUT
  5
21
102
{ACAD_REACTORS
330
19
102
}
330
19
100
AcDbPlotSettings
  1

  2
8500ColorShaded.pc3
  4
11x17
  6
ps1
 40
5.027083396911621
 41
5.027085304260253
 42
5.027099609375
 43
5.027069091796875
 44
279.3999938964843
 45
431.7999877929687
 46
2.032
 47
1.523999999999999
 48
180360.0524337165
 49
80033.77936194791
140
180369.1574725906
141
80037.61796031875
142
1.0
143
1.0
 70
 11956
 72
     0
 73
     1
 74
     3
  7
8500ColorShaded.ctb
 75
    16
147
1.0
148
0.0000000000000095
149
0.0
100
AcDbLayout
  1
Model
 70
     1
 71
     0
 10
0.0
 20
0.0
 11
12.0
 21
9.0
 12
0.0
 22
0.0
 32
0.0
 14
0.0
 24
0.0
 34
0.0
 15
0.0
 25
0.0
 35
0.0
146
0.0
 13
0.0
 23
0.0
 33
0.0
 16
1.0
 26
0.0
 36
0.0
 17
0.0
 27
1.0
 37
0.0
 76
     0
330
1E
  0
MLINESTYLE
  5
17
102
{ACAD_REACTORS
330
16
102
}
330
16
100
AcDbMlineStyle
  2
STANDARD
 70
     0
  3

 62
   256
 51
90.0
 52
90.0
 71
     2
 49
0.5
 62
   256
  6
BYLAYER
 49
-0.5
 62
   256
  6
BYLAYER
  0
PLOTSETTINGS
  5
1E51
102
{ACAD_REACTORS
330
18
102
}
330
18
100
AcDbPlotSettings
  1
1055 B&W Full Shaded Draft
  2
1055B&WDraftShaded.pc3
  4
User607
  6
PS1
 40
0.0
 41
0.0
 42
0.0
 43
0.0
 44
901.7000122070312
 45
1155.700073242187
 46
0.0
 47
0.0
 48
180377.877572
 49
80019.819395
140
180380.8390819999
141
80022.26069
142
1.0
143
1.0
 70
   688
 72
     0
 73
     2
 74
     5
  7
1055B&WFullDraftShaded.ctb
 75
    16
147
1.0
148
-4581114.014650871
149
-2032337.537636779
  0
PLOTSETTINGS
  5
1E52
102
{ACAD_REACTORS
330
18
102
}
330
18
100
AcDbPlotSettings
  1
1055 B&W Full Shaded Final
  2
1055B&WFinalShaded.pc3
  4
User258
  6
PS1
 40
4.995333194732666
 41
8.297393798828125
 42
4.99530029296875
 43
8.29736328125
 44
761.9576416015624
 45
1066.757690429687
 46
0.0
 47
0.0
 48
180377.877572
 49
80019.819395
140
180380.8390819999
141
80022.26069
142
1.0
143
1.0
 70
   688
 72
     0
 73
     3
 74
     5
  7
1055B&WFullFinalShaded.ctb
 75
    16
147
1.0
148
-4581114.014650871
149
-2032337.537636779
  0
PLOTSETTINGS
  5
1E53
102
{ACAD_REACTORS
330
18
102
}
330
18
100
AcDbPlotSettings
  1
1055 B&W Half Shaded Draft
  2
1055B&WDraftShaded.pc3
  4
User607
  6
PS1
 40
0.0
 41
0.0
 42
0.0
 43
0.0
 44
901.7000122070312
 45
1155.700073242187
 46
0.0
 47
0.0
 48
180377.877572
 49
80019.819395
140
180380.8390819999
141
80022.26069
142
1.0
143
2.0
 70
   688
 72
     0
 73
     2
 74
     5
  7
1055B&WHalfDraftShaded.ctb
 75
    17
147
0.5
148
-4581114.014650871
149
-2032337.537636779
  0
PLOTSETTINGS
  5
1E54
102
{ACAD_REACTORS
330
18
102
}
330
18
100
AcDbPlotSettings
  1
1055 B&W Half Shaded Final
  2
1055B&WFinalShaded.pc3
  4
User258
  6
PS1
 40
4.995333194732666
 41
8.297393798828125
 42
4.99530029296875
 43
8.29736328125
 44
761.9576416015624
 45
1066.757690429687
 46
0.0
 47
0.0
 48
180377.877572
 49
80019.819395
140
180380.8390819999
141
80022.26069
142
1.0
143
2.0
 70
   688
 72
     0
 73
     3
 74
     5
  7
1055B&WHalfFinalShaded.ctb
 75
    17
147
0.5
148
-4581114.014650871
149
-2032337.537636779
  0
PLOTSETTINGS
  5
1E55
102
{ACAD_REACTORS
330
18
102
}
330
18
100
AcDbPlotSettings
  1
1055 Color Full Shaded Draft
  2
1055ColorDraftShaded.pc3
  4
User607
  6
PS1
 40
0.0
 41
0.0
 42
0.0
 43
0.0
 44
901.7000122070312
 45
1155.700073242187
 46
0.0
 47
0.0
 48
180377.877572
 49
80019.819395
140
180380.8390819999
141
80022.26069
142
1.0
143
1.0
 70
   688
 72
     0
 73
     2
 74
     5
  7
1055ColorFullDraftShaded.ctb
 75
    16
147
1.0
148
-4581114.014650871
149
-2032337.537636779
  0
PLOTSETTINGS
  5
1E56
102
{ACAD_REACTORS
330
18
102
}
330
18
100
AcDbPlotSettings
  1
1055 Color Full Shaded Final
  2
1055ColorFinalShaded.pc3
  4
User607
  6
PS1
 40
0.0
 41
0.0
 42
0.0
 43
0.0
 44
901.7000122070312
 45
1155.700073242187
 46
0.0
 47
0.0
 48
180377.877572
 49
80019.819395
140
180380.8390819999
141
80022.26069
142
1.0
143
1.0
 70
   688
 72
     0
 73
     2
 74
     5
  7
1055ColorFullFinalShaded.ctb
 75
    16
147
1.0
148
-4581114.014650871
149
-2032337.537636779
  0
PLOTSETTINGS
  5
1E57
102
{ACAD_REACTORS
330
18
102
}
330
18
100
AcDbPlotSettings
  1
1055 Color Half Shaded Draft
  2
1055ColorDraftShaded.pc3
  4
User607
  6
PS1
 40
0.0
 41
0.0
 42
0.0
 43
0.0
 44
901.7000122070312
 45
1155.700073242187
 46
0.0
 47
0.0
 48
180377.877572
 49
80019.819395
140
180380.8390819999
141
80022.26069
142
1.0
143
1.0
 70
   688
 72
     0
 73
     2
 74
     5
  7
1055ColorHalfDraftShaded.ctb
 75
    16
147
1.0
148
-4581114.014650871
149
-2032337.537636779
  0
PLOTSETTINGS
  5
1E58
102
{ACAD_REACTORS
330
18
102
}
330
18
100
AcDbPlotSettings
  1
1055 Color Half Shaded Final
  2
1055ColorFinalShaded.pc3
  4
User607
  6
PS1
 40
0.0
 41
0.0
 42
0.0
 43
0.0
 44
901.7000122070312
 45
1155.700073242187
 46
0.0
 47
0.0
 48
180377.877572
 49
80019.819395
140
180380.8390819999
141
80022.26069
142
1.0
143
1.0
 70
   688
 72
     0
 73
     2
 74
     5
  7
1055ColorHalfFinalShaded.ctb
 75
    16
147
1.0
148
-4581114.014650871
149
-2032337.537636779
  0
PLOTSETTINGS
  5
1E59
102
{ACAD_REACTORS
330
18
102
}
330
18
100
AcDbPlotSettings
  1
1055-B&W-Shaded-Draft
  2
1055B&WDraftShaded.pc3
  4
User257
  6

 40
4.995333194732666
 41
8.297393798828125
 42
4.99530029296875
 43
8.29736328125
 44
901.6152954101562
 45
1155.615356445312
 46
0.0
 47
0.0
 48
180360.0524337165
 49
80033.77936194791
140
180369.1574725906
141
80037.61796031875
142
1.0
143
1.0
 70
  1712
 72
     0
 73
     1
 74
     4
  7
1055B&WFullDraftShaded.ctb
 75
    16
147
1.0
148
-4581145.331816398
149
-2032857.995793476
  0
PLOTSETTINGS
  5
1E5A
102
{ACAD_REACTORS
330
18
102
}
330
18
100
AcDbPlotSettings
  1
1055-B&W-Shaded-Final
  2
1055B&WFinalShaded.pc3
  4
User607
  6

 40
0.0
 41
0.0
 42
0.0
 43
0.0
 44
901.7000122070312
 45
1155.700073242187
 46
0.0
 47
0.0
 48
180360.0524337165
 49
80033.77936194791
140
180369.1574725906
141
80037.61796031875
142
1.0
143
1.0
 70
  1712
 72
     0
 73
     1
 74
     4
  7
1055B&WFullFinalShaded.ctb
 75
    16
147
1.0
148
-4581145.331816398
149
-2032857.995793476
  0
PLOTSETTINGS
  5
1E5B
102
{ACAD_REACTORS
330
18
102
}
330
18
100
AcDbPlotSettings
  1
1055-Color-Shaded-Draft
  2
1055ColorDraftShaded.pc3
  4
User257
  6

 40
4.995333194732666
 41
8.297393798828125
 42
4.99530029296875
 43
8.29736328125
 44
901.6152954101562
 45
1155.615356445312
 46
0.0
 47
0.0
 48
180360.0524337165
 49
80033.77936194791
140
180369.1574725906
141
80037.61796031875
142
1.0
143
1.0
 70
  1712
 72
     0
 73
     1
 74
     4
  7
1055ColorFullDraftShaded.ctb
 75
    16
147
1.0
148
-4581145.331816398
149
-2032857.995793476
  0
PLOTSETTINGS
  5
1E5C
102
{ACAD_REACTORS
330
18
102
}
330
18
100
AcDbPlotSettings
  1
1055-Color-Shaded-Final
  2
1055ColorDraftShaded.pc3
  4
User257
  6

 40
4.995333194732666
 41
8.297393798828125
 42
4.99530029296875
 43
8.29736328125
 44
901.6152954101562
 45
1155.615356445312
 46
0.0
 47
0.0
 48
180360.0524337165
 49
80033.77936194791
140
180369.1574725906
141
80037.61796031875
142
1.0
143
1.0
 70
  1712
 72
     0
 73
     1
 74
     4
  7
1055ColorFullFinalShaded.ctb
 75
    16
147
1.0
148
-4581145.331816398
149
-2032857.995793476
  0
PLOTSETTINGS
  5
1D3A
102
{ACAD_REACTORS
330
18
102
}
330
18
100
AcDbPlotSettings
  1
1055cm B&W Shaded Draft
  2
1055B&WDraftShaded.pc3
  4
User257
  6
PS1
 40
4.995333194732666
 41
8.297393798828125
 42
4.99530029296875
 43
8.29736328125
 44
901.6152954101562
 45
1155.615356445312
 46
0.0
 47
0.0
 48
180377.877572
 49
80019.819395
140
180380.8390819999
141
80022.26069
142
1.0
143
1.0
 70
   688
 72
     0
 73
     2
 74
     3
  7
1055B&WDraftShaded.ctb
 75
    16
147
1.0
148
-4581153.377679998
149
-2032365.335819999
  0
PLOTSETTINGS
  5
1D3B
102
{ACAD_REACTORS
330
18
102
}
330
18
100
AcDbPlotSettings
  1
1055cm B&W Shaded Final
  2
1055B&WFinalShaded.pc3
  4
User257
  6
PS1
 40
4.995333194732666
 41
8.297271728515625
 42
4.99530029296875
 43
8.29736328125
 44
901.6576538085937
 45
1155.657592773437
 46
0.0
 47
0.0
 48
180377.877572
 49
80019.819395
140
180380.8390819999
141
80022.26069
142
1.0
143
1.0
 70
   672
 72
     0
 73
     2
 74
     3
  7
1055B&WFinalShaded.ctb
 75
     0
147
1.0
148
-4581153.377679998
149
-2032365.335819999
  0
PLOTSETTINGS
  5
1D3C
102
{ACAD_REACTORS
330
18
102
}
330
18
100
AcDbPlotSettings
  1
1055cm Color Draft
  2
1055ColorDraftShaded.pc3
  4
User257
  6
PS1
 40
4.995333194732666
 41
8.297393798828125
 42
4.99530029296875
 43
8.29736328125
 44
901.6152954101562
 45
1155.615356445312
 46
0.0
 47
0.0
 48
180377.877572
 49
80019.819395
140
180380.8390819999
141
80022.26069
142
1.0
143
1.0
 70
   688
 72
     0
 73
     2
 74
     3
  7
Color.CTB
 75
    16
147
1.0
148
-4581153.377679998
149
-2032365.335819999
  0
PLOTSETTINGS
  5
1D3D
102
{ACAD_REACTORS
330
18
102
}
330
18
100
AcDbPlotSettings
  1
1055cm Color Shaded Draft
  2
1055ColorDraftShaded.pc3
  4
User257
  6
PS1
 40
4.995333194732666
 41
8.297393798828125
 42
4.99530029296875
 43
8.29736328125
 44
901.6152954101562
 45
1155.615356445312
 46
0.0
 47
0.0
 48
180377.877572
 49
80019.819395
140
180380.8390819999
141
80022.26069
142
1.0
143
1.0
 70
   688
 72
     0
 73
     2
 74
     3
  7
1055ColorDraftShaded.CTB
 75
    16
147
1.0
148
-4581153.377679998
149
-2032365.335819999
  0
PLOTSETTINGS
  5
1D3E
102
{ACAD_REACTORS
330
18
102
}
330
18
100
AcDbPlotSettings
  1
1055cm Color Shaded Final
  2
1055ColorFinalShaded.pc3
  4
User257
  6
PS1
 40
4.995333194732666
 41
8.297271728515625
 42
4.99530029296875
 43
8.29736328125
 44
901.6576538085937
 45
1155.657592773437
 46
0.0
 47
0.0
 48
180377.877572
 49
80019.819395
140
180380.8390819999
141
80022.26069
142
1.0
143
1.0
 70
   688
 72
     0
 73
     2
 74
     3
  7
1055ColorFinalShaded.ctb
 75
    16
147
1.0
148
-4581153.377679998
149
-2032365.335819999
  0
PLOTSETTINGS
  5
1D3F
102
{ACAD_REACTORS
330
18
102
}
330
18
100
AcDbPlotSettings
  1
1055cmB&WShadedDraft
  2
1055B&WDraftShaded.pc3
  4
User257
  6

 40
4.995333194732666
 41
8.297393798828125
 42
4.99530029296875
 43
8.29736328125
 44
901.6152954101562
 45
1155.615356445312
 46
0.0
 47
0.0
 48
180360.0524337165
 49
80033.77936194791
140
180369.1574725906
141
80037.61796031875
142
1.0
143
30.0
 70
  1712
 72
     0
 73
     1
 74
     0
  7
1055B&WDraftShaded.ctb
 75
    23
147
0.0333333333333333
148
-4580581.320935756
149
-2032339.826086972
  0
PLOTSETTINGS
  5
1D40
102
{ACAD_REACTORS
330
18
102
}
330
18
100
AcDbPlotSettings
  1
1055cmColorShadedDraft
  2
1055ColorDraftShaded.pc3
  4
User257
  6

 40
4.995333194732666
 41
8.297393798828125
 42
4.99530029296875
 43
8.29736328125
 44
901.6152954101562
 45
1155.615356445312
 46
0.0
 47
0.0
 48
180360.0524337165
 49
80033.77936194791
140
180369.1574725906
141
80037.61796031875
142
1.0
143
30.0
 70
  1712
 72
     0
 73
     1
 74
     0
  7
1055ColorDraftShaded.ctb
 75
    23
147
0.0333333333333333
148
-4580581.320935756
149
-2032339.826086972
  0
PLOTSETTINGS
  5
1D41
102
{ACAD_REACTORS
330
18
102
}
330
18
100
AcDbPlotSettings
  1
8500 B&W Shaded 11x17
  2
8500B&WShaded.pc3
  4
11x17
  6
PS1
 40
5.027083396911621
 41
5.027085304260253
 42
5.027099609375
 43
5.027069091796875
 44
279.3999938964843
 45
431.7999877929687
 46
0.0
 47
0.762
 48
180377.877572
 49
80019.819395
140
180380.8390819999
141
80022.26069
142
1.0
143
1.980353799589804
 70
   692
 72
     0
 73
     1
 74
     3
  7
8500B&WShaded.ctb
 75
     0
147
0.5049602753846977
148
-4581153.377679998
149
-2032365.335819999
  0
PLOTSETTINGS
  5
1D42
102
{ACAD_REACTORS
330
18
102
}
330
18
100
AcDbPlotSettings
  1
8500 B&W Shaded 8.5x11
  2
8500B&WShaded.pc3
  4
Letter
  6
PS1
 40
5.027083396911621
 41
5.027085304260253
 42
5.027084350585937
 43
5.027069091796875
 44
215.8999938964843
 45
279.3999938964843
 46
16.50999999999999
 47
0.0
 48
180377.877572
 49
80019.819395
140
180380.8390819999
141
80022.26069
142
1.0
143
3.089030970531291
 70
   692
 72
     0
 73
     1
 74
     3
  7
8500B&WShaded.ctb
 75
     0
147
0.3237261165523398
148
-4581153.377679998
149
-2032365.335819999
  0
PLOTSETTINGS
  5
1D43
102
{ACAD_REACTORS
330
18
102
}
330
18
100
AcDbPlotSettings
  1
8500 Color Shaded 11x17
  2
8500ColorShaded.pc3
  4
11x17
  6
PS1
 40
5.027083396911621
 41
5.027085304260253
 42
5.027099609375
 43
5.027069091796875
 44
279.3999938964843
 45
431.7999877929687
 46
0.0
 47
0.762
 48
180377.877572
 49
80019.819395
140
180380.8390819999
141
80022.26069
142
1.0
143
1.980353799589804
 70
   692
 72
     0
 73
     1
 74
     3
  7
8500ColorShaded.ctb
 75
     0
147
0.5049602753846977
148
-4581153.377679998
149
-2032365.335819999
  0
PLOTSETTINGS
  5
1D44
102
{ACAD_REACTORS
330
18
102
}
330
18
100
AcDbPlotSettings
  1
8500 Color Shaded 8.5x11
  2
8500ColorShaded.pc3
  4
Letter
  6
PS1
 40
5.027083396911621
 41
5.027085304260253
 42
5.027084350585937
 43
5.027069091796875
 44
215.8999938964843
 45
279.3999938964843
 46
16.50999999999999
 47
0.0
 48
180377.877572
 49
80019.819395
140
180380.8390819999
141
80022.26069
142
1.0
143
3.089030970531291
 70
   692
 72
     0
 73
     1
 74
     3
  7
8500ColorShaded.ctb
 75
     0
147
0.3237261165523398
148
-4581153.377679998
149
-2032365.335819999
  0
PLOTSETTINGS
  5
1E5D
102
{ACAD_REACTORS
330
18
102
}
330
18
100
AcDbPlotSettings
  1
8500-B&W-Shaded-11x17
  2
8500B&WShaded.pc3
  4
11x17
  6

 40
5.027083396911621
 41
5.027085304260253
 42
5.027099609375
 43
5.027069091796875
 44
279.3999938964843
 45
431.7999877929687
 46
0.0
 47
0.0
 48
180360.0524337165
 49
80033.77936194791
140
180369.1574725906
141
80037.61796031875
142
1.0
143
4.787622939151733
 70
  1712
 72
     0
 73
     1
 74
     0
  7
8500B&WShaded.ctb
 75
     0
147
0.2088719209322652
148
-4580581.320935756
149
-2032339.826086972
  0
PLOTSETTINGS
  5
1E5E
102
{ACAD_REACTORS
330
18
102
}
330
18
100
AcDbPlotSettings
  1
8500-B&W-Shaded-8.5x11
  2
8500B&WShaded.pc3
  4
Letter
  6

 40
5.027083396911621
 41
5.027085304260253
 42
5.027084350585937
 43
5.027069091796875
 44
215.8999938964843
 45
279.3999938964843
 46
0.0
 47
0.0
 48
180360.0524337165
 49
80033.77936194791
140
180369.1574725906
141
80037.61796031875
142
1.0
143
1.400341199009821
 70
  1712
 72
     0
 73
     1
 74
     0
  7
8500B&WShaded.ctb
 75
     0
147
0.7141116755738516
148
0.0
149
0.0
  0
PLOTSETTINGS
  5
1E5F
102
{ACAD_REACTORS
330
18
102
}
330
18
100
AcDbPlotSettings
  1
8500-Color-Shaded-11x17
  2
8500ColorShaded.pc3
  4
11x17
  6

 40
5.027083396911621
 41
5.027085304260253
 42
5.027099609375
 43
5.027069091796875
 44
279.3999938964843
 45
431.7999877929687
 46
0.0
 47
0.0
 48
180360.0524337165
 49
80033.77936194791
140
180369.1574725906
141
80037.61796031875
142
1.0
143
4.787622939151733
 70
  1712
 72
     0
 73
     1
 74
     0
  7
8500ColorShaded.ctb
 75
     0
147
0.2088719209322652
148
-4580581.320935756
149
-2032339.826086972
  0
PLOTSETTINGS
  5
1E60
102
{ACAD_REACTORS
330
18
102
}
330
18
100
AcDbPlotSettings
  1
8500-Color-Shaded-8.5x11
  2
8500ColorShaded.pc3
  4
Letter
  6

 40
5.027083396911621
 41
5.027085304260253
 42
5.027084350585937
 43
5.027069091796875
 44
215.8999938964843
 45
279.3999938964843
 46
0.0
 47
0.0
 48
180360.0524337165
 49
80033.77936194791
140
180369.1574725906
141
80037.61796031875
142
1.0
143
1.400341199009821
 70
  1712
 72
     0
 73
     1
 74
     0
  7
8500ColorShaded.ctb
 75
     0
147
0.7141116755738516
148
0.0
149
0.0
  0
PLOTSETTINGS
  5
1D45
102
{ACAD_REACTORS
330
18
102
}
330
18
100
AcDbPlotSettings
  1
8500B&WShaded11x17
  2
8500B&WShaded.pc3
  4
11x17
  6

 40
5.027083396911621
 41
5.027085304260253
 42
5.027099609375
 43
5.027069091796875
 44
279.3999938964843
 45
431.7999877929687
 46
0.0
 47
0.0
 48
180360.0524337165
 49
80033.77936194791
140
180369.1574725906
141
80037.61796031875
142
1.0
143
4.787622939151733
 70
  1712
 72
     0
 73
     1
 74
     0
  7
8500B&WShaded.ctb
 75
     0
147
0.2088719209322652
148
-4580581.320935756
149
-2032339.826086972
  0
PLOTSETTINGS
  5
1D46
102
{ACAD_REACTORS
330
18
102
}
330
18
100
AcDbPlotSettings
  1
8500ColorShaded11x17
  2
8500ColorShaded.pc3
  4
11x17
  6

 40
5.027083396911621
 41
5.027085304260253
 42
5.027099609375
 43
5.027069091796875
 44
279.3999938964843
 45
431.7999877929687
 46
0.0
 47
0.0
 48
180360.0524337165
 49
80033.77936194791
140
180369.1574725906
141
80037.61796031875
142
1.0
143
4.787622939151733
 70
  1712
 72
     0
 73
     1
 74
     0
  7
8500ColorShaded.ctb
 75
     0
147
0.2088719209322652
148
-4580581.320935756
149
-2032339.826086972
  0
PLOTSETTINGS
  5
1D47
102
{ACAD_REACTORS
330
18
102
}
330
18
100
AcDbPlotSettings
  1
Laser Jet 5 Shaded 11x17
  2
LaserJet5Shaded.pc3
  4
11x17
  6
PS1
 40
7.143749713897705
 41
5.873736858367919
 42
7.143768310546875
 43
7.14373779296875
 44
279.3999938964843
 45
431.7999877929687
 46
0.0
 47
2.54
 48
180377.877572
 49
80019.819395
140
180380.8390819999
141
80022.26069
142
1.0
143
2.011976231014692
 70
   692
 72
     0
 73
     1
 74
     3
  7
LaserJet5Shaded.ctb
 75
     0
147
0.4970237642895384
148
-4581153.377679998
149
-2032365.335819999
  0
PLOTSETTINGS
  5
1D48
102
{ACAD_REACTORS
330
18
102
}
330
18
100
AcDbPlotSettings
  1
Laser Jet 5 Shaded 8.5x11
  2
LaserJet5Shaded.pc3
  4
Letter
  6
PS1
 40
7.143749713897705
 41
6.974400997161865
 42
7.14373779296875
 43
6.297088623046875
 44
215.8999938964843
 45
279.3999938964843
 46
15.49399999999999
 47
0.0
 48
180377.877572
 49
80019.819395
140
180380.8390819999
141
80022.26069
142
1.0
143
3.126375516456624
 70
   692
 72
     0
 73
     1
 74
     3
  7
LaserJet5Shaded.ctb
 75
     0
147
0.3198592090861117
148
-4581153.377679998
149
-2032365.335819999
  0
PLOTSETTINGS
  5
1E61
102
{ACAD_REACTORS
330
18
102
}
330
18
100
AcDbPlotSettings
  1
LaserJet5-Shaded-11x17
  2
LaserJet5Shaded.pc3
  4
11x17
  6

 40
7.143749713897705
 41
5.873736858367919
 42
7.143768310546875
 43
7.14373779296875
 44
279.3999938964843
 45
431.7999877929687
 46
0.0
 47
0.0
 48
180360.0524337165
 49
80033.77936194791
140
180369.1574725906
141
80037.61796031875
142
1.0
143
4.864072045424008
 70
  1712
 72
     0
 73
     1
 74
     0
  7
LaserJet5Shaded.ctb
 75
     0
147
0.205589060084086
148
-4580581.320935756
149
-2032339.826086972
  0
PLOTSETTINGS
  5
1E62
102
{ACAD_REACTORS
330
18
102
}
330
18
100
AcDbPlotSettings
  1
LaserJet5-Shaded-8.5x11
  2
LaserJet5Shaded.pc3
  4
Letter
  6

 40
7.143749713897705
 41
6.974400997161865
 42
7.14373779296875
 43
6.297088623046875
 44
215.8999938964843
 45
279.3999938964843
 46
0.0
 47
0.0
 48
180360.0524337165
 49
80033.77936194791
140
180369.1574725906
141
80037.61796031875
142
1.0
143
1.417270490660323
 70
  1712
 72
     0
 73
     1
 74
     0
  7
LaserJet5Shaded.ctb
 75
     0
147
0.7055816138061886
148
0.0
149
0.0
  0
PLOTSETTINGS
  5
1D49
102
{ACAD_REACTORS
330
18
102
}
330
18
100
AcDbPlotSettings
  1
LaserJet5Shaded 11x17
  2
LaserJet5Shaded.pc3
  4
11x17
  6

 40
7.143749713897705
 41
5.873736858367919
 42
7.143768310546875
 43
7.14373779296875
 44
279.3999938964843
 45
431.7999877929687
 46
0.0
 47
0.0
 48
180360.0524337165
 49
80033.77936194791
140
180369.1574725906
141
80037.61796031875
142
1.0
143
4.864072045424008
 70
  1712
 72
     0
 73
     1
 74
     0
  7
LaserJet5Shaded.ctb
 75
     0
147
0.205589060084086
148
-4580581.320935756
149
-2032339.826086972
  0
ACDBPLACEHOLDER
  5
F
102
{ACAD_REACTORS
330
E
102
}
330
E
  0
DICTIONARYVAR
  5
1DEF
102
{ACAD_REACTORS
330
1DED
102
}
330
1DED
100
DictionaryVariables
280
     0
  1
1
  0
DICTIONARYVAR
  5
1DEE
102
{ACAD_REACTORS
330
1DED
102
}
330
1DED
100
DictionaryVariables
280
     0
  1
1
  0
DICTIONARYVAR
  5
1FFB
102
{ACAD_REACTORS
330
1DED
102
}
330
1DED
100
DictionaryVariables
280
     0
  1
1
  0
ENDSEC
  0
EOF
