  0
SECTION
  2
HEADER
  9
$ACADVER
  1
AC1015
  9
$ACADMAINTVER
 70
    13
  9
$DWGCODEPAGE
  3
ANSI_1252
  9
$INSBASE
 10
-1.909902583309492
 20
10.86736827055435
 30
0.0
  9
$EXTMIN
 10
-4.216988095000015
 20
10.73532478272454
 30
-0.0000018309708663
  9
$EXTMAX
 10
12.27502490588549
 20
21.1772480871038
 30
0.0300018312502716
  9
$LIMMIN
 10
0.0
 20
0.0
  9
$LIMMAX
 10
12.0
 20
9.0
  9
$ORTHOMODE
 70
     1
  9
$REGENMODE
 70
     1
  9
$FILLMODE
 70
     1
  9
$QTEXTMODE
 70
     0
  9
$MIRRTEXT
 70
     0
  9
$LTSCALE
 40
1.0
  9
$ATTMODE
 70
     1
  9
$TEXTSIZE
 40
0.1
  9
$TRACEWID
 40
0.05
  9
$TEXTSTYLE
  7
L200
  9
$CLAYER
  8
TITLE
  9
$CELTYPE
  6
ByLayer
  9
$CECOLOR
 62
   256
  9
$CELTSCALE
 40
1.0
  9
$DISPSILH
 70
     0
  9
$DIMSCALE
 40
1.0
  9
$DIMASZ
 40
0.18
  9
$DIMEXO
 40
0.0625
  9
$DIMDLI
 40
0.38
  9
$DIMRND
 40
0.0
  9
$DIMDLE
 40
0.0
  9
$DIMEXE
 40
0.18
  9
$DIMTP
 40
0.0
  9
$DIMTM
 40
0.0
  9
$DIMTXT
 40
0.18
  9
$DIMCEN
 40
0.09
  9
$DIMTSZ
 40
0.0
  9
$DIMTOL
 70
     0
  9
$DIMLIM
 70
     0
  9
$DIMTIH
 70
     1
  9
$DIMTOH
 70
     1
  9
$DIMSE1
 70
     0
  9
$DIMSE2
 70
     0
  9
$DIMTAD
 70
     0
  9
$DIMZIN
 70
     0
  9
$DIMBLK
  1

  9
$DIMASO
 70
     1
  9
$DIMSHO
 70
     0
  9
$DIMPOST
  1

  9
$DIMAPOST
  1

  9
$DIMALT
 70
     0
  9
$DIMALTD
 70
     2
  9
$DIMALTF
 40
25.4
  9
$DIMLFAC
 40
1.0
  9
$DIMTOFL
 70
     0
  9
$DIMTVP
 40
0.0
  9
$DIMTIX
 70
     0
  9
$DIMSOXD
 70
     0
  9
$DIMSAH
 70
     0
  9
$DIMBLK1
  1

  9
$DIMBLK2
  1

  9
$DIMSTYLE
  2
Standard
  9
$DIMCLRD
 70
     0
  9
$DIMCLRE
 70
     0
  9
$DIMCLRT
 70
     0
  9
$DIMTFAC
 40
1.0
  9
$DIMGAP
 40
0.09
  9
$DIMJUST
 70
     0
  9
$DIMSD1
 70
     0
  9
$DIMSD2
 70
     0
  9
$DIMTOLJ
 70
     1
  9
$DIMTZIN
 70
     0
  9
$DIMALTZ
 70
     0
  9
$DIMALTTZ
 70
     0
  9
$DIMUPT
 70
     0
  9
$DIMDEC
 70
     4
  9
$DIMTDEC
 70
     4
  9
$DIMALTU
 70
     2
  9
$DIMALTTD
 70
     2
  9
$DIMTXSTY
  7
STANDARD
  9
$DIMAUNIT
 70
     0
  9
$DIMADEC
 70
     0
  9
$DIMALTRND
 40
0.0
  9
$DIMAZIN
 70
     0
  9
$DIMDSEP
 70
    46
  9
$DIMATFIT
 70
     3
  9
$DIMFRAC
 70
     0
  9
$DIMLDRBLK
  1

  9
$DIMLUNIT
 70
     2
  9
$DIMLWD
 70
    -2
  9
$DIMLWE
 70
    -2
  9
$DIMTMOVE
 70
     2
  9
$LUNITS
 70
     2
  9
$LUPREC
 70
     4
  9
$SKETCHINC
 40
0.1
  9
$FILLETRAD
 40
0.0
  9
$AUNITS
 70
     0
  9
$AUPREC
 70
     0
  9
$MENU
  1
acad
  9
$ELEVATION
 40
0.0
  9
$PELEVATION
 40
0.0
  9
$THICKNESS
 40
0.0
  9
$LIMCHECK
 70
     0
  9
$CHAMFERA
 40
0.0
  9
$CHAMFERB
 40
0.0
  9
$CHAMFERC
 40
0.0
  9
$CHAMFERD
 40
0.0
  9
$SKPOLY
 70
     0
  9
$TDCREATE
 40
2450446.277947569
  9
$TDUCREATE
 40
2450446.569614236
  9
$TDUPDATE
 40
2453021.563128379
  9
$TDUUPDATE
 40
2453021.854795046
  9
$TDINDWG
 40
0.2048720255
  9
$TDUSRTIMER
 40
0.2048720255
  9
$USRTIMER
 70
     1
  9
$ANGBASE
 50
0.0
  9
$ANGDIR
 70
     0
  9
$PDMODE
 70
     0
  9
$PDSIZE
 40
0.0
  9
$PLINEWID
 40
0.018
  9
$SPLFRAME
 70
     0
  9
$SPLINETYPE
 70
     6
  9
$SPLINESEGS
 70
     8
  9
$HANDSEED
  5
1AC8
  9
$SURFTAB1
 70
     6
  9
$SURFTAB2
 70
     6
  9
$SURFTYPE
 70
     6
  9
$SURFU
 70
     6
  9
$SURFV
 70
     6
  9
$UCSBASE
  2

  9
$UCSNAME
  2

  9
$UCSORG
 10
0.0
 20
0.0
 30
0.0
  9
$UCSXDIR
 10
1.0
 20
0.0
 30
0.0
  9
$UCSYDIR
 10
0.0
 20
1.0
 30
0.0
  9
$UCSORTHOREF
  2

  9
$UCSORTHOVIEW
 70
     0
  9
$UCSORGTOP
 10
0.0
 20
0.0
 30
0.0
  9
$UCSORGBOTTOM
 10
0.0
 20
0.0
 30
0.0
  9
$UCSORGLEFT
 10
0.0
 20
0.0
 30
0.0
  9
$UCSORGRIGHT
 10
0.0
 20
0.0
 30
0.0
  9
$UCSORGFRONT
 10
0.0
 20
0.0
 30
0.0
  9
$UCSORGBACK
 10
0.0
 20
0.0
 30
0.0
  9
$PUCSBASE
  2

  9
$PUCSNAME
  2

  9
$PUCSORG
 10
0.0
 20
0.0
 30
0.0
  9
$PUCSXDIR
 10
1.0
 20
0.0
 30
0.0
  9
$PUCSYDIR
 10
0.0
 20
1.0
 30
0.0
  9
$PUCSORTHOREF
  2

  9
$PUCSORTHOVIEW
 70
     0
  9
$PUCSORGTOP
 10
0.0
 20
0.0
 30
0.0
  9
$PUCSORGBOTTOM
 10
0.0
 20
0.0
 30
0.0
  9
$PUCSORGLEFT
 10
0.0
 20
0.0
 30
0.0
  9
$PUCSORGRIGHT
 10
0.0
 20
0.0
 30
0.0
  9
$PUCSORGFRONT
 10
0.0
 20
0.0
 30
0.0
  9
$PUCSORGBACK
 10
0.0
 20
0.0
 30
0.0
  9
$USERI1
 70
     0
  9
$USERI2
 70
     0
  9
$USERI3
 70
     0
  9
$USERI4
 70
     0
  9
$USERI5
 70
     0
  9
$USERR1
 40
1.0
  9
$USERR2
 40
1.0
  9
$USERR3
 40
0.0
  9
$USERR4
 40
0.0
  9
$USERR5
 40
0.0
  9
$WORLDVIEW
 70
     1
  9
$SHADEDGE
 70
     3
  9
$SHADEDIF
 70
    70
  9
$TILEMODE
 70
     1
  9
$MAXACTVP
 70
    16
  9
$PINSBASE
 10
0.0
 20
0.0
 30
0.0
  9
$PLIMCHECK
 70
     0
  9
$PEXTMIN
 10
1.000000000000000E+20
 20
1.000000000000000E+20
 30
1.000000000000000E+20
  9
$PEXTMAX
 10
-1.000000000000000E+20
 20
-1.000000000000000E+20
 30
-1.000000000000000E+20
  9
$PLIMMIN
 10
0.0
 20
0.0
  9
$PLIMMAX
 10
12.0
 20
9.0
  9
$UNITMODE
 70
     0
  9
$VISRETAIN
 70
     0
  9
$PLINEGEN
 70
     1
  9
$PSLTSCALE
 70
     0
  9
$TREEDEPTH
 70
  3020
  9
$CMLSTYLE
  2
Standard
  9
$CMLJUST
 70
     0
  9
$CMLSCALE
 40
1.0
  9
$PROXYGRAPHICS
 70
     1
  9
$MEASUREMENT
 70
     0
  9
$CELWEIGHT
370
    -1
  9
$ENDCAPS
280
     0
  9
$JOINSTYLE
280
     0
  9
$LWDISPLAY
290
     0
  9
$INSUNITS
 70
     0
  9
$HYPERLINKBASE
  1

  9
$STYLESHEET
  1
8500ColorShaded.ctb
  9
$XEDIT
290
     1
  9
$CEPSNTYPE
380
     0
  9
$PSTYLEMODE
290
     1
  9
$FINGERPRINTGUID
  2
{22335C56-4317-4A7C-8F4D-88F63ABCD2C6}
  9
$VERSIONGUID
  2
{3C7960C0-A838-4C0A-AD65-D3E24E5860B8}
  9
$EXTNAMES
290
     1
  9
$PSVPSCALE
 40
0.0
  9
$OLESTARTUP
290
     0
  0
ENDSEC
  0
SECTION
  2
CLASSES
  0
CLASS
  1
ACDBDICTIONARYWDFLT
  2
AcDbDictionaryWithDefault
  3
AutoCAD 2000
 90
        0
280
     0
281
     0
  0
CLASS
  1
ACDBPLACEHOLDER
  2
AcDbPlaceHolder
  3
AutoCAD 2000
 90
        0
280
     0
281
     0
  0
CLASS
  1
LAYOUT
  2
AcDbLayout
  3
AutoCAD 2000
 90
        0
280
     0
281
     0
  0
CLASS
  1
DICTIONARYVAR
  2
AcDbDictionaryVar
  3
AutoCAD 2000
 90
        0
280
     0
281
     0
  0
CLASS
  1
PLOTSETTINGS
  2
AcDbPlotSettings
  3
AutoCAD 2000
 90
        0
280
     0
281
     0
  0
ENDSEC
  0
SECTION
  2
TABLES
  0
TABLE
  2
VPORT
  5
8
330
0
100
AcDbSymbolTable
 70
     4
  0
VPORT
  5
1AC7
330
8
100
AcDbSymbolTableRecord
100
AcDbViewportTableRecord
  2
*Active
 70
     0
 10
0.0
 20
0.0
 11
1.0
 21
1.0
 12
4.029018405442737
 22
15.95628643491417
 13
0.0
 23
0.0
 14
1.0
 24
1.0
 15
0.0
 25
0.0
 16
0.0
 26
0.0
 36
1.0
 17
0.0
 27
0.0
 37
0.0
 40
10.52822019119231
 41
1.609655172413793
 42
50.0
 43
0.0
 44
0.0
 50
0.0
 51
0.0
 71
     0
 72
  1000
 73
     1
 74
     0
 75
     0
 76
     0
 77
     0
 78
     0
281
     0
 65
     1
110
0.0
120
0.0
130
0.0
111
1.0
121
0.0
131
0.0
112
0.0
122
1.0
132
0.0
 79
     0
146
0.0
  0
ENDTAB
  0
TABLE
  2
LTYPE
  5
5
330
0
100
AcDbSymbolTable
 70
     1
  0
LTYPE
  5
13
330
5
100
AcDbSymbolTableRecord
100
AcDbLinetypeTableRecord
  2
ByBlock
 70
     0
  3

 72
    65
 73
     0
 40
0.0
  0
LTYPE
  5
14
330
5
100
AcDbSymbolTableRecord
100
AcDbLinetypeTableRecord
  2
ByLayer
 70
     0
  3

 72
    65
 73
     0
 40
0.0
  0
LTYPE
  5
15
330
5
100
AcDbSymbolTableRecord
100
AcDbLinetypeTableRecord
  2
CONTINUOUS
 70
     0
  3
Solid line
 72
    65
 73
     0
 40
0.0
  0
ENDTAB
  0
TABLE
  2
LAYER
  5
2
102
{ACAD_XDICTIONARY
360
1AC6
102
}
330
0
100
AcDbSymbolTable
 70
     4
  0
LAYER
  5
10
330
2
100
AcDbSymbolTableRecord
100
AcDbLayerTableRecord
  2
0
 70
     0
 62
     7
  6
CONTINUOUS
370
    -3
390
F
  0
LAYER
  5
3B
330
2
100
AcDbSymbolTableRecord
100
AcDbLayerTableRecord
  2
TITLE
 70
     0
 62
     7
  6
CONTINUOUS
370
    -3
390
F
  0
LAYER
  5
1928
330
2
100
AcDbSymbolTableRecord
100
AcDbLayerTableRecord
  2
IMAGE
 70
     0
 62
     7
  6
CONTINUOUS
370
    -3
390
F
  0
LAYER
  5
1992
330
2
100
AcDbSymbolTableRecord
100
AcDbLayerTableRecord
  2
TEXT_BUBBLES
 70
     0
 62
     7
  6
CONTINUOUS
370
    -3
390
F
1001
RAK
1000
{EFB-CP-BUBBLES
1070
     0
1070
     6
1000
CONTINUOUS
1000
EFB-CP-BUBBLES}
1000
{EFB-CP-LEADERS
1070
     0
1070
    -6
1000
CONTINUOUS
1000
EFB-CP-LEADERS}
1000
{EFB-CP-BSP-BUBBLES
1070
     0
1070
     6
1000
CONTINUOUS
1000
EFB-CP-BSP-BUBBLES}
1000
{EFB-CP-BSP-LEADERS
1070
     0
1070
    -6
1000
CONTINUOUS
1000
EFB-CP-BSP-LEADERS}
1000
{EFB-CP-NP-BUBBLES
1070
     0
1070
     6
1000
CONTINUOUS
1000
EFB-CP-NP-BUBBLES}
1000
{EFB-CP-NP-LEADERS
1070
     0
1070
    -6
1000
CONTINUOUS
1000
EFB-CP-NP-LEADERS}
1000
{EFB-CP-PRS-BUBBLES
1070
     0
1070
     6
1000
CONTINUOUS
1000
EFB-CP-PRS-BUBBLES}
1000
{EFB-CP-PRS-LEADERS
1070
     0
1070
    -6
1000
CONTINUOUS
1000
EFB-CP-PRS-LEADERS}
1000
{EFB-CP-PRS-BSP-BUBBLES
1070
     0
1070
     6
1000
CONTINUOUS
1000
EFB-CP-PRS-BSP-BUBBLES}
1000
{EFB-CP-PRS-BSP-LEADERS
1070
     0
1070
    -6
1000
CONTINUOUS
1000
EFB-CP-PRS-BSP-LEADERS}
1000
{EFB-CP-PRS-NP-BUBBLES
1070
     0
1070
     6
1000
CONTINUOUS
1000
EFB-CP-PRS-NP-BUBBLES}
1000
{EFB-CP-PRS-NP-LEADERS
1070
     0
1070
    -6
1000
CONTINUOUS
1000
EFB-CP-PRS-NP-LEADERS}
  0
ENDTAB
  0
TABLE
  2
STYLE
  5
3
330
0
100
AcDbSymbolTable
 70
     5
  0
STYLE
  5
11
330
3
100
AcDbSymbolTableRecord
100
AcDbTextStyleTableRecord
  2
STANDARD
 70
     0
 40
0.0
 41
1.0
 50
0.0
 71
     0
 42
0.2
  3
txt
  4

  0
STYLE
  5
2E
330
3
100
AcDbSymbolTableRecord
100
AcDbTextStyleTableRecord
  2
L100
 70
     0
 40
0.07
 41
1.0
 50
0.0
 71
     0
 42
0.07
  3
SIMPLEX
  4

  0
STYLE
  5
2F
330
3
100
AcDbSymbolTableRecord
100
AcDbTextStyleTableRecord
  2
L200
 70
     0
 40
0.3
 41
1.0
 50
0.0
 71
     0
 42
0.1
  3
ARIAL.TTF
  4

1001
ACAD
1000
Arial
1071
       34
  0
STYLE
  5
30
330
3
100
AcDbSymbolTableRecord
100
AcDbTextStyleTableRecord
  2
L80
 70
     0
 40
0.08
 41
1.0
 50
0.0
 71
     0
 42
0.08
  3
simplex
  4

  0
STYLE
  5
1929
330
3
100
AcDbSymbolTableRecord
100
AcDbTextStyleTableRecord
  2
ROMANS
 70
     0
 40
0.0
 41
1.0
 50
0.0
 71
     0
 42
0.1
  3
romans
  4

  0
ENDTAB
  0
TABLE
  2
VIEW
  5
6
330
0
100
AcDbSymbolTable
 70
     1
  0
VIEW
  5
1A9D
330
6
100
AcDbSymbolTableRecord
100
AcDbViewTableRecord
  2
PS1
 70
     0
 40
10.43999999999999
 10
4.029018328652843
 20
15.95595549101727
 41
16.49
 11
0.0
 21
0.0
 31
1.0
 12
0.0
 22
0.0
 32
0.0
 42
50.0
 43
0.0
 44
0.0
 50
0.0
 71
     0
281
     0
 72
     1
110
0.0
120
0.0
130
0.0
111
1.0
121
0.0
131
0.0
112
0.0
122
1.0
132
0.0
 79
     0
146
0.0
  0
ENDTAB
  0
TABLE
  2
UCS
  5
7
330
0
100
AcDbSymbolTable
 70
     0
  0
ENDTAB
  0
TABLE
  2
APPID
  5
9
330
0
100
AcDbSymbolTable
 70
     3
  0
APPID
  5
12
330
9
100
AcDbSymbolTableRecord
100
AcDbRegAppTableRecord
  2
ACAD
 70
     0
  0
APPID
  5
33
330
9
100
AcDbSymbolTableRecord
100
AcDbRegAppTableRecord
  2
CLSI_CADWRITER
 70
     0
  0
APPID
  5
1993
330
9
100
AcDbSymbolTableRecord
100
AcDbRegAppTableRecord
  2
RAK
 70
     0
  0
ENDTAB
  0
TABLE
  2
DIMSTYLE
  5
A
330
0
100
AcDbSymbolTable
 70
     1
100
AcDbDimStyleTable
 71
     0
  0
DIMSTYLE
105
1926
330
A
100
AcDbSymbolTableRecord
100
AcDbDimStyleTableRecord
  2
Standard
 70
     0
340
11
  0
ENDTAB
  0
TABLE
  2
BLOCK_RECORD
  5
1
330
0
100
AcDbSymbolTable
 70
     3
  0
BLOCK_RECORD
  5
1E
330
1
100
AcDbSymbolTableRecord
100
AcDbBlockTableRecord
  2
*Model_Space
340
21
  0
BLOCK_RECORD
  5
1A
330
1
100
AcDbSymbolTableRecord
100
AcDbBlockTableRecord
  2
*Paper_Space
340
1D
  0
BLOCK_RECORD
  5
23
330
1
100
AcDbSymbolTableRecord
100
AcDbBlockTableRecord
  2
TITLBLK
340
0
102
{BLKREFS
331
19A7
102
}
  0
BLOCK_RECORD
  5
198D
330
1
100
AcDbSymbolTableRecord
100
AcDbBlockTableRecord
  2
bubble
340
0
310
2800000020000000200000000100080000000000000400000000000000000000000000000000000000000000000080000080000000808000800000008000800080800000C0C0C000C0DCC000F0CAA6000020400000206000002080000020A0000020C0000020E00000400000004020000040400000406000004080000040A0
310
000040C0000040E00000600000006020000060400000606000006080000060A0000060C0000060E00000800000008020000080400000806000008080000080A0000080C0000080E00000A0000000A0200000A0400000A0600000A0800000A0A00000A0C00000A0E00000C0000000C0200000C0400000C0600000C0800000C0
310
A00000C0C00000C0E00000E0000000E0200000E0400000E0600000E0800000E0A00000E0C00000E0E00040000000400020004000400040006000400080004000A0004000C0004000E00040200000402020004020400040206000402080004020A0004020C0004020E000404000004040200040404000404060004040800040
310
40A0004040C0004040E00040600000406020004060400040606000406080004060A0004060C0004060E00040800000408020004080400040806000408080004080A0004080C0004080E00040A0000040A0200040A0400040A0600040A0800040A0A00040A0C00040A0E00040C0000040C0200040C0400040C0600040C08000
310
40C0A00040C0C00040C0E00040E0000040E0200040E0400040E0600040E0800040E0A00040E0C00040E0E00080000000800020008000400080006000800080008000A0008000C0008000E00080200000802020008020400080206000802080008020A0008020C0008020E00080400000804020008040400080406000804080
310
008040A0008040C0008040E00080600000806020008060400080606000806080008060A0008060C0008060E00080800000808020008080400080806000808080008080A0008080C0008080E00080A0000080A0200080A0400080A0600080A0800080A0A00080A0C00080A0E00080C0000080C0200080C0400080C0600080C0
310
800080C0A00080C0C00080C0E00080E0000080E0200080E0400080E0600080E0800080E0A00080E0C00080E0E000C0000000C0002000C0004000C0006000C0008000C000A000C000C000C000E000C0200000C0202000C0204000C0206000C0208000C020A000C020C000C020E000C0400000C0402000C0404000C0406000C0
310
408000C040A000C040C000C040E000C0600000C0602000C0604000C0606000C0608000C060A000C060C000C060E000C0800000C0802000C0804000C0806000C0808000C080A000C080C000C080E000C0A00000C0A02000C0A04000C0A06000C0A08000C0A0A000C0A0C000C0A0E000C0C00000C0C02000C0C04000C0C06000
310
C0C08000C0C0A000F0FBFF00A4A0A000808080000000FF0000FF000000FFFF00FF000000FF00FF00FFFF0000FFFFFF0008080808080808080808080808080808080808080808080808080808080808080808080808080808080808080808080808080808080808080808080808080808080808080808080808080808FDFDFD
310
08080808080808080808080808080808080808080808080808080808FD080808FDFDFDFDFDFD0808080808080808080808080808080808080808FDFD08080808080808080808FDFDFDFD080808080808080808080808080808FD08080808080808080808080808080808FD08080808080808080808080808FD080808080808
310
0808080808080808080808FD0808080808080808080808FDFD08080808080808080808080808080808080808FD080808080808080808FD080808080808080808080808080808080808080808FD0808080808080808FD08FD0808080808080808FD0808FD0808080808080808FDFD08080808080808FD0808FD080808080808
310
FD08080808FD080808080808FD08FD08080808080808FD0808FD080808080808FD08080808FD080808080808FD0808FD080808080808FD080808FD08080808FD080808080808FD08080808FD080808FD080808080808FD08080808FD0808FD0808080808080808FD0808FD0808080808FD0808080808FD08080808FD0808FD
310
0808080808080808FD0808FD0808080808FD0808080808FD0808080808FDFD08080808080808080808FDFD08080808080808FD08080808FD0808080808FDFD08080808080808080808FDFD08080808080808FD08080808FD08080808FD0808FD0808080808080808FD0808FD0808080808FD0808080808FD08080808FD0808
310
FD0808080808080808FD0808FD0808080808FD0808080808FD080808FD08080808FD080808080808FD08080808FD080808FD080808080808FD0808FD080808080808FD08080808FD080808080808FD0808FD080808080808FD0808FD080808080808FD08080808FD080808080808FD08FD08080808080808FD08FD08080808
310
08080808FD0808FD0808080808080808FDFD0808080808080808FD080808080808080808080808080808080808080808FD08080808080808080808FDFD08080808080808080808080808080808080808FD080808080808080808080808FD0808080808080808080808080808080808FD0808080808080808080808080808FD
310
08080808080808080808080808080808FD080808080808080808080808080808FDFD0808080808080808080808FDFDFD080808080808080808080808080808080808FD08080808FDFDFDFDFDFD08080808080808080808080808080808080808080808FDFDFDFD080808080808080808080808080808080808080808080808
310
0808080808080808080808080808080808080808080808080808080808080808080808080808080808080808080808080808080808080808
102
{BLKREFS
331
19B1
331
1A43
331
1A46
331
1A49
331
1A4C
331
1A4F
331
1A5D
331
1A60
331
1A63
331
1A66
331
1A69
331
1A6C
102
}
  0
BLOCK_RECORD
  5
19CE
330
1
100
AcDbSymbolTableRecord
100
AcDbBlockTableRecord
  2
IDAEP
340
0
102
{BLKREFS
331
1A05
331
1A06
331
1A15
331
1A16
102
}
  0
ENDTAB
  0
ENDSEC
  0
SECTION
  2
BLOCKS
  0
BLOCK
  5
47
330
1E
100
AcDbEntity
  8
0
100
AcDbBlockBegin
  2
*Model_Space
 70
     0
 10
0.0
 20
0.0
 30
0.0
  3
*Model_Space
  1

  0
ENDBLK
  5
48
330
1E
100
AcDbEntity
  8
0
100
AcDbBlockEnd
  0
BLOCK
  5
45
330
1A
100
AcDbEntity
 67
     1
  8
0
100
AcDbBlockBegin
  2
*Paper_Space
 70
     0
 10
0.0
 20
0.0
 30
0.0
  3
*Paper_Space
  1

  0
ENDBLK
  5
46
330
1A
100
AcDbEntity
 67
     1
  8
0
100
AcDbBlockEnd
  0
BLOCK
  5
5C
330
23
100
AcDbEntity
  8
0
100
AcDbBlockBegin
  2
TITLBLK
 70
     2
 10
0.0
 20
0.0
 30
0.0
  3
TITLBLK
  1

  0
LWPOLYLINE
  5
5D
330
23
100
AcDbEntity
  8
0
100
AcDbPolyline
 90
        2
 70
     0
 43
0.04
 39
0.03
 10
0.3424999999999994
 20
-0.0000000000000003
 10
7.654581983261419
 20
-0.0000000000000003
  0
ATTDEF
  5
61
330
23
100
AcDbEntity
  8
0
100
AcDbText
 10
0.625
 20
0.0999999999999998
 30
0.0
 40
0.2
  1
TITLE
  7
L200
100
AcDbAttributeDefinition
  3
DETAIL TITLE
  2
TITLE
 70
     0
  0
LWPOLYLINE
  5
63
330
23
100
AcDbEntity
  8
0
100
AcDbPolyline
 90
        2
 70
     1
 43
0.03
 10
0.0
 20
-0.3425000000000002
 42
0.9999999999999998
 10
0.0
 20
0.3425000000000002
 42
0.9999999999999998
  0
ATTDEF
  5
67
330
23
100
AcDbEntity
  8
0
100
AcDbText
 10
-0.0776944065484311
 20
-0.1000000000000003
 30
0.0
 40
0.2
  1
#
  7
L200
 72
     4
 11
0.0
 21
-0.0000000000000003
 31
0.0
100
AcDbAttributeDefinition
  3
#
  2
#
 70
     0
  0
ATTDEF
  5
68
330
23
100
AcDbEntity
  8
0
100
AcDbText
 10
0.625
 20
-0.1836633170828782
 30
0.0
 40
0.1
  1
N.T.S.
  7
L100
100
AcDbAttributeDefinition
  3
SCALE
  2
SCALE
 70
     0
  0
ATTDEF
  5
69
330
23
100
AcDbEntity
  8
0
100
AcDbText
 10
2.107203380653828
 20
-0.2914343300200487
 30
0.0
 40
0.2
  1
TITLE2
  7
L200
100
AcDbAttributeDefinition
  3
DETAIL TITLE2
  2
TITLE2
 70
     0
  0
ATTDEF
  5
6A
330
23
100
AcDbEntity
  8
0
100
AcDbText
 10
7.58601055468999
 20
-0.1618486459795794
 30
0.0
 40
0.08
  1
-
  7
L80
 72
     2
 11
7.654581983261419
 21
-0.1618486459795794
 31
0.0
100
AcDbAttributeDefinition
  3
DWG-NAME
  2
DWG-NAME
 70
     0
  0
ATTDEF
  5
6B
330
23
100
AcDbEntity
  8
0
100
AcDbText
 10
7.58601055468999
 20
0.0853756950662722
 30
0.0
 40
0.08
  1
-
  7
L80
 72
     2
 11
7.654581983261419
 21
0.0853756950662722
 31
0.0
100
AcDbAttributeDefinition
  3
REVISION DATE
  2
REVISED
 70
     0
  0
ENDBLK
  5
6C
330
23
100
AcDbEntity
  8
0
100
AcDbBlockEnd
  0
BLOCK
  5
1990
330
198D
100
AcDbEntity
  8
0
100
AcDbBlockBegin
  2
bubble
 70
     2
 10
0.0
 20
0.0
 30
0.0
  3
bubble
  1

  0
CIRCLE
  5
198E
330
198D
100
AcDbEntity
  8
0
100
AcDbCircle
 10
0.0
 20
0.0
 30
0.0
 40
0.1398891854377198
  0
ATTDEF
  5
198F
330
198D
100
AcDbEntity
  8
0
100
AcDbText
 10
0.0
 20
0.0
 30
0.0
 40
0.125
  1

  7
ROMANS
 72
     4
 11
0.0
 21
0.0
 31
0.0
100
AcDbAttributeDefinition
  3
Number
  2
XX
 70
     0
  0
ENDBLK
  5
1991
330
198D
100
AcDbEntity
  8
0
100
AcDbBlockEnd
  0
BLOCK
  5
19D0
330
19CE
100
AcDbEntity
  8
0
100
AcDbBlockBegin
  2
IDAEP
 70
     0
 10
0.0
 20
0.0
 30
0.0
  3
IDAEP
  1

  0
LWPOLYLINE
  5
19CF
330
19CE
100
AcDbEntity
  8
0
100
AcDbPolyline
 90
        3
 70
     0
 43
0.0016666666666667
 10
0.0
 20
0.4999999999999981
 42
0.9999999999999998
 10
0.0
 20
0.0
 42
-0.9999999999999998
 10
0.0
 20
-0.4999999999999981
 42
5441543991412035
  0
ENDBLK
  5
19D1
330
19CE
100
AcDbEntity
  8
0
100
AcDbBlockEnd
  0
ENDSEC
  0
SECTION
  2
ENTITIES
  0
LWPOLYLINE
  5
1722
330
1E
100
AcDbEntity
  8
IMAGE
100
AcDbPolyline
 90
        2
 70
     0
 43
0.0208333333333333
 10
0.9397477097199164
 20
13.9993471382536
 10
-2.51309234815321
 20
13.9993471382536
  0
LWPOLYLINE
  5
1726
330
1E
100
AcDbEntity
  8
IMAGE
100
AcDbPolyline
 90
        2
 70
     0
 43
0.0208333333333333
 10
0.9397477097199164
 20
14.30071275785907
 10
-1.696932218406146
 20
14.30071275785907
  0
LWPOLYLINE
  5
172A
330
1E
100
AcDbEntity
  8
IMAGE
100
AcDbPolyline
 90
        2
 70
     0
 43
0.0208333333333333
 10
0.9397477097199164
 20
14.13998442740282
 10
-2.08989820680288
 20
14.13998442740282
  0
LWPOLYLINE
  5
172E
330
1E
100
AcDbEntity
  8
IMAGE
100
AcDbPolyline
 90
        4
 70
     1
 43
0.0
 10
-3.022299064391798
 20
15.02236140677676
 10
-0.2097990643917986
 20
15.02236140677676
 10
-0.2097990643917986
 20
16.79319474011009
 10
-3.022299064391798
 20
16.79319474011009
  0
LWPOLYLINE
  5
1734
330
1E
100
AcDbEntity
  8
IMAGE
100
AcDbPolyline
 90
        3
 70
     0
 43
0.0104166666666667
 10
-1.189099248785749
 20
15.62617420456093
 10
-1.189099248785749
 20
14.67012681760559
 10
-0.1008857424563298
 20
14.67012681760559
  0
LWPOLYLINE
  5
173E
330
1E
100
AcDbEntity
  8
IMAGE
100
AcDbPolyline
 90
        3
 70
     0
 43
0.0104166666666667
 10
-0.6812662791653552
 20
15.63222351318956
 10
-0.6812662791653552
 20
14.83976408283979
 10
-0.0948401118656112
 20
14.83976408283979
  0
TEXT
  5
175B
330
1E
100
AcDbEntity
  8
IMAGE
100
AcDbText
 10
-2.603901772478236
 20
17.25726437273674
 30
0.0
 40
0.125
  1
L1
  7
L100
100
AcDbText
  0
TEXT
  5
175C
330
1E
100
AcDbEntity
  8
IMAGE
100
AcDbText
 10
-1.772244549942956
 20
17.24928909116668
 30
0.0
 40
0.125
  1
L3
  7
L100
100
AcDbText
  0
TEXT
  5
175D
330
1E
100
AcDbEntity
  8
IMAGE
100
AcDbText
 10
-2.22428875135195
 20
17.24928909116668
 30
0.0
 40
0.125
  1
L2
  7
L100
100
AcDbText
  0
LWPOLYLINE
  5
175E
330
1E
100
AcDbEntity
  8
IMAGE
100
AcDbPolyline
 90
        2
 70
     0
 43
0.0104166666666667
 10
-2.711379049570044
 20
15.90718725689725
 10
-1.189099248785749
 20
15.90718725689725
  0
LWPOLYLINE
  5
1762
330
1E
100
AcDbEntity
  8
IMAGE
100
AcDbPolyline
 90
        2
 70
     0
 43
0.0
 10
-1.700419535254936
 20
17.14433013922826
 42
0.4827164187955699
 10
-1.786222523198937
 20
17.10844897444815
 42
0.4827164187955699
  0
LWPOLYLINE
  5
1766
330
1E
100
AcDbEntity
  8
IMAGE
100
AcDbPolyline
 90
        2
 70
     0
 43
0.0208333333333333
 10
-2.51309234815321
 20
15.6321466391498
 10
-2.51309234815321
 20
15.2207167783636
  0
LWPOLYLINE
  5
176A
330
1E
100
AcDbEntity
  8
IMAGE
100
AcDbPolyline
 90
        2
 70
     0
 43
0.0208333333333333
 10
-2.08989820680288
 20
15.6321466391498
 10
-2.08989820680288
 20
15.2207167783636
  0
LWPOLYLINE
  5
176E
330
1E
100
AcDbEntity
  8
IMAGE
100
AcDbPolyline
 90
        2
 70
     1
 43
0.0572916666666667
 10
-2.55709785732054
 20
15.18400544143821
 42
1.0
 10
-2.458139523987204
 20
15.18400544143821
 42
1.0
  0
LWPOLYLINE
  5
1772
330
1E
100
AcDbEntity
  8
IMAGE
100
AcDbPolyline
 90
        2
 70
     0
 43
0.0208333333333333
 10
-2.508944305155141
 20
13.9969066559
 10
-2.508944305155141
 20
15.11976819312323
  0
LWPOLYLINE
  5
1776
330
1E
100
AcDbEntity
  8
IMAGE
100
AcDbPolyline
 90
        2
 70
     0
 43
0.0208333333333333
 10
-2.084233666336777
 20
14.1400603180161
 10
-2.084233666336777
 20
15.11976819312323
  0
LWPOLYLINE
  5
177A
330
1E
100
AcDbEntity
  8
IMAGE
100
AcDbPolyline
 90
        2
 70
     1
 43
0.0572916666666667
 10
-2.136443342383634
 20
15.18400544143821
 42
1.0
 10
-2.037485009050302
 20
15.18400544143821
 42
1.0
  0
LWPOLYLINE
  5
177E
330
1E
100
AcDbEntity
  8
IMAGE
100
AcDbPolyline
 90
       19
 70
     0
 43
0.0104166666666667
 10
-2.520927273306233
 20
16.58575272235696
 10
-2.542489382680082
 20
16.53828521348602
 10
-2.555426648304391
 20
16.49081770461509
 10
-2.564051492053931
 20
16.45198065190251
 10
-2.555426648304391
 20
16.42177405534828
 10
-2.525239695181003
 20
16.4174588272691
 10
-2.490740320182847
 20
16.42608928342745
 10
-2.464865788934225
 20
16.43471973958581
 10
-2.447616101435148
 20
16.43040451150663
 10
-2.426053992061297
 20
16.42608928342745
 10
-2.421741570186529
 20
16.39156745879405
 10
-2.430366413936067
 20
16.36567609031899
 10
-2.443303679560378
 20
16.34841517800229
 10
-2.460553367059455
 20
16.31820858144806
 10
-2.482115476433306
 20
16.29663244105218
 10
-2.499365163932383
 20
16.26211061641877
 10
-2.507990007681924
 20
16.23621924794372
 10
-2.516614851431465
 20
16.20601265138949
 10
-2.525239695181003
 20
16.19306696715196
  0
LINE
  5
1793
330
1E
100
AcDbEntity
  8
IMAGE
100
AcDbLine
 10
-2.708639432305135
 20
15.90724522107172
 30
0.0
 11
-2.29197276563847
 21
15.90724522107172
 31
0.0
  0
LINE
  5
1794
330
1E
100
AcDbEntity
  8
IMAGE
100
AcDbLine
 10
-2.712362038632012
 20
15.90724522107172
 30
0.0
 11
-2.295695371965345
 21
15.90724522107172
 31
0.0
  0
LWPOLYLINE
  5
1795
330
1E
100
AcDbEntity
  8
IMAGE
100
AcDbPolyline
 90
        2
 70
     1
 43
0.0572916666666667
 10
-2.55709785732054
 20
15.68004874898539
 42
1.0
 10
-2.458139523987204
 20
15.68004874898539
 42
1.0
  0
LWPOLYLINE
  5
1799
330
1E
100
AcDbEntity
  8
IMAGE
100
AcDbPolyline
 90
        2
 70
     1
 43
0.0572916666666667
 10
-2.55709785732054
 20
16.14561529014591
 42
1.0
 10
-2.458139523987204
 20
16.14561529014591
 42
1.0
  0
LWPOLYLINE
  5
179D
330
1E
100
AcDbEntity
  8
IMAGE
100
AcDbPolyline
 90
        2
 70
     1
 43
0.0572916666666667
 10
-2.55709785732054
 20
16.64165859769309
 42
1.0
 10
-2.458139523987204
 20
16.64165859769309
 42
1.0
  0
ARC
  5
17A1
330
1E
100
AcDbEntity
  8
IMAGE
100
AcDbCircle
 10
-2.469074296170912
 20
17.17539133437323
 30
0.0
 40
0.0479037538740328
100
AcDbArc
 50
216.5903692677126
 51
8.797124314226424
  0
LWPOLYLINE
  5
17A2
330
1E
100
AcDbEntity
  8
IMAGE
100
AcDbPolyline
 90
        2
 70
     0
 43
0.0104166666666667
 10
-2.709395465010689
 20
15.59951525276298
 10
-2.709395465010689
 20
16.22451525276298
  0
LWPOLYLINE
  5
17A6
330
1E
100
AcDbEntity
  8
IMAGE
100
AcDbPolyline
 90
        2
 70
     0
 43
0.0104166666666667
 10
-2.51309234815321
 20
16.69100061877538
 10
-2.51309234815321
 20
17.14478355346605
  0
LWPOLYLINE
  5
17AA
330
1E
100
AcDbEntity
  8
IMAGE
100
AcDbPolyline
 90
        2
 70
     0
 43
0.0
 10
-2.51336976394362
 20
17.14797355824778
 42
0.4827164187955699
 10
-2.599172751887622
 20
17.11209239346767
 42
0.4827164187955699
  0
LWPOLYLINE
  5
17AE
330
1E
100
AcDbEntity
  8
IMAGE
100
AcDbPolyline
 90
       19
 70
     0
 43
0.0104166666666667
 10
-2.085372663954486
 20
16.59006795043613
 10
-2.106934773328333
 20
16.5426004415652
 10
-2.119872038952644
 20
16.49513293269427
 10
-2.128496882702182
 20
16.45629587998168
 10
-2.119872038952644
 20
16.42608928342745
 10
-2.089685085829254
 20
16.42177405534828
 10
-2.055185710831096
 20
16.43040451150663
 10
-2.029311179582476
 20
16.43903496766498
 10
-2.012061492083399
 20
16.43471973958581
 10
-1.99049938270955
 20
16.43040451150663
 10
-1.986186960834779
 20
16.39588268687322
 10
-1.994811804584318
 20
16.36999131839817
 10
-2.007749070208629
 20
16.35273040608146
 10
-2.024998757707708
 20
16.32252380952723
 10
-2.046560867081557
 20
16.30094766913136
 10
-2.063810554580634
 20
16.26642584449795
 10
-2.072435398330175
 20
16.2405344760229
 10
-2.081060242079715
 20
16.21032787946867
 10
-2.089685085829254
 20
16.19738219523114
  0
LINE
  5
17C3
330
1E
100
AcDbEntity
  8
IMAGE
100
AcDbLine
 10
-2.299152736348859
 20
15.91096975340101
 30
0.0
 11
-1.88248606968219
 21
15.91096975340101
 31
0.0
  0
LWPOLYLINE
  5
17C4
330
1E
100
AcDbEntity
  8
IMAGE
100
AcDbPolyline
 90
        2
 70
     1
 43
0.0572916666666667
 10
-2.136443342383634
 20
15.68004874898539
 42
1.0
 10
-2.037485009050302
 20
15.68004874898539
 42
1.0
  0
LWPOLYLINE
  5
17C8
330
1E
100
AcDbEntity
  8
IMAGE
100
AcDbPolyline
 90
        2
 70
     1
 43
0.0572916666666667
 10
-2.136443342383634
 20
16.14561529014591
 42
1.0
 10
-2.037485009050302
 20
16.14561529014591
 42
1.0
  0
LINE
  5
17CC
330
1E
100
AcDbEntity
  8
IMAGE
100
AcDbLine
 10
-2.295695371965345
 20
16.22383046906088
 30
0.0
 11
-2.295695371965345
 21
15.59438450541185
 31
0.0
  0
LWPOLYLINE
  5
17CD
330
1E
100
AcDbEntity
  8
IMAGE
100
AcDbPolyline
 90
        2
 70
     0
 43
0.0104166666666667
 10
-2.299152736348859
 20
16.22383046906088
 10
-2.299152736348859
 20
15.59065997308257
  0
LINE
  5
17D1
330
1E
100
AcDbEntity
  8
IMAGE
100
AcDbLine
 10
-2.295695371965345
 20
15.90724522107172
 30
0.0
 11
-2.295695371965345
 21
16.22383046906088
 31
0.0
  0
LINE
  5
17D2
330
1E
100
AcDbEntity
  8
IMAGE
100
AcDbLine
 10
-1.88248606968219
 20
16.22755500139016
 30
0.0
 11
-1.88248606968219
 21
15.59065997308257
 31
0.0
  0
LWPOLYLINE
  5
17D3
330
1E
100
AcDbEntity
  8
IMAGE
100
AcDbPolyline
 90
        2
 70
     0
 43
0.0104166666666667
 10
-1.885943434065704
 20
16.22755500139016
 10
-1.885943434065704
 20
15.59065997308257
  0
LINE
  5
17D7
330
1E
100
AcDbEntity
  8
IMAGE
100
AcDbLine
 10
-1.88248606968219
 20
15.91096975340101
 30
0.0
 11
-1.88248606968219
 21
16.22755500139016
 31
0.0
  0
LWPOLYLINE
  5
17D8
330
1E
100
AcDbEntity
  8
IMAGE
100
AcDbPolyline
 90
        2
 70
     1
 43
0.0572916666666667
 10
-2.136443342383634
 20
16.64165859769309
 42
1.0
 10
-2.037485009050302
 20
16.64165859769309
 42
1.0
  0
LWPOLYLINE
  5
17DC
330
1E
100
AcDbEntity
  8
IMAGE
100
AcDbPolyline
 90
        2
 70
     0
 43
0.0
 10
-2.092861666917902
 20
17.14301610361016
 42
0.4827164187955699
 10
-2.178664654861904
 20
17.10713493883005
 42
0.4827164187955699
  0
LWPOLYLINE
  5
17E0
330
1E
100
AcDbEntity
  8
IMAGE
100
AcDbPolyline
 90
        2
 70
     0
 43
0.0104166666666667
 10
-2.08989820680288
 20
16.7031014970338
 10
-2.08989820680288
 20
17.14478355346605
  0
LWPOLYLINE
  5
17E4
330
1E
100
AcDbEntity
  8
IMAGE
100
AcDbPolyline
 90
        2
 70
     0
 43
0.0208333333333333
 10
-2.089914831500477
 20
16.71440372784509
 10
-2.089914831500477
 20
17.13314216938452
  0
ARC
  5
17E8
330
1E
100
AcDbEntity
  8
IMAGE
100
AcDbCircle
 10
-2.045683423856071
 20
17.17121829315469
 30
0.0
 40
0.0479037538740328
100
AcDbArc
 50
216.5903692677126
 51
8.797124314226424
  0
LWPOLYLINE
  5
17E9
330
1E
100
AcDbEntity
  8
IMAGE
100
AcDbPolyline
 90
        2
 70
     0
 43
0.0208333333333333
 10
-1.696932218406146
 20
15.6321466391498
 10
-1.696932218406146
 20
15.2207167783636
  0
LWPOLYLINE
  5
17ED
330
1E
100
AcDbEntity
  8
IMAGE
100
AcDbPolyline
 90
        2
 70
     0
 43
0.0
 10
-1.696932218406146
 20
14.30071275785907
 10
-1.696932218406146
 20
15.1152946411821
  0
LWPOLYLINE
  5
17F1
330
1E
100
AcDbEntity
  8
IMAGE
100
AcDbPolyline
 90
        2
 70
     0
 43
0.0208333333333333
 10
-1.699758772248574
 20
14.30110818789673
 10
-1.699758772248574
 20
15.11082108924097
  0
LWPOLYLINE
  5
17F5
330
1E
100
AcDbEntity
  8
IMAGE
100
AcDbPolyline
 90
        2
 70
     1
 43
0.0572916666666667
 10
-1.745569678061732
 20
15.18400544143821
 42
1.0
 10
-1.646611344728399
 20
15.18400544143821
 42
1.0
  0
LWPOLYLINE
  5
17FA
330
1E
100
AcDbEntity
  8
IMAGE
100
AcDbPolyline
 90
        7
 70
     0
 43
0.0104166666666667
 10
-1.189099248785749
 20
15.74111106850479
 10
-1.189099248785749
 20
16.08592166033637
 10
-1.00773033106418
 20
15.67456867358993
 10
-0.9291371333848324
 20
16.08592166033637
 10
-0.8444983051147675
 20
15.67456867358993
 10
-0.6812662791653552
 20
16.09802027759362
 10
-0.6812662791653552
 20
15.74111106850479
  0
SOLID
  5
1803
330
1E
100
AcDbEntity
  8
TEXT_BUBBLES
100
AcDbTrace
 10
-0.9410147348664406
 20
16.15210050212115
 30
0.0
 11
-0.9832817974250191
 21
16.21405609446494
 31
0.0
 12
-1.148015043177085
 22
16.05627711061732
 32
0.0
 13
-1.148015043177085
 23
16.05627711061732
 33
0.0
  0
LINE
  5
1804
330
1E
100
AcDbEntity
  8
TEXT_BUBBLES
100
AcDbLine
 10
-1.13057660249234
 20
16.91113007345866
 30
0.0
 11
-0.5618050814827841
 21
17.17605729705367
 31
0.0
  0
LWPOLYLINE
  5
1805
330
1E
100
AcDbEntity
  8
IMAGE
100
AcDbPolyline
 90
       19
 70
     0
 43
0.0104166666666667
 10
-1.701567117099975
 20
16.61164409083201
 10
-1.723129226473823
 20
16.56417658196108
 10
-1.736066492098133
 20
16.51670907309014
 10
-1.744691335847672
 20
16.47787202037756
 10
-1.736066492098133
 20
16.44766542382333
 10
-1.705879538974744
 20
16.44335019574415
 10
-1.671380163976586
 20
16.45198065190251
 10
-1.645505632727967
 20
16.46061110806086
 10
-1.628255945228888
 20
16.45629587998168
 10
-1.606693835855039
 20
16.45198065190251
 10
-1.602381413980269
 20
16.4174588272691
 10
-1.611006257729808
 20
16.39156745879405
 10
-1.623943523354118
 20
16.37430654647735
 10
-1.641193210853198
 20
16.34409994992312
 10
-1.662755320227046
 20
16.32252380952723
 10
-1.680005007726124
 20
16.28800198489383
 10
-1.688629851475665
 20
16.26211061641877
 10
-1.697254695225205
 20
16.23190401986454
 10
-1.705879538974744
 20
16.21895833562701
  0
LWPOLYLINE
  5
181A
330
1E
100
AcDbEntity
  8
IMAGE
100
AcDbPolyline
 90
        2
 70
     1
 43
0.0572916666666667
 10
-1.745569678061732
 20
15.68004874898539
 42
1.0
 10
-1.646611344728399
 20
15.68004874898539
 42
1.0
  0
LWPOLYLINE
  5
181E
330
1E
100
AcDbEntity
  8
IMAGE
100
AcDbPolyline
 90
        2
 70
     1
 43
0.0572916666666667
 10
-1.745569678061732
 20
16.14561529014591
 42
1.0
 10
-1.646611344728399
 20
16.14561529014591
 42
1.0
  0
LWPOLYLINE
  5
1823
330
1E
100
AcDbEntity
  8
IMAGE
100
AcDbPolyline
 90
        2
 70
     1
 43
0.0572916666666667
 10
-1.235644384366505
 20
15.68004874898539
 42
1.0
 10
-1.136686051033171
 20
15.68004874898539
 42
1.0
  0
LWPOLYLINE
  5
1827
330
1E
100
AcDbEntity
  8
IMAGE
100
AcDbPolyline
 90
        2
 70
     0
 43
0.0104166666666667
 10
-1.696932218406146
 20
16.69100061877538
 10
-1.696932218406146
 20
17.14478355346605
  0
LWPOLYLINE
  5
182B
330
1E
100
AcDbEntity
  8
IMAGE
100
AcDbPolyline
 90
        2
 70
     0
 43
0.0208333333333333
 10
-1.69866676861515
 20
16.71984188942352
 10
-1.69866676861515
 20
17.13314216938452
  0
LWPOLYLINE
  5
182F
330
1E
100
AcDbEntity
  8
IMAGE
100
AcDbPolyline
 90
        2
 70
     1
 43
0.0572916666666667
 10
-1.745569678061732
 20
16.64165859769309
 42
1.0
 10
-1.646611344728399
 20
16.64165859769309
 42
1.0
  0
ARC
  5
1833
330
1E
100
AcDbEntity
  8
IMAGE
100
AcDbCircle
 10
-1.654453383863543
 20
17.17096350193463
 30
0.0
 40
0.0479037538740328
100
AcDbArc
 50
216.5903692677126
 51
8.797124314226424
  0
SOLID
  5
1834
330
1E
100
AcDbEntity
  8
TEXT_BUBBLES
100
AcDbTrace
 10
-1.114742915484804
 20
16.87713677476984
 30
0.0
 11
-1.146410289499876
 21
16.94512337214748
 31
0.0
 12
-1.334536394625267
 22
16.81612795141345
 32
0.0
 13
-1.334536394625267
 23
16.81612795141345
 33
0.0
  0
LINE
  5
1835
330
1E
100
AcDbEntity
  8
TEXT_BUBBLES
100
AcDbLine
 10
-0.9621482661457298
 20
16.18307829829305
 30
0.0
 11
-0.5618050814828041
 21
16.45619860577317
 31
0.0
  0
LINE
  5
1836
330
1E
100
AcDbEntity
  8
IMAGE
100
AcDbLine
 10
-0.8444983051147675
 20
15.68061798221855
 30
0.0
 11
-0.6812662791653552
 21
16.08592166033637
 31
0.0
  0
LINE
  5
1837
330
1E
100
AcDbEntity
  8
IMAGE
100
AcDbLine
 10
-0.9291371333848324
 20
16.08592166033637
 30
0.0
 11
-0.8444983051147675
 21
15.68061798221855
 31
0.0
  0
LINE
  5
1839
330
1E
100
AcDbEntity
  8
IMAGE
100
AcDbLine
 10
-0.6812662791653552
 20
16.08592166033637
 30
0.0
 11
-0.6812662791653552
 21
15.75925899439067
 31
0.0
  0
LWPOLYLINE
  5
183A
330
1E
100
AcDbEntity
  8
IMAGE
100
AcDbPolyline
 90
        2
 70
     1
 43
0.0572916666666667
 10
-0.7238581082302215
 20
15.68004874898539
 42
1.0
 10
-0.6248997748968894
 20
15.68004874898539
 42
1.0
  0
LWPOLYLINE
  5
183E
330
1E
100
AcDbEntity
  8
IMAGE
100
AcDbPolyline
 90
        2
 70
     0
 43
0.0104166666666667
 10
-0.6752206485746354
 20
15.90718725689725
 10
-0.5238790495700446
 20
15.90718725689725
  0
SOLID
  5
184B
330
1E
100
AcDbEntity
  8
TEXT_BUBBLES
100
AcDbTrace
 10
-2.50774415088679
 20
18.87375457116908
 30
0.0
 11
-2.538354513671186
 21
18.80528555854141
 31
0.0
 12
-2.317642294395982
 22
18.74768897650207
 32
0.0
 13
-2.317642294395982
 23
18.74768897650207
 33
0.0
  0
LINE
  5
1856
330
1E
100
AcDbEntity
  8
TEXT_BUBBLES
100
AcDbLine
 10
-2.523049332278988
 20
18.83952006485524
 30
0.0
 11
-2.943821117114884
 21
19.02763402311115
 31
0.0
  0
LINE
  5
1888
330
1E
100
AcDbEntity
  8
IMAGE
100
AcDbLine
 10
1.81856177271251
 20
17.41624601204905
 30
0.0
 11
1.81856177271251
 21
16.37457934538239
 31
0.0
  0
LINE
  5
1889
330
1E
100
AcDbEntity
  8
IMAGE
100
AcDbLine
 10
3.693561772712508
 20
16.37457934538239
 30
0.0
 11
3.693561772712508
 21
17.41624601204905
 31
0.0
  0
LINE
  5
188A
330
1E
100
AcDbEntity
  8
IMAGE
100
AcDbLine
 10
1.81856177271251
 20
16.37457934538239
 30
0.0
 11
3.693561772712508
 21
16.37457934538239
 31
0.0
  0
LWPOLYLINE
  5
188B
330
1E
100
AcDbEntity
  8
IMAGE
100
AcDbPolyline
 90
        3
 70
     0
 43
0.0104166666666667
 10
2.894630788657754
 20
15.58401603861733
 10
1.117597593339654
 20
15.58401603861733
 10
1.117597593339654
 20
16.61316564972023
  0
LWPOLYLINE
  5
1890
330
1E
100
AcDbEntity
  8
IMAGE
100
AcDbPolyline
 90
        4
 70
     0
 43
0.0104166666666667
 10
3.41584968770129
 20
15.59168598336283
 10
3.41584968770129
 20
15.23880661430669
 10
0.4782356089417644
 20
15.23880661430669
 10
0.4782356089417644
 20
15.87859444113713
  0
LWPOLYLINE
  5
1896
330
1E
100
AcDbEntity
  8
IMAGE
100
AcDbPolyline
 90
        3
 70
     0
 43
0.0104166666666667
 10
-0.1008857424563298
 20
14.67012681760559
 10
2.254076398058458
 20
14.67012681760559
 10
2.254241121158125
 20
15.58401603861733
  0
LWPOLYLINE
  5
189B
330
1E
100
AcDbEntity
  8
IMAGE
100
AcDbPolyline
 90
        2
 70
     1
 43
0.0572916666666667
 10
2.209246274445837
 20
15.58335511149194
 42
1.0
 10
2.30820460777917
 20
15.58335511149194
 42
1.0
  0
LWPOLYLINE
  5
189F
330
1E
100
AcDbEntity
  8
IMAGE
100
AcDbPolyline
 90
        2
 70
     0
 43
0.0104166666666667
 10
1.960435834510515
 20
16.88911814163506
 10
2.913832669540051
 20
16.88911814163506
  0
CIRCLE
  5
18A3
330
1E
100
AcDbEntity
  8
IMAGE
100
AcDbCircle
 10
1.461839545522873
 20
13.93837546742544
 30
0.0
 40
0.46875
  0
LINE
  5
18A4
330
1E
100
AcDbEntity
  8
IMAGE
100
AcDbLine
 10
0.9410062121895407
 20
13.3921198459091
 30
0.0
 11
1.151455397406678
 21
13.58710884063294
 31
0.0
  0
LINE
  5
18A5
330
1E
100
AcDbEntity
  8
IMAGE
100
AcDbLine
 10
1.982672878856207
 20
13.3921198459091
 30
0.0
 11
1.773114656254273
 21
13.58573728954554
 31
0.0
  0
LINE
  5
18A6
330
1E
100
AcDbEntity
  8
IMAGE
100
AcDbLine
 10
0.9410062121895407
 20
13.3921198459091
 30
0.0
 11
1.982672878856207
 21
13.3921198459091
 31
0.0
  0
LWPOLYLINE
  5
18A7
330
1E
100
AcDbEntity
  8
IMAGE
100
AcDbPolyline
 90
        3
 70
     0
 43
0.0104166666666667
 10
-0.0948401118656112
 20
14.83976408283979
 10
1.662557784060773
 20
14.83976408283979
 10
1.662239283752671
 20
15.23880661430669
  0
TEXT
  5
18AC
330
1E
100
AcDbEntity
  8
IMAGE
100
AcDbText
 10
0.3956125849761277
 20
16.90506384700285
 30
0.0
 40
0.125
  1
120 VAC
  7
L100
100
AcDbText
  0
LINE
  5
18AD
330
1E
100
AcDbEntity
  8
TEXT_BUBBLES
100
AcDbLine
 10
0.3980601186026138
 20
16.1431726914601
 30
0.0
 11
0.1012495491249582
 21
16.41926646603033
 31
0.0
  0
SOLID
  5
18AE
330
1E
100
AcDbEntity
  8
TEXT_BUBBLES
100
AcDbTrace
 10
0.256562427048525
 20
16.32208510937697
 30
0.0
 11
0.2061853018621911
 21
16.26652302466122
 31
0.0
 12
0.3980601186026138
 22
16.1431726914601
 32
0.0
 13
0.3980601186026138
 23
16.1431726914601
 33
0.0
  0
LWPOLYLINE
  5
18B4
330
1E
100
AcDbEntity
  8
IMAGE
100
AcDbPolyline
 90
        2
 70
     0
 43
0.0104166666666667
 10
0.492020438395066
 20
16.35251134990042
 10
0.492020438395066
 20
16.70794903147289
  0
LWPOLYLINE
  5
18B8
330
1E
100
AcDbEntity
  8
IMAGE
100
AcDbPolyline
 90
        2
 70
     1
 43
0.0572916666666667
 10
0.4409028552285294
 20
16.29116089904155
 42
1.0
 10
0.5398611885618615
 20
16.29116089904155
 42
1.0
  0
LWPOLYLINE
  5
18BC
330
1E
100
AcDbEntity
  8
IMAGE
100
AcDbPolyline
 90
        2
 70
     1
 43
0.0572916666666667
 10
0.4409028552285294
 20
15.93572321746909
 42
1.0
 10
0.5398611885618615
 20
15.93572321746909
 42
1.0
  0
LWPOLYLINE
  5
18C0
330
1E
100
AcDbEntity
  8
IMAGE
100
AcDbPolyline
 90
        2
 70
     0
 43
0.0125
 10
0.4801928143550188
 20
16.25557936936833
 10
0.3674727698396501
 20
16.07138010520483
  0
ARC
  5
18C4
330
1E
100
AcDbEntity
  8
IMAGE
100
AcDbCircle
 10
0.5314329097536614
 20
16.74811498454928
 30
0.0
 40
0.0479037538740328
100
AcDbArc
 50
216.5903692677126
 51
8.797124314226424
  0
LWPOLYLINE
  5
18C5
330
1E
100
AcDbEntity
  8
IMAGE
100
AcDbPolyline
 90
        2
 70
     0
 43
0.0
 10
0.4854667583622702
 20
16.72148162184291
 42
0.4827164187955699
 10
0.3996637704182675
 20
16.6856004570628
 42
0.4827164187955699
  0
LWPOLYLINE
  5
18C9
330
1E
100
AcDbEntity
  8
IMAGE
100
AcDbPolyline
 90
        2
 70
     1
 43
0.0572916666666667
 10
1.617300807843434
 20
15.24598139300318
 42
1.0
 10
1.716259141176766
 20
15.24598139300318
 42
1.0
  0
TEXT
  5
18CD
330
1E
100
AcDbEntity
  8
IMAGE
100
AcDbText
 10
1.226581161506441
 20
14.0723152353257
 30
0.0
 40
0.125
  1
PUMP
  7
L100
100
AcDbText
  0
TEXT
  5
18CE
330
1E
100
AcDbEntity
  8
IMAGE
100
AcDbText
 10
1.173940579997066
 20
13.86179881484858
 30
0.0
 40
0.125
  1
MOTOR
  7
L100
100
AcDbText
  0
LINE
  5
18CF
330
1E
100
AcDbEntity
  8
IMAGE
100
AcDbLine
 10
0.9411625768480586
 20
13.93837546742544
 30
0.0
 11
0.9411625768480586
 21
14.35681443183667
 31
0.0
  0
LINE
  5
18D0
330
1E
100
AcDbEntity
  8
IMAGE
100
AcDbLine
 10
0.9926686658068279
 20
13.93837546742544
 30
0.0
 11
0.9411625768480586
 21
13.93837546742544
 31
0.0
  0
LINE
  5
18D1
330
1E
100
AcDbEntity
  8
IMAGE
100
AcDbLine
 10
0.9411625768480586
 20
14.35681443183667
 30
0.0
 11
1.250199110600677
 21
14.35681443183667
 31
0.0
  0
LWPOLYLINE
  5
18D2
330
1E
100
AcDbEntity
  8
IMAGE
100
AcDbPolyline
 90
        2
 70
     0
 43
0.0
 10
1.112087495865869
 20
16.72148162184291
 42
0.4827164187955699
 10
1.026284507921866
 20
16.6856004570628
 42
0.4827164187955699
  0
LWPOLYLINE
  5
18D6
330
1E
100
AcDbEntity
  8
IMAGE
100
AcDbPolyline
 90
        2
 70
     0
 43
0.0104166666666667
 10
1.117597593339654
 20
16.61316564972023
 10
1.117597593339654
 20
16.70794903147289
  0
ARC
  5
18DA
330
1E
100
AcDbEntity
  8
IMAGE
100
AcDbCircle
 10
1.15805364725726
 20
16.74811498454928
 30
0.0
 40
0.0479037538740328
100
AcDbArc
 50
216.5903692677126
 51
8.797124314226424
  0
LWPOLYLINE
  5
18DB
330
1E
100
AcDbEntity
  8
IMAGE
100
AcDbPolyline
 90
        2
 70
     0
 43
0.0104166666666667
 10
1.96241941906987
 20
16.58144613750079
 10
1.96241941906987
 20
17.20644613750079
  0
LWPOLYLINE
  5
18DF
330
1E
100
AcDbEntity
  8
IMAGE
100
AcDbPolyline
 90
        2
 70
     1
 43
0.0572916666666667
 10
2.11471702676002
 20
16.6619796337232
 42
1.0
 10
2.213675360093352
 20
16.6619796337232
 42
1.0
  0
LWPOLYLINE
  5
18E3
330
1E
100
AcDbEntity
  8
IMAGE
100
AcDbPolyline
 90
        2
 70
     1
 43
0.0572916666666667
 10
2.11471702676002
 20
17.12754617488372
 42
1.0
 10
2.213675360093352
 20
17.12754617488372
 42
1.0
  0
LWPOLYLINE
  5
18E7
330
1E
100
AcDbEntity
  8
IMAGE
100
AcDbPolyline
 90
        7
 70
     0
 43
0.0104166666666667
 10
2.903994697425318
 20
16.7230419532426
 10
2.903994697425318
 20
17.06785254507418
 10
3.085363615146888
 20
16.65649955832773
 10
3.163956812826235
 20
17.06785254507418
 10
3.248595641096301
 20
16.65649955832773
 10
3.411827667045715
 20
17.07995116233143
 10
3.411827667045715
 20
16.7230419532426
  0
LWPOLYLINE
  5
18F0
330
1E
100
AcDbEntity
  8
IMAGE
100
AcDbPolyline
 90
        2
 70
     1
 43
0.0572916666666667
 10
2.857449561844565
 20
16.6619796337232
 42
1.0
 10
2.956407895177897
 20
16.6619796337232
 42
1.0
  0
LWPOLYLINE
  5
18F4
330
1E
100
AcDbEntity
  8
IMAGE
100
AcDbPolyline
 90
        2
 70
     0
 43
0.0104166666666667
 10
2.894630788657754
 20
16.59644874502236
 10
2.894630788657754
 20
15.58401603861733
  0
LWPOLYLINE
  5
18F8
330
1E
100
AcDbEntity
  8
IMAGE
100
AcDbPolyline
 90
        2
 70
     0
 43
0.0104166666666667
 10
3.41584968770129
 20
16.59644874502236
 10
3.41584968770129
 20
15.59168598336283
  0
LWPOLYLINE
  5
18FC
330
1E
100
AcDbEntity
  8
IMAGE
100
AcDbPolyline
 90
        2
 70
     1
 43
0.0572916666666667
 10
3.369235837980846
 20
16.6619796337232
 42
1.0
 10
3.468194171314178
 20
16.6619796337232
 42
1.0
  0
LWPOLYLINE
  5
1900
330
1E
100
AcDbEntity
  8
IMAGE
100
AcDbPolyline
 90
        2
 70
     0
 43
0.0104166666666667
 10
3.417873297636433
 20
16.88911814163506
 10
3.569214896641026
 20
16.88911814163506
  0
LINE
  5
1904
330
1E
100
AcDbEntity
  8
IMAGE
100
AcDbLine
 10
3.693561772712508
 20
17.41624601204905
 30
0.0
 11
1.81856177271251
 21
17.41624601204905
 31
0.0
  0
TEXT
  5
1907
330
1E
100
AcDbEntity
  8
IMAGE
100
AcDbText
 10
0.5121734007797324
 20
18.02788318647534
 30
0.0
 40
0.125
  1
YELLOW
  7
L100
100
AcDbText
  0
TEXT
  5
1908
330
1E
100
AcDbEntity
  8
IMAGE
100
AcDbText
 10
0.5121734007797324
 20
18.34359700376353
 30
0.0
 40
0.125
  1
YELLOW
  7
L100
100
AcDbText
  0
LINE
  5
1916
330
1E
100
AcDbEntity
  8
TEXT_BUBBLES
100
AcDbLine
 10
2.975192075317832
 20
17.59810599463696
 30
0.0
 11
3.765169654100324
 21
18.27957473398524
 31
0.0
  0
SOLID
  5
1917
330
1E
100
AcDbEntity
  8
TEXT_BUBBLES
100
AcDbTrace
 10
2.999686662692591
 20
17.56971118543985
 30
0.0
 11
2.950697487943071
 21
17.62650080383407
 31
0.0
 12
2.804823220135176
 22
17.45113847038839
 32
0.0
 13
2.804823220135176
 23
17.45113847038839
 33
0.0
  0
LINE
  5
195E
330
1E
100
AcDbEntity
  8
IMAGE
100
AcDbLine
 10
-1.030929631003212
 20
17.93719604842859
 30
0.0
 11
-1.181877764064799
 21
17.93719604842859
 31
0.0
  0
LINE
  5
195F
330
1E
100
AcDbEntity
  8
IMAGE
100
AcDbLine
 10
-1.030929631003212
 20
18.7349200811374
 30
0.0
 11
-1.181877764064799
 21
18.7349200811374
 31
0.0
  0
LINE
  5
1960
330
1E
100
AcDbEntity
  8
IMAGE
100
AcDbLine
 10
-1.030929631003212
 20
17.83751414732394
 30
0.0
 11
-1.181877764064799
 21
17.83751414732394
 31
0.0
  0
LINE
  5
1961
330
1E
100
AcDbEntity
  8
IMAGE
100
AcDbLine
 10
-1.030929631003212
 20
18.83460198224204
 30
0.0
 11
-1.181877764064799
 21
18.83460198224204
 31
0.0
  0
LINE
  5
1962
330
1E
100
AcDbEntity
  8
IMAGE
100
AcDbLine
 10
-1.330217060350518
 20
17.91012891459305
 30
0.0
 11
-1.330217060350518
 21
18.76198721497293
 31
0.0
  0
LINE
  5
1963
330
1E
100
AcDbEntity
  8
IMAGE
100
AcDbLine
 10
-1.343295185221933
 20
18.74890909010153
 30
0.0
 11
-1.343295185221933
 21
17.92320703946447
 31
0.0
  0
ARC
  5
1964
330
1E
100
AcDbEntity
  8
IMAGE
100
AcDbCircle
 10
-1.343295185221933
 20
18.76198721497293
 30
0.0
 40
0.0130781248714132
100
AcDbArc
 50
270.0
 51
0.0
  0
LINE
  5
1965
330
1E
100
AcDbEntity
  8
IMAGE
100
AcDbLine
 10
-1.330217060350518
 20
18.76508448042468
 30
0.0
 11
-1.330217060350518
 21
18.76198721497293
 31
0.0
  0
ARC
  5
1966
330
1E
100
AcDbEntity
  8
IMAGE
100
AcDbCircle
 10
-1.343295185221933
 20
17.91012891459305
 30
0.0
 40
0.0130781248714132
100
AcDbArc
 50
0.0
 51
90.0
  0
ARC
  5
1967
330
1E
100
AcDbEntity
  8
IMAGE
100
AcDbCircle
 10
-1.313012058018813
 20
18.76508448042468
 30
0.0
 40
0.0172050023317048
100
AcDbArc
 50
90.0
 51
180.0
  0
ARC
  5
1968
330
1E
100
AcDbEntity
  8
IMAGE
100
AcDbCircle
 10
-1.313012058018813
 20
17.9070316491413
 30
0.0
 40
0.0172050023317048
100
AcDbArc
 50
180.0000000000002
 51
270.0
  0
ARC
  5
1969
330
1E
100
AcDbEntity
  8
IMAGE
100
AcDbCircle
 10
-3.113828241660764
 20
17.99983690627026
 30
0.0
 40
0.0766298668058036
100
AcDbArc
 50
180.0000000000002
 51
270.0
  0
ARC
  5
196A
330
1E
100
AcDbEntity
  8
IMAGE
100
AcDbCircle
 10
-3.113828241660769
 20
18.67227922329572
 30
0.0
 40
0.0766298668058036
100
AcDbArc
 50
90.00000000000005
 51
180.0
  0
ARC
  5
196B
330
1E
100
AcDbEntity
  8
IMAGE
100
AcDbCircle
 10
-1.16579627490825
 20
17.88735509787626
 30
0.0
 40
0.0354752241723299
100
AcDbArc
 50
134.9999999999998
 51
224.9999999999999
  0
LINE
  5
196C
330
1E
100
AcDbEntity
  8
IMAGE
100
AcDbLine
 10
-1.181877764064799
 20
17.91243986945263
 30
0.0
 11
-1.190881046484617
 21
17.91243986945263
 31
0.0
  0
LINE
  5
196D
330
1E
100
AcDbEntity
  8
IMAGE
100
AcDbLine
 10
-1.181877764064799
 20
17.86227032629989
 30
0.0
 11
-1.190881046484617
 21
17.86227032629989
 31
0.0
  0
ARC
  5
196E
330
1E
100
AcDbEntity
  8
IMAGE
100
AcDbCircle
 10
-1.16579627490825
 20
18.78476103168972
 30
0.0
 40
0.0354752241723299
100
AcDbArc
 50
134.9999999999998
 51
224.9999999999999
  0
LINE
  5
196F
330
1E
100
AcDbEntity
  8
IMAGE
100
AcDbLine
 10
-1.181877764064799
 20
18.75967626011336
 30
0.0
 11
-1.190881046484617
 21
18.75967626011336
 31
0.0
  0
LINE
  5
1970
330
1E
100
AcDbEntity
  8
IMAGE
100
AcDbLine
 10
-1.181877764064799
 20
18.80984580326609
 30
0.0
 11
-1.190881046484617
 21
18.80984580326609
 31
0.0
  0
LINE
  5
1971
330
1E
100
AcDbEntity
  8
IMAGE
100
AcDbLine
 10
-1.181877764064799
 20
17.83751414732394
 30
0.0
 11
-1.181877764064799
 21
18.83460198224204
 31
0.0
  0
LINE
  5
1972
330
1E
100
AcDbEntity
  8
IMAGE
100
AcDbLine
 10
-1.201185298290466
 20
17.88982664680959
 30
0.0
 11
-1.313012058018813
 21
17.88982664680959
 31
0.0
  0
LINE
  5
1973
330
1E
100
AcDbEntity
  8
IMAGE
100
AcDbLine
 10
-1.201185298290466
 20
18.78228948275639
 30
0.0
 11
-1.313012058018813
 21
18.78228948275639
 31
0.0
  0
LINE
  5
1974
330
1E
100
AcDbEntity
  8
IMAGE
100
AcDbLine
 10
-1.343295185221933
 20
17.92320703946447
 30
0.0
 11
-3.113828241660764
 21
17.92320703946447
 31
0.0
  0
LINE
  5
1975
330
1E
100
AcDbEntity
  8
IMAGE
100
AcDbLine
 10
-1.343295185221933
 20
18.74890909010153
 30
0.0
 11
-3.113828241660769
 21
18.74890909010153
 31
0.0
  0
LINE
  5
1976
330
1E
100
AcDbEntity
  8
IMAGE
100
AcDbLine
 10
-3.190458108466567
 20
17.99983690627026
 30
0.0
 11
-3.190458108466573
 21
18.67227922329572
 31
0.0
  0
LINE
  5
1977
330
1E
100
AcDbEntity
  8
IMAGE
100
AcDbLine
 10
-1.330217060350518
 20
17.9070316491413
 30
0.0
 11
-1.330217060350518
 21
17.91012891459305
 31
0.0
  0
LINE
  5
1978
330
1E
100
AcDbEntity
  8
IMAGE
100
AcDbLine
 10
-1.030929631003212
 20
18.20475446127895
 30
0.0
 11
-0.8381500912601648
 21
18.20475446127895
 31
0.0
  0
LINE
  5
1979
330
1E
100
AcDbEntity
  8
IMAGE
100
AcDbLine
 10
-0.8381500912601648
 20
18.46736166828703
 30
0.0
 11
-0.8381500912601648
 21
18.20475446127895
 31
0.0
  0
LINE
  5
197A
330
1E
100
AcDbEntity
  8
IMAGE
100
AcDbLine
 10
-1.030929631003212
 20
18.46736166828703
 30
0.0
 11
-0.8381500912601648
 21
18.46736166828703
 31
0.0
  0
LINE
  5
197B
330
1E
100
AcDbEntity
  8
IMAGE
100
AcDbLine
 10
-1.030929631003216
 20
17.85495474768011
 30
0.0
 11
-1.008698780568624
 21
17.85495474768011
 31
0.0
  0
LINE
  5
197C
330
1E
100
AcDbEntity
  8
IMAGE
100
AcDbLine
 10
-1.030929631003216
 20
17.91975544807242
 30
0.0
 11
-1.008698780568624
 21
17.91975544807242
 31
0.0
  0
LINE
  5
197D
330
1E
100
AcDbEntity
  8
IMAGE
100
AcDbLine
 10
-1.008698780568624
 20
17.85495474768011
 30
0.0
 11
-1.008698780568624
 21
17.91975544807242
 31
0.0
  0
LINE
  5
197E
330
1E
100
AcDbEntity
  8
IMAGE
100
AcDbLine
 10
-1.008698780568624
 20
17.86951651947074
 30
0.0
 11
-1.030929631003216
 21
17.86951651947074
 31
0.0
  0
LINE
  5
197F
330
1E
100
AcDbEntity
  8
IMAGE
100
AcDbLine
 10
-1.008698780568624
 20
17.9051936762818
 30
0.0
 11
-1.030929631003216
 21
17.9051936762818
 31
0.0
  0
LINE
  5
1980
330
1E
100
AcDbEntity
  8
IMAGE
100
AcDbLine
 10
-1.008698780568624
 20
17.8762373656709
 30
0.0
 11
-0.9829460255018714
 21
17.8762373656709
 31
0.0
  0
LINE
  5
1981
330
1E
100
AcDbEntity
  8
IMAGE
100
AcDbLine
 10
-1.008698780568624
 20
17.89847283008162
 30
0.0
 11
-0.9829460255018714
 21
17.89847283008162
 31
0.0
  0
LINE
  5
1982
330
1E
100
AcDbEntity
  8
IMAGE
100
AcDbLine
 10
-0.9829460255018714
 20
17.8762373656709
 30
0.0
 11
-0.9829460255018714
 21
17.89847283008162
 31
0.0
  0
LINE
  5
1983
330
1E
100
AcDbEntity
  8
IMAGE
100
AcDbLine
 10
-0.9829460255018714
 20
18.79587876389508
 30
0.0
 11
-0.9829460255018714
 21
18.77364329948436
 31
0.0
  0
LINE
  5
1984
330
1E
100
AcDbEntity
  8
IMAGE
100
AcDbLine
 10
-1.008698780568624
 20
18.77364329948436
 30
0.0
 11
-0.9829460255018714
 21
18.77364329948436
 31
0.0
  0
LINE
  5
1985
330
1E
100
AcDbEntity
  8
IMAGE
100
AcDbLine
 10
-1.008698780568624
 20
18.79587876389508
 30
0.0
 11
-0.9829460255018714
 21
18.79587876389508
 31
0.0
  0
LINE
  5
1986
330
1E
100
AcDbEntity
  8
IMAGE
100
AcDbLine
 10
-1.008698780568624
 20
18.76692245328419
 30
0.0
 11
-1.030929631003216
 21
18.76692245328419
 31
0.0
  0
LINE
  5
1987
330
1E
100
AcDbEntity
  8
IMAGE
100
AcDbLine
 10
-1.008698780568624
 20
18.80259961009525
 30
0.0
 11
-1.030929631003216
 21
18.80259961009525
 31
0.0
  0
LINE
  5
1988
330
1E
100
AcDbEntity
  8
IMAGE
100
AcDbLine
 10
-1.008698780568624
 20
18.81716138188588
 30
0.0
 11
-1.008698780568624
 21
18.75236068149356
 31
0.0
  0
LINE
  5
1989
330
1E
100
AcDbEntity
  8
IMAGE
100
AcDbLine
 10
-1.030929631003216
 20
18.75236068149356
 30
0.0
 11
-1.008698780568624
 21
18.75236068149356
 31
0.0
  0
LINE
  5
198A
330
1E
100
AcDbEntity
  8
IMAGE
100
AcDbLine
 10
-1.030929631003216
 20
18.81716138188588
 30
0.0
 11
-1.008698780568624
 21
18.81716138188588
 31
0.0
  0
LINE
  5
198B
330
1E
100
AcDbEntity
  8
IMAGE
100
AcDbLine
 10
-1.067986346740902
 20
17.83751414732394
 30
0.0
 11
-1.06798634674092
 21
18.83460198224204
 31
0.0
  0
LINE
  5
198C
330
1E
100
AcDbEntity
  8
IMAGE
100
AcDbLine
 10
-1.030929631003207
 20
17.83751414732394
 30
0.0
 11
-1.030929631003216
 21
18.83460198224204
 31
0.0
  0
LWPOLYLINE
  5
19A6
330
1E
100
AcDbEntity
  8
IMAGE
100
AcDbPolyline
 90
        4
 70
     1
 43
0.0
 10
-4.215981671347156
 20
10.73595549101727
 10
12.27401832865284
 20
10.73595549101727
 10
12.27401832865284
 20
21.17595549101727
 10
-4.215981671347156
 20
21.17595549101727
  0
INSERT
  5
19A7
330
1E
100
AcDbEntity
  8
TEXT_BUBBLES
100
AcDbBlockReference
 66
     1
  2
TITLBLK
 10
-3.609539300832673
 20
11.62018258749564
 30
0.0
  0
ATTRIB
  5
19A8
330
19A7
100
AcDbEntity
  8
TITLE
100
AcDbText
 10
-2.984539300832673
 20
11.72018258749564
 30
0.0
 40
0.2
  1
MAXICOM PUMP MONITORING CONDITION
  7
L200
100
AcDbAttribute
  2
TITLE2
 70
     0
  0
ATTRIB
  5
19A9
330
19A7
100
AcDbEntity
  8
TITLE
100
AcDbText
 10
-3.842622520477966
 20
11.52147863115185
 30
0.0
 40
0.2
  1
401
  7
L200
 72
     4
 11
-3.609539300832673
 21
11.62018258749564
 31
0.0
100
AcDbAttribute
  2
#
 70
     0
  0
ATTRIB
  5
19AA
330
19A7
100
AcDbEntity
  8
TITLE
 62
     7
100
AcDbText
 10
-2.984539300832673
 20
11.43651927041276
 30
0.0
 40
0.1
  1
N.T.S.
  7
L100
100
AcDbAttribute
  2
SCALE
 70
     0
  0
ATTRIB
  5
19AB
330
19A7
100
AcDbEntity
  8
TITLE
100
AcDbText
 10
-1.502335920178844
 20
11.32874825747559
 30
0.0
 40
0.2
  1
TWO-WIRE COMMUNICATION
  7
L200
100
AcDbAttribute
  2
TITLE3
 70
     0
  0
ATTRIB
  5
19AC
330
19A7
100
AcDbEntity
  8
TITLE
 62
     7
100
AcDbText
 10
-3.955290184112449
 20
10.80258239368927
 30
0.0
 40
0.08
  1
401-PUMP MONITOR-TW.DWG
  7
L80
 72
     2
 11
-2.187671136493402
 21
10.80258239368927
 31
0.0
100
AcDbAttribute
  2
DWG-NAME
 70
     0
  0
ATTRIB
  5
19AD
330
19A7
100
AcDbEntity
  8
TITLE
 62
     7
100
AcDbText
 10
3.515518872904936
 20
11.70555828256191
 30
0.0
 40
0.08
  1
1-16-04
  7
L80
 72
     2
 11
4.045042682428745
 21
11.70555828256191
 31
0.0
100
AcDbAttribute
  2
REVISED
 70
     0
  0
ATTRIB
  5
19AE
330
19A7
100
AcDbEntity
  8
TITLE
100
AcDbText
 10
-3.192102485541449
 20
12.07966779376403
 30
0.0
 40
0.2
  1

  7
L200
100
AcDbAttribute
  2
TITLE1
 70
     0
  0
ATTRIB
  5
19AF
330
19A7
100
AcDbEntity
  8
TITLE
100
AcDbText
 10
-1.502335920178844
 20
11.00521157183405
 30
0.0
 40
0.2
  1

  7
L200
100
AcDbAttribute
  2
TITLE4
 70
     0
  0
SEQEND
  5
19B0
330
19A7
100
AcDbEntity
  8
TEXT_BUBBLES
  0
INSERT
  5
19B1
330
1E
100
AcDbEntity
  8
TEXT_BUBBLES
100
AcDbBlockReference
 66
     1
  2
bubble
 10
-3.044179243269812
 20
19.13325622023394
 30
0.0
  0
ATTRIB
  5
19B2
330
19B1
100
AcDbEntity
  8
TEXT_BUBBLES
100
AcDbText
 10
-3.094774481365051
 20
19.07075622023393
 30
0.0
 40
0.125
  1
1
  7
ROMANS
 72
     4
 11
-3.044179243269812
 21
19.13325622023394
 31
0.0
100
AcDbAttribute
  2
XX
 70
     0
  0
SEQEND
  5
19B3
330
19B1
100
AcDbEntity
  8
TEXT_BUBBLES
  0
INSERT
  5
1A05
330
1E
100
AcDbEntity
  8
IMAGE
100
AcDbBlockReference
  2
IDAEP
 10
2.186510221814709
 20
19.19790997452709
 30
0.0
 41
0.1875000000000002
 42
0.1875000000000027
 43
0.1875
 50
180.0
  0
INSERT
  5
1A06
330
1E
100
AcDbEntity
  8
IMAGE
100
AcDbBlockReference
  2
IDAEP
 10
2.186510221814709
 20
19.86012393536469
 30
0.0
 41
0.1875000000000002
 42
0.1875000000000027
 43
0.1875
 50
180.0
  0
TEXT
  5
1A07
330
1E
100
AcDbEntity
  8
IMAGE
100
AcDbText
 10
1.169764158138551
 20
19.90456954909088
 30
0.0
 40
0.125
  1
RED
  7
ROMANS
100
AcDbText
  0
LINE
  5
1A08
330
1E
100
AcDbEntity
  8
IMAGE
100
AcDbLine
 10
-0.0374854025087714
 20
20.11836048236478
 30
0.0
 11
-0.0432020009133929
 21
19.96000747519574
 31
0.0
  0
LINE
  5
1A09
330
1E
100
AcDbEntity
  8
IMAGE
100
AcDbLine
 10
-0.0538024678917539
 20
20.11836975266223
 30
0.0
 11
-0.0662708595096486
 21
19.96002058142386
 31
0.0
  0
LINE
  5
1A0A
330
1E
100
AcDbEntity
  8
IMAGE
100
AcDbLine
 10
-0.0043352382100927
 20
20.11834164859311
 30
0.0
 11
0.0079532179746953
 21
19.95997841212072
 31
0.0
  0
LINE
  5
1A0B
330
1E
100
AcDbEntity
  8
IMAGE
100
AcDbLine
 10
-0.0206523035930708
 20
20.11835091889056
 30
0.0
 11
-0.0151156406215582
 21
19.95999151834884
 31
0.0
  0
LINE
  5
1A0C
330
1E
100
AcDbEntity
  8
IMAGE
100
AcDbLine
 10
0.0261500263054879
 20
19.95996807387533
 30
0.0
 11
0.0094097922726086
 21
20.12343327319322
 31
0.0
  0
LINE
  5
1A0D
330
1E
100
AcDbEntity
  8
IMAGE
100
AcDbLine
 10
-0.0844676678404435
 20
19.96003091966925
 30
0.0
 11
-0.0675417040419193
 21
20.12347699203872
 31
0.0
  0
TEXT
  5
1A0E
330
1E
100
AcDbEntity
  8
IMAGE
100
AcDbText
 10
-2.09133170478535
 20
19.52093867884368
 30
0.0
 40
0.125
  1
2 WIRE PATH
  7
ROMANS
100
AcDbText
  0
TEXT
  5
1A0F
330
1E
100
AcDbEntity
  8
IMAGE
100
AcDbText
 10
-1.305928394705129
 20
18.93333754850851
 30
0.0
 40
0.125
  1
BLACK
  7
ROMANS
 72
     2
 11
-0.7404522042289392
 21
18.93333754850851
 31
0.0
100
AcDbText
  0
LWPOLYLINE
  5
1A10
330
1E
100
AcDbEntity
  8
IMAGE
100
AcDbPolyline
 90
        3
 70
     0
 43
0.01875
 10
-0.07837488788097
 20
19.9407415264404
 10
-0.07837488788097
 20
19.86012393536469
 10
-2.444568851633465
 20
19.86012393536469
  0
LWPOLYLINE
  5
1A11
330
1E
100
AcDbEntity
  8
IMAGE
100
AcDbPolyline
 90
        3
 70
     0
 43
0.01875
 10
-0.2991309939374844
 20
19.2785275656028
 10
-0.2991309939374844
 20
19.19790997452709
 10
-2.444568851633464
 20
19.19790997452709
  0
LINE
  5
1A12
330
1E
100
AcDbEntity
  8
IMAGE
100
AcDbLine
 10
-2.308227032237477
 20
19.58635064222238
 30
0.0
 11
-2.140161927821923
 21
19.58635064222238
 31
0.0
  0
LINE
  5
1A13
330
1E
100
AcDbEntity
  8
IMAGE
100
AcDbLine
 10
-2.308227032237477
 20
19.2089234290548
 30
0.0
 11
-2.308227032237477
 21
19.58635064222238
 31
0.0
  0
SOLID
  5
1A14
330
1E
100
AcDbEntity
  8
IMAGE
100
AcDbTrace
 10
-2.270727032237477
 20
19.43392342905479
 30
0.0
 11
-2.345727032237477
 21
19.43392342905479
 31
0.0
 12
-2.308227032237477
 22
19.2089234290548
 32
0.0
 13
-2.308227032237477
 23
19.2089234290548
 33
0.0
  0
INSERT
  5
1A15
330
1E
100
AcDbEntity
  8
IMAGE
100
AcDbBlockReference
  2
IDAEP
 10
-2.444568851633464
 20
19.19790997452709
 30
0.0
 41
0.1874999999999999
 42
0.1875000000000027
 43
0.1875
  0
INSERT
  5
1A16
330
1E
100
AcDbEntity
  8
IMAGE
100
AcDbBlockReference
  2
IDAEP
 10
-2.444568851633465
 20
19.86012393536469
 30
0.0
 41
0.1874999999999999
 42
0.1875000000000027
 43
0.1875
  0
TEXT
  5
1A17
330
1E
100
AcDbEntity
  8
IMAGE
100
AcDbText
 10
0.4127436255881147
 20
18.93355633082383
 30
0.0
 40
0.125
  1
RED
  7
ROMANS
100
AcDbText
  0
LWPOLYLINE
  5
1A18
330
1E
100
AcDbEntity
  8
IMAGE
100
AcDbPolyline
 90
        3
 70
     0
 43
0.01875
 10
0.0200353958531239
 20
19.9407415264404
 10
0.0200353958531239
 20
19.86012393536469
 10
2.186510221814709
 20
19.86012393536469
  0
LWPOLYLINE
  5
1A19
330
1E
100
AcDbEntity
  8
IMAGE
100
AcDbPolyline
 90
        3
 70
     0
 43
0.01875
 10
-0.2007207102033905
 20
19.2785275656028
 10
-0.2007207102033905
 20
19.19790997452709
 10
2.186510221814709
 20
19.19790997452709
  0
LINE
  5
1A1A
330
1E
100
AcDbEntity
  8
IMAGE
100
AcDbLine
 10
-0.6213513716058535
 20
19.58635064222238
 30
0.0
 11
-0.7831918241944546
 21
19.58635064222238
 31
0.0
  0
LINE
  5
1A1B
330
1E
100
AcDbEntity
  8
IMAGE
100
AcDbLine
 10
-0.6213513716058535
 20
19.63512393536469
 30
0.0
 11
-0.6213513716058535
 21
19.58635064222238
 31
0.0
  0
SOLID
  5
1A1C
330
1E
100
AcDbEntity
  8
IMAGE
100
AcDbTrace
 10
-0.6588513716058536
 20
19.63512393536469
 30
0.0
 11
-0.5838513716058538
 21
19.63512393536469
 31
0.0
 12
-0.6213513716058535
 22
19.86012393536469
 32
0.0
 13
-0.6213513716058535
 23
19.86012393536469
 33
0.0
  0
SOLID
  5
1A1D
330
1E
100
AcDbEntity
  8
IMAGE
100
AcDbTrace
 10
0.1958302539860772
 20
19.03898950485386
 30
0.0
 11
0.1958302539860772
 21
18.96398950485387
 31
0.0
 12
-0.0291697460139231
 22
19.00148950485386
 32
0.0
 13
-0.0291697460139231
 23
19.00148950485386
 33
0.0
  0
LINE
  5
1A1E
330
1E
100
AcDbEntity
  8
IMAGE
100
AcDbLine
 10
0.195830253986077
 20
19.00148950485386
 30
0.0
 11
0.402751159400808
 21
19.00148950485386
 31
0.0
  0
LINE
  5
1A1F
330
1E
100
AcDbEntity
  8
IMAGE
100
AcDbLine
 10
-0.4749258520704377
 20
19.00148950485386
 30
0.0
 11
-0.6988359475250645
 21
19.00148950485386
 31
0.0
  0
SOLID
  5
1A20
330
1E
100
AcDbEntity
  8
IMAGE
100
AcDbTrace
 10
-0.4749258520704377
 20
19.03898950485386
 30
0.0
 11
-0.4749258520704377
 21
18.96398950485387
 31
0.0
 12
-0.2499258520704375
 22
19.00148950485386
 32
0.0
 13
-0.2499258520704375
 23
19.00148950485386
 33
0.0
  0
LWPOLYLINE
  5
1A21
330
1E
100
AcDbEntity
  8
IMAGE
100
AcDbPolyline
 90
        7
 70
     0
 43
0.01875
 10
-0.0291697460139231
 20
19.94076948160824
 10
-0.0291697460139231
 20
19.86012393536469
 10
-0.0291697460139231
 20
19.23961652151599
 42
-1.0
 10
-0.0291697460139231
 20
19.1562034275382
 10
-0.0291697460139231
 20
18.40370247298535
 10
-0.7190226550720979
 20
18.40370247298535
 10
-0.8381500912601648
 20
18.37752455471041
  0
LWPOLYLINE
  5
1A22
330
1E
100
AcDbEntity
  8
IMAGE
100
AcDbPolyline
 90
        5
 70
     0
 43
0.01875
 10
-0.8381500912601648
 20
18.42857150050108
 10
-0.7190226550720979
 20
18.46391170563585
 10
-0.2499258520704382
 20
18.46391170563585
 10
-0.2499258520704375
 20
19.19790997452709
 10
-0.2499258520704375
 20
19.27855552077064
  0
ARC
  5
1A23
330
1E
100
AcDbEntity
  8
IMAGE
100
AcDbCircle
 10
-0.2498253335574243
 20
19.45548265360908
 30
0.0
 40
0.0389042956022208
100
AcDbArc
 50
8.479507237339223
 51
171.4553892836566
  0
LINE
  5
1A24
330
1E
100
AcDbEntity
  8
IMAGE
100
AcDbLine
 10
-0.1801886812447009
 20
19.27851590063663
 30
0.0
 11
-0.3196630228961741
 21
19.27859514090465
 31
0.0
  0
LINE
  5
1A25
330
1E
100
AcDbEntity
  8
IMAGE
100
AcDbLine
 10
-0.18017775599826
 20
19.29774591580068
 30
0.0
 11
-0.1801886812447009
 21
19.27851590063663
 31
0.0
  0
LINE
  5
1A26
330
1E
100
AcDbEntity
  8
IMAGE
100
AcDbLine
 10
-0.18017775599826
 20
19.29774591580068
 30
0.0
 11
-0.3196520976497243
 21
19.2978251560687
 31
0.0
  0
LINE
  5
1A27
330
1E
100
AcDbEntity
  8
IMAGE
100
AcDbLine
 10
-0.3196520976497243
 20
19.2978251560687
 30
0.0
 11
-0.3196630228961741
 21
19.27859514090465
 31
0.0
  0
LINE
  5
1A28
330
1E
100
AcDbEntity
  8
IMAGE
100
AcDbLine
 10
-0.3052237738969579
 20
19.29781695883165
 30
0.0
 11
-0.2882978100984337
 21
19.46126303120112
 31
0.0
  0
LINE
  5
1A29
330
1E
100
AcDbEntity
  8
IMAGE
100
AcDbLine
 10
-0.1946060797510265
 20
19.29775411303773
 30
0.0
 11
-0.2113463137839058
 21
19.46121931235562
 31
0.0
  0
LINE
  5
1A2A
330
1E
100
AcDbEntity
  8
IMAGE
100
AcDbLine
 10
-0.2414084096495852
 20
19.45613695805296
 30
0.0
 11
-0.2358717466780726
 21
19.29777755751124
 31
0.0
  0
LINE
  5
1A2B
330
1E
100
AcDbEntity
  8
IMAGE
100
AcDbLine
 10
-0.2250913442666071
 20
19.45612768775551
 30
0.0
 11
-0.2128028880818191
 21
19.29776445128313
 31
0.0
  0
LINE
  5
1A2C
330
1E
100
AcDbEntity
  8
IMAGE
100
AcDbLine
 10
-0.2745585739482683
 20
19.45615579182463
 30
0.0
 11
-0.287026965566163
 21
19.29780662058627
 31
0.0
  0
LINE
  5
1A2D
330
1E
100
AcDbEntity
  8
IMAGE
100
AcDbLine
 10
-0.2582415085652858
 20
19.45614652152718
 30
0.0
 11
-0.2639581069699073
 21
19.29779351435815
 31
0.0
  0
LINE
  5
1A2E
330
1E
100
AcDbEntity
  8
IMAGE
100
AcDbLine
 10
-0.09889599159321
 20
19.9600391169063
 30
0.0
 11
-0.0989069168396597
 21
19.94080910174225
 31
0.0
  0
LINE
  5
1A2F
330
1E
100
AcDbEntity
  8
IMAGE
100
AcDbLine
 10
0.0405783500582544
 20
19.95995987663828
 30
0.0
 11
-0.09889599159321
 21
19.9600391169063
 31
0.0
  0
LINE
  5
1A30
330
1E
100
AcDbEntity
  8
IMAGE
100
AcDbLine
 10
0.0405783500582544
 20
19.95995987663828
 30
0.0
 11
0.0405674248118135
 21
19.94072986147423
 31
0.0
  0
LINE
  5
1A31
330
1E
100
AcDbEntity
  8
IMAGE
100
AcDbLine
 10
0.0405674248118135
 20
19.94072986147423
 30
0.0
 11
-0.0989069168396597
 21
19.94080910174225
 31
0.0
  0
TEXT
  5
1A32
330
1E
100
AcDbEntity
  8
IMAGE
100
AcDbText
 10
1.169764158138551
 20
19.23841659146657
 30
0.0
 40
0.125
  1
BLACK
  7
ROMANS
100
AcDbText
  0
ARC
  5
1A33
330
1E
100
AcDbEntity
  8
IMAGE
100
AcDbCircle
 10
-0.0290692275009099
 20
20.11769661444668
 30
0.0
 40
0.0389042956022208
100
AcDbArc
 50
8.479507237339223
 51
171.4553892836566
  0
LWPOLYLINE
  5
1A3A
330
1E
100
AcDbEntity
  8
IMAGE
100
AcDbPolyline
 90
        6
 70
     0
 10
2.158979272318977
 20
17.12452363786465
 40
0.018
 41
0.018
 10
2.158979272318977
 20
18.27703012177255
 40
0.01875
 41
0.01875
 10
2.158979272318977
 20
18.27703012177255
 40
0.01875
 41
0.01875
 10
2.158979272318977
 20
18.27703012177255
 40
0.01875
 41
0.01875
 10
-0.7201384994868203
 20
18.27703012177255
 40
0.01875
 41
0.01875
 10
-0.8392659356748875
 20
18.29273688820111
 40
0.0
 41
0.0
  0
LWPOLYLINE
  5
1A3B
330
1E
100
AcDbEntity
  8
IMAGE
100
AcDbPolyline
 90
        8
 70
     0
 10
2.150433301304675
 20
16.65554360301322
 40
0.018
 41
0.018
 10
2.150433301304675
 20
16.08048476537915
 40
0.018
 41
0.018
 10
1.580258334449488
 20
16.08048476537915
 40
0.018
 41
0.018
 10
1.580258334449488
 20
18.2128942168444
 40
0.01875
 41
0.01875
 10
1.580258334449488
 20
18.2128942168444
 40
0.01875
 41
0.01875
 10
1.580258334449488
 20
18.2128942168444
 40
0.01875
 41
0.01875
 10
-0.7201384994868203
 20
18.2128942168444
 40
0.01875
 41
0.01875
 10
-0.8392659356748875
 20
18.23383654630983
 40
0.0
 41
0.0
  0
INSERT
  5
1A43
330
1E
100
AcDbEntity
  8
TEXT_BUBBLES
100
AcDbBlockReference
 66
     1
  2
bubble
 10
-0.4462172958795238
 20
17.25523732701864
 30
0.0
  0
ATTRIB
  5
1A44
330
1A43
100
AcDbEntity
  8
TEXT_BUBBLES
100
AcDbText
 10
-0.5057411054033333
 20
17.19273732701864
 30
0.0
 40
0.125
  1
2
  7
ROMANS
 72
     4
 11
-0.4462172958795238
 21
17.25523732701864
 31
0.0
100
AcDbAttribute
  2
XX
 70
     0
  0
SEQEND
  5
1A45
330
1A43
100
AcDbEntity
  8
TEXT_BUBBLES
  0
INSERT
  5
1A46
330
1E
100
AcDbEntity
  8
TEXT_BUBBLES
100
AcDbBlockReference
 66
     1
  2
bubble
 10
0.8339330020918632
 20
17.25527276496007
 30
0.0
  0
ATTRIB
  5
1A47
330
1A46
100
AcDbEntity
  8
TEXT_BUBBLES
100
AcDbText
 10
0.7714330020918633
 20
17.19277276496007
 30
0.0
 40
0.125
  1
6
  7
ROMANS
 72
     4
 11
0.8339330020918632
 21
17.25527276496007
 31
0.0
100
AcDbAttribute
  2
XX
 70
     0
  0
SEQEND
  5
1A48
330
1A46
100
AcDbEntity
  8
TEXT_BUBBLES
  0
INSERT
  5
1A49
330
1E
100
AcDbEntity
  8
TEXT_BUBBLES
100
AcDbBlockReference
 66
     1
  2
bubble
 10
-0.4479358191028937
 20
16.5412340373003
 30
0.0
  0
ATTRIB
  5
1A4A
330
1A49
100
AcDbEntity
  8
TEXT_BUBBLES
100
AcDbText
 10
-0.5104358191028937
 20
16.47873403730029
 30
0.0
 40
0.125
  1
4
  7
ROMANS
 72
     4
 11
-0.4479358191028937
 21
16.5412340373003
 31
0.0
100
AcDbAttribute
  2
XX
 70
     0
  0
SEQEND
  5
1A4B
330
1A49
100
AcDbEntity
  8
TEXT_BUBBLES
  0
INSERT
  5
1A4C
330
1E
100
AcDbEntity
  8
TEXT_BUBBLES
100
AcDbBlockReference
 66
     1
  2
bubble
 10
0.0365476081489927
 20
16.54487192935706
 30
0.0
  0
ATTRIB
  5
1A4D
330
1A4C
100
AcDbEntity
  8
TEXT_BUBBLES
100
AcDbText
 10
-0.0229762013748168
 20
16.48237192935706
 30
0.0
 40
0.125
  1
5
  7
ROMANS
 72
     4
 11
0.0365476081489927
 21
16.54487192935706
 31
0.0
100
AcDbAttribute
  2
XX
 70
     0
  0
SEQEND
  5
1A4E
330
1A4C
100
AcDbEntity
  8
TEXT_BUBBLES
  0
INSERT
  5
1A4F
330
1E
100
AcDbEntity
  8
TEXT_BUBBLES
100
AcDbBlockReference
 66
     1
  2
bubble
 10
3.858325434267575
 20
18.37992209729352
 30
0.0
  0
ATTRIB
  5
1A50
330
1A4F
100
AcDbEntity
  8
TEXT_BUBBLES
100
AcDbText
 10
3.798801624743766
 20
18.31742209729352
 30
0.0
 40
0.125
  1
3
  7
ROMANS
 72
     4
 11
3.858325434267575
 21
18.37992209729352
 31
0.0
100
AcDbAttribute
  2
XX
 70
     0
  0
SEQEND
  5
1A51
330
1A4F
100
AcDbEntity
  8
TEXT_BUBBLES
  0
TEXT
  5
1A54
330
1E
100
AcDbEntity
  8
TEXT_BUBBLES
100
AcDbText
 10
6.743611375539465
 20
19.73600957451217
 30
0.0
 40
0.125
  1
SENSOR DECODER SET FOR A
  7
L100
100
AcDbText
1001
CLSI_CADWRITER
1002
{
1070
  4120
1070
     0
1002
}
1002
{
1070
  4120
1070
     0
1002
}
  0
TEXT
  5
1A55
330
1E
100
AcDbEntity
  8
TEXT_BUBBLES
100
AcDbText
 10
6.743611375539465
 20
19.51100957451217
 30
0.0
 40
0.125
  1
CHANNEL (1 THRU 28.) 
  7
L100
100
AcDbText
1001
CLSI_CADWRITER
1002
{
1070
  4120
1070
     0
1002
}
  0
TEXT
  5
1A56
330
1E
100
AcDbEntity
  8
TEXT_BUBBLES
100
AcDbText
 10
6.743611375539465
 20
19.28600957451217
 30
0.0
 40
0.125
  1
DEC-SEN
  7
L100
100
AcDbText
  0
TEXT
  5
1A57
330
1E
100
AcDbEntity
  8
TEXT_BUBBLES
100
AcDbText
 10
6.743611375539465
 20
18.83600957451217
 30
0.0
 40
0.125
  1
MOTOR STARTER
  7
L100
100
AcDbText
1001
CLSI_CADWRITER
1002
{
1070
  4120
1070
     0
1002
}
1002
{
1070
  4120
1070
     0
1002
}
  0
TEXT
  5
1A58
330
1E
100
AcDbEntity
  8
TEXT_BUBBLES
100
AcDbText
 10
6.743611375539465
 20
18.38600957451217
 30
0.0
 40
0.125
  1
NORMALLY OPEN RELAY
  7
L100
100
AcDbText
1001
CLSI_CADWRITER
1002
{
1070
  4120
1070
     0
1002
}
1002
{
1070
  4120
1070
     0
1002
}
  0
TEXT
  5
1A59
330
1E
100
AcDbEntity
  8
TEXT_BUBBLES
100
AcDbText
 10
6.743611375539465
 20
17.93600957451217
 30
0.0
 40
0.125
  1
MOTOR STARTER HOLDING COIL
  7
L100
100
AcDbText
1001
CLSI_CADWRITER
1002
{
1070
  4120
1070
     0
1002
}
1002
{
1070
  4120
1070
     0
1002
}
  0
TEXT
  5
1A5A
330
1E
100
AcDbEntity
  8
TEXT_BUBBLES
100
AcDbText
 10
6.743611375539465
 20
17.48600957451217
 30
0.0
 40
0.125
  1
PUMP ON/OFF SWITCH
  7
L100
100
AcDbText
1001
CLSI_CADWRITER
1002
{
1070
  4120
1070
     0
1002
}
1002
{
1070
  4120
1070
     0
1002
}
  0
TEXT
  5
1A5B
330
1E
100
AcDbEntity
  8
TEXT_BUBBLES
100
AcDbText
 10
6.743611375539465
 20
17.03600957451217
 30
0.0
 40
0.125
  1
POWER SUPPLY TO PUMP
  7
L100
100
AcDbText
1001
CLSI_CADWRITER
1002
{
1070
  4120
1070
     0
1002
}
1002
{
1070
  4120
1070
     0
1002
}
  0
TEXT
  5
1A5C
330
1E
100
AcDbEntity
  8
TEXT_BUBBLES
100
AcDbText
 10
6.743611375539465
 20
16.81100957451217
 30
0.0
 40
0.125
  1
STARTER COIL
  7
L100
100
AcDbText
1001
CLSI_CADWRITER
1002
{
1070
  4120
1070
     0
1002
}
  0
INSERT
  5
1A5D
330
1E
100
AcDbEntity
  8
TEXT_BUBBLES
100
AcDbBlockReference
 66
     1
  2
bubble
 10
6.440719846102065
 20
19.79319810527204
 30
0.0
  0
ATTRIB
  5
1A5E
330
1A5D
100
AcDbEntity
  8
TEXT_BUBBLES
100
AcDbText
 10
6.390124608006827
 20
19.73069810527204
 30
0.0
 40
0.125
  1
1
  7
ROMANS
 72
     4
 11
6.440719846102065
 21
19.79319810527204
 31
0.0
100
AcDbAttribute
  2
XX
 70
     0
  0
SEQEND
  5
1A5F
330
1A5D
100
AcDbEntity
  8
TEXT_BUBBLES
  0
INSERT
  5
1A60
330
1E
100
AcDbEntity
  8
TEXT_BUBBLES
100
AcDbBlockReference
 66
     1
  2
bubble
 10
6.440719846102065
 20
18.90376582234301
 30
0.0
  0
ATTRIB
  5
1A61
330
1A60
100
AcDbEntity
  8
TEXT_BUBBLES
100
AcDbText
 10
6.381196036578256
 20
18.84126582234301
 30
0.0
 40
0.125
  1
2
  7
ROMANS
 72
     4
 11
6.440719846102065
 21
18.90376582234301
 31
0.0
100
AcDbAttribute
  2
XX
 70
     0
  0
SEQEND
  5
1A62
330
1A60
100
AcDbEntity
  8
TEXT_BUBBLES
  0
INSERT
  5
1A63
330
1E
100
AcDbEntity
  8
TEXT_BUBBLES
100
AcDbBlockReference
 66
     1
  2
bubble
 10
6.440719846102065
 20
18.46345282297011
 30
0.0
  0
ATTRIB
  5
1A64
330
1A63
100
AcDbEntity
  8
TEXT_BUBBLES
100
AcDbText
 10
6.381196036578256
 20
18.4009528229701
 30
0.0
 40
0.125
  1
3
  7
ROMANS
 72
     4
 11
6.440719846102065
 21
18.46345282297011
 31
0.0
100
AcDbAttribute
  2
XX
 70
     0
  0
SEQEND
  5
1A65
330
1A63
100
AcDbEntity
  8
TEXT_BUBBLES
  0
INSERT
  5
1A66
330
1E
100
AcDbEntity
  8
TEXT_BUBBLES
100
AcDbBlockReference
 66
     1
  2
bubble
 10
6.440719846102065
 20
18.00552728473778
 30
0.0
  0
ATTRIB
  5
1A67
330
1A66
100
AcDbEntity
  8
TEXT_BUBBLES
100
AcDbText
 10
6.378219846102065
 20
17.94302728473778
 30
0.0
 40
0.125
  1
4
  7
ROMANS
 72
     4
 11
6.440719846102065
 21
18.00552728473778
 31
0.0
100
AcDbAttribute
  2
XX
 70
     0
  0
SEQEND
  5
1A68
330
1A66
100
AcDbEntity
  8
TEXT_BUBBLES
  0
INSERT
  5
1A69
330
1E
100
AcDbEntity
  8
TEXT_BUBBLES
100
AcDbBlockReference
 66
     1
  2
bubble
 10
6.440719846102065
 20
17.56521428536488
 30
0.0
  0
ATTRIB
  5
1A6A
330
1A69
100
AcDbEntity
  8
TEXT_BUBBLES
100
AcDbText
 10
6.381196036578256
 20
17.50271428536488
 30
0.0
 40
0.125
  1
5
  7
ROMANS
 72
     4
 11
6.440719846102065
 21
17.56521428536488
 31
0.0
100
AcDbAttribute
  2
XX
 70
     0
  0
SEQEND
  5
1A6B
330
1A69
100
AcDbEntity
  8
TEXT_BUBBLES
  0
INSERT
  5
1A6C
330
1E
100
AcDbEntity
  8
TEXT_BUBBLES
100
AcDbBlockReference
 66
     1
  2
bubble
 10
6.440719846102065
 20
17.10728874713256
 30
0.0
  0
ATTRIB
  5
1A6D
330
1A6C
100
AcDbEntity
  8
TEXT_BUBBLES
100
AcDbText
 10
6.378219846102065
 20
17.04478874713256
 30
0.0
 40
0.125
  1
6
  7
ROMANS
 72
     4
 11
6.440719846102065
 21
17.10728874713256
 31
0.0
100
AcDbAttribute
  2
XX
 70
     0
  0
SEQEND
  5
1A6E
330
1A6C
100
AcDbEntity
  8
TEXT_BUBBLES
  0
TEXT
  5
1A97
330
1E
100
AcDbEntity
  8
IMAGE
100
AcDbText
 10
-2.09133170478535
 20
19.33356974990045
 30
0.0
 40
0.125
  1
(SEE NOTE)
  7
ROMANS
100
AcDbText
  0
MTEXT
  5
1AB2
330
1E
100
AcDbEntity
  8
TEXT_BUBBLES
100
AcDbMText
 10
6.743611375539465
 20
16.11820338681198
 30
0.0
 40
0.125
 41
3.4881
 71
     1
 72
     5
  1
NOTE: \PUSE RAIN BIRD MSP-1 FOR PROPER  SURGE PROTECTION.
  7
L100
 73
     1
 44
1.0
  0
MTEXT
  5
1AB3
330
1E
100
AcDbEntity
  8
TEXT_BUBBLES
100
AcDbMText
 10
3.813514035405421
 20
13.90198879042753
 30
0.0
 40
0.125
 41
6.717658831697528
 71
     1
 72
     5
  1
CAUTION: RAIN BIRD RECOMMENDS THAT ANY PUMPING SYSTEM USE SEPARATE AND INDEPENDENT PUMP CONTROL SAFETY CIRCUITS AS WELL AS PRESSURE RELIEF AND/OR REDUCING VALVES.
  7
L100
 73
     1
 44
1.0
  0
ENDSEC
  0
SECTION
  2
OBJECTS
  0
DICTIONARY
  5
C
330
0
100
AcDbDictionary
281
     1
  3
ACAD_GROUP
350
D
  3
ACAD_LAYOUT
350
19
  3
ACAD_MLINESTYLE
350
16
  3
ACAD_PLOTSETTINGS
350
18
  3
ACAD_PLOTSTYLENAME
350
E
  3
AcDbVariableDictionary
350
1A3D
  0
DICTIONARY
  5
1AC6
330
2
100
AcDbDictionary
280
     1
281
     1
  0
DICTIONARY
  5
D
102
{ACAD_REACTORS
330
C
102
}
330
C
100
AcDbDictionary
281
     1
  0
DICTIONARY
  5
19
102
{ACAD_REACTORS
330
C
102
}
330
C
100
AcDbDictionary
281
     1
  3
Layout1
350
1D
  3
Model
350
21
  0
DICTIONARY
  5
16
102
{ACAD_REACTORS
330
C
102
}
330
C
100
AcDbDictionary
281
     1
  3
Standard
350
17
  0
DICTIONARY
  5
18
102
{ACAD_REACTORS
330
C
102
}
330
C
100
AcDbDictionary
281
     1
  3
8500ColorShaded11x17
350
1A82
  0
ACDBDICTIONARYWDFLT
  5
E
102
{ACAD_REACTORS
330
C
102
}
330
C
100
AcDbDictionary
281
     1
  3
Normal
350
F
100
AcDbDictionaryWithDefault
340
F
  0
DICTIONARY
  5
1A3D
102
{ACAD_REACTORS
330
C
102
}
330
C
100
AcDbDictionary
281
     1
  3
DIMASSOC
350
1A3F
  3
HIDETEXT
350
1A3E
  3
SORTENTS
350
1ABD
  0
LAYOUT
  5
1D
102
{ACAD_REACTORS
330
19
102
}
330
19
100
AcDbPlotSettings
  1

  2
\\AQUA\HP_LASER_5SI
  4

  6

 40
0.0
 41
0.0
 42
0.0
 43
0.0
 44
0.0
 45
0.0
 46
0.0
 47
0.0
 48
0.0
 49
0.0
140
0.0
141
0.0
142
1.0
143
1.0
 70
   688
 72
     0
 73
     0
 74
     5
  7

 75
    16
147
1.0
148
0.0
149
0.0
100
AcDbLayout
  1
Layout1
 70
     0
 71
     1
 10
0.0
 20
0.0
 11
12.0
 21
9.0
 12
0.0
 22
0.0
 32
0.0
 14
1.000000000000000E+20
 24
1.000000000000000E+20
 34
1.000000000000000E+20
 15
-1.000000000000000E+20
 25
-1.000000000000000E+20
 35
-1.000000000000000E+20
146
0.0
 13
0.0
 23
0.0
 33
0.0
 16
1.0
 26
0.0
 36
0.0
 17
0.0
 27
1.0
 37
0.0
 76
     0
330
1A
  0
LAYOUT
  5
21
102
{ACAD_REACTORS
330
19
102
}
330
19
100
AcDbPlotSettings
  1

  2
8500ColorShaded.pc3
  4
11x17
  6
PS1
 40
5.027083396911621
 41
5.027085304260253
 42
5.027099609375
 43
5.027069091796875
 44
279.3999938964843
 45
431.7999877929687
 46
0.0
 47
0.508
 48
-4.295182727310489
 49
10.60861973969837
140
12.35321941879412
141
21.27143238450627
142
1.0
143
1.005530549307597
 70
 11956
 72
     0
 73
     1
 74
     4
  7
8500ColorShaded.ctb
 75
     0
147
0.994499869435687
148
109.0976412736864
149
-269.4589413883387
100
AcDbLayout
  1
Model
 70
     1
 71
     0
 10
0.0
 20
0.0
 11
12.0
 21
9.0
 12
0.0
 22
0.0
 32
0.0
 14
0.0
 24
0.0
 34
0.0
 15
0.0
 25
0.0
 35
0.0
146
0.0
 13
0.0
 23
0.0
 33
0.0
 16
1.0
 26
0.0
 36
0.0
 17
0.0
 27
1.0
 37
0.0
 76
     0
330
1E
  0
MLINESTYLE
  5
17
102
{ACAD_REACTORS
330
16
102
}
330
16
100
AcDbMlineStyle
  2
STANDARD
 70
     0
  3

 62
   256
 51
90.0
 52
90.0
 71
     2
 49
0.5
 62
   256
  6
BYLAYER
 49
-0.5
 62
   256
  6
BYLAYER
  0
PLOTSETTINGS
  5
1A82
102
{ACAD_REACTORS
330
18
102
}
330
18
100
AcDbPlotSettings
  1
8500ColorShaded11x17
  2
8500ColorShaded.pc3
  4
11x17
  6

 40
5.027083396911621
 41
5.027085304260253
 42
5.027099609375
 43
5.027069091796875
 44
279.3999938964843
 45
431.7999877929687
 46
0.0
 47
0.0
 48
180360.0524337165
 49
80033.77936194791
140
180369.1574725906
141
80037.61796031875
142
1.0
143
4.787622939151733
 70
  1712
 72
     0
 73
     1
 74
     0
  7
8500ColorShaded.ctb
 75
     0
147
0.2088719209322652
148
-4580581.320935756
149
-2032339.826086972
  0
ACDBPLACEHOLDER
  5
F
102
{ACAD_REACTORS
330
E
102
}
330
E
  0
DICTIONARYVAR
  5
1A3F
102
{ACAD_REACTORS
330
1A3D
102
}
330
1A3D
100
DictionaryVariables
280
     0
  1
1
  0
DICTIONARYVAR
  5
1A3E
102
{ACAD_REACTORS
330
1A3D
102
}
330
1A3D
100
DictionaryVariables
280
     0
  1
1
  0
DICTIONARYVAR
  5
1ABD
102
{ACAD_REACTORS
330
1A3D
102
}
330
1A3D
100
DictionaryVariables
280
     0
  1
1
  0
ENDSEC
  0
EOF
