  0
SECTION
  2
HEADER
  9
$ACADVER
  1
AC1015
  9
$ACADMAINTVER
 70
    13
  9
$DWGCODEPAGE
  3
ANSI_1252
  9
$INSBASE
 10
-1.909902583309492
 20
10.86736827055435
 30
0.0
  9
$EXTMIN
 10
-0.0002514408107276
 20
-0.0001591899371781
 30
-0.0000004574423482
  9
$EXTMAX
 10
16.49025167118744
 20
10.44015933579119
 30
0.030000457861469
  9
$LIMMIN
 10
0.0
 20
0.0
  9
$LIMMAX
 10
12.0
 20
9.0
  9
$ORTHOMODE
 70
     1
  9
$REGENMODE
 70
     1
  9
$FILLMODE
 70
     1
  9
$QTEXTMODE
 70
     0
  9
$MIRRTEXT
 70
     0
  9
$LTSCALE
 40
1.0
  9
$ATTMODE
 70
     1
  9
$TEXTSIZE
 40
0.1
  9
$TRACEWID
 40
0.05
  9
$TEXTSTYLE
  7
L200
  9
$CLAYER
  8
TITLE
  9
$CELTYPE
  6
ByLayer
  9
$CECOLOR
 62
   256
  9
$CELTSCALE
 40
1.0
  9
$DISPSILH
 70
     0
  9
$DIMSCALE
 40
1.0
  9
$DIMASZ
 40
0.18
  9
$DIMEXO
 40
0.0625
  9
$DIMDLI
 40
0.38
  9
$DIMRND
 40
0.0
  9
$DIMDLE
 40
0.0
  9
$DIMEXE
 40
0.18
  9
$DIMTP
 40
0.0
  9
$DIMTM
 40
0.0
  9
$DIMTXT
 40
0.18
  9
$DIMCEN
 40
0.09
  9
$DIMTSZ
 40
0.0
  9
$DIMTOL
 70
     0
  9
$DIMLIM
 70
     0
  9
$DIMTIH
 70
     1
  9
$DIMTOH
 70
     1
  9
$DIMSE1
 70
     0
  9
$DIMSE2
 70
     0
  9
$DIMTAD
 70
     0
  9
$DIMZIN
 70
     0
  9
$DIMBLK
  1

  9
$DIMASO
 70
     1
  9
$DIMSHO
 70
     0
  9
$DIMPOST
  1

  9
$DIMAPOST
  1

  9
$DIMALT
 70
     0
  9
$DIMALTD
 70
     2
  9
$DIMALTF
 40
25.4
  9
$DIMLFAC
 40
1.0
  9
$DIMTOFL
 70
     0
  9
$DIMTVP
 40
0.0
  9
$DIMTIX
 70
     0
  9
$DIMSOXD
 70
     0
  9
$DIMSAH
 70
     0
  9
$DIMBLK1
  1

  9
$DIMBLK2
  1

  9
$DIMSTYLE
  2
Standard
  9
$DIMCLRD
 70
     0
  9
$DIMCLRE
 70
     0
  9
$DIMCLRT
 70
     0
  9
$DIMTFAC
 40
1.0
  9
$DIMGAP
 40
0.09
  9
$DIMJUST
 70
     0
  9
$DIMSD1
 70
     0
  9
$DIMSD2
 70
     0
  9
$DIMTOLJ
 70
     1
  9
$DIMTZIN
 70
     0
  9
$DIMALTZ
 70
     0
  9
$DIMALTTZ
 70
     0
  9
$DIMUPT
 70
     0
  9
$DIMDEC
 70
     4
  9
$DIMTDEC
 70
     4
  9
$DIMALTU
 70
     2
  9
$DIMALTTD
 70
     2
  9
$DIMTXSTY
  7
STANDARD
  9
$DIMAUNIT
 70
     0
  9
$DIMADEC
 70
     0
  9
$DIMALTRND
 40
0.0
  9
$DIMAZIN
 70
     0
  9
$DIMDSEP
 70
    46
  9
$DIMATFIT
 70
     3
  9
$DIMFRAC
 70
     0
  9
$DIMLDRBLK
  1

  9
$DIMLUNIT
 70
     2
  9
$DIMLWD
 70
    -2
  9
$DIMLWE
 70
    -2
  9
$DIMTMOVE
 70
     2
  9
$LUNITS
 70
     2
  9
$LUPREC
 70
     4
  9
$SKETCHINC
 40
0.1
  9
$FILLETRAD
 40
0.0
  9
$AUNITS
 70
     0
  9
$AUPREC
 70
     0
  9
$MENU
  1
acad
  9
$ELEVATION
 40
0.0
  9
$PELEVATION
 40
0.0
  9
$THICKNESS
 40
0.0
  9
$LIMCHECK
 70
     0
  9
$CHAMFERA
 40
0.0
  9
$CHAMFERB
 40
0.0
  9
$CHAMFERC
 40
0.0
  9
$CHAMFERD
 40
0.0
  9
$SKPOLY
 70
     0
  9
$TDCREATE
 40
2450446.277947569
  9
$TDUCREATE
 40
2450446.569614236
  9
$TDUPDATE
 40
2453021.563135242
  9
$TDUUPDATE
 40
2453021.854801909
  9
$TDINDWG
 40
0.2625573843
  9
$TDUSRTIMER
 40
0.2625573843
  9
$USRTIMER
 70
     1
  9
$ANGBASE
 50
0.0
  9
$ANGDIR
 70
     0
  9
$PDMODE
 70
     0
  9
$PDSIZE
 40
0.0
  9
$PLINEWID
 40
0.018
  9
$SPLFRAME
 70
     0
  9
$SPLINETYPE
 70
     6
  9
$SPLINESEGS
 70
     8
  9
$HANDSEED
  5
1E49
  9
$SURFTAB1
 70
     6
  9
$SURFTAB2
 70
     6
  9
$SURFTYPE
 70
     6
  9
$SURFU
 70
     6
  9
$SURFV
 70
     6
  9
$UCSBASE
  2

  9
$UCSNAME
  2

  9
$UCSORG
 10
0.0
 20
0.0
 30
0.0
  9
$UCSXDIR
 10
1.0
 20
0.0
 30
0.0
  9
$UCSYDIR
 10
0.0
 20
1.0
 30
0.0
  9
$UCSORTHOREF
  2

  9
$UCSORTHOVIEW
 70
     0
  9
$UCSORGTOP
 10
0.0
 20
0.0
 30
0.0
  9
$UCSORGBOTTOM
 10
0.0
 20
0.0
 30
0.0
  9
$UCSORGLEFT
 10
0.0
 20
0.0
 30
0.0
  9
$UCSORGRIGHT
 10
0.0
 20
0.0
 30
0.0
  9
$UCSORGFRONT
 10
0.0
 20
0.0
 30
0.0
  9
$UCSORGBACK
 10
0.0
 20
0.0
 30
0.0
  9
$PUCSBASE
  2

  9
$PUCSNAME
  2

  9
$PUCSORG
 10
0.0
 20
0.0
 30
0.0
  9
$PUCSXDIR
 10
1.0
 20
0.0
 30
0.0
  9
$PUCSYDIR
 10
0.0
 20
1.0
 30
0.0
  9
$PUCSORTHOREF
  2

  9
$PUCSORTHOVIEW
 70
     0
  9
$PUCSORGTOP
 10
0.0
 20
0.0
 30
0.0
  9
$PUCSORGBOTTOM
 10
0.0
 20
0.0
 30
0.0
  9
$PUCSORGLEFT
 10
0.0
 20
0.0
 30
0.0
  9
$PUCSORGRIGHT
 10
0.0
 20
0.0
 30
0.0
  9
$PUCSORGFRONT
 10
0.0
 20
0.0
 30
0.0
  9
$PUCSORGBACK
 10
0.0
 20
0.0
 30
0.0
  9
$USERI1
 70
     0
  9
$USERI2
 70
     0
  9
$USERI3
 70
     0
  9
$USERI4
 70
     0
  9
$USERI5
 70
     0
  9
$USERR1
 40
1.0
  9
$USERR2
 40
1.0
  9
$USERR3
 40
0.0
  9
$USERR4
 40
0.0
  9
$USERR5
 40
0.0
  9
$WORLDVIEW
 70
     1
  9
$SHADEDGE
 70
     3
  9
$SHADEDIF
 70
    70
  9
$TILEMODE
 70
     1
  9
$MAXACTVP
 70
    16
  9
$PINSBASE
 10
0.0
 20
0.0
 30
0.0
  9
$PLIMCHECK
 70
     0
  9
$PEXTMIN
 10
1.000000000000000E+20
 20
1.000000000000000E+20
 30
1.000000000000000E+20
  9
$PEXTMAX
 10
-1.000000000000000E+20
 20
-1.000000000000000E+20
 30
-1.000000000000000E+20
  9
$PLIMMIN
 10
0.0
 20
0.0
  9
$PLIMMAX
 10
12.0
 20
9.0
  9
$UNITMODE
 70
     0
  9
$VISRETAIN
 70
     0
  9
$PLINEGEN
 70
     1
  9
$PSLTSCALE
 70
     0
  9
$TREEDEPTH
 70
  3020
  9
$CMLSTYLE
  2
Standard
  9
$CMLJUST
 70
     0
  9
$CMLSCALE
 40
1.0
  9
$PROXYGRAPHICS
 70
     1
  9
$MEASUREMENT
 70
     0
  9
$CELWEIGHT
370
    -1
  9
$ENDCAPS
280
     0
  9
$JOINSTYLE
280
     0
  9
$LWDISPLAY
290
     0
  9
$INSUNITS
 70
     0
  9
$HYPERLINKBASE
  1

  9
$STYLESHEET
  1
8500ColorShaded.ctb
  9
$XEDIT
290
     1
  9
$CEPSNTYPE
380
     0
  9
$PSTYLEMODE
290
     1
  9
$FINGERPRINTGUID
  2
{095C9F94-B7D6-4A24-A0A5-2155C6A21747}
  9
$VERSIONGUID
  2
{B65A2B54-508C-4D0F-9BBD-7E51632D9B50}
  9
$EXTNAMES
290
     1
  9
$PSVPSCALE
 40
0.0
  9
$OLESTARTUP
290
     0
  0
ENDSEC
  0
SECTION
  2
CLASSES
  0
CLASS
  1
ACDBDICTIONARYWDFLT
  2
AcDbDictionaryWithDefault
  3
AutoCAD 2000
 90
        0
280
     0
281
     0
  0
CLASS
  1
ACDBPLACEHOLDER
  2
AcDbPlaceHolder
  3
AutoCAD 2000
 90
        0
280
     0
281
     0
  0
CLASS
  1
LAYOUT
  2
AcDbLayout
  3
AutoCAD 2000
 90
        0
280
     0
281
     0
  0
CLASS
  1
DICTIONARYVAR
  2
AcDbDictionaryVar
  3
AutoCAD 2000
 90
        0
280
     0
281
     0
  0
CLASS
  1
PLOTSETTINGS
  2
AcDbPlotSettings
  3
AutoCAD 2000
 90
        0
280
     0
281
     0
  0
ENDSEC
  0
SECTION
  2
TABLES
  0
TABLE
  2
VPORT
  5
8
330
0
100
AcDbSymbolTable
 70
     4
  0
VPORT
  5
1E48
330
8
100
AcDbSymbolTableRecord
100
AcDbViewportTableRecord
  2
*Active
 70
     0
 10
0.0
 20
0.0
 11
1.0
 21
1.0
 12
8.245000115188357
 22
5.220000072927007
 13
0.0
 23
0.0
 14
1.0
 24
1.0
 15
0.0
 25
0.0
 16
0.0
 26
0.0
 36
1.0
 17
0.0
 27
0.0
 37
0.0
 40
10.52660214990794
 41
1.609655172413793
 42
50.0
 43
0.0
 44
0.0
 50
0.0
 51
0.0
 71
     0
 72
  1000
 73
     1
 74
     0
 75
     0
 76
     0
 77
     0
 78
     0
281
     0
 65
     1
110
0.0
120
0.0
130
0.0
111
1.0
121
0.0
131
0.0
112
0.0
122
1.0
132
0.0
 79
     0
146
0.0
  0
ENDTAB
  0
TABLE
  2
LTYPE
  5
5
330
0
100
AcDbSymbolTable
 70
     2
  0
LTYPE
  5
13
330
5
100
AcDbSymbolTableRecord
100
AcDbLinetypeTableRecord
  2
ByBlock
 70
     0
  3

 72
    65
 73
     0
 40
0.0
  0
LTYPE
  5
14
330
5
100
AcDbSymbolTableRecord
100
AcDbLinetypeTableRecord
  2
ByLayer
 70
     0
  3

 72
    65
 73
     0
 40
0.0
  0
LTYPE
  5
15
330
5
100
AcDbSymbolTableRecord
100
AcDbLinetypeTableRecord
  2
CONTINUOUS
 70
     0
  3
Solid line
 72
    65
 73
     0
 40
0.0
  0
ENDTAB
  0
TABLE
  2
LAYER
  5
2
102
{ACAD_XDICTIONARY
360
1E47
102
}
330
0
100
AcDbSymbolTable
 70
     4
  0
LAYER
  5
10
330
2
100
AcDbSymbolTableRecord
100
AcDbLayerTableRecord
  2
0
 70
     0
 62
     7
  6
CONTINUOUS
370
    -3
390
F
  0
LAYER
  5
3B
330
2
100
AcDbSymbolTableRecord
100
AcDbLayerTableRecord
  2
TITLE
 70
     0
 62
     7
  6
CONTINUOUS
370
    -3
390
F
  0
LAYER
  5
1931
330
2
100
AcDbSymbolTableRecord
100
AcDbLayerTableRecord
  2
IMAGE
 70
     0
 62
     7
  6
CONTINUOUS
370
    -3
390
F
  0
LAYER
  5
1932
330
2
100
AcDbSymbolTableRecord
100
AcDbLayerTableRecord
  2
TEXT_BUBBLES
 70
     0
 62
     7
  6
CONTINUOUS
370
    -3
390
F
1001
RAK
1000
{EFB-CP-BUBBLES
1070
     0
1070
     6
1000
CONTINUOUS
1000
EFB-CP-BUBBLES}
1000
{EFB-CP-LEADERS
1070
     0
1070
    -6
1000
CONTINUOUS
1000
EFB-CP-LEADERS}
1000
{EFB-CP-BSP-BUBBLES
1070
     0
1070
     6
1000
CONTINUOUS
1000
EFB-CP-BSP-BUBBLES}
1000
{EFB-CP-BSP-LEADERS
1070
     0
1070
    -6
1000
CONTINUOUS
1000
EFB-CP-BSP-LEADERS}
1000
{EFB-CP-NP-BUBBLES
1070
     0
1070
     6
1000
CONTINUOUS
1000
EFB-CP-NP-BUBBLES}
1000
{EFB-CP-NP-LEADERS
1070
     0
1070
    -6
1000
CONTINUOUS
1000
EFB-CP-NP-LEADERS}
1000
{EFB-CP-PRS-BUBBLES
1070
     0
1070
     6
1000
CONTINUOUS
1000
EFB-CP-PRS-BUBBLES}
1000
{EFB-CP-PRS-LEADERS
1070
     0
1070
    -6
1000
CONTINUOUS
1000
EFB-CP-PRS-LEADERS}
1000
{EFB-CP-PRS-BSP-BUBBLES
1070
     0
1070
     6
1000
CONTINUOUS
1000
EFB-CP-PRS-BSP-BUBBLES}
1000
{EFB-CP-PRS-BSP-LEADERS
1070
     0
1070
    -6
1000
CONTINUOUS
1000
EFB-CP-PRS-BSP-LEADERS}
1000
{EFB-CP-PRS-NP-BUBBLES
1070
     0
1070
     6
1000
CONTINUOUS
1000
EFB-CP-PRS-NP-BUBBLES}
1000
{EFB-CP-PRS-NP-LEADERS
1070
     0
1070
    -6
1000
CONTINUOUS
1000
EFB-CP-PRS-NP-LEADERS}
  0
ENDTAB
  0
TABLE
  2
STYLE
  5
3
330
0
100
AcDbSymbolTable
 70
     5
  0
STYLE
  5
11
330
3
100
AcDbSymbolTableRecord
100
AcDbTextStyleTableRecord
  2
STANDARD
 70
     0
 40
0.0
 41
1.0
 50
0.0
 71
     0
 42
0.2
  3
txt
  4

  0
STYLE
  5
2E
330
3
100
AcDbSymbolTableRecord
100
AcDbTextStyleTableRecord
  2
L100
 70
     0
 40
0.07
 41
1.0
 50
0.0
 71
     0
 42
0.07
  3
SIMPLEX
  4

  0
STYLE
  5
2F
330
3
100
AcDbSymbolTableRecord
100
AcDbTextStyleTableRecord
  2
L200
 70
     0
 40
0.3
 41
1.0
 50
0.0
 71
     0
 42
0.1
  3
ARIAL.TTF
  4

1001
ACAD
1000
Arial
1071
       34
  0
STYLE
  5
30
330
3
100
AcDbSymbolTableRecord
100
AcDbTextStyleTableRecord
  2
L80
 70
     0
 40
0.08
 41
1.0
 50
0.0
 71
     0
 42
0.08
  3
simplex
  4

  0
STYLE
  5
1933
330
3
100
AcDbSymbolTableRecord
100
AcDbTextStyleTableRecord
  2
ROMANS
 70
     0
 40
0.0
 41
1.0
 50
0.0
 71
     0
 42
0.1
  3
romans
  4

  0
ENDTAB
  0
TABLE
  2
VIEW
  5
6
330
0
100
AcDbSymbolTable
 70
     1
  0
VIEW
  5
1DD8
330
6
100
AcDbSymbolTableRecord
100
AcDbViewTableRecord
  2
ps1
 70
     0
 40
10.43999999999999
 10
8.245
 20
5.219999999999998
 41
16.49
 11
0.0
 21
0.0
 31
1.0
 12
0.0
 22
0.0
 32
0.0
 42
50.0
 43
0.0
 44
0.0
 50
0.0
 71
     0
281
     0
 72
     1
110
0.0
120
0.0
130
0.0
111
1.0
121
0.0
131
0.0
112
0.0
122
1.0
132
0.0
 79
     0
146
0.0
  0
ENDTAB
  0
TABLE
  2
UCS
  5
7
330
0
100
AcDbSymbolTable
 70
     0
  0
ENDTAB
  0
TABLE
  2
APPID
  5
9
330
0
100
AcDbSymbolTable
 70
    28
  0
APPID
  5
12
330
9
100
AcDbSymbolTableRecord
100
AcDbRegAppTableRecord
  2
ACAD
 70
     0
  0
APPID
  5
33
330
9
100
AcDbSymbolTableRecord
100
AcDbRegAppTableRecord
  2
CLSI_CADWRITER
 70
     0
  0
APPID
  5
1934
330
9
100
AcDbSymbolTableRecord
100
AcDbRegAppTableRecord
  2
RAK
 70
     0
  0
APPID
  5
1D3D
330
9
100
AcDbSymbolTableRecord
100
AcDbRegAppTableRecord
  2
WID_Sprinkler
 70
     0
  0
APPID
  5
1D3E
330
9
100
AcDbSymbolTableRecord
100
AcDbRegAppTableRecord
  2
WID_Valve
 70
     0
  0
APPID
  5
1D3F
330
9
100
AcDbSymbolTableRecord
100
AcDbRegAppTableRecord
  2
WID_Fitting
 70
     0
  0
APPID
  5
1D40
330
9
100
AcDbSymbolTableRecord
100
AcDbRegAppTableRecord
  2
WID_HPNode
 70
     0
  0
APPID
  5
1D41
330
9
100
AcDbSymbolTableRecord
100
AcDbRegAppTableRecord
  2
WID_Node
 70
     0
  0
APPID
  5
1D42
330
9
100
AcDbSymbolTableRecord
100
AcDbRegAppTableRecord
  2
WID_Conduit
 70
     0
  0
APPID
  5
1D43
330
9
100
AcDbSymbolTableRecord
100
AcDbRegAppTableRecord
  2
WID_SprinklerSection
 70
     0
  0
APPID
  5
1D44
330
9
100
AcDbSymbolTableRecord
100
AcDbRegAppTableRecord
  2
WID_MainLineSection
 70
     0
  0
APPID
  5
1D45
330
9
100
AcDbSymbolTableRecord
100
AcDbRegAppTableRecord
  2
WID_ManifoldSection
 70
     0
  0
APPID
  5
1D46
330
9
100
AcDbSymbolTableRecord
100
AcDbRegAppTableRecord
  2
WID_DripSection
 70
     0
  0
APPID
  5
1D47
330
9
100
AcDbSymbolTableRecord
100
AcDbRegAppTableRecord
  2
WID_HPSection
 70
     0
  0
APPID
  5
1D48
330
9
100
AcDbSymbolTableRecord
100
AcDbRegAppTableRecord
  2
WID_Sleeve
 70
     0
  0
APPID
  5
1D49
330
9
100
AcDbSymbolTableRecord
100
AcDbRegAppTableRecord
  2
WID_Layout
 70
     0
  0
APPID
  5
1D4A
330
9
100
AcDbSymbolTableRecord
100
AcDbRegAppTableRecord
  2
WID_Island
 70
     0
  0
APPID
  5
1D4B
330
9
100
AcDbSymbolTableRecord
100
AcDbRegAppTableRecord
  2
WID_Controller
 70
     0
  0
APPID
  5
1D4C
330
9
100
AcDbSymbolTableRecord
100
AcDbRegAppTableRecord
  2
WID_SprinklerLateral
 70
     0
  0
APPID
  5
1D4D
330
9
100
AcDbSymbolTableRecord
100
AcDbRegAppTableRecord
  2
WID_HPDripLateral
 70
     0
  0
APPID
  5
1D4E
330
9
100
AcDbSymbolTableRecord
100
AcDbRegAppTableRecord
  2
WID_LabelPipeSize
 70
     0
  0
APPID
  5
1D4F
330
9
100
AcDbSymbolTableRecord
100
AcDbRegAppTableRecord
  2
WID_LabelPipeSegment
 70
     0
  0
APPID
  5
1D50
330
9
100
AcDbSymbolTableRecord
100
AcDbRegAppTableRecord
  2
WID_LabelValveDesignator
 70
     0
  0
APPID
  5
1D51
330
9
100
AcDbSymbolTableRecord
100
AcDbRegAppTableRecord
  2
WID_CheckArc
 70
     0
  0
APPID
  5
1D52
330
9
100
AcDbSymbolTableRecord
100
AcDbRegAppTableRecord
  2
WID_ObjectType
 70
     0
  0
APPID
  5
1D53
330
9
100
AcDbSymbolTableRecord
100
AcDbRegAppTableRecord
  2
WID_DripLateral
 70
     0
  0
APPID
  5
1D54
330
9
100
AcDbSymbolTableRecord
100
AcDbRegAppTableRecord
  2
ABNSLEADERTOOLS
 70
     0
  0
APPID
  5
1D55
330
9
100
AcDbSymbolTableRecord
100
AcDbRegAppTableRecord
  2
DCO15
 70
     0
  0
ENDTAB
  0
TABLE
  2
DIMSTYLE
  5
A
330
0
100
AcDbSymbolTable
 70
     1
100
AcDbDimStyleTable
 71
     0
  0
DIMSTYLE
105
1926
330
A
100
AcDbSymbolTableRecord
100
AcDbDimStyleTableRecord
  2
Standard
 70
     0
340
11
  0
ENDTAB
  0
TABLE
  2
BLOCK_RECORD
  5
1
330
0
100
AcDbSymbolTable
 70
     7
  0
BLOCK_RECORD
  5
1E
330
1
100
AcDbSymbolTableRecord
100
AcDbBlockTableRecord
  2
*Model_Space
340
21
  0
BLOCK_RECORD
  5
1A
330
1
100
AcDbSymbolTableRecord
100
AcDbBlockTableRecord
  2
*Paper_Space
340
1D
  0
BLOCK_RECORD
  5
23
330
1
100
AcDbSymbolTableRecord
100
AcDbBlockTableRecord
  2
TITLBLK
340
0
102
{BLKREFS
331
1A44
102
}
  0
BLOCK_RECORD
  5
1928
330
1
100
AcDbSymbolTableRecord
100
AcDbBlockTableRecord
  2
bubble
340
0
310
2800000020000000200000000100080000000000000400000000000000000000000000000000000000000000000080000080000000808000800000008000800080800000C0C0C000C0DCC000F0CAA6000020400000206000002080000020A0000020C0000020E00000400000004020000040400000406000004080000040A0
310
000040C0000040E00000600000006020000060400000606000006080000060A0000060C0000060E00000800000008020000080400000806000008080000080A0000080C0000080E00000A0000000A0200000A0400000A0600000A0800000A0A00000A0C00000A0E00000C0000000C0200000C0400000C0600000C0800000C0
310
A00000C0C00000C0E00000E0000000E0200000E0400000E0600000E0800000E0A00000E0C00000E0E00040000000400020004000400040006000400080004000A0004000C0004000E00040200000402020004020400040206000402080004020A0004020C0004020E000404000004040200040404000404060004040800040
310
40A0004040C0004040E00040600000406020004060400040606000406080004060A0004060C0004060E00040800000408020004080400040806000408080004080A0004080C0004080E00040A0000040A0200040A0400040A0600040A0800040A0A00040A0C00040A0E00040C0000040C0200040C0400040C0600040C08000
310
40C0A00040C0C00040C0E00040E0000040E0200040E0400040E0600040E0800040E0A00040E0C00040E0E00080000000800020008000400080006000800080008000A0008000C0008000E00080200000802020008020400080206000802080008020A0008020C0008020E00080400000804020008040400080406000804080
310
008040A0008040C0008040E00080600000806020008060400080606000806080008060A0008060C0008060E00080800000808020008080400080806000808080008080A0008080C0008080E00080A0000080A0200080A0400080A0600080A0800080A0A00080A0C00080A0E00080C0000080C0200080C0400080C0600080C0
310
800080C0A00080C0C00080C0E00080E0000080E0200080E0400080E0600080E0800080E0A00080E0C00080E0E000C0000000C0002000C0004000C0006000C0008000C000A000C000C000C000E000C0200000C0202000C0204000C0206000C0208000C020A000C020C000C020E000C0400000C0402000C0404000C0406000C0
310
408000C040A000C040C000C040E000C0600000C0602000C0604000C0606000C0608000C060A000C060C000C060E000C0800000C0802000C0804000C0806000C0808000C080A000C080C000C080E000C0A00000C0A02000C0A04000C0A06000C0A08000C0A0A000C0A0C000C0A0E000C0C00000C0C02000C0C04000C0C06000
310
C0C08000C0C0A000F0FBFF00A4A0A000808080000000FF0000FF000000FFFF00FF000000FF00FF00FFFF0000FFFFFF0008080808080808080808080808080808080808080808080808080808080808080808080808080808080808080808080808080808080808080808080808080808080808080808080808080808FDFDFD
310
08080808080808080808080808080808080808080808080808080808FD080808FDFDFDFDFDFD0808080808080808080808080808080808080808FDFD08080808080808080808FDFDFDFD080808080808080808080808080808FD08080808080808080808080808080808FD08080808080808080808080808FD080808080808
310
0808080808080808080808FD0808080808080808080808FDFD08080808080808080808080808080808080808FD080808080808080808FD080808080808080808080808080808080808080808FD0808080808080808FD08FD0808080808080808FD0808FD0808080808080808FDFD08080808080808FD0808FD080808080808
310
FD08080808FD080808080808FD08FD08080808080808FD0808FD080808080808FD08080808FD080808080808FD0808FD080808080808FD080808FD08080808FD080808080808FD08080808FD080808FD080808080808FD08080808FD0808FD0808080808080808FD0808FD0808080808FD0808080808FD08080808FD0808FD
310
0808080808080808FD0808FD0808080808FD0808080808FD0808080808FDFD08080808080808080808FDFD08080808080808FD08080808FD0808080808FDFD08080808080808080808FDFD08080808080808FD08080808FD08080808FD0808FD0808080808080808FD0808FD0808080808FD0808080808FD08080808FD0808
310
FD0808080808080808FD0808FD0808080808FD0808080808FD080808FD08080808FD080808080808FD08080808FD080808FD080808080808FD0808FD080808080808FD08080808FD080808080808FD0808FD080808080808FD0808FD080808080808FD08080808FD080808080808FD08FD08080808080808FD08FD08080808
310
08080808FD0808FD0808080808080808FDFD0808080808080808FD080808080808080808080808080808080808080808FD08080808080808080808FDFD08080808080808080808080808080808080808FD080808080808080808080808FD0808080808080808080808080808080808FD0808080808080808080808080808FD
310
08080808080808080808080808080808FD080808080808080808080808080808FDFD0808080808080808080808FDFDFD080808080808080808080808080808080808FD08080808FDFDFDFDFDFD08080808080808080808080808080808080808080808FDFDFDFD080808080808080808080808080808080808080808080808
310
0808080808080808080808080808080808080808080808080808080808080808080808080808080808080808080808080808080808080808
102
{BLKREFS
331
1AB0
331
1AB3
331
1AC4
331
1AC9
331
1B30
331
1B35
331
1B3A
331
1B3D
331
1B40
331
1B43
331
1B46
331
1CA4
102
}
  0
BLOCK_RECORD
  5
1CAF
330
1
100
AcDbSymbolTableRecord
100
AcDbBlockTableRecord
  2
32767
340
0
102
{BLKREFS
331
1CB4
102
}
  0
BLOCK_RECORD
  5
1CB3
330
1
100
AcDbSymbolTableRecord
100
AcDbBlockTableRecord
  2
7
340
0
102
{BLKREFS
331
1D75
331
1D7D
331
1D85
331
1D8D
331
1D9A
331
1D9B
331
1DB0
331
1DBD
102
}
  0
BLOCK_RECORD
  5
1D2F
330
1
100
AcDbSymbolTableRecord
100
AcDbBlockTableRecord
  2
PlotLayout2002
340
0
102
{BLKREFS
331
1D66
331
1DFE
102
}
  0
BLOCK_RECORD
  5
1D65
330
1
100
AcDbSymbolTableRecord
100
AcDbBlockTableRecord
  2
wid
340
0
102
{BLKREFS
331
1D6B
102
}
  0
BLOCK_RECORD
  5
1DFD
330
1
100
AcDbSymbolTableRecord
100
AcDbBlockTableRecord
  2
pagesetups
340
0
102
{BLKREFS
331
1E03
102
}
  0
ENDTAB
  0
ENDSEC
  0
SECTION
  2
BLOCKS
  0
BLOCK
  5
47
330
1E
100
AcDbEntity
  8
0
100
AcDbBlockBegin
  2
*Model_Space
 70
     0
 10
0.0
 20
0.0
 30
0.0
  3
*Model_Space
  1

  0
ENDBLK
  5
48
330
1E
100
AcDbEntity
  8
0
100
AcDbBlockEnd
  0
BLOCK
  5
45
330
1A
100
AcDbEntity
 67
     1
  8
0
100
AcDbBlockBegin
  2
*Paper_Space
 70
     0
 10
0.0
 20
0.0
 30
0.0
  3
*Paper_Space
  1

  0
ENDBLK
  5
46
330
1A
100
AcDbEntity
 67
     1
  8
0
100
AcDbBlockEnd
  0
BLOCK
  5
5C
330
23
100
AcDbEntity
  8
0
100
AcDbBlockBegin
  2
TITLBLK
 70
     2
 10
0.0
 20
0.0
 30
0.0
  3
TITLBLK
  1

  0
LWPOLYLINE
  5
5D
330
23
100
AcDbEntity
  8
0
100
AcDbPolyline
 90
        2
 70
     0
 43
0.04
 39
0.03
 10
0.3424999999999994
 20
-0.0000000000000003
 10
7.654581983261419
 20
-0.0000000000000003
  0
ATTDEF
  5
61
330
23
100
AcDbEntity
  8
0
100
AcDbText
 10
0.625
 20
0.0999999999999998
 30
0.0
 40
0.2
  1
TITLE
  7
L200
100
AcDbAttributeDefinition
  3
DETAIL TITLE
  2
TITLE
 70
     0
  0
LWPOLYLINE
  5
63
330
23
100
AcDbEntity
  8
0
100
AcDbPolyline
 90
        2
 70
     1
 43
0.03
 10
0.0
 20
-0.3425000000000002
 42
0.9999999999999998
 10
0.0
 20
0.3425000000000002
 42
0.9999999999999998
  0
ATTDEF
  5
67
330
23
100
AcDbEntity
  8
0
100
AcDbText
 10
-0.0776944065484311
 20
-0.1000000000000003
 30
0.0
 40
0.2
  1
#
  7
L200
 72
     4
 11
0.0
 21
-0.0000000000000003
 31
0.0
100
AcDbAttributeDefinition
  3
#
  2
#
 70
     0
  0
ATTDEF
  5
68
330
23
100
AcDbEntity
  8
0
100
AcDbText
 10
0.625
 20
-0.1836633170828782
 30
0.0
 40
0.1
  1
N.T.S.
  7
L100
100
AcDbAttributeDefinition
  3
SCALE
  2
SCALE
 70
     0
  0
ATTDEF
  5
69
330
23
100
AcDbEntity
  8
0
100
AcDbText
 10
2.107203380653828
 20
-0.2914343300200487
 30
0.0
 40
0.2
  1
TITLE2
  7
L200
100
AcDbAttributeDefinition
  3
DETAIL TITLE2
  2
TITLE2
 70
     0
  0
ATTDEF
  5
6A
330
23
100
AcDbEntity
  8
0
100
AcDbText
 10
7.58601055468999
 20
-0.1618486459795794
 30
0.0
 40
0.08
  1
-
  7
L80
 72
     2
 11
7.654581983261419
 21
-0.1618486459795794
 31
0.0
100
AcDbAttributeDefinition
  3
DWG-NAME
  2
DWG-NAME
 70
     0
  0
ATTDEF
  5
6B
330
23
100
AcDbEntity
  8
0
100
AcDbText
 10
7.58601055468999
 20
0.0853756950662722
 30
0.0
 40
0.08
  1
-
  7
L80
 72
     2
 11
7.654581983261419
 21
0.0853756950662722
 31
0.0
100
AcDbAttributeDefinition
  3
REVISION DATE
  2
REVISED
 70
     0
  0
ENDBLK
  5
6C
330
23
100
AcDbEntity
  8
0
100
AcDbBlockEnd
  0
BLOCK
  5
192B
330
1928
100
AcDbEntity
  8
0
100
AcDbBlockBegin
  2
bubble
 70
     2
 10
0.0
 20
0.0
 30
0.0
  3
bubble
  1

  0
CIRCLE
  5
1929
330
1928
100
AcDbEntity
  8
0
100
AcDbCircle
 10
0.0
 20
0.0
 30
0.0
 40
0.1398891854377198
  0
ATTDEF
  5
192A
330
1928
100
AcDbEntity
  8
0
100
AcDbText
 10
0.0
 20
0.0
 30
0.0
 40
0.125
  1

  7
ROMANS
 72
     4
 11
0.0
 21
0.0
 31
0.0
100
AcDbAttributeDefinition
  3
Number
  2
XX
 70
     0
  0
ENDBLK
  5
192C
330
1928
100
AcDbEntity
  8
0
100
AcDbBlockEnd
  0
BLOCK
  5
1CB1
330
1CAF
100
AcDbEntity
  8
0
100
AcDbBlockBegin
  2
32767
 70
     0
 10
0.0
 20
0.0
 30
0.0
  3
32767
  1

  0
LWPOLYLINE
  5
1CB0
330
1CAF
100
AcDbEntity
  8
0
100
AcDbPolyline
 90
        2
 70
     1
 43
0.5
 10
-0.25
 20
0.0
 42
1.0
 10
0.25
 20
0.0
 42
1.0
  0
ENDBLK
  5
1CB2
330
1CAF
100
AcDbEntity
  8
0
100
AcDbBlockEnd
  0
BLOCK
  5
1CB5
330
1CB3
100
AcDbEntity
  8
0
100
AcDbBlockBegin
  2
7
 70
     0
 10
0.0
 20
0.0
 30
0.0
  3
7
  1

  0
INSERT
  5
1CB4
330
1CB3
100
AcDbEntity
  8
0
100
AcDbBlockReference
  2
32767
 10
0.0
 20
0.0
 30
0.0
 41
0.158
 42
0.158
  0
ENDBLK
  5
1CB6
330
1CB3
100
AcDbEntity
  8
0
100
AcDbBlockEnd
  0
BLOCK
  5
1D30
330
1D2F
100
AcDbEntity
  8
0
100
AcDbBlockBegin
  2
PlotLayout2002
 70
     0
 10
0.0
 20
0.0
 30
0.0
  3
PlotLayout2002
  1

  0
ENDBLK
  5
1D31
330
1D2F
100
AcDbEntity
  8
0
100
AcDbBlockEnd
  0
BLOCK
  5
1D67
330
1D65
100
AcDbEntity
  8
0
 62
     2
100
AcDbBlockBegin
  2
wid
 70
     0
 10
0.0
 20
0.0
 30
0.0
  3
wid
  1

  0
INSERT
  5
1D66
330
1D65
100
AcDbEntity
  8
0
100
AcDbBlockReference
  2
PlotLayout2002
 10
0.0
 20
0.0
 30
0.0
  0
ENDBLK
  5
1D68
330
1D65
100
AcDbEntity
  8
0
 62
     2
100
AcDbBlockEnd
  0
BLOCK
  5
1DFF
330
1DFD
100
AcDbEntity
  8
0
 62
     2
100
AcDbBlockBegin
  2
pagesetups
 70
     0
 10
0.0
 20
0.0
 30
0.0
  3
pagesetups
  1

  0
INSERT
  5
1DFE
330
1DFD
100
AcDbEntity
  8
0
100
AcDbBlockReference
  2
PlotLayout2002
 10
0.0
 20
0.0
 30
0.0
  0
ENDBLK
  5
1E00
330
1DFD
100
AcDbEntity
  8
0
 62
     2
100
AcDbBlockEnd
  0
ENDSEC
  0
SECTION
  2
ENTITIES
  0
INSERT
  5
1A44
330
1E
100
AcDbEntity
  8
TEXT_BUBBLES
100
AcDbBlockReference
 66
     1
  2
TITLBLK
 10
0.6064423705144835
 20
0.8842270964783676
 30
0.0
  0
ATTRIB
  5
1A45
330
1A44
100
AcDbEntity
  8
TITLE
100
AcDbText
 10
1.231442370514483
 20
0.9842270964783672
 30
0.0
 40
0.2
  1
MAXICOM PUMP MONITORING CONDITION
  7
L200
100
AcDbAttribute
  2
TITLE2
 70
     0
  0
ATTRIB
  5
1A46
330
1A44
100
AcDbEntity
  8
TITLE
100
AcDbText
 10
0.3733591508691901
 20
0.785523140134575
 30
0.0
 40
0.2
  1
402
  7
L200
 72
     4
 11
0.6064423705144835
 21
0.8842270964783676
 31
0.0
100
AcDbAttribute
  2
#
 70
     0
  0
ATTRIB
  5
1A47
330
1A44
100
AcDbEntity
  8
TITLE
 62
     7
100
AcDbText
 10
1.231442370514483
 20
0.7005637793954893
 30
0.0
 40
0.1
  1
N.T.S.
  7
L100
100
AcDbAttribute
  2
SCALE
 70
     0
  0
ATTRIB
  5
1A48
330
1A44
100
AcDbEntity
  8
TITLE
100
AcDbText
 10
2.713645751168312
 20
0.5927927664583184
 30
0.0
 40
0.2
  1
MAXILINK / ESP-SITE-SAT 
  7
L200
100
AcDbAttribute
  2
TITLE3
 70
     0
  0
ATTRIB
  5
1A49
330
1A44
100
AcDbEntity
  8
TITLE
 62
     7
100
AcDbText
 10
0.2611568530064103
 20
0.0616711444969025
 30
0.0
 40
0.08
  1
402-PUMP MONITOR-LINK.DWG
  7
L80
 72
     2
 11
2.143061614911171
 21
0.0616711444969025
 31
0.0
100
AcDbAttribute
  2
DWG-NAME
 70
     0
  0
ATTRIB
  5
1A4A
330
1A44
100
AcDbEntity
  8
TITLE
 62
     7
100
AcDbText
 10
7.731500544252093
 20
0.9696027915446396
 30
0.0
 40
0.08
  1
1-16-04
  7
L80
 72
     2
 11
8.261024353775903
 21
0.9696027915446396
 31
0.0
100
AcDbAttribute
  2
REVISED
 70
     0
  0
ATTRIB
  5
1A4B
330
1A44
100
AcDbEntity
  8
TITLE
100
AcDbText
 10
1.023879185805707
 20
1.34371230274675
 30
0.0
 40
0.2
  1

  7
L200
100
AcDbAttribute
  2
TITLE1
 70
     0
  0
ATTRIB
  5
1A4C
330
1A44
100
AcDbEntity
  8
TITLE
100
AcDbText
 10
2.713645751168312
 20
0.2692560808167741
 30
0.0
 40
0.2
  1
COMMUNICATION
  7
L200
100
AcDbAttribute
  2
TITLE4
 70
     0
  0
SEQEND
  5
1A4D
330
1A44
100
AcDbEntity
  8
TEXT_BUBBLES
  0
LWPOLYLINE
  5
1A4E
330
1E
100
AcDbEntity
  8
IMAGE
100
AcDbPolyline
 90
        4
 70
     1
 43
0.0
 10
0.0
 20
0.0
 10
16.49
 20
0.0
 10
16.49
 20
10.43999999999999
 10
0.0
 20
10.43999999999999
  0
SOLID
  5
1A57
330
1E
100
AcDbEntity
  8
TEXT_BUBBLES
100
AcDbTrace
 10
3.101238755862351
 20
5.39748545795494
 30
0.0
 11
3.069571381847279
 21
5.46547205533258
 31
0.0
 12
2.881445276721889
 22
5.336476634598548
 32
0.0
 13
2.881445276721889
 23
5.336476634598548
 33
0.0
  0
LWPOLYLINE
  5
1A58
330
1E
100
AcDbEntity
  8
IMAGE
100
AcDbPolyline
 90
        2
 70
     1
 43
0.0572916666666667
 10
2.980337286980651
 20
4.200397432170491
 42
1.0
 10
3.079295620313984
 20
4.200397432170491
 42
1.0
  0
LINE
  5
1A59
330
1E
100
AcDbEntity
  8
TEXT_BUBBLES
100
AcDbLine
 10
3.085405068854815
 20
5.431478756643763
 30
0.0
 11
3.654176589864372
 21
5.696405980238776
 31
0.0
  0
SOLID
  5
1A5A
330
1E
100
AcDbEntity
  8
TEXT_BUBBLES
100
AcDbTrace
 10
3.274966936480716
 20
4.672449185306253
 30
0.0
 11
3.232699873922137
 21
4.734404777650042
 31
0.0
 12
3.06796662817007
 22
4.576625793802421
 32
0.0
 13
3.06796662817007
 23
4.576625793802421
 33
0.0
  0
LWPOLYLINE
  5
1A5B
330
1E
100
AcDbEntity
  8
IMAGE
100
AcDbPolyline
 90
        7
 70
     0
 43
0.0104166666666667
 10
3.026882422561407
 20
4.261459751689893
 10
3.026882422561407
 20
4.60627034352147
 10
3.208251340282976
 20
4.194917356775028
 10
3.286844537962324
 20
4.60627034352147
 10
3.371483366232389
 20
4.194917356775028
 10
3.534715392181801
 20
4.618368960778725
 10
3.534715392181801
 20
4.261459751689893
  0
LWPOLYLINE
  5
1A5C
330
1E
100
AcDbEntity
  8
IMAGE
100
AcDbPolyline
 90
        3
 70
     0
 43
0.0104166666666667
 10
3.026882422561407
 20
4.146522887746034
 10
3.026882422561407
 20
3.19047550079069
 10
4.115095928890827
 20
3.19047550079069
  0
LWPOLYLINE
  5
1A5D
330
1E
100
AcDbEntity
  8
IMAGE
100
AcDbPolyline
 90
        4
 70
     1
 43
0.0
 10
1.193682606955358
 20
3.542710089961865
 10
4.006182606955357
 20
3.542710089961865
 10
4.006182606955357
 20
5.313543423295194
 10
1.193682606955358
 20
5.313543423295194
  0
LWPOLYLINE
  5
1A5E
330
1E
100
AcDbEntity
  8
IMAGE
100
AcDbPolyline
 90
        2
 70
     0
 43
0.0208333333333333
 10
5.155729381067073
 20
2.660333110587923
 10
2.126083464544275
 20
2.660333110587923
  0
LWPOLYLINE
  5
1A5F
330
1E
100
AcDbEntity
  8
IMAGE
100
AcDbPolyline
 90
        2
 70
     0
 43
0.0208333333333333
 10
5.155729381067073
 20
2.821061441044178
 10
2.519049452941009
 20
2.821061441044178
  0
LWPOLYLINE
  5
1A60
330
1E
100
AcDbEntity
  8
IMAGE
100
AcDbPolyline
 90
        2
 70
     0
 43
0.0208333333333333
 10
5.155729381067073
 20
2.519695821438699
 10
1.702889323193946
 20
2.519695821438699
  0
ARC
  5
1A61
330
1E
100
AcDbEntity
  8
IMAGE
100
AcDbCircle
 10
1.746907375176244
 20
5.695740017558329
 30
0.0
 40
0.0479037538740328
100
AcDbArc
 50
216.5903692677126
 51
8.797124314226456
  0
LINE
  5
1A62
330
1E
100
AcDbEntity
  8
IMAGE
100
AcDbLine
 10
1.503619632715143
 20
4.427593904256821
 30
0.0
 11
1.920286299381811
 21
4.427593904256821
 31
0.0
  0
LINE
  5
1A63
330
1E
100
AcDbEntity
  8
IMAGE
100
AcDbLine
 10
1.50734223904202
 20
4.427593904256821
 30
0.0
 11
1.924008905708685
 21
4.427593904256821
 31
0.0
  0
LWPOLYLINE
  5
1A64
330
1E
100
AcDbEntity
  8
IMAGE
100
AcDbPolyline
 90
        2
 70
     0
 43
0.0104166666666667
 10
1.504602621777112
 20
4.427535940082347
 10
3.026882422561407
 20
4.427535940082347
  0
LWPOLYLINE
  5
1A65
330
1E
100
AcDbEntity
  8
IMAGE
100
AcDbPolyline
 90
        2
 70
     0
 43
0.0208333333333333
 10
1.702889323193946
 20
4.152495322334902
 10
1.702889323193946
 20
3.741065461548699
  0
LWPOLYLINE
  5
1A66
330
1E
100
AcDbEntity
  8
IMAGE
100
AcDbPolyline
 90
        2
 70
     0
 43
0.0208333333333333
 10
1.707037366192015
 20
2.5172553390851
 10
1.707037366192015
 20
3.64011687630833
  0
LWPOLYLINE
  5
1A67
330
1E
100
AcDbEntity
  8
IMAGE
100
AcDbPolyline
 90
        2
 70
     1
 43
0.0572916666666667
 10
1.658883814026615
 20
3.704354124623308
 42
1.0
 10
1.757842147359952
 20
3.704354124623308
 42
1.0
  0
LWPOLYLINE
  5
1A68
330
1E
100
AcDbEntity
  8
IMAGE
100
AcDbPolyline
 90
       19
 70
     0
 43
0.0104166666666667
 10
1.695054398040923
 20
5.10610140554206
 10
1.673492288667074
 20
5.058633896671126
 10
1.660555023042765
 20
5.011166387800192
 10
1.651930179293224
 20
4.972329335087608
 10
1.660555023042765
 20
4.942122738533378
 10
1.690741976166153
 20
4.937807510454203
 10
1.725241351164309
 20
4.946437966612557
 10
1.751115882412931
 20
4.955068422770911
 10
1.768365569912007
 20
4.950753194691732
 10
1.789927679285859
 20
4.946437966612557
 10
1.794240101160627
 20
4.911916141979149
 10
1.785615257411089
 20
4.886024773504098
 10
1.772677991786778
 20
4.86876386118739
 10
1.755428304287701
 20
4.83855726463316
 10
1.733866194913849
 20
4.816981124237284
 10
1.716616507414773
 20
4.782459299603876
 10
1.707991663665232
 20
4.756567931128825
 10
1.699366819915691
 20
4.726361334574595
 10
1.690741976166153
 20
4.713415650337062
  0
LWPOLYLINE
  5
1A69
330
1E
100
AcDbEntity
  8
IMAGE
100
AcDbPolyline
 90
        2
 70
     0
 43
0.0104166666666667
 10
1.506586206336467
 20
4.119863935948081
 10
1.506586206336467
 20
4.744863935948083
  0
LWPOLYLINE
  5
1A6A
330
1E
100
AcDbEntity
  8
IMAGE
100
AcDbPolyline
 90
        2
 70
     1
 43
0.0572916666666667
 10
1.658883814026615
 20
4.200397432170491
 42
1.0
 10
1.757842147359952
 20
4.200397432170491
 42
1.0
  0
LWPOLYLINE
  5
1A6B
330
1E
100
AcDbEntity
  8
IMAGE
100
AcDbPolyline
 90
        2
 70
     1
 43
0.0572916666666667
 10
1.658883814026615
 20
4.66596397333101
 42
1.0
 10
1.757842147359952
 20
4.66596397333101
 42
1.0
  0
LWPOLYLINE
  5
1A6C
330
1E
100
AcDbEntity
  8
IMAGE
100
AcDbPolyline
 90
        2
 70
     0
 43
0.0104166666666667
 10
1.702889323193946
 20
5.211349301960486
 10
1.702889323193946
 20
5.66513223665115
  0
LWPOLYLINE
  5
1A6D
330
1E
100
AcDbEntity
  8
IMAGE
100
AcDbPolyline
 90
        2
 70
     1
 43
0.0572916666666667
 10
1.658883814026615
 20
5.162007280878193
 42
1.0
 10
1.757842147359952
 20
5.162007280878193
 42
1.0
  0
LWPOLYLINE
  5
1A6E
330
1E
100
AcDbEntity
  8
IMAGE
100
AcDbPolyline
 90
        2
 70
     0
 43
0.0
 10
1.702611907403535
 20
5.668322241432883
 42
0.4827164187955699
 10
1.616808919459534
 20
5.632441076652772
 42
0.4827164187955699
  0
LWPOLYLINE
  5
1A6F
330
1E
100
AcDbEntity
  8
IMAGE
100
AcDbPolyline
 90
        2
 70
     0
 43
0.0208333333333333
 10
2.519049452941009
 20
4.152495322334902
 10
2.519049452941009
 20
3.741065461548699
  0
LWPOLYLINE
  5
1A70
330
1E
100
AcDbEntity
  8
IMAGE
100
AcDbPolyline
 90
        2
 70
     0
 43
0.0208333333333333
 10
2.126083464544275
 20
4.152495322334902
 10
2.126083464544275
 20
3.741065461548699
  0
LWPOLYLINE
  5
1A71
330
1E
100
AcDbEntity
  8
IMAGE
100
AcDbPolyline
 90
        2
 70
     1
 43
0.0572916666666667
 10
2.470411993285424
 20
3.704354124623308
 42
1.0
 10
2.569370326618757
 20
3.704354124623308
 42
1.0
  0
LWPOLYLINE
  5
1A72
330
1E
100
AcDbEntity
  8
IMAGE
100
AcDbPolyline
 90
        2
 70
     0
 43
0.0208333333333333
 10
2.131748005010379
 20
2.660409001201208
 10
2.131748005010379
 20
3.64011687630833
  0
LWPOLYLINE
  5
1A73
330
1E
100
AcDbEntity
  8
IMAGE
100
AcDbPolyline
 90
        2
 70
     1
 43
0.0572916666666667
 10
2.079538328963522
 20
3.704354124623308
 42
1.0
 10
2.178496662296854
 20
3.704354124623308
 42
1.0
  0
LWPOLYLINE
  5
1A74
330
1E
100
AcDbEntity
  8
IMAGE
100
AcDbPolyline
 90
        2
 70
     0
 43
0.0208333333333333
 10
2.516222899098582
 20
2.821456871081832
 10
2.516222899098582
 20
3.631169772426074
  0
LWPOLYLINE
  5
1A75
330
1E
100
AcDbEntity
  8
IMAGE
100
AcDbPolyline
 90
        2
 70
     0
 43
0.0
 10
2.519049452941009
 20
2.821061441044178
 10
2.519049452941009
 20
3.635643324367202
  0
LWPOLYLINE
  5
1A76
330
1E
100
AcDbEntity
  8
IMAGE
100
AcDbPolyline
 90
        2
 70
     1
 43
0.0572916666666667
 10
2.470411993285424
 20
5.162007280878193
 42
1.0
 10
2.569370326618757
 20
5.162007280878193
 42
1.0
  0
LWPOLYLINE
  5
1A77
330
1E
100
AcDbEntity
  8
IMAGE
100
AcDbPolyline
 90
        2
 70
     1
 43
0.0572916666666667
 10
2.470411993285424
 20
4.66596397333101
 42
1.0
 10
2.569370326618757
 20
4.66596397333101
 42
1.0
  0
LWPOLYLINE
  5
1A78
330
1E
100
AcDbEntity
  8
IMAGE
100
AcDbPolyline
 90
        2
 70
     1
 43
0.0572916666666667
 10
2.470411993285424
 20
4.200397432170491
 42
1.0
 10
2.569370326618757
 20
4.200397432170491
 42
1.0
  0
LWPOLYLINE
  5
1A79
330
1E
100
AcDbEntity
  8
IMAGE
100
AcDbPolyline
 90
        2
 70
     0
 43
0.0
 10
2.51556213609222
 20
5.664678822413358
 42
0.4827164187955699
 10
2.429759148148219
 20
5.62879765763325
 42
0.4827164187955699
  0
LWPOLYLINE
  5
1A7A
330
1E
100
AcDbEntity
  8
IMAGE
100
AcDbPolyline
 90
       19
 70
     0
 43
0.0104166666666667
 10
2.13060900739267
 20
5.110416633621235
 10
2.109046898018823
 20
5.062949124750297
 10
2.096109632394512
 20
5.01548161587937
 10
2.087484788644974
 20
4.976644563166787
 10
2.096109632394512
 20
4.946437966612557
 10
2.126296585517902
 20
4.942122738533378
 10
2.16079596051606
 20
4.950753194691732
 10
2.18667049176468
 20
4.959383650850083
 10
2.203920179263757
 20
4.955068422770911
 10
2.225482288637606
 20
4.950753194691732
 10
2.229794710512376
 20
4.916231370058327
 10
2.221169866762838
 20
4.890340001583273
 10
2.208232601138527
 20
4.873079089266565
 10
2.190982913639448
 20
4.842872492712335
 10
2.169420804265599
 20
4.821296352316459
 10
2.152171116766522
 20
4.786774527683054
 10
2.143546273016981
 20
4.760883159208
 10
2.13492142926744
 20
4.73067656265377
 10
2.126296585517902
 20
4.717730878416241
  0
LWPOLYLINE
  5
1A7B
330
1E
100
AcDbEntity
  8
IMAGE
100
AcDbPolyline
 90
        2
 70
     1
 43
0.0572916666666667
 10
2.079538328963522
 20
4.66596397333101
 42
1.0
 10
2.178496662296854
 20
4.66596397333101
 42
1.0
  0
LWPOLYLINE
  5
1A7C
330
1E
100
AcDbEntity
  8
IMAGE
100
AcDbPolyline
 90
        2
 70
     1
 43
0.0572916666666667
 10
2.079538328963522
 20
4.200397432170491
 42
1.0
 10
2.178496662296854
 20
4.200397432170491
 42
1.0
  0
LINE
  5
1A7D
330
1E
100
AcDbEntity
  8
IMAGE
100
AcDbLine
 10
1.916828934998296
 20
4.431318436586111
 30
0.0
 11
2.333495601664966
 21
4.431318436586111
 31
0.0
  0
LINE
  5
1A7E
330
1E
100
AcDbEntity
  8
IMAGE
100
AcDbLine
 10
1.920286299381811
 20
4.427593904256821
 30
0.0
 11
1.920286299381811
 21
4.744179152245977
 31
0.0
  0
LWPOLYLINE
  5
1A7F
330
1E
100
AcDbEntity
  8
IMAGE
100
AcDbPolyline
 90
        2
 70
     0
 43
0.0104166666666667
 10
1.916828934998296
 20
4.744179152245977
 10
1.916828934998296
 20
4.11100865626767
  0
LINE
  5
1A80
330
1E
100
AcDbEntity
  8
IMAGE
100
AcDbLine
 10
1.920286299381811
 20
4.744179152245977
 30
0.0
 11
1.920286299381811
 21
4.114733188596953
 31
0.0
  0
LINE
  5
1A81
330
1E
100
AcDbEntity
  8
IMAGE
100
AcDbLine
 10
2.333495601664966
 20
4.431318436586111
 30
0.0
 11
2.333495601664966
 21
4.74790368457526
 31
0.0
  0
LWPOLYLINE
  5
1A82
330
1E
100
AcDbEntity
  8
IMAGE
100
AcDbPolyline
 90
        2
 70
     0
 43
0.0104166666666667
 10
2.330038237281451
 20
4.74790368457526
 10
2.330038237281451
 20
4.11100865626767
  0
LINE
  5
1A83
330
1E
100
AcDbEntity
  8
IMAGE
100
AcDbLine
 10
2.333495601664966
 20
4.74790368457526
 30
0.0
 11
2.333495601664966
 21
4.11100865626767
 31
0.0
  0
LWPOLYLINE
  5
1A84
330
1E
100
AcDbEntity
  8
IMAGE
100
AcDbPolyline
 90
        2
 70
     0
 43
0.0208333333333333
 10
2.126066839846679
 20
5.234752411030194
 10
2.126066839846679
 20
5.653490852569626
  0
LWPOLYLINE
  5
1A85
330
1E
100
AcDbEntity
  8
IMAGE
100
AcDbPolyline
 90
        2
 70
     0
 43
0.0104166666666667
 10
2.126083464544275
 20
5.223450180218908
 10
2.126083464544275
 20
5.66513223665115
  0
LWPOLYLINE
  5
1A86
330
1E
100
AcDbEntity
  8
IMAGE
100
AcDbPolyline
 90
        2
 70
     1
 43
0.0572916666666667
 10
2.079538328963522
 20
5.162007280878193
 42
1.0
 10
2.178496662296854
 20
5.162007280878193
 42
1.0
  0
LWPOLYLINE
  5
1A87
330
1E
100
AcDbEntity
  8
IMAGE
100
AcDbPolyline
 90
        2
 70
     0
 43
0.0
 10
2.123120004429253
 20
5.663364786795264
 42
0.4827164187955699
 10
2.037317016485252
 20
5.627483622015156
 42
0.4827164187955699
  0
ARC
  5
1A88
330
1E
100
AcDbEntity
  8
IMAGE
100
AcDbCircle
 10
2.170298247491085
 20
5.69156697633979
 30
0.0
 40
0.0479037538740328
100
AcDbArc
 50
216.5903692677126
 51
8.797124314226456
  0
LWPOLYLINE
  5
1A89
330
1E
100
AcDbEntity
  8
IMAGE
100
AcDbPolyline
 90
       19
 70
     0
 43
0.0104166666666667
 10
2.514414554247181
 20
5.131992774017111
 10
2.492852444873333
 20
5.084525265146184
 10
2.479915179249023
 20
5.037057756275246
 10
2.471290335499483
 20
4.998220703562663
 10
2.479915179249023
 20
4.968014107008433
 10
2.510102132372412
 20
4.963698878929258
 10
2.54460150737057
 20
4.972329335087608
 10
2.570476038619189
 20
4.980959791245962
 10
2.587725726118268
 20
4.976644563166787
 10
2.609287835492117
 20
4.972329335087608
 10
2.613600257366886
 20
4.937807510454203
 10
2.604975413617348
 20
4.911916141979149
 10
2.592038147993038
 20
4.894655229662451
 10
2.574788460493958
 20
4.864448633108218
 10
2.553226351120109
 20
4.842872492712335
 10
2.535976663621032
 20
4.80835066807893
 10
2.527351819871491
 20
4.782459299603876
 10
2.51872697612195
 20
4.752252703049646
 10
2.510102132372412
 20
4.739307018812117
  0
LWPOLYLINE
  5
1A8A
330
1E
100
AcDbEntity
  8
IMAGE
100
AcDbPolyline
 90
        2
 70
     0
 43
0.0208333333333333
 10
2.517314902732005
 20
5.240190572608622
 10
2.517314902732005
 20
5.653490852569626
  0
LWPOLYLINE
  5
1A8B
330
1E
100
AcDbEntity
  8
IMAGE
100
AcDbPolyline
 90
        2
 70
     0
 43
0.0104166666666667
 10
2.519049452941009
 20
5.211349301960486
 10
2.519049452941009
 20
5.66513223665115
  0
ARC
  5
1A8C
330
1E
100
AcDbEntity
  8
IMAGE
100
AcDbCircle
 10
2.561528287483612
 20
5.691312185119728
 30
0.0
 40
0.0479037538740328
100
AcDbArc
 50
216.5903692677126
 51
8.797124314226456
  0
TEXT
  5
1A96
330
1E
100
AcDbEntity
  8
IMAGE
100
AcDbText
 10
1.612079898868919
 20
5.777613055921848
 30
0.0
 40
0.125
  1
L1
  7
L100
100
AcDbText
  0
TEXT
  5
1A9A
330
1E
100
AcDbEntity
  8
IMAGE
100
AcDbText
 10
2.4437371214042
 20
5.769637774351783
 30
0.0
 40
0.125
  1
L3
  7
L100
100
AcDbText
  0
TEXT
  5
1A9B
330
1E
100
AcDbEntity
  8
IMAGE
100
AcDbText
 10
1.991692919995205
 20
5.769637774351783
 30
0.0
 40
0.125
  1
L2
  7
L100
100
AcDbText
  0
INSERT
  5
1AB0
330
1E
100
AcDbEntity
  8
TEXT_BUBBLES
100
AcDbBlockReference
 66
     1
  2
bubble
 10
5.049914673439019
 20
5.77562144814517
 30
0.0
  0
ATTRIB
  5
1AB1
330
1AB0
100
AcDbEntity
  8
TEXT_BUBBLES
100
AcDbText
 10
4.987414673439019
 20
5.71312144814517
 30
0.0
 40
0.125
  1
6
  7
ROMANS
 72
     4
 11
5.049914673439019
 21
5.77562144814517
 31
0.0
100
AcDbAttribute
  2
XX
 70
     0
  0
SEQEND
  5
1AB2
330
1AB0
100
AcDbEntity
  8
TEXT_BUBBLES
  0
INSERT
  5
1AB3
330
1E
100
AcDbEntity
  8
TEXT_BUBBLES
100
AcDbBlockReference
 66
     1
  2
bubble
 10
3.769764375467632
 20
5.775586010203746
 30
0.0
  0
ATTRIB
  5
1AB4
330
1AB3
100
AcDbEntity
  8
TEXT_BUBBLES
100
AcDbText
 10
3.710240565943823
 20
5.713086010203746
 30
0.0
 40
0.125
  1
2
  7
ROMANS
 72
     4
 11
3.769764375467632
 21
5.775586010203746
 31
0.0
100
AcDbAttribute
  2
XX
 70
     0
  0
SEQEND
  5
1AB5
330
1AB3
100
AcDbEntity
  8
TEXT_BUBBLES
  0
LWPOLYLINE
  5
1AB8
330
1E
100
AcDbEntity
  8
IMAGE
100
AcDbPolyline
 90
        2
 70
     0
 43
0.0104166666666667
 10
6.178401090417027
 20
5.101794820685889
 10
6.178401090417027
 20
5.726794820685889
  0
LINE
  5
1AB9
330
1E
100
AcDbEntity
  8
IMAGE
100
AcDbLine
 10
7.909543444059664
 20
4.894928028567488
 30
0.0
 11
7.909543444059664
 21
5.936594695234157
 31
0.0
  0
LINE
  5
1ABA
330
1E
100
AcDbEntity
  8
IMAGE
100
AcDbLine
 10
6.034543444059668
 20
5.936594695234157
 30
0.0
 11
6.034543444059668
 21
4.894928028567488
 31
0.0
  0
TEXT
  5
1ABB
330
1E
100
AcDbEntity
  8
IMAGE
100
AcDbText
 10
5.389922251344223
 20
2.382147498033687
 30
0.0
 40
0.125
  1
MOTOR
  7
L100
100
AcDbText
  0
TEXT
  5
1ABC
330
1E
100
AcDbEntity
  8
IMAGE
100
AcDbText
 10
5.442562832853598
 20
2.592663918510806
 30
0.0
 40
0.125
  1
PUMP
  7
L100
100
AcDbText
  0
LWPOLYLINE
  5
1ABD
330
1E
100
AcDbEntity
  8
IMAGE
100
AcDbPolyline
 90
        3
 70
     0
 43
0.0104166666666667
 10
4.121141559481545
 20
3.360112766024887
 10
5.901901028596046
 20
3.360112766024887
 10
5.878220955099829
 20
3.759155297491791
  0
LINE
  5
1ABE
330
1E
100
AcDbEntity
  8
IMAGE
100
AcDbLine
 10
5.156987883536697
 20
1.9124685290942
 30
0.0
 11
6.198654550203363
 21
1.9124685290942
 31
0.0
  0
CIRCLE
  5
1ABF
330
1E
100
AcDbEntity
  8
IMAGE
100
AcDbCircle
 10
5.677821216870031
 20
2.458724150610545
 30
0.0
 40
0.46875
  0
LWPOLYLINE
  5
1AC0
330
1E
100
AcDbEntity
  8
IMAGE
100
AcDbPolyline
 90
        3
 70
     0
 43
0.0104166666666667
 10
4.115095928890827
 20
3.19047550079069
 10
6.517582939497717
 20
3.19047550079069
 10
6.470222792505282
 20
4.104364721802434
  0
LWPOLYLINE
  5
1AC1
330
1E
100
AcDbEntity
  8
IMAGE
100
AcDbPolyline
 90
        4
 70
     0
 43
0.0104166666666667
 10
7.631831359048447
 20
4.112034666547928
 10
7.631831359048447
 20
3.759155297491791
 10
4.694217280288921
 20
3.759155297491791
 10
4.694217280288921
 20
4.398943124322234
  0
LWPOLYLINE
  5
1AC2
330
1E
100
AcDbEntity
  8
IMAGE
100
AcDbPolyline
 90
        3
 70
     0
 43
0.0104166666666667
 10
7.110612460004912
 20
4.104364721802434
 10
5.333579264686811
 20
4.104364721802434
 10
5.333579264686811
 20
5.133514332905336
  0
LINE
  5
1AC3
330
1E
100
AcDbEntity
  8
IMAGE
100
AcDbLine
 10
5.156987883536697
 20
1.9124685290942
 30
0.0
 11
5.367437068753835
 21
2.107457523818044
 31
0.0
  0
INSERT
  5
1AC4
330
1E
100
AcDbEntity
  8
TEXT_BUBBLES
100
AcDbBlockReference
 66
     1
  2
bubble
 10
4.252529279496149
 20
5.06522061254216
 30
0.0
  0
ATTRIB
  5
1AC5
330
1AC4
100
AcDbEntity
  8
TEXT_BUBBLES
100
AcDbText
 10
4.19300546997234
 20
5.00272061254216
 30
0.0
 40
0.125
  1
5
  7
ROMANS
 72
     4
 11
4.252529279496149
 21
5.06522061254216
 31
0.0
100
AcDbAttribute
  2
XX
 70
     0
  0
SEQEND
  5
1AC6
330
1AC4
100
AcDbEntity
  8
TEXT_BUBBLES
  0
LINE
  5
1AC7
330
1E
100
AcDbEntity
  8
TEXT_BUBBLES
100
AcDbLine
 10
4.614041789949769
 20
4.6635213746452
 30
0.0
 11
4.317231220472114
 21
4.939615149215428
 31
0.0
  0
LWPOLYLINE
  5
1AC8
330
1E
100
AcDbEntity
  8
IMAGE
100
AcDbPolyline
 90
        3
 70
     0
 43
0.0104166666666667
 10
3.534715392181801
 20
4.152572196374658
 10
3.534715392181801
 20
3.360112766024887
 10
4.121141559481545
 20
3.360112766024887
  0
INSERT
  5
1AC9
330
1E
100
AcDbEntity
  8
TEXT_BUBBLES
100
AcDbBlockReference
 66
     1
  2
bubble
 10
3.768045852244263
 20
5.061582720485398
 30
0.0
  0
ATTRIB
  5
1ACA
330
1AC9
100
AcDbEntity
  8
TEXT_BUBBLES
100
AcDbText
 10
3.705545852244263
 20
4.999082720485398
 30
0.0
 40
0.125
  1
4
  7
ROMANS
 72
     4
 11
3.768045852244263
 21
5.061582720485398
 31
0.0
100
AcDbAttribute
  2
XX
 70
     0
  0
SEQEND
  5
1ACB
330
1AC9
100
AcDbEntity
  8
TEXT_BUBBLES
  0
LINE
  5
1ACC
330
1E
100
AcDbEntity
  8
TEXT_BUBBLES
100
AcDbLine
 10
3.253833405201426
 20
4.703426981478153
 30
0.0
 11
3.654176589864352
 21
4.976547288958276
 31
0.0
  0
LINE
  5
1ACD
330
1E
100
AcDbEntity
  8
IMAGE
100
AcDbLine
 10
3.371483366232389
 20
4.200966665403652
 30
0.0
 11
3.534715392181801
 21
4.60627034352147
 31
0.0
  0
LINE
  5
1ACF
330
1E
100
AcDbEntity
  8
IMAGE
100
AcDbLine
 10
3.286844537962324
 20
4.60627034352147
 30
0.0
 11
3.371483366232389
 21
4.200966665403652
 31
0.0
  0
LINE
  5
1AD0
330
1E
100
AcDbEntity
  8
IMAGE
100
AcDbLine
 10
3.534715392181801
 20
4.60627034352147
 30
0.0
 11
3.534715392181801
 21
4.279607677575769
 31
0.0
  0
LWPOLYLINE
  5
1AD1
330
1E
100
AcDbEntity
  8
IMAGE
100
AcDbPolyline
 90
        2
 70
     0
 43
0.0104166666666667
 10
3.540761022772521
 20
4.427535940082347
 10
3.692102621777112
 20
4.427535940082347
  0
LWPOLYLINE
  5
1AD2
330
1E
100
AcDbEntity
  8
IMAGE
100
AcDbPolyline
 90
        2
 70
     1
 43
0.0572916666666667
 10
3.492123563116935
 20
4.200397432170491
 42
1.0
 10
3.591081896450267
 20
4.200397432170491
 42
1.0
  0
LINE
  5
1AD3
330
1E
100
AcDbEntity
  8
IMAGE
100
AcDbLine
 10
5.157144248195216
 20
2.877163115021768
 30
0.0
 11
5.466180781947834
 21
2.877163115021768
 31
0.0
  0
LINE
  5
1AD4
330
1E
100
AcDbEntity
  8
IMAGE
100
AcDbLine
 10
5.157144248195216
 20
2.458724150610545
 30
0.0
 11
5.157144248195216
 21
2.877163115021768
 31
0.0
  0
LINE
  5
1AD5
330
1E
100
AcDbEntity
  8
IMAGE
100
AcDbLine
 10
5.208650337153985
 20
2.458724150610545
 30
0.0
 11
5.157144248195216
 21
2.458724150610545
 31
0.0
  0
TEXT
  5
1AD6
330
1E
100
AcDbEntity
  8
IMAGE
100
AcDbText
 10
4.611594256323284
 20
5.425412530187956
 30
0.0
 40
0.125
  1
120 VAC
  7
L100
100
AcDbText
  0
LWPOLYLINE
  5
1AD7
330
1E
100
AcDbEntity
  8
IMAGE
100
AcDbPolyline
 90
        2
 70
     0
 43
0.0104166666666667
 10
4.708002109742222
 20
4.872860033085523
 10
4.708002109742222
 20
5.228297714657991
  0
LWPOLYLINE
  5
1AD8
330
1E
100
AcDbEntity
  8
IMAGE
100
AcDbPolyline
 90
        2
 70
     1
 43
0.0572916666666667
 10
4.656884526575685
 20
4.456071900654188
 42
1.0
 10
4.755842859909018
 20
4.456071900654188
 42
1.0
  0
LWPOLYLINE
  5
1AD9
330
1E
100
AcDbEntity
  8
IMAGE
100
AcDbPolyline
 90
        2
 70
     1
 43
0.0572916666666667
 10
4.656884526575685
 20
4.811509582226656
 42
1.0
 10
4.755842859909018
 20
4.811509582226656
 42
1.0
  0
SOLID
  5
1ADA
330
1E
100
AcDbEntity
  8
TEXT_BUBBLES
100
AcDbTrace
 10
4.472544098395681
 20
4.842433792562077
 30
0.0
 11
4.422166973209348
 21
4.78687170784632
 31
0.0
 12
4.614041789949769
 22
4.6635213746452
 32
0.0
 13
4.614041789949769
 23
4.6635213746452
 33
0.0
  0
LWPOLYLINE
  5
1ADB
330
1E
100
AcDbEntity
  8
IMAGE
100
AcDbPolyline
 90
        2
 70
     0
 43
0.0125
 10
4.696174485702176
 20
4.775928052553433
 10
4.583454441186807
 20
4.591728788389937
  0
LWPOLYLINE
  5
1ADC
330
1E
100
AcDbEntity
  8
IMAGE
100
AcDbPolyline
 90
        2
 70
     0
 43
0.0
 10
4.701448429709426
 20
5.241830305028014
 42
0.4827164187955699
 10
4.615645441765424
 20
5.205949140247907
 42
0.4827164187955699
  0
ARC
  5
1ADD
330
1E
100
AcDbEntity
  8
IMAGE
100
AcDbCircle
 10
4.747414581100818
 20
5.268463667734377
 30
0.0
 40
0.0479037538740328
100
AcDbArc
 50
216.5903692677126
 51
8.797124314226456
  0
ARC
  5
1ADE
330
1E
100
AcDbEntity
  8
IMAGE
100
AcDbCircle
 10
5.374035318604416
 20
5.268463667734377
 30
0.0
 40
0.0479037538740328
100
AcDbArc
 50
216.5903692677126
 51
8.797124314226456
  0
LWPOLYLINE
  5
1ADF
330
1E
100
AcDbEntity
  8
IMAGE
100
AcDbPolyline
 90
        2
 70
     0
 43
0.0104166666666667
 10
5.333579264686811
 20
5.133514332905336
 10
5.333579264686811
 20
5.228297714657991
  0
LWPOLYLINE
  5
1AE0
330
1E
100
AcDbEntity
  8
IMAGE
100
AcDbPolyline
 90
        2
 70
     0
 43
0.0
 10
5.328069167213026
 20
5.241830305028014
 42
0.4827164187955699
 10
5.242266179269023
 20
5.205949140247907
 42
0.4827164187955699
  0
LINE
  5
1AE1
330
1E
100
AcDbEntity
  8
IMAGE
100
AcDbLine
 10
6.198654550203363
 20
1.9124685290942
 30
0.0
 11
5.98909632760143
 21
2.10608597273064
 31
0.0
  0
LWPOLYLINE
  5
1AE2
330
1E
100
AcDbEntity
  8
IMAGE
100
AcDbPolyline
 90
        2
 70
     0
 43
0.0104166666666667
 10
6.176417505857671
 20
5.409466824820161
 10
7.129814340887207
 20
5.409466824820161
  0
LINE
  5
1AE3
330
1E
100
AcDbEntity
  8
IMAGE
100
AcDbLine
 10
6.034543444059668
 20
4.894928028567488
 30
0.0
 11
7.909543444059664
 21
4.894928028567488
 31
0.0
  0
LWPOLYLINE
  5
1AE4
330
1E
100
AcDbEntity
  8
IMAGE
100
AcDbPolyline
 90
        2
 70
     1
 43
0.0572916666666667
 10
6.425227945792995
 20
4.103703794677042
 42
1.0
 10
6.524186279126327
 20
4.103703794677042
 42
1.0
  0
LWPOLYLINE
  5
1AE5
330
1E
100
AcDbEntity
  8
IMAGE
100
AcDbPolyline
 90
        2
 70
     1
 43
0.0572916666666667
 10
5.833282479190591
 20
3.766330076188284
 42
1.0
 10
5.932240812523923
 20
3.766330076188284
 42
1.0
  0
LWPOLYLINE
  5
1AE6
330
1E
100
AcDbEntity
  8
IMAGE
100
AcDbPolyline
 90
        2
 70
     1
 43
0.0572916666666667
 10
6.330698698107177
 20
5.647894858068821
 42
1.0
 10
6.429657031440509
 20
5.647894858068821
 42
1.0
  0
LWPOLYLINE
  5
1AE7
330
1E
100
AcDbEntity
  8
IMAGE
100
AcDbPolyline
 90
        2
 70
     1
 43
0.0572916666666667
 10
6.330698698107177
 20
5.182328316908297
 42
1.0
 10
6.429657031440509
 20
5.182328316908297
 42
1.0
  0
LWPOLYLINE
  5
1AE8
330
1E
100
AcDbEntity
  8
IMAGE
100
AcDbPolyline
 90
        2
 70
     1
 43
0.0572916666666667
 10
7.585217509328003
 20
5.182328316908297
 42
1.0
 10
7.684175842661336
 20
5.182328316908297
 42
1.0
  0
LWPOLYLINE
  5
1AE9
330
1E
100
AcDbEntity
  8
IMAGE
100
AcDbPolyline
 90
        7
 70
     0
 43
0.0104166666666667
 10
7.119976368772475
 20
5.243390636427702
 10
7.119976368772475
 20
5.588201228259284
 10
7.301345286494045
 20
5.176848241512836
 10
7.379938484173392
 20
5.588201228259284
 10
7.464577312443458
 20
5.176848241512836
 10
7.627809338392872
 20
5.600299845516532
 10
7.627809338392872
 20
5.243390636427702
  0
LWPOLYLINE
  5
1AEA
330
1E
100
AcDbEntity
  8
IMAGE
100
AcDbPolyline
 90
        2
 70
     0
 43
0.0104166666666667
 10
7.110612460004912
 20
5.116797428207466
 10
7.110612460004912
 20
4.104364721802434
  0
LWPOLYLINE
  5
1AEB
330
1E
100
AcDbEntity
  8
IMAGE
100
AcDbPolyline
 90
        2
 70
     1
 43
0.0572916666666667
 10
7.073431233191723
 20
5.182328316908297
 42
1.0
 10
7.172389566525055
 20
5.182328316908297
 42
1.0
  0
LWPOLYLINE
  5
1AEC
330
1E
100
AcDbEntity
  8
IMAGE
100
AcDbPolyline
 90
        2
 70
     0
 43
0.0104166666666667
 10
7.631831359048447
 20
5.116797428207466
 10
7.631831359048447
 20
4.112034666547928
  0
LWPOLYLINE
  5
1AED
330
1E
100
AcDbEntity
  8
IMAGE
100
AcDbPolyline
 90
        2
 70
     0
 43
0.0104166666666667
 10
7.633854968983591
 20
5.409466824820161
 10
7.785196567988183
 20
5.409466824820161
  0
LWPOLYLINE
  5
1AEE
330
1E
100
AcDbEntity
  8
IMAGE
100
AcDbPolyline
 90
        7
 70
     0
 10
6.366414972651833
 20
5.175892286198327
 40
0.018
 41
0.018
 10
6.366414972651833
 20
4.600833448564249
 40
0.018
 41
0.018
 10
5.796240005796645
 20
4.600833448564249
 40
0.018
 41
0.018
 10
5.796240005796645
 20
6.733242900029506
 40
0.01875
 41
0.01875
 10
5.796240005796645
 20
6.733242900029506
 40
0.01875
 41
0.01875
 10
5.796240005796645
 20
6.733242900029506
 40
0.01875
 41
0.01875
 10
2.585281003969364
 20
6.733242900029506
 40
0.01875
 41
0.01875
  0
LINE
  5
1B2B
330
1E
100
AcDbEntity
  8
IMAGE
100
AcDbLine
 10
7.909543444059664
 20
5.936594695234157
 30
0.0
 11
6.034543444059668
 21
5.936594695234157
 31
0.0
  0
LINE
  5
1B2E
330
1E
100
AcDbEntity
  8
TEXT_BUBBLES
100
AcDbLine
 10
7.191173746664988
 20
6.118454677822063
 30
0.0
 11
7.981151325447481
 21
6.799923417170342
 31
0.0
  0
SOLID
  5
1B2F
330
1E
100
AcDbEntity
  8
TEXT_BUBBLES
100
AcDbTrace
 10
7.215668334039747
 20
6.090059868624953
 30
0.0
 11
7.166679159290227
 21
6.146849487019169
 31
0.0
 12
7.020804891482333
 22
5.971487153573496
 32
0.0
 13
7.020804891482333
 23
5.971487153573496
 33
0.0
  0
INSERT
  5
1B30
330
1E
100
AcDbEntity
  8
TEXT_BUBBLES
100
AcDbBlockReference
 66
     1
  2
bubble
 10
8.074307105614732
 20
6.900270780478626
 30
0.0
  0
ATTRIB
  5
1B31
330
1B30
100
AcDbEntity
  8
TEXT_BUBBLES
100
AcDbText
 10
8.014783296090921
 20
6.837770780478626
 30
0.0
 40
0.125
  1
3
  7
ROMANS
 72
     4
 11
8.074307105614732
 21
6.900270780478626
 31
0.0
100
AcDbAttribute
  2
XX
 70
     0
  0
SEQEND
  5
1B32
330
1B30
100
AcDbEntity
  8
TEXT_BUBBLES
  0
TEXT
  5
1B33
330
1E
100
AcDbEntity
  8
TEXT_BUBBLES
100
AcDbText
 10
10.95959304688662
 20
6.963427767848005
 30
0.0
 40
0.125
  1
MOTOR STARTER HOLDING COIL
  7
L100
100
AcDbText
1001
CLSI_CADWRITER
1002
{
1070
  4120
1070
     0
1002
}
1002
{
1070
  4120
1070
     0
1002
}
  0
TEXT
  5
1B34
330
1E
100
AcDbEntity
  8
TEXT_BUBBLES
100
AcDbText
 10
10.95959304688662
 20
8.53791072976762
 30
0.0
 40
0.125
  1
ESP-SAT-LINK OR ESP-SITE
  7
L100
100
AcDbText
1001
CLSI_CADWRITER
1002
{
1070
  4120
1070
     0
1002
}
1002
{
1070
  4120
1070
     0
1002
}
  0
INSERT
  5
1B35
330
1E
100
AcDbEntity
  8
TEXT_BUBBLES
100
AcDbBlockReference
 66
     1
  2
bubble
 10
10.65670151744922
 20
6.134706940468396
 30
0.0
  0
ATTRIB
  5
1B36
330
1B35
100
AcDbEntity
  8
TEXT_BUBBLES
100
AcDbText
 10
10.59420151744922
 20
6.072206940468396
 30
0.0
 40
0.125
  1
6
  7
ROMANS
 72
     4
 11
10.65670151744922
 21
6.134706940468396
 31
0.0
100
AcDbAttribute
  2
XX
 70
     0
  0
SEQEND
  5
1B37
330
1B35
100
AcDbEntity
  8
TEXT_BUBBLES
  0
TEXT
  5
1B38
330
1E
100
AcDbEntity
  8
TEXT_BUBBLES
100
AcDbText
 10
10.95959304688662
 20
5.838427767848002
 30
0.0
 40
0.125
  1
STARTER COIL
  7
L100
100
AcDbText
1001
CLSI_CADWRITER
1002
{
1070
  4120
1070
     0
1002
}
  0
TEXT
  5
1B39
330
1E
100
AcDbEntity
  8
TEXT_BUBBLES
100
AcDbText
 10
10.95959304688662
 20
6.063427767848003
 30
0.0
 40
0.125
  1
POWER SUPPLY TO PUMP
  7
L100
100
AcDbText
1001
CLSI_CADWRITER
1002
{
1070
  4120
1070
     0
1002
}
1002
{
1070
  4120
1070
     0
1002
}
  0
INSERT
  5
1B3A
330
1E
100
AcDbEntity
  8
TEXT_BUBBLES
100
AcDbBlockReference
 66
     1
  2
bubble
 10
10.65670151744922
 20
7.931184015678844
 30
0.0
  0
ATTRIB
  5
1B3B
330
1B3A
100
AcDbEntity
  8
TEXT_BUBBLES
100
AcDbText
 10
10.59717770792541
 20
7.868684015678844
 30
0.0
 40
0.125
  1
2
  7
ROMANS
 72
     4
 11
10.65670151744922
 21
7.931184015678844
 31
0.0
100
AcDbAttribute
  2
XX
 70
     0
  0
SEQEND
  5
1B3C
330
1B3A
100
AcDbEntity
  8
TEXT_BUBBLES
  0
INSERT
  5
1B3D
330
1E
100
AcDbEntity
  8
TEXT_BUBBLES
100
AcDbBlockReference
 66
     1
  2
bubble
 10
10.65670151744922
 20
7.03294547807362
 30
0.0
  0
ATTRIB
  5
1B3E
330
1B3D
100
AcDbEntity
  8
TEXT_BUBBLES
100
AcDbText
 10
10.59420151744922
 20
6.97044547807362
 30
0.0
 40
0.125
  1
4
  7
ROMANS
 72
     4
 11
10.65670151744922
 21
7.03294547807362
 31
0.0
100
AcDbAttribute
  2
XX
 70
     0
  0
SEQEND
  5
1B3F
330
1B3D
100
AcDbEntity
  8
TEXT_BUBBLES
  0
INSERT
  5
1B40
330
1E
100
AcDbEntity
  8
TEXT_BUBBLES
100
AcDbBlockReference
 66
     1
  2
bubble
 10
10.65670151744922
 20
6.592632478700717
 30
0.0
  0
ATTRIB
  5
1B41
330
1B40
100
AcDbEntity
  8
TEXT_BUBBLES
100
AcDbText
 10
10.59717770792541
 20
6.530132478700717
 30
0.0
 40
0.125
  1
5
  7
ROMANS
 72
     4
 11
10.65670151744922
 21
6.592632478700717
 31
0.0
100
AcDbAttribute
  2
XX
 70
     0
  0
SEQEND
  5
1B42
330
1B40
100
AcDbEntity
  8
TEXT_BUBBLES
  0
INSERT
  5
1B43
330
1E
100
AcDbEntity
  8
TEXT_BUBBLES
100
AcDbBlockReference
 66
     1
  2
bubble
 10
10.65670151744922
 20
7.49087101630594
 30
0.0
  0
ATTRIB
  5
1B44
330
1B43
100
AcDbEntity
  8
TEXT_BUBBLES
100
AcDbText
 10
10.59717770792541
 20
7.42837101630594
 30
0.0
 40
0.125
  1
3
  7
ROMANS
 72
     4
 11
10.65670151744922
 21
7.49087101630594
 31
0.0
100
AcDbAttribute
  2
XX
 70
     0
  0
SEQEND
  5
1B45
330
1B43
100
AcDbEntity
  8
TEXT_BUBBLES
  0
INSERT
  5
1B46
330
1E
100
AcDbEntity
  8
TEXT_BUBBLES
100
AcDbBlockReference
 66
     1
  2
bubble
 10
10.65670151744922
 20
8.59509926052749
 30
0.0
  0
ATTRIB
  5
1B47
330
1B46
100
AcDbEntity
  8
TEXT_BUBBLES
100
AcDbText
 10
10.60610627935398
 20
8.53259926052749
 30
0.0
 40
0.125
  1
1
  7
ROMANS
 72
     4
 11
10.65670151744922
 21
8.59509926052749
 31
0.0
100
AcDbAttribute
  2
XX
 70
     0
  0
SEQEND
  5
1B48
330
1B46
100
AcDbEntity
  8
TEXT_BUBBLES
  0
TEXT
  5
1B49
330
1E
100
AcDbEntity
  8
TEXT_BUBBLES
100
AcDbText
 10
10.95959304688662
 20
6.513427767848006
 30
0.0
 40
0.125
  1
PUMP ON/OFF SWITCH
  7
L100
100
AcDbText
1001
CLSI_CADWRITER
1002
{
1070
  4120
1070
     0
1002
}
1002
{
1070
  4120
1070
     0
1002
}
  0
TEXT
  5
1B4A
330
1E
100
AcDbEntity
  8
TEXT_BUBBLES
100
AcDbText
 10
10.95959304688662
 20
7.413427767848005
 30
0.0
 40
0.125
  1
NORMALLY OPEN RELAY
  7
L100
100
AcDbText
1001
CLSI_CADWRITER
1002
{
1070
  4120
1070
     0
1002
}
1002
{
1070
  4120
1070
     0
1002
}
  0
TEXT
  5
1B4B
330
1E
100
AcDbEntity
  8
TEXT_BUBBLES
100
AcDbText
 10
10.95959304688662
 20
7.863427767848004
 30
0.0
 40
0.125
  1
MOTOR STARTER
  7
L100
100
AcDbText
1001
CLSI_CADWRITER
1002
{
1070
  4120
1070
     0
1002
}
1002
{
1070
  4120
1070
     0
1002
}
  0
LWPOLYLINE
  5
1C8B
330
1E
100
AcDbEntity
  8
IMAGE
100
AcDbPolyline
 90
        3
 70
     0
 10
6.374960943666135
 20
5.644872321049757
 40
0.018
 41
0.018
 10
6.374960943666135
 20
6.939613999055852
 40
0.01875
 41
0.01875
 10
6.030012550728565
 20
6.939613999055852
 40
0.018
 41
0.018
  0
LWPOLYLINE
  5
1C9A
330
1E
100
AcDbEntity
  8
IMAGE
100
AcDbPolyline
 90
        2
 70
     0
 43
0.018
 10
2.585281003969364
 20
6.733242900029506
 10
2.585281003969364
 20
7.941473481269578
  0
LWPOLYLINE
  5
1C9B
330
1E
100
AcDbEntity
  8
IMAGE
100
AcDbPolyline
 90
        3
 70
     0
 43
0.018
 10
2.886061981869048
 20
7.94449355895143
 10
2.886061981869047
 20
6.939613999055852
 10
6.030012550728565
 20
6.939613999055852
  0
TEXT
  5
1C9C
330
1E
100
AcDbEntity
  8
IMAGE
100
AcDbText
 10
4.264536106825675
 20
7.026913187964916
 30
0.0
 40
0.125
  1
BLACK
  7
L100
100
AcDbText
  0
TEXT
  5
1C9D
330
1E
100
AcDbEntity
  8
IMAGE
100
AcDbText
 10
4.264536106825675
 20
6.47645466027502
 30
0.0
 40
0.125
  1
RED
  7
L100
100
AcDbText
  0
LINE
  5
1C9E
330
1E
100
AcDbEntity
  8
IMAGE
100
AcDbLine
 10
4.219035551967204
 20
9.099302426929517
 30
0.0
 11
4.219035551967204
 21
7.295021687969883
 31
0.0
  0
LINE
  5
1C9F
330
1E
100
AcDbEntity
  8
IMAGE
100
AcDbLine
 10
4.219035551967204
 20
7.295021687969883
 30
0.0
 11
1.235721091778985
 21
7.295021687969883
 31
0.0
  0
INSERT
  5
1CA4
330
1E
100
AcDbEntity
  8
TEXT_BUBBLES
100
AcDbBlockReference
 66
     1
  2
bubble
 10
2.084261126246575
 20
8.612620022519797
 30
0.0
  0
ATTRIB
  5
1CA5
330
1CA4
100
AcDbEntity
  8
TEXT_BUBBLES
100
AcDbText
 10
2.033665888151336
 20
8.550120022519797
 30
0.0
 40
0.125
  1
1
  7
ROMANS
 72
     4
 11
2.084261126246575
 21
8.612620022519797
 31
0.0
100
AcDbAttribute
  2
XX
 70
     0
  0
SEQEND
  5
1CA6
330
1CA4
100
AcDbEntity
  8
TEXT_BUBBLES
  0
LINE
  5
1CA7
330
1E
100
AcDbEntity
  8
TEXT_BUBBLES
100
AcDbLine
 10
2.445773636700196
 20
8.210920784622837
 30
0.0
 11
2.14896306722254
 21
8.487014559193065
 31
0.0
  0
SOLID
  5
1CA8
330
1E
100
AcDbEntity
  8
TEXT_BUBBLES
100
AcDbTrace
 10
2.304275945146107
 20
8.389833202539714
 30
0.0
 11
2.253898819959773
 21
8.334271117823957
 31
0.0
 12
2.445773636700196
 22
8.210920784622837
 32
0.0
 13
2.445773636700196
 23
8.210920784622837
 33
0.0
  0
INSERT
  5
1D6B
330
1E
100
AcDbEntity
  8
IMAGE
100
AcDbBlockReference
  2
wid
 10
0.0
 20
0.0
 30
0.0
  0
INSERT
  5
1D75
330
1E
100
AcDbEntity
  8
IMAGE
100
AcDbBlockReference
  2
7
 10
3.152057233764052
 20
8.297143529839189
 30
0.0
 41
0.7260714433940516
 42
0.7260714433940516
 43
0.5808571547152415
  0
LINE
  5
1D76
330
1E
100
AcDbEntity
  8
IMAGE
100
AcDbLine
 10
2.990375594467256
 20
8.039984430463992
 30
0.0
 11
3.682882550610364
 21
8.039984430463992
 31
0.0
  0
LINE
  5
1D77
330
1E
100
AcDbEntity
  8
IMAGE
100
AcDbLine
 10
2.990375594467256
 20
8.205165683836138
 30
0.0
 11
3.682882550610364
 21
8.205165683836138
 31
0.0
  0
LINE
  5
1D78
330
1E
100
AcDbEntity
  8
IMAGE
100
AcDbLine
 10
2.494831834350816
 20
8.393944259118594
 30
0.0
 11
3.682882550610364
 21
8.393944259118594
 31
0.0
  0
LINE
  5
1D79
330
1E
100
AcDbEntity
  8
IMAGE
100
AcDbLine
 10
2.471234512440509
 20
8.559125512490739
 30
0.0
 11
3.682882550610364
 21
8.559125512490739
 31
0.0
  0
LINE
  5
1D7A
330
1E
100
AcDbEntity
  8
IMAGE
100
AcDbLine
 10
3.070887724905492
 20
7.660611981663699
 30
0.0
 11
3.307690877128924
 21
7.660611981663699
 31
0.0
  0
LINE
  5
1D7B
330
1E
100
AcDbEntity
  8
IMAGE
100
AcDbLine
 10
2.471234512440509
 20
7.851205855181541
 30
0.0
 11
3.682882550610364
 21
7.851205855181541
 31
0.0
  0
TEXT
  5
1D7C
330
1E
100
AcDbEntity
  8
IMAGE
100
AcDbText
 10
2.796761857267436
 20
7.508745943132291
 30
0.0
 40
0.1089107165091079
  1
SENSOR
  7
L100
100
AcDbText
  0
INSERT
  5
1D7D
330
1E
100
AcDbEntity
  8
IMAGE
100
AcDbBlockReference
  2
7
 10
3.155951461477304
 20
7.945110055832542
 30
0.0
 41
0.7260714433940516
 42
0.7260714433940516
 43
0.5808571547152415
  0
LINE
  5
1D7E
330
1E
100
AcDbEntity
  8
IMAGE
100
AcDbLine
 10
2.471234512440509
 20
7.851205855181541
 30
0.0
 11
2.471234512440509
 21
8.559125512490739
 31
0.0
  0
LINE
  5
1D7F
330
1E
100
AcDbEntity
  8
IMAGE
100
AcDbLine
 10
2.494831834350816
 20
7.851205855181541
 30
0.0
 11
2.494831834350816
 21
8.559125512490739
 31
0.0
  0
LINE
  5
1D80
330
1E
100
AcDbEntity
  8
IMAGE
100
AcDbLine
 10
2.777999697274495
 20
7.851205855181541
 30
0.0
 11
2.777999697274495
 21
8.559125512490739
 31
0.0
  0
LINE
  5
1D81
330
1E
100
AcDbEntity
  8
IMAGE
100
AcDbLine
 10
3.061167560198176
 20
7.851205855181541
 30
0.0
 11
3.061167560198176
 21
8.559125512490739
 31
0.0
  0
LINE
  5
1D82
330
1E
100
AcDbEntity
  8
IMAGE
100
AcDbLine
 10
2.494831834350816
 20
8.039984430463992
 30
0.0
 11
2.777999697274495
 21
8.039984430463992
 31
0.0
  0
LINE
  5
1D83
330
1E
100
AcDbEntity
  8
IMAGE
100
AcDbLine
 10
2.494831834350816
 20
8.205165683836138
 30
0.0
 11
2.777999697274495
 21
8.205165683836138
 31
0.0
  0
LINE
  5
1D84
330
1E
100
AcDbEntity
  8
IMAGE
100
AcDbLine
 10
2.500856337667365
 20
7.660611981663699
 30
0.0
 11
2.74464914751122
 21
7.660611981663699
 31
0.0
  0
INSERT
  5
1D85
330
1E
100
AcDbEntity
  8
IMAGE
100
AcDbBlockReference
  2
7
 10
2.587525459584464
 20
7.943728636816739
 30
0.0
 41
0.7260714433940516
 42
0.7260714433940516
 43
0.5808571547152415
  0
LINE
  5
1D86
330
1E
100
AcDbEntity
  8
IMAGE
100
AcDbLine
 10
2.500856337667365
 20
7.660611981663699
 30
0.0
 11
2.500856337667365
 21
7.733219126003104
 31
0.0
  0
TEXT
  5
1D87
330
1E
100
AcDbEntity
  8
IMAGE
100
AcDbText
 10
2.786219690183898
 20
7.657288291617626
 30
0.0
 40
0.1089107165091079
  1
1
  7
L100
100
AcDbText
  0
LINE
  5
1D88
330
1E
100
AcDbEntity
  8
IMAGE
100
AcDbLine
 10
3.070887724905492
 20
7.660611981663699
 30
0.0
 11
3.070887724905492
 21
7.733219126003104
 31
0.0
  0
LINE
  5
1D8A
330
1E
100
AcDbEntity
  8
IMAGE
100
AcDbLine
 10
2.865135433890541
 20
7.660611981663699
 30
0.0
 11
3.071656897165056
 21
7.660611981663699
 31
0.0
  0
LINE
  5
1D8B
330
1E
100
AcDbEntity
  8
IMAGE
100
AcDbLine
 10
2.707207731543574
 20
8.205165683836138
 30
0.0
 11
3.061167560198176
 21
8.205165683836138
 31
0.0
  0
LINE
  5
1D8C
330
1E
100
AcDbEntity
  8
IMAGE
100
AcDbLine
 10
2.707207731543574
 20
8.039984430463992
 30
0.0
 11
3.061167560198176
 21
8.039984430463992
 31
0.0
  0
INSERT
  5
1D8D
330
1E
100
AcDbEntity
  8
IMAGE
100
AcDbBlockReference
  2
7
 10
2.872429343247288
 20
7.943728636816739
 30
0.0
 41
0.7260714433940516
 42
0.7260714433940516
 43
0.5808571547152415
  0
LINE
  5
1D8E
330
1E
100
AcDbEntity
  8
IMAGE
100
AcDbLine
 10
2.754402375364189
 20
7.804011211360927
 30
0.0
 11
2.754402375364189
 21
7.851205855181541
 31
0.0
  0
LINE
  5
1D8F
330
1E
100
AcDbEntity
  8
IMAGE
100
AcDbLine
 10
2.754402375364189
 20
7.780413889450618
 30
0.0
 11
2.754402375364189
 21
7.804011211360927
 31
0.0
  0
LINE
  5
1D90
330
1E
100
AcDbEntity
  8
IMAGE
100
AcDbLine
 10
2.730805053453883
 20
7.780413889450618
 30
0.0
 11
2.730805053453883
 21
7.804011211360927
 31
0.0
  0
LINE
  5
1D91
330
1E
100
AcDbEntity
  8
IMAGE
100
AcDbLine
 10
2.730805053453883
 20
7.780413889450618
 30
0.0
 11
2.754402375364189
 21
7.780413889450618
 31
0.0
  0
LINE
  5
1D92
330
1E
100
AcDbEntity
  8
IMAGE
100
AcDbLine
 10
2.636415765812658
 20
7.804011211360927
 30
0.0
 11
2.636415765812658
 21
7.851205855181541
 31
0.0
  0
LINE
  5
1D93
330
1E
100
AcDbEntity
  8
IMAGE
100
AcDbLine
 10
2.636415765812658
 20
7.804011211360927
 30
0.0
 11
2.754402375364189
 21
7.804011211360927
 31
0.0
  0
LINE
  5
1D94
330
1E
100
AcDbEntity
  8
IMAGE
100
AcDbLine
 10
2.919583628736338
 20
7.804011211360927
 30
0.0
 11
3.037570238287869
 21
7.804011211360927
 31
0.0
  0
LINE
  5
1D95
330
1E
100
AcDbEntity
  8
IMAGE
100
AcDbLine
 10
2.919583628736338
 20
7.804011211360927
 30
0.0
 11
2.919583628736338
 21
7.851205855181541
 31
0.0
  0
LINE
  5
1D96
330
1E
100
AcDbEntity
  8
IMAGE
100
AcDbLine
 10
3.037570238287869
 20
7.804011211360927
 30
0.0
 11
3.037570238287869
 21
7.851205855181541
 31
0.0
  0
LINE
  5
1D97
330
1E
100
AcDbEntity
  8
IMAGE
100
AcDbLine
 10
3.013972916377562
 20
7.780413889450618
 30
0.0
 11
3.037570238287869
 21
7.780413889450618
 31
0.0
  0
LINE
  5
1D98
330
1E
100
AcDbEntity
  8
IMAGE
100
AcDbLine
 10
3.013972916377562
 20
7.780413889450618
 30
0.0
 11
3.013972916377562
 21
7.804011211360927
 31
0.0
  0
LINE
  5
1D99
330
1E
100
AcDbEntity
  8
IMAGE
100
AcDbLine
 10
3.037570238287869
 20
7.780413889450618
 30
0.0
 11
3.037570238287869
 21
7.804011211360927
 31
0.0
  0
INSERT
  5
1D9A
330
1E
100
AcDbEntity
  8
IMAGE
100
AcDbBlockReference
  2
7
 10
2.587525459584464
 20
8.297143529839189
 30
0.0
 41
0.7260714433940516
 42
0.7260714433940516
 43
0.5808571547152415
  0
INSERT
  5
1D9B
330
1E
100
AcDbEntity
  8
IMAGE
100
AcDbBlockReference
  2
7
 10
2.872429343247288
 20
8.297143529839189
 30
0.0
 41
0.7260714433940516
 42
0.7260714433940516
 43
0.5808571547152415
  0
LINE
  5
1D9C
330
1E
100
AcDbEntity
  8
IMAGE
100
AcDbLine
 10
2.754402375364189
 20
8.441138902939208
 30
0.0
 11
2.754402375364189
 21
8.488333546759818
 31
0.0
  0
LINE
  5
1D9D
330
1E
100
AcDbEntity
  8
IMAGE
100
AcDbLine
 10
2.730805053453883
 20
8.511930868670127
 30
0.0
 11
2.754402375364189
 21
8.511930868670127
 31
0.0
  0
LINE
  5
1D9E
330
1E
100
AcDbEntity
  8
IMAGE
100
AcDbLine
 10
2.730805053453883
 20
8.488333546759818
 30
0.0
 11
2.730805053453883
 21
8.511930868670127
 31
0.0
  0
LINE
  5
1D9F
330
1E
100
AcDbEntity
  8
IMAGE
100
AcDbLine
 10
2.754402375364189
 20
8.488333546759818
 30
0.0
 11
2.754402375364189
 21
8.511930868670127
 31
0.0
  0
LINE
  5
1DA0
330
1E
100
AcDbEntity
  8
IMAGE
100
AcDbLine
 10
2.636415765812658
 20
8.441138902939208
 30
0.0
 11
2.636415765812658
 21
8.488333546759818
 31
0.0
  0
LINE
  5
1DA1
330
1E
100
AcDbEntity
  8
IMAGE
100
AcDbLine
 10
2.636415765812658
 20
8.441138902939208
 30
0.0
 11
2.754402375364189
 21
8.441138902939208
 31
0.0
  0
LINE
  5
1DA2
330
1E
100
AcDbEntity
  8
IMAGE
100
AcDbLine
 10
2.636415765812658
 20
8.488333546759818
 30
0.0
 11
2.754402375364189
 21
8.488333546759818
 31
0.0
  0
LINE
  5
1DA3
330
1E
100
AcDbEntity
  8
IMAGE
100
AcDbLine
 10
2.919583628736338
 20
8.441138902939208
 30
0.0
 11
3.037570238287869
 21
8.441138902939208
 31
0.0
  0
LINE
  5
1DA4
330
1E
100
AcDbEntity
  8
IMAGE
100
AcDbLine
 10
2.919583628736338
 20
8.488333546759818
 30
0.0
 11
3.037570238287869
 21
8.488333546759818
 31
0.0
  0
LINE
  5
1DA5
330
1E
100
AcDbEntity
  8
IMAGE
100
AcDbLine
 10
2.919583628736338
 20
8.441138902939208
 30
0.0
 11
2.919583628736338
 21
8.488333546759818
 31
0.0
  0
LINE
  5
1DA6
330
1E
100
AcDbEntity
  8
IMAGE
100
AcDbLine
 10
3.013972916377562
 20
8.511930868670127
 30
0.0
 11
3.037570238287869
 21
8.511930868670127
 31
0.0
  0
LINE
  5
1DA7
330
1E
100
AcDbEntity
  8
IMAGE
100
AcDbLine
 10
3.013972916377562
 20
8.488333546759818
 30
0.0
 11
3.013972916377562
 21
8.511930868670127
 31
0.0
  0
LINE
  5
1DA8
330
1E
100
AcDbEntity
  8
IMAGE
100
AcDbLine
 10
3.037570238287869
 20
8.441138902939208
 30
0.0
 11
3.037570238287869
 21
8.488333546759818
 31
0.0
  0
LINE
  5
1DA9
330
1E
100
AcDbEntity
  8
IMAGE
100
AcDbLine
 10
3.037570238287869
 20
8.488333546759818
 30
0.0
 11
3.037570238287869
 21
8.511930868670127
 31
0.0
  0
LINE
  5
1DAA
330
1E
100
AcDbEntity
  8
IMAGE
100
AcDbLine
 10
3.344335423121856
 20
7.851205855181541
 30
0.0
 11
3.344335423121856
 21
8.559125512490739
 31
0.0
  0
LINE
  5
1DAB
330
1E
100
AcDbEntity
  8
IMAGE
100
AcDbLine
 10
3.682882550610364
 20
7.851205855181541
 30
0.0
 11
3.682882550610364
 21
8.559125512490739
 31
0.0
  0
LINE
  5
1DAC
330
1E
100
AcDbEntity
  8
IMAGE
100
AcDbLine
 10
3.637300660332642
 20
7.851205855181541
 30
0.0
 11
3.637300660332642
 21
8.559125512490739
 31
0.0
  0
TEXT
  5
1DAD
330
1E
100
AcDbEntity
  8
IMAGE
100
AcDbText
 10
3.350634453208854
 20
7.657288291617626
 30
0.0
 40
0.1089107165091079
  1
2
  7
L100
100
AcDbText
  0
LINE
  5
1DAE
330
1E
100
AcDbEntity
  8
IMAGE
100
AcDbLine
 10
3.4722010031794
 20
7.660611981663699
 30
0.0
 11
3.702710240447044
 21
7.660611981663699
 31
0.0
  0
LINE
  5
1DAF
330
1E
100
AcDbEntity
  8
IMAGE
100
AcDbLine
 10
3.702710240447044
 20
7.660611981663699
 30
0.0
 11
3.702710240447044
 21
7.733219126003104
 31
0.0
  0
INSERT
  5
1DB0
330
1E
100
AcDbEntity
  8
IMAGE
100
AcDbBlockReference
  2
7
 10
3.440732077943877
 20
7.945110055832542
 30
0.0
 41
0.7260714433940516
 42
0.7260714433940516
 43
0.5808571547152415
  0
LINE
  5
1DB1
330
1E
100
AcDbEntity
  8
IMAGE
100
AcDbLine
 10
3.32073810121155
 20
7.804011211360927
 30
0.0
 11
3.32073810121155
 21
7.851205855181541
 31
0.0
  0
LINE
  5
1DB2
330
1E
100
AcDbEntity
  8
IMAGE
100
AcDbLine
 10
3.32073810121155
 20
7.780413889450618
 30
0.0
 11
3.32073810121155
 21
7.804011211360927
 31
0.0
  0
LINE
  5
1DB3
330
1E
100
AcDbEntity
  8
IMAGE
100
AcDbLine
 10
3.297140779301242
 20
7.780413889450618
 30
0.0
 11
3.297140779301242
 21
7.804011211360927
 31
0.0
  0
LINE
  5
1DB4
330
1E
100
AcDbEntity
  8
IMAGE
100
AcDbLine
 10
3.297140779301242
 20
7.780413889450618
 30
0.0
 11
3.32073810121155
 21
7.780413889450618
 31
0.0
  0
LINE
  5
1DB5
330
1E
100
AcDbEntity
  8
IMAGE
100
AcDbLine
 10
3.202751491660019
 20
7.804011211360927
 30
0.0
 11
3.202751491660019
 21
7.851205855181541
 31
0.0
  0
LINE
  5
1DB6
330
1E
100
AcDbEntity
  8
IMAGE
100
AcDbLine
 10
3.202751491660019
 20
7.804011211360927
 30
0.0
 11
3.32073810121155
 21
7.804011211360927
 31
0.0
  0
LINE
  5
1DB7
330
1E
100
AcDbEntity
  8
IMAGE
100
AcDbLine
 10
3.605518717678124
 20
7.804011211360927
 30
0.0
 11
3.605518717678124
 21
7.851205855181541
 31
0.0
  0
LINE
  5
1DB8
330
1E
100
AcDbEntity
  8
IMAGE
100
AcDbLine
 10
3.581921395767817
 20
7.780413889450618
 30
0.0
 11
3.605518717678124
 21
7.780413889450618
 31
0.0
  0
LINE
  5
1DB9
330
1E
100
AcDbEntity
  8
IMAGE
100
AcDbLine
 10
3.581921395767817
 20
7.780413889450618
 30
0.0
 11
3.581921395767817
 21
7.804011211360927
 31
0.0
  0
LINE
  5
1DBA
330
1E
100
AcDbEntity
  8
IMAGE
100
AcDbLine
 10
3.605518717678124
 20
7.780413889450618
 30
0.0
 11
3.605518717678124
 21
7.804011211360927
 31
0.0
  0
LINE
  5
1DBB
330
1E
100
AcDbEntity
  8
IMAGE
100
AcDbLine
 10
3.487532108126592
 20
7.804011211360927
 30
0.0
 11
3.487532108126592
 21
7.851205855181541
 31
0.0
  0
LINE
  5
1DBC
330
1E
100
AcDbEntity
  8
IMAGE
100
AcDbLine
 10
3.487532108126592
 20
7.804011211360927
 30
0.0
 11
3.605518717678124
 21
7.804011211360927
 31
0.0
  0
INSERT
  5
1DBD
330
1E
100
AcDbEntity
  8
IMAGE
100
AcDbBlockReference
  2
7
 10
3.436837850230626
 20
8.297143529839189
 30
0.0
 41
0.7260714433940516
 42
0.7260714433940516
 43
0.5808571547152415
  0
LINE
  5
1DBE
330
1E
100
AcDbEntity
  8
IMAGE
100
AcDbLine
 10
3.32073810121155
 20
8.441138902939208
 30
0.0
 11
3.32073810121155
 21
8.488333546759818
 31
0.0
  0
LINE
  5
1DBF
330
1E
100
AcDbEntity
  8
IMAGE
100
AcDbLine
 10
3.32073810121155
 20
8.488333546759818
 30
0.0
 11
3.32073810121155
 21
8.511930868670127
 31
0.0
  0
LINE
  5
1DC0
330
1E
100
AcDbEntity
  8
IMAGE
100
AcDbLine
 10
3.297140779301242
 20
8.488333546759818
 30
0.0
 11
3.297140779301242
 21
8.511930868670127
 31
0.0
  0
LINE
  5
1DC1
330
1E
100
AcDbEntity
  8
IMAGE
100
AcDbLine
 10
3.297140779301242
 20
8.511930868670127
 30
0.0
 11
3.32073810121155
 21
8.511930868670127
 31
0.0
  0
LINE
  5
1DC2
330
1E
100
AcDbEntity
  8
IMAGE
100
AcDbLine
 10
3.202751491660019
 20
8.441138902939208
 30
0.0
 11
3.202751491660019
 21
8.488333546759818
 31
0.0
  0
LINE
  5
1DC3
330
1E
100
AcDbEntity
  8
IMAGE
100
AcDbLine
 10
3.202751491660019
 20
8.441138902939208
 30
0.0
 11
3.32073810121155
 21
8.441138902939208
 31
0.0
  0
LINE
  5
1DC4
330
1E
100
AcDbEntity
  8
IMAGE
100
AcDbLine
 10
3.202751491660019
 20
8.488333546759818
 30
0.0
 11
3.32073810121155
 21
8.488333546759818
 31
0.0
  0
LINE
  5
1DC5
330
1E
100
AcDbEntity
  8
IMAGE
100
AcDbLine
 10
3.581921395767817
 20
8.511930868670127
 30
0.0
 11
3.605518717678124
 21
8.511930868670127
 31
0.0
  0
LINE
  5
1DC6
330
1E
100
AcDbEntity
  8
IMAGE
100
AcDbLine
 10
3.581921395767817
 20
8.488333546759818
 30
0.0
 11
3.581921395767817
 21
8.511930868670127
 31
0.0
  0
LINE
  5
1DC7
330
1E
100
AcDbEntity
  8
IMAGE
100
AcDbLine
 10
3.605518717678124
 20
8.488333546759818
 30
0.0
 11
3.605518717678124
 21
8.511930868670127
 31
0.0
  0
LINE
  5
1DC8
330
1E
100
AcDbEntity
  8
IMAGE
100
AcDbLine
 10
3.605518717678124
 20
8.441138902939208
 30
0.0
 11
3.605518717678124
 21
8.488333546759818
 31
0.0
  0
LINE
  5
1DC9
330
1E
100
AcDbEntity
  8
IMAGE
100
AcDbLine
 10
3.487532108126592
 20
8.441138902939208
 30
0.0
 11
3.487532108126592
 21
8.488333546759818
 31
0.0
  0
LINE
  5
1DCA
330
1E
100
AcDbEntity
  8
IMAGE
100
AcDbLine
 10
3.487532108126592
 20
8.488333546759818
 30
0.0
 11
3.605518717678124
 21
8.488333546759818
 31
0.0
  0
LINE
  5
1DCB
330
1E
100
AcDbEntity
  8
IMAGE
100
AcDbLine
 10
3.487532108126592
 20
8.441138902939208
 30
0.0
 11
3.605518717678124
 21
8.441138902939208
 31
0.0
  0
TEXT
  5
1DCC
330
1E
100
AcDbEntity
  8
IMAGE
100
AcDbText
 10
2.625566975988806
 20
7.692535882491035
 30
0.0
 40
0.1089107165091079
  1
+
  7
L100
100
AcDbText
  0
TEXT
  5
1DCD
330
1E
100
AcDbEntity
  8
IMAGE
100
AcDbText
 10
2.937721232306117
 20
7.692535882491035
 30
0.0
 40
0.1089107165091079
  1
-
  7
L100
100
AcDbText
  0
TEXT
  5
1DCE
330
1E
100
AcDbEntity
  8
IMAGE
100
AcDbText
 10
3.201565922003903
 20
7.692535882491035
 30
0.0
 40
0.1089107165091079
  1
+
  7
L100
100
AcDbText
  0
TEXT
  5
1DCF
330
1E
100
AcDbEntity
  8
IMAGE
100
AcDbText
 10
3.476558882175859
 20
7.692535882491035
 30
0.0
 40
0.1089107165091079
  1
-
  7
L100
100
AcDbText
  0
INSERT
  5
1E03
330
1E
100
AcDbEntity
  8
IMAGE
100
AcDbBlockReference
  2
pagesetups
 10
0.0
 20
0.0
 30
0.0
  0
TEXT
  5
1E17
330
1E
100
AcDbEntity
  8
TEXT_BUBBLES
100
AcDbText
 10
10.95959304688662
 20
8.312910729767619
 30
0.0
 40
0.125
  1
SENSOR INPUT
  7
L100
100
AcDbText
1001
CLSI_CADWRITER
1002
{
1070
  4120
1070
     0
1002
}
1002
{
1070
  4120
1070
     0
1002
}
  0
MTEXT
  5
1E34
330
1E
100
AcDbEntity
  8
TEXT_BUBBLES
100
AcDbMText
 10
7.820729894083384
 20
2.885842877116019
 30
0.0
 40
0.125
 41
6.717658831697528
 71
     1
 72
     5
  1
CAUTION: RAIN BIRD RECOMMENDS THAT ANY PUMPING SYSTEM USE SEPARATE AND INDEPENDENT PUMP CONTROL SAFETY CIRCUITS AS WELL AS PRESSURE RELIEF AND/OR REDUCING VALVES.
  7
L100
 73
     1
 44
1.0
  0
ENDSEC
  0
SECTION
  2
OBJECTS
  0
DICTIONARY
  5
C
330
0
100
AcDbDictionary
281
     1
  3
ACAD_GROUP
350
D
  3
ACAD_LAYOUT
350
19
  3
ACAD_MLINESTYLE
350
16
  3
ACAD_PLOTSETTINGS
350
18
  3
ACAD_PLOTSTYLENAME
350
E
  3
AcDbVariableDictionary
350
1CA1
  0
DICTIONARY
  5
1E47
330
2
100
AcDbDictionary
280
     1
281
     1
  0
DICTIONARY
  5
D
102
{ACAD_REACTORS
330
C
102
}
330
C
100
AcDbDictionary
281
     1
  0
DICTIONARY
  5
19
102
{ACAD_REACTORS
330
C
102
}
330
C
100
AcDbDictionary
281
     1
  3
Layout1
350
1D
  3
Model
350
21
  0
DICTIONARY
  5
16
102
{ACAD_REACTORS
330
C
102
}
330
C
100
AcDbDictionary
281
     1
  3
Standard
350
17
  0
DICTIONARY
  5
18
102
{ACAD_REACTORS
330
C
102
}
330
C
100
AcDbDictionary
281
     1
  3
1055 B&W Full Shaded Draft
350
1DEB
  3
1055 B&W Full Shaded Final
350
1DEC
  3
1055 B&W Half Shaded Draft
350
1DED
  3
1055 B&W Half Shaded Final
350
1DEE
  3
1055 Color Full Shaded Draft
350
1DEF
  3
1055 Color Full Shaded Final
350
1DF0
  3
1055 Color Half Shaded Draft
350
1DF1
  3
1055 Color Half Shaded Final
350
1DF2
  3
1055-B&W-Shaded-Draft
350
1DF3
  3
1055-B&W-Shaded-Final
350
1DF4
  3
1055-Color-Shaded-Draft
350
1DF5
  3
1055-Color-Shaded-Final
350
1DF6
  3
1055cm B&W Shaded Draft
350
1D56
  3
1055cm B&W Shaded Final
350
1D57
  3
1055cm Color Draft
350
1D58
  3
1055cm Color Shaded Draft
350
1D59
  3
1055cm Color Shaded Final
350
1D5A
  3
1055cmB&WShadedDraft
350
1D5B
  3
1055cmColorShadedDraft
350
1D5C
  3
8500 B&W Shaded 11x17
350
1D5D
  3
8500 B&W Shaded 8.5x11
350
1D5E
  3
8500 Color Shaded 11x17
350
1D5F
  3
8500 Color Shaded 8.5x11
350
1D60
  3
8500-B&W-Shaded-11x17
350
1DF7
  3
8500-B&W-Shaded-8.5x11
350
1DF8
  3
8500-Color-Shaded-11x17
350
1DF9
  3
8500-Color-Shaded-8.5x11
350
1DFA
  3
8500B&WShaded11x17
350
1D61
  3
8500ColorShaded11x17
350
1D23
  3
Laser Jet 5 Shaded 11x17
350
1D62
  3
Laser Jet 5 Shaded 8.5x11
350
1D63
  3
LaserJet5-Shaded-11x17
350
1DFB
  3
LaserJet5-Shaded-8.5x11
350
1DFC
  3
LaserJet5Shaded 11x17
350
1D64
  0
ACDBDICTIONARYWDFLT
  5
E
102
{ACAD_REACTORS
330
C
102
}
330
C
100
AcDbDictionary
281
     1
  3
Normal
350
F
100
AcDbDictionaryWithDefault
340
F
  0
DICTIONARY
  5
1CA1
102
{ACAD_REACTORS
330
C
102
}
330
C
100
AcDbDictionary
281
     1
  3
DIMASSOC
350
1CA3
  3
HIDETEXT
350
1CA2
  3
SORTENTS
350
1E3E
  0
LAYOUT
  5
1D
102
{ACAD_REACTORS
330
19
102
}
330
19
100
AcDbPlotSettings
  1

  2
\\AQUA\HP_LASER_5SI
  4

  6

 40
0.0
 41
0.0
 42
0.0
 43
0.0
 44
0.0
 45
0.0
 46
0.0
 47
0.0
 48
0.0
 49
0.0
140
0.0
141
0.0
142
1.0
143
1.0
 70
   688
 72
     0
 73
     0
 74
     5
  7

 75
    16
147
1.0
148
0.0
149
0.0
100
AcDbLayout
  1
Layout1
 70
     0
 71
     1
 10
0.0
 20
0.0
 11
12.0
 21
9.0
 12
0.0
 22
0.0
 32
0.0
 14
1.000000000000000E+20
 24
1.000000000000000E+20
 34
1.000000000000000E+20
 15
-1.000000000000000E+20
 25
-1.000000000000000E+20
 35
-1.000000000000000E+20
146
0.0
 13
0.0
 23
0.0
 33
0.0
 16
1.0
 26
0.0
 36
0.0
 17
0.0
 27
1.0
 37
0.0
 76
     0
330
1A
  0
LAYOUT
  5
21
102
{ACAD_REACTORS
330
19
102
}
330
19
100
AcDbPlotSettings
  1

  2
8500ColorShaded.pc3
  4
11x17
  6
ps1
 40
5.027083396911621
 41
5.027085304260253
 42
5.027099609375
 43
5.027069091796875
 44
279.3999938964843
 45
431.7999877929687
 46
2.032
 47
1.523999999999999
 48
-0.1025828576850856
 49
-0.1415588673987997
140
16.64973141214378
141
10.52706482009256
142
1.0
143
1.0
 70
 11956
 72
     0
 73
     1
 74
     3
  7
8500ColorShaded.ctb
 75
    16
147
1.0
148
0.0000000000000033
149
0.0
100
AcDbLayout
  1
Model
 70
     1
 71
     0
 10
0.0
 20
0.0
 11
12.0
 21
9.0
 12
0.0
 22
0.0
 32
0.0
 14
0.0
 24
0.0
 34
0.0
 15
0.0
 25
0.0
 35
0.0
146
0.0
 13
0.0
 23
0.0
 33
0.0
 16
1.0
 26
0.0
 36
0.0
 17
0.0
 27
1.0
 37
0.0
 76
     0
330
1E
  0
MLINESTYLE
  5
17
102
{ACAD_REACTORS
330
16
102
}
330
16
100
AcDbMlineStyle
  2
STANDARD
 70
     0
  3

 62
   256
 51
90.0
 52
90.0
 71
     2
 49
0.5
 62
   256
  6
BYLAYER
 49
-0.5
 62
   256
  6
BYLAYER
  0
PLOTSETTINGS
  5
1DEB
102
{ACAD_REACTORS
330
18
102
}
330
18
100
AcDbPlotSettings
  1
1055 B&W Full Shaded Draft
  2
1055B&WDraftShaded.pc3
  4
User607
  6
PS1
 40
0.0
 41
0.0
 42
0.0
 43
0.0
 44
901.7000122070312
 45
1155.700073242187
 46
0.0
 47
0.0
 48
180377.877572
 49
80019.819395
140
180380.8390819999
141
80022.26069
142
1.0
143
1.0
 70
   688
 72
     0
 73
     2
 74
     5
  7
1055B&WFullDraftShaded.ctb
 75
    16
147
1.0
148
-4581114.014650871
149
-2032337.537636779
  0
PLOTSETTINGS
  5
1DEC
102
{ACAD_REACTORS
330
18
102
}
330
18
100
AcDbPlotSettings
  1
1055 B&W Full Shaded Final
  2
1055B&WFinalShaded.pc3
  4
User258
  6
PS1
 40
4.995333194732666
 41
8.297393798828125
 42
4.99530029296875
 43
8.29736328125
 44
761.9576416015624
 45
1066.757690429687
 46
0.0
 47
0.0
 48
180377.877572
 49
80019.819395
140
180380.8390819999
141
80022.26069
142
1.0
143
1.0
 70
   688
 72
     0
 73
     3
 74
     5
  7
1055B&WFullFinalShaded.ctb
 75
    16
147
1.0
148
-4581114.014650871
149
-2032337.537636779
  0
PLOTSETTINGS
  5
1DED
102
{ACAD_REACTORS
330
18
102
}
330
18
100
AcDbPlotSettings
  1
1055 B&W Half Shaded Draft
  2
1055B&WDraftShaded.pc3
  4
User607
  6
PS1
 40
0.0
 41
0.0
 42
0.0
 43
0.0
 44
901.7000122070312
 45
1155.700073242187
 46
0.0
 47
0.0
 48
180377.877572
 49
80019.819395
140
180380.8390819999
141
80022.26069
142
1.0
143
2.0
 70
   688
 72
     0
 73
     2
 74
     5
  7
1055B&WHalfDraftShaded.ctb
 75
    17
147
0.5
148
-4581114.014650871
149
-2032337.537636779
  0
PLOTSETTINGS
  5
1DEE
102
{ACAD_REACTORS
330
18
102
}
330
18
100
AcDbPlotSettings
  1
1055 B&W Half Shaded Final
  2
1055B&WFinalShaded.pc3
  4
User258
  6
PS1
 40
4.995333194732666
 41
8.297393798828125
 42
4.99530029296875
 43
8.29736328125
 44
761.9576416015624
 45
1066.757690429687
 46
0.0
 47
0.0
 48
180377.877572
 49
80019.819395
140
180380.8390819999
141
80022.26069
142
1.0
143
2.0
 70
   688
 72
     0
 73
     3
 74
     5
  7
1055B&WHalfFinalShaded.ctb
 75
    17
147
0.5
148
-4581114.014650871
149
-2032337.537636779
  0
PLOTSETTINGS
  5
1DEF
102
{ACAD_REACTORS
330
18
102
}
330
18
100
AcDbPlotSettings
  1
1055 Color Full Shaded Draft
  2
1055ColorDraftShaded.pc3
  4
User607
  6
PS1
 40
0.0
 41
0.0
 42
0.0
 43
0.0
 44
901.7000122070312
 45
1155.700073242187
 46
0.0
 47
0.0
 48
180377.877572
 49
80019.819395
140
180380.8390819999
141
80022.26069
142
1.0
143
1.0
 70
   688
 72
     0
 73
     2
 74
     5
  7
1055ColorFullDraftShaded.ctb
 75
    16
147
1.0
148
-4581114.014650871
149
-2032337.537636779
  0
PLOTSETTINGS
  5
1DF0
102
{ACAD_REACTORS
330
18
102
}
330
18
100
AcDbPlotSettings
  1
1055 Color Full Shaded Final
  2
1055ColorFinalShaded.pc3
  4
User607
  6
PS1
 40
0.0
 41
0.0
 42
0.0
 43
0.0
 44
901.7000122070312
 45
1155.700073242187
 46
0.0
 47
0.0
 48
180377.877572
 49
80019.819395
140
180380.8390819999
141
80022.26069
142
1.0
143
1.0
 70
   688
 72
     0
 73
     2
 74
     5
  7
1055ColorFullFinalShaded.ctb
 75
    16
147
1.0
148
-4581114.014650871
149
-2032337.537636779
  0
PLOTSETTINGS
  5
1DF1
102
{ACAD_REACTORS
330
18
102
}
330
18
100
AcDbPlotSettings
  1
1055 Color Half Shaded Draft
  2
1055ColorDraftShaded.pc3
  4
User607
  6
PS1
 40
0.0
 41
0.0
 42
0.0
 43
0.0
 44
901.7000122070312
 45
1155.700073242187
 46
0.0
 47
0.0
 48
180377.877572
 49
80019.819395
140
180380.8390819999
141
80022.26069
142
1.0
143
1.0
 70
   688
 72
     0
 73
     2
 74
     5
  7
1055ColorHalfDraftShaded.ctb
 75
    16
147
1.0
148
-4581114.014650871
149
-2032337.537636779
  0
PLOTSETTINGS
  5
1DF2
102
{ACAD_REACTORS
330
18
102
}
330
18
100
AcDbPlotSettings
  1
1055 Color Half Shaded Final
  2
1055ColorFinalShaded.pc3
  4
User607
  6
PS1
 40
0.0
 41
0.0
 42
0.0
 43
0.0
 44
901.7000122070312
 45
1155.700073242187
 46
0.0
 47
0.0
 48
180377.877572
 49
80019.819395
140
180380.8390819999
141
80022.26069
142
1.0
143
1.0
 70
   688
 72
     0
 73
     2
 74
     5
  7
1055ColorHalfFinalShaded.ctb
 75
    16
147
1.0
148
-4581114.014650871
149
-2032337.537636779
  0
PLOTSETTINGS
  5
1DF3
102
{ACAD_REACTORS
330
18
102
}
330
18
100
AcDbPlotSettings
  1
1055-B&W-Shaded-Draft
  2
1055B&WDraftShaded.pc3
  4
User257
  6

 40
4.995333194732666
 41
8.297393798828125
 42
4.99530029296875
 43
8.29736328125
 44
901.6152954101562
 45
1155.615356445312
 46
0.0
 47
0.0
 48
180360.0524337165
 49
80033.77936194791
140
180369.1574725906
141
80037.61796031875
142
1.0
143
1.0
 70
  1712
 72
     0
 73
     1
 74
     4
  7
1055B&WFullDraftShaded.ctb
 75
    16
147
1.0
148
-4581145.331816398
149
-2032857.995793476
  0
PLOTSETTINGS
  5
1DF4
102
{ACAD_REACTORS
330
18
102
}
330
18
100
AcDbPlotSettings
  1
1055-B&W-Shaded-Final
  2
1055B&WFinalShaded.pc3
  4
User607
  6

 40
0.0
 41
0.0
 42
0.0
 43
0.0
 44
901.7000122070312
 45
1155.700073242187
 46
0.0
 47
0.0
 48
180360.0524337165
 49
80033.77936194791
140
180369.1574725906
141
80037.61796031875
142
1.0
143
1.0
 70
  1712
 72
     0
 73
     1
 74
     4
  7
1055B&WFullFinalShaded.ctb
 75
    16
147
1.0
148
-4581145.331816398
149
-2032857.995793476
  0
PLOTSETTINGS
  5
1DF5
102
{ACAD_REACTORS
330
18
102
}
330
18
100
AcDbPlotSettings
  1
1055-Color-Shaded-Draft
  2
1055ColorDraftShaded.pc3
  4
User257
  6

 40
4.995333194732666
 41
8.297393798828125
 42
4.99530029296875
 43
8.29736328125
 44
901.6152954101562
 45
1155.615356445312
 46
0.0
 47
0.0
 48
180360.0524337165
 49
80033.77936194791
140
180369.1574725906
141
80037.61796031875
142
1.0
143
1.0
 70
  1712
 72
     0
 73
     1
 74
     4
  7
1055ColorFullDraftShaded.ctb
 75
    16
147
1.0
148
-4581145.331816398
149
-2032857.995793476
  0
PLOTSETTINGS
  5
1DF6
102
{ACAD_REACTORS
330
18
102
}
330
18
100
AcDbPlotSettings
  1
1055-Color-Shaded-Final
  2
1055ColorDraftShaded.pc3
  4
User257
  6

 40
4.995333194732666
 41
8.297393798828125
 42
4.99530029296875
 43
8.29736328125
 44
901.6152954101562
 45
1155.615356445312
 46
0.0
 47
0.0
 48
180360.0524337165
 49
80033.77936194791
140
180369.1574725906
141
80037.61796031875
142
1.0
143
1.0
 70
  1712
 72
     0
 73
     1
 74
     4
  7
1055ColorFullFinalShaded.ctb
 75
    16
147
1.0
148
-4581145.331816398
149
-2032857.995793476
  0
PLOTSETTINGS
  5
1D56
102
{ACAD_REACTORS
330
18
102
}
330
18
100
AcDbPlotSettings
  1
1055cm B&W Shaded Draft
  2
1055B&WDraftShaded.pc3
  4
User257
  6
PS1
 40
4.995333194732666
 41
8.297393798828125
 42
4.99530029296875
 43
8.29736328125
 44
901.6152954101562
 45
1155.615356445312
 46
0.0
 47
0.0
 48
180377.877572
 49
80019.819395
140
180380.8390819999
141
80022.26069
142
1.0
143
1.0
 70
   688
 72
     0
 73
     2
 74
     3
  7
1055B&WDraftShaded.ctb
 75
    16
147
1.0
148
-4581153.377679998
149
-2032365.335819999
  0
PLOTSETTINGS
  5
1D57
102
{ACAD_REACTORS
330
18
102
}
330
18
100
AcDbPlotSettings
  1
1055cm B&W Shaded Final
  2
1055B&WFinalShaded.pc3
  4
User257
  6
PS1
 40
4.995333194732666
 41
8.297271728515625
 42
4.99530029296875
 43
8.29736328125
 44
901.6576538085937
 45
1155.657592773437
 46
0.0
 47
0.0
 48
180377.877572
 49
80019.819395
140
180380.8390819999
141
80022.26069
142
1.0
143
1.0
 70
   672
 72
     0
 73
     2
 74
     3
  7
1055B&WFinalShaded.ctb
 75
     0
147
1.0
148
-4581153.377679998
149
-2032365.335819999
  0
PLOTSETTINGS
  5
1D58
102
{ACAD_REACTORS
330
18
102
}
330
18
100
AcDbPlotSettings
  1
1055cm Color Draft
  2
1055ColorDraftShaded.pc3
  4
User257
  6
PS1
 40
4.995333194732666
 41
8.297393798828125
 42
4.99530029296875
 43
8.29736328125
 44
901.6152954101562
 45
1155.615356445312
 46
0.0
 47
0.0
 48
180377.877572
 49
80019.819395
140
180380.8390819999
141
80022.26069
142
1.0
143
1.0
 70
   688
 72
     0
 73
     2
 74
     3
  7
Color.CTB
 75
    16
147
1.0
148
-4581153.377679998
149
-2032365.335819999
  0
PLOTSETTINGS
  5
1D59
102
{ACAD_REACTORS
330
18
102
}
330
18
100
AcDbPlotSettings
  1
1055cm Color Shaded Draft
  2
1055ColorDraftShaded.pc3
  4
User257
  6
PS1
 40
4.995333194732666
 41
8.297393798828125
 42
4.99530029296875
 43
8.29736328125
 44
901.6152954101562
 45
1155.615356445312
 46
0.0
 47
0.0
 48
180377.877572
 49
80019.819395
140
180380.8390819999
141
80022.26069
142
1.0
143
1.0
 70
   688
 72
     0
 73
     2
 74
     3
  7
1055ColorDraftShaded.CTB
 75
    16
147
1.0
148
-4581153.377679998
149
-2032365.335819999
  0
PLOTSETTINGS
  5
1D5A
102
{ACAD_REACTORS
330
18
102
}
330
18
100
AcDbPlotSettings
  1
1055cm Color Shaded Final
  2
1055ColorFinalShaded.pc3
  4
User257
  6
PS1
 40
4.995333194732666
 41
8.297271728515625
 42
4.99530029296875
 43
8.29736328125
 44
901.6576538085937
 45
1155.657592773437
 46
0.0
 47
0.0
 48
180377.877572
 49
80019.819395
140
180380.8390819999
141
80022.26069
142
1.0
143
1.0
 70
   688
 72
     0
 73
     2
 74
     3
  7
1055ColorFinalShaded.ctb
 75
    16
147
1.0
148
-4581153.377679998
149
-2032365.335819999
  0
PLOTSETTINGS
  5
1D5B
102
{ACAD_REACTORS
330
18
102
}
330
18
100
AcDbPlotSettings
  1
1055cmB&WShadedDraft
  2
1055B&WDraftShaded.pc3
  4
User257
  6

 40
4.995333194732666
 41
8.297393798828125
 42
4.99530029296875
 43
8.29736328125
 44
901.6152954101562
 45
1155.615356445312
 46
0.0
 47
0.0
 48
180360.0524337165
 49
80033.77936194791
140
180369.1574725906
141
80037.61796031875
142
1.0
143
30.0
 70
  1712
 72
     0
 73
     1
 74
     0
  7
1055B&WDraftShaded.ctb
 75
    23
147
0.0333333333333333
148
-4580581.320935756
149
-2032339.826086972
  0
PLOTSETTINGS
  5
1D5C
102
{ACAD_REACTORS
330
18
102
}
330
18
100
AcDbPlotSettings
  1
1055cmColorShadedDraft
  2
1055ColorDraftShaded.pc3
  4
User257
  6

 40
4.995333194732666
 41
8.297393798828125
 42
4.99530029296875
 43
8.29736328125
 44
901.6152954101562
 45
1155.615356445312
 46
0.0
 47
0.0
 48
180360.0524337165
 49
80033.77936194791
140
180369.1574725906
141
80037.61796031875
142
1.0
143
30.0
 70
  1712
 72
     0
 73
     1
 74
     0
  7
1055ColorDraftShaded.ctb
 75
    23
147
0.0333333333333333
148
-4580581.320935756
149
-2032339.826086972
  0
PLOTSETTINGS
  5
1D5D
102
{ACAD_REACTORS
330
18
102
}
330
18
100
AcDbPlotSettings
  1
8500 B&W Shaded 11x17
  2
8500B&WShaded.pc3
  4
11x17
  6
PS1
 40
5.027083396911621
 41
5.027085304260253
 42
5.027099609375
 43
5.027069091796875
 44
279.3999938964843
 45
431.7999877929687
 46
0.0
 47
0.762
 48
180377.877572
 49
80019.819395
140
180380.8390819999
141
80022.26069
142
1.0
143
1.980353799589804
 70
   692
 72
     0
 73
     1
 74
     3
  7
8500B&WShaded.ctb
 75
     0
147
0.5049602753846977
148
-4581153.377679998
149
-2032365.335819999
  0
PLOTSETTINGS
  5
1D5E
102
{ACAD_REACTORS
330
18
102
}
330
18
100
AcDbPlotSettings
  1
8500 B&W Shaded 8.5x11
  2
8500B&WShaded.pc3
  4
Letter
  6
PS1
 40
5.027083396911621
 41
5.027085304260253
 42
5.027084350585937
 43
5.027069091796875
 44
215.8999938964843
 45
279.3999938964843
 46
16.50999999999999
 47
0.0
 48
180377.877572
 49
80019.819395
140
180380.8390819999
141
80022.26069
142
1.0
143
3.089030970531291
 70
   692
 72
     0
 73
     1
 74
     3
  7
8500B&WShaded.ctb
 75
     0
147
0.3237261165523398
148
-4581153.377679998
149
-2032365.335819999
  0
PLOTSETTINGS
  5
1D5F
102
{ACAD_REACTORS
330
18
102
}
330
18
100
AcDbPlotSettings
  1
8500 Color Shaded 11x17
  2
8500ColorShaded.pc3
  4
11x17
  6
PS1
 40
5.027083396911621
 41
5.027085304260253
 42
5.027099609375
 43
5.027069091796875
 44
279.3999938964843
 45
431.7999877929687
 46
0.0
 47
0.762
 48
180377.877572
 49
80019.819395
140
180380.8390819999
141
80022.26069
142
1.0
143
1.980353799589804
 70
   692
 72
     0
 73
     1
 74
     3
  7
8500ColorShaded.ctb
 75
     0
147
0.5049602753846977
148
-4581153.377679998
149
-2032365.335819999
  0
PLOTSETTINGS
  5
1D60
102
{ACAD_REACTORS
330
18
102
}
330
18
100
AcDbPlotSettings
  1
8500 Color Shaded 8.5x11
  2
8500ColorShaded.pc3
  4
Letter
  6
PS1
 40
5.027083396911621
 41
5.027085304260253
 42
5.027084350585937
 43
5.027069091796875
 44
215.8999938964843
 45
279.3999938964843
 46
16.50999999999999
 47
0.0
 48
180377.877572
 49
80019.819395
140
180380.8390819999
141
80022.26069
142
1.0
143
3.089030970531291
 70
   692
 72
     0
 73
     1
 74
     3
  7
8500ColorShaded.ctb
 75
     0
147
0.3237261165523398
148
-4581153.377679998
149
-2032365.335819999
  0
PLOTSETTINGS
  5
1DF7
102
{ACAD_REACTORS
330
18
102
}
330
18
100
AcDbPlotSettings
  1
8500-B&W-Shaded-11x17
  2
8500B&WShaded.pc3
  4
11x17
  6

 40
5.027083396911621
 41
5.027085304260253
 42
5.027099609375
 43
5.027069091796875
 44
279.3999938964843
 45
431.7999877929687
 46
0.0
 47
0.0
 48
180360.0524337165
 49
80033.77936194791
140
180369.1574725906
141
80037.61796031875
142
1.0
143
4.787622939151733
 70
  1712
 72
     0
 73
     1
 74
     0
  7
8500B&WShaded.ctb
 75
     0
147
0.2088719209322652
148
-4580581.320935756
149
-2032339.826086972
  0
PLOTSETTINGS
  5
1DF8
102
{ACAD_REACTORS
330
18
102
}
330
18
100
AcDbPlotSettings
  1
8500-B&W-Shaded-8.5x11
  2
8500B&WShaded.pc3
  4
Letter
  6

 40
5.027083396911621
 41
5.027085304260253
 42
5.027084350585937
 43
5.027069091796875
 44
215.8999938964843
 45
279.3999938964843
 46
0.0
 47
0.0
 48
180360.0524337165
 49
80033.77936194791
140
180369.1574725906
141
80037.61796031875
142
1.0
143
1.400341199009821
 70
  1712
 72
     0
 73
     1
 74
     0
  7
8500B&WShaded.ctb
 75
     0
147
0.7141116755738516
148
0.0
149
0.0
  0
PLOTSETTINGS
  5
1DF9
102
{ACAD_REACTORS
330
18
102
}
330
18
100
AcDbPlotSettings
  1
8500-Color-Shaded-11x17
  2
8500ColorShaded.pc3
  4
11x17
  6

 40
5.027083396911621
 41
5.027085304260253
 42
5.027099609375
 43
5.027069091796875
 44
279.3999938964843
 45
431.7999877929687
 46
0.0
 47
0.0
 48
180360.0524337165
 49
80033.77936194791
140
180369.1574725906
141
80037.61796031875
142
1.0
143
4.787622939151733
 70
  1712
 72
     0
 73
     1
 74
     0
  7
8500ColorShaded.ctb
 75
     0
147
0.2088719209322652
148
-4580581.320935756
149
-2032339.826086972
  0
PLOTSETTINGS
  5
1DFA
102
{ACAD_REACTORS
330
18
102
}
330
18
100
AcDbPlotSettings
  1
8500-Color-Shaded-8.5x11
  2
8500ColorShaded.pc3
  4
Letter
  6

 40
5.027083396911621
 41
5.027085304260253
 42
5.027084350585937
 43
5.027069091796875
 44
215.8999938964843
 45
279.3999938964843
 46
0.0
 47
0.0
 48
180360.0524337165
 49
80033.77936194791
140
180369.1574725906
141
80037.61796031875
142
1.0
143
1.400341199009821
 70
  1712
 72
     0
 73
     1
 74
     0
  7
8500ColorShaded.ctb
 75
     0
147
0.7141116755738516
148
0.0
149
0.0
  0
PLOTSETTINGS
  5
1D61
102
{ACAD_REACTORS
330
18
102
}
330
18
100
AcDbPlotSettings
  1
8500B&WShaded11x17
  2
8500B&WShaded.pc3
  4
11x17
  6

 40
5.027083396911621
 41
5.027085304260253
 42
5.027099609375
 43
5.027069091796875
 44
279.3999938964843
 45
431.7999877929687
 46
0.0
 47
0.0
 48
180360.0524337165
 49
80033.77936194791
140
180369.1574725906
141
80037.61796031875
142
1.0
143
4.787622939151733
 70
  1712
 72
     0
 73
     1
 74
     0
  7
8500B&WShaded.ctb
 75
     0
147
0.2088719209322652
148
-4580581.320935756
149
-2032339.826086972
  0
PLOTSETTINGS
  5
1D23
102
{ACAD_REACTORS
330
18
102
}
330
18
100
AcDbPlotSettings
  1
8500ColorShaded11x17
  2
8500ColorShaded.pc3
  4
11x17
  6

 40
5.027083396911621
 41
5.027085304260253
 42
5.027099609375
 43
5.027069091796875
 44
279.3999938964843
 45
431.7999877929687
 46
0.0
 47
0.0
 48
180360.0524337165
 49
80033.77936194791
140
180369.1574725906
141
80037.61796031875
142
1.0
143
4.787622939151733
 70
  1712
 72
     0
 73
     1
 74
     0
  7
8500ColorShaded.ctb
 75
     0
147
0.2088719209322652
148
-4580581.320935756
149
-2032339.826086972
  0
PLOTSETTINGS
  5
1D62
102
{ACAD_REACTORS
330
18
102
}
330
18
100
AcDbPlotSettings
  1
Laser Jet 5 Shaded 11x17
  2
LaserJet5Shaded.pc3
  4
11x17
  6
PS1
 40
7.143749713897705
 41
5.873736858367919
 42
7.143768310546875
 43
7.14373779296875
 44
279.3999938964843
 45
431.7999877929687
 46
0.0
 47
2.54
 48
180377.877572
 49
80019.819395
140
180380.8390819999
141
80022.26069
142
1.0
143
2.011976231014692
 70
   692
 72
     0
 73
     1
 74
     3
  7
LaserJet5Shaded.ctb
 75
     0
147
0.4970237642895384
148
-4581153.377679998
149
-2032365.335819999
  0
PLOTSETTINGS
  5
1D63
102
{ACAD_REACTORS
330
18
102
}
330
18
100
AcDbPlotSettings
  1
Laser Jet 5 Shaded 8.5x11
  2
LaserJet5Shaded.pc3
  4
Letter
  6
PS1
 40
7.143749713897705
 41
6.974400997161865
 42
7.14373779296875
 43
6.297088623046875
 44
215.8999938964843
 45
279.3999938964843
 46
15.49399999999999
 47
0.0
 48
180377.877572
 49
80019.819395
140
180380.8390819999
141
80022.26069
142
1.0
143
3.126375516456624
 70
   692
 72
     0
 73
     1
 74
     3
  7
LaserJet5Shaded.ctb
 75
     0
147
0.3198592090861117
148
-4581153.377679998
149
-2032365.335819999
  0
PLOTSETTINGS
  5
1DFB
102
{ACAD_REACTORS
330
18
102
}
330
18
100
AcDbPlotSettings
  1
LaserJet5-Shaded-11x17
  2
LaserJet5Shaded.pc3
  4
11x17
  6

 40
7.143749713897705
 41
5.873736858367919
 42
7.143768310546875
 43
7.14373779296875
 44
279.3999938964843
 45
431.7999877929687
 46
0.0
 47
0.0
 48
180360.0524337165
 49
80033.77936194791
140
180369.1574725906
141
80037.61796031875
142
1.0
143
4.864072045424008
 70
  1712
 72
     0
 73
     1
 74
     0
  7
LaserJet5Shaded.ctb
 75
     0
147
0.205589060084086
148
-4580581.320935756
149
-2032339.826086972
  0
PLOTSETTINGS
  5
1DFC
102
{ACAD_REACTORS
330
18
102
}
330
18
100
AcDbPlotSettings
  1
LaserJet5-Shaded-8.5x11
  2
LaserJet5Shaded.pc3
  4
Letter
  6

 40
7.143749713897705
 41
6.974400997161865
 42
7.14373779296875
 43
6.297088623046875
 44
215.8999938964843
 45
279.3999938964843
 46
0.0
 47
0.0
 48
180360.0524337165
 49
80033.77936194791
140
180369.1574725906
141
80037.61796031875
142
1.0
143
1.417270490660323
 70
  1712
 72
     0
 73
     1
 74
     0
  7
LaserJet5Shaded.ctb
 75
     0
147
0.7055816138061886
148
0.0
149
0.0
  0
PLOTSETTINGS
  5
1D64
102
{ACAD_REACTORS
330
18
102
}
330
18
100
AcDbPlotSettings
  1
LaserJet5Shaded 11x17
  2
LaserJet5Shaded.pc3
  4
11x17
  6

 40
7.143749713897705
 41
5.873736858367919
 42
7.143768310546875
 43
7.14373779296875
 44
279.3999938964843
 45
431.7999877929687
 46
0.0
 47
0.0
 48
180360.0524337165
 49
80033.77936194791
140
180369.1574725906
141
80037.61796031875
142
1.0
143
4.864072045424008
 70
  1712
 72
     0
 73
     1
 74
     0
  7
LaserJet5Shaded.ctb
 75
     0
147
0.205589060084086
148
-4580581.320935756
149
-2032339.826086972
  0
ACDBPLACEHOLDER
  5
F
102
{ACAD_REACTORS
330
E
102
}
330
E
  0
DICTIONARYVAR
  5
1CA3
102
{ACAD_REACTORS
330
1CA1
102
}
330
1CA1
100
DictionaryVariables
280
     0
  1
1
  0
DICTIONARYVAR
  5
1CA2
102
{ACAD_REACTORS
330
1CA1
102
}
330
1CA1
100
DictionaryVariables
280
     0
  1
1
  0
DICTIONARYVAR
  5
1E3E
102
{ACAD_REACTORS
330
1CA1
102
}
330
1CA1
100
DictionaryVariables
280
     0
  1
1
  0
ENDSEC
  0
EOF
