  0
SECTION
  2
HEADER
  9
$ACADVER
  1
AC1015
  9
$ACADMAINTVER
 70
    13
  9
$DWGCODEPAGE
  3
ANSI_1252
  9
$INSBASE
 10
0.0
 20
0.0
 30
0.0
  9
$EXTMIN
 10
0.0
 20
0.0
 30
0.0
  9
$EXTMAX
 10
16.48999999999999
 20
10.44
 30
0.03
  9
$LIMMIN
 10
0.0
 20
0.0
  9
$LIMMAX
 10
12.0
 20
9.0
  9
$ORTHOMODE
 70
     1
  9
$REGENMODE
 70
     1
  9
$FILLMODE
 70
     1
  9
$QTEXTMODE
 70
     0
  9
$MIRRTEXT
 70
     0
  9
$LTSCALE
 40
1.0
  9
$ATTMODE
 70
     1
  9
$TEXTSIZE
 40
0.1
  9
$TRACEWID
 40
0.05
  9
$TEXTSTYLE
  7
SIMPLEX
  9
$CLAYER
  8
IMAGE
  9
$CELTYPE
  6
ByLayer
  9
$CECOLOR
 62
   256
  9
$CELTSCALE
 40
1.0
  9
$DISPSILH
 70
     0
  9
$DIMSCALE
 40
1.0
  9
$DIMASZ
 40
0.18
  9
$DIMEXO
 40
0.0625
  9
$DIMDLI
 40
0.38
  9
$DIMRND
 40
0.0
  9
$DIMDLE
 40
0.0
  9
$DIMEXE
 40
0.18
  9
$DIMTP
 40
0.0
  9
$DIMTM
 40
0.0
  9
$DIMTXT
 40
0.1
  9
$DIMCEN
 40
0.09
  9
$DIMTSZ
 40
0.0
  9
$DIMTOL
 70
     0
  9
$DIMLIM
 70
     0
  9
$DIMTIH
 70
     1
  9
$DIMTOH
 70
     1
  9
$DIMSE1
 70
     0
  9
$DIMSE2
 70
     0
  9
$DIMTAD
 70
     0
  9
$DIMZIN
 70
     0
  9
$DIMBLK
  1

  9
$DIMASO
 70
     1
  9
$DIMSHO
 70
     1
  9
$DIMPOST
  1

  9
$DIMAPOST
  1

  9
$DIMALT
 70
     0
  9
$DIMALTD
 70
     2
  9
$DIMALTF
 40
25.4
  9
$DIMLFAC
 40
1.0
  9
$DIMTOFL
 70
     0
  9
$DIMTVP
 40
0.0
  9
$DIMTIX
 70
     0
  9
$DIMSOXD
 70
     0
  9
$DIMSAH
 70
     0
  9
$DIMBLK1
  1

  9
$DIMBLK2
  1

  9
$DIMSTYLE
  2
Standard
  9
$DIMCLRD
 70
     0
  9
$DIMCLRE
 70
     0
  9
$DIMCLRT
 70
     0
  9
$DIMTFAC
 40
1.0
  9
$DIMGAP
 40
0.09
  9
$DIMJUST
 70
     0
  9
$DIMSD1
 70
     0
  9
$DIMSD2
 70
     0
  9
$DIMTOLJ
 70
     1
  9
$DIMTZIN
 70
     0
  9
$DIMALTZ
 70
     0
  9
$DIMALTTZ
 70
     0
  9
$DIMUPT
 70
     0
  9
$DIMDEC
 70
     4
  9
$DIMTDEC
 70
     4
  9
$DIMALTU
 70
     2
  9
$DIMALTTD
 70
     2
  9
$DIMTXSTY
  7
STANDARD
  9
$DIMAUNIT
 70
     0
  9
$DIMADEC
 70
     0
  9
$DIMALTRND
 40
0.0
  9
$DIMAZIN
 70
     0
  9
$DIMDSEP
 70
    46
  9
$DIMATFIT
 70
     3
  9
$DIMFRAC
 70
     0
  9
$DIMLDRBLK
  1

  9
$DIMLUNIT
 70
     2
  9
$DIMLWD
 70
    -2
  9
$DIMLWE
 70
    -2
  9
$DIMTMOVE
 70
     2
  9
$LUNITS
 70
     2
  9
$LUPREC
 70
     4
  9
$SKETCHINC
 40
0.1
  9
$FILLETRAD
 40
0.0
  9
$AUNITS
 70
     0
  9
$AUPREC
 70
     0
  9
$MENU
  1
ACAD
  9
$ELEVATION
 40
0.0
  9
$PELEVATION
 40
0.0
  9
$THICKNESS
 40
0.0
  9
$LIMCHECK
 70
     0
  9
$CHAMFERA
 40
0.0
  9
$CHAMFERB
 40
0.0
  9
$CHAMFERC
 40
0.0
  9
$CHAMFERD
 40
0.0
  9
$SKPOLY
 70
     0
  9
$TDCREATE
 40
2449646.379281481
  9
$TDUCREATE
 40
2449646.670948148
  9
$TDUPDATE
 40
2453020.556163264
  9
$TDUUPDATE
 40
2453020.847829930
  9
$TDINDWG
 40
0.3411107755
  9
$TDUSRTIMER
 40
0.3411107755
  9
$USRTIMER
 70
     1
  9
$ANGBASE
 50
0.0
  9
$ANGDIR
 70
     0
  9
$PDMODE
 70
     0
  9
$PDSIZE
 40
0.0
  9
$PLINEWID
 40
0.0
  9
$SPLFRAME
 70
     0
  9
$SPLINETYPE
 70
     6
  9
$SPLINESEGS
 70
     8
  9
$HANDSEED
  5
5D1
  9
$SURFTAB1
 70
     6
  9
$SURFTAB2
 70
     6
  9
$SURFTYPE
 70
     6
  9
$SURFU
 70
     6
  9
$SURFV
 70
     6
  9
$UCSBASE
  2

  9
$UCSNAME
  2

  9
$UCSORG
 10
0.0
 20
0.0
 30
0.0
  9
$UCSXDIR
 10
1.0
 20
0.0
 30
0.0
  9
$UCSYDIR
 10
0.0
 20
1.0
 30
0.0
  9
$UCSORTHOREF
  2

  9
$UCSORTHOVIEW
 70
     0
  9
$UCSORGTOP
 10
0.0
 20
0.0
 30
0.0
  9
$UCSORGBOTTOM
 10
0.0
 20
0.0
 30
0.0
  9
$UCSORGLEFT
 10
0.0
 20
0.0
 30
0.0
  9
$UCSORGRIGHT
 10
0.0
 20
0.0
 30
0.0
  9
$UCSORGFRONT
 10
0.0
 20
0.0
 30
0.0
  9
$UCSORGBACK
 10
0.0
 20
0.0
 30
0.0
  9
$PUCSBASE
  2

  9
$PUCSNAME
  2

  9
$PUCSORG
 10
0.0
 20
0.0
 30
0.0
  9
$PUCSXDIR
 10
1.0
 20
0.0
 30
0.0
  9
$PUCSYDIR
 10
0.0
 20
1.0
 30
0.0
  9
$PUCSORTHOREF
  2

  9
$PUCSORTHOVIEW
 70
     0
  9
$PUCSORGTOP
 10
0.0
 20
0.0
 30
0.0
  9
$PUCSORGBOTTOM
 10
0.0
 20
0.0
 30
0.0
  9
$PUCSORGLEFT
 10
0.0
 20
0.0
 30
0.0
  9
$PUCSORGRIGHT
 10
0.0
 20
0.0
 30
0.0
  9
$PUCSORGFRONT
 10
0.0
 20
0.0
 30
0.0
  9
$PUCSORGBACK
 10
0.0
 20
0.0
 30
0.0
  9
$USERI1
 70
     0
  9
$USERI2
 70
     0
  9
$USERI3
 70
     0
  9
$USERI4
 70
     0
  9
$USERI5
 70
     0
  9
$USERR1
 40
0.0
  9
$USERR2
 40
0.0
  9
$USERR3
 40
0.0
  9
$USERR4
 40
0.0
  9
$USERR5
 40
0.0
  9
$WORLDVIEW
 70
     1
  9
$SHADEDGE
 70
     3
  9
$SHADEDIF
 70
    70
  9
$TILEMODE
 70
     1
  9
$MAXACTVP
 70
    16
  9
$PINSBASE
 10
0.0
 20
0.0
 30
0.0
  9
$PLIMCHECK
 70
     0
  9
$PEXTMIN
 10
1.000000000000000E+20
 20
1.000000000000000E+20
 30
1.000000000000000E+20
  9
$PEXTMAX
 10
-1.000000000000000E+20
 20
-1.000000000000000E+20
 30
-1.000000000000000E+20
  9
$PLIMMIN
 10
0.0
 20
0.0
  9
$PLIMMAX
 10
12.0
 20
9.0
  9
$UNITMODE
 70
     0
  9
$VISRETAIN
 70
     0
  9
$PLINEGEN
 70
     1
  9
$PSLTSCALE
 70
     1
  9
$TREEDEPTH
 70
  3020
  9
$CMLSTYLE
  2
Standard
  9
$CMLJUST
 70
     0
  9
$CMLSCALE
 40
1.0
  9
$PROXYGRAPHICS
 70
     1
  9
$MEASUREMENT
 70
     0
  9
$CELWEIGHT
370
    -1
  9
$ENDCAPS
280
     0
  9
$JOINSTYLE
280
     0
  9
$LWDISPLAY
290
     0
  9
$INSUNITS
 70
     0
  9
$HYPERLINKBASE
  1

  9
$STYLESHEET
  1
OKIColorShaded.ctb
  9
$XEDIT
290
     1
  9
$CEPSNTYPE
380
     0
  9
$PSTYLEMODE
290
     1
  9
$FINGERPRINTGUID
  2
{382D600B-FF10-4D74-B652-DACA3DA4F852}
  9
$VERSIONGUID
  2
{7356349C-FD23-4296-AD66-F8120D5C5010}
  9
$EXTNAMES
290
     1
  9
$PSVPSCALE
 40
0.0
  9
$OLESTARTUP
290
     0
  0
ENDSEC
  0
SECTION
  2
CLASSES
  0
CLASS
  1
ACDBDICTIONARYWDFLT
  2
AcDbDictionaryWithDefault
  3
AutoCAD 2000
 90
        0
280
     0
281
     0
  0
CLASS
  1
ACDBPLACEHOLDER
  2
AcDbPlaceHolder
  3
AutoCAD 2000
 90
        0
280
     0
281
     0
  0
CLASS
  1
LAYOUT
  2
AcDbLayout
  3
AutoCAD 2000
 90
        0
280
     0
281
     0
  0
CLASS
  1
DICTIONARYVAR
  2
AcDbDictionaryVar
  3
AutoCAD 2000
 90
        0
280
     0
281
     0
  0
CLASS
  1
PLOTSETTINGS
  2
AcDbPlotSettings
  3
AutoCAD 2000
 90
        0
280
     0
281
     0
  0
ENDSEC
  0
SECTION
  2
TABLES
  0
TABLE
  2
VPORT
  5
8
330
0
100
AcDbSymbolTable
 70
     3
  0
VPORT
  5
5D0
330
8
100
AcDbSymbolTableRecord
100
AcDbViewportTableRecord
  2
*Active
 70
     0
 10
0.0
 20
0.0
 11
1.0
 21
1.0
 12
8.245000038393772
 22
5.220000024307517
 13
0.0
 23
0.0
 14
0.14
 24
0.14
 15
0.14
 25
0.14
 16
0.0
 26
0.0
 36
1.0
 17
0.0
 27
0.0
 37
0.0
 40
11.0072450655855
 41
1.505548705302096
 42
50.0
 43
0.0
 44
0.0
 50
0.0
 51
0.0
 71
     0
 72
  5000
 73
     1
 74
     1
 75
     0
 76
     0
 77
     0
 78
     0
281
     0
 65
     1
110
0.0
120
0.0
130
0.0
111
1.0
121
0.0
131
0.0
112
0.0
122
1.0
132
0.0
 79
     0
146
0.0
  0
ENDTAB
  0
TABLE
  2
LTYPE
  5
5
330
0
100
AcDbSymbolTable
 70
     1
  0
LTYPE
  5
13
330
5
100
AcDbSymbolTableRecord
100
AcDbLinetypeTableRecord
  2
ByBlock
 70
     0
  3

 72
    65
 73
     0
 40
0.0
  0
LTYPE
  5
14
330
5
100
AcDbSymbolTableRecord
100
AcDbLinetypeTableRecord
  2
ByLayer
 70
     0
  3

 72
    65
 73
     0
 40
0.0
  0
LTYPE
  5
15
330
5
100
AcDbSymbolTableRecord
100
AcDbLinetypeTableRecord
  2
CONTINUOUS
 70
     0
  3
Solid line
 72
    65
 73
     0
 40
0.0
  0
ENDTAB
  0
TABLE
  2
LAYER
  5
2
330
0
100
AcDbSymbolTable
 70
    10
  0
LAYER
  5
10
330
2
100
AcDbSymbolTableRecord
100
AcDbLayerTableRecord
  2
0
 70
     0
 62
     7
  6
CONTINUOUS
370
    -3
390
F
  0
LAYER
  5
2A
330
2
100
AcDbSymbolTableRecord
100
AcDbLayerTableRecord
  2
TEXT_BUBBLES
 70
     0
 62
     6
  6
CONTINUOUS
370
    -3
390
F
  0
LAYER
  5
2B
330
2
100
AcDbSymbolTableRecord
100
AcDbLayerTableRecord
  2
IMAGE
 70
     0
 62
     7
  6
CONTINUOUS
370
    -3
390
F
  0
LAYER
  5
2E
330
2
100
AcDbSymbolTableRecord
100
AcDbLayerTableRecord
  2
TEXT_LEADERS
 70
     0
 62
    -5
  6
CONTINUOUS
370
    -3
390
F
  0
LAYER
  5
2F
330
2
100
AcDbSymbolTableRecord
100
AcDbLayerTableRecord
  2
OPTION-ADAPT-PA-8S-NP
 70
     0
 62
    -1
  6
CONTINUOUS
370
    -3
390
F
  0
LAYER
  5
30
330
2
100
AcDbSymbolTableRecord
100
AcDbLayerTableRecord
  2
OPTION-ADAPT-PA-8S
 70
     0
 62
     1
  6
CONTINUOUS
370
    -3
390
F
  0
LAYER
  5
31
330
2
100
AcDbSymbolTableRecord
100
AcDbLayerTableRecord
  2
INSTRUCT-OPTION
 70
     0
 62
     7
  6
CONTINUOUS
370
    -3
390
F
  0
LAYER
  5
32
330
2
100
AcDbSymbolTableRecord
100
AcDbLayerTableRecord
  2
INSTRUCT-CALLOUT
 70
     0
 62
     4
  6
CONTINUOUS
370
    -3
390
F
  0
LAYER
  5
35
330
2
100
AcDbSymbolTableRecord
100
AcDbLayerTableRecord
  2
OPTION-ADAPT-PA-8SPRS
 70
     0
 62
    -1
  6
CONTINUOUS
370
    -3
390
F
  0
LAYER
  5
34F
330
2
100
AcDbSymbolTableRecord
100
AcDbLayerTableRecord
  2
TITLE
 70
     0
 62
     4
  6
CONTINUOUS
370
    -3
390
F
  0
ENDTAB
  0
TABLE
  2
STYLE
  5
3
330
0
100
AcDbSymbolTable
 70
     6
  0
STYLE
  5
11
330
3
100
AcDbSymbolTableRecord
100
AcDbTextStyleTableRecord
  2
STANDARD
 70
     0
 40
0.0
 41
1.0
 50
0.0
 71
     0
 42
0.2
  3
txt
  4

  0
STYLE
  5
24
330
3
100
AcDbSymbolTableRecord
100
AcDbTextStyleTableRecord
  2
ROMANS
 70
     0
 40
0.0
 41
1.0
 50
0.0
 71
     0
 42
0.1
  3
ROMANS.SHX
  4

  0
STYLE
  5
25
330
3
100
AcDbSymbolTableRecord
100
AcDbTextStyleTableRecord
  2
SIMPLEX
 70
     0
 40
0.0
 41
1.0
 50
0.0
 71
     0
 42
0.1
  3
SIMPLEX
  4

  0
STYLE
  5
350
330
3
100
AcDbSymbolTableRecord
100
AcDbTextStyleTableRecord
  2
L100
 70
     0
 40
0.1
 41
1.0
 50
0.0
 71
     0
 42
0.1
  3
romans.shx
  4

  0
STYLE
  5
351
330
3
100
AcDbSymbolTableRecord
100
AcDbTextStyleTableRecord
  2
L200
 70
     0
 40
0.2
 41
1.0
 50
0.0
 71
     0
 42
0.081
  3
ARIAL.TTF
  4

1001
ACAD
1000
Arial
1071
       34
  0
STYLE
  5
352
330
3
100
AcDbSymbolTableRecord
100
AcDbTextStyleTableRecord
  2
L80
 70
     0
 40
0.08
 41
1.0
 50
0.0
 71
     0
 42
0.08
  3
ROMANS
  4

  0
ENDTAB
  0
TABLE
  2
VIEW
  5
6
330
0
100
AcDbSymbolTable
 70
     1
  0
VIEW
  5
41C
330
6
100
AcDbSymbolTableRecord
100
AcDbViewTableRecord
  2
ps1
 70
     0
 40
10.44
 10
8.244999999999997
 20
5.219999999999999
 41
16.48999999999999
 11
0.0
 21
0.0
 31
1.0
 12
0.0
 22
0.0
 32
0.0
 42
50.0
 43
0.0
 44
0.0
 50
0.0
 71
     0
281
     0
 72
     1
110
0.0
120
0.0
130
0.0
111
1.0
121
0.0
131
0.0
112
0.0
122
1.0
132
0.0
 79
     0
146
0.0
  0
ENDTAB
  0
TABLE
  2
UCS
  5
7
330
0
100
AcDbSymbolTable
 70
     0
  0
ENDTAB
  0
TABLE
  2
APPID
  5
9
330
0
100
AcDbSymbolTable
 70
     3
  0
APPID
  5
12
330
9
100
AcDbSymbolTableRecord
100
AcDbRegAppTableRecord
  2
ACAD
 70
     0
  0
APPID
  5
353
330
9
100
AcDbSymbolTableRecord
100
AcDbRegAppTableRecord
  2
RAK
 70
     0
  0
APPID
  5
354
330
9
100
AcDbSymbolTableRecord
100
AcDbRegAppTableRecord
  2
DCO15
 70
     0
  0
ENDTAB
  0
TABLE
  2
DIMSTYLE
  5
A
330
0
100
AcDbSymbolTable
 70
     1
100
AcDbDimStyleTable
 71
     0
  0
DIMSTYLE
105
343
330
A
100
AcDbSymbolTableRecord
100
AcDbDimStyleTableRecord
  2
Standard
 70
     0
340
11
  0
ENDTAB
  0
TABLE
  2
BLOCK_RECORD
  5
1
330
0
100
AcDbSymbolTable
 70
     1
  0
BLOCK_RECORD
  5
1E
330
1
100
AcDbSymbolTableRecord
100
AcDbBlockTableRecord
  2
*Model_Space
340
21
  0
BLOCK_RECORD
  5
1A
330
1
100
AcDbSymbolTableRecord
100
AcDbBlockTableRecord
  2
*Paper_Space
340
1D
  0
BLOCK_RECORD
  5
355
330
1
100
AcDbSymbolTableRecord
100
AcDbBlockTableRecord
  2
titleblock
340
0
102
{BLKREFS
331
364
102
}
  0
ENDTAB
  0
ENDSEC
  0
SECTION
  2
BLOCKS
  0
BLOCK
  5
39
330
1E
100
AcDbEntity
  8
0
100
AcDbBlockBegin
  2
*Model_Space
 70
     0
 10
0.0
 20
0.0
 30
0.0
  3
*Model_Space
  1

  0
ENDBLK
  5
3A
330
1E
100
AcDbEntity
  8
0
100
AcDbBlockEnd
  0
BLOCK
  5
37
330
1A
100
AcDbEntity
 67
     1
  8
0
100
AcDbBlockBegin
  2
*Paper_Space
 70
     0
 10
0.0
 20
0.0
 30
0.0
  3
*Paper_Space
  1

  0
ENDBLK
  5
38
330
1A
100
AcDbEntity
 67
     1
  8
0
100
AcDbBlockEnd
  0
BLOCK
  5
361
330
355
100
AcDbEntity
  8
0
100
AcDbBlockBegin
  2
titleblock
 70
     2
 10
0.0
 20
0.0
 30
0.0
  3
titleblock
  1

  0
LWPOLYLINE
  5
356
330
355
100
AcDbEntity
  8
IMAGE
100
AcDbPolyline
 90
        4
 70
     1
 43
0.0
 10
0.0
 20
0.0
 10
16.48999999999999
 20
0.0000000000000001
 10
16.48999999999999
 20
10.44
 10
0.0
 20
10.44
  0
ATTDEF
  5
357
330
355
100
AcDbEntity
  8
TITLE
100
AcDbText
 10
0.5055556038023421
 20
0.7842270964783673
 30
0.0
 40
0.2
  1
D
  7
L200
 72
     4
 11
0.6064423705144839
 21
0.8842270964783672
 31
0.0
100
AcDbAttributeDefinition
  3
#
  2
D
 70
     0
  0
ATTDEF
  5
358
330
355
100
AcDbEntity
  8
TITLE
100
AcDbText
 10
1.231442370514484
 20
1.34371230274675
 30
0.0
 40
0.2
  1

  7
L200
100
AcDbAttributeDefinition
  3
DETAIL TITLE TOP LINE
  2
TITLE1
 70
     0
  0
ATTDEF
  5
359
330
355
100
AcDbEntity
  8
TITLE
100
AcDbText
 10
1.231442370514484
 20
0.9842270964783674
 30
0.0
 40
0.2
  1
TITLE
  7
L200
100
AcDbAttributeDefinition
  3
DETAIL TITLE TOP 2ND LINE
  2
TITLE2
 70
     0
  0
ATTDEF
  5
35A
330
355
100
AcDbEntity
  8
TITLE
100
AcDbText
 10
2.713645751168312
 20
0.5927927664583189
 30
0.0
 40
0.2
  1
TITLE2
  7
L200
100
AcDbAttributeDefinition
  3
DETAIL TITLE BOTTOM 1
  2
TITLE3
 70
     0
  0
ATTDEF
  5
35B
330
355
100
AcDbEntity
  8
TITLE
100
AcDbText
 10
2.713645751168312
 20
0.2692560808167741
 30
0.0
 40
0.2
  1

  7
L200
100
AcDbAttributeDefinition
  3
DETAIL TITLE BOTTOM 2
  2
TITLE4
 70
     0
  0
ATTDEF
  5
35C
330
355
100
AcDbEntity
  8
TITLE
 62
     7
100
AcDbText
 10
8.177214829966379
 20
0.9696027915446398
 30
0.0
 40
0.08
  1
-
  7
L80
 72
     2
 11
8.261024353775903
 21
0.9696027915446398
 31
0.0
100
AcDbAttributeDefinition
  3
REVISION DATE
  2
REVISED
 70
     0
  0
ATTDEF
  5
35D
330
355
100
AcDbEntity
  8
TITLE
 62
     7
100
AcDbText
 10
0.2639423705144838
 20
0.0847116480207214
 30
0.0
 40
0.08
  1
-
  7
L80
100
AcDbAttributeDefinition
  3
DWG-NAME
  2
DWG-NAME
 70
     0
  0
LWPOLYLINE
  5
35E
330
355
100
AcDbEntity
  8
TITLE
 62
     3
100
AcDbPolyline
 90
        2
 70
     1
 43
0.03
 10
0.6064423705144839
 20
0.5417270964783675
 42
0.9999999999999998
 10
0.6064423705144839
 20
1.226727096478367
 42
0.9999999999999998
  0
ATTDEF
  5
35F
330
355
100
AcDbEntity
  8
TITLE
 62
     7
100
AcDbText
 10
1.231442370514484
 20
0.7005637793954894
 30
0.0
 40
0.1
  1
N.T.S.
  7
L100
100
AcDbAttributeDefinition
  3
SCALE
  2
SCALE
 70
     0
  0
LWPOLYLINE
  5
360
330
355
100
AcDbEntity
  8
TITLE
 62
     3
100
AcDbPolyline
 90
        2
 70
     0
 43
0.04
 39
0.03
 10
0.9489423705144833
 20
0.8842270964783672
 10
8.261024353775903
 20
0.8842270964783672
  0
ENDBLK
  5
362
330
355
100
AcDbEntity
  8
0
100
AcDbBlockEnd
  0
ENDSEC
  0
SECTION
  2
ENTITIES
  0
TEXT
  5
E0
330
1E
100
AcDbEntity
  8
TEXT_BUBBLES
100
AcDbText
 10
4.588362519113744
 20
5.929098772953555
 30
0.0
 40
0.10000000149
  1

  7
ROMANS
100
AcDbText
  0
TEXT
  5
E2
330
1E
100
AcDbEntity
  8
TEXT_BUBBLES
100
AcDbText
 10
4.588362519113744
 20
3.755036997746555
 30
0.0
 40
0.10000000149
  1

  7
ROMANS
100
AcDbText
  0
TEXT
  5
E3
330
1E
100
AcDbEntity
  8
TEXT_BUBBLES
100
AcDbText
 10
4.588362519113744
 20
5.618518519352554
 30
0.0
 40
0.10000000149
  1

  7
ROMANS
100
AcDbText
  0
TEXT
  5
E4
330
1E
100
AcDbEntity
  8
TEXT_BUBBLES
100
AcDbText
 10
16.90309906005899
 20
1.433911323547
 30
0.0
 40
0.10000000149
  1

  7
ROMANS
100
AcDbText
  0
TEXT
  5
E5
330
1E
100
AcDbEntity
  8
TEXT_BUBBLES
100
AcDbText
 10
16.90309906005899
 20
0.968012332916
 30
0.0
 40
0.10000000149
  1

  7
ROMANS
100
AcDbText
  0
TEXT
  5
E6
330
1E
100
AcDbEntity
  8
TEXT_BUBBLES
100
AcDbText
 10
16.90309906005899
 20
1.12331199646
 30
0.0
 40
0.10000000149
  1

  7
ROMANS
100
AcDbText
  0
TEXT
  5
E7
330
1E
100
AcDbEntity
  8
TEXT_BUBBLES
100
AcDbText
 10
16.90309906005899
 20
1.744510650635
 30
0.0
 40
0.10000000149
  1

  7
ROMANS
100
AcDbText
  0
TEXT
  5
E8
330
1E
100
AcDbEntity
  8
TEXT_BUBBLES
100
AcDbText
 10
16.90309906005899
 20
2.521008968353
 30
0.0
 40
0.10000000149
  1

  7
ROMANS
100
AcDbText
  0
TEXT
  5
E9
330
1E
100
AcDbEntity
  8
TEXT_BUBBLES
100
AcDbText
 10
16.90309906005899
 20
2.986907958984
 30
0.0
 40
0.10000000149
  1

  7
ROMANS
100
AcDbText
  0
TEXT
  5
EA
330
1E
100
AcDbEntity
  8
TEXT_BUBBLES
100
AcDbText
 10
16.90309906005899
 20
2.831608295440999
 30
0.0
 40
0.10000000149
  1

  7
ROMANS
100
AcDbText
  0
TEXT
  5
EB
330
1E
100
AcDbEntity
  8
TEXT_BUBBLES
100
AcDbText
 10
4.588362519113744
 20
3.133876490543554
 30
0.0
 40
0.10000000149
  1

  7
ROMANS
100
AcDbText
  0
TEXT
  5
EC
330
1E
100
AcDbEntity
  8
TEXT_BUBBLES
100
AcDbText
 10
16.90309906005899
 20
2.210409641266
 30
0.0
 40
0.10000000149
  1

  7
ROMANS
100
AcDbText
  0
TEXT
  5
ED
330
1E
100
AcDbEntity
  8
TEXT_BUBBLES
100
AcDbText
 10
16.90309906005899
 20
2.055109977722
 30
0.0
 40
0.10000000149
  1

  7
ROMANS
100
AcDbText
  0
TEXT
  5
EE
330
1E
100
AcDbEntity
  8
TEXT_BUBBLES
100
AcDbText
 10
4.588362519113744
 20
4.842067885349554
 30
0.0
 40
0.10000000149
  1

  7
ROMANS
100
AcDbText
  0
TEXT
  5
EF
330
1E
100
AcDbEntity
  8
TEXT_BUBBLES
100
AcDbText
 10
4.588362519113744
 20
6.394969153355554
 30
0.0
 40
0.10000000149
  1

  7
ROMANS
100
AcDbText
  0
TEXT
  5
F0
330
1E
100
AcDbEntity
  8
TEXT_BUBBLES
100
AcDbText
 10
4.588362519113744
 20
5.152648138950555
 30
0.0
 40
0.10000000149
  1

  7
ROMANS
100
AcDbText
  0
TEXT
  5
F1
330
1E
100
AcDbEntity
  8
TEXT_BUBBLES
100
AcDbText
 10
4.588362519113744
 20
4.065617251347554
 30
0.0
 40
0.10000000149
  1

  7
ROMANS
100
AcDbText
  0
TEXT
  5
F2
330
1E
100
AcDbEntity
  8
TEXT_BUBBLES
100
AcDbText
 10
4.588362519113744
 20
3.444456744145555
 30
0.0
 40
0.10000000149
  1

  7
ROMANS
100
AcDbText
  0
LINE
  5
F4
330
1E
100
AcDbEntity
  8
IMAGE
100
AcDbLine
 10
1.195266219182559
 20
4.434722531517663
 30
0.0
 11
1.845794055721632
 21
4.434722531517663
 31
0.0
  0
LINE
  5
F5
330
1E
100
AcDbEntity
  8
IMAGE
100
AcDbLine
 10
1.195266219182564
 20
4.434722531517663
 30
0.0
 11
0.3359238089937453
 21
4.434722531517663
 31
0.0
  0
LINE
  5
F8
330
1E
100
AcDbEntity
  8
IMAGE
100
AcDbLine
 10
1.863543839580346
 20
3.232204498013552
 30
0.0
 11
2.005542113567269
 21
3.232215017486058
 31
0.0
  0
LINE
  5
F9
330
1E
100
AcDbEntity
  8
IMAGE
100
AcDbLine
 10
1.845794055721632
 20
3.256104202338216
 30
0.0
 11
2.023291894308784
 21
3.256104202338216
 31
0.0
  0
LINE
  5
FA
330
1E
100
AcDbEntity
  8
IMAGE
100
AcDbLine
 10
1.845794055721632
 20
3.211443612189596
 30
0.0
 11
1.845794055721632
 21
4.434722531517663
 31
0.0
  0
LINE
  5
FB
330
1E
100
AcDbEntity
  8
IMAGE
100
AcDbLine
 10
2.023291894308784
 20
3.211443612189596
 30
0.0
 11
2.023291894308784
 21
4.434722531517663
 31
0.0
  0
LINE
  5
FC
330
1E
100
AcDbEntity
  8
OPTION-ADAPT-PA-8S-NP
100
AcDbLine
 10
1.863543441718739
 20
5.362324164160603
 30
0.0
 11
2.005541715705662
 21
5.362334683633108
 31
0.0
  0
LINE
  5
FD
330
1E
100
AcDbEntity
  8
OPTION-ADAPT-PA-8S-NP
100
AcDbLine
 10
1.845793657860024
 20
5.333445354768298
 30
0.0
 11
2.023291496447177
 21
5.333445354768298
 31
0.0
  0
LINE
  5
FE
330
1E
100
AcDbEntity
  8
IMAGE
100
AcDbLine
 10
1.847527048516317
 20
5.637165263312875
 30
0.0
 11
2.021558901514096
 21
5.637165263312875
 31
0.0
  0
LINE
  5
FF
330
1E
100
AcDbEntity
  8
IMAGE
100
AcDbLine
 10
2.013771077275866
 20
5.637165263312875
 30
0.0
 11
2.013771077275866
 21
5.491559835148991
 31
0.0
  0
TEXT
  5
102
330
1E
100
AcDbEntity
  8
TEXT_LEADERS
100
AcDbText
 10
4.674910068512
 20
1.118389844893999
 30
0.0
 40
0.10000000149
  1

  7
SIMPLEX
100
AcDbText
  0
TEXT
  5
105
330
1E
100
AcDbEntity
  8
TEXT_LEADERS
100
AcDbText
 10
4.674910068512
 20
1.906340003014
 30
0.0
 40
0.10000000149
  1

  7
SIMPLEX
100
AcDbText
  0
ARC
  5
108
330
1E
100
AcDbEntity
  8
IMAGE
100
AcDbCircle
 10
3.072666023557424
 20
4.912386653355842
 30
0.0
 40
0.1738489379910888
100
AcDbArc
 50
116.0563205359582
 51
205.2549940243739
  0
ARC
  5
109
330
1E
100
AcDbEntity
  8
IMAGE
100
AcDbCircle
 10
2.83907000525157
 20
4.994393827749086
 30
0.0
 40
0.1738489379910888
100
AcDbArc
 50
296.0563205359582
 51
25.2549940243739
  0
ARC
  5
10A
330
1E
100
AcDbEntity
  8
IMAGE
100
AcDbCircle
 10
2.918468962806982
 20
5.285705547932645
 30
0.0
 40
0.1738489379910888
100
AcDbArc
 50
116.0563205359582
 51
205.2549940243739
  0
ARC
  5
10B
330
1E
100
AcDbEntity
  8
IMAGE
100
AcDbCircle
 10
2.684872944501128
 20
5.367712722325888
 30
0.0
 40
0.1738489379910888
100
AcDbArc
 50
296.0563205359582
 51
25.2549940243739
  0
ARC
  5
10C
330
1E
100
AcDbEntity
  8
IMAGE
100
AcDbCircle
 10
2.85354388459627
 20
5.070641402143834
 30
0.0
 40
0.1738489379910888
100
AcDbArc
 50
116.0563205359582
 51
205.2549940243739
  0
ARC
  5
10D
330
1E
100
AcDbEntity
  8
IMAGE
100
AcDbCircle
 10
2.619947866290416
 20
5.152648576537078
 30
0.0
 40
0.1738489379910888
100
AcDbArc
 50
296.0563205359582
 51
25.2549940243739
  0
ARC
  5
10E
330
1E
100
AcDbEntity
  8
IMAGE
100
AcDbCircle
 10
3.210631814755188
 20
4.83528818599759
 30
0.0
 40
0.1738489379910888
100
AcDbArc
 50
116.0563205359582
 51
205.2549940243739
  0
ARC
  5
10F
330
1E
100
AcDbEntity
  8
IMAGE
100
AcDbCircle
 10
2.977035796449336
 20
4.917295360390833
 30
0.0
 40
0.1738489379910888
100
AcDbArc
 50
296.0563205359582
 51
25.2549940243739
  0
ARC
  5
110
330
1E
100
AcDbEntity
  8
IMAGE
100
AcDbCircle
 10
2.74804063250386
 20
4.729785020138928
 30
0.0
 40
0.1738489379910888
100
AcDbArc
 50
116.0563205359582
 51
205.2549940243739
  0
ARC
  5
111
330
1E
100
AcDbEntity
  8
IMAGE
100
AcDbCircle
 10
2.514444614198007
 20
4.811792194532171
 30
0.0
 40
0.1738489379910888
100
AcDbArc
 50
296.0563205359582
 51
25.2549940243739
  0
ARC
  5
112
330
1E
100
AcDbEntity
  8
IMAGE
100
AcDbCircle
 10
2.772387536832878
 20
4.559356829136474
 30
0.0
 40
0.1738489379910888
100
AcDbArc
 50
116.0563205359582
 51
205.2549940243739
  0
ARC
  5
113
330
1E
100
AcDbEntity
  8
IMAGE
100
AcDbCircle
 10
2.538791518527024
 20
4.641364003529717
 30
0.0
 40
0.1738489379910888
100
AcDbArc
 50
296.0563205359582
 51
25.2549940243739
  0
ARC
  5
114
330
1E
100
AcDbEntity
  8
IMAGE
100
AcDbCircle
 10
2.959047136688678
 20
4.737900648281901
 30
0.0
 40
0.1738489379910888
100
AcDbArc
 50
116.0563205359582
 51
205.2549940243739
  0
ARC
  5
115
330
1E
100
AcDbEntity
  8
IMAGE
100
AcDbCircle
 10
2.725451118382824
 20
4.819907822675145
 30
0.0
 40
0.1738489379910888
100
AcDbArc
 50
296.0563205359582
 51
25.2549940243739
  0
ARC
  5
116
330
1E
100
AcDbEntity
  8
IMAGE
100
AcDbCircle
 10
3.252821251063947
 20
4.587317386824211
 30
0.0
 40
0.1738489379910888
100
AcDbArc
 50
143.5307656099477
 51
232.7294390983634
  0
ARC
  5
117
330
1E
100
AcDbEntity
  8
IMAGE
100
AcDbCircle
 10
3.007736712808458
 20
4.55230530993057
 30
0.0
 40
0.1738489379910888
100
AcDbArc
 50
323.5307656099477
 51
52.72943909836341
  0
ARC
  5
118
330
1E
100
AcDbEntity
  8
IMAGE
100
AcDbCircle
 10
3.301648102915034
 20
5.349016275701204
 30
0.0
 40
0.1738489379910888
100
AcDbArc
 50
143.5307656099477
 51
232.7294390983634
  0
ARC
  5
119
330
1E
100
AcDbEntity
  8
IMAGE
100
AcDbCircle
 10
3.056563564659548
 20
5.314004198807563
 30
0.0
 40
0.1738489379910888
100
AcDbArc
 50
323.5307656099477
 51
52.72943909836341
  0
ARC
  5
11A
330
1E
100
AcDbEntity
  8
IMAGE
100
AcDbCircle
 10
2.500887732557171
 20
5.173239609037283
 30
0.0
 40
0.1738489379910888
100
AcDbArc
 50
143.5307656099477
 51
232.7294390983634
  0
ARC
  5
11B
330
1E
100
AcDbEntity
  8
IMAGE
100
AcDbCircle
 10
2.255803194301681
 20
5.138227532143642
 30
0.0
 40
0.1738489379910888
100
AcDbArc
 50
323.5307656099477
 51
52.72943909836341
  0
ARC
  5
11C
330
1E
100
AcDbEntity
  8
IMAGE
100
AcDbCircle
 10
2.520418473297606
 20
4.577552016453992
 30
0.0
 40
0.1738489379910888
100
AcDbArc
 50
143.5307656099477
 51
232.7294390983634
  0
ARC
  5
11D
330
1E
100
AcDbEntity
  8
IMAGE
100
AcDbCircle
 10
2.275333935042118
 20
4.542539939560352
 30
0.0
 40
0.1738489379910888
100
AcDbArc
 50
323.5307656099477
 51
52.72943909836341
  0
ARC
  5
11E
330
1E
100
AcDbEntity
  8
IMAGE
100
AcDbCircle
 10
2.608306806629567
 20
4.968166831262707
 30
0.0
 40
0.1738489379910888
100
AcDbArc
 50
143.5307656099477
 51
232.7294390983634
  0
ARC
  5
11F
330
1E
100
AcDbEntity
  8
IMAGE
100
AcDbCircle
 10
2.363222268374078
 20
4.933154754369067
 30
0.0
 40
0.1738489379910888
100
AcDbArc
 50
323.5307656099477
 51
52.72943909836341
  0
ARC
  5
120
330
1E
100
AcDbEntity
  8
IMAGE
100
AcDbCircle
 10
2.764552732553053
 20
5.104882016445757
 30
0.0
 40
0.1738489379910888
100
AcDbArc
 50
143.5307656099477
 51
232.7294390983634
  0
ARC
  5
121
330
1E
100
AcDbEntity
  8
IMAGE
100
AcDbCircle
 10
2.519468194297565
 20
5.069869939552117
 30
0.0
 40
0.1738489379910888
100
AcDbArc
 50
323.5307656099477
 51
52.72943909836341
  0
ARC
  5
122
330
1E
100
AcDbEntity
  8
IMAGE
100
AcDbCircle
 10
3.116106065880897
 20
5.251362571999025
 30
0.0
 40
0.1738489379910888
100
AcDbArc
 50
143.5307656099477
 51
232.7294390983634
  0
ARC
  5
123
330
1E
100
AcDbEntity
  8
IMAGE
100
AcDbCircle
 10
2.871021527625408
 20
5.216350495105385
 30
0.0
 40
0.1738489379910888
100
AcDbArc
 50
323.5307656099477
 51
52.72943909836341
  0
ARC
  5
124
330
1E
100
AcDbEntity
  8
IMAGE
100
AcDbCircle
 10
3.067279214029807
 20
5.153708868296846
 30
0.0
 40
0.1738489379910888
100
AcDbArc
 50
143.5307656099477
 51
232.7294390983634
  0
ARC
  5
125
330
1E
100
AcDbEntity
  8
IMAGE
100
AcDbCircle
 10
2.822194675774317
 20
5.118696791403206
 30
0.0
 40
0.1738489379910888
100
AcDbArc
 50
323.5307656099477
 51
52.72943909836341
  0
ARC
  5
126
330
1E
100
AcDbEntity
  8
IMAGE
100
AcDbCircle
 10
2.989156251068063
 20
4.977932201632925
 30
0.0
 40
0.1738489379910888
100
AcDbArc
 50
143.5307656099477
 51
232.7294390983634
  0
ARC
  5
127
330
1E
100
AcDbEntity
  8
IMAGE
100
AcDbCircle
 10
2.744071712812576
 20
4.942920124739285
 30
0.0
 40
0.1738489379910888
100
AcDbArc
 50
323.5307656099477
 51
52.72943909836341
  0
ARC
  5
128
330
1E
100
AcDbEntity
  8
IMAGE
100
AcDbCircle
 10
2.852441065885013
 20
4.733797942377478
 30
0.0
 40
0.1738489379910888
100
AcDbArc
 50
143.5307656099477
 51
232.7294390983634
  0
ARC
  5
129
330
1E
100
AcDbEntity
  8
IMAGE
100
AcDbCircle
 10
2.607356527629526
 20
4.698785865483839
 30
0.0
 40
0.1738489379910888
100
AcDbArc
 50
323.5307656099477
 51
52.72943909836341
  0
ARC
  5
12A
330
1E
100
AcDbEntity
  8
IMAGE
100
AcDbCircle
 10
2.647368288110439
 20
4.577552016453992
 30
0.0
 40
0.1738489379910888
100
AcDbArc
 50
143.5307656099477
 51
232.7294390983634
  0
ARC
  5
12B
330
1E
100
AcDbEntity
  8
IMAGE
100
AcDbCircle
 10
2.40228374985495
 20
4.542539939560352
 30
0.0
 40
0.1738489379910888
100
AcDbArc
 50
323.5307656099477
 51
52.72943909836341
  0
ARC
  5
12C
330
1E
100
AcDbEntity
  8
IMAGE
100
AcDbCircle
 10
2.969625510327627
 20
4.558021275713556
 30
0.0
 40
0.1738489379910888
100
AcDbArc
 50
143.5307656099477
 51
232.7294390983634
  0
ARC
  5
12D
330
1E
100
AcDbEntity
  8
IMAGE
100
AcDbCircle
 10
2.724540972072139
 20
4.523009198819917
 30
0.0
 40
0.1738489379910888
100
AcDbArc
 50
323.5307656099477
 51
52.72943909836341
  0
ARC
  5
12E
330
1E
100
AcDbEntity
  8
IMAGE
100
AcDbCircle
 10
3.145402176991549
 20
4.616613497934864
 30
0.0
 40
0.1738489379910888
100
AcDbArc
 50
143.5307656099477
 51
232.7294390983634
  0
ARC
  5
12F
330
1E
100
AcDbEntity
  8
IMAGE
100
AcDbCircle
 10
2.900317638736061
 20
4.581601421041224
 30
0.0
 40
0.1738489379910888
100
AcDbArc
 50
323.5307656099477
 51
52.72943909836341
  0
ARC
  5
130
330
1E
100
AcDbEntity
  8
IMAGE
100
AcDbCircle
 10
3.301648102915034
 20
4.968166831262707
 30
0.0
 40
0.1738489379910888
100
AcDbArc
 50
143.5307656099477
 51
232.7294390983634
  0
ARC
  5
131
330
1E
100
AcDbEntity
  8
IMAGE
100
AcDbCircle
 10
3.056563564659548
 20
4.933154754369067
 30
0.0
 40
0.1738489379910888
100
AcDbArc
 50
323.5307656099477
 51
52.72943909836341
  0
ARC
  5
132
330
1E
100
AcDbEntity
  8
IMAGE
100
AcDbCircle
 10
3.008686991808501
 20
5.280658683109678
 30
0.0
 40
0.1738489379910888
100
AcDbArc
 50
143.5307656099477
 51
232.7294390983634
  0
ARC
  5
133
330
1E
100
AcDbEntity
  8
IMAGE
100
AcDbCircle
 10
2.763602453553011
 20
5.245646606216038
 30
0.0
 40
0.1738489379910888
100
AcDbArc
 50
323.5307656099477
 51
52.72943909836341
  0
ARC
  5
134
330
1E
100
AcDbEntity
  8
IMAGE
100
AcDbCircle
 10
3.294216297333858
 20
4.790680945021895
 30
0.0
 40
0.1738489379910888
100
AcDbArc
 50
159.7199718669747
 51
248.9186453553905
  0
ARC
  5
135
330
1E
100
AcDbEntity
  8
IMAGE
100
AcDbCircle
 10
3.068612009765852
 20
4.688725161217124
 30
0.0
 40
0.1738489379910888
100
AcDbArc
 50
339.7199718669747
 51
68.91864535539045
  0
ARC
  5
136
330
1E
100
AcDbEntity
  8
IMAGE
100
AcDbCircle
 10
3.128205001040154
 20
5.044580574647559
 30
0.0
 40
0.1738489379910888
100
AcDbArc
 50
159.7199718669747
 51
248.9186453553905
  0
ARC
  5
137
330
1E
100
AcDbEntity
  8
IMAGE
100
AcDbCircle
 10
2.902600713472149
 20
4.942624790842788
 30
0.0
 40
0.1738489379910888
100
AcDbArc
 50
339.7199718669747
 51
68.91864535539045
  0
ARC
  5
138
330
1E
100
AcDbEntity
  8
IMAGE
100
AcDbCircle
 10
2.727824815861222
 20
4.985988352426252
 30
0.0
 40
0.1738489379910888
100
AcDbArc
 50
159.7199718669747
 51
248.9186453553905
  0
ARC
  5
139
330
1E
100
AcDbEntity
  8
IMAGE
100
AcDbCircle
 10
2.502220528293216
 20
4.884032568621481
 30
0.0
 40
0.1738489379910888
100
AcDbArc
 50
339.7199718669747
 51
68.91864535539045
  0
ARC
  5
13A
330
1E
100
AcDbEntity
  8
IMAGE
100
AcDbCircle
 10
2.659467223269697
 20
4.819977056132549
 30
0.0
 40
0.1738489379910888
100
AcDbArc
 50
159.7199718669747
 51
248.9186453553905
  0
ARC
  5
13B
330
1E
100
AcDbEntity
  8
IMAGE
100
AcDbCircle
 10
2.433862935701692
 20
4.718021272327777
 30
0.0
 40
0.1738489379910888
100
AcDbArc
 50
339.7199718669747
 51
68.91864535539045
  0
ARC
  5
13C
330
1E
100
AcDbEntity
  8
IMAGE
100
AcDbCircle
 10
2.461284873411783
 20
4.95438925634712
 30
0.0
 40
0.1738489379910888
100
AcDbArc
 50
159.7199718669747
 51
248.9186453553905
  0
ARC
  5
13D
330
1E
100
AcDbEntity
  8
IMAGE
100
AcDbCircle
 10
2.235680585843779
 20
4.852433472542349
 30
0.0
 40
0.1738489379910888
100
AcDbArc
 50
339.7199718669747
 51
68.91864535539045
  0
ARC
  5
13E
330
1E
100
AcDbEntity
  8
IMAGE
100
AcDbCircle
 10
2.727824815861222
 20
5.278949463532788
 30
0.0
 40
0.1738489379910888
100
AcDbArc
 50
159.7199718669747
 51
248.9186453553905
  0
ARC
  5
13F
330
1E
100
AcDbEntity
  8
IMAGE
100
AcDbCircle
 10
2.502220528293216
 20
5.176993679728018
 30
0.0
 40
0.1738489379910888
100
AcDbArc
 50
339.7199718669747
 51
68.91864535539045
  0
ARC
  5
140
330
1E
100
AcDbEntity
  8
IMAGE
100
AcDbCircle
 10
2.903601482525143
 20
5.22035724131148
 30
0.0
 40
0.1738489379910888
100
AcDbArc
 50
159.7199718669747
 51
248.9186453553905
  0
ARC
  5
141
330
1E
100
AcDbEntity
  8
IMAGE
100
AcDbCircle
 10
2.677997194957139
 20
5.11840145750671
 30
0.0
 40
0.1738489379910888
100
AcDbArc
 50
339.7199718669747
 51
68.91864535539045
  0
ARC
  5
142
330
1E
100
AcDbEntity
  8
IMAGE
100
AcDbCircle
 10
3.23562407511255
 20
5.259418722792352
 30
0.0
 40
0.1738489379910888
100
AcDbArc
 50
159.7199718669747
 51
248.9186453553905
  0
ARC
  5
143
330
1E
100
AcDbEntity
  8
IMAGE
100
AcDbCircle
 10
3.010019787544546
 20
5.157462938987581
 30
0.0
 40
0.1738489379910888
100
AcDbArc
 50
339.7199718669747
 51
68.91864535539045
  0
ARC
  5
144
330
1E
100
AcDbEntity
  8
IMAGE
100
AcDbCircle
 10
3.050082038078412
 20
4.751619463541023
 30
0.0
 40
0.1738489379910888
100
AcDbArc
 50
159.7199718669747
 51
248.9186453553905
  0
ARC
  5
145
330
1E
100
AcDbEntity
  8
IMAGE
100
AcDbCircle
 10
2.824477750510406
 20
4.649663679736252
 30
0.0
 40
0.1738489379910888
100
AcDbArc
 50
339.7199718669747
 51
68.91864535539045
  0
ARC
  5
146
330
1E
100
AcDbEntity
  8
IMAGE
100
AcDbCircle
 10
3.108674260299719
 20
4.829742426502766
 30
0.0
 40
0.1738489379910888
100
AcDbArc
 50
159.7199718669747
 51
248.9186453553905
  0
ARC
  5
147
330
1E
100
AcDbEntity
  8
IMAGE
100
AcDbCircle
 10
2.883069972731713
 20
4.727786642697995
 30
0.0
 40
0.1738489379910888
100
AcDbArc
 50
339.7199718669747
 51
68.91864535539045
  0
ARC
  5
148
330
1E
100
AcDbEntity
  8
IMAGE
100
AcDbCircle
 10
2.60087500104839
 20
5.210591870941263
 30
0.0
 40
0.1738489379910888
100
AcDbArc
 50
159.7199718669747
 51
248.9186453553905
  0
ARC
  5
149
330
1E
100
AcDbEntity
  8
IMAGE
100
AcDbCircle
 10
2.375270713480385
 20
5.108636087136492
 30
0.0
 40
0.1738489379910888
100
AcDbArc
 50
339.7199718669747
 51
68.91864535539045
  0
ARC
  5
14A
330
1E
100
AcDbEntity
  8
IMAGE
100
AcDbCircle
 10
2.668501064878147
 20
4.6280050184265
 30
0.0
 40
0.1738489379910888
100
AcDbArc
 50
278.5307656099478
 51
7.729439098363569
  0
ARC
  5
14B
330
1E
100
AcDbEntity
  8
IMAGE
100
AcDbCircle
 10
2.866559280837496
 20
4.479461356456988
 30
0.0
 40
0.1738489379910888
100
AcDbArc
 50
98.53076560994793
 51
187.7294390983635
  0
ARC
  5
14C
330
1E
100
AcDbEntity
  8
IMAGE
100
AcDbCircle
 10
2.28765162043965
 20
4.764720203609551
 30
0.0
 40
0.1738489379910888
100
AcDbArc
 50
278.5307656099478
 51
7.729439098363569
  0
ARC
  5
14D
330
1E
100
AcDbEntity
  8
IMAGE
100
AcDbCircle
 10
2.485709836398998
 20
4.616176541640038
 30
0.0
 40
0.1738489379910888
100
AcDbArc
 50
98.53076560994793
 51
187.7294390983635
  0
ARC
  5
14E
330
1E
100
AcDbEntity
  8
IMAGE
100
AcDbCircle
 10
3.029819768576207
 20
5.233457981380008
 30
0.0
 40
0.1738489379910888
100
AcDbArc
 50
278.5307656099478
 51
7.729439098363569
  0
ARC
  5
14F
330
1E
100
AcDbEntity
  8
IMAGE
100
AcDbCircle
 10
3.227877984535556
 20
5.084914319410496
 30
0.0
 40
0.1738489379910888
100
AcDbArc
 50
98.53076560994793
 51
187.7294390983635
  0
ARC
  5
150
330
1E
100
AcDbEntity
  8
IMAGE
100
AcDbCircle
 10
2.648701083846485
 20
4.874267198251263
 30
0.0
 40
0.1738489379910888
100
AcDbArc
 50
339.7199718669747
 51
68.91864535539045
  0
ARC
  5
151
330
1E
100
AcDbEntity
  8
IMAGE
100
AcDbCircle
 10
2.874305371414489
 20
4.976222982056034
 30
0.0
 40
0.1738489379910888
100
AcDbArc
 50
159.7199718669747
 51
248.9186453553905
  0
ARC
  5
152
330
1E
100
AcDbEntity
  8
IMAGE
100
AcDbCircle
 10
2.551316620435533
 20
5.379938536933275
 30
0.0
 40
0.1738489379910888
100
AcDbArc
 50
278.5307656099478
 51
7.729439098363569
  0
ARC
  5
153
330
1E
100
AcDbEntity
  8
IMAGE
100
AcDbCircle
 10
2.74937483639488
 20
5.231394874963764
 30
0.0
 40
0.1738489379910888
100
AcDbArc
 50
98.53076560994793
 51
187.7294390983635
  0
ARC
  5
154
330
1E
100
AcDbEntity
  8
IMAGE
100
AcDbCircle
 10
1.127156247200868
 20
4.912386653355842
 30
0.0
 40
0.1738489379910888
100
AcDbArc
 50
116.0563205359582
 51
205.2549940243739
  0
ARC
  5
155
330
1E
100
AcDbEntity
  8
IMAGE
100
AcDbCircle
 10
0.8935602288950146
 20
4.994393827749086
 30
0.0
 40
0.1738489379910888
100
AcDbArc
 50
296.0563205359582
 51
25.2549940243739
  0
ARC
  5
156
330
1E
100
AcDbEntity
  8
IMAGE
100
AcDbCircle
 10
0.6767385171140499
 20
5.301936804218593
 30
0.0
 40
0.1738489379910888
100
AcDbArc
 50
116.0563205359582
 51
205.2549940243739
  0
ARC
  5
157
330
1E
100
AcDbEntity
  8
IMAGE
100
AcDbCircle
 10
0.4431424988081958
 20
5.383943978611836
 30
0.0
 40
0.1738489379910888
100
AcDbArc
 50
296.0563205359582
 51
25.2549940243739
  0
ARC
  5
158
330
1E
100
AcDbEntity
  8
IMAGE
100
AcDbCircle
 10
0.9729591864504268
 20
5.285705547932645
 30
0.0
 40
0.1738489379910888
100
AcDbArc
 50
116.0563205359582
 51
205.2549940243739
  0
ARC
  5
159
330
1E
100
AcDbEntity
  8
IMAGE
100
AcDbCircle
 10
0.7393631681445728
 20
5.367712722325888
 30
0.0
 40
0.1738489379910888
100
AcDbArc
 50
296.0563205359582
 51
25.2549940243739
  0
ARC
  5
15A
330
1E
100
AcDbEntity
  8
IMAGE
100
AcDbCircle
 10
0.9080341082397145
 20
5.070641402143834
 30
0.0
 40
0.1738489379910888
100
AcDbArc
 50
116.0563205359582
 51
205.2549940243739
  0
ARC
  5
15B
330
1E
100
AcDbEntity
  8
IMAGE
100
AcDbCircle
 10
0.6744380899338605
 20
5.152648576537078
 30
0.0
 40
0.1738489379910888
100
AcDbArc
 50
296.0563205359582
 51
25.2549940243739
  0
ARC
  5
15C
330
1E
100
AcDbEntity
  8
IMAGE
100
AcDbCircle
 10
1.265122038398633
 20
4.83528818599759
 30
0.0
 40
0.1738489379910888
100
AcDbArc
 50
116.0563205359582
 51
205.2549940243739
  0
ARC
  5
15D
330
1E
100
AcDbEntity
  8
IMAGE
100
AcDbCircle
 10
1.03152602009278
 20
4.917295360390833
 30
0.0
 40
0.1738489379910888
100
AcDbArc
 50
296.0563205359582
 51
25.2549940243739
  0
ARC
  5
15E
330
1E
100
AcDbEntity
  8
IMAGE
100
AcDbCircle
 10
0.8025308561473043
 20
4.729785020138928
 30
0.0
 40
0.1738489379910888
100
AcDbArc
 50
116.0563205359582
 51
205.2549940243739
  0
ARC
  5
15F
330
1E
100
AcDbEntity
  8
IMAGE
100
AcDbCircle
 10
0.5689348378414517
 20
4.811792194532171
 30
0.0
 40
0.1738489379910888
100
AcDbArc
 50
296.0563205359582
 51
25.2549940243739
  0
ARC
  5
160
330
1E
100
AcDbEntity
  8
IMAGE
100
AcDbCircle
 10
0.8268777604763231
 20
4.559356829136474
 30
0.0
 40
0.1738489379910888
100
AcDbArc
 50
116.0563205359582
 51
205.2549940243739
  0
ARC
  5
161
330
1E
100
AcDbEntity
  8
IMAGE
100
AcDbCircle
 10
0.5932817421704691
 20
4.641364003529717
 30
0.0
 40
0.1738489379910888
100
AcDbArc
 50
296.0563205359582
 51
25.2549940243739
  0
ARC
  5
162
330
1E
100
AcDbEntity
  8
IMAGE
100
AcDbCircle
 10
1.013537360332122
 20
4.737900648281901
 30
0.0
 40
0.1738489379910888
100
AcDbArc
 50
116.0563205359582
 51
205.2549940243739
  0
ARC
  5
163
330
1E
100
AcDbEntity
  8
IMAGE
100
AcDbCircle
 10
0.7799413420262685
 20
4.819907822675145
 30
0.0
 40
0.1738489379910888
100
AcDbArc
 50
296.0563205359582
 51
25.2549940243739
  0
ARC
  5
164
330
1E
100
AcDbEntity
  8
IMAGE
100
AcDbCircle
 10
1.307311474707391
 20
4.587317386824211
 30
0.0
 40
0.1738489379910888
100
AcDbArc
 50
143.5307656099477
 51
232.7294390983634
  0
ARC
  5
165
330
1E
100
AcDbEntity
  8
IMAGE
100
AcDbCircle
 10
1.062226936451902
 20
4.55230530993057
 30
0.0
 40
0.1738489379910888
100
AcDbArc
 50
323.5307656099477
 51
52.72943909836341
  0
ARC
  5
166
330
1E
100
AcDbEntity
  8
IMAGE
100
AcDbCircle
 10
1.356138326558479
 20
5.349016275701204
 30
0.0
 40
0.1738489379910888
100
AcDbArc
 50
143.5307656099477
 51
232.7294390983634
  0
ARC
  5
167
330
1E
100
AcDbEntity
  8
IMAGE
100
AcDbCircle
 10
1.111053788302992
 20
5.314004198807563
 30
0.0
 40
0.1738489379910888
100
AcDbArc
 50
323.5307656099477
 51
52.72943909836341
  0
ARC
  5
168
330
1E
100
AcDbEntity
  8
IMAGE
100
AcDbCircle
 10
0.6627970302730116
 20
4.968166831262707
 30
0.0
 40
0.1738489379910888
100
AcDbArc
 50
143.5307656099477
 51
232.7294390983634
  0
ARC
  5
169
330
1E
100
AcDbEntity
  8
IMAGE
100
AcDbCircle
 10
0.4177124920175232
 20
4.933154754369067
 30
0.0
 40
0.1738489379910888
100
AcDbArc
 50
323.5307656099477
 51
52.72943909836341
  0
ARC
  5
16A
330
1E
100
AcDbEntity
  8
IMAGE
100
AcDbCircle
 10
0.8190429561964974
 20
5.104882016445757
 30
0.0
 40
0.1738489379910888
100
AcDbArc
 50
143.5307656099477
 51
232.7294390983634
  0
ARC
  5
16B
330
1E
100
AcDbEntity
  8
IMAGE
100
AcDbCircle
 10
0.5739584179410093
 20
5.069869939552117
 30
0.0
 40
0.1738489379910888
100
AcDbArc
 50
323.5307656099477
 51
52.72943909836341
  0
ARC
  5
16C
330
1E
100
AcDbEntity
  8
IMAGE
100
AcDbCircle
 10
1.170596289524341
 20
5.251362571999025
 30
0.0
 40
0.1738489379910888
100
AcDbArc
 50
143.5307656099477
 51
232.7294390983634
  0
ARC
  5
16D
330
1E
100
AcDbEntity
  8
IMAGE
100
AcDbCircle
 10
0.9255117512688519
 20
5.216350495105385
 30
0.0
 40
0.1738489379910888
100
AcDbArc
 50
323.5307656099477
 51
52.72943909836341
  0
ARC
  5
16E
330
1E
100
AcDbEntity
  8
IMAGE
100
AcDbCircle
 10
1.121769437673251
 20
5.153708868296846
 30
0.0
 40
0.1738489379910888
100
AcDbArc
 50
143.5307656099477
 51
232.7294390983634
  0
ARC
  5
16F
330
1E
100
AcDbEntity
  8
IMAGE
100
AcDbCircle
 10
0.8766848994177621
 20
5.118696791403206
 30
0.0
 40
0.1738489379910888
100
AcDbArc
 50
323.5307656099477
 51
52.72943909836341
  0
ARC
  5
170
330
1E
100
AcDbEntity
  8
IMAGE
100
AcDbCircle
 10
1.043646474711507
 20
4.977932201632925
 30
0.0
 40
0.1738489379910888
100
AcDbArc
 50
143.5307656099477
 51
232.7294390983634
  0
ARC
  5
171
330
1E
100
AcDbEntity
  8
IMAGE
100
AcDbCircle
 10
0.7985619364560204
 20
4.942920124739285
 30
0.0
 40
0.1738489379910888
100
AcDbArc
 50
323.5307656099477
 51
52.72943909836341
  0
ARC
  5
172
330
1E
100
AcDbEntity
  8
IMAGE
100
AcDbCircle
 10
0.906931289528458
 20
4.733797942377478
 30
0.0
 40
0.1738489379910888
100
AcDbArc
 50
143.5307656099477
 51
232.7294390983634
  0
ARC
  5
173
330
1E
100
AcDbEntity
  8
IMAGE
100
AcDbCircle
 10
0.66184675127297
 20
4.698785865483839
 30
0.0
 40
0.1738489379910888
100
AcDbArc
 50
323.5307656099477
 51
52.72943909836341
  0
ARC
  5
174
330
1E
100
AcDbEntity
  8
IMAGE
100
AcDbCircle
 10
0.7018585117538836
 20
4.577552016453992
 30
0.0
 40
0.1738489379910888
100
AcDbArc
 50
143.5307656099477
 51
232.7294390983634
  0
ARC
  5
175
330
1E
100
AcDbEntity
  8
IMAGE
100
AcDbCircle
 10
0.4567739734983942
 20
4.542539939560352
 30
0.0
 40
0.1738489379910888
100
AcDbArc
 50
323.5307656099477
 51
52.72943909836341
  0
ARC
  5
176
330
1E
100
AcDbEntity
  8
IMAGE
100
AcDbCircle
 10
1.024115733971071
 20
4.558021275713556
 30
0.0
 40
0.1738489379910888
100
AcDbArc
 50
143.5307656099477
 51
232.7294390983634
  0
ARC
  5
177
330
1E
100
AcDbEntity
  8
IMAGE
100
AcDbCircle
 10
0.7790311957155839
 20
4.523009198819917
 30
0.0
 40
0.1738489379910888
100
AcDbArc
 50
323.5307656099477
 51
52.72943909836341
  0
ARC
  5
178
330
1E
100
AcDbEntity
  8
IMAGE
100
AcDbCircle
 10
1.199892400634993
 20
4.616613497934864
 30
0.0
 40
0.1738489379910888
100
AcDbArc
 50
143.5307656099477
 51
232.7294390983634
  0
ARC
  5
179
330
1E
100
AcDbEntity
  8
IMAGE
100
AcDbCircle
 10
0.9548078623795062
 20
4.581601421041224
 30
0.0
 40
0.1738489379910888
100
AcDbArc
 50
323.5307656099477
 51
52.72943909836341
  0
ARC
  5
17A
330
1E
100
AcDbEntity
  8
IMAGE
100
AcDbCircle
 10
1.356138326558479
 20
4.968166831262707
 30
0.0
 40
0.1738489379910888
100
AcDbArc
 50
143.5307656099477
 51
232.7294390983634
  0
ARC
  5
17B
330
1E
100
AcDbEntity
  8
IMAGE
100
AcDbCircle
 10
1.111053788302992
 20
4.933154754369067
 30
0.0
 40
0.1738489379910888
100
AcDbArc
 50
323.5307656099477
 51
52.72943909836341
  0
ARC
  5
17C
330
1E
100
AcDbEntity
  8
IMAGE
100
AcDbCircle
 10
1.063177215451945
 20
5.280658683109678
 30
0.0
 40
0.1738489379910888
100
AcDbArc
 50
143.5307656099477
 51
232.7294390983634
  0
ARC
  5
17D
330
1E
100
AcDbEntity
  8
IMAGE
100
AcDbCircle
 10
0.8180926771964555
 20
5.245646606216038
 30
0.0
 40
0.1738489379910888
100
AcDbArc
 50
323.5307656099477
 51
52.72943909836341
  0
ARC
  5
17E
330
1E
100
AcDbEntity
  8
IMAGE
100
AcDbCircle
 10
1.348706520977303
 20
4.790680945021895
 30
0.0
 40
0.1738489379910888
100
AcDbArc
 50
159.7199718669747
 51
248.9186453553905
  0
ARC
  5
17F
330
1E
100
AcDbEntity
  8
IMAGE
100
AcDbCircle
 10
1.123102233409297
 20
4.688725161217124
 30
0.0
 40
0.1738489379910888
100
AcDbArc
 50
339.7199718669747
 51
68.91864535539045
  0
ARC
  5
180
330
1E
100
AcDbEntity
  8
IMAGE
100
AcDbCircle
 10
1.182695224683599
 20
5.044580574647559
 30
0.0
 40
0.1738489379910888
100
AcDbArc
 50
159.7199718669747
 51
248.9186453553905
  0
ARC
  5
181
330
1E
100
AcDbEntity
  8
IMAGE
100
AcDbCircle
 10
0.9570909371155932
 20
4.942624790842788
 30
0.0
 40
0.1738489379910888
100
AcDbArc
 50
339.7199718669747
 51
68.91864535539045
  0
ARC
  5
182
330
1E
100
AcDbEntity
  8
IMAGE
100
AcDbCircle
 10
0.7823150395046666
 20
4.985988352426252
 30
0.0
 40
0.1738489379910888
100
AcDbArc
 50
159.7199718669747
 51
248.9186453553905
  0
ARC
  5
183
330
1E
100
AcDbEntity
  8
IMAGE
100
AcDbCircle
 10
0.5567107519366611
 20
4.884032568621481
 30
0.0
 40
0.1738489379910888
100
AcDbArc
 50
339.7199718669747
 51
68.91864535539045
  0
ARC
  5
184
330
1E
100
AcDbEntity
  8
IMAGE
100
AcDbCircle
 10
0.7139574469131416
 20
4.819977056132549
 30
0.0
 40
0.1738489379910888
100
AcDbArc
 50
159.7199718669747
 51
248.9186453553905
  0
ARC
  5
185
330
1E
100
AcDbEntity
  8
IMAGE
100
AcDbCircle
 10
0.4883531593451369
 20
4.718021272327777
 30
0.0
 40
0.1738489379910888
100
AcDbArc
 50
339.7199718669747
 51
68.91864535539045
  0
ARC
  5
186
330
1E
100
AcDbEntity
  8
IMAGE
100
AcDbCircle
 10
0.7823150395046666
 20
5.278949463532788
 30
0.0
 40
0.1738489379910888
100
AcDbArc
 50
159.7199718669747
 51
248.9186453553905
  0
ARC
  5
187
330
1E
100
AcDbEntity
  8
IMAGE
100
AcDbCircle
 10
0.5567107519366611
 20
5.176993679728018
 30
0.0
 40
0.1738489379910888
100
AcDbArc
 50
339.7199718669747
 51
68.91864535539045
  0
ARC
  5
188
330
1E
100
AcDbEntity
  8
IMAGE
100
AcDbCircle
 10
0.9580917061685878
 20
5.22035724131148
 30
0.0
 40
0.1738489379910888
100
AcDbArc
 50
159.7199718669747
 51
248.9186453553905
  0
ARC
  5
189
330
1E
100
AcDbEntity
  8
IMAGE
100
AcDbCircle
 10
0.7324874186005836
 20
5.11840145750671
 30
0.0
 40
0.1738489379910888
100
AcDbArc
 50
339.7199718669747
 51
68.91864535539045
  0
ARC
  5
18A
330
1E
100
AcDbEntity
  8
IMAGE
100
AcDbCircle
 10
1.290114298755995
 20
5.259418722792352
 30
0.0
 40
0.1738489379910888
100
AcDbArc
 50
159.7199718669747
 51
248.9186453553905
  0
ARC
  5
18B
330
1E
100
AcDbEntity
  8
IMAGE
100
AcDbCircle
 10
1.06451001118799
 20
5.157462938987581
 30
0.0
 40
0.1738489379910888
100
AcDbArc
 50
339.7199718669747
 51
68.91864535539045
  0
ARC
  5
18C
330
1E
100
AcDbEntity
  8
IMAGE
100
AcDbCircle
 10
1.104572261721856
 20
4.751619463541023
 30
0.0
 40
0.1738489379910888
100
AcDbArc
 50
159.7199718669747
 51
248.9186453553905
  0
ARC
  5
18D
330
1E
100
AcDbEntity
  8
IMAGE
100
AcDbCircle
 10
0.8789679741538504
 20
4.649663679736252
 30
0.0
 40
0.1738489379910888
100
AcDbArc
 50
339.7199718669747
 51
68.91864535539045
  0
ARC
  5
18E
330
1E
100
AcDbEntity
  8
IMAGE
100
AcDbCircle
 10
1.163164483943163
 20
4.829742426502766
 30
0.0
 40
0.1738489379910888
100
AcDbArc
 50
159.7199718669747
 51
248.9186453553905
  0
ARC
  5
18F
330
1E
100
AcDbEntity
  8
IMAGE
100
AcDbCircle
 10
0.9375601963751581
 20
4.727786642697995
 30
0.0
 40
0.1738489379910888
100
AcDbArc
 50
339.7199718669747
 51
68.91864535539045
  0
ARC
  5
190
330
1E
100
AcDbEntity
  8
IMAGE
100
AcDbCircle
 10
0.655365224691834
 20
5.210591870941263
 30
0.0
 40
0.1738489379910888
100
AcDbArc
 50
159.7199718669747
 51
248.9186453553905
  0
ARC
  5
191
330
1E
100
AcDbEntity
  8
IMAGE
100
AcDbCircle
 10
0.4297609371238295
 20
5.108636087136492
 30
0.0
 40
0.1738489379910888
100
AcDbArc
 50
339.7199718669747
 51
68.91864535539045
  0
ARC
  5
192
330
1E
100
AcDbEntity
  8
IMAGE
100
AcDbCircle
 10
0.7229912885215918
 20
4.6280050184265
 30
0.0
 40
0.1738489379910888
100
AcDbArc
 50
278.5307656099478
 51
7.729439098363569
  0
ARC
  5
193
330
1E
100
AcDbEntity
  8
IMAGE
100
AcDbCircle
 10
0.9210495044809404
 20
4.479461356456988
 30
0.0
 40
0.1738489379910888
100
AcDbArc
 50
98.53076560994793
 51
187.7294390983635
  0
ARC
  5
194
330
1E
100
AcDbEntity
  8
IMAGE
100
AcDbCircle
 10
1.084309992219652
 20
5.233457981380008
 30
0.0
 40
0.1738489379910888
100
AcDbArc
 50
278.5307656099478
 51
7.729439098363569
  0
ARC
  5
195
330
1E
100
AcDbEntity
  8
IMAGE
100
AcDbCircle
 10
1.282368208179001
 20
5.084914319410496
 30
0.0
 40
0.1738489379910888
100
AcDbArc
 50
98.53076560994793
 51
187.7294390983635
  0
ARC
  5
196
330
1E
100
AcDbEntity
  8
IMAGE
100
AcDbCircle
 10
0.7031913074899292
 20
4.874267198251263
 30
0.0
 40
0.1738489379910888
100
AcDbArc
 50
339.7199718669747
 51
68.91864535539045
  0
ARC
  5
197
330
1E
100
AcDbEntity
  8
IMAGE
100
AcDbCircle
 10
0.9287955950579336
 20
4.976222982056034
 30
0.0
 40
0.1738489379910888
100
AcDbArc
 50
159.7199718669747
 51
248.9186453553905
  0
ARC
  5
198
330
1E
100
AcDbEntity
  8
IMAGE
100
AcDbCircle
 10
0.6058068440789779
 20
5.379938536933275
 30
0.0
 40
0.1738489379910888
100
AcDbArc
 50
278.5307656099478
 51
7.729439098363569
  0
ARC
  5
199
330
1E
100
AcDbEntity
  8
IMAGE
100
AcDbCircle
 10
0.8038650600383252
 20
5.231394874963764
 30
0.0
 40
0.1738489379910888
100
AcDbArc
 50
98.53076560994793
 51
187.7294390983635
  0
LINE
  5
19A
330
1E
100
AcDbEntity
  8
IMAGE
100
AcDbLine
 10
2.023291894308784
 20
4.434722531517663
 30
0.0
 11
3.402958695051194
 21
4.434722531517663
 31
0.0
  0
TEXT
  5
1BF
330
1E
100
AcDbEntity
  8
TEXT_BUBBLES
100
AcDbText
 10
12.485117467021
 20
5.934757240355271
 30
0.0
 40
0.10000000149
  1

  7
ROMANS
100
AcDbText
  0
TEXT
  5
1C0
330
1E
100
AcDbEntity
  8
TEXT_BUBBLES
100
AcDbText
 10
12.485117467021
 20
3.760695465148272
 30
0.0
 40
0.10000000149
  1

  7
ROMANS
100
AcDbText
  0
TEXT
  5
1C1
330
1E
100
AcDbEntity
  8
TEXT_BUBBLES
100
AcDbText
 10
12.485117467021
 20
5.624176986754271
 30
0.0
 40
0.10000000149
  1

  7
ROMANS
100
AcDbText
  0
TEXT
  5
1C2
330
1E
100
AcDbEntity
  8
TEXT_BUBBLES
100
AcDbText
 10
24.79985400796626
 20
1.439569790948717
 30
0.0
 40
0.10000000149
  1

  7
ROMANS
100
AcDbText
  0
TEXT
  5
1C3
330
1E
100
AcDbEntity
  8
TEXT_BUBBLES
100
AcDbText
 10
24.79985400796626
 20
0.973670800317717
 30
0.0
 40
0.10000000149
  1

  7
ROMANS
100
AcDbText
  0
TEXT
  5
1C4
330
1E
100
AcDbEntity
  8
TEXT_BUBBLES
100
AcDbText
 10
24.79985400796626
 20
1.128970463861717
 30
0.0
 40
0.10000000149
  1

  7
ROMANS
100
AcDbText
  0
TEXT
  5
1C5
330
1E
100
AcDbEntity
  8
TEXT_BUBBLES
100
AcDbText
 10
24.79985400796626
 20
1.750169118036717
 30
0.0
 40
0.10000000149
  1

  7
ROMANS
100
AcDbText
  0
TEXT
  5
1C6
330
1E
100
AcDbEntity
  8
TEXT_BUBBLES
100
AcDbText
 10
24.79985400796626
 20
2.526667435754716
 30
0.0
 40
0.10000000149
  1

  7
ROMANS
100
AcDbText
  0
TEXT
  5
1C7
330
1E
100
AcDbEntity
  8
TEXT_BUBBLES
100
AcDbText
 10
24.79985400796626
 20
2.992566426385717
 30
0.0
 40
0.10000000149
  1

  7
ROMANS
100
AcDbText
  0
TEXT
  5
1C8
330
1E
100
AcDbEntity
  8
TEXT_BUBBLES
100
AcDbText
 10
24.79985400796626
 20
2.837266762842716
 30
0.0
 40
0.10000000149
  1

  7
ROMANS
100
AcDbText
  0
TEXT
  5
1C9
330
1E
100
AcDbEntity
  8
TEXT_BUBBLES
100
AcDbText
 10
12.485117467021
 20
3.139534957945271
 30
0.0
 40
0.10000000149
  1

  7
ROMANS
100
AcDbText
  0
TEXT
  5
1CA
330
1E
100
AcDbEntity
  8
TEXT_BUBBLES
100
AcDbText
 10
24.79985400796626
 20
2.216068108667716
 30
0.0
 40
0.10000000149
  1

  7
ROMANS
100
AcDbText
  0
TEXT
  5
1CB
330
1E
100
AcDbEntity
  8
TEXT_BUBBLES
100
AcDbText
 10
24.79985400796626
 20
2.060768445123716
 30
0.0
 40
0.10000000149
  1

  7
ROMANS
100
AcDbText
  0
TEXT
  5
1CC
330
1E
100
AcDbEntity
  8
TEXT_BUBBLES
100
AcDbText
 10
12.485117467021
 20
4.847726352751271
 30
0.0
 40
0.10000000149
  1

  7
ROMANS
100
AcDbText
  0
TEXT
  5
1CD
330
1E
100
AcDbEntity
  8
TEXT_BUBBLES
100
AcDbText
 10
12.485117467021
 20
6.400627620757271
 30
0.0
 40
0.10000000149
  1

  7
ROMANS
100
AcDbText
  0
TEXT
  5
1CE
330
1E
100
AcDbEntity
  8
TEXT_BUBBLES
100
AcDbText
 10
12.485117467021
 20
5.158306606352272
 30
0.0
 40
0.10000000149
  1

  7
ROMANS
100
AcDbText
  0
TEXT
  5
1CF
330
1E
100
AcDbEntity
  8
TEXT_BUBBLES
100
AcDbText
 10
12.485117467021
 20
4.071275718749271
 30
0.0
 40
0.10000000149
  1

  7
ROMANS
100
AcDbText
  0
TEXT
  5
1D0
330
1E
100
AcDbEntity
  8
TEXT_BUBBLES
100
AcDbText
 10
12.485117467021
 20
3.450115211547271
 30
0.0
 40
0.10000000149
  1

  7
ROMANS
100
AcDbText
  0
LWPOLYLINE
  5
1EF
330
1E
100
AcDbEntity
  8
IMAGE
100
AcDbPolyline
 90
        2
 70
     0
 43
0.0
 10
1.855314872754549
 20
5.491559835148991
 10
1.855314872754549
 20
5.637165263312875
  0
LWPOLYLINE
  5
1F3
330
1E
100
AcDbEntity
  8
IMAGE
100
AcDbPolyline
 90
        2
 70
     0
 43
0.0
 10
1.847527048516317
 20
5.637165263312875
 10
1.847527048516317
 20
5.650379549132875
  0
LINE
  5
1F7
330
1E
100
AcDbEntity
  8
IMAGE
100
AcDbLine
 10
1.847527048516317
 20
5.650379549132875
 30
0.0
 11
2.021558901514096
 21
5.650379549132875
 31
0.0
  0
LWPOLYLINE
  5
1F8
330
1E
100
AcDbEntity
  8
IMAGE
100
AcDbPolyline
 90
        2
 70
     0
 43
0.0
 10
2.021558901514096
 20
5.650379549132875
 10
2.021558901514096
 20
5.637165263312875
  0
LWPOLYLINE
  5
1FC
330
1E
100
AcDbEntity
  8
OPTION-ADAPT-PA-8S-NP
100
AcDbPolyline
 90
        2
 70
     0
 43
0.0
 10
1.828706689986708
 20
5.491559835148991
 10
2.040378464320492
 20
5.491559835148991
  0
LWPOLYLINE
  5
200
330
1E
100
AcDbEntity
  8
IMAGE
100
AcDbPolyline
 90
        2
 70
     0
 43
0.0
 10
1.855314872754549
 20
5.544387216523991
 10
2.013771077275866
 20
5.544387216523991
  0
LWPOLYLINE
  5
204
330
1E
100
AcDbEntity
  8
IMAGE
100
AcDbPolyline
 90
        2
 70
     0
 43
0.0
 10
1.855314872754549
 20
5.61042144324274
 10
2.013771077275866
 20
5.61042144324274
  0
LWPOLYLINE
  5
208
330
1E
100
AcDbEntity
  8
IMAGE
100
AcDbPolyline
 90
        2
 70
     0
 43
0.0
 10
1.944447736999208
 20
5.491559835148991
 10
1.944447736999208
 20
5.544387216523991
  0
LWPOLYLINE
  5
20C
330
1E
100
AcDbEntity
  8
IMAGE
100
AcDbPolyline
 90
        2
 70
     0
 43
0.0
 10
1.924638213031208
 20
5.491559835148991
 10
1.924638213031208
 20
5.544387216523991
  0
LWPOLYLINE
  5
210
330
1E
100
AcDbEntity
  8
OPTION-ADAPT-PA-8S-NP
100
AcDbPolyline
 90
        2
 70
     0
 43
0.0
 10
1.828706689986708
 20
5.389299647315613
 10
2.040378464320492
 20
5.389299647315613
  0
LWPOLYLINE
  5
214
330
1E
100
AcDbEntity
  8
OPTION-ADAPT-PA-8S-NP
100
AcDbPolyline
 90
        2
 70
     0
 43
0.0
 10
1.828706689986708
 20
5.491559835148991
 10
1.828706689986708
 20
5.389299647315613
  0
LWPOLYLINE
  5
218
330
1E
100
AcDbEntity
  8
OPTION-ADAPT-PA-8S-NP
100
AcDbPolyline
 90
        2
 70
     0
 43
0.0
 10
2.040378464320492
 20
5.491559835148991
 10
2.040378464320492
 20
5.389299647315613
  0
LWPOLYLINE
  5
21C
330
1E
100
AcDbEntity
  8
OPTION-ADAPT-PA-8S-NP
100
AcDbPolyline
 90
        2
 70
     0
 43
0.0
 10
1.987188834111708
 20
5.491559835148991
 10
1.987188834111708
 20
5.389299647315613
  0
LWPOLYLINE
  5
220
330
1E
100
AcDbEntity
  8
OPTION-ADAPT-PA-8S-NP
100
AcDbPolyline
 90
        2
 70
     0
 43
0.0
 10
1.881534071361708
 20
5.491559835148991
 10
1.881534071361708
 20
5.389299647315613
  0
TEXT
  5
22C
330
1E
100
AcDbEntity
  8
INSTRUCT-CALLOUT
100
AcDbText
 10
10.84117952
 20
8.069954610467625
 30
0.0
 40
0.125
  1
TO TURN OFF THIS INSTRUCTION BOX, TURN OFF
  7
ROMANS
100
AcDbText
  0
TEXT
  5
22D
330
1E
100
AcDbEntity
  8
INSTRUCT-CALLOUT
100
AcDbText
 10
10.84117952
 20
7.894954610467626
 30
0.0
 40
0.125
  1
LAYER "INSTRUCT-CALLOUT".
  7
ROMANS
100
AcDbText
  0
CIRCLE
  5
22E
330
1E
100
AcDbEntity
  8
INSTRUCT-CALLOUT
100
AcDbCircle
 10
14.65313254171698
 20
8.654719871858045
 30
0.0
 40
0.15625
  0
TEXT
  5
22F
330
1E
100
AcDbEntity
  8
INSTRUCT-CALLOUT
100
AcDbText
 10
14.60253730362174
 20
8.592219871858045
 30
0.0
 40
0.125
  1
1
  7
ROMANS
 72
     4
 11
14.65313254171698
 21
8.654719871858045
 31
0.0
100
AcDbText
  0
LINE
  5
230
330
1E
100
AcDbEntity
  8
INSTRUCT-CALLOUT
100
AcDbLine
 10
14.18254725958637
 20
8.526245226135767
 30
0.0
 11
14.50239903074242
 21
8.613568065466541
 31
0.0
  0
SOLID
  5
231
330
1E
100
AcDbEntity
  8
INSTRUCT-CALLOUT
100
AcDbTrace
 10
14.26914027307612
 20
8.588758424860223
 30
0.0
 11
14.28889314014404
 21
8.516406339592439
 31
0.0
 12
14.06196045080672
 22
8.49332378102256
 32
0.0
 13
14.06196045080672
 23
8.49332378102256
 33
0.0
  0
TEXT
  5
232
330
1E
100
AcDbEntity
  8
INSTRUCT-CALLOUT
100
AcDbText
 10
12.08554904361291
 20
8.683394928363531
 30
0.0
 40
0.125
  1
ITEM 1
  7
ROMANS
100
AcDbText
  0
SOLID
  5
233
330
1E
100
AcDbEntity
  8
INSTRUCT-CALLOUT
100
AcDbTrace
 10
11.59105361301434
 20
8.571975881670976
 30
0.0
 11
11.56223875689968
 21
8.641219683322033
 31
0.0
 12
11.36891478000384
 22
8.520153214152506
 32
0.0
 13
11.36891478000384
 23
8.520153214152506
 33
0.0
  0
LINE
  5
234
330
1E
100
AcDbEntity
  8
INSTRUCT-CALLOUT
100
AcDbLine
 10
11.48432111608893
 20
8.568177974343615
 30
0.0
 11
11.84403413418684
 21
8.717867601601467
 31
0.0
  0
LINE
  5
235
330
1E
100
AcDbEntity
  8
INSTRUCT-CALLOUT
100
AcDbLine
 10
11.84403413418684
 20
8.717867601601467
 30
0.0
 11
12.01436981651012
 21
8.717867601601465
 31
0.0
  0
TEXT
  5
236
330
1E
100
AcDbEntity
  8
INSTRUCT-CALLOUT
100
AcDbText
 10
11.38313899008847
 20
9.06207037006699
 30
0.0
 40
0.125
  1
TEXT_LEADERS         TEXT_BUBBLES
  7
ROMANS
100
AcDbText
  0
TEXT
  5
237
330
1E
100
AcDbEntity
  8
INSTRUCT-CALLOUT
100
AcDbText
 10
10.84117952
 20
9.59974217
 30
0.0
 40
0.125
  1
BY TURNING ON THE APPROPRIATE LAYER:
  7
ROMANS
100
AcDbText
  0
TEXT
  5
238
330
1E
100
AcDbEntity
  8
INSTRUCT-CALLOUT
100
AcDbText
 10
10.84117952
 20
9.774742169999999
 30
0.0
 40
0.125
  1
CHOOSE EITHER LEADERS OR BUBBLE CALLOUTS
  7
ROMANS
100
AcDbText
  0
TEXT
  5
239
330
1E
100
AcDbEntity
  8
INSTRUCT-CALLOUT
100
AcDbText
 10
10.84117952
 20
10.12474217
 30
0.0
 40
0.125
  1
CHOOSING EQUIPMENT CALLOUT METHOD
  7
ROMANS
100
AcDbText
  0
LWPOLYLINE
  5
23A
330
1E
100
AcDbEntity
  8
INSTRUCT-CALLOUT
100
AcDbPolyline
 90
        4
 70
     1
 43
0.0
 10
10.79239534029319
 20
10.05334780712831
 10
10.79239534029319
 20
8.263990280450506
 10
16.33201632952078
 20
8.263990280450506
 10
16.33201632952078
 20
10.05334780712831
  0
TEXT
  5
240
330
1E
100
AcDbEntity
  8
INSTRUCT-OPTION
100
AcDbText
 10
10.84117952
 20
5.199424249999999
 30
0.0
 40
0.125
  1
LAYER "INSTRUCT-OPTION".
  7
ROMANS
100
AcDbText
  0
TEXT
  5
241
330
1E
100
AcDbEntity
  8
INSTRUCT-OPTION
100
AcDbText
 10
10.84117952431456
 20
5.374424251012262
 30
0.0
 40
0.1250000018625
  1
TO TURN OFF THIS INSTRUCTION BOX, TURN OFF
  7
ROMANS
100
AcDbText
  0
LWPOLYLINE
  5
242
330
1E
100
AcDbEntity
  8
INSTRUCT-OPTION
100
AcDbPolyline
 90
        4
 70
     1
 43
0.0
 10
10.82545169973918
 20
7.24469320082095
 10
10.82545169973918
 20
5.606674221600954
 10
16.36507268896677
 20
5.606674221600954
 10
16.36507268896677
 20
7.24469320082095
  0
TEXT
  5
248
330
1E
100
AcDbEntity
  8
INSTRUCT-OPTION
100
AcDbText
 10
11.52006635964438
 20
7.299566054842232
 30
0.0
 40
0.1250000018625
  1
CHOOSING ADAPTER MODELS
  7
ROMANS
100
AcDbText
  0
TEXT
  5
24A
330
1E
100
AcDbEntity
  8
INSTRUCT-OPTION
100
AcDbText
 10
7.857329845427999
 20
3.654940366745
 30
0.0
 40
0.10000000149
  1

  7
ROMANS
100
AcDbText
  0
LINE
  5
263
330
1E
100
AcDbEntity
  8
OPTION-ADAPT-PA-8S-NP
100
AcDbLine
 10
1.845794055721632
 20
4.434722531517663
 30
0.0
 11
1.845793657860024
 21
5.389299647315613
 31
0.0
  0
LINE
  5
264
330
1E
100
AcDbEntity
  8
OPTION-ADAPT-PA-8S-NP
100
AcDbLine
 10
2.023291894308784
 20
4.434722531517663
 30
0.0
 11
2.023291496447177
 21
5.389299647315613
 31
0.0
  0
LINE
  5
265
330
1E
100
AcDbEntity
  8
OPTION-ADAPT-PA-8S
100
AcDbLine
 10
2.023291894308784
 20
4.434722531517663
 30
0.0
 11
2.023344093484306
 21
5.359491381711491
 31
0.0
  0
LINE
  5
266
330
1E
100
AcDbEntity
  8
OPTION-ADAPT-PA-8S
100
AcDbLine
 10
1.845794055721632
 20
4.434722531517663
 30
0.0
 11
1.845846254897154
 21
5.359491381711491
 31
0.0
  0
LWPOLYLINE
  5
267
330
1E
100
AcDbEntity
  8
OPTION-ADAPT-PA-8S
100
AcDbPolyline
 90
        2
 70
     0
 43
0.0
 10
1.881586668398838
 20
5.491559835148991
 10
1.881586668398838
 20
5.359491381711491
  0
LWPOLYLINE
  5
26B
330
1E
100
AcDbEntity
  8
OPTION-ADAPT-PA-8S
100
AcDbPolyline
 90
        2
 70
     0
 43
0.0
 10
1.828759287023838
 20
5.491559835148991
 10
1.828759287023838
 20
5.359491381711491
  0
LWPOLYLINE
  5
26F
330
1E
100
AcDbEntity
  8
OPTION-ADAPT-PA-8S
100
AcDbPolyline
 90
        2
 70
     0
 43
0.0
 10
1.828759287023838
 20
5.359491381711491
 10
2.040431061357622
 20
5.359491381711491
  0
LINE
  5
273
330
1E
100
AcDbEntity
  8
OPTION-ADAPT-PA-8S
100
AcDbLine
 10
1.845846254897154
 20
5.303637089164175
 30
0.0
 11
2.023344093484306
 21
5.303637089164175
 31
0.0
  0
LINE
  5
274
330
1E
100
AcDbEntity
  8
OPTION-ADAPT-PA-8S
100
AcDbLine
 10
1.863596038755868
 20
5.33251589855648
 30
0.0
 11
2.005594312742791
 21
5.332526418028986
 31
0.0
  0
LWPOLYLINE
  5
275
330
1E
100
AcDbEntity
  8
OPTION-ADAPT-PA-8S
100
AcDbPolyline
 90
        2
 70
     0
 43
0.0
 10
1.987241431148837
 20
5.491559835148991
 10
1.987241431148837
 20
5.359491381711491
  0
LWPOLYLINE
  5
279
330
1E
100
AcDbEntity
  8
OPTION-ADAPT-PA-8S
100
AcDbPolyline
 90
        2
 70
     0
 43
0.0
 10
2.040431061357622
 20
5.491559835148991
 10
2.040431061357622
 20
5.359491381711491
  0
LWPOLYLINE
  5
27D
330
1E
100
AcDbEntity
  8
OPTION-ADAPT-PA-8S
100
AcDbPolyline
 90
        2
 70
     0
 43
0.0
 10
1.828759287023838
 20
5.491559835148991
 10
2.040431061357622
 20
5.491559835148991
  0
LINE
  5
281
330
1E
100
AcDbEntity
  8
OPTION-ADAPT-PA-8SPRS
100
AcDbLine
 10
1.863543839580346
 20
4.410947145538472
 30
0.0
 11
2.005542113567269
 21
4.410936626065966
 31
0.0
  0
LINE
  5
282
330
1E
100
AcDbEntity
  8
OPTION-ADAPT-PA-8SPRS
100
AcDbLine
 10
1.845794055721632
 20
4.387047441213807
 30
0.0
 11
2.023291894308784
 21
4.387047441213807
 31
0.0
  0
LINE
  5
283
330
1E
100
AcDbEntity
  8
IMAGE
100
AcDbLine
 10
2.023291894308784
 20
4.38051262874325
 30
0.0
 11
2.023291894308784
 21
4.434722531517663
 31
0.0
  0
LINE
  5
284
330
1E
100
AcDbEntity
  8
OPTION-ADAPT-PA-8SPRS
100
AcDbLine
 10
1.801317048516319
 20
4.434722531517663
 30
0.0
 11
2.067768901514097
 21
4.434722531517663
 31
0.0
  0
LWPOLYLINE
  5
285
330
1E
100
AcDbEntity
  8
OPTION-ADAPT-PA-8SPRS
100
AcDbPolyline
 90
        2
 70
     0
 43
0.0
 10
2.067768901514097
 20
4.619595744589693
 10
2.067768901514097
 20
4.434722531517662
  0
LWPOLYLINE
  5
289
330
1E
100
AcDbEntity
  8
OPTION-ADAPT-PA-8SPRS
100
AcDbPolyline
 90
        2
 70
     0
 43
0.0
 10
1.801317048516319
 20
4.619595744589693
 10
1.801317048516319
 20
4.434722531517663
  0
LWPOLYLINE
  5
28D
330
1E
100
AcDbEntity
  8
OPTION-ADAPT-PA-8SPRS
100
AcDbPolyline
 90
        2
 70
     0
 43
0.0
 10
2.067768901514097
 20
4.619595744589692
 10
1.801317048516319
 20
4.619595744589692
  0
LWPOLYLINE
  5
291
330
1E
100
AcDbEntity
  8
OPTION-ADAPT-PA-8SPRS
100
AcDbPolyline
 90
        2
 70
     0
 43
0.0
 10
2.041368901514097
 20
4.751695744589692
 10
1.827717048516319
 20
4.751695744589692
  0
LWPOLYLINE
  5
295
330
1E
100
AcDbEntity
  8
OPTION-ADAPT-PA-8SPRS
100
AcDbPolyline
 90
        2
 70
     0
 43
0.0
 10
1.847527048516319
 20
5.491559835148991
 10
1.847527048516319
 20
4.751695744589692
  0
LWPOLYLINE
  5
299
330
1E
100
AcDbEntity
  8
OPTION-ADAPT-PA-8SPRS
100
AcDbPolyline
 90
        2
 70
     0
 43
0.0
 10
2.021558901514096
 20
5.491559835148991
 10
2.021558901514096
 20
4.751695744589692
  0
LWPOLYLINE
  5
29D
330
1E
100
AcDbEntity
  8
OPTION-ADAPT-PA-8SPRS
100
AcDbPolyline
 90
        2
 70
     0
 43
0.0
 10
2.041368901514097
 20
4.751695744589692
 10
2.041368901514097
 20
4.619595744589693
  0
LWPOLYLINE
  5
2A1
330
1E
100
AcDbEntity
  8
OPTION-ADAPT-PA-8SPRS
100
AcDbPolyline
 90
        2
 70
     0
 43
0.0
 10
1.827717048516319
 20
4.751695744589692
 10
1.827717048516319
 20
4.619595744589693
  0
ARC
  5
2A5
330
1E
100
AcDbEntity
  8
IMAGE
100
AcDbCircle
 10
1.225348363148453
 20
4.542539939560352
 30
0.0
 40
0.1738489379910888
100
AcDbArc
 50
323.5307656099477
 51
52.72943909836341
  0
ARC
  5
2A6
330
1E
100
AcDbEntity
  8
IMAGE
100
AcDbCircle
 10
1.470432901403943
 20
4.577552016453992
 30
0.0
 40
0.1738489379910888
100
AcDbArc
 50
143.5307656099477
 51
232.7294390983634
  0
ARC
  5
2A7
330
1E
100
AcDbEntity
  8
IMAGE
100
AcDbCircle
 10
1.595452150126382
 20
4.559356829136474
 30
0.0
 40
0.1738489379910888
100
AcDbArc
 50
116.0563205359582
 51
205.2549940243739
  0
ARC
  5
2A8
330
1E
100
AcDbEntity
  8
IMAGE
100
AcDbCircle
 10
1.198335326773889
 20
5.108636087136492
 30
0.0
 40
0.1738489379910888
100
AcDbArc
 50
339.7199718669747
 51
68.91864535539045
  0
ARC
  5
2A9
330
1E
100
AcDbEntity
  8
IMAGE
100
AcDbCircle
 10
1.423939614341893
 20
5.210591870941263
 30
0.0
 40
0.1738489379910888
100
AcDbArc
 50
159.7199718669747
 51
248.9186453553905
  0
ARC
  5
2AA
330
1E
100
AcDbEntity
  8
IMAGE
100
AcDbCircle
 10
1.482531836563201
 20
4.819977056132549
 30
0.0
 40
0.1738489379910888
100
AcDbArc
 50
159.7199718669747
 51
248.9186453553905
  0
ARC
  5
2AB
330
1E
100
AcDbEntity
  8
IMAGE
100
AcDbCircle
 10
1.431371419923071
 20
4.968166831262707
 30
0.0
 40
0.1738489379910888
100
AcDbArc
 50
143.5307656099477
 51
232.7294390983634
  0
ARC
  5
2AC
330
1E
100
AcDbEntity
  8
IMAGE
100
AcDbCircle
 10
1.445312906764109
 20
5.301936804218593
 30
0.0
 40
0.1738489379910888
100
AcDbArc
 50
116.0563205359582
 51
205.2549940243739
  0
ARC
  5
2AD
330
1E
100
AcDbEntity
  8
IMAGE
100
AcDbCircle
 10
1.374381233729037
 20
5.379938536933275
 30
0.0
 40
0.1738489379910888
100
AcDbArc
 50
278.5307656099478
 51
7.729439098363569
  0
ARC
  5
2AE
330
1E
100
AcDbEntity
  8
IMAGE
100
AcDbCircle
 10
1.32528514158672
 20
5.176993679728018
 30
0.0
 40
0.1738489379910888
100
AcDbArc
 50
339.7199718669747
 51
68.91864535539045
  0
ARC
  5
2AF
330
1E
100
AcDbEntity
  8
IMAGE
100
AcDbCircle
 10
1.550889429154726
 20
5.278949463532788
 30
0.0
 40
0.1738489379910888
100
AcDbArc
 50
159.7199718669747
 51
248.9186453553905
  0
ARC
  5
2B0
330
1E
100
AcDbEntity
  8
IMAGE
100
AcDbCircle
 10
1.587617345846557
 20
5.104882016445757
 30
0.0
 40
0.1738489379910888
100
AcDbArc
 50
143.5307656099477
 51
232.7294390983634
  0
ARC
  5
2B1
330
1E
100
AcDbEntity
  8
IMAGE
100
AcDbCircle
 10
1.256927548995196
 20
4.718021272327777
 30
0.0
 40
0.1738489379910888
100
AcDbArc
 50
339.7199718669747
 51
68.91864535539045
  0
ARC
  5
2B2
330
1E
100
AcDbEntity
  8
IMAGE
100
AcDbCircle
 10
1.32528514158672
 20
4.884032568621481
 30
0.0
 40
0.1738489379910888
100
AcDbArc
 50
339.7199718669747
 51
68.91864535539045
  0
ARC
  5
2B3
330
1E
100
AcDbEntity
  8
IMAGE
100
AcDbCircle
 10
1.550889429154726
 20
4.985988352426252
 30
0.0
 40
0.1738489379910888
100
AcDbArc
 50
159.7199718669747
 51
248.9186453553905
  0
ARC
  5
2B4
330
1E
100
AcDbEntity
  8
IMAGE
100
AcDbCircle
 10
1.186286881667582
 20
4.933154754369067
 30
0.0
 40
0.1738489379910888
100
AcDbArc
 50
323.5307656099477
 51
52.72943909836341
  0
ARC
  5
2B5
330
1E
100
AcDbEntity
  8
IMAGE
100
AcDbCircle
 10
1.337509227491511
 20
4.811792194532171
 30
0.0
 40
0.1738489379910888
100
AcDbArc
 50
296.0563205359582
 51
25.2549940243739
  0
ARC
  5
2B6
330
1E
100
AcDbEntity
  8
IMAGE
100
AcDbCircle
 10
1.571105245797363
 20
4.729785020138928
 30
0.0
 40
0.1738489379910888
100
AcDbArc
 50
116.0563205359582
 51
205.2549940243739
  0
ARC
  5
2B7
330
1E
100
AcDbEntity
  8
IMAGE
100
AcDbCircle
 10
1.572439449688384
 20
5.231394874963764
 30
0.0
 40
0.1738489379910888
100
AcDbArc
 50
98.53076560994793
 51
187.7294390983635
  0
ARC
  5
2B8
330
1E
100
AcDbEntity
  8
IMAGE
100
AcDbCircle
 10
1.211716888458255
 20
5.383943978611836
 30
0.0
 40
0.1738489379910888
100
AcDbArc
 50
296.0563205359582
 51
25.2549940243739
  0
ARC
  5
2B9
330
1E
100
AcDbEntity
  8
IMAGE
100
AcDbCircle
 10
1.342532807591068
 20
5.069869939552117
 30
0.0
 40
0.1738489379910888
100
AcDbArc
 50
323.5307656099477
 51
52.72943909836341
  0
ARC
  5
2BA
330
1E
100
AcDbEntity
  8
IMAGE
100
AcDbCircle
 10
1.361856131820528
 20
4.641364003529717
 30
0.0
 40
0.1738489379910888
100
AcDbArc
 50
296.0563205359582
 51
25.2549940243739
  0
LWPOLYLINE
  5
2BB
330
1E
100
AcDbEntity
  8
OPTION-ADAPT-PA-8SPRS
100
AcDbPolyline
 90
        2
 70
     0
 43
0.0
 10
1.847527048516319
 20
5.491559835148991
 10
2.021558901514096
 20
5.491559835148991
  0
LWPOLYLINE
  5
2BF
330
1E
100
AcDbEntity
  8
OPTION-ADAPT-PA-8SPRS
100
AcDbPolyline
 90
        2
 70
     0
 43
0.0
 10
2.061165901514097
 20
4.619595744589693
 10
2.061165901514097
 20
4.434722531517662
  0
LWPOLYLINE
  5
2C3
330
1E
100
AcDbEntity
  8
OPTION-ADAPT-PA-8SPRS
100
AcDbPolyline
 90
        2
 70
     0
 43
0.0
 10
1.807920048516318
 20
4.619595744589693
 10
1.807920048516319
 20
4.434722531517663
  0
LWPOLYLINE
  5
2C7
330
1E
100
AcDbEntity
  8
OPTION-ADAPT-PA-8SPRS
100
AcDbPolyline
 90
        2
 70
     0
 43
0.0
 10
1.944447975015208
 20
4.619595744589692
 10
1.944447975015208
 20
4.434722531517664
  0
LWPOLYLINE
  5
2CB
330
1E
100
AcDbEntity
  8
OPTION-ADAPT-PA-8SPRS
100
AcDbPolyline
 90
        2
 70
     0
 43
0.0
 10
1.924637975015208
 20
4.619595744589692
 10
1.924637975015208
 20
4.434722531517664
  0
TEXT
  5
2D9
330
1E
100
AcDbEntity
  8
INSTRUCT-OPTION
100
AcDbText
 10
10.94776075
 20
6.95674693
 30
0.0
 40
0.125
  1
%%uADAPTER%%u
  7
ROMANS
100
AcDbText
  0
TEXT
  5
2DA
330
1E
100
AcDbEntity
  8
INSTRUCT-OPTION
100
AcDbText
 10
10.94776075
 20
6.781746929999999
 30
0.0
 40
0.125
  1
CHOOSE ONE OF THE FOLLOWING ADAPTER MODELS
  7
ROMANS
100
AcDbText
  0
TEXT
  5
2DB
330
1E
100
AcDbEntity
  8
INSTRUCT-OPTION
100
AcDbText
 10
10.94776075
 20
6.606746929999999
 30
0.0
 40
0.125
  1
BY TURNING ON THE APPROPRIATE LAYER:
  7
ROMANS
100
AcDbText
  0
TEXT
  5
2DC
330
1E
100
AcDbEntity
  8
INSTRUCT-OPTION
100
AcDbText
 10
10.94776075
 20
6.25674693
 30
0.0
 40
0.125
  1
  OPTION-ADAPT-PA-8S-NP
  7
ROMANS
100
AcDbText
  0
TEXT
  5
2DD
330
1E
100
AcDbEntity
  8
INSTRUCT-OPTION
100
AcDbText
 10
10.94776075
 20
6.08174693
 30
0.0
 40
0.125
  1
  OPTION-ADAPT-PA-8S
  7
ROMANS
100
AcDbText
  0
TEXT
  5
2DE
330
1E
100
AcDbEntity
  8
INSTRUCT-OPTION
100
AcDbText
 10
10.94776075
 20
5.906746929999999
 30
0.0
 40
0.125
  1
  OPTION-ADAPT-PA-8S-PRS
  7
ROMANS
100
AcDbText
  0
ARC
  5
2DF
330
1E
100
AcDbEntity
  8
IMAGE
100
AcDbCircle
 10
2.541344695818905
 20
5.344582266201972
 30
0.0
 40
0.1738489379910888
100
AcDbArc
 50
159.7199718669747
 51
248.9186453553905
  0
ARC
  5
2E0
330
1E
100
AcDbEntity
  8
IMAGE
100
AcDbCircle
 10
2.315740408250901
 20
5.242626482397201
 30
0.0
 40
0.1738489379910888
100
AcDbArc
 50
339.7199718669747
 51
68.91864535539045
  0
ARC
  5
2E1
330
1E
100
AcDbEntity
  8
IMAGE
100
AcDbCircle
 10
2.419610649413392
 20
5.365121978629058
 30
0.0
 40
0.1738489379910888
100
AcDbArc
 50
296.0563205359582
 51
25.2549940243739
  0
ARC
  5
2E2
330
1E
100
AcDbEntity
  8
IMAGE
100
AcDbCircle
 10
2.653206667719246
 20
5.283114804235813
 30
0.0
 40
0.1738489379910888
100
AcDbArc
 50
116.0563205359582
 51
205.2549940243739
  0
TEXT
  5
2E3
330
1E
100
AcDbEntity
  8
TEXT_BUBBLES
100
AcDbText
 10
17.02872778871414
 20
2.903403273214991
 30
0.0
 40
0.10000000149
  1

  7
ROMANS
100
AcDbText
  0
TEXT
  5
2E4
330
1E
100
AcDbEntity
  8
TEXT_BUBBLES
100
AcDbText
 10
17.02872778871414
 20
3.06031321584199
 30
0.0
 40
0.10000000149
  1

  7
ROMANS
100
AcDbText
  0
TEXT
  5
2EB
330
1E
100
AcDbEntity
  8
TEXT_BUBBLES
100
AcDbText
 10
16.71991714569128
 20
3.106384299176429
 30
0.0
 40
0.1
  1

  7
ROMANS
 72
     4
 11
16.71991714569128
 21
3.106384299176429
 31
0.0
100
AcDbText
  0
TEXT
  5
2EC
330
1E
100
AcDbEntity
  8
TEXT_BUBBLES
100
AcDbText
 10
24.81760785848023
 20
3.537493511002458
 30
0.0
 40
0.10000000149
  1

  7
ROMANS
100
AcDbText
  0
TEXT
  5
2ED
330
1E
100
AcDbEntity
  8
TEXT_BUBBLES
100
AcDbText
 10
24.81760785848023
 20
3.694403453629457
 30
0.0
 40
0.10000000149
  1

  7
ROMANS
100
AcDbText
  0
TEXT
  5
2EE
330
1E
100
AcDbEntity
  8
TEXT_BUBBLES
100
AcDbText
 10
24.50879721545736
 20
3.007816573744956
 30
0.0
 40
0.1
  1

  7
ROMANS
 72
     4
 11
24.50879721545736
 21
3.007816573744956
 31
0.0
100
AcDbText
  0
TEXT
  5
2F5
330
1E
100
AcDbEntity
  8
INSTRUCT-OPTION
100
AcDbText
 10
20.01543391827485
 20
4.052565268528401
 30
0.0
 40
0.10000000149
  1

  7
ROMANS
100
AcDbText
  0
TEXT
  5
2F6
330
1E
100
AcDbEntity
  8
INSTRUCT-OPTION
100
AcDbText
 10
20.01543391827485
 20
3.404966048252402
 30
0.0
 40
0.10000000149
  1

  7
ROMANS
100
AcDbText
  0
TEXT
  5
2F7
330
1E
100
AcDbEntity
  8
INSTRUCT-OPTION
100
AcDbText
 10
20.01543391827485
 20
2.595467022907401
 30
0.0
 40
0.10000000149
  1

  7
ROMANS
100
AcDbText
  0
LINE
  5
2F8
330
1E
100
AcDbEntity
  8
IMAGE
100
AcDbLine
 10
3.323946654173113
 20
2.847712200515385
 30
0.0
 11
3.579888018655797
 21
2.793383393590616
 31
0.0
  0
LINE
  5
2F9
330
1E
100
AcDbEntity
  8
IMAGE
100
AcDbLine
 10
3.28253052688
 20
2.654014254883484
 30
0.0
 11
3.538390902777091
 21
2.599306674672207
 31
0.0
  0
LINE
  5
2FA
330
1E
100
AcDbEntity
  8
IMAGE
100
AcDbLine
 10
3.854375845181131
 20
2.563163816649975
 30
0.0
 11
3.257977083577854
 21
2.563163816649975
 31
0.0
  0
LINE
  5
2FE
330
1E
100
AcDbEntity
  8
IMAGE
100
AcDbLine
 10
3.257977083577854
 20
2.586745953338507
 30
0.0
 11
1.270341440465683
 21
2.586745953338508
 31
0.0
  0
LINE
  5
2FF
330
1E
100
AcDbEntity
  8
IMAGE
100
AcDbLine
 10
2.651652341345588
 20
2.798418393688054
 30
0.0
 11
1.270341440465683
 21
2.798418393688053
 31
0.0
  0
LWPOLYLINE
  5
300
330
1E
100
AcDbEntity
  8
IMAGE
100
AcDbPolyline
 90
        4
 70
     0
 43
0.0
 10
1.270341440465683
 20
2.798418393688053
 42
0.6332430429610296
 10
1.270341440465683
 20
2.69258217351328
 42
-0.6332430429610812
 10
1.270341440465683
 20
2.586745953338508
 42
-0.6134111328532366
 10
1.270341440465685
 20
2.692582173513279
 42
-0.6134111328532366
  0
LINE
  5
30C
330
1E
100
AcDbEntity
  8
IMAGE
100
AcDbLine
 10
3.284985509274843
 20
2.664331653557413
 30
0.0
 11
2.175651222063953
 21
2.899195427980596
 31
0.0
  0
LINE
  5
30E
330
1E
100
AcDbEntity
  8
IMAGE
100
AcDbLine
 10
3.323946654173113
 20
2.847712200515385
 30
0.0
 11
3.28253052688
 21
2.654014254883485
 31
0.0
  0
LINE
  5
310
330
1E
100
AcDbEntity
  8
IMAGE
100
AcDbLine
 10
3.257977083577854
 20
2.670049768352522
 30
0.0
 11
3.257977083577854
 21
2.563163816649975
 31
0.0
  0
LINE
  5
311
330
1E
100
AcDbEntity
  8
IMAGE
100
AcDbLine
 10
3.281083599230452
 20
2.846777051211739
 30
0.0
 11
3.244319394846659
 21
2.673128336908588
 31
0.0
  0
LWPOLYLINE
  5
312
330
1E
100
AcDbEntity
  8
IMAGE
100
AcDbPolyline
 90
        2
 70
     0
 43
0.0
 10
3.298947760312257
 20
2.829874135076189
 10
3.26754827340998
 20
2.68156464159609
  0
LWPOLYLINE
  5
31E
330
1E
100
AcDbEntity
  8
IMAGE
100
AcDbPolyline
 90
        4
 70
     0
 43
0.0
 10
4.254969138814505
 20
2.799943778854132
 42
-0.6332430429610296
 10
4.254969138814505
 20
2.694107558679359
 42
0.6332430429610812
 10
4.254969138814505
 20
2.588271338504587
 42
0.6134111328532366
 10
4.254969138814505
 20
2.694107558679358
 42
0.6134111328532366
  0
LINE
  5
324
330
1E
100
AcDbEntity
  8
IMAGE
100
AcDbLine
 10
3.426103816355805
 20
2.826027246418872
 30
0.0
 11
3.854375845181131
 21
2.826027246418873
 31
0.0
  0
LINE
  5
325
330
1E
100
AcDbEntity
  8
IMAGE
100
AcDbLine
 10
3.560275636952731
 20
2.612717749933725
 30
0.0
 11
3.592112613210836
 21
2.770309055148305
 31
0.0
  0
ARC
  5
326
330
1E
100
AcDbEntity
  8
IMAGE
100
AcDbCircle
 10
3.556825617771288
 20
2.695426275186873
 30
0.0
 40
0.0827804492733829
100
AcDbArc
 50
272.3885930691139
 51
64.76879059918148
  0
LINE
  5
327
330
1E
100
AcDbEntity
  8
IMAGE
100
AcDbLine
 10
3.579888018655797
 20
2.793383393590617
 30
0.0
 11
3.538390902777091
 21
2.599306674672207
 31
0.0
  0
LINE
  5
32A
330
1E
100
AcDbEntity
  8
IMAGE
100
AcDbLine
 10
3.579888018655797
 20
2.793383393590616
 30
0.0
 11
3.592112613210836
 21
2.770309055148305
 31
0.0
  0
LINE
  5
32B
330
1E
100
AcDbEntity
  8
IMAGE
100
AcDbLine
 10
3.854375845181131
 20
2.826027246418872
 30
0.0
 11
3.854375845181127
 21
2.563163816649975
 31
0.0
  0
LINE
  5
32C
330
1E
100
AcDbEntity
  8
IMAGE
100
AcDbLine
 10
4.254969138814505
 20
2.588271338504587
 30
0.0
 11
3.854375845181127
 21
2.588271338504587
 31
0.0
  0
LINE
  5
32D
330
1E
100
AcDbEntity
  8
IMAGE
100
AcDbLine
 10
4.254969138814505
 20
2.799943778854132
 30
0.0
 11
3.854375845181131
 21
2.799943778854132
 31
0.0
  0
LINE
  5
32E
330
1E
100
AcDbEntity
  8
IMAGE
100
AcDbLine
 10
3.322098863927207
 20
2.837906080272751
 30
0.0
 11
2.212764576716317
 21
3.072769854695934
 31
0.0
  0
LINE
  5
32F
330
1E
100
AcDbEntity
  8
IMAGE
100
AcDbLine
 10
2.173557049067163
 20
2.889242621168425
 30
0.0
 11
1.929694071492436
 21
2.940422365906477
 31
0.0
  0
ARC
  5
330
330
1E
100
AcDbEntity
  8
IMAGE
100
AcDbCircle
 10
1.935185087343278
 20
3.044934850773961
 30
0.0
 40
0.1046566326051466
100
AcDbArc
 50
179.379115872957
 51
0.2371380430744057
  0
LWPOLYLINE
  5
331
330
1E
100
AcDbEntity
  8
IMAGE
100
AcDbPolyline
 90
        2
 70
     0
 43
0.0
 10
2.23123803478616
 20
3.056618937105366
 10
2.199838547883882
 20
2.908309443625267
  0
LINE
  5
335
330
1E
100
AcDbEntity
  8
IMAGE
100
AcDbLine
 10
2.253948024055377
 20
3.06478265512637
 30
0.0
 11
2.217183819671584
 21
2.891133940823219
 31
0.0
  0
LINE
  5
336
330
1E
100
AcDbEntity
  8
IMAGE
100
AcDbLine
 10
2.214341292101506
 20
3.083074598050707
 30
0.0
 11
2.173557049067163
 21
2.889242621168426
 31
0.0
  0
LINE
  5
337
330
1E
100
AcDbEntity
  8
IMAGE
100
AcDbLine
 10
2.214341292101506
 20
3.083074598050707
 30
0.0
 11
2.039698576736844
 21
3.120091292684668
 31
0.0
  0
LINE
  5
338
330
1E
100
AcDbEntity
  8
IMAGE
100
AcDbLine
 10
2.039509530164044
 20
3.211443612189596
 30
0.0
 11
2.039841719948425
 21
3.044934850773961
 31
0.0
  0
LINE
  5
339
330
1E
100
AcDbEntity
  8
IMAGE
100
AcDbLine
 10
1.831398214322508
 20
3.211443612189596
 30
0.0
 11
1.830528454738132
 21
3.044934850773961
 31
0.0
  0
LINE
  5
33A
330
1E
100
AcDbEntity
  8
IMAGE
100
AcDbLine
 10
1.831398214322508
 20
3.211443612189596
 30
0.0
 11
2.039509530164044
 21
3.211443612189596
 31
0.0
  0
INSERT
  5
364
330
1E
100
AcDbEntity
  8
IMAGE
100
AcDbBlockReference
 66
     1
  2
titleblock
 10
0.0
 20
0.0
 30
0.0
  0
ATTRIB
  5
366
330
364
100
AcDbEntity
  8
TITLE
100
AcDbText
 10
0.5055556038023421
 20
0.7842270964783673
 30
0.0
 40
0.2
  1
D
  7
L200
 72
     4
 11
0.6064423705144839
 21
0.8842270964783672
 31
0.0
100
AcDbAttribute
  2
D
 70
     0
  0
ATTRIB
  5
367
330
364
100
AcDbEntity
  8
TITLE
100
AcDbText
 10
1.231442370514484
 20
1.34371230274675
 30
0.0
 40
0.2
  1

  7
L200
100
AcDbAttribute
  2
TITLE1
 70
     0
  0
ATTRIB
  5
368
330
364
100
AcDbEntity
  8
TITLE
100
AcDbText
 10
1.231442370514484
 20
0.9842270964783674
 30
0.0
 40
0.2
  1
1800 NOZZLE ON RISER
  7
L200
100
AcDbAttribute
  2
TITLE2
 70
     0
  0
ATTRIB
  5
369
330
364
100
AcDbEntity
  8
TITLE
100
AcDbText
 10
2.713645751168312
 20
0.5927927664583189
 30
0.0
 40
0.2
  1
WITH SWING JOINT
  7
L200
100
AcDbAttribute
  2
TITLE3
 70
     0
  0
ATTRIB
  5
36A
330
364
100
AcDbEntity
  8
TITLE
100
AcDbText
 10
2.713645751168312
 20
0.2692560808167741
 30
0.0
 40
0.2
  1

  7
L200
100
AcDbAttribute
  2
TITLE4
 70
     0
  0
ATTRIB
  5
36B
330
364
100
AcDbEntity
  8
TITLE
 62
     7
100
AcDbText
 10
7.689595782347332
 20
0.9696027915446398
 30
0.0
 40
0.08
  1
1-12-04
  7
L80
 72
     2
 11
8.261024353775903
 21
0.9696027915446398
 31
0.0
100
AcDbAttribute
  2
REVISED
 70
     0
  0
ATTRIB
  5
36C
330
364
100
AcDbEntity
  8
TITLE
 62
     7
100
AcDbText
 10
0.2639423705144838
 20
0.0847116480207214
 30
0.0
 40
0.08
  1
N-1800 NOZZLE ON RISER-SJ.DWG
  7
L80
100
AcDbAttribute
  2
DWG-NAME
 70
     0
  0
ATTRIB
  5
36D
330
364
100
AcDbEntity
  8
TITLE
 62
     7
100
AcDbText
 10
1.231442370514484
 20
0.7005637793954894
 30
0.0
 40
0.1
  1
N.T.S.
  7
L100
100
AcDbAttribute
  2
SCALE
 70
     0
  0
SEQEND
  5
365
330
364
100
AcDbEntity
  8
IMAGE
  0
HATCH
  5
374
330
1E
100
AcDbEntity
  8
IMAGE
100
AcDbHatch
 10
0.0
 20
0.0
 30
0.0
210
0.0
220
0.0
230
1.0
  2
EARTH
 70
     0
 71
     0
 91
        2
 92
        1
 93
        8
 72
     1
 10
0.3359238089937453
 20
4.434722531517663
 11
0.4970920930231345
 21
4.273554247488274
 72
     1
 10
0.4970920930231345
 20
4.273554247488274
 11
0.6229726139549279
 21
4.19898369080835
 72
     1
 10
0.6229726139549279
 20
4.19898369080835
 11
0.8641084038493312
 21
4.131453675860155
 72
     1
 10
0.8641084038493312
 20
4.131453675860155
 11
1.225964606167603
 21
4.097330080713961
 72
     1
 10
1.225964606167603
 20
4.097330080713961
 11
1.664044266444629
 21
4.082861401031597
 72
     1
 10
1.664044266444629
 20
4.082861401031597
 11
1.845794055721632
 21
4.082861401031597
 72
     1
 10
1.845794055721632
 20
4.082861401031597
 11
1.845794055721632
 21
4.434316817793371
 72
     1
 10
1.845794055721632
 20
4.434316817793371
 11
0.3359238089937453
 21
4.434722531517663
 97
        0
 92
        1
 93
        7
 72
     1
 10
3.14727624682917
 20
4.434722531517663
 11
3.128409335467883
 21
4.359287077661453
 72
     1
 10
3.128409335467883
 20
4.359287077661453
 11
3.018709029338616
 21
4.17912606021146
 72
     1
 10
3.018709029338616
 20
4.17912606021146
 11
2.658714182557418
 21
4.143141109528191
 72
     1
 10
2.658714182557418
 20
4.143141109528191
 11
2.129931793892368
 21
4.096200588519946
 72
     1
 10
2.129931793892368
 20
4.096200588519946
 11
2.023291894308784
 21
4.096200588519946
 72
     1
 10
2.023291894308784
 20
4.096200588519946
 11
2.023291894308784
 21
4.434722531517663
 72
     1
 10
2.023291894308784
 20
4.434722531517663
 11
3.14727624682917
 21
4.434722531517663
 97
        0
 75
     0
 76
     1
 52
45.0
 41
0.75
 77
     0
 78
     6
 53
45.0
 43
0.0
 44
0.0
 45
0.0
 46
0.2651650429449553
 79
     2
 49
0.1875
 49
-0.1875
 53
45.0
 43
-0.0497184455521791
 44
0.0497184455521791
 45
0.0
 46
0.2651650429449553
 79
     2
 49
0.1875
 49
-0.1875
 53
45.0
 43
-0.0994368911043583
 44
0.0994368911043583
 45
0.0
 46
0.2651650429449553
 79
     2
 49
0.1875
 49
-0.1875
 53
135.0
 43
-0.0994368911043583
 44
0.1325825214724777
 45
-0.2651650429449553
 46
0.0
 79
     2
 49
0.1875
 49
-0.1875
 53
135.0
 43
-0.0497184455521791
 44
0.1823009670246568
 45
-0.2651650429449553
 46
0.0
 79
     2
 49
0.1875
 49
-0.1875
 53
135.0
 43
0.0
 44
0.2320194125768359
 45
-0.2651650429449553
 46
0.0
 79
     2
 49
0.1875
 49
-0.1875
 98
        1
 10
0.0
 20
0.0
  0
TEXT
  5
4B4
330
1E
100
AcDbEntity
  8
TEXT_BUBBLES
100
AcDbText
 10
4.852816749999999
 20
4.484365989999999
 30
0.0
 40
0.125
  1
  (LENGTH AS REQUIRED)
  7
SIMPLEX
100
AcDbText
  0
TEXT
  5
4B5
330
1E
100
AcDbEntity
  8
TEXT_LEADERS
100
AcDbText
 10
4.878870189999999
 20
4.149526833775043
 30
0.0
 40
0.125
  1
  (LENGTH AS REQUIRED)
  7
SIMPLEX
100
AcDbText
  0
TEXT
  5
4B6
330
1E
100
AcDbEntity
  8
TEXT_LEADERS
100
AcDbText
 10
4.878870189999999
 20
2.90186006
 30
0.0
 40
0.125
  1

  7
SIMPLEX
100
AcDbText
  0
TEXT
  5
4B7
330
1E
100
AcDbEntity
  8
TEXT_LEADERS
100
AcDbText
 10
4.878870189999999
 20
3.929164035196552
 30
0.0
 40
0.125
  1
PVC SCH 40 ELL
  7
SIMPLEX
100
AcDbText
  0
TEXT
  5
4B8
330
1E
100
AcDbEntity
  8
TEXT_LEADERS
100
AcDbText
 10
4.878870189999999
 20
3.77686006
 30
0.0
 40
0.125
  1

  7
SIMPLEX
100
AcDbText
  0
TEXT
  5
4BB
330
1E
100
AcDbEntity
  8
TEXT_BUBBLES
100
AcDbText
 10
4.585212574433237
 20
3.026773213550614
 30
0.0
 40
0.125
  1
9
  7
ROMANS
 72
     4
 11
4.641760193480855
 21
3.089273213550614
 31
0.0
100
AcDbText
  0
TEXT
  5
4BC
330
1E
100
AcDbEntity
  8
TEXT_BUBBLES
100
AcDbText
 10
4.852816749999999
 20
3.386703455661883
 30
0.0
 40
0.125
  1
PVC SCH 40 TEE OR ELL
  7
ROMANS
100
AcDbText
  0
TEXT
  5
4BD
330
1E
100
AcDbEntity
  8
TEXT_BUBBLES
100
AcDbText
 10
4.852816749999999
 20
4.086703455661883
 30
0.0
 40
0.125
  1
PVC SCH 40 ELL
  7
ROMANS
100
AcDbText
  0
TEXT
  5
4BE
330
1E
100
AcDbEntity
  8
TEXT_BUBBLES
100
AcDbText
 10
4.852816749999999
 20
3.736703455661883
 30
0.0
 40
0.125
  1
PVC SCH 40 STREET ELL
  7
ROMANS
100
AcDbText
  0
TEXT
  5
4BF
330
1E
100
AcDbEntity
  8
TEXT_BUBBLES
100
AcDbText
 10
4.852816749999999
 20
3.036703455661883
 30
0.0
 40
0.125
  1
PVC LATERAL PIPE
  7
ROMANS
100
AcDbText
  0
TEXT
  5
4C0
330
1E
100
AcDbEntity
  8
TEXT_BUBBLES
100
AcDbText
 10
4.582236383957046
 20
3.380994058329986
 30
0.0
 40
0.125
  1
8
  7
ROMANS
 72
     4
 11
4.641760193480855
 21
3.443494058329986
 31
0.0
100
AcDbText
  0
TEXT
  5
4C2
330
1E
100
AcDbEntity
  8
TEXT_BUBBLES
100
AcDbText
 10
4.582236383957046
 20
3.71831014461934
 30
0.0
 40
0.125
  1
7
  7
ROMANS
 72
     4
 11
4.641760193480855
 21
3.78081014461934
 31
0.0
100
AcDbText
  0
TEXT
  5
4C4
330
1E
100
AcDbEntity
  8
TEXT_BUBBLES
100
AcDbText
 10
4.579260193480855
 20
4.079953070905617
 30
0.0
 40
0.125
  1
6
  7
ROMANS
 72
     4
 11
4.641760193480855
 21
4.142453070905617
 31
0.0
100
AcDbText
  0
TEXT
  5
4C7
330
1E
100
AcDbEntity
  8
OPTION-ADAPT-PA-8SPRS
100
AcDbText
 10
4.852816749999999
 20
6.059365989999999
 30
0.0
 40
0.125
  1
PLASTIC SHRUB ADAPTER:
  7
SIMPLEX
100
AcDbText
  0
TEXT
  5
4C8
330
1E
100
AcDbEntity
  8
OPTION-ADAPT-PA-8SPRS
100
AcDbText
 10
4.852816749999999
 20
5.88436599
 30
0.0
 40
0.125
  1
  RAIN BIRD MODEL PA-8S-PRS
  7
SIMPLEX
100
AcDbText
  0
TEXT
  5
4CB
330
1E
100
AcDbEntity
  8
OPTION-ADAPT-PA-8S
100
AcDbText
 10
4.878870189999999
 20
5.874548729999999
 30
0.0
 40
0.125
  1
  RAIN BIRD MODEL PA-8S
  7
SIMPLEX
100
AcDbText
  0
TEXT
  5
4CC
330
1E
100
AcDbEntity
  8
TEXT_BUBBLES
100
AcDbText
 10
4.581044639077371
 20
6.030783509749366
 30
0.0
 40
0.125
  1
2
  7
ROMANS
 72
     4
 11
4.640568448601181
 21
6.093283509749366
 31
0.0
100
AcDbText
  0
TEXT
  5
4CE
330
1E
100
AcDbEntity
  8
OPTION-ADAPT-PA-8S
100
AcDbText
 10
4.878870189999999
 20
6.049548729999999
 30
0.0
 40
0.125
  1
PLASTIC SHRUB ADAPTER:
  7
SIMPLEX
100
AcDbText
  0
TEXT
  5
4D0
330
1E
100
AcDbEntity
  8
TEXT_BUBBLES
100
AcDbText
 10
4.581044639077371
 20
4.838214212941649
 30
0.0
 40
0.125
  1
5
  7
ROMANS
 72
     4
 11
4.640568448601181
 21
4.900714212941649
 31
0.0
100
AcDbText
  0
TEXT
  5
4D2
330
1E
100
AcDbEntity
  8
TEXT_BUBBLES
100
AcDbText
 10
4.578068448601181
 20
5.168180896247249
 30
0.0
 40
0.125
  1
4
  7
ROMANS
 72
     4
 11
4.640568448601181
 21
5.230680896247249
 31
0.0
100
AcDbText
  0
TEXT
  5
4D4
330
1E
100
AcDbEntity
  8
TEXT_BUBBLES
100
AcDbText
 10
4.581044639077371
 20
5.529823822533527
 30
0.0
 40
0.125
  1
3
  7
ROMANS
 72
     4
 11
4.640568448601181
 21
5.592323822533527
 31
0.0
100
AcDbText
  0
TEXT
  5
4D5
330
1E
100
AcDbEntity
  8
TEXT_BUBBLES
100
AcDbText
 10
4.589973210505942
 20
6.567844250325436
 30
0.0
 40
0.125
  1
1
  7
ROMANS
 72
     4
 11
4.640568448601181
 21
6.630344250325436
 31
0.0
100
AcDbText
  0
TEXT
  5
4D8
330
1E
100
AcDbEntity
  8
TEXT_BUBBLES
100
AcDbText
 10
4.852816749999999
 20
5.00936599
 30
0.0
 40
0.125
  1

  7
SIMPLEX
100
AcDbText
  0
TEXT
  5
4D9
330
1E
100
AcDbEntity
  8
TEXT_BUBBLES
100
AcDbText
 10
4.852816749999999
 20
5.53436599
 30
0.0
 40
0.125
  1
PLANT MATERIAL
  7
SIMPLEX
100
AcDbText
  0
TEXT
  5
4DA
330
1E
100
AcDbEntity
  8
TEXT_BUBBLES
100
AcDbText
 10
4.852816749999999
 20
4.65936599
 30
0.0
 40
0.125
  1
  PVC SCH 80 NIPPLE
  7
SIMPLEX
100
AcDbText
  0
TEXT
  5
4DD
330
1E
100
AcDbEntity
  8
TEXT_BUBBLES
100
AcDbText
 10
4.852816749999999
 20
6.586609465956025
 30
0.0
 40
0.125
  1
PLASTIC NOZZLE: RAIN BIRD
  7
SIMPLEX
100
AcDbText
  0
TEXT
  5
4DE
330
1E
100
AcDbEntity
  8
TEXT_BUBBLES
100
AcDbText
 10
4.852816749999999
 20
6.411609465956025
 30
0.0
 40
0.125
  1
  1800 SERIES
  7
SIMPLEX
100
AcDbText
  0
TEXT
  5
4E6
330
1E
100
AcDbEntity
  8
TEXT_LEADERS
100
AcDbText
 10
4.878870189999999
 20
4.324526833775042
 30
0.0
 40
0.125
  1
  PVC SCH 80 NIPPLE
  7
SIMPLEX
100
AcDbText
  0
TEXT
  5
4E8
330
1E
100
AcDbEntity
  8
TEXT_LEADERS
100
AcDbText
 10
4.878870189999999
 20
3.511342766380916
 30
0.0
 40
0.125
  1
  (LENGTH AS REQUIRED)
  7
SIMPLEX
100
AcDbText
  0
TEXT
  5
4E9
330
1E
100
AcDbEntity
  8
TEXT_LEADERS
100
AcDbText
 10
4.878870189999999
 20
3.251860059999999
 30
0.0
 40
0.125
  1

  7
SIMPLEX
100
AcDbText
  0
TEXT
  5
4EA
330
1E
100
AcDbEntity
  8
TEXT_LEADERS
100
AcDbText
 10
4.878870189999999
 20
4.499526833775043
 30
0.0
 40
0.125
  1
UV RADIATION RESISTANT
  7
SIMPLEX
100
AcDbText
  0
TEXT
  5
4EB
330
1E
100
AcDbEntity
  8
TEXT_LEADERS
100
AcDbText
 10
4.878870189999999
 20
4.735557573178692
 30
0.0
 40
0.125
  1
FINISH GRADE/TOP OF MULCH
  7
SIMPLEX
100
AcDbText
  0
TEXT
  5
4EF
330
1E
100
AcDbEntity
  8
TEXT_BUBBLES
100
AcDbText
 10
3.904301475900616
 20
5.980141241651048
 30
0.0
 40
0.125
  1
2
  7
ROMANS
 72
     4
 11
3.963825285424426
 21
6.042641241651048
 31
0.0
100
AcDbText
  0
TEXT
  5
4F7
330
1E
100
AcDbEntity
  8
TEXT_BUBBLES
100
AcDbText
 10
3.901325285424426
 20
3.774405842030323
 30
0.0
 40
0.125
  1
6
  7
ROMANS
 72
     4
 11
3.963825285424426
 21
3.836905842030323
 31
0.0
100
AcDbText
  0
TEXT
  5
4F9
330
1E
100
AcDbEntity
  8
TEXT_BUBBLES
100
AcDbText
 10
3.904301475900616
 20
4.253771409509944
 30
0.0
 40
0.125
  1
5
  7
ROMANS
 72
     4
 11
3.963825285424426
 21
4.316271409509944
 31
0.0
100
AcDbText
  0
TEXT
  5
4FA
330
1E
100
AcDbEntity
  8
TEXT_BUBBLES
100
AcDbText
 10
3.901325285424426
 20
4.579657323792579
 30
0.0
 40
0.125
  1
4
  7
ROMANS
 72
     4
 11
3.963825285424426
 21
4.642157323792579
 31
0.0
100
AcDbText
  0
TEXT
  5
4FD
330
1E
100
AcDbEntity
  8
TEXT_BUBBLES
100
AcDbText
 10
3.904301475900616
 20
5.16646925466196
 30
0.0
 40
0.125
  1
3
  7
ROMANS
 72
     4
 11
3.963825285424426
 21
5.22896925466196
 31
0.0
100
AcDbText
  0
TEXT
  5
4FF
330
1E
100
AcDbEntity
  8
TEXT_BUBBLES
100
AcDbText
 10
3.913230047329188
 20
6.299644908977778
 30
0.0
 40
0.125
  1
1
  7
ROMANS
 72
     4
 11
3.963825285424426
 21
6.362144908977778
 31
0.0
100
AcDbText
  0
TEXT
  5
505
330
1E
100
AcDbEntity
  8
TEXT_LEADERS
100
AcDbText
 10
4.878870190917782
 20
2.286258081312952
 30
0.0
 40
0.125
  1
PVC SCH 40 TEE OR ELL
  7
SIMPLEX
100
AcDbText
  0
TEXT
  5
508
330
1E
100
AcDbEntity
  8
TEXT_LEADERS
100
AcDbText
 10
4.878870190917782
 20
2.02454360169081
 30
0.0
 40
0.125
  1
PVC LATERAL PIPE
  7
SIMPLEX
100
AcDbText
  0
SOLID
  5
509
330
1E
100
AcDbEntity
  8
TEXT_BUBBLES
100
AcDbTrace
 10
3.563015449638039
 20
2.423598399106463
 30
0.0
 11
3.621227153739499
 21
2.438137914421773
 31
0.0
 12
3.548502755742837
 22
2.605503269068496
 32
0.0
 13
3.548502755742837
 23
2.605503269068496
 33
0.0
  0
TEXT
  5
50A
330
1E
100
AcDbEntity
  8
TEXT_BUBBLES
100
AcDbText
 10
4.114495997456595
 20
1.882904479688345
 30
0.0
 40
0.125
  1
9
  7
ROMANS
 72
     4
 11
4.171043616504213
 21
1.945404479688345
 31
0.0
100
AcDbText
  0
TEXT
  5
50B
330
1E
100
AcDbEntity
  8
TEXT_BUBBLES
100
AcDbText
 10
3.683361820087068
 20
1.882904479688345
 30
0.0
 40
0.125
  1
7
  7
ROMANS
 72
     4
 11
3.742885629610877
 21
1.945404479688345
 31
0.0
100
AcDbText
  0
TEXT
  5
50C
330
1E
100
AcDbEntity
  8
TEXT_BUBBLES
100
AcDbText
 10
3.347842672129615
 20
1.882904479688345
 30
0.0
 40
0.125
  1
8
  7
ROMANS
 72
     4
 11
3.407366481653424
 21
1.945404479688345
 31
0.0
100
AcDbText
  0
SOLID
  5
50F
330
1E
100
AcDbEntity
  8
TEXT_BUBBLES
100
AcDbTrace
 10
4.022859410220857
 20
2.406366468542555
 30
0.0
 11
4.081071114322317
 21
2.420905983857865
 31
0.0
 12
4.008346716325655
 22
2.588271338504587
 32
0.0
 13
4.008346716325655
 23
2.588271338504587
 33
0.0
  0
TEXT
  5
513
330
1E
100
AcDbEntity
  8
TEXT_BUBBLES
100
AcDbText
 10
2.990796641366232
 20
1.882904479688345
 30
0.0
 40
0.125
  1
5
  7
ROMANS
 72
     4
 11
3.050320450890041
 21
1.945404479688345
 31
0.0
100
AcDbText
  0
TEXT
  5
514
330
1E
100
AcDbEntity
  8
TEXT_BUBBLES
100
AcDbText
 10
2.276066919187234
 20
1.882904479688345
 30
0.0
 40
0.125
  1
7
  7
ROMANS
 72
     4
 11
2.335590728711043
 21
1.945404479688345
 31
0.0
100
AcDbText
  0
SOLID
  5
51A
330
1E
100
AcDbEntity
  8
TEXT_BUBBLES
100
AcDbTrace
 10
3.301633468262189
 20
2.382767494046495
 30
0.0
 11
3.359845172363649
 21
2.397307009361805
 31
0.0
 12
3.287120774366987
 22
2.564672364008528
 32
0.0
 13
3.287120774366987
 23
2.564672364008528
 33
0.0
  0
LINE
  5
51B
330
1E
100
AcDbEntity
  8
TEXT_BUBBLES
100
AcDbLine
 10
2.807305406203141
 20
1.674216466463382
 30
0.0
 11
2.806658986765276
 21
1.670550439657568
 31
0.0
  0
SOLID
  5
51E
330
1E
100
AcDbEntity
  8
TEXT_BUBBLES
100
AcDbTrace
 10
2.11047340601305
 20
2.723622964965242
 30
0.0
 11
2.168685110114508
 21
2.738162480280552
 31
0.0
 12
2.095960712117848
 22
2.905527834927275
 32
0.0
 13
2.095960712117848
 23
2.905527834927275
 33
0.0
  0
SOLID
  5
51F
330
1E
100
AcDbEntity
  8
TEXT_BUBBLES
100
AcDbTrace
 10
2.867697035499853
 20
2.573845982666868
 30
0.0
 11
2.925908739601313
 21
2.588385497982178
 31
0.0
 12
2.853184341604651
 22
2.7557508526289
 32
0.0
 13
2.853184341604651
 23
2.7557508526289
 33
0.0
  0
SOLID
  5
523
330
1E
100
AcDbEntity
  8
TEXT_LEADERS
100
AcDbTrace
 10
3.563928866649582
 20
2.868226349799464
 30
0.0
 11
3.543407658050042
 21
2.924607907046619
 31
0.0
 12
3.384523590608349
 22
2.834853502624421
 32
0.0
 13
3.384523590608349
 23
2.834853502624421
 33
0.0
  0
SOLID
  5
525
330
1E
100
AcDbEntity
  8
TEXT_LEADERS
100
AcDbTrace
 10
2.344388789709826
 20
3.126909157346103
 30
0.0
 11
2.323867581110286
 21
3.183290714593257
 31
0.0
 12
2.164983513668593
 22
3.09353631017106
 32
0.0
 13
2.164983513668593
 23
3.09353631017106
 33
0.0
  0
SOLID
  5
526
330
1E
100
AcDbEntity
  8
TEXT_LEADERS
100
AcDbTrace
 10
2.219026038119014
 20
3.189061920673061
 30
0.0
 11
2.198504829519475
 21
3.245443477920215
 31
0.0
 12
2.039620762077781
 22
3.155689073498018
 32
0.0
 13
2.039620762077781
 23
3.155689073498018
 33
0.0
  0
SOLID
  5
527
330
1E
100
AcDbEntity
  8
TEXT_LEADERS
100
AcDbTrace
 10
2.862515292042943
 20
3.006563065302602
 30
0.0
 11
2.841994083443403
 21
3.062944622549757
 31
0.0
 12
2.683110016001709
 22
2.973190218127559
 32
0.0
 13
2.683110016001709
 23
2.973190218127559
 33
0.0
  0
SOLID
  5
528
330
1E
100
AcDbEntity
  8
TEXT_LEADERS
100
AcDbTrace
 10
2.202697170350017
 20
3.708484623024722
 30
0.0
 11
2.182175961750477
 21
3.764866180271877
 31
0.0
 12
2.023291894308784
 22
3.675111775849679
 32
0.0
 13
2.023291894308784
 23
3.675111775849679
 33
0.0
  0
SOLID
  5
52C
330
1E
100
AcDbEntity
  8
TEXT_LEADERS
100
AcDbTrace
 10
3.576902359311872
 20
4.468095378692705
 30
0.0
 11
3.556381150712332
 21
4.524476935939859
 31
0.0
 12
3.397497083270638
 22
4.434722531517662
 32
0.0
 13
3.397497083270638
 23
4.434722531517662
 33
0.0
  0
SOLID
  5
52E
330
1E
100
AcDbEntity
  8
TEXT_LEADERS
100
AcDbTrace
 10
3.403682525453779
 20
5.012305032524906
 30
0.0
 11
3.383161316854239
 21
5.06868658977206
 31
0.0
 12
3.224277249412545
 22
4.978932185349863
 32
0.0
 13
3.224277249412545
 23
4.978932185349863
 33
0.0
  0
SOLID
  5
530
330
1E
100
AcDbEntity
  8
TEXT_LEADERS
100
AcDbTrace
 10
2.193176353317099
 20
5.637997897923208
 30
0.0
 11
2.172655144717559
 21
5.694379455170362
 31
0.0
 12
2.013771077275866
 22
5.604625050748165
 32
0.0
 13
2.013771077275866
 23
5.604625050748165
 33
0.0
  0
SOLID
  5
532
330
1E
100
AcDbEntity
  8
TEXT_LEADERS
100
AcDbTrace
 10
2.219783740361726
 20
5.432320627530603
 30
0.0
 11
2.199262531762186
 21
5.488702184777757
 31
0.0
 12
2.040378464320492
 22
5.39894778035556
 32
0.0
 13
2.040378464320492
 23
5.39894778035556
 33
0.0
  0
TEXT
  5
537
330
1E
100
AcDbEntity
  8
OPTION-ADAPT-PA-8S-NP
100
AcDbText
 10
4.878870189999999
 20
6.049548729999999
 30
0.0
 40
0.125
  1
PLASTIC SHRUB ADAPTER:
  7
SIMPLEX
100
AcDbText
  0
TEXT
  5
538
330
1E
100
AcDbEntity
  8
OPTION-ADAPT-PA-8S-NP
100
AcDbText
 10
4.878870189999999
 20
5.874548729999999
 30
0.0
 40
0.125
  1
  RAIN BIRD MODEL PA-8S-NP
  7
SIMPLEX
100
AcDbText
  0
TEXT
  5
53E
330
1E
100
AcDbEntity
  8
TEXT_BUBBLES
100
AcDbText
 10
4.852816749999999
 20
5.184365989999999
 30
0.0
 40
0.125
  1
FINISH GRADE/TOP OF MULCH
  7
SIMPLEX
100
AcDbText
  0
TEXT
  5
53F
330
1E
100
AcDbEntity
  8
TEXT_BUBBLES
100
AcDbText
 10
4.852816749999999
 20
4.83436599
 30
0.0
 40
0.125
  1
UV RADIATION RESISTANT
  7
SIMPLEX
100
AcDbText
  0
CIRCLE
  5
542
330
1E
100
AcDbEntity
  8
TEXT_BUBBLES
100
AcDbCircle
 10
4.171043616504213
 20
1.945404479688345
 30
0.0
 40
0.15625
  0
CIRCLE
  5
543
330
1E
100
AcDbEntity
  8
TEXT_BUBBLES
100
AcDbCircle
 10
3.742885629610877
 20
1.945404479688345
 30
0.0
 40
0.15625
  0
CIRCLE
  5
544
330
1E
100
AcDbEntity
  8
TEXT_BUBBLES
100
AcDbCircle
 10
3.407366481653424
 20
1.945404479688345
 30
0.0
 40
0.15625
  0
CIRCLE
  5
545
330
1E
100
AcDbEntity
  8
TEXT_BUBBLES
100
AcDbCircle
 10
3.050320450890041
 20
1.945404479688345
 30
0.0
 40
0.15625
  0
CIRCLE
  5
546
330
1E
100
AcDbEntity
  8
TEXT_BUBBLES
100
AcDbCircle
 10
2.335590728711043
 20
1.945404479688345
 30
0.0
 40
0.15625
  0
CIRCLE
  5
547
330
1E
100
AcDbEntity
  8
TEXT_BUBBLES
100
AcDbCircle
 10
3.963825285424426
 20
3.836905842030323
 30
0.0
 40
0.15625
  0
CIRCLE
  5
548
330
1E
100
AcDbEntity
  8
TEXT_BUBBLES
100
AcDbCircle
 10
3.963825285424426
 20
4.316271409509944
 30
0.0
 40
0.15625
  0
CIRCLE
  5
549
330
1E
100
AcDbEntity
  8
TEXT_BUBBLES
100
AcDbCircle
 10
3.963825285424426
 20
4.642157323792579
 30
0.0
 40
0.15625
  0
CIRCLE
  5
54A
330
1E
100
AcDbEntity
  8
TEXT_BUBBLES
100
AcDbCircle
 10
3.963825285424426
 20
5.22896925466196
 30
0.0
 40
0.15625
  0
CIRCLE
  5
54B
330
1E
100
AcDbEntity
  8
TEXT_BUBBLES
100
AcDbCircle
 10
3.963825285424426
 20
6.042641241651049
 30
0.0
 40
0.15625
  0
CIRCLE
  5
54C
330
1E
100
AcDbEntity
  8
TEXT_BUBBLES
100
AcDbCircle
 10
3.963825285424426
 20
6.362144908977779
 30
0.0
 40
0.15625
  0
CIRCLE
  5
54D
330
1E
100
AcDbEntity
  8
TEXT_BUBBLES
100
AcDbCircle
 10
4.640568448601181
 20
6.630344250325437
 30
0.0
 40
0.15625
  0
CIRCLE
  5
54E
330
1E
100
AcDbEntity
  8
TEXT_BUBBLES
100
AcDbCircle
 10
4.640568448601181
 20
6.093283509749367
 30
0.0
 40
0.15625
  0
CIRCLE
  5
54F
330
1E
100
AcDbEntity
  8
TEXT_BUBBLES
100
AcDbCircle
 10
4.640568448601181
 20
5.592323822533527
 30
0.0
 40
0.15625
  0
CIRCLE
  5
550
330
1E
100
AcDbEntity
  8
TEXT_BUBBLES
100
AcDbCircle
 10
4.640568448601181
 20
5.230680896247249
 30
0.0
 40
0.15625
  0
CIRCLE
  5
551
330
1E
100
AcDbEntity
  8
TEXT_BUBBLES
100
AcDbCircle
 10
4.640568448601181
 20
4.900714212941649
 30
0.0
 40
0.15625
  0
CIRCLE
  5
552
330
1E
100
AcDbEntity
  8
TEXT_BUBBLES
100
AcDbCircle
 10
4.641760193480855
 20
4.142453070905617
 30
0.0
 40
0.15625
  0
CIRCLE
  5
553
330
1E
100
AcDbEntity
  8
TEXT_BUBBLES
100
AcDbCircle
 10
4.641760193480855
 20
3.78081014461934
 30
0.0
 40
0.15625
  0
CIRCLE
  5
554
330
1E
100
AcDbEntity
  8
TEXT_BUBBLES
100
AcDbCircle
 10
4.641760193480855
 20
3.443494058329986
 30
0.0
 40
0.15625
  0
CIRCLE
  5
555
330
1E
100
AcDbEntity
  8
TEXT_BUBBLES
100
AcDbCircle
 10
4.641760193480855
 20
3.089273213550614
 30
0.0
 40
0.15625
  0
LEADER
  5
56B
330
1E
100
AcDbEntity
  8
TEXT_BUBBLES
100
AcDbLeader
  3
Standard
 76
     2
 10
2.013771077275866
 20
5.608100883663173
 30
0.0
 10
3.836532901909878
 20
6.271531931986703
 30
0.0
1001
ACAD
1000
DSTYLE
1002
{
1070
   147
1040
0.09
1070
    77
1070
     0
1070
   140
1040
0.1
1070
   279
1070
     2
1002
}
  0
LEADER
  5
56C
330
1E
100
AcDbEntity
  8
TEXT_BUBBLES
100
AcDbLeader
  3
Standard
 76
     2
 10
2.040431061357622
 20
5.422383631389849
 30
0.0
 10
3.809365045814718
 20
6.066222948114144
 30
0.0
1001
ACAD
1000
DSTYLE
1002
{
1070
   147
1040
0.09
1070
    77
1070
     0
1070
   140
1040
0.1
1070
   279
1070
     2
1002
}
  0
LEADER
  5
56D
330
1E
100
AcDbEntity
  8
TEXT_BUBBLES
100
AcDbLeader
  3
Standard
 76
     2
 10
3.224277249412545
 20
4.978932185349863
 30
0.0
 10
3.811823595526562
 20
5.192781566587234
 30
0.0
1001
ACAD
1000
DSTYLE
1002
{
1070
   147
1040
0.09
1070
    77
1070
     0
1070
   140
1040
0.1
1070
   279
1070
     2
1002
}
  0
LEADER
  5
56E
330
1E
100
AcDbEntity
  8
TEXT_BUBBLES
100
AcDbLeader
  3
Standard
 76
     2
 10
3.397497083270638
 20
4.434722531517662
 30
0.0
 10
3.817423299756808
 20
4.587563174906652
 30
0.0
1001
ACAD
1000
DSTYLE
1002
{
1070
   147
1040
0.09
1070
    77
1070
     0
1070
   140
1040
0.1
1070
   279
1070
     2
1002
}
  0
LEADER
  5
56F
330
1E
100
AcDbEntity
  8
TEXT_BUBBLES
100
AcDbLeader
  3
Standard
 76
     2
 10
2.023291894308784
 20
3.675111775849679
 30
0.0
 10
3.807798430032509
 20
4.324619037706611
 30
0.0
1001
ACAD
1000
DSTYLE
1002
{
1070
   147
1040
0.09
1070
    77
1070
     0
1070
   140
1040
0.1
1070
   279
1070
     2
1002
}
  0
LEADER
  5
570
330
1E
100
AcDbEntity
  8
TEXT_BUBBLES
100
AcDbLeader
  3
Standard
 76
     2
 10
2.039620762077781
 20
3.155689073498018
 30
0.0
 10
3.811823595526562
 20
3.800718153955596
 30
0.0
1001
ACAD
1000
DSTYLE
1002
{
1070
   147
1040
0.09
1070
    77
1070
     0
1070
   140
1040
0.1
1070
   279
1070
     2
1002
}
  0
LEADER
  5
572
330
1E
100
AcDbEntity
  8
TEXT_BUBBLES
100
AcDbLeader
  3
Standard
 76
     2
 10
2.095960712117848
 20
2.905527834927275
 30
0.0
 10
2.297896513626708
 20
2.097039596495686
 30
0.0
1001
ACAD
1000
DSTYLE
1002
{
1070
   147
1040
0.09
1070
    77
1070
     0
1070
   140
1040
0.1
1070
   279
1070
     2
1002
}
  0
LEADER
  5
573
330
1E
100
AcDbEntity
  8
TEXT_BUBBLES
100
AcDbLeader
  3
Standard
 76
     2
 10
2.853184341604651
 20
2.7557508526289
 30
0.0
 10
3.017432058594171
 20
2.098154000644036
 30
0.0
1001
ACAD
1000
DSTYLE
1002
{
1070
   147
1040
0.09
1070
    77
1070
     0
1070
   140
1040
0.1
1070
   279
1070
     2
1002
}
  0
LEADER
  5
574
330
1E
100
AcDbEntity
  8
TEXT_BUBBLES
100
AcDbLeader
  3
Standard
 76
     2
 10
3.287497563670136
 20
2.563163816649975
 30
0.0
 10
3.402785353722028
 20
2.101587307703707
 30
0.0
1001
ACAD
1000
DSTYLE
1002
{
1070
   147
1040
0.09
1070
    77
1070
     0
1070
   140
1040
0.1
1070
   279
1070
     2
1002
}
  0
LEADER
  5
575
330
1E
100
AcDbEntity
  8
TEXT_BUBBLES
100
AcDbLeader
  3
Standard
 76
     2
 10
3.548502755742837
 20
2.605503269068496
 30
0.0
 10
3.677886015431306
 20
2.087492877020805
 30
0.0
1001
ACAD
1000
DSTYLE
1002
{
1070
   147
1040
0.09
1070
    77
1070
     0
1070
   140
1040
0.1
1070
   279
1070
     2
1002
}
  0
LEADER
  5
576
330
1E
100
AcDbEntity
  8
TEXT_BUBBLES
100
AcDbLeader
  3
Standard
 76
     2
 10
4.008346716325655
 20
2.588271338504587
 30
0.0
 10
4.131180290018837
 20
2.096483855188511
 30
0.0
1001
ACAD
1000
DSTYLE
1002
{
1070
   147
1040
0.09
1070
    77
1070
     0
1070
   140
1040
0.1
1070
   279
1070
     2
1002
}
  0
LWPOLYLINE
  5
578
330
1E
100
AcDbEntity
  8
IMAGE
100
AcDbPolyline
 90
        2
 70
   128
 43
0.0
 10
3.538390902777091
 20
2.599306674672207
 10
3.560275636952734
 20
2.612717749933724
  0
TEXT
  5
57D
330
1E
100
AcDbEntity
  8
TEXT_LEADERS
100
AcDbText
 10
4.878870189999999
 20
5.351860059999999
 30
0.0
 40
0.125
  1
PLANT MATERIAL
  7
SIMPLEX
100
AcDbText
  0
TEXT
  5
57E
330
1E
100
AcDbEntity
  8
TEXT_LEADERS
100
AcDbText
 10
4.878870189999999
 20
3.714872088607892
 30
0.0
 40
0.125
  1
PVC SCH 40 STREET ELL
  7
SIMPLEX
100
AcDbText
  0
TEXT
  5
57F
330
1E
100
AcDbEntity
  8
TEXT_LEADERS
100
AcDbText
 10
4.878870189999999
 20
3.270762953232305
 30
0.0
 40
0.125
  1
1/2-INCH PVC SCH 80 NIPPLE
  7
SIMPLEX
100
AcDbText
  0
TEXT
  5
580
330
1E
100
AcDbEntity
  8
TEXT_LEADERS
100
AcDbText
 10
4.878870189999999
 20
3.030641282175184
 30
0.0
 40
0.125
  1
PVC SCH 40 STREET ELL
  7
SIMPLEX
100
AcDbText
  0
LEADER
  5
58B
330
1E
100
AcDbEntity
  8
TEXT_LEADERS
100
AcDbLeader
  3
Standard
 76
     3
 10
2.040378464320492
 20
5.39894778035556
 30
0.0
 10
3.952812319954103
 20
6.130477917365648
 30
0.0
 10
4.804649759437106
 20
6.130477917365648
 30
0.0
1001
ACAD
1000
DSTYLE
1002
{
1070
   147
1040
0.09
1070
    77
1070
     0
1070
   140
1040
0.1
1070
   279
1070
     2
1002
}
  0
LEADER
  5
58C
330
1E
100
AcDbEntity
  8
TEXT_LEADERS
100
AcDbLeader
  3
Standard
 76
     3
 10
3.224277249412546
 20
4.978932185349863
 30
0.0
 10
4.386143963137264
 20
5.401817085330352
 30
0.0
 10
4.819134647622425
 20
5.401817085330352
 30
0.0
1001
ACAD
1000
DSTYLE
1002
{
1070
   147
1040
0.09
1070
    77
1070
     0
1070
   140
1040
0.1
1070
   279
1070
     2
1002
}
  0
LEADER
  5
58D
330
1E
100
AcDbEntity
  8
TEXT_LEADERS
100
AcDbLeader
  3
Standard
 76
     3
 10
3.397497083270638
 20
4.434722531517662
 30
0.0
 10
4.386143963137264
 20
4.794560567989267
 30
0.0
 10
4.804649759437107
 20
4.794560567989267
 30
0.0
1001
ACAD
1000
DSTYLE
1002
{
1070
   147
1040
0.09
1070
    77
1070
     0
1070
   140
1040
0.1
1070
   279
1070
     2
1002
}
  0
LEADER
  5
58E
330
1E
100
AcDbEntity
  8
TEXT_LEADERS
100
AcDbLeader
  3
Standard
 76
     3
 10
2.023291894308784
 20
3.675111775849679
 30
0.0
 10
4.477182333438054
 20
4.568254853843152
 30
0.0
 10
4.804649759437107
 20
4.568254853843152
 30
0.0
1001
ACAD
1000
DSTYLE
1002
{
1070
   147
1040
0.09
1070
    77
1070
     0
1070
   140
1040
0.1
1070
   279
1070
     2
1002
}
  0
LEADER
  5
58F
330
1E
100
AcDbEntity
  8
TEXT_LEADERS
100
AcDbLeader
  3
Standard
 76
     3
 10
2.039620762077781
 20
3.155689073498018
 30
0.0
 10
4.299601032654354
 20
3.978254622016766
 30
0.0
 10
4.804649759437107
 20
3.978254622016766
 30
0.0
1001
ACAD
1000
DSTYLE
1002
{
1070
   147
1040
0.09
1070
    77
1070
     0
1070
   140
1040
0.1
1070
   279
1070
     2
1002
}
  0
LEADER
  5
590
330
1E
100
AcDbEntity
  8
TEXT_LEADERS
100
AcDbLeader
  3
Standard
 76
     3
 10
2.164983513668593
 20
3.09353631017106
 30
0.0
 10
4.055601614048963
 20
3.777887422097888
 30
0.0
 10
4.804649759437107
 20
3.777887422097888
 30
0.0
1001
ACAD
1000
DSTYLE
1002
{
1070
   147
1040
0.09
1070
    77
1070
     0
1070
   140
1040
0.1
1070
   279
1070
     2
1002
}
  0
LEADER
  5
591
330
1E
100
AcDbEntity
  8
TEXT_LEADERS
100
AcDbLeader
  3
Standard
 76
     3
 10
2.68311001600171
 20
2.973190218127559
 30
0.0
 10
3.639042957044757
 20
3.321121354621777
 30
0.0
 10
4.804649759437106
 20
3.321121354621777
 30
0.0
1001
ACAD
1000
DSTYLE
1002
{
1070
   147
1040
0.09
1070
    77
1070
     0
1070
   140
1040
0.1
1070
   279
1070
     2
1002
}
  0
LEADER
  5
592
330
1E
100
AcDbEntity
  8
TEXT_LEADERS
100
AcDbLeader
  3
Standard
 76
     3
 10
3.384523590608349
 20
2.834853502624421
 30
0.0
 10
4.139777829297664
 20
3.109743564810713
 30
0.0
 10
4.804649759437107
 20
3.109743564810713
 30
0.0
1001
ACAD
1000
DSTYLE
1002
{
1070
   147
1040
0.09
1070
    77
1070
     0
1070
   140
1040
0.1
1070
   279
1070
     2
1002
}
  0
LEADER
  5
594
330
1E
100
AcDbEntity
  8
TEXT_LEADERS
100
AcDbLeader
  3
Standard
 76
     3
 10
2.935909794176404
 20
2.586289627831133
 30
0.0
 10
4.352875406563782
 20
2.070556321943348
 30
0.0
 10
4.804649759437108
 20
2.070556321943348
 30
0.0
1001
ACAD
1000
DSTYLE
1002
{
1070
   147
1040
0.09
1070
    77
1070
     0
1070
   140
1040
0.1
1070
   279
1070
     2
1002
}
  0
LEADER
  5
595
330
1E
100
AcDbEntity
  8
TEXT_LEADERS
100
AcDbLeader
  3
Standard
 76
     3
 10
3.708800113573377
 20
2.561395926213219
 30
0.0
 10
4.352875406563781
 20
2.32697169093843
 30
0.0
 10
4.804649759437107
 20
2.32697169093843
 30
0.0
1001
ACAD
1000
DSTYLE
1002
{
1070
   147
1040
0.09
1070
    77
1070
     0
1070
   140
1040
0.1
1070
   279
1070
     2
1002
}
  0
LEADER
  5
5AB
330
1E
100
AcDbEntity
  8
TEXT_LEADERS
100
AcDbLeader
  3
Standard
 76
     3
 10
2.013771077275866
 20
5.604625050748165
 30
0.0
 10
4.711448798043244
 20
6.651243179026694
 30
0.0
 10
4.804649759437106
 20
6.651243179026694
 30
0.0
1001
ACAD
1000
DSTYLE
1002
{
1070
   147
1040
0.09
1070
    77
1070
     0
1070
   140
1040
0.1
1070
   279
1070
     2
1002
}
  0
TEXT
  5
5C5
330
1E
100
AcDbEntity
  8
TEXT_LEADERS
100
AcDbText
 10
4.852816749999999
 20
6.411609465956025
 30
0.0
 40
0.125
  1
  1800 SERIES
  7
SIMPLEX
100
AcDbText
  0
TEXT
  5
5C6
330
1E
100
AcDbEntity
  8
TEXT_LEADERS
100
AcDbText
 10
4.852816749999999
 20
6.586609465956025
 30
0.0
 40
0.125
  1
PLASTIC NOZZLE: RAIN BIRD
  7
SIMPLEX
100
AcDbText
  0
VIEWPORT
  5
F3
330
1A
100
AcDbEntity
 67
     1
  8
0
100
AcDbViewport
 10
6.172388059701492
 20
4.5
 30
0.0
 40
12.34477611940298
 41
9.0
 68
     1
 69
     1
 12
6.172388059701492
 22
4.5
 13
0.0
 23
0.0
 14
0.14
 24
0.14
 15
0.14
 25
0.14
 16
0.0
 26
0.0
 36
1.0
 17
0.0
 27
0.0
 37
0.0
 42
50.0
 43
0.0
 44
0.0
 45
9.0
 50
0.0
 51
0.0
 72
   100
 90
    32800
  1

281
     0
 71
     0
 74
     0
110
0.0
120
0.0
130
0.0
111
0.0
121
0.0
131
0.0
112
0.0
122
0.0
132
0.0
 79
     0
146
0.0
  0
ENDSEC
  0
SECTION
  2
OBJECTS
  0
DICTIONARY
  5
C
330
0
100
AcDbDictionary
281
     1
  3
ACAD_GROUP
350
D
  3
ACAD_LAYOUT
350
19
  3
ACAD_MLINESTYLE
350
16
  3
ACAD_PLOTSETTINGS
350
18
  3
ACAD_PLOTSTYLENAME
350
E
  3
AcadDim
350
588
  3
AcDbVariableDictionary
350
346
  0
DICTIONARY
  5
D
102
{ACAD_REACTORS
330
C
102
}
330
C
100
AcDbDictionary
281
     1
  0
DICTIONARY
  5
19
102
{ACAD_REACTORS
330
C
102
}
330
C
100
AcDbDictionary
281
     1
  3
Layout1
350
1D
  3
Model
350
21
  0
DICTIONARY
  5
16
102
{ACAD_REACTORS
330
C
102
}
330
C
100
AcDbDictionary
281
     1
  3
Standard
350
17
  0
DICTIONARY
  5
18
102
{ACAD_REACTORS
330
C
102
}
330
C
100
AcDbDictionary
281
     1
  3
1055 B&W Full Shaded Draft
350
3F3
  3
1055 B&W Full Shaded Final
350
3F4
  3
1055 Color Full Shaded Draft
350
3F5
  3
1055 Color Full Shaded Final
350
3F6
  3
1055 PLUS B&W Full Shaded Draft
350
3F7
  3
1055 PLUS B&W Full Shaded Final
350
3F8
  3
1055 PLUS Color Full Shaded Draft
350
3F9
  3
1055 PLUS Color Full Shaded Final
350
3FA
  3
1055-B&W-Shaded-Draft
350
3FB
  3
1055-B&W-Shaded-Final
350
3FC
  3
1055-Color-Shaded-Draft
350
3FD
  3
1055-Color-Shaded-Final
350
3FE
  3
1055-PLUS-B&W-Shaded-Draft
350
3FF
  3
1055-PLUS-B&W-Shaded-Final
350
400
  3
1055-PLUS-Color-Shaded-Draft
350
401
  3
1055-PLUS-Color-Shaded-Final
350
402
  3
2200 Color Inkjet
350
403
  3
2200-Color-Inkjet
350
404
  3
24x36 PDF
350
405
  3
8500 B&W Shaded 11x17
350
406
  3
8500 B&W Shaded 8.5x11
350
407
  3
8500 Color Shaded 11x17
350
408
  3
8500 Color Shaded 8.5x11
350
409
  3
8500-B&W-Shaded-11x17
350
40A
  3
8500-B&W-Shaded-8.5x11
350
40B
  3
8500-Color-Shaded-11x17
350
40C
  3
8500-Color-Shaded-8.5x11
350
40D
  3
Laser Jet 5 Shaded 11x17
350
40E
  3
Laser Jet 5 Shaded 8.5x11
350
40F
  3
LaserJet5-Shaded-11x17
350
410
  3
LaserJet5-Shaded-8.5x11
350
411
  3
Oki Doki B&W Shaded 11x17
350
412
  3
Oki Doki B&W Shaded 8.5x11
350
413
  3
Oki Doki Color Laser
350
414
  3
Oki Doki Color Shaded 11x17
350
415
  3
Oki Doki Color Shaded 8.5x11
350
416
  3
Oki-Doki-B&W-Shaded-11x17
350
417
  3
Oki-Doki-B&W-Shaded-8.5x11
350
418
  3
Oki-Doki-Color-Laser
350
419
  3
Oki-Doki-Color-Shaded-11x17
350
41A
  3
Oki-Doki-Color-Shaded-8.5x11
350
41B
  0
ACDBDICTIONARYWDFLT
  5
E
102
{ACAD_REACTORS
330
C
102
}
330
C
100
AcDbDictionary
281
     1
  3
Normal
350
F
100
AcDbDictionaryWithDefault
340
F
  0
XRECORD
  5
588
102
{ACAD_REACTORS
330
C
102
}
330
C
100
AcDbXrecord
280
     1
 90
   990106
  3

 60
     4
 61
     0
 62
     1
 63
     3
 64
     0
 65
     0
 66
     0
 67
     3
 68
     1
 69
     0
 70
     0
 71
     0
 72
     0
 40
0.0
170
     0
  0
DICTIONARY
  5
346
102
{ACAD_REACTORS
330
C
102
}
330
C
100
AcDbDictionary
281
     1
  3
DIMASSOC
350
349
  3
HIDETEXT
350
348
  3
SORTENTS
350
347
  0
LAYOUT
  5
1D
102
{ACAD_REACTORS
330
19
102
}
330
19
100
AcDbPlotSettings
  1

  2
S:\AutoCAD 2002\Plotters\1055B&WDraftShaded.pc3
  4

  6

 40
0.0
 41
0.0
 42
0.0
 43
0.0
 44
0.0
 45
0.0
 46
0.0
 47
0.0
 48
0.0
 49
0.0
140
0.0
141
0.0
142
1.0
143
1.0
 70
   688
 72
     0
 73
     0
 74
     5
  7
TRexLJ5Shaded2.ctb
 75
    16
147
1.0
148
0.0
149
0.0
100
AcDbLayout
  1
Layout1
 70
     1
 71
     1
 10
0.0
 20
0.0
 11
12.0
 21
9.0
 12
0.0
 22
0.0
 32
0.0
 14
1.000000000000000E+20
 24
1.000000000000000E+20
 34
1.000000000000000E+20
 15
-1.000000000000000E+20
 25
-1.000000000000000E+20
 35
-1.000000000000000E+20
146
0.0
 13
0.0
 23
0.0
 33
0.0
 16
1.0
 26
0.0
 36
0.0
 17
0.0
 27
1.0
 37
0.0
 76
     0
330
1A
331
F3
  0
LAYOUT
  5
21
102
{ACAD_REACTORS
330
19
102
}
330
19
100
AcDbPlotSettings
  1

  2
OKI DOKI Color Laser.pc3
  4
Tabloid
  6
ps1
 40
5.027083396911621
 41
5.027085304260253
 42
5.027099609375
 43
5.027069091796875
 44
279.3999938964843
 45
431.7999877929687
 46
1.27
 47
0.0
 48
0.0
 49
0.0000000000000001
140
16.48999999999999
141
10.44
142
1.0
143
0.9931242156595709
 70
 11956
 72
     0
 73
     1
 74
     3
  7
OKIColorShaded.ctb
 75
     0
147
1.006923388063659
148
0.0000000000000115
149
0.0
100
AcDbLayout
  1
Model
 70
     1
 71
     0
 10
0.0
 20
0.0
 11
12.0
 21
9.0
 12
0.0
 22
0.0
 32
0.0
 14
0.0
 24
0.0
 34
0.0
 15
0.0
 25
0.0
 35
0.0
146
0.0
 13
0.0
 23
0.0
 33
0.0
 16
1.0
 26
0.0
 36
0.0
 17
0.0
 27
1.0
 37
0.0
 76
     0
330
1E
  0
MLINESTYLE
  5
17
102
{ACAD_REACTORS
330
16
102
}
330
16
100
AcDbMlineStyle
  2
STANDARD
 70
     0
  3

 62
   256
 51
90.0
 52
90.0
 71
     2
 49
0.5
 62
   256
  6
BYLAYER
 49
-0.5
 62
   256
  6
BYLAYER
  0
PLOTSETTINGS
  5
3F3
102
{ACAD_REACTORS
330
18
102
}
330
18
100
AcDbPlotSettings
  1
1055 B&W Full Shaded Draft
  2
1055B&WDraftShaded.pc3
  4
User607
  6
ps1
 40
0.0
 41
0.0
 42
0.0
 43
0.0
 44
901.7000122070312
 45
1155.700073242187
 46
0.0
 47
0.0
 48
180377.877572
 49
80019.819395
140
180380.8390819999
141
80022.26069
142
1.0
143
1.0
 70
   688
 72
     0
 73
     2
 74
     3
  7
1055B&WFullDraftShaded.ctb
 75
    16
147
1.0
148
-4581603.303200401
149
-2032962.095032944
  0
PLOTSETTINGS
  5
3F4
102
{ACAD_REACTORS
330
18
102
}
330
18
100
AcDbPlotSettings
  1
1055 B&W Full Shaded Final
  2
1055B&WFinalShaded.pc3
  4
User257
  6
PS1
 40
4.995333194732666
 41
8.297271728515625
 42
4.99530029296875
 43
8.29736328125
 44
911.6906738281249
 45
1172.294677734375
 46
0.0
 47
0.0
 48
180377.877572
 49
80019.819395
140
180380.8390819999
141
80022.26069
142
1.0
143
1.0
 70
   688
 72
     0
 73
     3
 74
     3
  7
1055B&WFullFinalShaded.ctb
 75
    16
147
1.0
148
-4581603.303200401
149
-2032962.095032944
  0
PLOTSETTINGS
  5
3F5
102
{ACAD_REACTORS
330
18
102
}
330
18
100
AcDbPlotSettings
  1
1055 Color Full Shaded Draft
  2
1055ColorDraftShaded.pc3
  4
User607
  6
PS1
 40
0.0
 41
0.0
 42
0.0
 43
0.0
 44
901.7000122070312
 45
1155.700073242187
 46
0.0
 47
0.0
 48
180377.877572
 49
80019.819395
140
180380.8390819999
141
80022.26069
142
1.0
143
1.0
 70
   688
 72
     0
 73
     2
 74
     3
  7
1055ColorFullDraftShaded.ctb
 75
    16
147
1.0
148
-4581603.303200401
149
-2032962.095032944
  0
PLOTSETTINGS
  5
3F6
102
{ACAD_REACTORS
330
18
102
}
330
18
100
AcDbPlotSettings
  1
1055 Color Full Shaded Final
  2
1055ColorFinalShaded.pc3
  4
User607
  6
PS1
 40
0.0
 41
0.0
 42
0.0
 43
0.0
 44
901.7000122070312
 45
1155.700073242187
 46
0.0
 47
0.0
 48
180377.877572
 49
80019.819395
140
180380.8390819999
141
80022.26069
142
1.0
143
1.0
 70
   688
 72
     0
 73
     2
 74
     3
  7
1055ColorFullFinalShaded.ctb
 75
    16
147
1.0
148
-4581603.303200401
149
-2032962.095032944
  0
PLOTSETTINGS
  5
3F7
102
{ACAD_REACTORS
330
18
102
}
330
18
100
AcDbPlotSettings
  1
1055 PLUS B&W Full Shaded Draft
  2
1055_PLUS_B&WDraftShaded.pc3
  4
User257
  6
ps1
 40
4.995333194732666
 41
8.297393798828125
 42
4.99530029296875
 43
8.29736328125
 44
901.6152954101562
 45
1155.615356445312
 46
0.0
 47
0.0
 48
180377.877572
 49
80019.819395
140
180380.8390819999
141
80022.26069
142
1.0
143
1.0
 70
   688
 72
     0
 73
     3
 74
     5
  7
1055B&WFullDraftShaded.ctb
 75
    16
147
1.0
148
-4581603.303200401
149
-2032962.095032944
  0
PLOTSETTINGS
  5
3F8
102
{ACAD_REACTORS
330
18
102
}
330
18
100
AcDbPlotSettings
  1
1055 PLUS B&W Full Shaded Final
  2
1055_PLUS_B&WFinalShaded.pc3
  4
User257
  6
PS1
 40
4.995333194732666
 41
8.297271728515625
 42
4.99530029296875
 43
8.29736328125
 44
901.6576538085937
 45
1155.657592773437
 46
0.0
 47
0.0
 48
180377.877572
 49
80019.819395
140
180380.8390819999
141
80022.26069
142
1.0
143
1.0
 70
   688
 72
     0
 73
     3
 74
     5
  7
1055B&WFullFinalShaded.ctb
 75
    16
147
1.0
148
-4581603.303200401
149
-2032962.095032944
  0
PLOTSETTINGS
  5
3F9
102
{ACAD_REACTORS
330
18
102
}
330
18
100
AcDbPlotSettings
  1
1055 PLUS Color Full Shaded Draft
  2
1055_PLUS_ColorDraftShaded.pc3
  4
User257
  6
PS1
 40
4.995333194732666
 41
8.297393798828125
 42
4.99530029296875
 43
8.29736328125
 44
901.6152954101562
 45
1155.615356445312
 46
0.0
 47
0.0
 48
180377.877572
 49
80019.819395
140
180380.8390819999
141
80022.26069
142
1.0
143
1.0
 70
   688
 72
     0
 73
     3
 74
     5
  7
1055ColorFullDraftShaded.ctb
 75
    16
147
1.0
148
-4581603.303200401
149
-2032962.095032944
  0
PLOTSETTINGS
  5
3FA
102
{ACAD_REACTORS
330
18
102
}
330
18
100
AcDbPlotSettings
  1
1055 PLUS Color Full Shaded Final
  2
1055_PLUS_ColorFinalShaded.pc3
  4
User257
  6
PS1
 40
4.995333194732666
 41
8.297271728515625
 42
4.99530029296875
 43
8.29736328125
 44
901.6576538085937
 45
1155.657592773437
 46
0.0
 47
0.0
 48
180377.877572
 49
80019.819395
140
180380.8390819999
141
80022.26069
142
1.0
143
1.0
 70
   688
 72
     0
 73
     3
 74
     5
  7
1055ColorFullFinalShaded.ctb
 75
    16
147
1.0
148
-4581603.303200401
149
-2032962.095032944
  0
PLOTSETTINGS
  5
3FB
102
{ACAD_REACTORS
330
18
102
}
330
18
100
AcDbPlotSettings
  1
1055-B&W-Shaded-Draft
  2
1055B&WDraftShaded.pc3
  4
User257
  6

 40
4.995333194732666
 41
8.297393798828125
 42
4.99530029296875
 43
8.29736328125
 44
901.6152954101562
 45
1155.615356445312
 46
0.0
 47
0.0
 48
180360.0524337165
 49
80033.77936194791
140
180369.1574725906
141
80037.61796031875
142
1.0
143
30.0
 70
  1696
 72
     0
 73
     1
 74
     1
  7
1055B&WFullDraftShaded.ctb
 75
     0
147
0.0333333333333333
148
-190.0773302744904
149
-129.2444057835751
  0
PLOTSETTINGS
  5
3FC
102
{ACAD_REACTORS
330
18
102
}
330
18
100
AcDbPlotSettings
  1
1055-B&W-Shaded-Final
  2
1055B&WFinalShaded.pc3
  4
User607
  6

 40
0.0
 41
0.0
 42
0.0
 43
0.0
 44
901.7000122070312
 45
1155.700073242187
 46
0.0
 47
0.0
 48
180360.0524337165
 49
80033.77936194791
140
180369.1574725906
141
80037.61796031875
142
1.0
143
30.0
 70
  1696
 72
     0
 73
     1
 74
     1
  7
1055B&WFullFinalShaded.ctb
 75
     0
147
0.0333333333333333
148
-190.0773302744904
149
-129.2444057835751
  0
PLOTSETTINGS
  5
3FD
102
{ACAD_REACTORS
330
18
102
}
330
18
100
AcDbPlotSettings
  1
1055-Color-Shaded-Draft
  2
1055ColorDraftShaded.pc3
  4
User257
  6

 40
4.995333194732666
 41
8.297393798828125
 42
4.99530029296875
 43
8.29736328125
 44
901.6152954101562
 45
1155.615356445312
 46
0.0
 47
0.0
 48
180360.0524337165
 49
80033.77936194791
140
180369.1574725906
141
80037.61796031875
142
1.0
143
30.0
 70
  1696
 72
     0
 73
     1
 74
     1
  7
1055ColorFullDraftShaded.ctb
 75
     0
147
0.0333333333333333
148
-190.0773302744904
149
-129.2444057835751
  0
PLOTSETTINGS
  5
3FE
102
{ACAD_REACTORS
330
18
102
}
330
18
100
AcDbPlotSettings
  1
1055-Color-Shaded-Final
  2
1055ColorDraftShaded.pc3
  4
User257
  6

 40
4.995333194732666
 41
8.297393798828125
 42
4.99530029296875
 43
8.29736328125
 44
901.6152954101562
 45
1155.615356445312
 46
0.0
 47
0.0
 48
180360.0524337165
 49
80033.77936194791
140
180369.1574725906
141
80037.61796031875
142
1.0
143
30.0
 70
  1696
 72
     0
 73
     1
 74
     1
  7
1055ColorFullFinalShaded.ctb
 75
     0
147
0.0333333333333333
148
-190.0773302744904
149
-129.2444057835751
  0
PLOTSETTINGS
  5
3FF
102
{ACAD_REACTORS
330
18
102
}
330
18
100
AcDbPlotSettings
  1
1055-PLUS-B&W-Shaded-Draft
  2
1055_PLUS_B&WDraftShaded.pc3
  4
User257
  6

 40
4.995333194732666
 41
8.297393798828125
 42
4.99530029296875
 43
8.29736328125
 44
901.6152954101562
 45
1155.615356445312
 46
0.0
 47
0.0
 48
180360.0524337165
 49
80033.77936194791
140
180369.1574725906
141
80037.61796031875
142
1.0
143
30.0
 70
  1696
 72
     0
 73
     1
 74
     0
  7
1055B&WFullDraftShaded.ctb
 75
     0
147
0.0333333333333333
148
0.9506237099442845
149
8.593888772447144
  0
PLOTSETTINGS
  5
400
102
{ACAD_REACTORS
330
18
102
}
330
18
100
AcDbPlotSettings
  1
1055-PLUS-B&W-Shaded-Final
  2
1055_PLUS_B&WFinalShaded.pc3
  4
User257
  6

 40
4.995333194732666
 41
8.297271728515625
 42
4.99530029296875
 43
8.29736328125
 44
901.6576538085937
 45
1155.657592773437
 46
0.0
 47
0.0
 48
180360.0524337165
 49
80033.77936194791
140
180369.1574725906
141
80037.61796031875
142
1.0
143
30.0
 70
  1696
 72
     0
 73
     1
 74
     0
  7
1055B&WFullFinalShaded.ctb
 75
     0
147
0.0333333333333333
148
0.9506237099442845
149
8.593888772447144
  0
PLOTSETTINGS
  5
401
102
{ACAD_REACTORS
330
18
102
}
330
18
100
AcDbPlotSettings
  1
1055-PLUS-Color-Shaded-Draft
  2
1055_PLUS_ColorDraftShaded.pc3
  4
User257
  6

 40
4.995333194732666
 41
8.297393798828125
 42
4.99530029296875
 43
8.29736328125
 44
901.6152954101562
 45
1155.615356445312
 46
0.0
 47
0.0
 48
180360.0524337165
 49
80033.77936194791
140
180369.1574725906
141
80037.61796031875
142
1.0
143
30.0
 70
  1696
 72
     0
 73
     1
 74
     0
  7
1055ColorFullDraftShaded.ctb
 75
     0
147
0.0333333333333333
148
0.9506237099442845
149
8.593888772447144
  0
PLOTSETTINGS
  5
402
102
{ACAD_REACTORS
330
18
102
}
330
18
100
AcDbPlotSettings
  1
1055-PLUS-Color-Shaded-Final
  2
1055_PLUS_ColorFinalShaded.pc3
  4
User257
  6

 40
4.995333194732666
 41
8.297271728515625
 42
4.99530029296875
 43
8.29736328125
 44
901.6576538085937
 45
1155.657592773437
 46
0.0
 47
0.0
 48
180360.0524337165
 49
80033.77936194791
140
180369.1574725906
141
80037.61796031875
142
1.0
143
30.0
 70
  1696
 72
     0
 73
     1
 74
     0
  7
1055ColorFullFinalShaded.ctb
 75
     0
147
0.0333333333333333
148
0.9506237099442845
149
8.593888772447144
  0
PLOTSETTINGS
  5
403
102
{ACAD_REACTORS
330
18
102
}
330
18
100
AcDbPlotSettings
  1
2200 Color Inkjet
  2
HP  2200 Color Inkjet.pc3
  4
Letter
  6
PS1
 40
7.143749713897705
 41
12.47775650024414
 42
7.14373779296875
 43
3.17498779296875
 44
215.8999938964843
 45
279.3999938964843
 46
0.0
 47
0.0
 48
180377.877572
 49
80019.819395
140
180380.8390819999
141
80022.26069
142
1.0
143
0.3486331030131726
 70
   688
 72
     0
 73
     1
 74
     3
  7
Color.ctb
 75
     0
147
2.868344948764708
148
-4581603.303200401
149
-2032962.095032944
  0
PLOTSETTINGS
  5
404
102
{ACAD_REACTORS
330
18
102
}
330
18
100
AcDbPlotSettings
  1
2200-Color-Inkjet
  2
HP  2200 Color Inkjet.pc3
  4
Letter
  6

 40
7.143749713897705
 41
12.47775650024414
 42
7.14373779296875
 43
3.17498779296875
 44
215.8999938964843
 45
279.3999938964843
 46
0.0
 47
0.0
 48
180360.0524337165
 49
80033.77936194791
140
180369.1574725906
141
80037.61796031875
142
1.0
143
0.069393053089765
 70
  1712
 72
     0
 73
     1
 74
     1
  7
Color.ctb
 75
     0
147
14.41066440334347
148
-190.0773302744904
149
-129.2444057835751
  0
PLOTSETTINGS
  5
405
102
{ACAD_REACTORS
330
18
102
}
330
18
100
AcDbPlotSettings
  1
24x36 PDF
  2
Bluebeam PDF Printer.pc3
  4
User128
  6
PS1
 40
3.174999952316284
 41
3.174999952316284
 42
3.17498779296875
 43
3.17498779296875
 44
609.5999755859375
 45
914.3999633789062
 46
270.5099999999999
 47
416.3059999999999
 48
180377.877572
 49
80019.819395
140
180380.8390819999
141
80022.26069
142
1.0
143
1.0
 70
   692
 72
     0
 73
     1
 74
     4
  7
1055B&WFullDraftShaded.ctb
 75
    16
147
1.0
148
-4581598.0903288
149
-2032503.412632999
  0
PLOTSETTINGS
  5
406
102
{ACAD_REACTORS
330
18
102
}
330
18
100
AcDbPlotSettings
  1
8500 B&W Shaded 11x17
  2
8500B&WShaded.pc3
  4
11x17
  6
PS1
 40
5.027083396911621
 41
5.027085304260253
 42
5.027099609375
 43
5.027069091796875
 44
279.3999938964843
 45
431.7999877929687
 46
0.0
 47
92.964
 48
180377.877572
 49
80019.819395
140
180380.8390819999
141
80022.26069
142
1.0
143
0.0116192543742624
 70
   692
 72
     0
 73
     1
 74
     3
  7
8500B&WShaded.ctb
 75
     0
147
86.06404230335863
148
-4581651.879813895
149
-2032998.63613423
  0
PLOTSETTINGS
  5
407
102
{ACAD_REACTORS
330
18
102
}
330
18
100
AcDbPlotSettings
  1
8500 B&W Shaded 8.5x11
  2
8500B&WShaded.pc3
  4
Letter
  6
PS1
 40
5.027083396911621
 41
5.027085304260253
 42
5.027084350585937
 43
5.027069091796875
 44
215.8999938964843
 45
279.3999938964843
 46
0.0
 47
44.44999999999999
 48
180377.877572
 49
80019.819395
140
180380.8390819999
141
80022.26069
142
1.0
143
0.0152035994604527
 70
   692
 72
     0
 73
     1
 74
     3
  7
8500B&WShaded.ctb
 75
     0
147
65.77389799048455
148
-4581651.879813895
149
-2032998.63613423
  0
PLOTSETTINGS
  5
408
102
{ACAD_REACTORS
330
18
102
}
330
18
100
AcDbPlotSettings
  1
8500 Color Shaded 11x17
  2
8500ColorShaded.pc3
  4
11x17
  6
PS1
 40
5.027083396911621
 41
5.027085304260253
 42
5.027099609375
 43
5.027069091796875
 44
279.3999938964843
 45
431.7999877929687
 46
0.0
 47
92.964
 48
180377.877572
 49
80019.819395
140
180380.8390819999
141
80022.26069
142
1.0
143
0.0116192543742624
 70
   692
 72
     0
 73
     1
 74
     3
  7
8500ColorShaded.ctb
 75
     0
147
86.06404230335863
148
-4581651.879813895
149
-2032998.63613423
  0
PLOTSETTINGS
  5
409
102
{ACAD_REACTORS
330
18
102
}
330
18
100
AcDbPlotSettings
  1
8500 Color Shaded 8.5x11
  2
8500ColorShaded.pc3
  4
Letter
  6
PS1
 40
5.027083396911621
 41
5.027085304260253
 42
5.027084350585937
 43
5.027069091796875
 44
215.8999938964843
 45
279.3999938964843
 46
0.0
 47
44.44999999999999
 48
180377.877572
 49
80019.819395
140
180380.8390819999
141
80022.26069
142
1.0
143
0.0152035994604527
 70
   692
 72
     0
 73
     1
 74
     3
  7
8500ColorShaded.ctb
 75
     0
147
65.77389799048455
148
-4581651.879813895
149
-2032998.63613423
  0
PLOTSETTINGS
  5
40A
102
{ACAD_REACTORS
330
18
102
}
330
18
100
AcDbPlotSettings
  1
8500-B&W-Shaded-11x17
  2
8500B&WShaded.pc3
  4
11x17
  6

 40
5.027083396911621
 41
5.027085304260253
 42
5.027099609375
 43
5.027069091796875
 44
279.3999938964843
 45
431.7999877929687
 46
0.0
 47
0.0
 48
180360.0524337165
 49
80033.77936194791
140
180369.1574725906
141
80037.61796031875
142
1.0
143
0.0519425466957002
 70
  1712
 72
     0
 73
     1
 74
     1
  7
8500B&WShaded.ctb
 75
     0
147
19.252040256293
148
-190.0773302744904
149
-129.2444057835751
  0
PLOTSETTINGS
  5
40B
102
{ACAD_REACTORS
330
18
102
}
330
18
100
AcDbPlotSettings
  1
8500-B&W-Shaded-8.5x11
  2
8500B&WShaded.pc3
  4
Letter
  6

 40
5.027083396911621
 41
5.027085304260253
 42
5.027084350585937
 43
5.027069091796875
 44
215.8999938964843
 45
279.3999938964843
 46
0.0
 47
0.0
 48
180360.0524337165
 49
80033.77936194791
140
180369.1574725906
141
80037.61796031875
142
1.0
143
0.0679659511256221
 70
  1712
 72
     0
 73
     1
 74
     1
  7
8500B&WShaded.ctb
 75
     0
147
14.71324955273106
148
-190.0773302744904
149
-129.2444057835751
  0
PLOTSETTINGS
  5
40C
102
{ACAD_REACTORS
330
18
102
}
330
18
100
AcDbPlotSettings
  1
8500-Color-Shaded-11x17
  2
8500ColorShaded.pc3
  4
11x17
  6

 40
5.027083396911621
 41
5.027085304260253
 42
5.027099609375
 43
5.027069091796875
 44
279.3999938964843
 45
431.7999877929687
 46
0.0
 47
0.0
 48
180360.0524337165
 49
80033.77936194791
140
180369.1574725906
141
80037.61796031875
142
1.0
143
0.0519425466957002
 70
  1712
 72
     0
 73
     1
 74
     1
  7
8500ColorShaded.ctb
 75
     0
147
19.252040256293
148
-190.0773302744904
149
-129.2444057835751
  0
PLOTSETTINGS
  5
40D
102
{ACAD_REACTORS
330
18
102
}
330
18
100
AcDbPlotSettings
  1
8500-Color-Shaded-8.5x11
  2
8500ColorShaded.pc3
  4
Letter
  6

 40
5.027083396911621
 41
5.027085304260253
 42
5.027084350585937
 43
5.027069091796875
 44
215.8999938964843
 45
279.3999938964843
 46
0.0
 47
0.0
 48
180360.0524337165
 49
80033.77936194791
140
180369.1574725906
141
80037.61796031875
142
1.0
143
0.0679659511256221
 70
  1712
 72
     0
 73
     1
 74
     1
  7
8500ColorShaded.ctb
 75
     0
147
14.71324955273106
148
-190.0773302744904
149
-129.2444057835751
  0
PLOTSETTINGS
  5
40E
102
{ACAD_REACTORS
330
18
102
}
330
18
100
AcDbPlotSettings
  1
Laser Jet 5 Shaded 11x17
  2
LaserJet5Shaded.pc3
  4
11x17
  6
PS1
 40
7.143749713897705
 41
5.873736858367919
 42
7.143768310546875
 43
7.14373779296875
 44
279.3999938964843
 45
431.7999877929687
 46
0.0
 47
29.71799999999999
 48
180377.877572
 49
80019.819395
140
180380.8390819999
141
80022.26069
142
1.0
143
0.2557442899420743
 70
   692
 72
     0
 73
     1
 74
     3
  7
LaserJet5Shaded.ctb
 75
     0
147
3.910155727138614
148
-4581603.303200401
149
-2032962.095032944
  0
PLOTSETTINGS
  5
40F
102
{ACAD_REACTORS
330
18
102
}
330
18
100
AcDbPlotSettings
  1
Laser Jet 5 Shaded 8.5x11
  2
LaserJet5Shaded.pc3
  4
Letter
  6
PS1
 40
7.143749713897705
 41
6.974400997161865
 42
7.14373779296875
 43
6.297088623046875
 44
215.8999938964843
 45
279.3999938964843
 46
2.794
 47
0.0
 48
180377.877572
 49
80019.819395
140
180380.8390819999
141
80022.26069
142
1.0
143
0.345513616778612
 70
   692
 72
     0
 73
     1
 74
     3
  7
LaserJet5Shaded.ctb
 75
     0
147
2.894241938489939
148
-4581603.303200401
149
-2032962.095032944
  0
PLOTSETTINGS
  5
410
102
{ACAD_REACTORS
330
18
102
}
330
18
100
AcDbPlotSettings
  1
LaserJet5-Shaded-11x17
  2
LaserJet5Shaded.pc3
  4
11x17
  6

 40
7.143749713897705
 41
5.873736858367919
 42
7.143768310546875
 43
7.14373779296875
 44
279.3999938964843
 45
431.7999877929687
 46
0.0
 47
0.0
 48
180360.0524337165
 49
80033.77936194791
140
180369.1574725906
141
80037.61796031875
142
1.0
143
0.0527719690046124
 70
  1712
 72
     0
 73
     1
 74
     1
  7
LaserJet5Shaded.ctb
 75
     0
147
18.9494540162524
148
-190.0773302744904
149
-129.2444057835751
  0
PLOTSETTINGS
  5
411
102
{ACAD_REACTORS
330
18
102
}
330
18
100
AcDbPlotSettings
  1
LaserJet5-Shaded-8.5x11
  2
LaserJet5Shaded.pc3
  4
Letter
  6

 40
7.143749713897705
 41
6.974400997161865
 42
7.14373779296875
 43
6.297088623046875
 44
215.8999938964843
 45
279.3999938964843
 46
0.0
 47
0.0
 48
180360.0524337165
 49
80033.77936194791
140
180369.1574725906
141
80037.61796031875
142
1.0
143
0.069393053089765
 70
  1712
 72
     0
 73
     1
 74
     1
  7
LaserJet5Shaded.ctb
 75
     0
147
14.41066440334347
148
-190.0773302744904
149
-129.2444057835751
  0
PLOTSETTINGS
  5
412
102
{ACAD_REACTORS
330
18
102
}
330
18
100
AcDbPlotSettings
  1
Oki Doki B&W Shaded 11x17
  2
OKI DOKI Color Laser.pc3
  4
Tabloid
  6
PS1
 40
5.027083396911621
 41
5.027085304260253
 42
5.027099609375
 43
5.027069091796875
 44
279.3999938964843
 45
431.7999877929687
 46
0.0
 47
47.49799999999999
 48
180377.877572
 49
80019.819395
140
180380.8390819999
141
80022.26069
142
1.0
143
0.2302203728173071
 70
   692
 72
     0
 73
     1
 74
     4
  7
OKIB&WShaded.ctb
 75
     0
147
4.343664236846477
148
-4581598.0903288
149
-2032503.412632999
  0
PLOTSETTINGS
  5
413
102
{ACAD_REACTORS
330
18
102
}
330
18
100
AcDbPlotSettings
  1
Oki Doki B&W Shaded 8.5x11
  2
OKI DOKI Color Laser.pc3
  4
Letter
  6
PS1
 40
5.027083396911621
 41
5.027085304260253
 42
5.027084350585937
 43
5.027069091796875
 44
215.8999938964843
 45
279.3999938964843
 46
0.0
 47
9.906
 48
180377.877572
 49
80019.819395
140
180380.8390819999
141
80022.26069
142
1.0
143
0.3012394963745367
 70
   692
 72
     0
 73
     1
 74
     4
  7
OKIB&WShaded.ctb
 75
     0
147
3.319617819161008
148
-4581598.0903288
149
-2032503.412632999
  0
PLOTSETTINGS
  5
414
102
{ACAD_REACTORS
330
18
102
}
330
18
100
AcDbPlotSettings
  1
Oki Doki Color Laser
  2
OKI DOKI Color Laser.pc3
  4
Letter
  6
PS1
 40
5.027083396911621
 41
5.027085304260253
 42
5.027084350585937
 43
5.027069091796875
 44
215.8999938964843
 45
279.3999938964843
 46
71.88199999999999
 47
97.02799999999999
 48
180377.877572
 49
80019.819395
140
180380.8390819999
141
80022.26069
142
1.0
143
1.0
 70
   692
 72
     0
 73
     1
 74
     4
  7
Color.ctb
 75
    16
147
1.0
148
-4581598.0903288
149
-2032503.412632999
  0
PLOTSETTINGS
  5
415
102
{ACAD_REACTORS
330
18
102
}
330
18
100
AcDbPlotSettings
  1
Oki Doki Color Shaded 11x17
  2
OKI DOKI Color Laser.pc3
  4
Tabloid
  6
PS1
 40
5.027083396911621
 41
5.027085304260253
 42
5.027099609375
 43
5.027069091796875
 44
279.3999938964843
 45
431.7999877929687
 46
0.0
 47
47.49799999999999
 48
180377.877572
 49
80019.819395
140
180380.8390819999
141
80022.26069
142
1.0
143
0.2302203728173071
 70
   692
 72
     0
 73
     1
 74
     4
  7
OKIColorShaded.ctb
 75
     0
147
4.343664236846477
148
-4581598.0903288
149
-2032503.412632999
  0
PLOTSETTINGS
  5
416
102
{ACAD_REACTORS
330
18
102
}
330
18
100
AcDbPlotSettings
  1
Oki Doki Color Shaded 8.5x11
  2
OKI DOKI Color Laser.pc3
  4
Letter
  6
PS1
 40
5.027083396911621
 41
5.027085304260253
 42
5.027084350585937
 43
5.027069091796875
 44
215.8999938964843
 45
279.3999938964843
 46
0.0
 47
9.906
 48
180377.877572
 49
80019.819395
140
180380.8390819999
141
80022.26069
142
1.0
143
0.3012394963745367
 70
   692
 72
     0
 73
     1
 74
     4
  7
OKIColorShaded.ctb
 75
     0
147
3.319617819161008
148
-4581598.0903288
149
-2032503.412632999
  0
PLOTSETTINGS
  5
417
102
{ACAD_REACTORS
330
18
102
}
330
18
100
AcDbPlotSettings
  1
Oki-Doki-B&W-Shaded-11x17
  2
OKI DOKI Color Laser.pc3
  4
Tabloid
  6

 40
5.027083396911621
 41
5.027085304260253
 42
5.027099609375
 43
5.027069091796875
 44
279.3999938964843
 45
431.7999877929687
 46
45.72
 47
0.0
 48
180360.0524337165
 49
80033.77936194791
140
180369.1574725906
141
80037.61796031875
142
1.0
143
0.5483586774064594
 70
  1716
 72
     0
 73
     1
 74
     4
  7
OKIB&WShaded.ctb
 75
     0
147
1.823623918435361
148
-4581145.331816398
149
-2032857.995793476
  0
PLOTSETTINGS
  5
418
102
{ACAD_REACTORS
330
18
102
}
330
18
100
AcDbPlotSettings
  1
Oki-Doki-B&W-Shaded-8.5x11
  2
OKI DOKI Color Laser.pc3
  4
Letter
  6

 40
5.027083396911621
 41
5.027085304260253
 42
5.027084350585937
 43
5.027069091796875
 44
215.8999938964843
 45
279.3999938964843
 46
46.228
 47
0.0
 48
180360.0524337165
 49
80033.77936194791
140
180369.1574725906
141
80037.61796031875
142
1.0
143
0.8586284006917006
 70
  1716
 72
     0
 73
     1
 74
     4
  7
OKIB&WShaded.ctb
 75
     0
147
1.16464817515285
148
-4581145.331816398
149
-2032857.995793476
  0
PLOTSETTINGS
  5
419
102
{ACAD_REACTORS
330
18
102
}
330
18
100
AcDbPlotSettings
  1
Oki-Doki-Color-Laser
  2
OKI DOKI Color Laser.pc3
  4
Letter
  6

 40
5.027083396911621
 41
5.027085304260253
 42
5.027084350585937
 43
5.027069091796875
 44
215.8999938964843
 45
279.3999938964843
 46
17.018
 47
0.0
 48
180360.0524337165
 49
80033.77936194791
140
180369.1574725906
141
80037.61796031875
142
1.0
143
1.429088128819241
 70
  1716
 72
     0
 73
     1
 74
     0
  7
Color.ctb
 75
     0
147
0.6997469084193093
148
0.9506237099442977
149
8.593888772447144
  0
PLOTSETTINGS
  5
41A
102
{ACAD_REACTORS
330
18
102
}
330
18
100
AcDbPlotSettings
  1
Oki-Doki-Color-Shaded-11x17
  2
OKI DOKI Color Laser.pc3
  4
Tabloid
  6

 40
5.027083396911621
 41
5.027085304260253
 42
5.027099609375
 43
5.027069091796875
 44
279.3999938964843
 45
431.7999877929687
 46
45.72
 47
0.0
 48
180360.0524337165
 49
80033.77936194791
140
180369.1574725906
141
80037.61796031875
142
1.0
143
0.5483586774064594
 70
  1716
 72
     0
 73
     1
 74
     4
  7
OKIColorShaded.ctb
 75
     0
147
1.823623918435361
148
-4581145.331816398
149
-2032857.995793476
  0
PLOTSETTINGS
  5
41B
102
{ACAD_REACTORS
330
18
102
}
330
18
100
AcDbPlotSettings
  1
Oki-Doki-Color-Shaded-8.5x11
  2
OKI DOKI Color Laser.pc3
  4
Letter
  6

 40
5.027083396911621
 41
5.027085304260253
 42
5.027084350585937
 43
5.027069091796875
 44
215.8999938964843
 45
279.3999938964843
 46
46.228
 47
0.0
 48
180360.0524337165
 49
80033.77936194791
140
180369.1574725906
141
80037.61796031875
142
1.0
143
0.8586284006917006
 70
  1716
 72
     0
 73
     1
 74
     4
  7
OKIColorShaded.ctb
 75
     0
147
1.16464817515285
148
-4581145.331816398
149
-2032857.995793476
  0
ACDBPLACEHOLDER
  5
F
102
{ACAD_REACTORS
330
E
102
}
330
E
  0
DICTIONARYVAR
  5
349
102
{ACAD_REACTORS
330
346
102
}
330
346
100
DictionaryVariables
280
     0
  1
1
  0
DICTIONARYVAR
  5
348
102
{ACAD_REACTORS
330
346
102
}
330
346
100
DictionaryVariables
280
     0
  1
1
  0
DICTIONARYVAR
  5
347
102
{ACAD_REACTORS
330
346
102
}
330
346
100
DictionaryVariables
280
     0
  1
1
  0
ENDSEC
  0
EOF
