  0
SECTION
  2
HEADER
  9
$ACADVER
  1
AC1015
  9
$ACADMAINTVER
 70
    13
  9
$DWGCODEPAGE
  3
ANSI_1252
  9
$INSBASE
 10
0.0
 20
0.0
 30
0.0
  9
$EXTMIN
 10
0.0
 20
0.0
 30
0.0
  9
$EXTMAX
 10
16.48999999999999
 20
10.44
 30
0.03
  9
$LIMMIN
 10
0.0
 20
0.0
  9
$LIMMAX
 10
12.0
 20
9.0
  9
$ORTHOMODE
 70
     0
  9
$REGENMODE
 70
     1
  9
$FILLMODE
 70
     1
  9
$QTEXTMODE
 70
     0
  9
$MIRRTEXT
 70
     0
  9
$LTSCALE
 40
1.0
  9
$ATTMODE
 70
     1
  9
$TEXTSIZE
 40
0.1
  9
$TRACEWID
 40
0.05
  9
$TEXTSTYLE
  7
SIMPLEX
  9
$CLAYER
  8
IMAGE
  9
$CELTYPE
  6
ByLayer
  9
$CECOLOR
 62
   256
  9
$CELTSCALE
 40
1.0
  9
$DISPSILH
 70
     0
  9
$DIMSCALE
 40
1.0
  9
$DIMASZ
 40
0.18
  9
$DIMEXO
 40
0.0625
  9
$DIMDLI
 40
0.38
  9
$DIMRND
 40
0.0
  9
$DIMDLE
 40
0.0
  9
$DIMEXE
 40
0.18
  9
$DIMTP
 40
0.0
  9
$DIMTM
 40
0.0
  9
$DIMTXT
 40
0.125
  9
$DIMCEN
 40
0.09
  9
$DIMTSZ
 40
0.0
  9
$DIMTOL
 70
     0
  9
$DIMLIM
 70
     0
  9
$DIMTIH
 70
     1
  9
$DIMTOH
 70
     1
  9
$DIMSE1
 70
     0
  9
$DIMSE2
 70
     0
  9
$DIMTAD
 70
     0
  9
$DIMZIN
 70
     0
  9
$DIMBLK
  1

  9
$DIMASO
 70
     1
  9
$DIMSHO
 70
     1
  9
$DIMPOST
  1

  9
$DIMAPOST
  1

  9
$DIMALT
 70
     0
  9
$DIMALTD
 70
     2
  9
$DIMALTF
 40
25.4
  9
$DIMLFAC
 40
1.0
  9
$DIMTOFL
 70
     0
  9
$DIMTVP
 40
0.0
  9
$DIMTIX
 70
     0
  9
$DIMSOXD
 70
     0
  9
$DIMSAH
 70
     0
  9
$DIMBLK1
  1

  9
$DIMBLK2
  1

  9
$DIMSTYLE
  2
Standard
  9
$DIMCLRD
 70
     0
  9
$DIMCLRE
 70
     0
  9
$DIMCLRT
 70
     0
  9
$DIMTFAC
 40
1.0
  9
$DIMGAP
 40
0.09
  9
$DIMJUST
 70
     0
  9
$DIMSD1
 70
     0
  9
$DIMSD2
 70
     0
  9
$DIMTOLJ
 70
     1
  9
$DIMTZIN
 70
     0
  9
$DIMALTZ
 70
     0
  9
$DIMALTTZ
 70
     0
  9
$DIMUPT
 70
     0
  9
$DIMDEC
 70
     4
  9
$DIMTDEC
 70
     4
  9
$DIMALTU
 70
     2
  9
$DIMALTTD
 70
     2
  9
$DIMTXSTY
  7
STANDARD
  9
$DIMAUNIT
 70
     0
  9
$DIMADEC
 70
     0
  9
$DIMALTRND
 40
0.0
  9
$DIMAZIN
 70
     0
  9
$DIMDSEP
 70
    46
  9
$DIMATFIT
 70
     3
  9
$DIMFRAC
 70
     0
  9
$DIMLDRBLK
  1

  9
$DIMLUNIT
 70
     2
  9
$DIMLWD
 70
    -2
  9
$DIMLWE
 70
    -2
  9
$DIMTMOVE
 70
     2
  9
$LUNITS
 70
     2
  9
$LUPREC
 70
     4
  9
$SKETCHINC
 40
0.1
  9
$FILLETRAD
 40
0.0
  9
$AUNITS
 70
     0
  9
$AUPREC
 70
     0
  9
$MENU
  1
ACAD
  9
$ELEVATION
 40
0.0
  9
$PELEVATION
 40
0.0
  9
$THICKNESS
 40
0.0
  9
$LIMCHECK
 70
     0
  9
$CHAMFERA
 40
0.0
  9
$CHAMFERB
 40
0.0
  9
$CHAMFERC
 40
0.0
  9
$CHAMFERD
 40
0.0
  9
$SKPOLY
 70
     0
  9
$TDCREATE
 40
2449623.385097569
  9
$TDUCREATE
 40
2449623.676764236
  9
$TDUPDATE
 40
2453019.619780972
  9
$TDUUPDATE
 40
2453019.911447639
  9
$TDINDWG
 40
0.3771918981
  9
$TDUSRTIMER
 40
0.3771918981
  9
$USRTIMER
 70
     1
  9
$ANGBASE
 50
0.0
  9
$ANGDIR
 70
     0
  9
$PDMODE
 70
     0
  9
$PDSIZE
 40
0.0
  9
$PLINEWID
 40
0.0
  9
$SPLFRAME
 70
     0
  9
$SPLINETYPE
 70
     6
  9
$SPLINESEGS
 70
     8
  9
$HANDSEED
  5
3DC
  9
$SURFTAB1
 70
     6
  9
$SURFTAB2
 70
     6
  9
$SURFTYPE
 70
     6
  9
$SURFU
 70
     6
  9
$SURFV
 70
     6
  9
$UCSBASE
  2

  9
$UCSNAME
  2

  9
$UCSORG
 10
0.0
 20
0.0
 30
0.0
  9
$UCSXDIR
 10
1.0
 20
0.0
 30
0.0
  9
$UCSYDIR
 10
0.0
 20
1.0
 30
0.0
  9
$UCSORTHOREF
  2

  9
$UCSORTHOVIEW
 70
     0
  9
$UCSORGTOP
 10
0.0
 20
0.0
 30
0.0
  9
$UCSORGBOTTOM
 10
0.0
 20
0.0
 30
0.0
  9
$UCSORGLEFT
 10
0.0
 20
0.0
 30
0.0
  9
$UCSORGRIGHT
 10
0.0
 20
0.0
 30
0.0
  9
$UCSORGFRONT
 10
0.0
 20
0.0
 30
0.0
  9
$UCSORGBACK
 10
0.0
 20
0.0
 30
0.0
  9
$PUCSBASE
  2

  9
$PUCSNAME
  2

  9
$PUCSORG
 10
0.0
 20
0.0
 30
0.0
  9
$PUCSXDIR
 10
1.0
 20
0.0
 30
0.0
  9
$PUCSYDIR
 10
0.0
 20
1.0
 30
0.0
  9
$PUCSORTHOREF
  2

  9
$PUCSORTHOVIEW
 70
     0
  9
$PUCSORGTOP
 10
0.0
 20
0.0
 30
0.0
  9
$PUCSORGBOTTOM
 10
0.0
 20
0.0
 30
0.0
  9
$PUCSORGLEFT
 10
0.0
 20
0.0
 30
0.0
  9
$PUCSORGRIGHT
 10
0.0
 20
0.0
 30
0.0
  9
$PUCSORGFRONT
 10
0.0
 20
0.0
 30
0.0
  9
$PUCSORGBACK
 10
0.0
 20
0.0
 30
0.0
  9
$USERI1
 70
     0
  9
$USERI2
 70
     0
  9
$USERI3
 70
     0
  9
$USERI4
 70
     0
  9
$USERI5
 70
     0
  9
$USERR1
 40
0.0
  9
$USERR2
 40
0.0
  9
$USERR3
 40
0.0
  9
$USERR4
 40
0.0
  9
$USERR5
 40
0.0
  9
$WORLDVIEW
 70
     1
  9
$SHADEDGE
 70
     3
  9
$SHADEDIF
 70
    70
  9
$TILEMODE
 70
     1
  9
$MAXACTVP
 70
    16
  9
$PINSBASE
 10
0.0
 20
0.0
 30
0.0
  9
$PLIMCHECK
 70
     0
  9
$PEXTMIN
 10
1.000000000000000E+20
 20
1.000000000000000E+20
 30
1.000000000000000E+20
  9
$PEXTMAX
 10
-1.000000000000000E+20
 20
-1.000000000000000E+20
 30
-1.000000000000000E+20
  9
$PLIMMIN
 10
0.0
 20
0.0
  9
$PLIMMAX
 10
12.0
 20
9.0
  9
$UNITMODE
 70
     0
  9
$VISRETAIN
 70
     0
  9
$PLINEGEN
 70
     1
  9
$PSLTSCALE
 70
     1
  9
$TREEDEPTH
 70
  3020
  9
$CMLSTYLE
  2
Standard
  9
$CMLJUST
 70
     0
  9
$CMLSCALE
 40
1.0
  9
$PROXYGRAPHICS
 70
     1
  9
$MEASUREMENT
 70
     0
  9
$CELWEIGHT
370
    -1
  9
$ENDCAPS
280
     0
  9
$JOINSTYLE
280
     0
  9
$LWDISPLAY
290
     0
  9
$INSUNITS
 70
     0
  9
$HYPERLINKBASE
  1

  9
$STYLESHEET
  1
OKIColorShaded.ctb
  9
$XEDIT
290
     1
  9
$CEPSNTYPE
380
     0
  9
$PSTYLEMODE
290
     1
  9
$FINGERPRINTGUID
  2
{D3D09383-ECEF-45A9-AB87-91A7A6E6724A}
  9
$VERSIONGUID
  2
{7BE950A7-FCE0-4475-B4AD-F42BFC7DFFE6}
  9
$EXTNAMES
290
     1
  9
$PSVPSCALE
 40
0.0
  9
$OLESTARTUP
290
     0
  0
ENDSEC
  0
SECTION
  2
CLASSES
  0
CLASS
  1
ACDBDICTIONARYWDFLT
  2
AcDbDictionaryWithDefault
  3
AutoCAD 2000
 90
        0
280
     0
281
     0
  0
CLASS
  1
ACDBPLACEHOLDER
  2
AcDbPlaceHolder
  3
AutoCAD 2000
 90
        0
280
     0
281
     0
  0
CLASS
  1
LAYOUT
  2
AcDbLayout
  3
AutoCAD 2000
 90
        0
280
     0
281
     0
  0
CLASS
  1
DICTIONARYVAR
  2
AcDbDictionaryVar
  3
AutoCAD 2000
 90
        0
280
     0
281
     0
  0
CLASS
  1
PLOTSETTINGS
  2
AcDbPlotSettings
  3
AutoCAD 2000
 90
        0
280
     0
281
     0
  0
ENDSEC
  0
SECTION
  2
TABLES
  0
TABLE
  2
VPORT
  5
8
330
0
100
AcDbSymbolTable
 70
     2
  0
VPORT
  5
3DB
330
8
100
AcDbSymbolTableRecord
100
AcDbViewportTableRecord
  2
*Active
 70
     0
 10
0.0
 20
0.0
 11
1.0
 21
1.0
 12
8.244829995495601
 22
5.219947909660704
 13
0.0
 23
0.0
 14
0.14
 24
0.14
 15
0.14
 25
0.14
 16
0.0
 26
0.0
 36
1.0
 17
0.0
 27
0.0
 37
0.0
 40
11.00717759226285
 41
1.505548705302096
 42
50.0
 43
0.0
 44
0.0
 50
0.0
 51
0.0
 71
     0
 72
  5000
 73
     1
 74
     1
 75
     0
 76
     0
 77
     0
 78
     0
281
     0
 65
     1
110
0.0
120
0.0
130
0.0
111
1.0
121
0.0
131
0.0
112
0.0
122
1.0
132
0.0
 79
     0
146
0.0
  0
ENDTAB
  0
TABLE
  2
LTYPE
  5
5
330
0
100
AcDbSymbolTable
 70
     1
  0
LTYPE
  5
13
330
5
100
AcDbSymbolTableRecord
100
AcDbLinetypeTableRecord
  2
ByBlock
 70
     0
  3

 72
    65
 73
     0
 40
0.0
  0
LTYPE
  5
14
330
5
100
AcDbSymbolTableRecord
100
AcDbLinetypeTableRecord
  2
ByLayer
 70
     0
  3

 72
    65
 73
     0
 40
0.0
  0
LTYPE
  5
15
330
5
100
AcDbSymbolTableRecord
100
AcDbLinetypeTableRecord
  2
CONTINUOUS
 70
     0
  3
Solid line
 72
    65
 73
     0
 40
0.0
  0
ENDTAB
  0
TABLE
  2
LAYER
  5
2
330
0
100
AcDbSymbolTable
 70
     6
  0
LAYER
  5
10
330
2
100
AcDbSymbolTableRecord
100
AcDbLayerTableRecord
  2
0
 70
     0
 62
     7
  6
CONTINUOUS
370
    -3
390
F
  0
LAYER
  5
2A
330
2
100
AcDbSymbolTableRecord
100
AcDbLayerTableRecord
  2
TEXT_BUBBLES
 70
     0
 62
     6
  6
CONTINUOUS
370
    -3
390
F
  0
LAYER
  5
2B
330
2
100
AcDbSymbolTableRecord
100
AcDbLayerTableRecord
  2
IMAGE
 70
     0
 62
     7
  6
CONTINUOUS
370
    -3
390
F
  0
LAYER
  5
2E
330
2
100
AcDbSymbolTableRecord
100
AcDbLayerTableRecord
  2
TEXT_LEADERS
 70
     0
 62
    -5
  6
CONTINUOUS
370
    -3
390
F
  0
LAYER
  5
2F
330
2
100
AcDbSymbolTableRecord
100
AcDbLayerTableRecord
  2
INSTRUCT-CALLOUT
 70
     0
 62
     4
  6
CONTINUOUS
370
    -3
390
F
  0
LAYER
  5
315
330
2
100
AcDbSymbolTableRecord
100
AcDbLayerTableRecord
  2
TITLE
 70
     0
 62
     4
  6
CONTINUOUS
370
    -3
390
F
  0
ENDTAB
  0
TABLE
  2
STYLE
  5
3
330
0
100
AcDbSymbolTable
 70
     6
  0
STYLE
  5
11
330
3
100
AcDbSymbolTableRecord
100
AcDbTextStyleTableRecord
  2
STANDARD
 70
     0
 40
0.0
 41
1.0
 50
0.0
 71
     0
 42
0.2
  3
txt
  4

  0
STYLE
  5
24
330
3
100
AcDbSymbolTableRecord
100
AcDbTextStyleTableRecord
  2
ROMANS
 70
     0
 40
0.0
 41
1.0
 50
0.0
 71
     0
 42
0.1
  3
ROMANS.SHX
  4

  0
STYLE
  5
25
330
3
100
AcDbSymbolTableRecord
100
AcDbTextStyleTableRecord
  2
SIMPLEX
 70
     0
 40
0.0
 41
1.0
 50
0.0
 71
     0
 42
0.1
  3
SIMPLEX
  4

  0
STYLE
  5
316
330
3
100
AcDbSymbolTableRecord
100
AcDbTextStyleTableRecord
  2
L100
 70
     0
 40
0.1
 41
1.0
 50
0.0
 71
     0
 42
0.1
  3
romans.shx
  4

  0
STYLE
  5
317
330
3
100
AcDbSymbolTableRecord
100
AcDbTextStyleTableRecord
  2
L200
 70
     0
 40
0.2
 41
1.0
 50
0.0
 71
     0
 42
0.081
  3
ARIAL.TTF
  4

1001
ACAD
1000
Arial
1071
       34
  0
STYLE
  5
318
330
3
100
AcDbSymbolTableRecord
100
AcDbTextStyleTableRecord
  2
L80
 70
     0
 40
0.08
 41
1.0
 50
0.0
 71
     0
 42
0.08
  3
ROMANS
  4

  0
ENDTAB
  0
TABLE
  2
VIEW
  5
6
330
0
100
AcDbSymbolTable
 70
     0
  0
ENDTAB
  0
TABLE
  2
UCS
  5
7
330
0
100
AcDbSymbolTable
 70
     0
  0
ENDTAB
  0
TABLE
  2
APPID
  5
9
330
0
100
AcDbSymbolTable
 70
     2
  0
APPID
  5
12
330
9
100
AcDbSymbolTableRecord
100
AcDbRegAppTableRecord
  2
ACAD
 70
     0
  0
APPID
  5
319
330
9
100
AcDbSymbolTableRecord
100
AcDbRegAppTableRecord
  2
RAK
 70
     0
  0
ENDTAB
  0
TABLE
  2
DIMSTYLE
  5
A
330
0
100
AcDbSymbolTable
 70
     1
100
AcDbDimStyleTable
 71
     1
340
2FC
  0
DIMSTYLE
105
2FC
330
A
100
AcDbSymbolTableRecord
100
AcDbDimStyleTableRecord
  2
Standard
 70
     0
340
11
  0
ENDTAB
  0
TABLE
  2
BLOCK_RECORD
  5
1
330
0
100
AcDbSymbolTable
 70
     1
  0
BLOCK_RECORD
  5
1E
330
1
100
AcDbSymbolTableRecord
100
AcDbBlockTableRecord
  2
*Model_Space
340
21
  0
BLOCK_RECORD
  5
1A
330
1
100
AcDbSymbolTableRecord
100
AcDbBlockTableRecord
  2
*Paper_Space
340
1D
  0
BLOCK_RECORD
  5
308
330
1
100
AcDbSymbolTableRecord
100
AcDbBlockTableRecord
  2
TITLBLK
340
0
102
{BLKREFS
331
31A
102
}
  0
ENDTAB
  0
ENDSEC
  0
SECTION
  2
BLOCKS
  0
BLOCK
  5
33
330
1E
100
AcDbEntity
  8
0
100
AcDbBlockBegin
  2
*Model_Space
 70
     0
 10
0.0
 20
0.0
 30
0.0
  3
*Model_Space
  1

  0
ENDBLK
  5
34
330
1E
100
AcDbEntity
  8
0
100
AcDbBlockEnd
  0
BLOCK
  5
31
330
1A
100
AcDbEntity
 67
     1
  8
0
100
AcDbBlockBegin
  2
*Paper_Space
 70
     0
 10
0.0
 20
0.0
 30
0.0
  3
*Paper_Space
  1

  0
ENDBLK
  5
32
330
1A
100
AcDbEntity
 67
     1
  8
0
100
AcDbBlockEnd
  0
BLOCK
  5
313
330
308
100
AcDbEntity
  8
0
100
AcDbBlockBegin
  2
TITLBLK
 70
     2
 10
0.0
 20
0.0
 30
0.0
  3
TITLBLK
  1

  0
LWPOLYLINE
  5
309
330
308
100
AcDbEntity
  8
TITLE
 62
     3
100
AcDbPolyline
 90
        2
 70
     0
 43
0.04
 39
0.03
 10
0.3424999999999994
 20
-0.0000000000000003
 10
7.654581983261419
 20
-0.0000000000000003
  0
ATTDEF
  5
30A
330
308
100
AcDbEntity
  8
TITLE
100
AcDbText
 10
0.625
 20
0.0999999999999998
 30
0.0
 40
0.2
  1
TITLE
  7
L200
100
AcDbAttributeDefinition
  3
DETAIL TITLE TOP 2ND LINE
  2
TITLE2
 70
     0
  0
LWPOLYLINE
  5
30B
330
308
100
AcDbEntity
  8
TITLE
 62
     3
100
AcDbPolyline
 90
        2
 70
     1
 43
0.03
 10
0.0
 20
-0.3425000000000002
 42
0.9999999999999998
 10
0.0
 20
0.3425000000000002
 42
0.9999999999999998
  0
ATTDEF
  5
30C
330
308
100
AcDbEntity
  8
TITLE
100
AcDbText
 10
-0.0776944065484311
 20
-0.1000000000000003
 30
0.0
 40
0.2
  1
#
  7
L200
 72
     4
 11
0.0
 21
-0.0000000000000003
 31
0.0
100
AcDbAttributeDefinition
  3
#
  2
#
 70
     0
  0
ATTDEF
  5
30D
330
308
100
AcDbEntity
  8
TITLE
 62
     7
100
AcDbText
 10
0.625
 20
-0.1836633170828782
 30
0.0
 40
0.1
  1
N.T.S.
  7
L100
100
AcDbAttributeDefinition
  3
SCALE
  2
SCALE
 70
     0
  0
ATTDEF
  5
30E
330
308
100
AcDbEntity
  8
TITLE
100
AcDbText
 10
2.107203380653828
 20
-0.2914343300200487
 30
0.0
 40
0.2
  1
TITLE2
  7
L200
100
AcDbAttributeDefinition
  3
DETAIL TITLE BOTTOM 1
  2
TITLE3
 70
     0
  0
ATTDEF
  5
30F
330
308
100
AcDbEntity
  8
TITLE
 62
     7
100
AcDbText
 10
7.570772459451895
 20
-0.1618486459795794
 30
0.0
 40
0.08
  1
-
  7
L80
 72
     2
 11
7.654581983261419
 21
-0.1618486459795794
 31
0.0
100
AcDbAttributeDefinition
  3
DWG-NAME
  2
DWG-NAME
 70
     0
  0
ATTDEF
  5
310
330
308
100
AcDbEntity
  8
TITLE
 62
     7
100
AcDbText
 10
7.570772459451895
 20
0.0853756950662722
 30
0.0
 40
0.08
  1
-
  7
L80
 72
     2
 11
7.654581983261419
 21
0.0853756950662722
 31
0.0
100
AcDbAttributeDefinition
  3
REVISION DATE
  2
REVISED
 70
     0
  0
ATTDEF
  5
311
330
308
100
AcDbEntity
  8
TITLE
100
AcDbText
 10
0.625
 20
0.459485206268383
 30
0.0
 40
0.2
  1
TITLE
  7
L200
100
AcDbAttributeDefinition
  3
DETAIL TITLE TOP LINE
  2
TITLE1
 70
     0
  0
ATTDEF
  5
312
330
308
100
AcDbEntity
  8
TITLE
100
AcDbText
 10
2.107203380653828
 20
-0.6149710156615936
 30
0.0
 40
0.2
  1
TITLE2
  7
L200
100
AcDbAttributeDefinition
  3
DETAIL TITLE BOTTOM 2
  2
TITLE4
 70
     0
  0
ENDBLK
  5
314
330
308
100
AcDbEntity
  8
0
100
AcDbBlockEnd
  0
ENDSEC
  0
SECTION
  2
ENTITIES
  0
TEXT
  5
DA
330
1E
100
AcDbEntity
  8
TEXT_BUBBLES
100
AcDbText
 10
4.588362519113744
 20
5.929098772953555
 30
0.0
 40
0.10000000149
  1

  7
ROMANS
100
AcDbText
  0
TEXT
  5
DC
330
1E
100
AcDbEntity
  8
TEXT_BUBBLES
100
AcDbText
 10
4.588362519113744
 20
3.755036997746555
 30
0.0
 40
0.10000000149
  1

  7
ROMANS
100
AcDbText
  0
TEXT
  5
DD
330
1E
100
AcDbEntity
  8
TEXT_BUBBLES
100
AcDbText
 10
4.588362519113744
 20
5.618518519352554
 30
0.0
 40
0.10000000149
  1

  7
ROMANS
100
AcDbText
  0
TEXT
  5
DE
330
1E
100
AcDbEntity
  8
TEXT_BUBBLES
100
AcDbText
 10
16.90309906005899
 20
1.433911323547
 30
0.0
 40
0.10000000149
  1

  7
ROMANS
100
AcDbText
  0
TEXT
  5
DF
330
1E
100
AcDbEntity
  8
TEXT_BUBBLES
100
AcDbText
 10
16.90309906005899
 20
0.968012332916
 30
0.0
 40
0.10000000149
  1

  7
ROMANS
100
AcDbText
  0
TEXT
  5
E0
330
1E
100
AcDbEntity
  8
TEXT_BUBBLES
100
AcDbText
 10
16.90309906005899
 20
1.12331199646
 30
0.0
 40
0.10000000149
  1

  7
ROMANS
100
AcDbText
  0
TEXT
  5
E1
330
1E
100
AcDbEntity
  8
TEXT_BUBBLES
100
AcDbText
 10
16.90309906005899
 20
1.744510650635
 30
0.0
 40
0.10000000149
  1

  7
ROMANS
100
AcDbText
  0
TEXT
  5
E2
330
1E
100
AcDbEntity
  8
TEXT_BUBBLES
100
AcDbText
 10
16.90309906005899
 20
2.521008968353
 30
0.0
 40
0.10000000149
  1

  7
ROMANS
100
AcDbText
  0
TEXT
  5
E3
330
1E
100
AcDbEntity
  8
TEXT_BUBBLES
100
AcDbText
 10
16.90309906005899
 20
2.986907958984
 30
0.0
 40
0.10000000149
  1

  7
ROMANS
100
AcDbText
  0
TEXT
  5
E4
330
1E
100
AcDbEntity
  8
TEXT_BUBBLES
100
AcDbText
 10
16.90309906005899
 20
2.831608295440999
 30
0.0
 40
0.10000000149
  1

  7
ROMANS
100
AcDbText
  0
TEXT
  5
E5
330
1E
100
AcDbEntity
  8
TEXT_BUBBLES
100
AcDbText
 10
4.588362519113744
 20
3.133876490543554
 30
0.0
 40
0.10000000149
  1

  7
ROMANS
100
AcDbText
  0
TEXT
  5
E6
330
1E
100
AcDbEntity
  8
TEXT_BUBBLES
100
AcDbText
 10
16.90309906005899
 20
2.210409641266
 30
0.0
 40
0.10000000149
  1

  7
ROMANS
100
AcDbText
  0
TEXT
  5
E7
330
1E
100
AcDbEntity
  8
TEXT_BUBBLES
100
AcDbText
 10
16.90309906005899
 20
2.055109977722
 30
0.0
 40
0.10000000149
  1

  7
ROMANS
100
AcDbText
  0
TEXT
  5
E8
330
1E
100
AcDbEntity
  8
TEXT_BUBBLES
100
AcDbText
 10
4.588362519113744
 20
4.842067885349554
 30
0.0
 40
0.10000000149
  1

  7
ROMANS
100
AcDbText
  0
TEXT
  5
E9
330
1E
100
AcDbEntity
  8
TEXT_BUBBLES
100
AcDbText
 10
4.588362519113744
 20
6.394969153355554
 30
0.0
 40
0.10000000149
  1

  7
ROMANS
100
AcDbText
  0
TEXT
  5
EA
330
1E
100
AcDbEntity
  8
TEXT_BUBBLES
100
AcDbText
 10
4.588362519113744
 20
5.152648138950555
 30
0.0
 40
0.10000000149
  1

  7
ROMANS
100
AcDbText
  0
TEXT
  5
EB
330
1E
100
AcDbEntity
  8
TEXT_BUBBLES
100
AcDbText
 10
4.588362519113744
 20
4.065617251347554
 30
0.0
 40
0.10000000149
  1

  7
ROMANS
100
AcDbText
  0
TEXT
  5
EC
330
1E
100
AcDbEntity
  8
TEXT_BUBBLES
100
AcDbText
 10
4.588362519113744
 20
3.444456744145555
 30
0.0
 40
0.10000000149
  1

  7
ROMANS
100
AcDbText
  0
LINE
  5
EE
330
1E
100
AcDbEntity
  8
IMAGE
100
AcDbLine
 10
1.238204568982728
 20
4.434722531517663
 30
0.0
 11
1.888732405521801
 21
4.434722531517663
 31
0.0
  0
LINE
  5
EF
330
1E
100
AcDbEntity
  8
IMAGE
100
AcDbLine
 10
1.238204568982732
 20
4.434722531517663
 30
0.0
 11
0.378862158793914
 21
4.434722531517663
 31
0.0
  0
TEXT
  5
F0
330
1E
100
AcDbEntity
  8
TEXT_LEADERS
100
AcDbText
 10
4.65344386021538
 20
4.732230682745232
 30
0.0
 40
0.125
  1
FINISH GRADE/TOP OF MULCH
  7
SIMPLEX
100
AcDbText
  0
LWPOLYLINE
  5
F2
330
1E
100
AcDbEntity
  8
IMAGE
100
AcDbPolyline
 90
        4
 70
     1
 43
0.0
 10
1.876205480015832
 20
3.06882360741603
 10
1.876205480015832
 20
3.206596820488058
 10
2.076941445250352
 20
3.206596820488058
 10
2.076941445250352
 20
3.06882360741603
  0
LINE
  5
F8
330
1E
100
AcDbEntity
  8
IMAGE
100
AcDbLine
 10
1.906482189380515
 20
3.230659510098577
 30
0.0
 11
2.048480463367438
 21
3.230670029571083
 31
0.0
  0
LINE
  5
F9
330
1E
100
AcDbEntity
  8
IMAGE
100
AcDbLine
 10
1.8887324055218
 20
3.254559214423241
 30
0.0
 11
2.066230244108953
 21
3.254559214423241
 31
0.0
  0
LINE
  5
FA
330
1E
100
AcDbEntity
  8
IMAGE
100
AcDbLine
 10
1.888732405521801
 20
3.206596820488059
 30
0.0
 11
1.8887324055218
 21
5.272320510896943
 31
0.0
  0
LINE
  5
FB
330
1E
100
AcDbEntity
  8
IMAGE
100
AcDbLine
 10
2.066230244108953
 20
3.206596820488059
 30
0.0
 11
2.066230244108953
 21
5.272320510896943
 31
0.0
  0
LINE
  5
FC
330
1E
100
AcDbEntity
  8
IMAGE
100
AcDbLine
 10
1.906482189380515
 20
5.244935433024932
 30
0.0
 11
2.048480463367438
 21
5.244945952497437
 31
0.0
  0
LINE
  5
FD
330
1E
100
AcDbEntity
  8
IMAGE
100
AcDbLine
 10
1.8887324055218
 20
5.216056623632627
 30
0.0
 11
2.066230244108953
 21
5.216056623632627
 31
0.0
  0
LINE
  5
FE
330
1E
100
AcDbEntity
  8
IMAGE
100
AcDbLine
 10
1.875153114082295
 20
5.356233540214777
 30
0.0
 11
2.079809535548455
 21
5.356233540214777
 31
0.0
  0
LINE
  5
FF
330
1E
100
AcDbEntity
  8
IMAGE
100
AcDbLine
 10
1.875153114082295
 20
5.272320510896943
 30
0.0
 11
1.875153114082295
 21
5.438325314471788
 31
0.0
  0
LINE
  5
100
330
1E
100
AcDbEntity
  8
IMAGE
100
AcDbLine
 10
1.862069569466733
 20
5.438325314471788
 30
0.0
 11
2.092893080164014
 21
5.438325314471788
 31
0.0
  0
LINE
  5
101
330
1E
100
AcDbEntity
  8
IMAGE
100
AcDbLine
 10
2.079809535548455
 20
5.438325314471788
 30
0.0
 11
2.079809535548455
 21
5.272320510896943
 31
0.0
  0
LINE
  5
102
330
1E
100
AcDbEntity
  8
IMAGE
100
AcDbLine
 10
2.079809535548455
 20
5.272320510896943
 30
0.0
 11
1.875153114082295
 21
5.272320510896943
 31
0.0
  0
LINE
  5
103
330
1E
100
AcDbEntity
  8
IMAGE
100
AcDbLine
 10
1.875153114082295
 20
5.459371201600291
 30
0.0
 11
2.079809535548455
 21
5.459371201600291
 31
0.0
  0
ARC
  5
104
330
1E
100
AcDbEntity
  8
IMAGE
100
AcDbCircle
 10
1.883334687135697
 20
5.439695232328586
 30
0.0
 40
0.0213091976481818
100
AcDbArc
 50
112.5782985068443
 51
183.6859519132602
  0
ARC
  5
105
330
1E
100
AcDbEntity
  8
IMAGE
100
AcDbCircle
 10
2.07162796249505
 20
5.439695232328586
 30
0.0
 40
0.0213091976481818
100
AcDbArc
 50
356.3140480867397
 51
67.42170149315559
  0
LINE
  5
106
330
1E
100
AcDbEntity
  8
IMAGE
100
AcDbLine
 10
1.977481324815374
 20
5.356233540214777
 30
0.0
 11
1.977481324815374
 21
5.272320510896943
 31
0.0
  0
LINE
  5
107
330
1E
100
AcDbEntity
  8
IMAGE
100
AcDbLine
 10
1.956207268529912
 20
5.356233540214777
 30
0.0
 11
1.956207268529912
 21
5.272320510896943
 31
0.0
  0
LINE
  5
108
330
1E
100
AcDbEntity
  8
IMAGE
100
AcDbLine
 10
1.934933212244448
 20
5.356233540214777
 30
0.0
 11
1.934933212244448
 21
5.272320510896943
 31
0.0
  0
LINE
  5
109
330
1E
100
AcDbEntity
  8
IMAGE
100
AcDbLine
 10
1.913659155958984
 20
5.356233540214777
 30
0.0
 11
1.913659155958984
 21
5.272320510896943
 31
0.0
  0
LINE
  5
10A
330
1E
100
AcDbEntity
  8
IMAGE
100
AcDbLine
 10
1.892385099673519
 20
5.356233540214777
 30
0.0
 11
1.892385099673519
 21
5.272320510896943
 31
0.0
  0
LINE
  5
10B
330
1E
100
AcDbEntity
  8
IMAGE
100
AcDbLine
 10
1.998755381100838
 20
5.356233540214777
 30
0.0
 11
1.998755381100838
 21
5.272320510896943
 31
0.0
  0
LINE
  5
10C
330
1E
100
AcDbEntity
  8
IMAGE
100
AcDbLine
 10
2.020029437386302
 20
5.356233540214777
 30
0.0
 11
2.020029437386302
 21
5.272320510896943
 31
0.0
  0
LINE
  5
10D
330
1E
100
AcDbEntity
  8
IMAGE
100
AcDbLine
 10
2.041303493671764
 20
5.356233540214777
 30
0.0
 11
2.041303493671764
 21
5.272320510896943
 31
0.0
  0
LINE
  5
10E
330
1E
100
AcDbEntity
  8
IMAGE
100
AcDbLine
 10
2.062577549957231
 20
5.356233540214777
 30
0.0
 11
2.062577549957231
 21
5.272320510896943
 31
0.0
  0
TEXT
  5
10F
330
1E
100
AcDbEntity
  8
TEXT_LEADERS
100
AcDbText
 10
4.65344386021538
 20
4.293687974526217
 30
0.0
 40
0.125
  1
  INCH PVC SCH 80 NIPPLE
  7
SIMPLEX
100
AcDbText
  0
LINE
  5
110
330
1E
100
AcDbEntity
  8
IMAGE
100
AcDbLine
 10
1.885668159535871
 20
3.06882360741603
 30
0.0
 11
1.885668159535871
 21
2.881600764944865
 31
0.0
  0
LINE
  5
111
330
1E
100
AcDbEntity
  8
IMAGE
100
AcDbLine
 10
2.063654837790048
 20
3.06882360741603
 30
0.0
 11
2.063654837790048
 21
3.058050022014349
 31
0.0
  0
ARC
  5
112
330
1E
100
AcDbEntity
  8
IMAGE
100
AcDbCircle
 10
2.113713591049037
 20
3.058050022014349
 30
0.0
 40
0.0500587532589879
100
AcDbArc
 50
180.0
 51
270.0
  0
LINE
  5
113
330
1E
100
AcDbEntity
  8
IMAGE
100
AcDbLine
 10
2.194301857802882
 20
3.007991268755368
 30
0.0
 11
2.113713591049037
 21
3.007991268755363
 31
0.0
  0
LINE
  5
114
330
1E
100
AcDbEntity
  8
IMAGE
100
AcDbLine
 10
2.193516796521944
 20
2.83154201168588
 30
0.0
 11
1.935726912794862
 21
2.83154201168588
 31
0.0
  0
LWPOLYLINE
  5
115
330
1E
100
AcDbEntity
  8
IMAGE
100
AcDbPolyline
 90
        3
 70
     0
 43
0.0
 10
1.938010585085897
 20
2.835808293541612
 42
0.3551655385017884
 10
2.035933857130833
 20
2.920630147939733
 42
-0.3351985284943452
 10
2.106907344710911
 20
3.004865289906252
 42
-0.5949761929811071
  0
ARC
  5
11A
330
1E
100
AcDbEntity
  8
IMAGE
100
AcDbCircle
 10
1.935726912794862
 20
2.881600764944865
 30
0.0
 40
0.0500587532589879
100
AcDbArc
 50
180.0
 51
270.0
  0
LINE
  5
11B
330
1E
100
AcDbEntity
  8
IMAGE
100
AcDbLine
 10
2.193519433252455
 20
2.810317562330169
 30
0.0
 11
2.194376275786476
 21
3.026792415311325
 31
0.0
  0
ARC
  5
11C
330
1E
100
AcDbEntity
  8
IMAGE
100
AcDbCircle
 10
2.282937210739401
 20
-0.3566815106128343
 30
0.0
 40
3.16826114248061
100
AcDbArc
 50
61.49072909609822
 51
91.61727251044187
  0
ARC
  5
11D
330
1E
100
AcDbEntity
  8
IMAGE
100
AcDbCircle
 10
2.286559349102276
 20
-0.3326762456756387
 30
0.0
 40
3.360733164528165
100
AcDbArc
 50
61.30701558492705
 51
91.57178904497754
  0
LWPOLYLINE
  5
11E
330
1E
100
AcDbEntity
  8
IMAGE
100
AcDbPolyline
 90
        4
 70
     0
 43
0.0
 10
1.278477044874834
 20
2.559922362420703
 42
0.5107053858875276
 10
1.278477044874823
 20
2.449758680265453
 42
-0.5107053858875159
 10
1.278477044874834
 20
2.342689384496279
 42
-0.5397302473450178
 10
1.276422102477672
 20
2.451305873458488
 42
-0.5397302473450178
  0
TEXT
  5
124
330
1E
100
AcDbEntity
  8
TEXT_LEADERS
100
AcDbText
 10
4.65344386021538
 20
1.780943358355955
 30
0.0
 40
0.125
  1
PVC LATERAL PIPE
  7
SIMPLEX
100
AcDbText
  0
TEXT
  5
125
330
1E
100
AcDbEntity
  8
TEXT_LEADERS
100
AcDbText
 10
4.674910068512
 20
1.118389844893999
 30
0.0
 40
0.10000000149
  1

  7
SIMPLEX
100
AcDbText
  0
TEXT
  5
126
330
1E
100
AcDbEntity
  8
TEXT_LEADERS
100
AcDbText
 10
4.65344386021538
 20
3.242173581574679
 30
0.0
 40
0.125
  1
SWING PIPE, 12-INCH LENGTH:
  7
SIMPLEX
100
AcDbText
  0
TEXT
  5
127
330
1E
100
AcDbEntity
  8
TEXT_LEADERS
100
AcDbText
 10
4.65344386021538
 20
3.054583669160678
 30
0.0
 40
0.125
  1
  RAIN BIRD MODEL SP-100
  7
SIMPLEX
100
AcDbText
  0
ARC
  5
128
330
1E
100
AcDbEntity
  8
IMAGE
100
AcDbCircle
 10
3.968287211734939
 20
2.453323365886706
 30
0.0
 40
0.116211661910035
100
AcDbArc
 50
202.3302578892593
 51
100.5273986155574
  0
ARC
  5
129
330
1E
100
AcDbEntity
  8
IMAGE
100
AcDbCircle
 10
3.968287211734939
 20
2.453323365886706
 30
0.0
 40
0.0899305478958117
100
AcDbArc
 50
234.4756814862676
 51
62.64469113840124
  0
LINE
  5
12A
330
1E
100
AcDbEntity
  8
IMAGE
100
AcDbLine
 10
4.01490877002831
 20
2.530546512370581
 30
0.0
 11
3.89061397771972
 21
2.598382282462047
 31
0.0
  0
LINE
  5
12B
330
1E
100
AcDbEntity
  8
IMAGE
100
AcDbLine
 10
3.924574156449319
 20
2.374852474159137
 30
0.0
 11
3.803092094065677
 21
2.440212110490771
 31
0.0
  0
LINE
  5
12C
330
1E
100
AcDbEntity
  8
IMAGE
100
AcDbLine
 10
3.644081648987804
 20
2.342689384496279
 30
0.0
 11
1.278477044874834
 21
2.342689384496279
 31
0.0
  0
LINE
  5
12D
330
1E
100
AcDbEntity
  8
IMAGE
100
AcDbLine
 10
3.520394488692187
 20
2.559922362420703
 30
0.0
 11
1.278477044874834
 21
2.559922362420703
 31
0.0
  0
LWPOLYLINE
  5
12E
330
1E
100
AcDbEntity
  8
IMAGE
100
AcDbPolyline
 90
        4
 70
     0
 43
0.0
 10
4.589171180472904
 20
2.559922362420703
 42
-0.5107053858875276
 10
4.589171180472915
 20
2.449758680265453
 42
0.5107053858875159
 10
4.589171180472904
 20
2.342689384496279
 42
0.5397302473450178
 10
4.591226122870066
 20
2.451305873458488
 42
0.5397302473450178
  0
LINE
  5
134
330
1E
100
AcDbEntity
  8
IMAGE
100
AcDbLine
 10
4.289335148191671
 20
2.342689384496279
 30
0.0
 11
4.589171180472904
 21
2.342689384496279
 31
0.0
  0
LINE
  5
135
330
1E
100
AcDbEntity
  8
IMAGE
100
AcDbLine
 10
4.289335148191671
 20
2.559922362420703
 30
0.0
 11
4.589171180472904
 21
2.559922362420703
 31
0.0
  0
LINE
  5
136
330
1E
100
AcDbEntity
  8
IMAGE
100
AcDbLine
 10
3.968287211734939
 20
2.453323365886706
 30
0.0
 11
3.907113314176357
 21
2.425585070544411
 31
0.0
  0
LINE
  5
137
330
1E
100
AcDbEntity
  8
IMAGE
100
AcDbLine
 10
3.95794648141981
 20
2.522996549376336
 30
0.0
 11
3.968287211734939
 21
2.453323365886706
 31
0.0
  0
LINE
  5
138
330
1E
100
AcDbEntity
  8
IMAGE
100
AcDbLine
 10
3.644081648987804
 20
2.504291136089331
 30
0.0
 11
3.644081648987804
 21
2.298871689729283
 31
0.0
  0
LINE
  5
139
330
1E
100
AcDbEntity
  8
IMAGE
100
AcDbLine
 10
3.644081648987804
 20
2.298871689729283
 30
0.0
 11
4.289335148191671
 21
2.298871689729283
 31
0.0
  0
LINE
  5
13A
330
1E
100
AcDbEntity
  8
IMAGE
100
AcDbLine
 10
4.289335148191671
 20
2.298871689729283
 30
0.0
 11
4.289335148191671
 21
2.607369747975271
 31
0.0
  0
LINE
  5
13B
330
1E
100
AcDbEntity
  8
IMAGE
100
AcDbLine
 10
3.795151274900526
 20
2.427395947200766
 30
0.0
 11
3.900101421075053
 21
2.615375549176904
 31
0.0
  0
LINE
  5
13C
330
1E
100
AcDbEntity
  8
IMAGE
100
AcDbLine
 10
4.289335148191671
 20
2.607369747975271
 30
0.0
 11
3.895631733951966
 21
2.607369747975266
 31
0.0
  0
TEXT
  5
13D
330
1E
100
AcDbEntity
  8
TEXT_LEADERS
100
AcDbText
 10
4.65344386021538
 20
3.663482801582491
 30
0.0
 40
0.125
  1
  0.490-INCH BARB ELBOW:
  7
SIMPLEX
100
AcDbText
  0
TEXT
  5
13E
330
1E
100
AcDbEntity
  8
TEXT_LEADERS
100
AcDbText
 10
4.65344386021538
 20
3.851072713996491
 30
0.0
 40
0.125
  1
1/2-INCH FEMALE NPT x
  7
SIMPLEX
100
AcDbText
  0
TEXT
  5
13F
330
1E
100
AcDbEntity
  8
TEXT_LEADERS
100
AcDbText
 10
4.65344386021538
 20
3.475892889167491
 30
0.0
 40
0.125
  1
  RAIN BIRD MODEL SBFE-050
  7
SIMPLEX
100
AcDbText
  0
TEXT
  5
140
330
1E
100
AcDbEntity
  8
TEXT_LEADERS
100
AcDbText
 10
4.674910068512
 20
1.906340003014
 30
0.0
 40
0.10000000149
  1

  7
SIMPLEX
100
AcDbText
  0
TEXT
  5
141
330
1E
100
AcDbEntity
  8
TEXT_LEADERS
100
AcDbText
 10
4.65344386021538
 20
2.491969434636717
 30
0.0
 40
0.125
  1
  x .490-INCH BARB ELBOW:
  7
SIMPLEX
100
AcDbText
  0
TEXT
  5
142
330
1E
100
AcDbEntity
  8
TEXT_LEADERS
100
AcDbText
 10
4.65344386021538
 20
5.351860062292812
 30
0.0
 40
0.125
  1
PLANT MATERIAL
  7
SIMPLEX
100
AcDbText
  0
TEXT
  5
143
330
1E
100
AcDbEntity
  8
TEXT_LEADERS
100
AcDbText
 10
4.65344386021538
 20
4.106098062111216
 30
0.0
 40
0.125
  1
  (LENGTH AS REQUIRED)
  7
SIMPLEX
100
AcDbText
  0
ARC
  5
144
330
1E
100
AcDbEntity
  8
IMAGE
100
AcDbCircle
 10
3.115604373357593
 20
4.912386653355842
 30
0.0
 40
0.1738489379910888
100
AcDbArc
 50
116.0563205359582
 51
205.2549940243739
  0
ARC
  5
145
330
1E
100
AcDbEntity
  8
IMAGE
100
AcDbCircle
 10
2.882008355051739
 20
4.994393827749086
 30
0.0
 40
0.1738489379910888
100
AcDbArc
 50
296.0563205359582
 51
25.2549940243739
  0
ARC
  5
146
330
1E
100
AcDbEntity
  8
IMAGE
100
AcDbCircle
 10
2.665186643270774
 20
5.301936804218593
 30
0.0
 40
0.1738489379910888
100
AcDbArc
 50
116.0563205359582
 51
205.2549940243739
  0
ARC
  5
147
330
1E
100
AcDbEntity
  8
IMAGE
100
AcDbCircle
 10
2.43159062496492
 20
5.383943978611836
 30
0.0
 40
0.1738489379910888
100
AcDbArc
 50
296.0563205359582
 51
25.2549940243739
  0
ARC
  5
148
330
1E
100
AcDbEntity
  8
IMAGE
100
AcDbCircle
 10
2.961407312607151
 20
5.285705547932645
 30
0.0
 40
0.1738489379910888
100
AcDbArc
 50
116.0563205359582
 51
205.2549940243739
  0
ARC
  5
149
330
1E
100
AcDbEntity
  8
IMAGE
100
AcDbCircle
 10
2.727811294301297
 20
5.367712722325888
 30
0.0
 40
0.1738489379910888
100
AcDbArc
 50
296.0563205359582
 51
25.2549940243739
  0
ARC
  5
14A
330
1E
100
AcDbEntity
  8
IMAGE
100
AcDbCircle
 10
2.896482234396438
 20
5.070641402143834
 30
0.0
 40
0.1738489379910888
100
AcDbArc
 50
116.0563205359582
 51
205.2549940243739
  0
ARC
  5
14B
330
1E
100
AcDbEntity
  8
IMAGE
100
AcDbCircle
 10
2.662886216090584
 20
5.152648576537078
 30
0.0
 40
0.1738489379910888
100
AcDbArc
 50
296.0563205359582
 51
25.2549940243739
  0
ARC
  5
14C
330
1E
100
AcDbEntity
  8
IMAGE
100
AcDbCircle
 10
3.253570164555357
 20
4.83528818599759
 30
0.0
 40
0.1738489379910888
100
AcDbArc
 50
116.0563205359582
 51
205.2549940243739
  0
ARC
  5
14D
330
1E
100
AcDbEntity
  8
IMAGE
100
AcDbCircle
 10
3.019974146249505
 20
4.917295360390833
 30
0.0
 40
0.1738489379910888
100
AcDbArc
 50
296.0563205359582
 51
25.2549940243739
  0
ARC
  5
14E
330
1E
100
AcDbEntity
  8
IMAGE
100
AcDbCircle
 10
2.790978982304028
 20
4.729785020138928
 30
0.0
 40
0.1738489379910888
100
AcDbArc
 50
116.0563205359582
 51
205.2549940243739
  0
ARC
  5
14F
330
1E
100
AcDbEntity
  8
IMAGE
100
AcDbCircle
 10
2.557382963998175
 20
4.811792194532171
 30
0.0
 40
0.1738489379910888
100
AcDbArc
 50
296.0563205359582
 51
25.2549940243739
  0
ARC
  5
150
330
1E
100
AcDbEntity
  8
IMAGE
100
AcDbCircle
 10
2.815325886633047
 20
4.559356829136474
 30
0.0
 40
0.1738489379910888
100
AcDbArc
 50
116.0563205359582
 51
205.2549940243739
  0
ARC
  5
151
330
1E
100
AcDbEntity
  8
IMAGE
100
AcDbCircle
 10
2.581729868327193
 20
4.641364003529717
 30
0.0
 40
0.1738489379910888
100
AcDbArc
 50
296.0563205359582
 51
25.2549940243739
  0
ARC
  5
152
330
1E
100
AcDbEntity
  8
IMAGE
100
AcDbCircle
 10
3.001985486488846
 20
4.737900648281901
 30
0.0
 40
0.1738489379910888
100
AcDbArc
 50
116.0563205359582
 51
205.2549940243739
  0
ARC
  5
153
330
1E
100
AcDbEntity
  8
IMAGE
100
AcDbCircle
 10
2.768389468182992
 20
4.819907822675145
 30
0.0
 40
0.1738489379910888
100
AcDbArc
 50
296.0563205359582
 51
25.2549940243739
  0
ARC
  5
154
330
1E
100
AcDbEntity
  8
IMAGE
100
AcDbCircle
 10
3.295759600864116
 20
4.587317386824211
 30
0.0
 40
0.1738489379910888
100
AcDbArc
 50
143.5307656099477
 51
232.7294390983634
  0
ARC
  5
155
330
1E
100
AcDbEntity
  8
IMAGE
100
AcDbCircle
 10
3.050675062608626
 20
4.55230530993057
 30
0.0
 40
0.1738489379910888
100
AcDbArc
 50
323.5307656099477
 51
52.72943909836341
  0
ARC
  5
156
330
1E
100
AcDbEntity
  8
IMAGE
100
AcDbCircle
 10
3.344586452715203
 20
5.349016275701204
 30
0.0
 40
0.1738489379910888
100
AcDbArc
 50
143.5307656099477
 51
232.7294390983634
  0
ARC
  5
157
330
1E
100
AcDbEntity
  8
IMAGE
100
AcDbCircle
 10
3.099501914459716
 20
5.314004198807563
 30
0.0
 40
0.1738489379910888
100
AcDbArc
 50
323.5307656099477
 51
52.72943909836341
  0
ARC
  5
158
330
1E
100
AcDbEntity
  8
IMAGE
100
AcDbCircle
 10
2.543826082357339
 20
5.173239609037283
 30
0.0
 40
0.1738489379910888
100
AcDbArc
 50
143.5307656099477
 51
232.7294390983634
  0
ARC
  5
159
330
1E
100
AcDbEntity
  8
IMAGE
100
AcDbCircle
 10
2.29874154410185
 20
5.138227532143642
 30
0.0
 40
0.1738489379910888
100
AcDbArc
 50
323.5307656099477
 51
52.72943909836341
  0
ARC
  5
15A
330
1E
100
AcDbEntity
  8
IMAGE
100
AcDbCircle
 10
2.563356823097775
 20
4.577552016453992
 30
0.0
 40
0.1738489379910888
100
AcDbArc
 50
143.5307656099477
 51
232.7294390983634
  0
ARC
  5
15B
330
1E
100
AcDbEntity
  8
IMAGE
100
AcDbCircle
 10
2.318272284842286
 20
4.542539939560352
 30
0.0
 40
0.1738489379910888
100
AcDbArc
 50
323.5307656099477
 51
52.72943909836341
  0
ARC
  5
15C
330
1E
100
AcDbEntity
  8
IMAGE
100
AcDbCircle
 10
2.651245156429736
 20
4.968166831262707
 30
0.0
 40
0.1738489379910888
100
AcDbArc
 50
143.5307656099477
 51
232.7294390983634
  0
ARC
  5
15D
330
1E
100
AcDbEntity
  8
IMAGE
100
AcDbCircle
 10
2.406160618174247
 20
4.933154754369067
 30
0.0
 40
0.1738489379910888
100
AcDbArc
 50
323.5307656099477
 51
52.72943909836341
  0
ARC
  5
15E
330
1E
100
AcDbEntity
  8
IMAGE
100
AcDbCircle
 10
2.807491082353221
 20
5.104882016445757
 30
0.0
 40
0.1738489379910888
100
AcDbArc
 50
143.5307656099477
 51
232.7294390983634
  0
ARC
  5
15F
330
1E
100
AcDbEntity
  8
IMAGE
100
AcDbCircle
 10
2.562406544097733
 20
5.069869939552117
 30
0.0
 40
0.1738489379910888
100
AcDbArc
 50
323.5307656099477
 51
52.72943909836341
  0
ARC
  5
160
330
1E
100
AcDbEntity
  8
IMAGE
100
AcDbCircle
 10
3.159044415681066
 20
5.251362571999025
 30
0.0
 40
0.1738489379910888
100
AcDbArc
 50
143.5307656099477
 51
232.7294390983634
  0
ARC
  5
161
330
1E
100
AcDbEntity
  8
IMAGE
100
AcDbCircle
 10
2.913959877425576
 20
5.216350495105385
 30
0.0
 40
0.1738489379910888
100
AcDbArc
 50
323.5307656099477
 51
52.72943909836341
  0
ARC
  5
162
330
1E
100
AcDbEntity
  8
IMAGE
100
AcDbCircle
 10
3.110217563829976
 20
5.153708868296846
 30
0.0
 40
0.1738489379910888
100
AcDbArc
 50
143.5307656099477
 51
232.7294390983634
  0
ARC
  5
163
330
1E
100
AcDbEntity
  8
IMAGE
100
AcDbCircle
 10
2.865133025574486
 20
5.118696791403206
 30
0.0
 40
0.1738489379910888
100
AcDbArc
 50
323.5307656099477
 51
52.72943909836341
  0
ARC
  5
164
330
1E
100
AcDbEntity
  8
IMAGE
100
AcDbCircle
 10
3.032094600868231
 20
4.977932201632925
 30
0.0
 40
0.1738489379910888
100
AcDbArc
 50
143.5307656099477
 51
232.7294390983634
  0
ARC
  5
165
330
1E
100
AcDbEntity
  8
IMAGE
100
AcDbCircle
 10
2.787010062612744
 20
4.942920124739285
 30
0.0
 40
0.1738489379910888
100
AcDbArc
 50
323.5307656099477
 51
52.72943909836341
  0
ARC
  5
166
330
1E
100
AcDbEntity
  8
IMAGE
100
AcDbCircle
 10
2.895379415685182
 20
4.733797942377478
 30
0.0
 40
0.1738489379910888
100
AcDbArc
 50
143.5307656099477
 51
232.7294390983634
  0
ARC
  5
167
330
1E
100
AcDbEntity
  8
IMAGE
100
AcDbCircle
 10
2.650294877429694
 20
4.698785865483839
 30
0.0
 40
0.1738489379910888
100
AcDbArc
 50
323.5307656099477
 51
52.72943909836341
  0
ARC
  5
168
330
1E
100
AcDbEntity
  8
IMAGE
100
AcDbCircle
 10
2.690306637910607
 20
4.577552016453992
 30
0.0
 40
0.1738489379910888
100
AcDbArc
 50
143.5307656099477
 51
232.7294390983634
  0
ARC
  5
169
330
1E
100
AcDbEntity
  8
IMAGE
100
AcDbCircle
 10
2.445222099655118
 20
4.542539939560352
 30
0.0
 40
0.1738489379910888
100
AcDbArc
 50
323.5307656099477
 51
52.72943909836341
  0
ARC
  5
16A
330
1E
100
AcDbEntity
  8
IMAGE
100
AcDbCircle
 10
3.012563860127796
 20
4.558021275713556
 30
0.0
 40
0.1738489379910888
100
AcDbArc
 50
143.5307656099477
 51
232.7294390983634
  0
ARC
  5
16B
330
1E
100
AcDbEntity
  8
IMAGE
100
AcDbCircle
 10
2.767479321872308
 20
4.523009198819917
 30
0.0
 40
0.1738489379910888
100
AcDbArc
 50
323.5307656099477
 51
52.72943909836341
  0
ARC
  5
16C
330
1E
100
AcDbEntity
  8
IMAGE
100
AcDbCircle
 10
3.188340526791717
 20
4.616613497934864
 30
0.0
 40
0.1738489379910888
100
AcDbArc
 50
143.5307656099477
 51
232.7294390983634
  0
ARC
  5
16D
330
1E
100
AcDbEntity
  8
IMAGE
100
AcDbCircle
 10
2.94325598853623
 20
4.581601421041224
 30
0.0
 40
0.1738489379910888
100
AcDbArc
 50
323.5307656099477
 51
52.72943909836341
  0
ARC
  5
16E
330
1E
100
AcDbEntity
  8
IMAGE
100
AcDbCircle
 10
3.344586452715203
 20
4.968166831262707
 30
0.0
 40
0.1738489379910888
100
AcDbArc
 50
143.5307656099477
 51
232.7294390983634
  0
ARC
  5
16F
330
1E
100
AcDbEntity
  8
IMAGE
100
AcDbCircle
 10
3.099501914459716
 20
4.933154754369067
 30
0.0
 40
0.1738489379910888
100
AcDbArc
 50
323.5307656099477
 51
52.72943909836341
  0
ARC
  5
170
330
1E
100
AcDbEntity
  8
IMAGE
100
AcDbCircle
 10
2.914910156425619
 20
5.50526220162469
 30
0.0
 40
0.1738489379910888
100
AcDbArc
 50
143.5307656099477
 51
232.7294390983634
  0
ARC
  5
171
330
1E
100
AcDbEntity
  8
IMAGE
100
AcDbCircle
 10
2.669825618170129
 20
5.470250124731049
 30
0.0
 40
0.1738489379910888
100
AcDbArc
 50
323.5307656099477
 51
52.72943909836341
  0
ARC
  5
172
330
1E
100
AcDbEntity
  8
IMAGE
100
AcDbCircle
 10
3.051625341608669
 20
5.280658683109678
 30
0.0
 40
0.1738489379910888
100
AcDbArc
 50
143.5307656099477
 51
232.7294390983634
  0
ARC
  5
173
330
1E
100
AcDbEntity
  8
IMAGE
100
AcDbCircle
 10
2.80654080335318
 20
5.245646606216038
 30
0.0
 40
0.1738489379910888
100
AcDbArc
 50
323.5307656099477
 51
52.72943909836341
  0
ARC
  5
174
330
1E
100
AcDbEntity
  8
IMAGE
100
AcDbCircle
 10
2.543826082357339
 20
5.378312386811857
 30
0.0
 40
0.1738489379910888
100
AcDbArc
 50
143.5307656099477
 51
232.7294390983634
  0
ARC
  5
175
330
1E
100
AcDbEntity
  8
IMAGE
100
AcDbCircle
 10
2.29874154410185
 20
5.343300309918217
 30
0.0
 40
0.1738489379910888
100
AcDbArc
 50
323.5307656099477
 51
52.72943909836341
  0
ARC
  5
176
330
1E
100
AcDbEntity
  8
IMAGE
100
AcDbCircle
 10
3.337154647134027
 20
4.790680945021895
 30
0.0
 40
0.1738489379910888
100
AcDbArc
 50
159.7199718669747
 51
248.9186453553905
  0
ARC
  5
177
330
1E
100
AcDbEntity
  8
IMAGE
100
AcDbCircle
 10
3.111550359566021
 20
4.688725161217124
 30
0.0
 40
0.1738489379910888
100
AcDbArc
 50
339.7199718669747
 51
68.91864535539045
  0
ARC
  5
178
330
1E
100
AcDbEntity
  8
IMAGE
100
AcDbCircle
 10
3.171143350840323
 20
5.044580574647559
 30
0.0
 40
0.1738489379910888
100
AcDbArc
 50
159.7199718669747
 51
248.9186453553905
  0
ARC
  5
179
330
1E
100
AcDbEntity
  8
IMAGE
100
AcDbCircle
 10
2.945539063272317
 20
4.942624790842788
 30
0.0
 40
0.1738489379910888
100
AcDbArc
 50
339.7199718669747
 51
68.91864535539045
  0
ARC
  5
17A
330
1E
100
AcDbEntity
  8
IMAGE
100
AcDbCircle
 10
2.77076316566139
 20
4.985988352426252
 30
0.0
 40
0.1738489379910888
100
AcDbArc
 50
159.7199718669747
 51
248.9186453553905
  0
ARC
  5
17B
330
1E
100
AcDbEntity
  8
IMAGE
100
AcDbCircle
 10
2.545158878093385
 20
4.884032568621481
 30
0.0
 40
0.1738489379910888
100
AcDbArc
 50
339.7199718669747
 51
68.91864535539045
  0
ARC
  5
17C
330
1E
100
AcDbEntity
  8
IMAGE
100
AcDbCircle
 10
2.702405573069865
 20
4.819977056132549
 30
0.0
 40
0.1738489379910888
100
AcDbArc
 50
159.7199718669747
 51
248.9186453553905
  0
ARC
  5
17D
330
1E
100
AcDbEntity
  8
IMAGE
100
AcDbCircle
 10
2.476801285501861
 20
4.718021272327777
 30
0.0
 40
0.1738489379910888
100
AcDbArc
 50
339.7199718669747
 51
68.91864535539045
  0
ARC
  5
17E
330
1E
100
AcDbEntity
  8
IMAGE
100
AcDbCircle
 10
2.504223223211952
 20
4.95438925634712
 30
0.0
 40
0.1738489379910888
100
AcDbArc
 50
159.7199718669747
 51
248.9186453553905
  0
ARC
  5
17F
330
1E
100
AcDbEntity
  8
IMAGE
100
AcDbCircle
 10
2.278618935643947
 20
4.852433472542349
 30
0.0
 40
0.1738489379910888
100
AcDbArc
 50
339.7199718669747
 51
68.91864535539045
  0
ARC
  5
180
330
1E
100
AcDbEntity
  8
IMAGE
100
AcDbCircle
 10
2.77076316566139
 20
5.278949463532788
 30
0.0
 40
0.1738489379910888
100
AcDbArc
 50
159.7199718669747
 51
248.9186453553905
  0
ARC
  5
181
330
1E
100
AcDbEntity
  8
IMAGE
100
AcDbCircle
 10
2.545158878093385
 20
5.176993679728018
 30
0.0
 40
0.1738489379910888
100
AcDbArc
 50
339.7199718669747
 51
68.91864535539045
  0
ARC
  5
182
330
1E
100
AcDbEntity
  8
IMAGE
100
AcDbCircle
 10
3.09302038787858
 20
5.503552982047798
 30
0.0
 40
0.1738489379910888
100
AcDbArc
 50
159.7199718669747
 51
248.9186453553905
  0
ARC
  5
183
330
1E
100
AcDbEntity
  8
IMAGE
100
AcDbCircle
 10
2.867416100310574
 20
5.401597198243027
 30
0.0
 40
0.1738489379910888
100
AcDbArc
 50
339.7199718669747
 51
68.91864535539045
  0
ARC
  5
184
330
1E
100
AcDbEntity
  8
IMAGE
100
AcDbCircle
 10
2.946539832325312
 20
5.22035724131148
 30
0.0
 40
0.1738489379910888
100
AcDbArc
 50
159.7199718669747
 51
248.9186453553905
  0
ARC
  5
185
330
1E
100
AcDbEntity
  8
IMAGE
100
AcDbCircle
 10
2.720935544757308
 20
5.11840145750671
 30
0.0
 40
0.1738489379910888
100
AcDbArc
 50
339.7199718669747
 51
68.91864535539045
  0
ARC
  5
186
330
1E
100
AcDbEntity
  8
IMAGE
100
AcDbCircle
 10
3.278562424912719
 20
5.259418722792352
 30
0.0
 40
0.1738489379910888
100
AcDbArc
 50
159.7199718669747
 51
248.9186453553905
  0
ARC
  5
187
330
1E
100
AcDbEntity
  8
IMAGE
100
AcDbCircle
 10
3.052958137344715
 20
5.157462938987581
 30
0.0
 40
0.1738489379910888
100
AcDbArc
 50
339.7199718669747
 51
68.91864535539045
  0
ARC
  5
188
330
1E
100
AcDbEntity
  8
IMAGE
100
AcDbCircle
 10
3.09302038787858
 20
4.751619463541023
 30
0.0
 40
0.1738489379910888
100
AcDbArc
 50
159.7199718669747
 51
248.9186453553905
  0
ARC
  5
189
330
1E
100
AcDbEntity
  8
IMAGE
100
AcDbCircle
 10
2.867416100310574
 20
4.649663679736252
 30
0.0
 40
0.1738489379910888
100
AcDbArc
 50
339.7199718669747
 51
68.91864535539045
  0
ARC
  5
18A
330
1E
100
AcDbEntity
  8
IMAGE
100
AcDbCircle
 10
3.151612610099888
 20
4.829742426502766
 30
0.0
 40
0.1738489379910888
100
AcDbArc
 50
159.7199718669747
 51
248.9186453553905
  0
ARC
  5
18B
330
1E
100
AcDbEntity
  8
IMAGE
100
AcDbCircle
 10
2.926008322531882
 20
4.727786642697995
 30
0.0
 40
0.1738489379910888
100
AcDbArc
 50
339.7199718669747
 51
68.91864535539045
  0
ARC
  5
18C
330
1E
100
AcDbEntity
  8
IMAGE
100
AcDbCircle
 10
2.643813350848558
 20
5.210591870941263
 30
0.0
 40
0.1738489379910888
100
AcDbArc
 50
159.7199718669747
 51
248.9186453553905
  0
ARC
  5
18D
330
1E
100
AcDbEntity
  8
IMAGE
100
AcDbCircle
 10
2.418209063280553
 20
5.108636087136492
 30
0.0
 40
0.1738489379910888
100
AcDbArc
 50
339.7199718669747
 51
68.91864535539045
  0
ARC
  5
18E
330
1E
100
AcDbEntity
  8
IMAGE
100
AcDbCircle
 10
2.711439414678316
 20
4.6280050184265
 30
0.0
 40
0.1738489379910888
100
AcDbArc
 50
278.5307656099478
 51
7.729439098363569
  0
ARC
  5
18F
330
1E
100
AcDbEntity
  8
IMAGE
100
AcDbCircle
 10
2.909497630637664
 20
4.479461356456988
 30
0.0
 40
0.1738489379910888
100
AcDbArc
 50
98.53076560994793
 51
187.7294390983635
  0
ARC
  5
190
330
1E
100
AcDbEntity
  8
IMAGE
100
AcDbCircle
 10
2.330589970239818
 20
4.764720203609551
 30
0.0
 40
0.1738489379910888
100
AcDbArc
 50
278.5307656099478
 51
7.729439098363569
  0
ARC
  5
191
330
1E
100
AcDbEntity
  8
IMAGE
100
AcDbCircle
 10
2.528648186199167
 20
4.616176541640038
 30
0.0
 40
0.1738489379910888
100
AcDbArc
 50
98.53076560994793
 51
187.7294390983635
  0
ARC
  5
192
330
1E
100
AcDbEntity
  8
IMAGE
100
AcDbCircle
 10
3.072758118376376
 20
5.233457981380008
 30
0.0
 40
0.1738489379910888
100
AcDbArc
 50
278.5307656099478
 51
7.729439098363569
  0
ARC
  5
193
330
1E
100
AcDbEntity
  8
IMAGE
100
AcDbCircle
 10
3.270816334335725
 20
5.084914319410496
 30
0.0
 40
0.1738489379910888
100
AcDbArc
 50
98.53076560994793
 51
187.7294390983635
  0
ARC
  5
194
330
1E
100
AcDbEntity
  8
IMAGE
100
AcDbCircle
 10
2.691639433646653
 20
4.874267198251263
 30
0.0
 40
0.1738489379910888
100
AcDbArc
 50
339.7199718669747
 51
68.91864535539045
  0
ARC
  5
195
330
1E
100
AcDbEntity
  8
IMAGE
100
AcDbCircle
 10
2.917243721214657
 20
4.976222982056034
 30
0.0
 40
0.1738489379910888
100
AcDbArc
 50
159.7199718669747
 51
248.9186453553905
  0
ARC
  5
196
330
1E
100
AcDbEntity
  8
IMAGE
100
AcDbCircle
 10
2.594254970235702
 20
5.379938536933275
 30
0.0
 40
0.1738489379910888
100
AcDbArc
 50
278.5307656099478
 51
7.729439098363569
  0
ARC
  5
197
330
1E
100
AcDbEntity
  8
IMAGE
100
AcDbCircle
 10
2.792313186195049
 20
5.231394874963764
 30
0.0
 40
0.1738489379910888
100
AcDbArc
 50
98.53076560994793
 51
187.7294390983635
  0
ARC
  5
198
330
1E
100
AcDbEntity
  8
IMAGE
100
AcDbCircle
 10
3.06299274800616
 20
5.49712298137589
 30
0.0
 40
0.1738489379910888
100
AcDbArc
 50
278.5307656099478
 51
7.729439098363569
  0
ARC
  5
199
330
1E
100
AcDbEntity
  8
IMAGE
100
AcDbCircle
 10
3.261050963965507
 20
5.348579319406378
 30
0.0
 40
0.1738489379910888
100
AcDbArc
 50
98.53076560994793
 51
187.7294390983635
  0
ARC
  5
19A
330
1E
100
AcDbEntity
  8
IMAGE
100
AcDbCircle
 10
1.03758176924173
 20
4.912386653355842
 30
0.0
 40
0.1738489379910888
100
AcDbArc
 50
116.0563205359582
 51
205.2549940243739
  0
ARC
  5
19B
330
1E
100
AcDbEntity
  8
IMAGE
100
AcDbCircle
 10
0.8039857509358762
 20
4.994393827749086
 30
0.0
 40
0.1738489379910888
100
AcDbArc
 50
296.0563205359582
 51
25.2549940243739
  0
ARC
  5
19C
330
1E
100
AcDbEntity
  8
IMAGE
100
AcDbCircle
 10
0.5871640391549116
 20
5.301936804218593
 30
0.0
 40
0.1738489379910888
100
AcDbArc
 50
116.0563205359582
 51
205.2549940243739
  0
ARC
  5
19D
330
1E
100
AcDbEntity
  8
IMAGE
100
AcDbCircle
 10
0.3535680208490574
 20
5.383943978611836
 30
0.0
 40
0.1738489379910888
100
AcDbArc
 50
296.0563205359582
 51
25.2549940243739
  0
ARC
  5
19E
330
1E
100
AcDbEntity
  8
IMAGE
100
AcDbCircle
 10
0.8833847084912884
 20
5.285705547932645
 30
0.0
 40
0.1738489379910888
100
AcDbArc
 50
116.0563205359582
 51
205.2549940243739
  0
ARC
  5
19F
330
1E
100
AcDbEntity
  8
IMAGE
100
AcDbCircle
 10
0.6497886901854344
 20
5.367712722325888
 30
0.0
 40
0.1738489379910888
100
AcDbArc
 50
296.0563205359582
 51
25.2549940243739
  0
ARC
  5
1A0
330
1E
100
AcDbEntity
  8
IMAGE
100
AcDbCircle
 10
0.8184596302805761
 20
5.070641402143834
 30
0.0
 40
0.1738489379910888
100
AcDbArc
 50
116.0563205359582
 51
205.2549940243739
  0
ARC
  5
1A1
330
1E
100
AcDbEntity
  8
IMAGE
100
AcDbCircle
 10
0.5848636119747221
 20
5.152648576537078
 30
0.0
 40
0.1738489379910888
100
AcDbArc
 50
296.0563205359582
 51
25.2549940243739
  0
ARC
  5
1A2
330
1E
100
AcDbEntity
  8
IMAGE
100
AcDbCircle
 10
1.175547560439495
 20
4.83528818599759
 30
0.0
 40
0.1738489379910888
100
AcDbArc
 50
116.0563205359582
 51
205.2549940243739
  0
ARC
  5
1A3
330
1E
100
AcDbEntity
  8
IMAGE
100
AcDbCircle
 10
0.9419515421336425
 20
4.917295360390833
 30
0.0
 40
0.1738489379910888
100
AcDbArc
 50
296.0563205359582
 51
25.2549940243739
  0
ARC
  5
1A4
330
1E
100
AcDbEntity
  8
IMAGE
100
AcDbCircle
 10
0.7129563781881661
 20
4.729785020138928
 30
0.0
 40
0.1738489379910888
100
AcDbArc
 50
116.0563205359582
 51
205.2549940243739
  0
ARC
  5
1A5
330
1E
100
AcDbEntity
  8
IMAGE
100
AcDbCircle
 10
0.4793603598823133
 20
4.811792194532171
 30
0.0
 40
0.1738489379910888
100
AcDbArc
 50
296.0563205359582
 51
25.2549940243739
  0
ARC
  5
1A6
330
1E
100
AcDbEntity
  8
IMAGE
100
AcDbCircle
 10
0.7373032825171848
 20
4.559356829136474
 30
0.0
 40
0.1738489379910888
100
AcDbArc
 50
116.0563205359582
 51
205.2549940243739
  0
ARC
  5
1A7
330
1E
100
AcDbEntity
  8
IMAGE
100
AcDbCircle
 10
0.5037072642113307
 20
4.641364003529717
 30
0.0
 40
0.1738489379910888
100
AcDbArc
 50
296.0563205359582
 51
25.2549940243739
  0
ARC
  5
1A8
330
1E
100
AcDbEntity
  8
IMAGE
100
AcDbCircle
 10
0.9239628823729841
 20
4.737900648281901
 30
0.0
 40
0.1738489379910888
100
AcDbArc
 50
116.0563205359582
 51
205.2549940243739
  0
ARC
  5
1A9
330
1E
100
AcDbEntity
  8
IMAGE
100
AcDbCircle
 10
0.6903668640671301
 20
4.819907822675145
 30
0.0
 40
0.1738489379910888
100
AcDbArc
 50
296.0563205359582
 51
25.2549940243739
  0
ARC
  5
1AA
330
1E
100
AcDbEntity
  8
IMAGE
100
AcDbCircle
 10
1.217736996748253
 20
4.587317386824211
 30
0.0
 40
0.1738489379910888
100
AcDbArc
 50
143.5307656099477
 51
232.7294390983634
  0
ARC
  5
1AB
330
1E
100
AcDbEntity
  8
IMAGE
100
AcDbCircle
 10
0.972652458492764
 20
4.55230530993057
 30
0.0
 40
0.1738489379910888
100
AcDbArc
 50
323.5307656099477
 51
52.72943909836341
  0
ARC
  5
1AC
330
1E
100
AcDbEntity
  8
IMAGE
100
AcDbCircle
 10
0.6806416263862707
 20
5.524792942365125
 30
0.0
 40
0.1738489379910888
100
AcDbArc
 50
143.5307656099477
 51
232.7294390983634
  0
ARC
  5
1AD
330
1E
100
AcDbEntity
  8
IMAGE
100
AcDbCircle
 10
0.435557088130781
 20
5.489780865471486
 30
0.0
 40
0.1738489379910888
100
AcDbArc
 50
323.5307656099477
 51
52.72943909836341
  0
ARC
  5
1AE
330
1E
100
AcDbEntity
  8
IMAGE
100
AcDbCircle
 10
1.26656384859934
 20
5.349016275701204
 30
0.0
 40
0.1738489379910888
100
AcDbArc
 50
143.5307656099477
 51
232.7294390983634
  0
ARC
  5
1AF
330
1E
100
AcDbEntity
  8
IMAGE
100
AcDbCircle
 10
1.021479310343853
 20
5.314004198807563
 30
0.0
 40
0.1738489379910888
100
AcDbArc
 50
323.5307656099477
 51
52.72943909836341
  0
ARC
  5
1B0
330
1E
100
AcDbEntity
  8
IMAGE
100
AcDbCircle
 10
0.5732225523138732
 20
4.968166831262707
 30
0.0
 40
0.1738489379910888
100
AcDbArc
 50
143.5307656099477
 51
232.7294390983634
  0
ARC
  5
1B1
330
1E
100
AcDbEntity
  8
IMAGE
100
AcDbCircle
 10
0.3281380140583849
 20
4.933154754369067
 30
0.0
 40
0.1738489379910888
100
AcDbArc
 50
323.5307656099477
 51
52.72943909836341
  0
ARC
  5
1B2
330
1E
100
AcDbEntity
  8
IMAGE
100
AcDbCircle
 10
0.729468478237359
 20
5.104882016445757
 30
0.0
 40
0.1738489379910888
100
AcDbArc
 50
143.5307656099477
 51
232.7294390983634
  0
ARC
  5
1B3
330
1E
100
AcDbEntity
  8
IMAGE
100
AcDbCircle
 10
0.484383939981871
 20
5.069869939552117
 30
0.0
 40
0.1738489379910888
100
AcDbArc
 50
323.5307656099477
 51
52.72943909836341
  0
ARC
  5
1B4
330
1E
100
AcDbEntity
  8
IMAGE
100
AcDbCircle
 10
1.081021811565203
 20
5.251362571999025
 30
0.0
 40
0.1738489379910888
100
AcDbArc
 50
143.5307656099477
 51
232.7294390983634
  0
ARC
  5
1B5
330
1E
100
AcDbEntity
  8
IMAGE
100
AcDbCircle
 10
0.8359372733097137
 20
5.216350495105385
 30
0.0
 40
0.1738489379910888
100
AcDbArc
 50
323.5307656099477
 51
52.72943909836341
  0
ARC
  5
1B6
330
1E
100
AcDbEntity
  8
IMAGE
100
AcDbCircle
 10
1.032194959714113
 20
5.153708868296846
 30
0.0
 40
0.1738489379910888
100
AcDbArc
 50
143.5307656099477
 51
232.7294390983634
  0
ARC
  5
1B7
330
1E
100
AcDbEntity
  8
IMAGE
100
AcDbCircle
 10
0.7871104214586238
 20
5.118696791403206
 30
0.0
 40
0.1738489379910888
100
AcDbArc
 50
323.5307656099477
 51
52.72943909836341
  0
ARC
  5
1B8
330
1E
100
AcDbEntity
  8
IMAGE
100
AcDbCircle
 10
0.9540719967523692
 20
4.977932201632925
 30
0.0
 40
0.1738489379910888
100
AcDbArc
 50
143.5307656099477
 51
232.7294390983634
  0
ARC
  5
1B9
330
1E
100
AcDbEntity
  8
IMAGE
100
AcDbCircle
 10
0.708987458496882
 20
4.942920124739285
 30
0.0
 40
0.1738489379910888
100
AcDbArc
 50
323.5307656099477
 51
52.72943909836341
  0
ARC
  5
1BA
330
1E
100
AcDbEntity
  8
IMAGE
100
AcDbCircle
 10
0.8173568115693196
 20
4.733797942377478
 30
0.0
 40
0.1738489379910888
100
AcDbArc
 50
143.5307656099477
 51
232.7294390983634
  0
ARC
  5
1BB
330
1E
100
AcDbEntity
  8
IMAGE
100
AcDbCircle
 10
0.5722722733138318
 20
4.698785865483839
 30
0.0
 40
0.1738489379910888
100
AcDbArc
 50
323.5307656099477
 51
52.72943909836341
  0
ARC
  5
1BC
330
1E
100
AcDbEntity
  8
IMAGE
100
AcDbCircle
 10
0.6122840337947454
 20
4.577552016453992
 30
0.0
 40
0.1738489379910888
100
AcDbArc
 50
143.5307656099477
 51
232.7294390983634
  0
ARC
  5
1BD
330
1E
100
AcDbEntity
  8
IMAGE
100
AcDbCircle
 10
0.3671994955392559
 20
4.542539939560352
 30
0.0
 40
0.1738489379910888
100
AcDbArc
 50
323.5307656099477
 51
52.72943909836341
  0
ARC
  5
1BE
330
1E
100
AcDbEntity
  8
IMAGE
100
AcDbCircle
 10
0.9345412560119335
 20
4.558021275713556
 30
0.0
 40
0.1738489379910888
100
AcDbArc
 50
143.5307656099477
 51
232.7294390983634
  0
ARC
  5
1BF
330
1E
100
AcDbEntity
  8
IMAGE
100
AcDbCircle
 10
0.6894567177564455
 20
4.523009198819917
 30
0.0
 40
0.1738489379910888
100
AcDbArc
 50
323.5307656099477
 51
52.72943909836341
  0
ARC
  5
1C0
330
1E
100
AcDbEntity
  8
IMAGE
100
AcDbCircle
 10
1.110317922675855
 20
4.616613497934864
 30
0.0
 40
0.1738489379910888
100
AcDbArc
 50
143.5307656099477
 51
232.7294390983634
  0
ARC
  5
1C1
330
1E
100
AcDbEntity
  8
IMAGE
100
AcDbCircle
 10
0.8652333844203678
 20
4.581601421041224
 30
0.0
 40
0.1738489379910888
100
AcDbArc
 50
323.5307656099477
 51
52.72943909836341
  0
ARC
  5
1C2
330
1E
100
AcDbEntity
  8
IMAGE
100
AcDbCircle
 10
1.26656384859934
 20
4.968166831262707
 30
0.0
 40
0.1738489379910888
100
AcDbArc
 50
143.5307656099477
 51
232.7294390983634
  0
ARC
  5
1C3
330
1E
100
AcDbEntity
  8
IMAGE
100
AcDbCircle
 10
1.021479310343853
 20
4.933154754369067
 30
0.0
 40
0.1738489379910888
100
AcDbArc
 50
323.5307656099477
 51
52.72943909836341
  0
ARC
  5
1C4
330
1E
100
AcDbEntity
  8
IMAGE
100
AcDbCircle
 10
1.110317922675855
 20
5.593150534956651
 30
0.0
 40
0.1738489379910888
100
AcDbArc
 50
143.5307656099477
 51
232.7294390983634
  0
ARC
  5
1C5
330
1E
100
AcDbEntity
  8
IMAGE
100
AcDbCircle
 10
0.8652333844203678
 20
5.55813845806301
 30
0.0
 40
0.1738489379910888
100
AcDbArc
 50
323.5307656099477
 51
52.72943909836341
  0
ARC
  5
1C6
330
1E
100
AcDbEntity
  8
IMAGE
100
AcDbCircle
 10
0.8368875523097564
 20
5.50526220162469
 30
0.0
 40
0.1738489379910888
100
AcDbArc
 50
143.5307656099477
 51
232.7294390983634
  0
ARC
  5
1C7
330
1E
100
AcDbEntity
  8
IMAGE
100
AcDbCircle
 10
0.5918030140542669
 20
5.470250124731049
 30
0.0
 40
0.1738489379910888
100
AcDbArc
 50
323.5307656099477
 51
52.72943909836341
  0
ARC
  5
1C8
330
1E
100
AcDbEntity
  8
IMAGE
100
AcDbCircle
 10
0.973602737492807
 20
5.280658683109678
 30
0.0
 40
0.1738489379910888
100
AcDbArc
 50
143.5307656099477
 51
232.7294390983634
  0
ARC
  5
1C9
330
1E
100
AcDbEntity
  8
IMAGE
100
AcDbCircle
 10
0.7285181992373174
 20
5.245646606216038
 30
0.0
 40
0.1738489379910888
100
AcDbArc
 50
323.5307656099477
 51
52.72943909836341
  0
ARC
  5
1CA
330
1E
100
AcDbEntity
  8
IMAGE
100
AcDbCircle
 10
1.259132043018164
 20
4.790680945021895
 30
0.0
 40
0.1738489379910888
100
AcDbArc
 50
159.7199718669747
 51
248.9186453553905
  0
ARC
  5
1CB
330
1E
100
AcDbEntity
  8
IMAGE
100
AcDbCircle
 10
1.033527755450158
 20
4.688725161217124
 30
0.0
 40
0.1738489379910888
100
AcDbArc
 50
339.7199718669747
 51
68.91864535539045
  0
ARC
  5
1CC
330
1E
100
AcDbEntity
  8
IMAGE
100
AcDbCircle
 10
1.09312074672446
 20
5.044580574647559
 30
0.0
 40
0.1738489379910888
100
AcDbArc
 50
159.7199718669747
 51
248.9186453553905
  0
ARC
  5
1CD
330
1E
100
AcDbEntity
  8
IMAGE
100
AcDbCircle
 10
0.867516459156455
 20
4.942624790842788
 30
0.0
 40
0.1738489379910888
100
AcDbArc
 50
339.7199718669747
 51
68.91864535539045
  0
ARC
  5
1CE
330
1E
100
AcDbEntity
  8
IMAGE
100
AcDbCircle
 10
0.6927405615455282
 20
4.985988352426252
 30
0.0
 40
0.1738489379910888
100
AcDbArc
 50
159.7199718669747
 51
248.9186453553905
  0
ARC
  5
1CF
330
1E
100
AcDbEntity
  8
IMAGE
100
AcDbCircle
 10
0.4671362739775227
 20
4.884032568621481
 30
0.0
 40
0.1738489379910888
100
AcDbArc
 50
339.7199718669747
 51
68.91864535539045
  0
ARC
  5
1D0
330
1E
100
AcDbEntity
  8
IMAGE
100
AcDbCircle
 10
0.6243829689540032
 20
4.819977056132549
 30
0.0
 40
0.1738489379910888
100
AcDbArc
 50
159.7199718669747
 51
248.9186453553905
  0
ARC
  5
1D1
330
1E
100
AcDbEntity
  8
IMAGE
100
AcDbCircle
 10
0.3987786813859985
 20
4.718021272327777
 30
0.0
 40
0.1738489379910888
100
AcDbArc
 50
339.7199718669747
 51
68.91864535539045
  0
ARC
  5
1D2
330
1E
100
AcDbEntity
  8
IMAGE
100
AcDbCircle
 10
0.6927405615455282
 20
5.278949463532788
 30
0.0
 40
0.1738489379910888
100
AcDbArc
 50
159.7199718669747
 51
248.9186453553905
  0
ARC
  5
1D3
330
1E
100
AcDbEntity
  8
IMAGE
100
AcDbCircle
 10
0.4671362739775227
 20
5.176993679728018
 30
0.0
 40
0.1738489379910888
100
AcDbArc
 50
339.7199718669747
 51
68.91864535539045
  0
ARC
  5
1D4
330
1E
100
AcDbEntity
  8
IMAGE
100
AcDbCircle
 10
1.014997783762717
 20
5.503552982047798
 30
0.0
 40
0.1738489379910888
100
AcDbArc
 50
159.7199718669747
 51
248.9186453553905
  0
ARC
  5
1D5
330
1E
100
AcDbEntity
  8
IMAGE
100
AcDbCircle
 10
0.7893934961947123
 20
5.401597198243027
 30
0.0
 40
0.1738489379910888
100
AcDbArc
 50
339.7199718669747
 51
68.91864535539045
  0
ARC
  5
1D6
330
1E
100
AcDbEntity
  8
IMAGE
100
AcDbCircle
 10
0.8685172282094494
 20
5.22035724131148
 30
0.0
 40
0.1738489379910888
100
AcDbArc
 50
159.7199718669747
 51
248.9186453553905
  0
ARC
  5
1D7
330
1E
100
AcDbEntity
  8
IMAGE
100
AcDbCircle
 10
0.6429129406414454
 20
5.11840145750671
 30
0.0
 40
0.1738489379910888
100
AcDbArc
 50
339.7199718669747
 51
68.91864535539045
  0
ARC
  5
1D8
330
1E
100
AcDbEntity
  8
IMAGE
100
AcDbCircle
 10
1.200539820796856
 20
5.259418722792352
 30
0.0
 40
0.1738489379910888
100
AcDbArc
 50
159.7199718669747
 51
248.9186453553905
  0
ARC
  5
1D9
330
1E
100
AcDbEntity
  8
IMAGE
100
AcDbCircle
 10
0.9749355332288525
 20
5.157462938987581
 30
0.0
 40
0.1738489379910888
100
AcDbArc
 50
339.7199718669747
 51
68.91864535539045
  0
ARC
  5
1DA
330
1E
100
AcDbEntity
  8
IMAGE
100
AcDbCircle
 10
1.014997783762717
 20
4.751619463541023
 30
0.0
 40
0.1738489379910888
100
AcDbArc
 50
159.7199718669747
 51
248.9186453553905
  0
ARC
  5
1DB
330
1E
100
AcDbEntity
  8
IMAGE
100
AcDbCircle
 10
0.7893934961947123
 20
4.649663679736252
 30
0.0
 40
0.1738489379910888
100
AcDbArc
 50
339.7199718669747
 51
68.91864535539045
  0
ARC
  5
1DC
330
1E
100
AcDbEntity
  8
IMAGE
100
AcDbCircle
 10
1.073590005984025
 20
4.829742426502766
 30
0.0
 40
0.1738489379910888
100
AcDbArc
 50
159.7199718669747
 51
248.9186453553905
  0
ARC
  5
1DD
330
1E
100
AcDbEntity
  8
IMAGE
100
AcDbCircle
 10
0.8479857184160197
 20
4.727786642697995
 30
0.0
 40
0.1738489379910888
100
AcDbArc
 50
339.7199718669747
 51
68.91864535539045
  0
ARC
  5
1DE
330
1E
100
AcDbEntity
  8
IMAGE
100
AcDbCircle
 10
0.5853214874731324
 20
5.523083722788235
 30
0.0
 40
0.1738489379910888
100
AcDbArc
 50
159.7199718669747
 51
248.9186453553905
  0
ARC
  5
1DF
330
1E
100
AcDbEntity
  8
IMAGE
100
AcDbCircle
 10
0.3597171999051267
 20
5.421127938983464
 30
0.0
 40
0.1738489379910888
100
AcDbArc
 50
339.7199718669747
 51
68.91864535539045
  0
ARC
  5
1E0
330
1E
100
AcDbEntity
  8
IMAGE
100
AcDbCircle
 10
0.5657907467326958
 20
5.210591870941263
 30
0.0
 40
0.1738489379910888
100
AcDbArc
 50
159.7199718669747
 51
248.9186453553905
  0
ARC
  5
1E1
330
1E
100
AcDbEntity
  8
IMAGE
100
AcDbCircle
 10
0.3401864591646912
 20
5.108636087136492
 30
0.0
 40
0.1738489379910888
100
AcDbArc
 50
339.7199718669747
 51
68.91864535539045
  0
ARC
  5
1E2
330
1E
100
AcDbEntity
  8
IMAGE
100
AcDbCircle
 10
0.6334168105624534
 20
4.6280050184265
 30
0.0
 40
0.1738489379910888
100
AcDbArc
 50
278.5307656099478
 51
7.729439098363569
  0
ARC
  5
1E3
330
1E
100
AcDbEntity
  8
IMAGE
100
AcDbCircle
 10
0.831475026521802
 20
4.479461356456988
 30
0.0
 40
0.1738489379910888
100
AcDbArc
 50
98.53076560994793
 51
187.7294390983635
  0
ARC
  5
1E4
330
1E
100
AcDbEntity
  8
IMAGE
100
AcDbCircle
 10
0.9947355142605138
 20
5.233457981380008
 30
0.0
 40
0.1738489379910888
100
AcDbArc
 50
278.5307656099478
 51
7.729439098363569
  0
ARC
  5
1E5
330
1E
100
AcDbEntity
  8
IMAGE
100
AcDbCircle
 10
1.192793730219862
 20
5.084914319410496
 30
0.0
 40
0.1738489379910888
100
AcDbArc
 50
98.53076560994793
 51
187.7294390983635
  0
ARC
  5
1E6
330
1E
100
AcDbEntity
  8
IMAGE
100
AcDbCircle
 10
0.613616829530791
 20
4.874267198251263
 30
0.0
 40
0.1738489379910888
100
AcDbArc
 50
339.7199718669747
 51
68.91864535539045
  0
ARC
  5
1E7
330
1E
100
AcDbEntity
  8
IMAGE
100
AcDbCircle
 10
0.8392211170987952
 20
4.976222982056034
 30
0.0
 40
0.1738489379910888
100
AcDbArc
 50
159.7199718669747
 51
248.9186453553905
  0
ARC
  5
1E8
330
1E
100
AcDbEntity
  8
IMAGE
100
AcDbCircle
 10
0.5162323661198397
 20
5.379938536933275
 30
0.0
 40
0.1738489379910888
100
AcDbArc
 50
278.5307656099478
 51
7.729439098363569
  0
ARC
  5
1E9
330
1E
100
AcDbEntity
  8
IMAGE
100
AcDbCircle
 10
0.7142905820791869
 20
5.231394874963764
 30
0.0
 40
0.1738489379910888
100
AcDbArc
 50
98.53076560994793
 51
187.7294390983635
  0
ARC
  5
1EA
330
1E
100
AcDbEntity
  8
IMAGE
100
AcDbCircle
 10
0.9849701438902974
 20
5.49712298137589
 30
0.0
 40
0.1738489379910888
100
AcDbArc
 50
278.5307656099478
 51
7.729439098363569
  0
ARC
  5
1EB
330
1E
100
AcDbEntity
  8
IMAGE
100
AcDbCircle
 10
1.183028359849644
 20
5.348579319406378
 30
0.0
 40
0.1738489379910888
100
AcDbArc
 50
98.53076560994793
 51
187.7294390983635
  0
LINE
  5
1EC
330
1E
100
AcDbEntity
  8
IMAGE
100
AcDbLine
 10
2.066230244108953
 20
4.434722531517663
 30
0.0
 11
3.445897044851363
 21
4.434722531517663
 31
0.0
  0
TEXT
  5
208
330
1E
100
AcDbEntity
  8
TEXT_LEADERS
100
AcDbText
 10
4.65344386021538
 20
2.679559347050717
 30
0.0
 40
0.125
  1
1/2-INCH MALE NPT
  7
SIMPLEX
100
AcDbText
  0
TEXT
  5
209
330
1E
100
AcDbEntity
  8
TEXT_LEADERS
100
AcDbText
 10
4.65344386021538
 20
2.304377138035717
 30
0.0
 40
0.125
  1
  RAIN BIRD MODEL SBE-050
  7
SIMPLEX
100
AcDbText
  0
TEXT
  5
20A
330
1E
100
AcDbEntity
  8
TEXT_LEADERS
100
AcDbText
 10
4.65344386021538
 20
2.023733844829015
 30
0.0
 40
0.125
  1
PVC SCH 40 TEE OR ELL
  7
SIMPLEX
100
AcDbText
  0
TEXT
  5
20B
330
1E
100
AcDbEntity
  8
TEXT_LEADERS
100
AcDbText
 10
4.65344386021538
 20
5.979490013122999
 30
0.0
 40
0.125
  1
  BUBBLER: RAIN BIRD 1300A-F
  7
SIMPLEX
100
AcDbText
  0
TEXT
  5
20C
330
1E
100
AcDbEntity
  8
TEXT_LEADERS
100
AcDbText
 10
4.65344386021538
 20
6.161270141602
 30
0.0
 40
0.125
  1
ADJUSTABLE FULL CIRCLE
  7
SIMPLEX
100
AcDbText
  0
TEXT
  5
20E
330
1E
100
AcDbEntity
  8
TEXT_BUBBLES
100
AcDbText
 10
5.616426107111863
 20
6.136587902472445
 30
0.0
 40
0.125
  1
  BUBBLER: RAIN BIRD 1300A-F
  7
SIMPLEX
100
AcDbText
  0
TEXT
  5
20F
330
1E
100
AcDbEntity
  8
TEXT_BUBBLES
100
AcDbText
 10
4.65344386
 20
2.979205169999989
 30
0.0
 40
0.125
  1

  7
SIMPLEX
100
AcDbText
  0
TEXT
  5
210
330
1E
100
AcDbEntity
  8
TEXT_BUBBLES
100
AcDbText
 10
4.65344386
 20
3.13098529999999
 30
0.0
 40
0.125
  1

  7
SIMPLEX
100
AcDbText
  0
TEXT
  5
211
330
1E
100
AcDbEntity
  8
TEXT_BUBBLES
100
AcDbText
 10
4.65344386
 20
3.434545559999989
 30
0.0
 40
0.125
  1

  7
SIMPLEX
100
AcDbText
  0
TEXT
  5
212
330
1E
100
AcDbEntity
  8
TEXT_BUBBLES
100
AcDbText
 10
5.616426106896483
 20
4.780513869021825
 30
0.0
 40
0.125
  1
  (LENGTH AS REQUIRED)
  7
SIMPLEX
100
AcDbText
  0
TEXT
  5
213
330
1E
100
AcDbEntity
  8
TEXT_BUBBLES
100
AcDbText
 10
5.616426106896483
 20
5.849048504007902
 30
0.0
 40
0.125
  1
PLANT MATERIAL
  7
SIMPLEX
100
AcDbText
  0
TEXT
  5
214
330
1E
100
AcDbEntity
  8
TEXT_BUBBLES
100
AcDbText
 10
5.616426106896483
 20
3.115106389750377
 30
0.0
 40
0.125
  1
1/2-INCH MALE NPT
  7
SIMPLEX
100
AcDbText
  0
TEXT
  5
215
330
1E
100
AcDbEntity
  8
TEXT_BUBBLES
100
AcDbText
 10
5.616426106896483
 20
4.334204791193435
 30
0.0
 40
0.125
  1
  0.490-INCH BARB ELBOW:
  7
SIMPLEX
100
AcDbText
  0
TEXT
  5
216
330
1E
100
AcDbEntity
  8
TEXT_BUBBLES
100
AcDbText
 10
4.65344386
 20
4.80056672999999
 30
0.0
 40
0.125
  1

  7
SIMPLEX
100
AcDbText
  0
TEXT
  5
217
330
1E
100
AcDbEntity
  8
TEXT_BUBBLES
100
AcDbText
 10
5.616426106896483
 20
4.515984921193436
 30
0.0
 40
0.125
  1
1/2-INCH FEMALE NPT x
  7
SIMPLEX
100
AcDbText
  0
TEXT
  5
218
330
1E
100
AcDbEntity
  8
TEXT_BUBBLES
100
AcDbText
 10
5.616426106896483
 20
3.908864401193436
 30
0.0
 40
0.125
  1
SWING PIPE, 12-INCH LENGTH:
  7
SIMPLEX
100
AcDbText
  0
TEXT
  5
219
330
1E
100
AcDbEntity
  8
TEXT_BUBBLES
100
AcDbText
 10
4.65344386
 20
4.193446209999989
 30
0.0
 40
0.125
  1

  7
SIMPLEX
100
AcDbText
  0
TEXT
  5
21A
330
1E
100
AcDbEntity
  8
TEXT_BUBBLES
100
AcDbText
 10
4.65344386
 20
3.73810581999999
 30
0.0
 40
0.125
  1

  7
SIMPLEX
100
AcDbText
  0
TEXT
  5
21B
330
1E
100
AcDbEntity
  8
TEXT_BUBBLES
100
AcDbText
 10
4.65344386
 20
5.40768725
 30
0.0
 40
0.125
  1

  7
SIMPLEX
100
AcDbText
  0
TEXT
  5
21C
330
1E
100
AcDbEntity
  8
TEXT_BUBBLES
100
AcDbText
 10
5.616426106896483
 20
5.489571764678582
 30
0.0
 40
0.125
  1
FINISH GRADE/TOP OF MULCH
  7
SIMPLEX
100
AcDbText
  0
TEXT
  5
21D
330
1E
100
AcDbEntity
  8
TEXT_BUBBLES
100
AcDbText
 10
12.485117467021
 20
5.934757240355271
 30
0.0
 40
0.10000000149
  1

  7
ROMANS
100
AcDbText
  0
TEXT
  5
21E
330
1E
100
AcDbEntity
  8
TEXT_BUBBLES
100
AcDbText
 10
12.485117467021
 20
3.760695465148272
 30
0.0
 40
0.10000000149
  1

  7
ROMANS
100
AcDbText
  0
TEXT
  5
21F
330
1E
100
AcDbEntity
  8
TEXT_BUBBLES
100
AcDbText
 10
12.485117467021
 20
5.624176986754271
 30
0.0
 40
0.10000000149
  1

  7
ROMANS
100
AcDbText
  0
TEXT
  5
220
330
1E
100
AcDbEntity
  8
TEXT_BUBBLES
100
AcDbText
 10
24.79985400796626
 20
1.439569790948717
 30
0.0
 40
0.10000000149
  1

  7
ROMANS
100
AcDbText
  0
TEXT
  5
221
330
1E
100
AcDbEntity
  8
TEXT_BUBBLES
100
AcDbText
 10
24.79985400796626
 20
0.973670800317717
 30
0.0
 40
0.10000000149
  1

  7
ROMANS
100
AcDbText
  0
TEXT
  5
222
330
1E
100
AcDbEntity
  8
TEXT_BUBBLES
100
AcDbText
 10
24.79985400796626
 20
1.128970463861717
 30
0.0
 40
0.10000000149
  1

  7
ROMANS
100
AcDbText
  0
TEXT
  5
223
330
1E
100
AcDbEntity
  8
TEXT_BUBBLES
100
AcDbText
 10
24.79985400796626
 20
1.750169118036717
 30
0.0
 40
0.10000000149
  1

  7
ROMANS
100
AcDbText
  0
TEXT
  5
224
330
1E
100
AcDbEntity
  8
TEXT_BUBBLES
100
AcDbText
 10
24.79985400796626
 20
2.526667435754716
 30
0.0
 40
0.10000000149
  1

  7
ROMANS
100
AcDbText
  0
TEXT
  5
225
330
1E
100
AcDbEntity
  8
TEXT_BUBBLES
100
AcDbText
 10
24.79985400796626
 20
2.992566426385717
 30
0.0
 40
0.10000000149
  1

  7
ROMANS
100
AcDbText
  0
TEXT
  5
226
330
1E
100
AcDbEntity
  8
TEXT_BUBBLES
100
AcDbText
 10
24.79985400796626
 20
2.837266762842716
 30
0.0
 40
0.10000000149
  1

  7
ROMANS
100
AcDbText
  0
TEXT
  5
227
330
1E
100
AcDbEntity
  8
TEXT_BUBBLES
100
AcDbText
 10
12.485117467021
 20
3.139534957945271
 30
0.0
 40
0.10000000149
  1

  7
ROMANS
100
AcDbText
  0
TEXT
  5
228
330
1E
100
AcDbEntity
  8
TEXT_BUBBLES
100
AcDbText
 10
24.79985400796626
 20
2.216068108667716
 30
0.0
 40
0.10000000149
  1

  7
ROMANS
100
AcDbText
  0
TEXT
  5
229
330
1E
100
AcDbEntity
  8
TEXT_BUBBLES
100
AcDbText
 10
24.79985400796626
 20
2.060768445123716
 30
0.0
 40
0.10000000149
  1

  7
ROMANS
100
AcDbText
  0
TEXT
  5
22A
330
1E
100
AcDbEntity
  8
TEXT_BUBBLES
100
AcDbText
 10
12.485117467021
 20
4.847726352751271
 30
0.0
 40
0.10000000149
  1

  7
ROMANS
100
AcDbText
  0
TEXT
  5
22B
330
1E
100
AcDbEntity
  8
TEXT_BUBBLES
100
AcDbText
 10
12.485117467021
 20
6.400627620757271
 30
0.0
 40
0.10000000149
  1

  7
ROMANS
100
AcDbText
  0
TEXT
  5
22C
330
1E
100
AcDbEntity
  8
TEXT_BUBBLES
100
AcDbText
 10
12.485117467021
 20
5.158306606352272
 30
0.0
 40
0.10000000149
  1

  7
ROMANS
100
AcDbText
  0
TEXT
  5
22D
330
1E
100
AcDbEntity
  8
TEXT_BUBBLES
100
AcDbText
 10
12.485117467021
 20
4.071275718749271
 30
0.0
 40
0.10000000149
  1

  7
ROMANS
100
AcDbText
  0
TEXT
  5
22E
330
1E
100
AcDbEntity
  8
TEXT_BUBBLES
100
AcDbText
 10
12.485117467021
 20
3.450115211547271
 30
0.0
 40
0.10000000149
  1

  7
ROMANS
100
AcDbText
  0
TEXT
  5
230
330
1E
100
AcDbEntity
  8
TEXT_BUBBLES
100
AcDbText
 10
5.252387008801245
 20
6.299602815491708
 30
0.0
 40
0.125
  1
1
  7
ROMANS
 72
     4
 11
5.302982246896483
 21
6.362102815491708
 31
0.0
100
AcDbText
  0
TEXT
  5
231
330
1E
100
AcDbEntity
  8
TEXT_BUBBLES
100
AcDbText
 10
5.243458437372674
 20
5.872613231335892
 30
0.0
 40
0.125
  1
2
  7
ROMANS
 72
     4
 11
5.302982246896483
 21
5.935113231335892
 31
0.0
100
AcDbText
  0
TEXT
  5
233
330
1E
100
AcDbEntity
  8
TEXT_BUBBLES
100
AcDbText
 10
5.243458437372674
 20
5.488458215187321
 30
0.0
 40
0.125
  1
3
  7
ROMANS
 72
     4
 11
5.302982246896483
 21
5.550958215187321
 31
0.0
100
AcDbText
  0
TEXT
  5
235
330
1E
100
AcDbEntity
  8
TEXT_BUBBLES
100
AcDbText
 10
5.240482246896483
 20
5.141822030685023
 30
0.0
 40
0.125
  1
4
  7
ROMANS
 72
     4
 11
5.302982246896483
 21
5.204322030685023
 31
0.0
100
AcDbText
  0
TEXT
  5
237
330
1E
100
AcDbEntity
  8
TEXT_BUBBLES
100
AcDbText
 10
5.243458437372674
 20
4.521845429272656
 30
0.0
 40
0.125
  1
5
  7
ROMANS
 72
     4
 11
5.302982246896483
 21
4.584345429272656
 31
0.0
100
AcDbText
  0
TEXT
  5
239
330
1E
100
AcDbEntity
  8
TEXT_BUBBLES
100
AcDbText
 10
5.240482246896483
 20
3.899633956894223
 30
0.0
 40
0.125
  1
6
  7
ROMANS
 72
     4
 11
5.302982246896483
 21
3.962133956894223
 31
0.0
100
AcDbText
  0
TEXT
  5
23B
330
1E
100
AcDbEntity
  8
TEXT_BUBBLES
100
AcDbText
 10
5.243458437372674
 20
3.091833090651746
 30
0.0
 40
0.125
  1
8
  7
ROMANS
 72
     4
 11
5.302982246896483
 21
3.154333090651746
 31
0.0
100
AcDbText
  0
TEXT
  5
23D
330
1E
100
AcDbEntity
  8
TEXT_BUBBLES
100
AcDbText
 10
5.246434627848865
 20
2.461862484865096
 30
0.0
 40
0.125
  1
9
  7
ROMANS
 72
     4
 11
5.302982246896483
 21
2.524362484865096
 31
0.0
100
AcDbText
  0
TEXT
  5
23F
330
1E
100
AcDbEntity
  8
TEXT_BUBBLES
100
AcDbText
 10
5.243458437372674
 20
3.44956914350858
 30
0.0
 40
0.125
  1
7
  7
ROMANS
 72
     4
 11
5.302982246896483
 21
3.51206914350858
 31
0.0
100
AcDbText
  0
TEXT
  5
241
330
1E
100
AcDbEntity
  8
TEXT_BUBBLES
100
AcDbText
 10
3.956083991861839
 20
5.996283474781461
 30
0.0
 40
0.125
  1
1
  7
ROMANS
 72
     4
 11
4.006679229957077
 21
6.058783474781461
 31
0.0
100
AcDbText
  0
TEXT
  5
243
330
1E
100
AcDbEntity
  8
TEXT_BUBBLES
100
AcDbText
 10
3.947155420433268
 20
5.17254338690929
 30
0.0
 40
0.125
  1
2
  7
ROMANS
 72
     4
 11
4.006679229957077
 21
5.23504338690929
 31
0.0
100
AcDbText
  0
TEXT
  5
246
330
1E
100
AcDbEntity
  8
TEXT_BUBBLES
100
AcDbText
 10
3.947155420433268
 20
4.565286869568206
 30
0.0
 40
0.125
  1
3
  7
ROMANS
 72
     4
 11
4.006679229957077
 21
4.627786869568206
 31
0.0
100
AcDbText
  0
TEXT
  5
247
330
1E
100
AcDbEntity
  8
TEXT_BUBBLES
100
AcDbText
 10
3.944179229957077
 20
4.223361278666321
 30
0.0
 40
0.125
  1
4
  7
ROMANS
 72
     4
 11
4.006679229957077
 21
4.285861278666321
 31
0.0
100
AcDbText
  0
TEXT
  5
249
330
1E
100
AcDbEntity
  8
TEXT_BUBBLES
100
AcDbText
 10
3.947155420433268
 20
3.672698900885932
 30
0.0
 40
0.125
  1
5
  7
ROMANS
 72
     4
 11
4.006679229957077
 21
3.735198900885932
 31
0.0
100
AcDbText
  0
TEXT
  5
24B
330
1E
100
AcDbEntity
  8
TEXT_BUBBLES
100
AcDbText
 10
3.944179229957077
 20
3.072359698719698
 30
0.0
 40
0.125
  1
6
  7
ROMANS
 72
     4
 11
4.006679229957077
 21
3.134859698719698
 31
0.0
100
AcDbText
  0
TEXT
  5
25E
330
1E
100
AcDbEntity
  8
TEXT_BUBBLES
100
AcDbText
 10
2.812425968687867
 20
1.734817435589907
 30
0.0
 40
0.125
  1
7
  7
ROMANS
 72
     4
 11
2.871949778211676
 21
1.797317435589907
 31
0.0
100
AcDbText
  0
TEXT
  5
25F
330
1E
100
AcDbEntity
  8
TEXT_BUBBLES
100
AcDbText
 10
3.682921327458819
 20
1.734817435589907
 30
0.0
 40
0.125
  1
8
  7
ROMANS
 72
     4
 11
3.742445136982628
 21
1.797317435589907
 31
0.0
100
AcDbText
  0
TEXT
  5
261
330
1E
100
AcDbEntity
  8
TEXT_BUBBLES
100
AcDbText
 10
4.046871427773582
 20
1.734817435589907
 30
0.0
 40
0.125
  1
9
  7
ROMANS
 72
     4
 11
4.1034190468212
 21
1.797317435589907
 31
0.0
100
AcDbText
  0
LWPOLYLINE
  5
266
330
1E
100
AcDbEntity
  8
IMAGE
100
AcDbPolyline
 90
        2
 70
     0
 43
0.0
 10
1.99047161177377
 20
5.459371201600291
 10
1.99047161177377
 20
5.518204703292075
  0
LWPOLYLINE
  5
26A
330
1E
100
AcDbEntity
  8
IMAGE
100
AcDbPolyline
 90
        2
 70
     0
 43
0.0
 10
1.96449103785698
 20
5.459371201600291
 10
1.96449103785698
 20
5.518204703292075
  0
LWPOLYLINE
  5
26E
330
1E
100
AcDbEntity
  8
IMAGE
100
AcDbPolyline
 90
        2
 70
     0
 43
0.0
 10
1.954183430578639
 20
5.518204703292075
 10
2.000779219052111
 20
5.518204703292075
  0
LWPOLYLINE
  5
272
330
1E
100
AcDbEntity
  8
IMAGE
100
AcDbPolyline
 90
        3
 70
     0
 43
0.0
 10
2.000779219052111
 20
5.518204703292075
 42
0.3540482568877474
 10
1.993411501637272
 20
5.527505380406521
 42
0.0422326465341587
 10
1.982061257262403
 20
5.529351326943709
  0
LWPOLYLINE
  5
277
330
1E
100
AcDbEntity
  8
IMAGE
100
AcDbPolyline
 90
        3
 70
     0
 43
0.0
 10
1.979383659242544
 20
5.529351326943709
 10
1.979383659242544
 20
5.522537962833927
 10
1.978789403924932
 20
5.522537962833927
  0
LWPOLYLINE
  5
27C
330
1E
100
AcDbEntity
  8
IMAGE
100
AcDbPolyline
 90
        2
 70
     0
 43
0.0
 10
1.982061257262403
 20
5.529351326943709
 10
1.979383659242544
 20
5.529351326943709
  0
LWPOLYLINE
  5
280
330
1E
100
AcDbEntity
  8
IMAGE
100
AcDbPolyline
 90
        3
 70
     0
 43
0.0
 10
1.954183430578571
 20
5.518204703292075
 42
-0.3540482568877474
 10
1.96155114799341
 20
5.527505380406521
 42
-0.0422326465341587
 10
1.972901392368279
 20
5.529351326943709
  0
LWPOLYLINE
  5
285
330
1E
100
AcDbEntity
  8
IMAGE
100
AcDbPolyline
 90
        2
 70
     0
 43
0.0
 10
1.972901392368279
 20
5.529351326943709
 10
1.976168393984962
 20
5.529351326943709
  0
LWPOLYLINE
  5
289
330
1E
100
AcDbEntity
  8
IMAGE
100
AcDbPolyline
 90
        3
 70
     0
 43
0.0
 10
1.976168393984962
 20
5.529351326943709
 10
1.976168393984962
 20
5.522537962833927
 10
1.978789403924933
 20
5.522537962833927
  0
LWPOLYLINE
  5
28E
330
1E
100
AcDbEntity
  8
IMAGE
100
AcDbPolyline
 90
        2
 70
     0
 43
0.0
 10
1.96449103785698
 20
5.518204703292075
 10
1.99047161177377
 20
5.518204703292075
  0
LWPOLYLINE
  5
292
330
1E
100
AcDbEntity
  8
IMAGE
100
AcDbPolyline
 90
        2
 70
     0
 43
0.0
 10
1.96449103785698
 20
5.513764842705579
 10
1.99047161177377
 20
5.513764842705579
  0
LWPOLYLINE
  5
296
330
1E
100
AcDbEntity
  8
IMAGE
100
AcDbPolyline
 90
        2
 70
     0
 43
0.0
 10
1.96449103785698
 20
5.509324982119083
 10
1.99047161177377
 20
5.509324982119083
  0
LWPOLYLINE
  5
29A
330
1E
100
AcDbEntity
  8
IMAGE
100
AcDbPolyline
 90
        2
 70
     0
 43
0.0
 10
1.96449103785698
 20
5.504885121532587
 10
1.99047161177377
 20
5.504885121532587
  0
LWPOLYLINE
  5
29E
330
1E
100
AcDbEntity
  8
IMAGE
100
AcDbPolyline
 90
        2
 70
     0
 43
0.0
 10
1.96449103785698
 20
5.500445260946091
 10
1.99047161177377
 20
5.500445260946091
  0
LWPOLYLINE
  5
2A2
330
1E
100
AcDbEntity
  8
IMAGE
100
AcDbPolyline
 90
        2
 70
     0
 43
0.0
 10
1.96449103785698
 20
5.496005400359595
 10
1.99047161177377
 20
5.496005400359595
  0
LWPOLYLINE
  5
2A6
330
1E
100
AcDbEntity
  8
IMAGE
100
AcDbPolyline
 90
        2
 70
     0
 43
0.0
 10
1.96449103785698
 20
5.491565539773099
 10
1.99047161177377
 20
5.491565539773099
  0
LWPOLYLINE
  5
2AA
330
1E
100
AcDbEntity
  8
IMAGE
100
AcDbPolyline
 90
        2
 70
     0
 43
0.0
 10
1.96449103785698
 20
5.487125679186603
 10
1.99047161177377
 20
5.487125679186603
  0
LWPOLYLINE
  5
2AE
330
1E
100
AcDbEntity
  8
IMAGE
100
AcDbPolyline
 90
        2
 70
     0
 43
0.0
 10
1.96449103785698
 20
5.482685818600107
 10
1.99047161177377
 20
5.482685818600107
  0
LWPOLYLINE
  5
2B2
330
1E
100
AcDbEntity
  8
IMAGE
100
AcDbPolyline
 90
        2
 70
     0
 43
0.0
 10
1.96449103785698
 20
5.478245958013611
 10
1.99047161177377
 20
5.478245958013611
  0
LWPOLYLINE
  5
2B6
330
1E
100
AcDbEntity
  8
IMAGE
100
AcDbPolyline
 90
        2
 70
     0
 43
0.0
 10
1.96449103785698
 20
5.473806097427115
 10
1.99047161177377
 20
5.473806097427115
  0
LWPOLYLINE
  5
2BA
330
1E
100
AcDbEntity
  8
IMAGE
100
AcDbPolyline
 90
        2
 70
     0
 43
0.0
 10
1.96449103785698
 20
5.464926376254124
 10
1.99047161177377
 20
5.464926376254124
  0
LWPOLYLINE
  5
2BE
330
1E
100
AcDbEntity
  8
IMAGE
100
AcDbPolyline
 90
        2
 70
     0
 43
0.0
 10
1.96449103785698
 20
5.469366236840619
 10
1.99047161177377
 20
5.469366236840619
  0
LWPOLYLINE
  5
2C2
330
1E
100
AcDbEntity
  8
IMAGE
100
AcDbPolyline
 90
        2
 70
     0
 43
0.0
 10
1.96449103785698
 20
5.460486515667628
 10
1.99047161177377
 20
5.460486515667628
  0
LINE
  5
2C6
330
1E
100
AcDbEntity
  8
IMAGE
  6
ByBlock
100
AcDbLine
 10
1.751989310899084
 20
5.458764537478583
 30
0.0
 11
1.353726253374118
 21
5.458764537478583
 31
0.0
  0
LINE
  5
2C7
330
1E
100
AcDbEntity
  8
IMAGE
  6
ByBlock
100
AcDbLine
 10
1.533726253374118
 20
5.278764537478584
 30
0.0
 11
1.533726253374118
 21
5.08663880276181
 31
0.0
  0
LINE
  5
2C8
330
1E
100
AcDbEntity
  8
IMAGE
  6
ByBlock
100
AcDbLine
 10
1.533726253374118
 20
4.614513068045038
 30
0.0
 11
1.533726253374118
 21
4.806638802761811
 31
0.0
  0
SOLID
  5
2C9
330
1E
100
AcDbEntity
  8
IMAGE
  6
ByBlock
100
AcDbTrace
 10
1.503726253374118
 20
5.278764537478584
 30
0.0
 11
1.563726253374118
 21
5.278764537478584
 31
0.0
 12
1.533726253374118
 22
5.458764537478583
 32
0.0
 13
1.533726253374118
 23
5.458764537478583
 33
0.0
  0
SOLID
  5
2CA
330
1E
100
AcDbEntity
  8
IMAGE
  6
ByBlock
100
AcDbTrace
 10
1.503726253374118
 20
4.614513068045038
 30
0.0
 11
1.563726253374118
 21
4.614513068045038
 31
0.0
 12
1.533726253374118
 22
4.434513068045038
 32
0.0
 13
1.533726253374118
 23
4.434513068045038
 33
0.0
  0
TEXT
  5
2CB
330
1E
100
AcDbEntity
  8
IMAGE
  6
ByBlock
100
AcDbText
 10
1.236107205755071
 20
4.88413880276181
 30
0.0
 40
0.125
  1
3" MIN
  7
SIMPLEX
 72
     1
 11
1.533726253374118
 21
4.94663880276181
 31
0.0
100
AcDbText
 73
     2
  0
TEXT
  5
2CD
330
1E
100
AcDbEntity
  8
TEXT_BUBBLES
100
AcDbText
 10
4.588362519113744
 20
5.929098772953555
 30
0.0
 40
0.10000000149
  1

  7
ROMANS
100
AcDbText
  0
TEXT
  5
2CE
330
1E
100
AcDbEntity
  8
TEXT_BUBBLES
100
AcDbText
 10
4.588362519113744
 20
3.755036997746555
 30
0.0
 40
0.10000000149
  1

  7
ROMANS
100
AcDbText
  0
TEXT
  5
2CF
330
1E
100
AcDbEntity
  8
TEXT_BUBBLES
100
AcDbText
 10
4.588362519113744
 20
5.618518519352554
 30
0.0
 40
0.10000000149
  1

  7
ROMANS
100
AcDbText
  0
TEXT
  5
2D0
330
1E
100
AcDbEntity
  8
TEXT_BUBBLES
100
AcDbText
 10
16.90309906005899
 20
1.433911323547
 30
0.0
 40
0.10000000149
  1

  7
ROMANS
100
AcDbText
  0
TEXT
  5
2D1
330
1E
100
AcDbEntity
  8
TEXT_BUBBLES
100
AcDbText
 10
16.90309906005899
 20
0.968012332916
 30
0.0
 40
0.10000000149
  1

  7
ROMANS
100
AcDbText
  0
TEXT
  5
2D2
330
1E
100
AcDbEntity
  8
TEXT_BUBBLES
100
AcDbText
 10
16.90309906005899
 20
1.12331199646
 30
0.0
 40
0.10000000149
  1

  7
ROMANS
100
AcDbText
  0
TEXT
  5
2D3
330
1E
100
AcDbEntity
  8
TEXT_BUBBLES
100
AcDbText
 10
16.90309906005899
 20
1.744510650635
 30
0.0
 40
0.10000000149
  1

  7
ROMANS
100
AcDbText
  0
TEXT
  5
2D4
330
1E
100
AcDbEntity
  8
TEXT_BUBBLES
100
AcDbText
 10
16.90309906005899
 20
2.521008968353
 30
0.0
 40
0.10000000149
  1

  7
ROMANS
100
AcDbText
  0
TEXT
  5
2D5
330
1E
100
AcDbEntity
  8
TEXT_BUBBLES
100
AcDbText
 10
16.90309906005899
 20
2.986907958984
 30
0.0
 40
0.10000000149
  1

  7
ROMANS
100
AcDbText
  0
TEXT
  5
2D6
330
1E
100
AcDbEntity
  8
TEXT_BUBBLES
100
AcDbText
 10
16.90309906005899
 20
2.831608295440999
 30
0.0
 40
0.10000000149
  1

  7
ROMANS
100
AcDbText
  0
TEXT
  5
2D7
330
1E
100
AcDbEntity
  8
TEXT_BUBBLES
100
AcDbText
 10
4.588362519113744
 20
3.133876490543554
 30
0.0
 40
0.10000000149
  1

  7
ROMANS
100
AcDbText
  0
TEXT
  5
2D8
330
1E
100
AcDbEntity
  8
TEXT_BUBBLES
100
AcDbText
 10
16.90309906005899
 20
2.210409641266
 30
0.0
 40
0.10000000149
  1

  7
ROMANS
100
AcDbText
  0
TEXT
  5
2D9
330
1E
100
AcDbEntity
  8
TEXT_BUBBLES
100
AcDbText
 10
16.90309906005899
 20
2.055109977722
 30
0.0
 40
0.10000000149
  1

  7
ROMANS
100
AcDbText
  0
TEXT
  5
2DA
330
1E
100
AcDbEntity
  8
TEXT_BUBBLES
100
AcDbText
 10
4.588362519113744
 20
4.842067885349554
 30
0.0
 40
0.10000000149
  1

  7
ROMANS
100
AcDbText
  0
TEXT
  5
2DB
330
1E
100
AcDbEntity
  8
TEXT_BUBBLES
100
AcDbText
 10
4.588362519113744
 20
6.394969153355554
 30
0.0
 40
0.10000000149
  1

  7
ROMANS
100
AcDbText
  0
TEXT
  5
2DC
330
1E
100
AcDbEntity
  8
TEXT_BUBBLES
100
AcDbText
 10
4.588362519113744
 20
5.152648138950555
 30
0.0
 40
0.10000000149
  1

  7
ROMANS
100
AcDbText
  0
TEXT
  5
2DD
330
1E
100
AcDbEntity
  8
TEXT_BUBBLES
100
AcDbText
 10
4.588362519113744
 20
4.065617251347554
 30
0.0
 40
0.10000000149
  1

  7
ROMANS
100
AcDbText
  0
TEXT
  5
2DE
330
1E
100
AcDbEntity
  8
TEXT_BUBBLES
100
AcDbText
 10
4.588362519113744
 20
3.444456744145555
 30
0.0
 40
0.10000000149
  1

  7
ROMANS
100
AcDbText
  0
TEXT
  5
2DF
330
1E
100
AcDbEntity
  8
TEXT_LEADERS
100
AcDbText
 10
4.841919898987
 20
4.539030075072999
 30
0.0
 40
0.10000000149
  1

  7
SIMPLEX
100
AcDbText
  0
TEXT
  5
2E0
330
1E
100
AcDbEntity
  8
TEXT_BUBBLES
100
AcDbText
 10
8.242199897765999
 20
0.107129439712
 30
0.0
 40
0.10000000149
  1

  7
SIMPLEX
100
AcDbText
  0
TEXT
  5
2E1
330
1E
100
AcDbEntity
  8
TEXT_BUBBLES
100
AcDbText
 10
8.242199897765999
 20
0.9404628872869999
 30
0.0
 40
0.10000000149
  1

  7
SIMPLEX
100
AcDbText
  0
TEXT
  5
2E2
330
1E
100
AcDbEntity
  8
TEXT_BUBBLES
100
AcDbText
 10
8.242199897765999
 20
0.6071295142170001
 30
0.0
 40
0.10000000149
  1

  7
SIMPLEX
100
AcDbText
  0
TEXT
  5
2E3
330
1E
100
AcDbEntity
  8
TEXT_BUBBLES
100
AcDbText
 10
8.242199897765999
 20
-1.559537649154999
 30
0.0
 40
0.10000000149
  1

  7
SIMPLEX
100
AcDbText
  0
TEXT
  5
2E4
330
1E
100
AcDbEntity
  8
TEXT_BUBBLES
100
AcDbText
 10
8.242199897765999
 20
-1.226204156876
 30
0.0
 40
0.10000000149
  1

  7
SIMPLEX
100
AcDbText
  0
TEXT
  5
2E5
330
1E
100
AcDbEntity
  8
TEXT_BUBBLES
100
AcDbText
 10
8.242199897765999
 20
1.440463066101
 30
0.0
 40
0.10000000149
  1

  7
SIMPLEX
100
AcDbText
  0
LWPOLYLINE
  5
2E6
330
1E
100
AcDbEntity
  8
INSTRUCT-CALLOUT
100
AcDbPolyline
 90
        4
 70
     1
 43
0.0
 10
11.55911559487074
 20
10.14036489313047
 10
11.55911559487074
 20
8.708878871788231
 10
16.4199330211359
 20
8.708878871788231
 10
16.4199330211359
 20
10.14036489313047
  0
TEXT
  5
2EC
330
1E
100
AcDbEntity
  8
INSTRUCT-CALLOUT
100
AcDbText
 10
11.88970801481277
 20
10.19748038384767
 30
0.0
 40
0.125
  1
CHOOSING EQUIPMENT CALLOUT METHOD
  7
ROMANS
100
AcDbText
  0
TEXT
  5
2ED
330
1E
100
AcDbEntity
  8
INSTRUCT-CALLOUT
100
AcDbText
 10
11.65695824576605
 20
9.82336932037279
 30
0.0
 40
0.125
  1
CHOOSE EITHER LEADERS OR BUBBLE CALLOUTS
  7
ROMANS
100
AcDbText
  0
TEXT
  5
2EE
330
1E
100
AcDbEntity
  8
INSTRUCT-CALLOUT
100
AcDbText
 10
11.65695824576605
 20
9.631469276885791
 30
0.0
 40
0.125
  1
BY TURNING ON THE APPROPRIATE LAYER:
  7
ROMANS
100
AcDbText
  0
TEXT
  5
2EF
330
1E
100
AcDbEntity
  8
INSTRUCT-CALLOUT
100
AcDbText
 10
12.09330197802887
 20
9.324451982410613
 30
0.0
 40
0.125
  1
TEXT_LEADERS         TEXT_BUBBLES
  7
ROMANS
100
AcDbText
  0
LINE
  5
2F0
330
1E
100
AcDbEntity
  8
INSTRUCT-CALLOUT
100
AcDbLine
 10
12.40042662998566
 20
9.071980728708998
 30
0.0
 11
12.53669517584429
 21
9.071980728708998
 31
0.0
  0
LINE
  5
2F1
330
1E
100
AcDbEntity
  8
INSTRUCT-CALLOUT
100
AcDbLine
 10
12.11265621550734
 20
8.952229026902719
 30
0.0
 11
12.40042662998566
 21
9.071980728708998
 31
0.0
  0
SOLID
  5
2F2
330
1E
100
AcDbEntity
  8
INSTRUCT-CALLOUT
100
AcDbTrace
 10
12.19804221304767
 20
8.955267352764606
 30
0.0
 11
12.17499032815593
 21
9.010662394085452
 31
0.0
 12
12.02033114663926
 22
8.913809218749831
 32
0.0
 13
12.02033114663926
 23
8.913809218749831
 33
0.0
  0
TEXT
  5
2F3
330
1E
100
AcDbEntity
  8
INSTRUCT-CALLOUT
100
AcDbText
 10
12.56266991286142
 20
9.007230119315099
 30
0.0
 40
0.125
  1
ITEM 1
  7
ROMANS
100
AcDbText
  0
SOLID
  5
2F4
330
1E
100
AcDbEntity
  8
INSTRUCT-CALLOUT
100
AcDbTrace
 10
14.34051154109709
 20
8.968693387316003
 30
0.0
 11
14.35631383475143
 21
8.910811719101776
 31
0.0
 12
14.17476768328157
 22
8.892345672245875
 32
0.0
 13
14.17476768328157
 23
8.892345672245875
 33
0.0
  0
LINE
  5
2F5
330
1E
100
AcDbEntity
  8
INSTRUCT-CALLOUT
100
AcDbLine
 10
14.27123713030528
 20
8.918682828336438
 30
0.0
 11
14.52711854723013
 21
8.988541099801057
 31
0.0
  0
TEXT
  5
2F6
330
1E
100
AcDbEntity
  8
INSTRUCT-CALLOUT
100
AcDbText
 10
14.59711011791454
 20
8.958962544914262
 30
0.0
 40
0.125
  1
1
  7
ROMANS
 72
     4
 11
14.64770535600977
 21
9.021462544914262
 31
0.0
100
AcDbText
  0
CIRCLE
  5
2F7
330
1E
100
AcDbEntity
  8
INSTRUCT-CALLOUT
100
AcDbCircle
 10
14.64770535600977
 20
9.021462544914262
 30
0.0
 40
0.125
  0
TEXT
  5
2F8
330
1E
100
AcDbEntity
  8
INSTRUCT-CALLOUT
100
AcDbText
 10
11.59814294208784
 20
8.32765081505282
 30
0.0
 40
0.125
  1
LAYER "INSTRUCT-CALLOUT".
  7
ROMANS
100
AcDbText
  0
TEXT
  5
2F9
330
1E
100
AcDbEntity
  8
INSTRUCT-CALLOUT
100
AcDbText
 10
11.59814294208784
 20
8.519550858540819
 30
0.0
 40
0.125
  1
TO TURN OFF THIS INSTRUCTION BOX, TURN OFF
  7
ROMANS
100
AcDbText
  0
TEXT
  5
2FA
330
1E
100
AcDbEntity
  8
TEXT_LEADERS
100
AcDbText
 10
4.65344386021538
 20
4.481432363655491
 30
0.0
 40
0.125
  1
UV RADIATION RESISTANT 1/2
  7
SIMPLEX
100
AcDbText
  0
TEXT
  5
2FB
330
1E
100
AcDbEntity
  8
TEXT_BUBBLES
100
AcDbText
 10
5.616426106896483
 20
4.962293999021825
 30
0.0
 40
0.125
  1
  INCH PVC SCH 80 NIPPLE
  7
SIMPLEX
100
AcDbText
  0
INSERT
  5
31A
330
1E
100
AcDbEntity
  8
TITLE
 62
    42
100
AcDbBlockReference
 66
     1
  2
TITLBLK
 10
0.6064423705144844
 20
0.8842270964783676
 30
0.0
  0
ATTRIB
  5
31B
330
31A
100
AcDbEntity
  8
TITLE
100
AcDbText
 10
1.231442370514484
 20
0.9842270964783672
 30
0.0
 40
0.2
  1
ADJUSTABLE FULL CIRCLE BUBBLER
  7
L200
100
AcDbAttribute
  2
TITLE2
 70
     0
  0
ATTRIB
  5
31C
330
31A
100
AcDbEntity
  8
TITLE
100
AcDbText
 10
0.5055556038023425
 20
0.7842270964783676
 30
0.0
 40
0.2
  1
D
  7
L200
 72
     4
 11
0.6064423705144844
 21
0.8842270964783676
 31
0.0
100
AcDbAttribute
  2
#
 70
     0
  0
ATTRIB
  5
31D
330
31A
100
AcDbEntity
  8
TITLE
 62
     7
100
AcDbText
 10
1.231442370514484
 20
0.7005637793954893
 30
0.0
 40
0.1
  1
N.T.S.
  7
L100
100
AcDbAttribute
  2
SCALE
 70
     0
  0
ATTRIB
  5
31E
330
31A
100
AcDbEntity
  8
TITLE
100
AcDbText
 10
2.713645751168312
 20
0.5927927664583193
 30
0.0
 40
0.2
  1
1300A-F ON RISER
  7
L200
100
AcDbAttribute
  2
TITLE3
 70
     0
  0
ATTRIB
  5
31F
330
31A
100
AcDbEntity
  8
TITLE
 62
     7
100
AcDbText
 10
0.254287903119466
 20
0.0847116480207211
 30
0.0
 40
0.08
  1
N-1300A-F.DWG
  7
L80
 72
     2
 11
1.256192665024228
 21
0.0847116480207211
 31
0.0
100
AcDbAttribute
  2
DWG-NAME
 70
     0
  0
ATTRIB
  5
320
330
31A
100
AcDbEntity
  8
TITLE
 62
     7
100
AcDbText
 10
7.689595782347332
 20
0.9696027915446396
 30
0.0
 40
0.08
  1
1-08-04
  7
L80
 72
     2
 11
8.261024353775903
 21
0.9696027915446396
 31
0.0
100
AcDbAttribute
  2
REVISED
 70
     0
  0
ATTRIB
  5
321
330
31A
100
AcDbEntity
  8
TITLE
100
AcDbText
 10
1.231442370514484
 20
1.34371230274675
 30
0.0
 40
0.2
  1

  7
L200
100
AcDbAttribute
  2
TITLE1
 70
     0
  0
ATTRIB
  5
322
330
31A
100
AcDbEntity
  8
TITLE
100
AcDbText
 10
2.713645751168312
 20
0.2692560808167741
 30
0.0
 40
0.2
  1

  7
L200
100
AcDbAttribute
  2
TITLE4
 70
     0
  0
SEQEND
  5
323
330
31A
100
AcDbEntity
  8
TEXT_BUBBLES
 62
    40
  0
LWPOLYLINE
  5
324
330
1E
100
AcDbEntity
  8
IMAGE
100
AcDbPolyline
 90
        4
 70
     1
 43
0.0
 10
0.0
 20
0.0
 10
16.48999999999999
 20
0.0
 10
16.48999999999999
 20
10.44
 10
0.0
 20
10.44
  0
HATCH
  5
330
330
1E
100
AcDbEntity
  8
IMAGE
100
AcDbHatch
 10
0.0
 20
0.0
 30
0.0
210
0.0
220
0.0
230
1.0
  2
EARTH
 70
     0
 71
     0
 91
        2
 92
        1
 93
        8
 72
     1
 10
0.3970853923052735
 20
4.434722531517663
 11
0.6488403388569976
 21
4.216054315706449
 72
     1
 10
0.6488403388569976
 20
4.216054315706449
 11
0.8553530104611752
 21
4.136328475166755
 72
     1
 10
0.8553530104611752
 20
4.136328475166755
 11
1.198622055780525
 21
4.107649937518266
 72
     1
 10
1.198622055780525
 20
4.107649937518266
 11
1.480708446265101
 21
4.082861401031596
 72
     1
 10
1.480708446265101
 20
4.082861401031596
 11
1.820119701234646
 21
4.082861401031597
 72
     1
 10
1.820119701234646
 20
4.082861401031597
 11
1.888732405521801
 21
4.082861401031597
 72
     1
 10
1.888732405521801
 20
4.082861401031597
 11
1.8887324055218
 21
4.434316817793371
 72
     1
 10
1.8887324055218
 20
4.434316817793371
 11
0.3970853923052735
 21
4.434722531517663
 97
        0
 92
        1
 93
        8
 72
     1
 10
3.190214596629339
 20
4.434722531517663
 11
3.171347685268052
 21
4.359287077661453
 72
     1
 10
3.171347685268052
 20
4.359287077661453
 11
3.084519057404204
 21
4.212822924440966
 72
     1
 10
3.084519057404204
 20
4.212822924440966
 11
2.958791708629871
 21
4.168844645730526
 72
     1
 10
2.958791708629871
 20
4.168844645730526
 11
2.65022469710313
 21
4.138000402287724
 72
     1
 10
2.65022469710313
 20
4.138000402287724
 11
2.172870143692537
 21
4.096200588519946
 72
     1
 10
2.172870143692537
 20
4.096200588519946
 11
2.066230244108953
 21
4.096200588519946
 72
     1
 10
2.066230244108953
 20
4.096200588519946
 11
2.066230244108953
 21
4.434722531517663
 72
     1
 10
2.066230244108953
 20
4.434722531517663
 11
3.190214596629339
 21
4.434722531517663
 97
        0
 75
     0
 76
     1
 52
45.0
 41
0.75
 77
     0
 78
     6
 53
45.0
 43
0.0
 44
0.0
 45
0.0
 46
0.2651650429449553
 79
     2
 49
0.1875
 49
-0.1875
 53
45.0
 43
-0.0497184455521791
 44
0.0497184455521791
 45
0.0
 46
0.2651650429449553
 79
     2
 49
0.1875
 49
-0.1875
 53
45.0
 43
-0.0994368911043583
 44
0.0994368911043583
 45
0.0
 46
0.2651650429449553
 79
     2
 49
0.1875
 49
-0.1875
 53
135.0
 43
-0.0994368911043583
 44
0.1325825214724777
 45
-0.2651650429449553
 46
0.0
 79
     2
 49
0.1875
 49
-0.1875
 53
135.0
 43
-0.0497184455521791
 44
0.1823009670246568
 45
-0.2651650429449553
 46
0.0
 79
     2
 49
0.1875
 49
-0.1875
 53
135.0
 43
0.0
 44
0.2320194125768359
 45
-0.2651650429449553
 46
0.0
 79
     2
 49
0.1875
 49
-0.1875
 98
        1
 10
0.0
 20
0.0
  0
TEXT
  5
335
330
1E
100
AcDbEntity
  8
TEXT_BUBBLES
100
AcDbText
 10
5.616426107111863
 20
6.318368030951446
 30
0.0
 40
0.125
  1
ADJUSTABLE FULL CIRCLE
  7
SIMPLEX
100
AcDbText
  0
TEXT
  5
336
330
1E
100
AcDbEntity
  8
TEXT_BUBBLES
100
AcDbText
 10
5.616426106896483
 20
5.144074129021825
 30
0.0
 40
0.125
  1
UV RADIATION RESISTANT 1/2-
  7
SIMPLEX
100
AcDbText
  0
TEXT
  5
337
330
1E
100
AcDbEntity
  8
TEXT_BUBBLES
100
AcDbText
 10
5.616426106896483
 20
4.152424661193436
 30
0.0
 40
0.125
  1
  RAIN BIRD MODEL SBFE-050
  7
SIMPLEX
100
AcDbText
  0
TEXT
  5
338
330
1E
100
AcDbEntity
  8
TEXT_BUBBLES
100
AcDbText
 10
5.616426106896483
 20
3.727084271193435
 30
0.0
 40
0.125
  1
  RAIN BIRD MODEL SP-100
  7
SIMPLEX
100
AcDbText
  0
TEXT
  5
339
330
1E
100
AcDbEntity
  8
TEXT_BUBBLES
100
AcDbText
 10
5.616426106896483
 20
3.453524011193436
 30
0.0
 40
0.125
  1
PVC LATERAL PIPE
  7
SIMPLEX
100
AcDbText
  0
TEXT
  5
33A
330
1E
100
AcDbEntity
  8
TEXT_BUBBLES
100
AcDbText
 10
5.616426106896483
 20
2.933326259750377
 30
0.0
 40
0.125
  1
  x .490-INCH BARB ELBOW:
  7
SIMPLEX
100
AcDbText
  0
TEXT
  5
33B
330
1E
100
AcDbEntity
  8
TEXT_BUBBLES
100
AcDbText
 10
5.616426106896483
 20
2.751546129750377
 30
0.0
 40
0.125
  1
  RAIN BIRD MODEL SBE-050
  7
SIMPLEX
100
AcDbText
  0
LEADER
  5
357
330
1E
100
AcDbEntity
  8
TEXT_LEADERS
100
AcDbLeader
  3
Standard
 76
     3
 10
2.079809535548455
 20
5.370491810061046
 30
0.0
 10
4.39581375636395
 20
6.213448408872774
 30
0.0
 10
4.561397749640356
 20
6.213448408872774
 30
0.0
1001
ACAD
1000
DSTYLE
1002
{
1070
   147
1040
0.09
1070
    77
1070
     0
1070
   140
1040
0.125
1070
   279
1070
     2
1002
}
  0
LEADER
  5
35D
330
1E
100
AcDbEntity
  8
TEXT_LEADERS
100
AcDbLeader
  3
Standard
 76
     3
 10
3.267255830334614
 20
4.978784535754333
 30
0.0
 10
4.395813756363951
 20
5.389708321000604
 30
0.0
 10
4.561397749640356
 20
5.389708321000604
 30
0.0
1001
ACAD
1000
DSTYLE
1002
{
1070
   147
1040
0.09
1070
    77
1070
     0
1070
   140
1040
0.125
1070
   279
1070
     2
1002
}
  0
LEADER
  5
35F
330
1E
100
AcDbEntity
  8
TEXT_LEADERS
100
AcDbLeader
  3
Standard
 76
     3
 10
3.440435433070806
 20
4.434722531517662
 30
0.0
 10
4.395813756363951
 20
4.782451803659519
 30
0.0
 10
4.561397749640356
 20
4.782451803659519
 30
0.0
1001
ACAD
1000
DSTYLE
1002
{
1070
   147
1040
0.09
1070
    77
1070
     0
1070
   140
1040
0.125
1070
   279
1070
     2
1002
}
  0
LEADER
  5
360
330
1E
100
AcDbEntity
  8
TEXT_LEADERS
100
AcDbLeader
  3
Standard
 76
     3
 10
2.066230244108953
 20
3.675111775849679
 30
0.0
 10
4.395813756363951
 20
4.523010832547812
 30
0.0
 10
4.561397749640356
 20
4.523010832547812
 30
0.0
1001
ACAD
1000
DSTYLE
1002
{
1070
   147
1040
0.09
1070
    77
1070
     0
1070
   140
1040
0.125
1070
   279
1070
     2
1002
}
  0
LEADER
  5
361
330
1E
100
AcDbEntity
  8
TEXT_LEADERS
100
AcDbLeader
  3
Standard
 76
     3
 10
2.066230244108953
 20
3.041964778279113
 30
0.0
 10
4.395813756363951
 20
3.889863834977246
 30
0.0
 10
4.561397749640356
 20
3.889863834977246
 30
0.0
1001
ACAD
1000
DSTYLE
1002
{
1070
   147
1040
0.09
1070
    77
1070
     0
1070
   140
1040
0.125
1070
   279
1070
     2
1002
}
  0
LEADER
  5
362
330
1E
100
AcDbEntity
  8
TEXT_LEADERS
100
AcDbLeader
  3
Standard
 76
     3
 10
3.271767402968716
 20
2.880405218239678
 30
0.0
 10
4.395813756363951
 20
3.289524632811011
 30
0.0
 10
4.561397749640356
 20
3.289524632811011
 30
0.0
1001
ACAD
1000
DSTYLE
1002
{
1070
   147
1040
0.09
1070
    77
1070
     0
1070
   140
1040
0.125
1070
   279
1070
     2
1002
}
  0
LEADER
  5
363
330
1E
100
AcDbEntity
  8
TEXT_LEADERS
100
AcDbLeader
  3
Standard
 76
     3
 10
3.964008425988049
 20
2.558326147959168
 30
0.0
 10
4.395813756363951
 20
2.715490435213479
 30
0.0
 10
4.561397749640356
 20
2.715490435213479
 30
0.0
1001
ACAD
1000
DSTYLE
1002
{
1070
   147
1040
0.09
1070
    77
1070
     0
1070
   140
1040
0.125
1070
   279
1070
     2
1002
}
  0
LEADER
  5
364
330
1E
100
AcDbEntity
  8
TEXT_LEADERS
100
AcDbLeader
  3
Standard
 76
     3
 10
3.751738463373546
 20
2.298871689729283
 30
0.0
 10
4.39581375636395
 20
2.064447454454493
 30
0.0
 10
4.561397749640356
 20
2.064447454454493
 30
0.0
1001
ACAD
1000
DSTYLE
1002
{
1070
   147
1040
0.09
1070
    77
1070
     0
1070
   140
1040
0.125
1070
   279
1070
     2
1002
}
  0
LEADER
  5
365
330
1E
100
AcDbEntity
  8
TEXT_LEADERS
100
AcDbLeader
  3
Standard
 76
     3
 10
2.978848143976571
 20
2.342689384496279
 30
0.0
 10
4.395813756363951
 20
1.826956078608493
 30
0.0
 10
4.561397749640356
 20
1.826956078608493
 30
0.0
1001
ACAD
1000
DSTYLE
1002
{
1070
   147
1040
0.09
1070
    77
1070
     0
1070
   140
1040
0.125
1070
   279
1070
     2
1002
}
  0
LEADER
  5
36A
330
1E
100
AcDbEntity
  8
TEXT_BUBBLES
100
AcDbLeader
  3
Standard
 76
     2
 10
2.079809535548455
 20
5.398674722793447
 30
0.0
 10
3.850429196815623
 20
6.058783474781461
 30
0.0
1001
ACAD
1000
DSTYLE
1002
{
1070
   147
1040
0.09
1070
    77
1070
     0
1070
   140
1040
0.125
1070
   279
1070
     2
1002
}
  0
LEADER
  5
36B
330
1E
100
AcDbEntity
  8
TEXT_BUBBLES
100
AcDbLeader
  3
Standard
 76
     2
 10
3.265017428427907
 20
4.986334335755866
 30
0.0
 10
3.850429196815623
 20
5.23504338690929
 30
0.0
1001
ACAD
1000
DSTYLE
1002
{
1070
   147
1040
0.09
1070
    77
1070
     0
1070
   140
1040
0.125
1070
   279
1070
     2
1002
}
  0
LEADER
  5
36C
330
1E
100
AcDbEntity
  8
TEXT_BUBBLES
100
AcDbLeader
  3
Standard
 76
     2
 10
3.436026559633648
 20
4.434722531517663
 30
0.0
 10
3.850429196815623
 20
4.627786869568206
 30
0.0
1001
ACAD
1000
DSTYLE
1002
{
1070
   147
1040
0.09
1070
    77
1070
     0
1070
   140
1040
0.125
1070
   279
1070
     2
1002
}
  0
LEADER
  5
36D
330
1E
100
AcDbEntity
  8
TEXT_BUBBLES
100
AcDbLeader
  3
Standard
 76
     2
 10
2.066230244108953
 20
3.69115477753349
 30
0.0
 10
3.850429196815623
 20
4.285861278666321
 30
0.0
1001
ACAD
1000
DSTYLE
1002
{
1070
   147
1040
0.09
1070
    77
1070
     0
1070
   140
1040
0.125
1070
   279
1070
     2
1002
}
  0
LEADER
  5
36E
330
1E
100
AcDbEntity
  8
TEXT_BUBBLES
100
AcDbLeader
  3
Standard
 76
     2
 10
2.070901102706537
 20
3.032108364014762
 30
0.0
 10
3.850429196815623
 20
3.735198900885932
 30
0.0
1001
ACAD
1000
DSTYLE
1002
{
1070
   147
1040
0.09
1070
    77
1070
     0
1070
   140
1040
0.125
1070
   279
1070
     2
1002
}
  0
LEADER
  5
36F
330
1E
100
AcDbEntity
  8
TEXT_BUBBLES
100
AcDbLeader
  3
Standard
 76
     2
 10
3.312694573612644
 20
2.867569667403315
 30
0.0
 10
3.850429196815623
 20
3.134859698719698
 30
0.0
1001
ACAD
1000
DSTYLE
1002
{
1070
   147
1040
0.09
1070
    77
1070
     0
1070
   140
1040
0.125
1070
   279
1070
     2
1002
}
  0
LEADER
  5
373
330
1E
100
AcDbEntity
  8
TEXT_BUBBLES
100
AcDbLeader
  3
Standard
 76
     2
 10
3.012310831210719
 20
2.342689384496279
 30
0.0
 10
2.871949778211676
 20
1.953567468731362
 30
0.0
1001
ACAD
1000
DSTYLE
1002
{
1070
   147
1040
0.09
1070
    77
1070
     0
1070
   140
1040
0.125
1070
   279
1070
     2
1002
}
  0
LEADER
  5
374
330
1E
100
AcDbEntity
  8
TEXT_BUBBLES
100
AcDbLeader
  3
Standard
 76
     2
 10
3.893561715496224
 20
2.391537751167765
 30
0.0
 10
3.742445136982628
 20
1.953567468731362
 30
0.0
1001
ACAD
1000
DSTYLE
1002
{
1070
   147
1040
0.09
1070
    77
1070
     0
1070
   140
1040
0.125
1070
   279
1070
     2
1002
}
  0
LEADER
  5
375
330
1E
100
AcDbEntity
  8
TEXT_BUBBLES
100
AcDbLeader
  3
Standard
 76
     2
 10
4.229591279427025
 20
2.298871689729283
 30
0.0
 10
4.1034190468212
 20
1.953567468731362
 30
0.0
1001
ACAD
1000
DSTYLE
1002
{
1070
   147
1040
0.09
1070
    77
1070
     0
1070
   140
1040
0.125
1070
   279
1070
     2
1002
}
  0
CIRCLE
  5
3BE
330
1E
100
AcDbEntity
  8
TEXT_BUBBLES
100
AcDbCircle
 10
5.302982246896483
 20
6.362102815491708
 30
0.0
 40
0.1562500331414542
  0
CIRCLE
  5
3BF
330
1E
100
AcDbEntity
  8
TEXT_BUBBLES
100
AcDbCircle
 10
5.302982246896483
 20
5.935113231335892
 30
0.0
 40
0.1562500331414542
  0
CIRCLE
  5
3C0
330
1E
100
AcDbEntity
  8
TEXT_BUBBLES
100
AcDbCircle
 10
5.302982246896483
 20
5.550958215187321
 30
0.0
 40
0.1562500331414542
  0
CIRCLE
  5
3C1
330
1E
100
AcDbEntity
  8
TEXT_BUBBLES
100
AcDbCircle
 10
5.302982246896483
 20
5.204322030685023
 30
0.0
 40
0.1562500331414542
  0
CIRCLE
  5
3C2
330
1E
100
AcDbEntity
  8
TEXT_BUBBLES
100
AcDbCircle
 10
5.302982246896483
 20
4.584345429272656
 30
0.0
 40
0.1562500331414542
  0
CIRCLE
  5
3C3
330
1E
100
AcDbEntity
  8
TEXT_BUBBLES
100
AcDbCircle
 10
5.302982246896483
 20
3.962133956894223
 30
0.0
 40
0.1562500331414542
  0
CIRCLE
  5
3C4
330
1E
100
AcDbEntity
  8
TEXT_BUBBLES
100
AcDbCircle
 10
5.302982246896483
 20
3.51206914350858
 30
0.0
 40
0.1562500331414542
  0
CIRCLE
  5
3C5
330
1E
100
AcDbEntity
  8
TEXT_BUBBLES
100
AcDbCircle
 10
5.302982246896483
 20
3.154333090651746
 30
0.0
 40
0.1562500331414542
  0
CIRCLE
  5
3C6
330
1E
100
AcDbEntity
  8
TEXT_BUBBLES
100
AcDbCircle
 10
5.302982246896483
 20
2.524362484865096
 30
0.0
 40
0.1562500331414542
  0
CIRCLE
  5
3C7
330
1E
100
AcDbEntity
  8
TEXT_BUBBLES
100
AcDbCircle
 10
4.006679229957077
 20
6.058783474781461
 30
0.0
 40
0.1562500331414542
  0
CIRCLE
  5
3C8
330
1E
100
AcDbEntity
  8
TEXT_BUBBLES
100
AcDbCircle
 10
4.006679229957077
 20
5.23504338690929
 30
0.0
 40
0.1562500331414542
  0
CIRCLE
  5
3C9
330
1E
100
AcDbEntity
  8
TEXT_BUBBLES
100
AcDbCircle
 10
4.006679229957077
 20
4.627786869568206
 30
0.0
 40
0.1562500331414542
  0
CIRCLE
  5
3CA
330
1E
100
AcDbEntity
  8
TEXT_BUBBLES
100
AcDbCircle
 10
4.006679229957077
 20
4.285861278666321
 30
0.0
 40
0.1562500331414542
  0
CIRCLE
  5
3CB
330
1E
100
AcDbEntity
  8
TEXT_BUBBLES
100
AcDbCircle
 10
4.006679229957077
 20
3.735198900885932
 30
0.0
 40
0.1562500331414542
  0
CIRCLE
  5
3CC
330
1E
100
AcDbEntity
  8
TEXT_BUBBLES
100
AcDbCircle
 10
4.006679229957077
 20
3.134859698719698
 30
0.0
 40
0.1562500331414542
  0
CIRCLE
  5
3CD
330
1E
100
AcDbEntity
  8
TEXT_BUBBLES
100
AcDbCircle
 10
4.1034190468212
 20
1.797317435589907
 30
0.0
 40
0.1562500331414542
  0
CIRCLE
  5
3CE
330
1E
100
AcDbEntity
  8
TEXT_BUBBLES
100
AcDbCircle
 10
3.742445136982628
 20
1.797317435589907
 30
0.0
 40
0.1562500331414542
  0
CIRCLE
  5
3CF
330
1E
100
AcDbEntity
  8
TEXT_BUBBLES
100
AcDbCircle
 10
2.871949778211676
 20
1.797317435589907
 30
0.0
 40
0.1562500331414542
  0
TEXT
  5
3D1
330
1E
100
AcDbEntity
  8
TEXT_BUBBLES
100
AcDbText
 10
5.616426106896483
 20
2.463962496214166
 30
0.0
 40
0.125
  1
SCH 40 TEE OR ELL
  7
SIMPLEX
100
AcDbText
  0
VIEWPORT
  5
ED
330
1A
100
AcDbEntity
 67
     1
  8
0
100
AcDbViewport
 10
6.172388059701492
 20
4.5
 30
0.0
 40
12.34477611940298
 41
9.0
 68
     1
 69
     1
 12
6.172388059701492
 22
4.5
 13
0.0
 23
0.0
 14
0.14
 24
0.14
 15
0.14
 25
0.14
 16
0.0
 26
0.0
 36
1.0
 17
0.0
 27
0.0
 37
0.0
 42
50.0
 43
0.0
 44
0.0
 45
9.0
 50
0.0
 51
0.0
 72
   100
 90
    32800
  1

281
     0
 71
     0
 74
     0
110
0.0
120
0.0
130
0.0
111
0.0
121
0.0
131
0.0
112
0.0
122
0.0
132
0.0
 79
     0
146
0.0
  0
ENDSEC
  0
SECTION
  2
OBJECTS
  0
DICTIONARY
  5
C
330
0
100
AcDbDictionary
281
     1
  3
ACAD_GROUP
350
D
  3
ACAD_LAYOUT
350
19
  3
ACAD_MLINESTYLE
350
16
  3
ACAD_PLOTSETTINGS
350
18
  3
ACAD_PLOTSTYLENAME
350
E
  3
AcadDim
350
366
  3
AcDbVariableDictionary
350
2FF
  0
DICTIONARY
  5
D
102
{ACAD_REACTORS
330
C
102
}
330
C
100
AcDbDictionary
281
     1
  0
DICTIONARY
  5
19
102
{ACAD_REACTORS
330
C
102
}
330
C
100
AcDbDictionary
281
     1
  3
Layout1
350
1D
  3
Model
350
21
  0
DICTIONARY
  5
16
102
{ACAD_REACTORS
330
C
102
}
330
C
100
AcDbDictionary
281
     1
  3
Standard
350
17
  0
DICTIONARY
  5
18
102
{ACAD_REACTORS
330
C
102
}
330
C
100
AcDbDictionary
281
     1
  3
1055 B&W Full Shaded Draft
350
379
  3
1055 B&W Full Shaded Final
350
37A
  3
1055 Color Full Shaded Draft
350
37B
  3
1055 Color Full Shaded Final
350
37C
  3
1055 PLUS B&W Full Shaded Draft
350
37D
  3
1055 PLUS B&W Full Shaded Final
350
37E
  3
1055 PLUS Color Full Shaded Draft
350
37F
  3
1055 PLUS Color Full Shaded Final
350
380
  3
1055-B&W-Shaded-Draft
350
381
  3
1055-B&W-Shaded-Final
350
382
  3
1055-Color-Shaded-Draft
350
383
  3
1055-Color-Shaded-Final
350
384
  3
1055-PLUS-B&W-Shaded-Draft
350
385
  3
1055-PLUS-B&W-Shaded-Final
350
386
  3
1055-PLUS-Color-Shaded-Draft
350
387
  3
1055-PLUS-Color-Shaded-Final
350
388
  3
2200 Color Inkjet
350
389
  3
2200-Color-Inkjet
350
38A
  3
24x36 PDF
350
38B
  3
8500 B&W Shaded 11x17
350
38C
  3
8500 B&W Shaded 8.5x11
350
38D
  3
8500 Color Shaded 11x17
350
38E
  3
8500 Color Shaded 8.5x11
350
38F
  3
8500-B&W-Shaded-11x17
350
390
  3
8500-B&W-Shaded-8.5x11
350
391
  3
8500-Color-Shaded-11x17
350
392
  3
8500-Color-Shaded-8.5x11
350
393
  3
Laser Jet 5 Shaded 11x17
350
394
  3
Laser Jet 5 Shaded 8.5x11
350
395
  3
LaserJet5-Shaded-11x17
350
396
  3
LaserJet5-Shaded-8.5x11
350
397
  3
Oki Doki B&W Shaded 11x17
350
398
  3
Oki Doki B&W Shaded 8.5x11
350
399
  3
Oki Doki Color Laser
350
39A
  3
Oki Doki Color Shaded 11x17
350
39B
  3
Oki Doki Color Shaded 8.5x11
350
39C
  3
Oki-Doki-B&W-Shaded-11x17
350
39D
  3
Oki-Doki-B&W-Shaded-8.5x11
350
39E
  3
Oki-Doki-Color-Laser
350
39F
  3
Oki-Doki-Color-Shaded-11x17
350
3A0
  3
Oki-Doki-Color-Shaded-8.5x11
350
3A1
  0
ACDBDICTIONARYWDFLT
  5
E
102
{ACAD_REACTORS
330
C
102
}
330
C
100
AcDbDictionary
281
     1
  3
Normal
350
F
100
AcDbDictionaryWithDefault
340
F
  0
XRECORD
  5
366
102
{ACAD_REACTORS
330
C
102
}
330
C
100
AcDbXrecord
280
     1
 90
   990106
  3

 60
     4
 61
     0
 62
     1
 63
     3
 64
     0
 65
     0
 66
     0
 67
     3
 68
     1
 69
     0
 70
     0
 71
     0
 72
     0
 40
0.0
170
     0
  0
DICTIONARY
  5
2FF
102
{ACAD_REACTORS
330
C
102
}
330
C
100
AcDbDictionary
281
     1
  3
DIMASSOC
350
302
  3
HIDETEXT
350
301
  3
SORTENTS
350
300
  0
LAYOUT
  5
1D
102
{ACAD_REACTORS
330
19
102
}
330
19
100
AcDbPlotSettings
  1

  2
S:\AutoCAD 2002\Plotters\1055B&WDraftShaded.pc3
  4

  6

 40
0.0
 41
0.0
 42
0.0
 43
0.0
 44
0.0
 45
0.0
 46
0.0
 47
0.0
 48
0.0
 49
0.0
140
0.0
141
0.0
142
1.0
143
1.0
 70
   688
 72
     0
 73
     0
 74
     5
  7
TRexLJ5Shaded2.ctb
 75
    16
147
1.0
148
0.0
149
0.0
100
AcDbLayout
  1
Layout1
 70
     1
 71
     1
 10
0.0
 20
0.0
 11
12.0
 21
9.0
 12
0.0
 22
0.0
 32
0.0
 14
1.000000000000000E+20
 24
1.000000000000000E+20
 34
1.000000000000000E+20
 15
-1.000000000000000E+20
 25
-1.000000000000000E+20
 35
-1.000000000000000E+20
146
0.0
 13
0.0
 23
0.0
 33
0.0
 16
1.0
 26
0.0
 36
0.0
 17
0.0
 27
1.0
 37
0.0
 76
     0
330
1A
331
ED
  0
LAYOUT
  5
21
102
{ACAD_REACTORS
330
19
102
}
330
19
100
AcDbPlotSettings
  1

  2
OKI DOKI Color Laser.pc3
  4
Tabloid
  6

 40
5.027083396911621
 41
5.027085304260253
 42
5.027099609375
 43
5.027069091796875
 44
279.3999938964843
 45
431.7999877929687
 46
1.27
 47
0.0
 48
0.0
 49
0.0
140
16.48999999999999
141
10.44
142
1.0
143
0.9931242156595709
 70
 11956
 72
     0
 73
     1
 74
     4
  7
OKIColorShaded.ctb
 75
     0
147
1.006923388063659
148
0.0
149
0.0
100
AcDbLayout
  1
Model
 70
     1
 71
     0
 10
0.0
 20
0.0
 11
12.0
 21
9.0
 12
0.0
 22
0.0
 32
0.0
 14
0.0
 24
0.0
 34
0.0
 15
0.0
 25
0.0
 35
0.0
146
0.0
 13
0.0
 23
0.0
 33
0.0
 16
1.0
 26
0.0
 36
0.0
 17
0.0
 27
1.0
 37
0.0
 76
     0
330
1E
  0
MLINESTYLE
  5
17
102
{ACAD_REACTORS
330
16
102
}
330
16
100
AcDbMlineStyle
  2
STANDARD
 70
     0
  3

 62
   256
 51
90.0
 52
90.0
 71
     2
 49
0.5
 62
   256
  6
BYLAYER
 49
-0.5
 62
   256
  6
BYLAYER
  0
PLOTSETTINGS
  5
379
102
{ACAD_REACTORS
330
18
102
}
330
18
100
AcDbPlotSettings
  1
1055 B&W Full Shaded Draft
  2
1055B&WDraftShaded.pc3
  4
User607
  6
ps1
 40
0.0
 41
0.0
 42
0.0
 43
0.0
 44
901.7000122070312
 45
1155.700073242187
 46
0.0
 47
0.0
 48
180377.877572
 49
80019.819395
140
180380.8390819999
141
80022.26069
142
1.0
143
1.0
 70
   688
 72
     0
 73
     2
 74
     3
  7
1055B&WFullDraftShaded.ctb
 75
    16
147
1.0
148
-4581603.303200401
149
-2032962.095032944
  0
PLOTSETTINGS
  5
37A
102
{ACAD_REACTORS
330
18
102
}
330
18
100
AcDbPlotSettings
  1
1055 B&W Full Shaded Final
  2
1055B&WFinalShaded.pc3
  4
User257
  6
PS1
 40
4.995333194732666
 41
8.297271728515625
 42
4.99530029296875
 43
8.29736328125
 44
911.6906738281249
 45
1172.294677734375
 46
0.0
 47
0.0
 48
180377.877572
 49
80019.819395
140
180380.8390819999
141
80022.26069
142
1.0
143
1.0
 70
   688
 72
     0
 73
     3
 74
     3
  7
1055B&WFullFinalShaded.ctb
 75
    16
147
1.0
148
-4581603.303200401
149
-2032962.095032944
  0
PLOTSETTINGS
  5
37B
102
{ACAD_REACTORS
330
18
102
}
330
18
100
AcDbPlotSettings
  1
1055 Color Full Shaded Draft
  2
1055ColorDraftShaded.pc3
  4
User607
  6
PS1
 40
0.0
 41
0.0
 42
0.0
 43
0.0
 44
901.7000122070312
 45
1155.700073242187
 46
0.0
 47
0.0
 48
180377.877572
 49
80019.819395
140
180380.8390819999
141
80022.26069
142
1.0
143
1.0
 70
   688
 72
     0
 73
     2
 74
     3
  7
1055ColorFullDraftShaded.ctb
 75
    16
147
1.0
148
-4581603.303200401
149
-2032962.095032944
  0
PLOTSETTINGS
  5
37C
102
{ACAD_REACTORS
330
18
102
}
330
18
100
AcDbPlotSettings
  1
1055 Color Full Shaded Final
  2
1055ColorFinalShaded.pc3
  4
User607
  6
PS1
 40
0.0
 41
0.0
 42
0.0
 43
0.0
 44
901.7000122070312
 45
1155.700073242187
 46
0.0
 47
0.0
 48
180377.877572
 49
80019.819395
140
180380.8390819999
141
80022.26069
142
1.0
143
1.0
 70
   688
 72
     0
 73
     2
 74
     3
  7
1055ColorFullFinalShaded.ctb
 75
    16
147
1.0
148
-4581603.303200401
149
-2032962.095032944
  0
PLOTSETTINGS
  5
37D
102
{ACAD_REACTORS
330
18
102
}
330
18
100
AcDbPlotSettings
  1
1055 PLUS B&W Full Shaded Draft
  2
1055_PLUS_B&WDraftShaded.pc3
  4
User257
  6
ps1
 40
4.995333194732666
 41
8.297393798828125
 42
4.99530029296875
 43
8.29736328125
 44
901.6152954101562
 45
1155.615356445312
 46
0.0
 47
0.0
 48
180377.877572
 49
80019.819395
140
180380.8390819999
141
80022.26069
142
1.0
143
1.0
 70
   688
 72
     0
 73
     3
 74
     5
  7
1055B&WFullDraftShaded.ctb
 75
    16
147
1.0
148
-4581603.303200401
149
-2032962.095032944
  0
PLOTSETTINGS
  5
37E
102
{ACAD_REACTORS
330
18
102
}
330
18
100
AcDbPlotSettings
  1
1055 PLUS B&W Full Shaded Final
  2
1055_PLUS_B&WFinalShaded.pc3
  4
User257
  6
PS1
 40
4.995333194732666
 41
8.297271728515625
 42
4.99530029296875
 43
8.29736328125
 44
901.6576538085937
 45
1155.657592773437
 46
0.0
 47
0.0
 48
180377.877572
 49
80019.819395
140
180380.8390819999
141
80022.26069
142
1.0
143
1.0
 70
   688
 72
     0
 73
     3
 74
     5
  7
1055B&WFullFinalShaded.ctb
 75
    16
147
1.0
148
-4581603.303200401
149
-2032962.095032944
  0
PLOTSETTINGS
  5
37F
102
{ACAD_REACTORS
330
18
102
}
330
18
100
AcDbPlotSettings
  1
1055 PLUS Color Full Shaded Draft
  2
1055_PLUS_ColorDraftShaded.pc3
  4
User257
  6
PS1
 40
4.995333194732666
 41
8.297393798828125
 42
4.99530029296875
 43
8.29736328125
 44
901.6152954101562
 45
1155.615356445312
 46
0.0
 47
0.0
 48
180377.877572
 49
80019.819395
140
180380.8390819999
141
80022.26069
142
1.0
143
1.0
 70
   688
 72
     0
 73
     3
 74
     5
  7
1055ColorFullDraftShaded.ctb
 75
    16
147
1.0
148
-4581603.303200401
149
-2032962.095032944
  0
PLOTSETTINGS
  5
380
102
{ACAD_REACTORS
330
18
102
}
330
18
100
AcDbPlotSettings
  1
1055 PLUS Color Full Shaded Final
  2
1055_PLUS_ColorFinalShaded.pc3
  4
User257
  6
PS1
 40
4.995333194732666
 41
8.297271728515625
 42
4.99530029296875
 43
8.29736328125
 44
901.6576538085937
 45
1155.657592773437
 46
0.0
 47
0.0
 48
180377.877572
 49
80019.819395
140
180380.8390819999
141
80022.26069
142
1.0
143
1.0
 70
   688
 72
     0
 73
     3
 74
     5
  7
1055ColorFullFinalShaded.ctb
 75
    16
147
1.0
148
-4581603.303200401
149
-2032962.095032944
  0
PLOTSETTINGS
  5
381
102
{ACAD_REACTORS
330
18
102
}
330
18
100
AcDbPlotSettings
  1
1055-B&W-Shaded-Draft
  2
1055B&WDraftShaded.pc3
  4
User257
  6

 40
4.995333194732666
 41
8.297393798828125
 42
4.99530029296875
 43
8.29736328125
 44
901.6152954101562
 45
1155.615356445312
 46
0.0
 47
0.0
 48
180360.0524337165
 49
80033.77936194791
140
180369.1574725906
141
80037.61796031875
142
1.0
143
30.0
 70
  1696
 72
     0
 73
     1
 74
     1
  7
1055B&WFullDraftShaded.ctb
 75
     0
147
0.0333333333333333
148
-190.0773302744904
149
-129.2444057835751
  0
PLOTSETTINGS
  5
382
102
{ACAD_REACTORS
330
18
102
}
330
18
100
AcDbPlotSettings
  1
1055-B&W-Shaded-Final
  2
1055B&WFinalShaded.pc3
  4
User607
  6

 40
0.0
 41
0.0
 42
0.0
 43
0.0
 44
901.7000122070312
 45
1155.700073242187
 46
0.0
 47
0.0
 48
180360.0524337165
 49
80033.77936194791
140
180369.1574725906
141
80037.61796031875
142
1.0
143
30.0
 70
  1696
 72
     0
 73
     1
 74
     1
  7
1055B&WFullFinalShaded.ctb
 75
     0
147
0.0333333333333333
148
-190.0773302744904
149
-129.2444057835751
  0
PLOTSETTINGS
  5
383
102
{ACAD_REACTORS
330
18
102
}
330
18
100
AcDbPlotSettings
  1
1055-Color-Shaded-Draft
  2
1055ColorDraftShaded.pc3
  4
User257
  6

 40
4.995333194732666
 41
8.297393798828125
 42
4.99530029296875
 43
8.29736328125
 44
901.6152954101562
 45
1155.615356445312
 46
0.0
 47
0.0
 48
180360.0524337165
 49
80033.77936194791
140
180369.1574725906
141
80037.61796031875
142
1.0
143
30.0
 70
  1696
 72
     0
 73
     1
 74
     1
  7
1055ColorFullDraftShaded.ctb
 75
     0
147
0.0333333333333333
148
-190.0773302744904
149
-129.2444057835751
  0
PLOTSETTINGS
  5
384
102
{ACAD_REACTORS
330
18
102
}
330
18
100
AcDbPlotSettings
  1
1055-Color-Shaded-Final
  2
1055ColorDraftShaded.pc3
  4
User257
  6

 40
4.995333194732666
 41
8.297393798828125
 42
4.99530029296875
 43
8.29736328125
 44
901.6152954101562
 45
1155.615356445312
 46
0.0
 47
0.0
 48
180360.0524337165
 49
80033.77936194791
140
180369.1574725906
141
80037.61796031875
142
1.0
143
30.0
 70
  1696
 72
     0
 73
     1
 74
     1
  7
1055ColorFullFinalShaded.ctb
 75
     0
147
0.0333333333333333
148
-190.0773302744904
149
-129.2444057835751
  0
PLOTSETTINGS
  5
385
102
{ACAD_REACTORS
330
18
102
}
330
18
100
AcDbPlotSettings
  1
1055-PLUS-B&W-Shaded-Draft
  2
1055_PLUS_B&WDraftShaded.pc3
  4
User257
  6

 40
4.995333194732666
 41
8.297393798828125
 42
4.99530029296875
 43
8.29736328125
 44
901.6152954101562
 45
1155.615356445312
 46
0.0
 47
0.0
 48
180360.0524337165
 49
80033.77936194791
140
180369.1574725906
141
80037.61796031875
142
1.0
143
30.0
 70
  1696
 72
     0
 73
     1
 74
     0
  7
1055B&WFullDraftShaded.ctb
 75
     0
147
0.0333333333333333
148
0.9506237099442845
149
8.593888772447144
  0
PLOTSETTINGS
  5
386
102
{ACAD_REACTORS
330
18
102
}
330
18
100
AcDbPlotSettings
  1
1055-PLUS-B&W-Shaded-Final
  2
1055_PLUS_B&WFinalShaded.pc3
  4
User257
  6

 40
4.995333194732666
 41
8.297271728515625
 42
4.99530029296875
 43
8.29736328125
 44
901.6576538085937
 45
1155.657592773437
 46
0.0
 47
0.0
 48
180360.0524337165
 49
80033.77936194791
140
180369.1574725906
141
80037.61796031875
142
1.0
143
30.0
 70
  1696
 72
     0
 73
     1
 74
     0
  7
1055B&WFullFinalShaded.ctb
 75
     0
147
0.0333333333333333
148
0.9506237099442845
149
8.593888772447144
  0
PLOTSETTINGS
  5
387
102
{ACAD_REACTORS
330
18
102
}
330
18
100
AcDbPlotSettings
  1
1055-PLUS-Color-Shaded-Draft
  2
1055_PLUS_ColorDraftShaded.pc3
  4
User257
  6

 40
4.995333194732666
 41
8.297393798828125
 42
4.99530029296875
 43
8.29736328125
 44
901.6152954101562
 45
1155.615356445312
 46
0.0
 47
0.0
 48
180360.0524337165
 49
80033.77936194791
140
180369.1574725906
141
80037.61796031875
142
1.0
143
30.0
 70
  1696
 72
     0
 73
     1
 74
     0
  7
1055ColorFullDraftShaded.ctb
 75
     0
147
0.0333333333333333
148
0.9506237099442845
149
8.593888772447144
  0
PLOTSETTINGS
  5
388
102
{ACAD_REACTORS
330
18
102
}
330
18
100
AcDbPlotSettings
  1
1055-PLUS-Color-Shaded-Final
  2
1055_PLUS_ColorFinalShaded.pc3
  4
User257
  6

 40
4.995333194732666
 41
8.297271728515625
 42
4.99530029296875
 43
8.29736328125
 44
901.6576538085937
 45
1155.657592773437
 46
0.0
 47
0.0
 48
180360.0524337165
 49
80033.77936194791
140
180369.1574725906
141
80037.61796031875
142
1.0
143
30.0
 70
  1696
 72
     0
 73
     1
 74
     0
  7
1055ColorFullFinalShaded.ctb
 75
     0
147
0.0333333333333333
148
0.9506237099442845
149
8.593888772447144
  0
PLOTSETTINGS
  5
389
102
{ACAD_REACTORS
330
18
102
}
330
18
100
AcDbPlotSettings
  1
2200 Color Inkjet
  2
HP  2200 Color Inkjet.pc3
  4
Letter
  6
PS1
 40
7.143749713897705
 41
12.47775650024414
 42
7.14373779296875
 43
3.17498779296875
 44
215.8999938964843
 45
279.3999938964843
 46
0.0
 47
0.0
 48
180377.877572
 49
80019.819395
140
180380.8390819999
141
80022.26069
142
1.0
143
0.3486331030131726
 70
   688
 72
     0
 73
     1
 74
     3
  7
Color.ctb
 75
     0
147
2.868344948764708
148
-4581603.303200401
149
-2032962.095032944
  0
PLOTSETTINGS
  5
38A
102
{ACAD_REACTORS
330
18
102
}
330
18
100
AcDbPlotSettings
  1
2200-Color-Inkjet
  2
HP  2200 Color Inkjet.pc3
  4
Letter
  6

 40
7.143749713897705
 41
12.47775650024414
 42
7.14373779296875
 43
3.17498779296875
 44
215.8999938964843
 45
279.3999938964843
 46
0.0
 47
0.0
 48
180360.0524337165
 49
80033.77936194791
140
180369.1574725906
141
80037.61796031875
142
1.0
143
0.069393053089765
 70
  1712
 72
     0
 73
     1
 74
     1
  7
Color.ctb
 75
     0
147
14.41066440334347
148
-190.0773302744904
149
-129.2444057835751
  0
PLOTSETTINGS
  5
38B
102
{ACAD_REACTORS
330
18
102
}
330
18
100
AcDbPlotSettings
  1
24x36 PDF
  2
Bluebeam PDF Printer.pc3
  4
User128
  6
PS1
 40
3.174999952316284
 41
3.174999952316284
 42
3.17498779296875
 43
3.17498779296875
 44
609.5999755859375
 45
914.3999633789062
 46
270.5099999999999
 47
416.3059999999999
 48
180377.877572
 49
80019.819395
140
180380.8390819999
141
80022.26069
142
1.0
143
1.0
 70
   692
 72
     0
 73
     1
 74
     4
  7
1055B&WFullDraftShaded.ctb
 75
    16
147
1.0
148
-4581598.0903288
149
-2032503.412632999
  0
PLOTSETTINGS
  5
38C
102
{ACAD_REACTORS
330
18
102
}
330
18
100
AcDbPlotSettings
  1
8500 B&W Shaded 11x17
  2
8500B&WShaded.pc3
  4
11x17
  6
PS1
 40
5.027083396911621
 41
5.027085304260253
 42
5.027099609375
 43
5.027069091796875
 44
279.3999938964843
 45
431.7999877929687
 46
0.0
 47
92.964
 48
180377.877572
 49
80019.819395
140
180380.8390819999
141
80022.26069
142
1.0
143
0.0116192543742624
 70
   692
 72
     0
 73
     1
 74
     3
  7
8500B&WShaded.ctb
 75
     0
147
86.06404230335863
148
-4581651.879813895
149
-2032998.63613423
  0
PLOTSETTINGS
  5
38D
102
{ACAD_REACTORS
330
18
102
}
330
18
100
AcDbPlotSettings
  1
8500 B&W Shaded 8.5x11
  2
8500B&WShaded.pc3
  4
Letter
  6
PS1
 40
5.027083396911621
 41
5.027085304260253
 42
5.027084350585937
 43
5.027069091796875
 44
215.8999938964843
 45
279.3999938964843
 46
0.0
 47
44.44999999999999
 48
180377.877572
 49
80019.819395
140
180380.8390819999
141
80022.26069
142
1.0
143
0.0152035994604527
 70
   692
 72
     0
 73
     1
 74
     3
  7
8500B&WShaded.ctb
 75
     0
147
65.77389799048455
148
-4581651.879813895
149
-2032998.63613423
  0
PLOTSETTINGS
  5
38E
102
{ACAD_REACTORS
330
18
102
}
330
18
100
AcDbPlotSettings
  1
8500 Color Shaded 11x17
  2
8500ColorShaded.pc3
  4
11x17
  6
PS1
 40
5.027083396911621
 41
5.027085304260253
 42
5.027099609375
 43
5.027069091796875
 44
279.3999938964843
 45
431.7999877929687
 46
0.0
 47
92.964
 48
180377.877572
 49
80019.819395
140
180380.8390819999
141
80022.26069
142
1.0
143
0.0116192543742624
 70
   692
 72
     0
 73
     1
 74
     3
  7
8500ColorShaded.ctb
 75
     0
147
86.06404230335863
148
-4581651.879813895
149
-2032998.63613423
  0
PLOTSETTINGS
  5
38F
102
{ACAD_REACTORS
330
18
102
}
330
18
100
AcDbPlotSettings
  1
8500 Color Shaded 8.5x11
  2
8500ColorShaded.pc3
  4
Letter
  6
PS1
 40
5.027083396911621
 41
5.027085304260253
 42
5.027084350585937
 43
5.027069091796875
 44
215.8999938964843
 45
279.3999938964843
 46
0.0
 47
44.44999999999999
 48
180377.877572
 49
80019.819395
140
180380.8390819999
141
80022.26069
142
1.0
143
0.0152035994604527
 70
   692
 72
     0
 73
     1
 74
     3
  7
8500ColorShaded.ctb
 75
     0
147
65.77389799048455
148
-4581651.879813895
149
-2032998.63613423
  0
PLOTSETTINGS
  5
390
102
{ACAD_REACTORS
330
18
102
}
330
18
100
AcDbPlotSettings
  1
8500-B&W-Shaded-11x17
  2
8500B&WShaded.pc3
  4
11x17
  6

 40
5.027083396911621
 41
5.027085304260253
 42
5.027099609375
 43
5.027069091796875
 44
279.3999938964843
 45
431.7999877929687
 46
0.0
 47
0.0
 48
180360.0524337165
 49
80033.77936194791
140
180369.1574725906
141
80037.61796031875
142
1.0
143
0.0519425466957002
 70
  1712
 72
     0
 73
     1
 74
     1
  7
8500B&WShaded.ctb
 75
     0
147
19.252040256293
148
-190.0773302744904
149
-129.2444057835751
  0
PLOTSETTINGS
  5
391
102
{ACAD_REACTORS
330
18
102
}
330
18
100
AcDbPlotSettings
  1
8500-B&W-Shaded-8.5x11
  2
8500B&WShaded.pc3
  4
Letter
  6

 40
5.027083396911621
 41
5.027085304260253
 42
5.027084350585937
 43
5.027069091796875
 44
215.8999938964843
 45
279.3999938964843
 46
0.0
 47
0.0
 48
180360.0524337165
 49
80033.77936194791
140
180369.1574725906
141
80037.61796031875
142
1.0
143
0.0679659511256221
 70
  1712
 72
     0
 73
     1
 74
     1
  7
8500B&WShaded.ctb
 75
     0
147
14.71324955273106
148
-190.0773302744904
149
-129.2444057835751
  0
PLOTSETTINGS
  5
392
102
{ACAD_REACTORS
330
18
102
}
330
18
100
AcDbPlotSettings
  1
8500-Color-Shaded-11x17
  2
8500ColorShaded.pc3
  4
11x17
  6

 40
5.027083396911621
 41
5.027085304260253
 42
5.027099609375
 43
5.027069091796875
 44
279.3999938964843
 45
431.7999877929687
 46
0.0
 47
0.0
 48
180360.0524337165
 49
80033.77936194791
140
180369.1574725906
141
80037.61796031875
142
1.0
143
0.0519425466957002
 70
  1712
 72
     0
 73
     1
 74
     1
  7
8500ColorShaded.ctb
 75
     0
147
19.252040256293
148
-190.0773302744904
149
-129.2444057835751
  0
PLOTSETTINGS
  5
393
102
{ACAD_REACTORS
330
18
102
}
330
18
100
AcDbPlotSettings
  1
8500-Color-Shaded-8.5x11
  2
8500ColorShaded.pc3
  4
Letter
  6

 40
5.027083396911621
 41
5.027085304260253
 42
5.027084350585937
 43
5.027069091796875
 44
215.8999938964843
 45
279.3999938964843
 46
0.0
 47
0.0
 48
180360.0524337165
 49
80033.77936194791
140
180369.1574725906
141
80037.61796031875
142
1.0
143
0.0679659511256221
 70
  1712
 72
     0
 73
     1
 74
     1
  7
8500ColorShaded.ctb
 75
     0
147
14.71324955273106
148
-190.0773302744904
149
-129.2444057835751
  0
PLOTSETTINGS
  5
394
102
{ACAD_REACTORS
330
18
102
}
330
18
100
AcDbPlotSettings
  1
Laser Jet 5 Shaded 11x17
  2
LaserJet5Shaded.pc3
  4
11x17
  6
PS1
 40
7.143749713897705
 41
5.873736858367919
 42
7.143768310546875
 43
7.14373779296875
 44
279.3999938964843
 45
431.7999877929687
 46
0.0
 47
29.71799999999999
 48
180377.877572
 49
80019.819395
140
180380.8390819999
141
80022.26069
142
1.0
143
0.2557442899420743
 70
   692
 72
     0
 73
     1
 74
     3
  7
LaserJet5Shaded.ctb
 75
     0
147
3.910155727138614
148
-4581603.303200401
149
-2032962.095032944
  0
PLOTSETTINGS
  5
395
102
{ACAD_REACTORS
330
18
102
}
330
18
100
AcDbPlotSettings
  1
Laser Jet 5 Shaded 8.5x11
  2
LaserJet5Shaded.pc3
  4
Letter
  6
PS1
 40
7.143749713897705
 41
6.974400997161865
 42
7.14373779296875
 43
6.297088623046875
 44
215.8999938964843
 45
279.3999938964843
 46
2.794
 47
0.0
 48
180377.877572
 49
80019.819395
140
180380.8390819999
141
80022.26069
142
1.0
143
0.345513616778612
 70
   692
 72
     0
 73
     1
 74
     3
  7
LaserJet5Shaded.ctb
 75
     0
147
2.894241938489939
148
-4581603.303200401
149
-2032962.095032944
  0
PLOTSETTINGS
  5
396
102
{ACAD_REACTORS
330
18
102
}
330
18
100
AcDbPlotSettings
  1
LaserJet5-Shaded-11x17
  2
LaserJet5Shaded.pc3
  4
11x17
  6

 40
7.143749713897705
 41
5.873736858367919
 42
7.143768310546875
 43
7.14373779296875
 44
279.3999938964843
 45
431.7999877929687
 46
0.0
 47
0.0
 48
180360.0524337165
 49
80033.77936194791
140
180369.1574725906
141
80037.61796031875
142
1.0
143
0.0527719690046124
 70
  1712
 72
     0
 73
     1
 74
     1
  7
LaserJet5Shaded.ctb
 75
     0
147
18.9494540162524
148
-190.0773302744904
149
-129.2444057835751
  0
PLOTSETTINGS
  5
397
102
{ACAD_REACTORS
330
18
102
}
330
18
100
AcDbPlotSettings
  1
LaserJet5-Shaded-8.5x11
  2
LaserJet5Shaded.pc3
  4
Letter
  6

 40
7.143749713897705
 41
6.974400997161865
 42
7.14373779296875
 43
6.297088623046875
 44
215.8999938964843
 45
279.3999938964843
 46
0.0
 47
0.0
 48
180360.0524337165
 49
80033.77936194791
140
180369.1574725906
141
80037.61796031875
142
1.0
143
0.069393053089765
 70
  1712
 72
     0
 73
     1
 74
     1
  7
LaserJet5Shaded.ctb
 75
     0
147
14.41066440334347
148
-190.0773302744904
149
-129.2444057835751
  0
PLOTSETTINGS
  5
398
102
{ACAD_REACTORS
330
18
102
}
330
18
100
AcDbPlotSettings
  1
Oki Doki B&W Shaded 11x17
  2
OKI DOKI Color Laser.pc3
  4
Tabloid
  6
PS1
 40
5.027083396911621
 41
5.027085304260253
 42
5.027099609375
 43
5.027069091796875
 44
279.3999938964843
 45
431.7999877929687
 46
0.0
 47
47.49799999999999
 48
180377.877572
 49
80019.819395
140
180380.8390819999
141
80022.26069
142
1.0
143
0.2302203728173071
 70
   692
 72
     0
 73
     1
 74
     4
  7
OKIB&WShaded.ctb
 75
     0
147
4.343664236846477
148
-4581598.0903288
149
-2032503.412632999
  0
PLOTSETTINGS
  5
399
102
{ACAD_REACTORS
330
18
102
}
330
18
100
AcDbPlotSettings
  1
Oki Doki B&W Shaded 8.5x11
  2
OKI DOKI Color Laser.pc3
  4
Letter
  6
PS1
 40
5.027083396911621
 41
5.027085304260253
 42
5.027084350585937
 43
5.027069091796875
 44
215.8999938964843
 45
279.3999938964843
 46
0.0
 47
9.906
 48
180377.877572
 49
80019.819395
140
180380.8390819999
141
80022.26069
142
1.0
143
0.3012394963745367
 70
   692
 72
     0
 73
     1
 74
     4
  7
OKIB&WShaded.ctb
 75
     0
147
3.319617819161008
148
-4581598.0903288
149
-2032503.412632999
  0
PLOTSETTINGS
  5
39A
102
{ACAD_REACTORS
330
18
102
}
330
18
100
AcDbPlotSettings
  1
Oki Doki Color Laser
  2
OKI DOKI Color Laser.pc3
  4
Letter
  6
PS1
 40
5.027083396911621
 41
5.027085304260253
 42
5.027084350585937
 43
5.027069091796875
 44
215.8999938964843
 45
279.3999938964843
 46
71.88199999999999
 47
97.02799999999999
 48
180377.877572
 49
80019.819395
140
180380.8390819999
141
80022.26069
142
1.0
143
1.0
 70
   692
 72
     0
 73
     1
 74
     4
  7
Color.ctb
 75
    16
147
1.0
148
-4581598.0903288
149
-2032503.412632999
  0
PLOTSETTINGS
  5
39B
102
{ACAD_REACTORS
330
18
102
}
330
18
100
AcDbPlotSettings
  1
Oki Doki Color Shaded 11x17
  2
OKI DOKI Color Laser.pc3
  4
Tabloid
  6
PS1
 40
5.027083396911621
 41
5.027085304260253
 42
5.027099609375
 43
5.027069091796875
 44
279.3999938964843
 45
431.7999877929687
 46
0.0
 47
47.49799999999999
 48
180377.877572
 49
80019.819395
140
180380.8390819999
141
80022.26069
142
1.0
143
0.2302203728173071
 70
   692
 72
     0
 73
     1
 74
     4
  7
OKIColorShaded.ctb
 75
     0
147
4.343664236846477
148
-4581598.0903288
149
-2032503.412632999
  0
PLOTSETTINGS
  5
39C
102
{ACAD_REACTORS
330
18
102
}
330
18
100
AcDbPlotSettings
  1
Oki Doki Color Shaded 8.5x11
  2
OKI DOKI Color Laser.pc3
  4
Letter
  6
PS1
 40
5.027083396911621
 41
5.027085304260253
 42
5.027084350585937
 43
5.027069091796875
 44
215.8999938964843
 45
279.3999938964843
 46
0.0
 47
9.906
 48
180377.877572
 49
80019.819395
140
180380.8390819999
141
80022.26069
142
1.0
143
0.3012394963745367
 70
   692
 72
     0
 73
     1
 74
     4
  7
OKIColorShaded.ctb
 75
     0
147
3.319617819161008
148
-4581598.0903288
149
-2032503.412632999
  0
PLOTSETTINGS
  5
39D
102
{ACAD_REACTORS
330
18
102
}
330
18
100
AcDbPlotSettings
  1
Oki-Doki-B&W-Shaded-11x17
  2
OKI DOKI Color Laser.pc3
  4
Tabloid
  6

 40
5.027083396911621
 41
5.027085304260253
 42
5.027099609375
 43
5.027069091796875
 44
279.3999938964843
 45
431.7999877929687
 46
45.72
 47
0.0
 48
180360.0524337165
 49
80033.77936194791
140
180369.1574725906
141
80037.61796031875
142
1.0
143
0.5483586774064594
 70
  1716
 72
     0
 73
     1
 74
     4
  7
OKIB&WShaded.ctb
 75
     0
147
1.823623918435361
148
-4581145.331816398
149
-2032857.995793476
  0
PLOTSETTINGS
  5
39E
102
{ACAD_REACTORS
330
18
102
}
330
18
100
AcDbPlotSettings
  1
Oki-Doki-B&W-Shaded-8.5x11
  2
OKI DOKI Color Laser.pc3
  4
Letter
  6

 40
5.027083396911621
 41
5.027085304260253
 42
5.027084350585937
 43
5.027069091796875
 44
215.8999938964843
 45
279.3999938964843
 46
46.228
 47
0.0
 48
180360.0524337165
 49
80033.77936194791
140
180369.1574725906
141
80037.61796031875
142
1.0
143
0.8586284006917006
 70
  1716
 72
     0
 73
     1
 74
     4
  7
OKIB&WShaded.ctb
 75
     0
147
1.16464817515285
148
-4581145.331816398
149
-2032857.995793476
  0
PLOTSETTINGS
  5
39F
102
{ACAD_REACTORS
330
18
102
}
330
18
100
AcDbPlotSettings
  1
Oki-Doki-Color-Laser
  2
OKI DOKI Color Laser.pc3
  4
Letter
  6

 40
5.027083396911621
 41
5.027085304260253
 42
5.027084350585937
 43
5.027069091796875
 44
215.8999938964843
 45
279.3999938964843
 46
17.018
 47
0.0
 48
180360.0524337165
 49
80033.77936194791
140
180369.1574725906
141
80037.61796031875
142
1.0
143
1.429088128819241
 70
  1716
 72
     0
 73
     1
 74
     0
  7
Color.ctb
 75
     0
147
0.6997469084193093
148
0.9506237099442977
149
8.593888772447144
  0
PLOTSETTINGS
  5
3A0
102
{ACAD_REACTORS
330
18
102
}
330
18
100
AcDbPlotSettings
  1
Oki-Doki-Color-Shaded-11x17
  2
OKI DOKI Color Laser.pc3
  4
Tabloid
  6

 40
5.027083396911621
 41
5.027085304260253
 42
5.027099609375
 43
5.027069091796875
 44
279.3999938964843
 45
431.7999877929687
 46
45.72
 47
0.0
 48
180360.0524337165
 49
80033.77936194791
140
180369.1574725906
141
80037.61796031875
142
1.0
143
0.5483586774064594
 70
  1716
 72
     0
 73
     1
 74
     4
  7
OKIColorShaded.ctb
 75
     0
147
1.823623918435361
148
-4581145.331816398
149
-2032857.995793476
  0
PLOTSETTINGS
  5
3A1
102
{ACAD_REACTORS
330
18
102
}
330
18
100
AcDbPlotSettings
  1
Oki-Doki-Color-Shaded-8.5x11
  2
OKI DOKI Color Laser.pc3
  4
Letter
  6

 40
5.027083396911621
 41
5.027085304260253
 42
5.027084350585937
 43
5.027069091796875
 44
215.8999938964843
 45
279.3999938964843
 46
46.228
 47
0.0
 48
180360.0524337165
 49
80033.77936194791
140
180369.1574725906
141
80037.61796031875
142
1.0
143
0.8586284006917006
 70
  1716
 72
     0
 73
     1
 74
     4
  7
OKIColorShaded.ctb
 75
     0
147
1.16464817515285
148
-4581145.331816398
149
-2032857.995793476
  0
ACDBPLACEHOLDER
  5
F
102
{ACAD_REACTORS
330
E
102
}
330
E
  0
DICTIONARYVAR
  5
302
102
{ACAD_REACTORS
330
2FF
102
}
330
2FF
100
DictionaryVariables
280
     0
  1
1
  0
DICTIONARYVAR
  5
301
102
{ACAD_REACTORS
330
2FF
102
}
330
2FF
100
DictionaryVariables
280
     0
  1
1
  0
DICTIONARYVAR
  5
300
102
{ACAD_REACTORS
330
2FF
102
}
330
2FF
100
DictionaryVariables
280
     0
  1
1
  0
ENDSEC
  0
EOF
