  0
SECTION
  2
HEADER
  9
$ACADVER
  1
AC1015
  9
$ACADMAINTVER
 70
    13
  9
$DWGCODEPAGE
  3
ANSI_1252
  9
$INSBASE
 10
0.0
 20
0.0
 30
0.0
  9
$EXTMIN
 10
0.0
 20
0.0
 30
0.0
  9
$EXTMAX
 10
16.48999999999999
 20
10.44
 30
0.03
  9
$LIMMIN
 10
0.0
 20
0.0
  9
$LIMMAX
 10
12.0
 20
9.0
  9
$ORTHOMODE
 70
     0
  9
$REGENMODE
 70
     1
  9
$FILLMODE
 70
     1
  9
$QTEXTMODE
 70
     0
  9
$MIRRTEXT
 70
     0
  9
$LTSCALE
 40
1.0
  9
$ATTMODE
 70
     1
  9
$TEXTSIZE
 40
0.1
  9
$TRACEWID
 40
0.05
  9
$TEXTSTYLE
  7
SIMPLEX
  9
$CLAYER
  8
IMAGE
  9
$CELTYPE
  6
ByLayer
  9
$CECOLOR
 62
   256
  9
$CELTSCALE
 40
1.0
  9
$DISPSILH
 70
     0
  9
$DIMSCALE
 40
1.0
  9
$DIMASZ
 40
0.18
  9
$DIMEXO
 40
0.0625
  9
$DIMDLI
 40
0.38
  9
$DIMRND
 40
0.0
  9
$DIMDLE
 40
0.0
  9
$DIMEXE
 40
0.18
  9
$DIMTP
 40
0.0
  9
$DIMTM
 40
0.0
  9
$DIMTXT
 40
0.18
  9
$DIMCEN
 40
0.09
  9
$DIMTSZ
 40
0.0
  9
$DIMTOL
 70
     0
  9
$DIMLIM
 70
     0
  9
$DIMTIH
 70
     1
  9
$DIMTOH
 70
     1
  9
$DIMSE1
 70
     0
  9
$DIMSE2
 70
     0
  9
$DIMTAD
 70
     0
  9
$DIMZIN
 70
     0
  9
$DIMBLK
  1

  9
$DIMASO
 70
     1
  9
$DIMSHO
 70
     1
  9
$DIMPOST
  1

  9
$DIMAPOST
  1

  9
$DIMALT
 70
     0
  9
$DIMALTD
 70
     2
  9
$DIMALTF
 40
25.4
  9
$DIMLFAC
 40
1.0
  9
$DIMTOFL
 70
     0
  9
$DIMTVP
 40
0.0
  9
$DIMTIX
 70
     0
  9
$DIMSOXD
 70
     0
  9
$DIMSAH
 70
     0
  9
$DIMBLK1
  1

  9
$DIMBLK2
  1

  9
$DIMSTYLE
  2
Standard
  9
$DIMCLRD
 70
     0
  9
$DIMCLRE
 70
     0
  9
$DIMCLRT
 70
     0
  9
$DIMTFAC
 40
1.0
  9
$DIMGAP
 40
0.09
  9
$DIMJUST
 70
     0
  9
$DIMSD1
 70
     0
  9
$DIMSD2
 70
     0
  9
$DIMTOLJ
 70
     1
  9
$DIMTZIN
 70
     0
  9
$DIMALTZ
 70
     0
  9
$DIMALTTZ
 70
     0
  9
$DIMUPT
 70
     0
  9
$DIMDEC
 70
     4
  9
$DIMTDEC
 70
     4
  9
$DIMALTU
 70
     2
  9
$DIMALTTD
 70
     2
  9
$DIMTXSTY
  7
STANDARD
  9
$DIMAUNIT
 70
     0
  9
$DIMADEC
 70
     0
  9
$DIMALTRND
 40
0.0
  9
$DIMAZIN
 70
     0
  9
$DIMDSEP
 70
    46
  9
$DIMATFIT
 70
     3
  9
$DIMFRAC
 70
     0
  9
$DIMLDRBLK
  1

  9
$DIMLUNIT
 70
     2
  9
$DIMLWD
 70
    -2
  9
$DIMLWE
 70
    -2
  9
$DIMTMOVE
 70
     2
  9
$LUNITS
 70
     2
  9
$LUPREC
 70
     4
  9
$SKETCHINC
 40
0.1
  9
$FILLETRAD
 40
0.0
  9
$AUNITS
 70
     0
  9
$AUPREC
 70
     0
  9
$MENU
  1
ACAD
  9
$ELEVATION
 40
0.0
  9
$PELEVATION
 40
0.0
  9
$THICKNESS
 40
0.0
  9
$LIMCHECK
 70
     0
  9
$CHAMFERA
 40
0.0
  9
$CHAMFERB
 40
0.0
  9
$CHAMFERC
 40
0.0
  9
$CHAMFERD
 40
0.0
  9
$SKPOLY
 70
     0
  9
$TDCREATE
 40
2449665.668017245
  9
$TDUCREATE
 40
2449665.959683911
  9
$TDUPDATE
 40
2453019.548125937
  9
$TDUUPDATE
 40
2453019.839792604
  9
$TDINDWG
 40
0.0935695023
  9
$TDUSRTIMER
 40
0.0935695023
  9
$USRTIMER
 70
     1
  9
$ANGBASE
 50
0.0
  9
$ANGDIR
 70
     0
  9
$PDMODE
 70
     0
  9
$PDSIZE
 40
0.0
  9
$PLINEWID
 40
0.0
  9
$SPLFRAME
 70
     0
  9
$SPLINETYPE
 70
     6
  9
$SPLINESEGS
 70
     8
  9
$HANDSEED
  5
526
  9
$SURFTAB1
 70
     6
  9
$SURFTAB2
 70
     6
  9
$SURFTYPE
 70
     6
  9
$SURFU
 70
     6
  9
$SURFV
 70
     6
  9
$UCSBASE
  2

  9
$UCSNAME
  2

  9
$UCSORG
 10
0.0
 20
0.0
 30
0.0
  9
$UCSXDIR
 10
1.0
 20
0.0
 30
0.0
  9
$UCSYDIR
 10
0.0
 20
1.0
 30
0.0
  9
$UCSORTHOREF
  2

  9
$UCSORTHOVIEW
 70
     0
  9
$UCSORGTOP
 10
0.0
 20
0.0
 30
0.0
  9
$UCSORGBOTTOM
 10
0.0
 20
0.0
 30
0.0
  9
$UCSORGLEFT
 10
0.0
 20
0.0
 30
0.0
  9
$UCSORGRIGHT
 10
0.0
 20
0.0
 30
0.0
  9
$UCSORGFRONT
 10
0.0
 20
0.0
 30
0.0
  9
$UCSORGBACK
 10
0.0
 20
0.0
 30
0.0
  9
$PUCSBASE
  2

  9
$PUCSNAME
  2

  9
$PUCSORG
 10
0.0
 20
0.0
 30
0.0
  9
$PUCSXDIR
 10
1.0
 20
0.0
 30
0.0
  9
$PUCSYDIR
 10
0.0
 20
1.0
 30
0.0
  9
$PUCSORTHOREF
  2

  9
$PUCSORTHOVIEW
 70
     0
  9
$PUCSORGTOP
 10
0.0
 20
0.0
 30
0.0
  9
$PUCSORGBOTTOM
 10
0.0
 20
0.0
 30
0.0
  9
$PUCSORGLEFT
 10
0.0
 20
0.0
 30
0.0
  9
$PUCSORGRIGHT
 10
0.0
 20
0.0
 30
0.0
  9
$PUCSORGFRONT
 10
0.0
 20
0.0
 30
0.0
  9
$PUCSORGBACK
 10
0.0
 20
0.0
 30
0.0
  9
$USERI1
 70
     0
  9
$USERI2
 70
     0
  9
$USERI3
 70
     0
  9
$USERI4
 70
     0
  9
$USERI5
 70
     0
  9
$USERR1
 40
0.0
  9
$USERR2
 40
0.0
  9
$USERR3
 40
0.0
  9
$USERR4
 40
0.0
  9
$USERR5
 40
0.0
  9
$WORLDVIEW
 70
     1
  9
$SHADEDGE
 70
     3
  9
$SHADEDIF
 70
    70
  9
$TILEMODE
 70
     1
  9
$MAXACTVP
 70
    16
  9
$PINSBASE
 10
0.0
 20
0.0
 30
0.0
  9
$PLIMCHECK
 70
     0
  9
$PEXTMIN
 10
1.000000000000000E+20
 20
1.000000000000000E+20
 30
1.000000000000000E+20
  9
$PEXTMAX
 10
-1.000000000000000E+20
 20
-1.000000000000000E+20
 30
-1.000000000000000E+20
  9
$PLIMMIN
 10
0.0
 20
0.0
  9
$PLIMMAX
 10
12.0
 20
9.0
  9
$UNITMODE
 70
     0
  9
$VISRETAIN
 70
     0
  9
$PLINEGEN
 70
     1
  9
$PSLTSCALE
 70
     1
  9
$TREEDEPTH
 70
  3020
  9
$CMLSTYLE
  2
Standard
  9
$CMLJUST
 70
     0
  9
$CMLSCALE
 40
1.0
  9
$PROXYGRAPHICS
 70
     1
  9
$MEASUREMENT
 70
     0
  9
$CELWEIGHT
370
    -1
  9
$ENDCAPS
280
     0
  9
$JOINSTYLE
280
     0
  9
$LWDISPLAY
290
     0
  9
$INSUNITS
 70
     0
  9
$HYPERLINKBASE
  1

  9
$STYLESHEET
  1
Color.ctb
  9
$XEDIT
290
     1
  9
$CEPSNTYPE
380
     0
  9
$PSTYLEMODE
290
     1
  9
$FINGERPRINTGUID
  2
{AB03DB19-D1FD-42BE-82E0-767E9B97BF3E}
  9
$VERSIONGUID
  2
{405B27FD-56EA-4D4D-880D-51E528FF21DC}
  9
$EXTNAMES
290
     1
  9
$PSVPSCALE
 40
0.0
  9
$OLESTARTUP
290
     0
  0
ENDSEC
  0
SECTION
  2
CLASSES
  0
CLASS
  1
ACDBDICTIONARYWDFLT
  2
AcDbDictionaryWithDefault
  3
AutoCAD 2000
 90
        0
280
     0
281
     0
  0
CLASS
  1
ACDBPLACEHOLDER
  2
AcDbPlaceHolder
  3
AutoCAD 2000
 90
        0
280
     0
281
     0
  0
CLASS
  1
LAYOUT
  2
AcDbLayout
  3
AutoCAD 2000
 90
        0
280
     0
281
     0
  0
CLASS
  1
DICTIONARYVAR
  2
AcDbDictionaryVar
  3
AutoCAD 2000
 90
        0
280
     0
281
     0
  0
ENDSEC
  0
SECTION
  2
TABLES
  0
TABLE
  2
VPORT
  5
8
330
0
100
AcDbSymbolTable
 70
     2
  0
VPORT
  5
525
330
8
100
AcDbSymbolTableRecord
100
AcDbViewportTableRecord
  2
*Active
 70
     0
 10
0.0
 20
0.0
 11
1.0
 21
1.0
 12
8.245000038393772
 22
5.220000024307517
 13
0.0
 23
0.0
 14
0.14
 24
0.14
 15
0.14
 25
0.14
 16
0.0
 26
0.0
 36
1.0
 17
0.0
 27
0.0
 37
0.0
 40
11.0072450655855
 41
1.505548705302096
 42
50.0
 43
0.0
 44
0.0
 50
0.0
 51
0.0
 71
     0
 72
  5000
 73
     1
 74
     1
 75
     0
 76
     0
 77
     0
 78
     0
281
     0
 65
     1
110
0.0
120
0.0
130
0.0
111
1.0
121
0.0
131
0.0
112
0.0
122
1.0
132
0.0
 79
     0
146
0.0
  0
ENDTAB
  0
TABLE
  2
LTYPE
  5
5
330
0
100
AcDbSymbolTable
 70
     1
  0
LTYPE
  5
13
330
5
100
AcDbSymbolTableRecord
100
AcDbLinetypeTableRecord
  2
ByBlock
 70
     0
  3

 72
    65
 73
     0
 40
0.0
  0
LTYPE
  5
14
330
5
100
AcDbSymbolTableRecord
100
AcDbLinetypeTableRecord
  2
ByLayer
 70
     0
  3

 72
    65
 73
     0
 40
0.0
  0
LTYPE
  5
15
330
5
100
AcDbSymbolTableRecord
100
AcDbLinetypeTableRecord
  2
CONTINUOUS
 70
     0
  3
Solid line
 72
    65
 73
     0
 40
0.0
  0
ENDTAB
  0
TABLE
  2
LAYER
  5
2
330
0
100
AcDbSymbolTable
 70
     6
  0
LAYER
  5
10
330
2
100
AcDbSymbolTableRecord
100
AcDbLayerTableRecord
  2
0
 70
     0
 62
     7
  6
CONTINUOUS
370
    -3
390
F
  0
LAYER
  5
2B
330
2
100
AcDbSymbolTableRecord
100
AcDbLayerTableRecord
  2
TEXT_BUBBLES
 70
     0
 62
     6
  6
CONTINUOUS
370
    -3
390
F
  0
LAYER
  5
2C
330
2
100
AcDbSymbolTableRecord
100
AcDbLayerTableRecord
  2
IMAGE
 70
     0
 62
     7
  6
CONTINUOUS
370
    -3
390
F
  0
LAYER
  5
2F
330
2
100
AcDbSymbolTableRecord
100
AcDbLayerTableRecord
  2
TEXT_LEADERS
 70
     0
 62
    -5
  6
CONTINUOUS
370
    -3
390
F
  0
LAYER
  5
30
330
2
100
AcDbSymbolTableRecord
100
AcDbLayerTableRecord
  2
INSTRUCT-CALLOUT
 70
     0
 62
     4
  6
CONTINUOUS
370
    -3
390
F
  0
LAYER
  5
47D
330
2
100
AcDbSymbolTableRecord
100
AcDbLayerTableRecord
  2
TITLE
 70
     0
 62
     4
  6
CONTINUOUS
370
    -3
390
F
  0
ENDTAB
  0
TABLE
  2
STYLE
  5
3
330
0
100
AcDbSymbolTable
 70
     6
  0
STYLE
  5
11
330
3
100
AcDbSymbolTableRecord
100
AcDbTextStyleTableRecord
  2
STANDARD
 70
     0
 40
0.0
 41
1.0
 50
0.0
 71
     0
 42
0.2
  3
txt
  4

  0
STYLE
  5
25
330
3
100
AcDbSymbolTableRecord
100
AcDbTextStyleTableRecord
  2
ROMANS
 70
     0
 40
0.0
 41
1.0
 50
0.0
 71
     0
 42
0.1
  3
ROMANS.SHX
  4

  0
STYLE
  5
26
330
3
100
AcDbSymbolTableRecord
100
AcDbTextStyleTableRecord
  2
SIMPLEX
 70
     0
 40
0.0
 41
1.0
 50
0.0
 71
     0
 42
0.1
  3
SIMPLEX
  4

  0
STYLE
  5
47E
330
3
100
AcDbSymbolTableRecord
100
AcDbTextStyleTableRecord
  2
L100
 70
     0
 40
0.1
 41
1.0
 50
0.0
 71
     0
 42
0.1
  3
romans.shx
  4

  0
STYLE
  5
47F
330
3
100
AcDbSymbolTableRecord
100
AcDbTextStyleTableRecord
  2
L200
 70
     0
 40
0.2
 41
1.0
 50
0.0
 71
     0
 42
0.081
  3
ARIAL.TTF
  4

1001
ACAD
1000
Arial
1071
       34
  0
STYLE
  5
480
330
3
100
AcDbSymbolTableRecord
100
AcDbTextStyleTableRecord
  2
L80
 70
     0
 40
0.08
 41
1.0
 50
0.0
 71
     0
 42
0.08
  3
ROMANS
  4

  0
ENDTAB
  0
TABLE
  2
VIEW
  5
6
330
0
100
AcDbSymbolTable
 70
     0
  0
ENDTAB
  0
TABLE
  2
UCS
  5
7
330
0
100
AcDbSymbolTable
 70
     0
  0
ENDTAB
  0
TABLE
  2
APPID
  5
9
330
0
100
AcDbSymbolTable
 70
     2
  0
APPID
  5
12
330
9
100
AcDbSymbolTableRecord
100
AcDbRegAppTableRecord
  2
ACAD
 70
     0
  0
APPID
  5
467
330
9
100
AcDbSymbolTableRecord
100
AcDbRegAppTableRecord
  2
DCO15
 70
     0
  0
ENDTAB
  0
TABLE
  2
DIMSTYLE
  5
A
330
0
100
AcDbSymbolTable
 70
     1
100
AcDbDimStyleTable
 71
     0
  0
DIMSTYLE
105
458
330
A
100
AcDbSymbolTableRecord
100
AcDbDimStyleTableRecord
  2
Standard
 70
     0
340
11
  0
ENDTAB
  0
TABLE
  2
BLOCK_RECORD
  5
1
330
0
100
AcDbSymbolTable
 70
     1
  0
BLOCK_RECORD
  5
1E
330
1
100
AcDbSymbolTableRecord
100
AcDbBlockTableRecord
  2
*Model_Space
340
21
  0
BLOCK_RECORD
  5
1A
330
1
100
AcDbSymbolTableRecord
100
AcDbBlockTableRecord
  2
*Paper_Space
340
1D
  0
BLOCK_RECORD
  5
46F
330
1
100
AcDbSymbolTableRecord
100
AcDbBlockTableRecord
  2
titleblock
340
0
102
{BLKREFS
331
4AD
102
}
  0
ENDTAB
  0
ENDSEC
  0
SECTION
  2
BLOCKS
  0
BLOCK
  5
35
330
1E
100
AcDbEntity
  8
0
100
AcDbBlockBegin
  2
*Model_Space
 70
     0
 10
0.0
 20
0.0
 30
0.0
  3
*Model_Space
  1

  0
ENDBLK
  5
36
330
1E
100
AcDbEntity
  8
0
100
AcDbBlockEnd
  0
BLOCK
  5
33
330
1A
100
AcDbEntity
 67
     1
  8
0
100
AcDbBlockBegin
  2
*Paper_Space
 70
     0
 10
0.0
 20
0.0
 30
0.0
  3
*Paper_Space
  1

  0
ENDBLK
  5
34
330
1A
100
AcDbEntity
 67
     1
  8
0
100
AcDbBlockEnd
  0
BLOCK
  5
47B
330
46F
100
AcDbEntity
  8
0
100
AcDbBlockBegin
  2
titleblock
 70
     2
 10
0.0
 20
0.0
 30
0.0
  3
titleblock
  1

  0
LWPOLYLINE
  5
470
330
46F
100
AcDbEntity
  8
IMAGE
100
AcDbPolyline
 90
        4
 70
     1
 43
0.0
 10
0.0
 20
0.0
 10
16.48999999999999
 20
0.0000000000000001
 10
16.48999999999999
 20
10.44
 10
0.0
 20
10.44
  0
ATTDEF
  5
471
330
46F
100
AcDbEntity
  8
TITLE
100
AcDbText
 10
0.5055556038023421
 20
0.7842270964783673
 30
0.0
 40
0.2
  1
D
  7
L200
 72
     4
 11
0.6064423705144839
 21
0.8842270964783672
 31
0.0
100
AcDbAttributeDefinition
  3
#
  2
D
 70
     0
  0
ATTDEF
  5
472
330
46F
100
AcDbEntity
  8
TITLE
100
AcDbText
 10
1.231442370514484
 20
1.34371230274675
 30
0.0
 40
0.2
  1

  7
L200
100
AcDbAttributeDefinition
  3
DETAIL TITLE TOP LINE
  2
TITLE1
 70
     0
  0
ATTDEF
  5
473
330
46F
100
AcDbEntity
  8
TITLE
100
AcDbText
 10
1.231442370514484
 20
0.9842270964783674
 30
0.0
 40
0.2
  1
TITLE
  7
L200
100
AcDbAttributeDefinition
  3
DETAIL TITLE TOP 2ND LINE
  2
TITLE2
 70
     0
  0
ATTDEF
  5
474
330
46F
100
AcDbEntity
  8
TITLE
100
AcDbText
 10
2.713645751168312
 20
0.5927927664583189
 30
0.0
 40
0.2
  1
TITLE2
  7
L200
100
AcDbAttributeDefinition
  3
DETAIL TITLE BOTTOM 1
  2
TITLE3
 70
     0
  0
ATTDEF
  5
475
330
46F
100
AcDbEntity
  8
TITLE
100
AcDbText
 10
2.713645751168312
 20
0.2692560808167741
 30
0.0
 40
0.2
  1

  7
L200
100
AcDbAttributeDefinition
  3
DETAIL TITLE BOTTOM 2
  2
TITLE4
 70
     0
  0
ATTDEF
  5
476
330
46F
100
AcDbEntity
  8
TITLE
 62
     7
100
AcDbText
 10
8.177214829966379
 20
0.9696027915446398
 30
0.0
 40
0.08
  1
-
  7
L80
 72
     2
 11
8.261024353775903
 21
0.9696027915446398
 31
0.0
100
AcDbAttributeDefinition
  3
REVISION DATE
  2
REVISED
 70
     0
  0
ATTDEF
  5
477
330
46F
100
AcDbEntity
  8
TITLE
 62
     7
100
AcDbText
 10
0.2639423705144838
 20
0.0847116480207214
 30
0.0
 40
0.08
  1
-
  7
L80
100
AcDbAttributeDefinition
  3
DWG-NAME
  2
DWG-NAME
 70
     0
  0
LWPOLYLINE
  5
478
330
46F
100
AcDbEntity
  8
TITLE
 62
     3
100
AcDbPolyline
 90
        2
 70
     1
 43
0.03
 10
0.6064423705144839
 20
0.5417270964783675
 42
0.9999999999999998
 10
0.6064423705144839
 20
1.226727096478367
 42
0.9999999999999998
  0
ATTDEF
  5
479
330
46F
100
AcDbEntity
  8
TITLE
 62
     7
100
AcDbText
 10
1.231442370514484
 20
0.7005637793954894
 30
0.0
 40
0.1
  1
N.T.S.
  7
L100
100
AcDbAttributeDefinition
  3
SCALE
  2
SCALE
 70
     0
  0
LWPOLYLINE
  5
47A
330
46F
100
AcDbEntity
  8
TITLE
 62
     3
100
AcDbPolyline
 90
        2
 70
     0
 43
0.04
 39
0.03
 10
0.9489423705144833
 20
0.8842270964783672
 10
8.261024353775903
 20
0.8842270964783672
  0
ENDBLK
  5
47C
330
46F
100
AcDbEntity
  8
0
100
AcDbBlockEnd
  0
ENDSEC
  0
SECTION
  2
ENTITIES
  0
TEXT
  5
D1
330
1E
100
AcDbEntity
  8
TEXT_BUBBLES
100
AcDbText
 10
5.0663317767001
 20
8.064478018501922
 30
0.0
 40
0.125
  1
1
  7
ROMANS
 72
     4
 11
5.116927014795338
 21
8.126978018501922
 31
0.0
100
AcDbText
  0
LWPOLYLINE
  5
D4
330
1E
100
AcDbEntity
  8
IMAGE
100
AcDbPolyline
 90
        2
 70
     0
 43
0.0
 10
2.925162665760909
 20
6.835938467218737
 10
3.112542104656876
 20
6.835938467218737
  0
LINE
  5
D8
330
1E
100
AcDbEntity
  8
IMAGE
100
AcDbLine
 10
2.909341990180578
 20
6.810527655649491
 30
0.0
 11
3.128735893346302
 21
6.810527655649491
 31
0.0
  0
LINE
  5
D9
330
1E
100
AcDbEntity
  8
IMAGE
100
AcDbLine
 10
3.128735893346302
 20
6.862743769985381
 30
0.0
 11
3.1287358933463
 21
6.153523352891022
 31
0.0
  0
LINE
  5
DA
330
1E
100
AcDbEntity
  8
IMAGE
100
AcDbLine
 10
2.909341990180578
 20
6.862743769985381
 30
0.0
 11
2.909341990180577
 21
6.153523352891022
 31
0.0
  0
LWPOLYLINE
  5
DB
330
1E
100
AcDbEntity
  8
IMAGE
100
AcDbPolyline
 90
        2
 70
     0
 43
0.0
 10
2.925162665760909
 20
5.939811958191416
 10
3.112542104656876
 20
5.939811958191416
  0
LINE
  5
DF
330
1E
100
AcDbEntity
  8
IMAGE
100
AcDbLine
 10
2.909341990180578
 20
5.966837640755113
 30
0.0
 11
3.128735893346302
 21
5.966837640755113
 31
0.0
  0
TEXT
  5
E0
330
1E
100
AcDbEntity
  8
TEXT_BUBBLES
100
AcDbText
 10
5.388744749999999
 20
4.570013781443594
 30
0.0
 40
0.125
  1
UV RADIATION RESISTANT
  7
SIMPLEX
100
AcDbText
  0
TEXT
  5
E2
330
1E
100
AcDbEntity
  8
TEXT_BUBBLES
100
AcDbText
 10
5.388744749999999
 20
5.970013781443594
 30
0.0
 40
0.125
  1
UV RADIATION RESISTANT
  7
SIMPLEX
100
AcDbText
  0
LWPOLYLINE
  5
E3
330
1E
100
AcDbEntity
  8
IMAGE
100
AcDbPolyline
 90
        4
 70
     0
 43
0.0
 10
1.914250151053655
 20
5.592770421296467
 42
0.6332430429610296
 10
1.914250151053655
 20
5.488889604072499
 42
-0.6332430429610812
 10
1.914250151053655
 20
5.385008786848531
 42
-0.6134111328532366
 10
1.914250151053655
 20
5.488889604072499
 42
-0.6134111328532366
  0
LWPOLYLINE
  5
E9
330
1E
100
AcDbEntity
  8
IMAGE
100
AcDbPolyline
 90
        4
 70
     0
 43
0.0
 10
4.126255371352874
 20
5.594267623836126
 42
-0.6332430429610296
 10
4.126255371352874
 20
5.490386806612158
 42
0.6332430429610812
 10
4.126255371352874
 20
5.386505989388187
 42
0.6134111328532366
 10
4.12625537135287
 20
5.490386806612155
 42
0.6134111328532366
  0
LINE
  5
EF
330
1E
100
AcDbEntity
  8
IMAGE
100
AcDbLine
 10
3.312448544951017
 20
5.619869179921422
 30
0.0
 11
3.312448544951015
 21
5.361862347689545
 31
0.0
  0
LINE
  5
F0
330
1E
100
AcDbEntity
  8
IMAGE
100
AcDbLine
 10
3.312448544951017
 20
5.361862347689545
 30
0.0
 11
2.727068694419666
 21
5.361862347689545
 31
0.0
  0
LINE
  5
F1
330
1E
100
AcDbEntity
  8
IMAGE
100
AcDbLine
 10
2.727068694419666
 20
5.61986917992142
 30
0.0
 11
2.727068694419666
 21
5.361862347689547
 31
0.0
  0
LINE
  5
F2
330
1E
100
AcDbEntity
  8
IMAGE
100
AcDbLine
 10
4.126255371352874
 20
5.594267623836125
 30
0.0
 11
3.312448544951017
 21
5.594267623836125
 31
0.0
  0
LINE
  5
F3
330
1E
100
AcDbEntity
  8
IMAGE
100
AcDbLine
 10
4.126255371352874
 20
5.386505989388187
 30
0.0
 11
3.312448544951017
 21
5.386505989388187
 31
0.0
  0
LINE
  5
F4
330
1E
100
AcDbEntity
  8
IMAGE
100
AcDbLine
 10
2.727068694419666
 20
5.385008786848529
 30
0.0
 11
1.916254351453069
 21
5.385008786848529
 31
0.0
  0
LINE
  5
F5
330
1E
100
AcDbEntity
  8
IMAGE
100
AcDbLine
 10
2.727068694419666
 20
5.592770421296466
 30
0.0
 11
1.914250151053655
 21
5.592770421296466
 31
0.0
  0
LINE
  5
F6
330
1E
100
AcDbEntity
  8
IMAGE
100
AcDbLine
 10
2.727068694419666
 20
5.61986917992142
 30
0.0
 11
2.890755203569405
 21
5.619869179921422
 31
0.0
  0
TEXT
  5
F7
330
1E
100
AcDbEntity
  8
TEXT_BUBBLES
100
AcDbText
 10
5.388744749999999
 20
7.020013781443593
 30
0.0
 40
0.125
  1
UV RADIATION RESISTANT
  7
SIMPLEX
100
AcDbText
  0
TEXT
  5
F8
330
1E
100
AcDbEntity
  8
TEXT_BUBBLES
100
AcDbText
 10
5.388744749999999
 20
6.845013781443594
 30
0.0
 40
0.125
  1
  PVC SCH 80 NIPPLE
  7
SIMPLEX
100
AcDbText
  0
TEXT
  5
F9
330
1E
100
AcDbEntity
  8
TEXT_BUBBLES
100
AcDbText
 10
5.388744749999999
 20
6.670013781443594
 30
0.0
 40
0.125
  1
  (LENGTH AS REQUIRED)
  7
SIMPLEX
100
AcDbText
  0
LINE
  5
FA
330
1E
100
AcDbEntity
  8
IMAGE
100
AcDbLine
 10
2.886673408131843
 20
7.18079391317057
 30
0.0
 11
2.886673408131843
 21
7.079777034205599
 31
0.0
  0
LINE
  5
FB
330
1E
100
AcDbEntity
  8
IMAGE
100
AcDbLine
 10
2.672677866492085
 20
7.18079391317057
 30
0.0
 11
2.672677866492085
 21
7.079777034205599
 31
0.0
  0
LINE
  5
FC
330
1E
100
AcDbEntity
  8
IMAGE
100
AcDbLine
 10
2.672677866492085
 20
5.385008786848529
 30
0.0
 11
2.672677866492085
 21
4.655647899826205
 31
0.0
  0
LINE
  5
FD
330
1E
100
AcDbEntity
  8
IMAGE
100
AcDbLine
 10
2.886673408131843
 20
5.361862347689545
 30
0.0
 11
2.886673408131843
 21
4.655647899826204
 31
0.0
  0
ARC
  5
FE
330
1E
100
AcDbEntity
  8
IMAGE
100
AcDbCircle
 10
2.788246493230394
 20
7.040671761367259
 30
0.0
 40
0.0363347932812923
100
AcDbArc
 50
142.5532855597031
 51
232.8116314160015
  0
LINE
  5
FF
330
1E
100
AcDbEntity
  8
IMAGE
100
AcDbLine
 10
3.155769572918854
 20
7.079777034205599
 30
0.0
 11
2.671793233934533
 21
7.079777034205599
 31
0.0
  0
LINE
  5
100
330
1E
100
AcDbEntity
  8
IMAGE
100
AcDbLine
 10
3.155769572918854
 20
6.994712681956424
 30
0.0
 11
2.671793233934533
 21
6.994712681956424
 31
0.0
  0
ARC
  5
101
330
1E
100
AcDbEntity
  8
IMAGE
100
AcDbCircle
 10
2.71439157866531
 20
7.040671761367259
 30
0.0
 40
0.0363347932812923
100
AcDbArc
 50
142.5532855597031
 51
232.8116314160015
  0
LINE
  5
102
330
1E
100
AcDbEntity
  8
IMAGE
100
AcDbLine
 10
2.685544690453497
 20
7.062764163755743
 30
0.0
 11
2.69242947062492
 21
7.011725552406171
 31
0.0
  0
ARC
  5
103
330
1E
100
AcDbEntity
  8
IMAGE
100
AcDbCircle
 10
2.732542362753246
 20
7.040671761367259
 30
0.0
 40
0.0363347932812923
100
AcDbArc
 50
142.5532855597031
 51
232.8116314160015
  0
LINE
  5
104
330
1E
100
AcDbEntity
  8
IMAGE
100
AcDbLine
 10
2.703695474541655
 20
7.062764163755743
 30
0.0
 11
2.710580254712761
 21
7.011725552406171
 31
0.0
  0
ARC
  5
105
330
1E
100
AcDbEntity
  8
IMAGE
100
AcDbCircle
 10
2.750693146841404
 20
7.040671761367259
 30
0.0
 40
0.0363347932812923
100
AcDbArc
 50
142.5532855597031
 51
232.8116314160015
  0
LINE
  5
106
330
1E
100
AcDbEntity
  8
IMAGE
100
AcDbLine
 10
2.721846258629488
 20
7.062764163755743
 30
0.0
 11
2.728731038800907
 21
7.011725552406171
 31
0.0
  0
ARC
  5
107
330
1E
100
AcDbEntity
  8
IMAGE
100
AcDbCircle
 10
2.769469820035743
 20
7.040671761367259
 30
0.0
 40
0.0363347932812923
100
AcDbArc
 50
142.5532855597031
 51
232.8116314160015
  0
LINE
  5
108
330
1E
100
AcDbEntity
  8
IMAGE
100
AcDbLine
 10
2.740622931824031
 20
7.062764163755743
 30
0.0
 11
2.747507711995353
 21
7.011725552406171
 31
0.0
  0
ARC
  5
109
330
1E
100
AcDbEntity
  8
IMAGE
100
AcDbCircle
 10
2.664445181056573
 20
6.998185460748051
 30
0.0
 40
0.0101391053531439
100
AcDbArc
 50
221.6972960676141
 51
316.4458918268223
  0
LINE
  5
10A
330
1E
100
AcDbEntity
  8
IMAGE
100
AcDbLine
 10
2.656874619568258
 20
6.9914409773645
 30
0.0
 11
2.647940689234127
 21
7.001723126414556
 31
0.0
  0
LINE
  5
10B
330
1E
100
AcDbEntity
  8
IMAGE
100
AcDbLine
 10
2.658158857240197
 20
6.992556822878602
 30
0.0
 11
2.649610181857427
 21
7.002395578183372
 31
0.0
  0
ARC
  5
10C
330
1E
100
AcDbEntity
  8
IMAGE
100
AcDbCircle
 10
2.664445181056573
 20
6.998185460748051
 30
0.0
 40
0.0084378183081614
100
AcDbArc
 50
221.6972960676141
 51
330.5572729070301
  0
ARC
  5
10D
330
1E
100
AcDbEntity
  8
IMAGE
100
AcDbCircle
 10
2.664445181056573
 20
7.072790792278376
 30
0.0
 40
0.0084378183081614
100
AcDbArc
 50
29.4427270929698
 51
138.3027039323858
  0
LINE
  5
10E
330
1E
100
AcDbEntity
  8
IMAGE
100
AcDbLine
 10
2.658158857240197
 20
7.078419430147826
 30
0.0
 11
2.649610181857427
 21
7.068580674843055
 31
0.0
  0
LINE
  5
10F
330
1E
100
AcDbEntity
  8
IMAGE
100
AcDbLine
 10
2.656874619568258
 20
7.07953527566192
 30
0.0
 11
2.647940689234127
 21
7.069253126611864
 31
0.0
  0
CIRCLE
  5
110
330
1E
100
AcDbEntity
  8
IMAGE
100
AcDbCircle
 10
2.63531072295135
 20
7.03548812651319
 30
0.0
 40
0.0360498443820563
  0
ARC
  5
111
330
1E
100
AcDbEntity
  8
IMAGE
100
AcDbCircle
 10
2.664445181056573
 20
7.072790792278376
 30
0.0
 40
0.0101391053531439
100
AcDbArc
 50
43.55410817317756
 51
138.3027039323858
  0
LWPOLYLINE
  5
112
330
1E
100
AcDbEntity
  8
IMAGE
100
AcDbPolyline
 90
        2
 70
     0
 43
0.0
 10
2.643398185396744
 20
7.01297379542851
 10
2.63531072295135
 20
7.008304496808679
  0
LWPOLYLINE
  5
116
330
1E
100
AcDbEntity
  8
IMAGE
100
AcDbPolyline
 90
        5
 70
     0
 43
0.0
 10
2.627223260506065
 20
7.058002457597917
 10
2.63531072295135
 20
7.062671756217805
 10
2.658852436842732
 20
7.049079941365444
 10
2.658852436842732
 20
7.021896311660984
 10
2.650764974397224
 20
7.017227013041044
  0
ARC
  5
11D
330
1E
100
AcDbEntity
  8
IMAGE
100
AcDbCircle
 10
2.63531072295135
 20
7.03548812651319
 30
0.0
 40
0.019416878360384
100
AcDbArc
 50
132.6530910809695
 51
287.3469089190293
  0
LWPOLYLINE
  5
11E
330
1E
100
AcDbEntity
  8
IMAGE
100
AcDbPolyline
 90
        4
 70
     0
 43
0.0
 10
2.63531072295135
 20
7.008304496808679
 10
2.611769009060287
 20
7.021896311660984
 10
2.611769009060287
 20
7.049079941365444
 10
2.619856471505579
 20
7.053749239985383
  0
LINE
  5
124
330
1E
100
AcDbEntity
  8
IMAGE
100
AcDbLine
 10
2.627223260506065
 20
7.058002457597917
 30
0.0
 11
2.650764974397224
 21
7.017227013041044
 31
0.0
  0
LINE
  5
125
330
1E
100
AcDbEntity
  8
IMAGE
100
AcDbLine
 10
2.619856471505579
 20
7.053749239985383
 30
0.0
 11
2.643398185396744
 21
7.01297379542851
 31
0.0
  0
ARC
  5
126
330
1E
100
AcDbEntity
  8
IMAGE
100
AcDbCircle
 10
2.63531072295135
 20
7.03548812651319
 30
0.0
 40
0.019416878360384
100
AcDbArc
 50
312.6530910809717
 51
107.3469089190281
  0
CIRCLE
  5
127
330
1E
100
AcDbEntity
  8
IMAGE
100
AcDbCircle
 10
2.63531072295135
 20
7.03548812651319
 30
0.0
 40
0.0322956548274434
  0
LINE
  5
128
330
1E
100
AcDbEntity
  8
IMAGE
100
AcDbLine
 10
2.759399605018586
 20
7.062764163755743
 30
0.0
 11
2.766284385189907
 21
7.011725552406171
 31
0.0
  0
ARC
  5
129
330
1E
100
AcDbEntity
  8
IMAGE
100
AcDbCircle
 10
2.807023166424841
 20
7.040671761367259
 30
0.0
 40
0.0363347932812923
100
AcDbArc
 50
142.5532855597031
 51
232.8116314160015
  0
LINE
  5
12A
330
1E
100
AcDbEntity
  8
IMAGE
100
AcDbLine
 10
2.778176278213033
 20
7.062764163755743
 30
0.0
 11
2.785061058384457
 21
7.011725552406171
 31
0.0
  0
ARC
  5
12B
330
1E
100
AcDbEntity
  8
IMAGE
100
AcDbCircle
 10
2.827051617832291
 20
7.040671761367259
 30
0.0
 40
0.0363347932812923
100
AcDbArc
 50
142.5532855597031
 51
232.8116314160015
  0
LINE
  5
12C
330
1E
100
AcDbEntity
  8
IMAGE
100
AcDbLine
 10
2.798204729620584
 20
7.062764163755743
 30
0.0
 11
2.805089509791907
 21
7.011725552406171
 31
0.0
  0
ARC
  5
12D
330
1E
100
AcDbEntity
  8
IMAGE
100
AcDbCircle
 10
2.846454180133344
 20
7.040671761367259
 30
0.0
 40
0.0363347932812923
100
AcDbArc
 50
142.5532855597031
 51
232.8116314160015
  0
LINE
  5
12E
330
1E
100
AcDbEntity
  8
IMAGE
100
AcDbLine
 10
2.817607291921534
 20
7.062764163755743
 30
0.0
 11
2.824492072092846
 21
7.011725552406171
 31
0.0
  0
ARC
  5
12F
330
1E
100
AcDbEntity
  8
IMAGE
100
AcDbCircle
 10
2.865230853327892
 20
7.040671761367259
 30
0.0
 40
0.0363347932812923
100
AcDbArc
 50
142.5532855597031
 51
232.8116314160015
  0
LINE
  5
130
330
1E
100
AcDbEntity
  8
IMAGE
100
AcDbLine
 10
2.83638396511597
 20
7.062764163755743
 30
0.0
 11
2.843268745287394
 21
7.011725552406171
 31
0.0
  0
ARC
  5
131
330
1E
100
AcDbEntity
  8
IMAGE
100
AcDbCircle
 10
2.885259304735233
 20
7.040671761367259
 30
0.0
 40
0.0363347932812923
100
AcDbArc
 50
142.5532855597031
 51
232.8116314160015
  0
LINE
  5
132
330
1E
100
AcDbEntity
  8
IMAGE
100
AcDbLine
 10
2.85641241652363
 20
7.062764163755743
 30
0.0
 11
2.863297196694736
 21
7.011725552406171
 31
0.0
  0
ARC
  5
133
330
1E
100
AcDbEntity
  8
IMAGE
100
AcDbCircle
 10
2.904661867036178
 20
7.040671761367259
 30
0.0
 40
0.0363347932812923
100
AcDbArc
 50
142.5532855597031
 51
232.8116314160015
  0
LINE
  5
134
330
1E
100
AcDbEntity
  8
IMAGE
100
AcDbLine
 10
2.875814978824575
 20
7.062764163755743
 30
0.0
 11
2.882699758995681
 21
7.011725552406171
 31
0.0
  0
ARC
  5
135
330
1E
100
AcDbEntity
  8
IMAGE
100
AcDbCircle
 10
2.92406442933713
 20
7.040671761367259
 30
0.0
 40
0.0363347932812923
100
AcDbArc
 50
142.5532855597031
 51
232.8116314160015
  0
LINE
  5
136
330
1E
100
AcDbEntity
  8
IMAGE
100
AcDbLine
 10
2.895217541125527
 20
7.062764163755743
 30
0.0
 11
2.902102321296842
 21
7.011725552406171
 31
0.0
  0
ARC
  5
137
330
1E
100
AcDbEntity
  8
IMAGE
100
AcDbCircle
 10
2.943466991638171
 20
7.040671761367259
 30
0.0
 40
0.0363347932812923
100
AcDbArc
 50
142.5532855597031
 51
232.8116314160015
  0
LINE
  5
138
330
1E
100
AcDbEntity
  8
IMAGE
100
AcDbLine
 10
2.914620103426472
 20
7.062764163755743
 30
0.0
 11
2.921504883597787
 21
7.011725552406171
 31
0.0
  0
ARC
  5
139
330
1E
100
AcDbEntity
  8
IMAGE
100
AcDbCircle
 10
2.962243664832726
 20
7.040671761367259
 30
0.0
 40
0.0363347932812923
100
AcDbArc
 50
142.5532855597031
 51
232.8116314160015
  0
LINE
  5
13A
330
1E
100
AcDbEntity
  8
IMAGE
100
AcDbLine
 10
2.93339677662102
 20
7.062764163755743
 30
0.0
 11
2.940281556792234
 21
7.011725552406171
 31
0.0
  0
ARC
  5
13B
330
1E
100
AcDbEntity
  8
IMAGE
100
AcDbCircle
 10
2.981646227133671
 20
7.040671761367259
 30
0.0
 40
0.0363347932812923
100
AcDbArc
 50
142.5532855597031
 51
232.8116314160015
  0
LINE
  5
13C
330
1E
100
AcDbEntity
  8
IMAGE
100
AcDbLine
 10
2.952799338922078
 20
7.062764163755743
 30
0.0
 11
2.959684119093173
 21
7.011725552406171
 31
0.0
  0
LINE
  5
13D
330
1E
100
AcDbEntity
  8
IMAGE
100
AcDbLine
 10
3.155769572918854
 20
7.079777034205599
 30
0.0
 11
3.155769572918854
 21
6.994712681956424
 31
0.0
  0
LINE
  5
13E
330
1E
100
AcDbEntity
  8
IMAGE
100
AcDbLine
 10
3.049186261320516
 20
7.062764163755743
 30
0.0
 11
3.056071041491611
 21
7.011725552406171
 31
0.0
  0
ARC
  5
13F
330
1E
100
AcDbEntity
  8
IMAGE
100
AcDbCircle
 10
3.078033149532108
 20
7.040671761367259
 30
0.0
 40
0.0363347932812923
100
AcDbArc
 50
142.5532855597031
 51
232.8116314160015
  0
LINE
  5
140
330
1E
100
AcDbEntity
  8
IMAGE
100
AcDbLine
 10
3.029783699019457
 20
7.062764163755743
 30
0.0
 11
3.036668479190671
 21
7.011725552406171
 31
0.0
  0
ARC
  5
141
330
1E
100
AcDbEntity
  8
IMAGE
100
AcDbCircle
 10
3.058630587231164
 20
7.040671761367259
 30
0.0
 40
0.0363347932812923
100
AcDbArc
 50
142.5532855597031
 51
232.8116314160015
  0
LINE
  5
142
330
1E
100
AcDbEntity
  8
IMAGE
100
AcDbLine
 10
3.011007025824909
 20
7.062764163755743
 30
0.0
 11
3.017891805996224
 21
7.011725552406171
 31
0.0
  0
ARC
  5
143
330
1E
100
AcDbEntity
  8
IMAGE
100
AcDbCircle
 10
3.039853914036608
 20
7.040671761367259
 30
0.0
 40
0.0363347932812923
100
AcDbArc
 50
142.5532855597031
 51
232.8116314160015
  0
LINE
  5
144
330
1E
100
AcDbEntity
  8
IMAGE
100
AcDbLine
 10
2.991604463523964
 20
7.062764163755743
 30
0.0
 11
2.99848924369528
 21
7.011725552406171
 31
0.0
  0
ARC
  5
145
330
1E
100
AcDbEntity
  8
IMAGE
100
AcDbCircle
 10
3.020451351735568
 20
7.040671761367259
 30
0.0
 40
0.0363347932812923
100
AcDbArc
 50
142.5532855597031
 51
232.8116314160015
  0
LINE
  5
146
330
1E
100
AcDbEntity
  8
IMAGE
100
AcDbLine
 10
2.972201901223012
 20
7.062764163755743
 30
0.0
 11
2.979086681394118
 21
7.011725552406171
 31
0.0
  0
ARC
  5
147
330
1E
100
AcDbEntity
  8
IMAGE
100
AcDbCircle
 10
3.001048789434616
 20
7.040671761367259
 30
0.0
 40
0.0363347932812923
100
AcDbArc
 50
142.5532855597031
 51
232.8116314160015
  0
ARC
  5
148
330
1E
100
AcDbEntity
  8
IMAGE
100
AcDbCircle
 10
3.097435711833014
 20
7.040671761367328
 30
0.0
 40
0.0363347932812923
100
AcDbArc
 50
142.5532855597031
 51
232.8116314160015
  0
LINE
  5
149
330
1E
100
AcDbEntity
  8
IMAGE
100
AcDbLine
 10
3.068588823621313
 20
7.062764163755811
 30
0.0
 11
3.07547360379263
 21
7.01172555240624
 31
0.0
  0
ARC
  5
14A
330
1E
100
AcDbEntity
  8
IMAGE
100
AcDbCircle
 10
3.116212385027568
 20
7.040671761367328
 30
0.0
 40
0.0363347932812923
100
AcDbArc
 50
142.5532855597031
 51
232.8116314160015
  0
LINE
  5
14B
330
1E
100
AcDbEntity
  8
IMAGE
100
AcDbLine
 10
3.087365496815863
 20
7.062764163755811
 30
0.0
 11
3.094250276987077
 21
7.01172555240624
 31
0.0
  0
ARC
  5
14C
330
1E
100
AcDbEntity
  8
IMAGE
100
AcDbCircle
 10
3.135614947328514
 20
7.040671761367328
 30
0.0
 40
0.0363347932812923
100
AcDbArc
 50
142.5532855597031
 51
232.8116314160015
  0
LINE
  5
14D
330
1E
100
AcDbEntity
  8
IMAGE
100
AcDbLine
 10
3.106768059116921
 20
7.062764163755811
 30
0.0
 11
3.113652839288016
 21
7.01172555240624
 31
0.0
  0
ARC
  5
14E
330
1E
100
AcDbEntity
  8
IMAGE
100
AcDbCircle
 10
3.155017509629454
 20
7.040671761367334
 30
0.0
 40
0.0363347932812923
100
AcDbArc
 50
142.5532855597031
 51
232.8116314160015
  0
LINE
  5
14F
330
1E
100
AcDbEntity
  8
IMAGE
100
AcDbLine
 10
3.126170621417861
 20
7.062764163755818
 30
0.0
 11
3.133055401588956
 21
7.011725552406246
 31
0.0
  0
ARC
  5
150
330
1E
100
AcDbEntity
  8
IMAGE
100
AcDbCircle
 10
3.174420071930391
 20
7.040671761367339
 30
0.0
 40
0.0363347932812923
100
AcDbArc
 50
142.5532855597031
 51
232.8116314160015
  0
LINE
  5
151
330
1E
100
AcDbEntity
  8
IMAGE
100
AcDbLine
 10
3.145573183718799
 20
7.062764163755823
 30
0.0
 11
3.152457963889894
 21
7.011725552406251
 31
0.0
  0
LINE
  5
152
330
1E
100
AcDbEntity
  8
IMAGE
100
AcDbLine
 10
2.672677866492085
 20
6.994712681956424
 30
0.0
 11
2.672677866492085
 21
6.153523352891022
 31
0.0
  0
LINE
  5
153
330
1E
100
AcDbEntity
  8
IMAGE
100
AcDbLine
 10
2.672677866492085
 20
7.18079391317057
 30
0.0
 11
2.886673408131841
 21
7.18079391317057
 31
0.0
  0
LINE
  5
154
330
1E
100
AcDbEntity
  8
IMAGE
100
AcDbLine
 10
2.886673408131843
 20
6.994712681956424
 30
0.0
 11
2.886673408131843
 21
6.153523352891022
 31
0.0
  0
LINE
  5
155
330
1E
100
AcDbEntity
  8
IMAGE
100
AcDbLine
 10
2.658158857240197
 20
6.15216574883325
 30
0.0
 11
2.649610181857427
 21
6.14232699352848
 31
0.0
  0
LINE
  5
156
330
1E
100
AcDbEntity
  8
IMAGE
100
AcDbLine
 10
2.656874619568258
 20
6.153281594347345
 30
0.0
 11
2.647940689234127
 21
6.142999445297289
 31
0.0
  0
ARC
  5
157
330
1E
100
AcDbEntity
  8
IMAGE
100
AcDbCircle
 10
2.71439157866531
 20
6.114418080052684
 30
0.0
 40
0.0363347932812923
100
AcDbArc
 50
142.5532855597031
 51
232.8116314160015
  0
LINE
  5
158
330
1E
100
AcDbEntity
  8
IMAGE
100
AcDbLine
 10
2.685544690453497
 20
6.136510482441168
 30
0.0
 11
2.69242947062492
 21
6.085471871091596
 31
0.0
  0
ARC
  5
159
330
1E
100
AcDbEntity
  8
IMAGE
100
AcDbCircle
 10
2.732542362753246
 20
6.114418080052684
 30
0.0
 40
0.0363347932812923
100
AcDbArc
 50
142.5532855597031
 51
232.8116314160015
  0
LINE
  5
15A
330
1E
100
AcDbEntity
  8
IMAGE
100
AcDbLine
 10
2.703695474541655
 20
6.136510482441168
 30
0.0
 11
2.710580254712761
 21
6.085471871091596
 31
0.0
  0
ARC
  5
15B
330
1E
100
AcDbEntity
  8
IMAGE
100
AcDbCircle
 10
2.750693146841404
 20
6.114418080052684
 30
0.0
 40
0.0363347932812923
100
AcDbArc
 50
142.5532855597031
 51
232.8116314160015
  0
LINE
  5
15C
330
1E
100
AcDbEntity
  8
IMAGE
100
AcDbLine
 10
2.721846258629488
 20
6.136510482441168
 30
0.0
 11
2.728731038800907
 21
6.085471871091596
 31
0.0
  0
ARC
  5
15D
330
1E
100
AcDbEntity
  8
IMAGE
100
AcDbCircle
 10
2.769469820035743
 20
6.114418080052684
 30
0.0
 40
0.0363347932812923
100
AcDbArc
 50
142.5532855597031
 51
232.8116314160015
  0
LINE
  5
15E
330
1E
100
AcDbEntity
  8
IMAGE
100
AcDbLine
 10
2.740622931824031
 20
6.136510482441168
 30
0.0
 11
2.747507711995353
 21
6.085471871091596
 31
0.0
  0
ARC
  5
15F
330
1E
100
AcDbEntity
  8
IMAGE
100
AcDbCircle
 10
2.664445181056573
 20
6.071931779433476
 30
0.0
 40
0.0101391053531439
100
AcDbArc
 50
221.6972960676141
 51
316.4458918268223
  0
LINE
  5
160
330
1E
100
AcDbEntity
  8
IMAGE
100
AcDbLine
 10
2.656874619568258
 20
6.065187296049924
 30
0.0
 11
2.647940689234127
 21
6.07546944509998
 31
0.0
  0
LINE
  5
161
330
1E
100
AcDbEntity
  8
IMAGE
100
AcDbLine
 10
2.658158857240197
 20
6.066303141564026
 30
0.0
 11
2.649610181857427
 21
6.076141896868796
 31
0.0
  0
ARC
  5
162
330
1E
100
AcDbEntity
  8
IMAGE
100
AcDbCircle
 10
2.664445181056573
 20
6.071931779433476
 30
0.0
 40
0.0084378183081614
100
AcDbArc
 50
221.6972960676141
 51
330.5572729070301
  0
CIRCLE
  5
163
330
1E
100
AcDbEntity
  8
IMAGE
100
AcDbCircle
 10
2.63531072295135
 20
6.109234445198615
 30
0.0
 40
0.0360498443820563
  0
LWPOLYLINE
  5
164
330
1E
100
AcDbEntity
  8
IMAGE
100
AcDbPolyline
 90
        2
 70
     0
 43
0.0
 10
2.643398185396744
 20
6.086720114113933
 10
2.63531072295135
 20
6.082050815494103
  0
LWPOLYLINE
  5
168
330
1E
100
AcDbEntity
  8
IMAGE
100
AcDbPolyline
 90
        5
 70
     0
 43
0.0
 10
2.627223260506065
 20
6.131748776283343
 10
2.63531072295135
 20
6.136418074903231
 10
2.658852436842732
 20
6.122826260050869
 10
2.658852436842732
 20
6.095642630346407
 10
2.650764974397224
 20
6.09097333172647
  0
ARC
  5
16F
330
1E
100
AcDbEntity
  8
IMAGE
100
AcDbCircle
 10
2.63531072295135
 20
6.109234445198615
 30
0.0
 40
0.019416878360384
100
AcDbArc
 50
132.6530910809695
 51
287.3469089190293
  0
LWPOLYLINE
  5
170
330
1E
100
AcDbEntity
  8
IMAGE
100
AcDbPolyline
 90
        4
 70
     0
 43
0.0
 10
2.63531072295135
 20
6.082050815494103
 10
2.611769009060287
 20
6.095642630346407
 10
2.611769009060287
 20
6.122826260050869
 10
2.619856471505579
 20
6.127495558670808
  0
LINE
  5
176
330
1E
100
AcDbEntity
  8
IMAGE
100
AcDbLine
 10
2.627223260506065
 20
6.131748776283342
 30
0.0
 11
2.650764974397224
 21
6.090973331726469
 31
0.0
  0
LINE
  5
177
330
1E
100
AcDbEntity
  8
IMAGE
100
AcDbLine
 10
2.619856471505579
 20
6.127495558670807
 30
0.0
 11
2.643398185396744
 21
6.086720114113933
 31
0.0
  0
ARC
  5
178
330
1E
100
AcDbEntity
  8
IMAGE
100
AcDbCircle
 10
2.63531072295135
 20
6.109234445198615
 30
0.0
 40
0.019416878360384
100
AcDbArc
 50
312.6530910809717
 51
107.3469089190281
  0
CIRCLE
  5
179
330
1E
100
AcDbEntity
  8
IMAGE
100
AcDbCircle
 10
2.63531072295135
 20
6.109234445198615
 30
0.0
 40
0.0322956548274434
  0
ARC
  5
17A
330
1E
100
AcDbEntity
  8
IMAGE
100
AcDbCircle
 10
2.664445181056573
 20
6.146537110963801
 30
0.0
 40
0.0084378183081614
100
AcDbArc
 50
29.4427270929698
 51
138.3027039323858
  0
ARC
  5
17B
330
1E
100
AcDbEntity
  8
IMAGE
100
AcDbCircle
 10
2.664445181056573
 20
6.146537110963801
 30
0.0
 40
0.0101391053531439
100
AcDbArc
 50
43.55410817317756
 51
138.3027039323858
  0
LINE
  5
17C
330
1E
100
AcDbEntity
  8
IMAGE
100
AcDbLine
 10
3.135302442460917
 20
6.068459000641849
 30
0.0
 11
2.671793233934533
 21
6.068459000641849
 31
0.0
  0
LINE
  5
17D
330
1E
100
AcDbEntity
  8
IMAGE
100
AcDbLine
 10
3.135302442460917
 20
6.153523352891023
 30
0.0
 11
2.671793233934533
 21
6.153523352891023
 31
0.0
  0
ARC
  5
17E
330
1E
100
AcDbEntity
  8
IMAGE
100
AcDbCircle
 10
2.807023166424841
 20
6.114418080052684
 30
0.0
 40
0.0363347932812923
100
AcDbArc
 50
142.5532855597031
 51
232.8116314160015
  0
ARC
  5
17F
330
1E
100
AcDbEntity
  8
IMAGE
100
AcDbCircle
 10
2.788246493230394
 20
6.114418080052684
 30
0.0
 40
0.0363347932812923
100
AcDbArc
 50
142.5532855597031
 51
232.8116314160015
  0
LINE
  5
180
330
1E
100
AcDbEntity
  8
IMAGE
100
AcDbLine
 10
2.759399605018586
 20
6.136510482441168
 30
0.0
 11
2.766284385189907
 21
6.085471871091596
 31
0.0
  0
LINE
  5
181
330
1E
100
AcDbEntity
  8
IMAGE
100
AcDbLine
 10
2.798204729620584
 20
6.136510482441168
 30
0.0
 11
2.805089509791907
 21
6.085471871091596
 31
0.0
  0
ARC
  5
182
330
1E
100
AcDbEntity
  8
IMAGE
100
AcDbCircle
 10
2.846454180133344
 20
6.114418080052684
 30
0.0
 40
0.0363347932812923
100
AcDbArc
 50
142.5532855597031
 51
232.8116314160015
  0
LINE
  5
183
330
1E
100
AcDbEntity
  8
IMAGE
100
AcDbLine
 10
2.817607291921534
 20
6.136510482441168
 30
0.0
 11
2.824492072092846
 21
6.085471871091596
 31
0.0
  0
ARC
  5
184
330
1E
100
AcDbEntity
  8
IMAGE
100
AcDbCircle
 10
2.865230853327892
 20
6.114418080052684
 30
0.0
 40
0.0363347932812923
100
AcDbArc
 50
142.5532855597031
 51
232.8116314160015
  0
LINE
  5
185
330
1E
100
AcDbEntity
  8
IMAGE
100
AcDbLine
 10
2.83638396511597
 20
6.136510482441168
 30
0.0
 11
2.843268745287394
 21
6.085471871091596
 31
0.0
  0
LINE
  5
186
330
1E
100
AcDbEntity
  8
IMAGE
100
AcDbLine
 10
2.778176278213033
 20
6.136510482441168
 30
0.0
 11
2.785061058384457
 21
6.085471871091596
 31
0.0
  0
ARC
  5
187
330
1E
100
AcDbEntity
  8
IMAGE
100
AcDbCircle
 10
2.827051617832291
 20
6.114418080052684
 30
0.0
 40
0.0363347932812923
100
AcDbArc
 50
142.5532855597031
 51
232.8116314160015
  0
ARC
  5
188
330
1E
100
AcDbEntity
  8
IMAGE
100
AcDbCircle
 10
3.020451351735568
 20
6.114418080052684
 30
0.0
 40
0.0363347932812923
100
AcDbArc
 50
142.5532855597031
 51
232.8116314160015
  0
ARC
  5
189
330
1E
100
AcDbEntity
  8
IMAGE
100
AcDbCircle
 10
2.885259304735233
 20
6.114418080052684
 30
0.0
 40
0.0363347932812923
100
AcDbArc
 50
142.5532855597031
 51
232.8116314160015
  0
LINE
  5
18A
330
1E
100
AcDbEntity
  8
IMAGE
100
AcDbLine
 10
2.85641241652363
 20
6.136510482441168
 30
0.0
 11
2.863297196694736
 21
6.085471871091596
 31
0.0
  0
ARC
  5
18B
330
1E
100
AcDbEntity
  8
IMAGE
100
AcDbCircle
 10
2.904661867036178
 20
6.114418080052684
 30
0.0
 40
0.0363347932812923
100
AcDbArc
 50
142.5532855597031
 51
232.8116314160015
  0
LINE
  5
18C
330
1E
100
AcDbEntity
  8
IMAGE
100
AcDbLine
 10
2.875814978824575
 20
6.136510482441168
 30
0.0
 11
2.882699758995681
 21
6.085471871091596
 31
0.0
  0
ARC
  5
18D
330
1E
100
AcDbEntity
  8
IMAGE
100
AcDbCircle
 10
2.92406442933713
 20
6.114418080052684
 30
0.0
 40
0.0363347932812923
100
AcDbArc
 50
142.5532855597031
 51
232.8116314160015
  0
LINE
  5
18E
330
1E
100
AcDbEntity
  8
IMAGE
100
AcDbLine
 10
2.895217541125527
 20
6.136510482441168
 30
0.0
 11
2.902102321296842
 21
6.085471871091596
 31
0.0
  0
ARC
  5
18F
330
1E
100
AcDbEntity
  8
IMAGE
100
AcDbCircle
 10
2.943466991638171
 20
6.114418080052684
 30
0.0
 40
0.0363347932812923
100
AcDbArc
 50
142.5532855597031
 51
232.8116314160015
  0
LINE
  5
190
330
1E
100
AcDbEntity
  8
IMAGE
100
AcDbLine
 10
2.914620103426472
 20
6.136510482441168
 30
0.0
 11
2.921504883597787
 21
6.085471871091596
 31
0.0
  0
ARC
  5
191
330
1E
100
AcDbEntity
  8
IMAGE
100
AcDbCircle
 10
2.962243664832726
 20
6.114418080052684
 30
0.0
 40
0.0363347932812923
100
AcDbArc
 50
142.5532855597031
 51
232.8116314160015
  0
LINE
  5
192
330
1E
100
AcDbEntity
  8
IMAGE
100
AcDbLine
 10
2.93339677662102
 20
6.136510482441168
 30
0.0
 11
2.940281556792234
 21
6.085471871091596
 31
0.0
  0
ARC
  5
193
330
1E
100
AcDbEntity
  8
IMAGE
100
AcDbCircle
 10
2.981646227133671
 20
6.114418080052684
 30
0.0
 40
0.0363347932812923
100
AcDbArc
 50
142.5532855597031
 51
232.8116314160015
  0
LINE
  5
194
330
1E
100
AcDbEntity
  8
IMAGE
100
AcDbLine
 10
2.952799338922078
 20
6.136510482441168
 30
0.0
 11
2.959684119093173
 21
6.085471871091596
 31
0.0
  0
LINE
  5
195
330
1E
100
AcDbEntity
  8
IMAGE
100
AcDbLine
 10
2.972201901223012
 20
6.136510482441168
 30
0.0
 11
2.979086681394118
 21
6.085471871091596
 31
0.0
  0
ARC
  5
196
330
1E
100
AcDbEntity
  8
IMAGE
100
AcDbCircle
 10
3.001048789434616
 20
6.114418080052684
 30
0.0
 40
0.0363347932812923
100
AcDbArc
 50
142.5532855597031
 51
232.8116314160015
  0
LINE
  5
197
330
1E
100
AcDbEntity
  8
IMAGE
100
AcDbLine
 10
3.135302442460917
 20
6.153523352891023
 30
0.0
 11
3.135302442460917
 21
6.068459000641849
 31
0.0
  0
LINE
  5
198
330
1E
100
AcDbEntity
  8
IMAGE
100
AcDbLine
 10
3.049186261320516
 20
6.136510482441168
 30
0.0
 11
3.056071041491611
 21
6.085471871091596
 31
0.0
  0
ARC
  5
199
330
1E
100
AcDbEntity
  8
IMAGE
100
AcDbCircle
 10
3.078033149532108
 20
6.114418080052684
 30
0.0
 40
0.0363347932812923
100
AcDbArc
 50
142.5532855597031
 51
232.8116314160015
  0
LINE
  5
19A
330
1E
100
AcDbEntity
  8
IMAGE
100
AcDbLine
 10
3.029783699019457
 20
6.136510482441168
 30
0.0
 11
3.036668479190671
 21
6.085471871091596
 31
0.0
  0
ARC
  5
19B
330
1E
100
AcDbEntity
  8
IMAGE
100
AcDbCircle
 10
3.058630587231164
 20
6.114418080052684
 30
0.0
 40
0.0363347932812923
100
AcDbArc
 50
142.5532855597031
 51
232.8116314160015
  0
LINE
  5
19C
330
1E
100
AcDbEntity
  8
IMAGE
100
AcDbLine
 10
3.011007025824909
 20
6.136510482441168
 30
0.0
 11
3.017891805996224
 21
6.085471871091596
 31
0.0
  0
ARC
  5
19D
330
1E
100
AcDbEntity
  8
IMAGE
100
AcDbCircle
 10
3.097435711833014
 20
6.114418080052753
 30
0.0
 40
0.0363347932812923
100
AcDbArc
 50
142.5532855597031
 51
232.8116314160015
  0
LINE
  5
19E
330
1E
100
AcDbEntity
  8
IMAGE
100
AcDbLine
 10
3.068588823621313
 20
6.136510482441235
 30
0.0
 11
3.07547360379263
 21
6.085471871091665
 31
0.0
  0
ARC
  5
19F
330
1E
100
AcDbEntity
  8
IMAGE
100
AcDbCircle
 10
3.116212385027568
 20
6.114418080052753
 30
0.0
 40
0.0363347932812923
100
AcDbArc
 50
142.5532855597031
 51
232.8116314160015
  0
LINE
  5
1A0
330
1E
100
AcDbEntity
  8
IMAGE
100
AcDbLine
 10
3.087365496815863
 20
6.136510482441235
 30
0.0
 11
3.094250276987077
 21
6.085471871091665
 31
0.0
  0
ARC
  5
1A1
330
1E
100
AcDbEntity
  8
IMAGE
100
AcDbCircle
 10
3.135614947328514
 20
6.114418080052753
 30
0.0
 40
0.0363347932812923
100
AcDbArc
 50
142.5532855597031
 51
232.8116314160015
  0
LINE
  5
1A2
330
1E
100
AcDbEntity
  8
IMAGE
100
AcDbLine
 10
3.106768059116921
 20
6.136510482441235
 30
0.0
 11
3.113652839288016
 21
6.085471871091665
 31
0.0
  0
ARC
  5
1A3
330
1E
100
AcDbEntity
  8
IMAGE
100
AcDbCircle
 10
3.155017509629454
 20
6.114418080052758
 30
0.0
 40
0.0363347932812923
100
AcDbArc
 50
142.5532855597031
 51
232.8116314160015
  0
LINE
  5
1A4
330
1E
100
AcDbEntity
  8
IMAGE
100
AcDbLine
 10
3.126170621417861
 20
6.136510482441241
 30
0.0
 11
3.133055401588956
 21
6.08547187109167
 31
0.0
  0
LINE
  5
1A5
330
1E
100
AcDbEntity
  8
IMAGE
100
AcDbLine
 10
2.991604463523964
 20
6.136510482441168
 30
0.0
 11
2.99848924369528
 21
6.085471871091596
 31
0.0
  0
ARC
  5
1A6
330
1E
100
AcDbEntity
  8
IMAGE
100
AcDbCircle
 10
3.039853914036608
 20
6.114418080052684
 30
0.0
 40
0.0363347932812923
100
AcDbArc
 50
142.5532855597031
 51
232.8116314160015
  0
LINE
  5
1A7
330
1E
100
AcDbEntity
  8
IMAGE
100
AcDbLine
 10
3.1287358933463
 20
6.068459000641849
 30
0.0
 11
3.128735893346302
 21
5.912559105187095
 31
0.0
  0
LINE
  5
1A8
330
1E
100
AcDbEntity
  8
IMAGE
100
AcDbLine
 10
2.886673408131843
 20
6.068459000641849
 30
0.0
 11
2.886673408131843
 21
5.619869179921422
 31
0.0
  0
LINE
  5
1A9
330
1E
100
AcDbEntity
  8
IMAGE
100
AcDbLine
 10
2.909341990180577
 20
6.068459000641849
 30
0.0
 11
2.909341990180578
 21
5.912559105187097
 31
0.0
  0
LINE
  5
1AA
330
1E
100
AcDbEntity
  8
IMAGE
100
AcDbLine
 10
2.672677866492085
 20
6.068459000641849
 30
0.0
 11
2.672677866492083
 21
5.592770421296466
 31
0.0
  0
TEXT
  5
1AB
330
1E
100
AcDbEntity
  8
TEXT_BUBBLES
100
AcDbText
 10
5.388744749999999
 20
5.445013781443593
 30
0.0
 40
0.125
  1
1-INCH GALVANIZED STEEL PIPE
  7
SIMPLEX
100
AcDbText
  0
TEXT
  5
1AC
330
1E
100
AcDbEntity
  8
TEXT_BUBBLES
100
AcDbText
 10
5.388744749999999
 20
5.095013781443594
 30
0.0
 40
0.125
  1
  CLAMPS OR EQUIVALENT
  7
SIMPLEX
100
AcDbText
  0
TEXT
  5
1AD
330
1E
100
AcDbEntity
  8
TEXT_BUBBLES
100
AcDbText
 10
5.388744749999999
 20
4.920013781443594
 30
0.0
 40
0.125
  1
  SUPPORT SYSTEM
  7
SIMPLEX
100
AcDbText
  0
TEXT
  5
1AF
330
1E
100
AcDbEntity
  8
TEXT_BUBBLES
100
AcDbText
 10
5.057403205271529
 20
5.964478018501922
 30
0.0
 40
0.125
  1
5
  7
ROMANS
 72
     4
 11
5.116927014795338
 21
6.026978018501922
 31
0.0
100
AcDbText
  0
TEXT
  5
1B0
330
1E
100
AcDbEntity
  8
TEXT_BUBBLES
100
AcDbText
 10
5.388744749999999
 20
8.070013781443593
 30
0.0
 40
0.125
  1
IMPACT SPRINKLER:
  7
SIMPLEX
100
AcDbText
  0
TEXT
  5
1B1
330
1E
100
AcDbEntity
  8
TEXT_BUBBLES
100
AcDbText
 10
5.388744749999999
 20
7.895013781443593
 30
0.0
 40
0.125
  1
  RAIN BIRD 2045-PJ MAXI-BIRD
  7
SIMPLEX
100
AcDbText
  0
TEXT
  5
1B3
330
1E
100
AcDbEntity
  8
TEXT_BUBBLES
100
AcDbText
 10
5.054427014795338
 20
6.314478018501922
 30
0.0
 40
0.125
  1
4
  7
ROMANS
 72
     4
 11
5.116927014795338
 21
6.376978018501922
 31
0.0
100
AcDbText
  0
ARC
  5
1B4
330
1E
100
AcDbEntity
  8
IMAGE
100
AcDbCircle
 10
3.36997864766545
 20
6.0484939717979
 30
0.0
 40
0.1818260367492528
100
AcDbArc
 50
116.0563205359582
 51
205.2549940243739
  0
ARC
  5
1B5
330
1E
100
AcDbEntity
  8
IMAGE
100
AcDbCircle
 10
3.125664021992347
 20
6.134264064369259
 30
0.0
 40
0.1818260367492528
100
AcDbArc
 50
296.0563205359582
 51
25.2549940243739
  0
ARC
  5
1B6
330
1E
100
AcDbEntity
  8
IMAGE
100
AcDbCircle
 10
3.476078929621284
 20
6.557774908921586
 30
0.0
 40
0.1818260367492528
100
AcDbArc
 50
116.0563205359582
 51
205.2549940243739
  0
ARC
  5
1B7
330
1E
100
AcDbEntity
  8
IMAGE
100
AcDbCircle
 10
3.231764303948182
 20
6.643545001492946
 30
0.0
 40
0.1818260367492528
100
AcDbArc
 50
296.0563205359582
 51
25.2549940243739
  0
ARC
  5
1B8
330
1E
100
AcDbEntity
  8
IMAGE
100
AcDbCircle
 10
3.684035482254719
 20
6.523822846446674
 30
0.0
 40
0.1818260367492528
100
AcDbArc
 50
116.0563205359582
 51
205.2549940243739
  0
ARC
  5
1B9
330
1E
100
AcDbEntity
  8
IMAGE
100
AcDbCircle
 10
3.439720856581616
 20
6.609592939018033
 30
0.0
 40
0.1818260367492528
100
AcDbArc
 50
296.0563205359582
 51
25.2549940243739
  0
ARC
  5
1BA
330
1E
100
AcDbEntity
  8
IMAGE
100
AcDbCircle
 10
3.993848305565754
 20
6.506846815209217
 30
0.0
 40
0.1818260367492528
100
AcDbArc
 50
116.0563205359582
 51
205.2549940243739
  0
ARC
  5
1BB
330
1E
100
AcDbEntity
  8
IMAGE
100
AcDbCircle
 10
3.749533679892651
 20
6.592616907780578
 30
0.0
 40
0.1818260367492528
100
AcDbArc
 50
296.0563205359582
 51
25.2549940243739
  0
ARC
  5
1BC
330
1E
100
AcDbEntity
  8
IMAGE
100
AcDbCircle
 10
3.925944125114021
 20
6.281914401312922
 30
0.0
 40
0.1818260367492528
100
AcDbArc
 50
116.0563205359582
 51
205.2549940243739
  0
ARC
  5
1BD
330
1E
100
AcDbEntity
  8
IMAGE
100
AcDbCircle
 10
3.681629499440918
 20
6.367684493884282
 30
0.0
 40
0.1818260367492528
100
AcDbArc
 50
296.0563205359582
 51
25.2549940243739
  0
ARC
  5
1BE
330
1E
100
AcDbEntity
  8
IMAGE
100
AcDbCircle
 10
3.429394805560717
 20
6.303134440359742
 30
0.0
 40
0.1818260367492528
100
AcDbArc
 50
116.0563205359582
 51
205.2549940243739
  0
ARC
  5
1BF
330
1E
100
AcDbEntity
  8
IMAGE
100
AcDbCircle
 10
3.185080179887615
 20
6.388904532931102
 30
0.0
 40
0.1818260367492528
100
AcDbArc
 50
296.0563205359582
 51
25.2549940243739
  0
ARC
  5
1C0
330
1E
100
AcDbEntity
  8
IMAGE
100
AcDbCircle
 10
3.815599831879952
 20
5.925417745326341
 30
0.0
 40
0.1818260367492528
100
AcDbArc
 50
116.0563205359582
 51
205.2549940243739
  0
ARC
  5
1C1
330
1E
100
AcDbEntity
  8
IMAGE
100
AcDbCircle
 10
3.571285206206851
 20
6.011187837897701
 30
0.0
 40
0.1818260367492528
100
AcDbArc
 50
296.0563205359582
 51
25.2549940243739
  0
ARC
  5
1C2
330
1E
100
AcDbEntity
  8
IMAGE
100
AcDbCircle
 10
3.841063899549354
 20
5.747169417333052
 30
0.0
 40
0.1818260367492528
100
AcDbArc
 50
116.0563205359582
 51
205.2549940243739
  0
ARC
  5
1C3
330
1E
100
AcDbEntity
  8
IMAGE
100
AcDbCircle
 10
3.596749273876251
 20
5.83293950990441
 30
0.0
 40
0.1818260367492528
100
AcDbArc
 50
296.0563205359582
 51
25.2549940243739
  0
ARC
  5
1C4
330
1E
100
AcDbEntity
  8
IMAGE
100
AcDbCircle
 10
4.036288418348088
 20
5.93390576094507
 30
0.0
 40
0.1818260367492528
100
AcDbArc
 50
116.0563205359582
 51
205.2549940243739
  0
ARC
  5
1C5
330
1E
100
AcDbEntity
  8
IMAGE
100
AcDbCircle
 10
3.791973792674985
 20
6.019675853516429
 30
0.0
 40
0.1818260367492528
100
AcDbArc
 50
296.0563205359582
 51
25.2549940243739
  0
ARC
  5
1C6
330
1E
100
AcDbEntity
  8
IMAGE
100
AcDbCircle
 10
3.557106263914097
 20
6.389220350676684
 30
0.0
 40
0.1818260367492528
100
AcDbArc
 50
143.5307656099477
 51
232.7294390983634
  0
ARC
  5
1C7
330
1E
100
AcDbEntity
  8
IMAGE
100
AcDbCircle
 10
3.30077596489438
 20
6.352601736531011
 30
0.0
 40
0.1818260367492528
100
AcDbArc
 50
323.5307656099477
 51
52.72943909836341
  0
ARC
  5
1C8
330
1E
100
AcDbEntity
  8
IMAGE
100
AcDbCircle
 10
3.454971697414975
 20
5.929614801430624
 30
0.0
 40
0.1818260367492528
100
AcDbArc
 50
143.5307656099477
 51
232.7294390983634
  0
ARC
  5
1C9
330
1E
100
AcDbEntity
  8
IMAGE
100
AcDbCircle
 10
3.198641398395255
 20
5.892996187284953
 30
0.0
 40
0.1818260367492528
100
AcDbArc
 50
323.5307656099477
 51
52.72943909836341
  0
ARC
  5
1CA
330
1E
100
AcDbEntity
  8
IMAGE
100
AcDbCircle
 10
3.403904414165412
 20
5.786626408331851
 30
0.0
 40
0.1818260367492528
100
AcDbArc
 50
143.5307656099477
 51
232.7294390983634
  0
ARC
  5
1CB
330
1E
100
AcDbEntity
  8
IMAGE
100
AcDbCircle
 10
3.147574115145693
 20
5.750007794186177
 30
0.0
 40
0.1818260367492528
100
AcDbArc
 50
323.5307656099477
 51
52.72943909836341
  0
ARC
  5
1CC
330
1E
100
AcDbEntity
  8
IMAGE
100
AcDbCircle
 10
3.577533177213923
 20
5.766199495032025
 30
0.0
 40
0.1818260367492528
100
AcDbArc
 50
143.5307656099477
 51
232.7294390983634
  0
ARC
  5
1CD
330
1E
100
AcDbEntity
  8
IMAGE
100
AcDbCircle
 10
3.321202878194205
 20
5.729580880886353
 30
0.0
 40
0.1818260367492528
100
AcDbArc
 50
323.5307656099477
 51
52.72943909836341
  0
ARC
  5
1CE
330
1E
100
AcDbEntity
  8
IMAGE
100
AcDbCircle
 10
3.669454287063135
 20
6.174737761028523
 30
0.0
 40
0.1818260367492528
100
AcDbArc
 50
143.5307656099477
 51
232.7294390983634
  0
ARC
  5
1CF
330
1E
100
AcDbEntity
  8
IMAGE
100
AcDbCircle
 10
3.413123988043417
 20
6.138119146882851
 30
0.0
 40
0.1818260367492528
100
AcDbArc
 50
323.5307656099477
 51
52.72943909836341
  0
ARC
  5
1D0
330
1E
100
AcDbEntity
  8
IMAGE
100
AcDbCircle
 10
3.832869593461733
 20
6.317726154127297
 30
0.0
 40
0.1818260367492528
100
AcDbArc
 50
143.5307656099477
 51
232.7294390983634
  0
ARC
  5
1D1
330
1E
100
AcDbEntity
  8
IMAGE
100
AcDbCircle
 10
3.576539294442016
 20
6.281107539981623
 30
0.0
 40
0.1818260367492528
100
AcDbArc
 50
323.5307656099477
 51
52.72943909836341
  0
ARC
  5
1D2
330
1E
100
AcDbEntity
  8
IMAGE
100
AcDbCircle
 10
4.067779096409718
 20
6.184951217678436
 30
0.0
 40
0.1818260367492528
100
AcDbArc
 50
143.5307656099477
 51
232.7294390983634
  0
ARC
  5
1D3
330
1E
100
AcDbEntity
  8
IMAGE
100
AcDbCircle
 10
3.811448797390002
 20
6.148332603532762
 30
0.0
 40
0.1818260367492528
100
AcDbArc
 50
323.5307656099477
 51
52.72943909836341
  0
ARC
  5
1D4
330
1E
100
AcDbEntity
  8
IMAGE
100
AcDbCircle
 10
3.924790703310945
 20
5.929614801430624
 30
0.0
 40
0.1818260367492528
100
AcDbArc
 50
143.5307656099477
 51
232.7294390983634
  0
ARC
  5
1D5
330
1E
100
AcDbEntity
  8
IMAGE
100
AcDbCircle
 10
3.668460404291227
 20
5.892996187284953
 30
0.0
 40
0.1818260367492528
100
AcDbArc
 50
323.5307656099477
 51
52.72943909836341
  0
ARC
  5
1D6
330
1E
100
AcDbEntity
  8
IMAGE
100
AcDbCircle
 10
3.710308113662784
 20
5.766199495032025
 30
0.0
 40
0.1818260367492528
100
AcDbArc
 50
143.5307656099477
 51
232.7294390983634
  0
ARC
  5
1D7
330
1E
100
AcDbEntity
  8
IMAGE
100
AcDbCircle
 10
3.453977814643066
 20
5.729580880886353
 30
0.0
 40
0.1818260367492528
100
AcDbArc
 50
323.5307656099477
 51
52.72943909836341
  0
ARC
  5
1D8
330
1E
100
AcDbEntity
  8
IMAGE
100
AcDbCircle
 10
4.00587866509402
 20
5.771875016470684
 30
0.0
 40
0.1818260367492528
100
AcDbArc
 50
143.5307656099477
 51
232.7294390983634
  0
ARC
  5
1D9
330
1E
100
AcDbEntity
  8
IMAGE
100
AcDbCircle
 10
3.749548366074304
 20
5.735256402325012
 30
0.0
 40
0.1818260367492528
100
AcDbArc
 50
323.5307656099477
 51
52.72943909836341
  0
ARC
  5
1DA
330
1E
100
AcDbEntity
  8
IMAGE
100
AcDbCircle
 10
3.557106263914097
 20
6.603702940324844
 30
0.0
 40
0.1818260367492528
100
AcDbArc
 50
143.5307656099477
 51
232.7294390983634
  0
ARC
  5
1DB
330
1E
100
AcDbEntity
  8
IMAGE
100
AcDbCircle
 10
3.30077596489438
 20
6.567084326179172
 30
0.0
 40
0.1818260367492528
100
AcDbArc
 50
323.5307656099477
 51
52.72943909836341
  0
ARC
  5
1DC
330
1E
100
AcDbEntity
  8
IMAGE
100
AcDbCircle
 10
3.794456407811588
 20
6.193377026815562
 30
0.0
 40
0.1818260367492528
100
AcDbArc
 50
159.7199718669747
 51
248.9186453553905
  0
ARC
  5
1DD
330
1E
100
AcDbEntity
  8
IMAGE
100
AcDbCircle
 10
3.558500215290976
 20
6.086742978272593
 30
0.0
 40
0.1818260367492528
100
AcDbArc
 50
339.7199718669747
 51
68.91864535539045
  0
ARC
  5
1DE
330
1E
100
AcDbEntity
  8
IMAGE
100
AcDbCircle
 10
3.7229622112622
 20
6.019748263767051
 30
0.0
 40
0.1818260367492528
100
AcDbArc
 50
159.7199718669747
 51
248.9186453553905
  0
ARC
  5
1DF
330
1E
100
AcDbEntity
  8
IMAGE
100
AcDbCircle
 10
3.48700601874159
 20
5.913114215224083
 30
0.0
 40
0.1818260367492528
100
AcDbArc
 50
339.7199718669747
 51
68.91864535539045
  0
ARC
  5
1E0
330
1E
100
AcDbEntity
  8
IMAGE
100
AcDbCircle
 10
3.515686218410491
 20
6.160327998899027
 30
0.0
 40
0.1818260367492528
100
AcDbArc
 50
159.7199718669747
 51
248.9186453553905
  0
ARC
  5
1E1
330
1E
100
AcDbEntity
  8
IMAGE
100
AcDbCircle
 10
3.279730025889881
 20
6.053693950356058
 30
0.0
 40
0.1818260367492528
100
AcDbArc
 50
339.7199718669747
 51
68.91864535539045
  0
ARC
  5
1E2
330
1E
100
AcDbEntity
  8
IMAGE
100
AcDbCircle
 10
3.794456407811588
 20
6.499780726312933
 30
0.0
 40
0.1818260367492528
100
AcDbArc
 50
159.7199718669747
 51
248.9186453553905
  0
ARC
  5
1E3
330
1E
100
AcDbEntity
  8
IMAGE
100
AcDbCircle
 10
3.558500215290976
 20
6.393146677769967
 30
0.0
 40
0.1818260367492528
100
AcDbArc
 50
339.7199718669747
 51
68.91864535539045
  0
ARC
  5
1E4
330
1E
100
AcDbEntity
  8
IMAGE
100
AcDbCircle
 10
3.978298627510011
 20
6.43849998641346
 30
0.0
 40
0.1818260367492528
100
AcDbArc
 50
159.7199718669747
 51
248.9186453553905
  0
ARC
  5
1E5
330
1E
100
AcDbEntity
  8
IMAGE
100
AcDbCircle
 10
3.7423424349894
 20
6.331865937870492
 30
0.0
 40
0.1818260367492528
100
AcDbArc
 50
339.7199718669747
 51
68.91864535539045
  0
ARC
  5
1E6
330
1E
100
AcDbEntity
  8
IMAGE
100
AcDbCircle
 10
3.661681471362725
 20
6.428286529763547
 30
0.0
 40
0.1818260367492528
100
AcDbArc
 50
159.7199718669747
 51
248.9186453553905
  0
ARC
  5
1E7
330
1E
100
AcDbEntity
  8
IMAGE
100
AcDbCircle
 10
3.425725278842115
 20
6.321652481220579
 30
0.0
 40
0.1818260367492528
100
AcDbArc
 50
339.7199718669747
 51
68.91864535539045
  0
ARC
  5
1E8
330
1E
100
AcDbEntity
  8
IMAGE
100
AcDbCircle
 10
3.732410572783794
 20
5.81896754467771
 30
0.0
 40
0.1818260367492528
100
AcDbArc
 50
278.5307656099478
 51
7.729439098363569
  0
ARC
  5
1E9
330
1E
100
AcDbEntity
  8
IMAGE
100
AcDbCircle
 10
3.939556735824273
 20
5.663607922397351
 30
0.0
 40
0.1818260367492528
100
AcDbArc
 50
98.53076560994793
 51
187.7294390983635
  0
ARC
  5
1EA
330
1E
100
AcDbEntity
  8
IMAGE
100
AcDbCircle
 10
3.33408576343721
 20
5.961955937776484
 30
0.0
 40
0.1818260367492528
100
AcDbArc
 50
278.5307656099478
 51
7.729439098363569
  0
ARC
  5
1EB
330
1E
100
AcDbEntity
  8
IMAGE
100
AcDbCircle
 10
3.541231926477688
 20
5.806596315496126
 30
0.0
 40
0.1818260367492528
100
AcDbArc
 50
98.53076560994793
 51
187.7294390983635
  0
ARC
  5
1EC
330
1E
100
AcDbEntity
  8
IMAGE
100
AcDbCircle
 10
3.711702065039662
 20
6.07652952162268
 30
0.0
 40
0.1818260367492528
100
AcDbArc
 50
339.7199718669747
 51
68.91864535539045
  0
ARC
  5
1ED
330
1E
100
AcDbEntity
  8
IMAGE
100
AcDbCircle
 10
3.947658257560273
 20
6.183163570165649
 30
0.0
 40
0.1818260367492528
100
AcDbArc
 50
159.7199718669747
 51
248.9186453553905
  0
ARC
  5
1EE
330
1E
100
AcDbEntity
  8
IMAGE
100
AcDbCircle
 10
3.609849092984846
 20
6.605403706720967
 30
0.0
 40
0.1818260367492528
100
AcDbArc
 50
278.5307656099478
 51
7.729439098363569
  0
ARC
  5
1EF
330
1E
100
AcDbEntity
  8
IMAGE
100
AcDbCircle
 10
3.816995256025323
 20
6.450044084440608
 30
0.0
 40
0.1818260367492528
100
AcDbArc
 50
98.53076560994793
 51
187.7294390983635
  0
ARC
  5
1F0
330
1E
100
AcDbEntity
  8
IMAGE
100
AcDbCircle
 10
2.307331029441595
 20
6.093810368792857
 30
0.0
 40
0.1818260367492528
100
AcDbArc
 50
116.0563205359582
 51
205.2549940243739
  0
ARC
  5
1F1
330
1E
100
AcDbEntity
  8
IMAGE
100
AcDbCircle
 10
2.063016403768493
 20
6.179580461364218
 30
0.0
 40
0.1818260367492528
100
AcDbArc
 50
296.0563205359582
 51
25.2549940243739
  0
ARC
  5
1F2
330
1E
100
AcDbEntity
  8
IMAGE
100
AcDbCircle
 10
1.522188942968424
 20
6.025906243843034
 30
0.0
 40
0.1818260367492528
100
AcDbArc
 50
116.0563205359582
 51
205.2549940243739
  0
ARC
  5
1F3
330
1E
100
AcDbEntity
  8
IMAGE
100
AcDbCircle
 10
1.277874317295321
 20
6.111676336414393
 30
0.0
 40
0.1818260367492528
100
AcDbArc
 50
296.0563205359582
 51
25.2549940243739
  0
ARC
  5
1F4
330
1E
100
AcDbEntity
  8
IMAGE
100
AcDbCircle
 10
1.628289224924259
 20
6.53518718096672
 30
0.0
 40
0.1818260367492528
100
AcDbArc
 50
116.0563205359582
 51
205.2549940243739
  0
ARC
  5
1F5
330
1E
100
AcDbEntity
  8
IMAGE
100
AcDbCircle
 10
1.383974599251155
 20
6.62095727353808
 30
0.0
 40
0.1818260367492528
100
AcDbArc
 50
296.0563205359582
 51
25.2549940243739
  0
ARC
  5
1F6
330
1E
100
AcDbEntity
  8
IMAGE
100
AcDbCircle
 10
1.836245777557692
 20
6.501235118491808
 30
0.0
 40
0.1818260367492528
100
AcDbArc
 50
116.0563205359582
 51
205.2549940243739
  0
ARC
  5
1F7
330
1E
100
AcDbEntity
  8
IMAGE
100
AcDbCircle
 10
1.59193115188459
 20
6.587005211063167
 30
0.0
 40
0.1818260367492528
100
AcDbArc
 50
296.0563205359582
 51
25.2549940243739
  0
ARC
  5
1F8
330
1E
100
AcDbEntity
  8
IMAGE
100
AcDbCircle
 10
2.146058600868729
 20
6.484259087254351
 30
0.0
 40
0.1818260367492528
100
AcDbArc
 50
116.0563205359582
 51
205.2549940243739
  0
ARC
  5
1F9
330
1E
100
AcDbEntity
  8
IMAGE
100
AcDbCircle
 10
1.901743975195625
 20
6.570029179825712
 30
0.0
 40
0.1818260367492528
100
AcDbArc
 50
296.0563205359582
 51
25.2549940243739
  0
ARC
  5
1FA
330
1E
100
AcDbEntity
  8
IMAGE
100
AcDbCircle
 10
2.078154420416996
 20
6.259326673358056
 30
0.0
 40
0.1818260367492528
100
AcDbArc
 50
116.0563205359582
 51
205.2549940243739
  0
ARC
  5
1FB
330
1E
100
AcDbEntity
  8
IMAGE
100
AcDbCircle
 10
1.833839794743893
 20
6.345096765929416
 30
0.0
 40
0.1818260367492528
100
AcDbArc
 50
296.0563205359582
 51
25.2549940243739
  0
ARC
  5
1FC
330
1E
100
AcDbEntity
  8
IMAGE
100
AcDbCircle
 10
2.45162741290153
 20
6.013174220414941
 30
0.0
 40
0.1818260367492528
100
AcDbArc
 50
116.0563205359582
 51
205.2549940243739
  0
ARC
  5
1FD
330
1E
100
AcDbEntity
  8
IMAGE
100
AcDbCircle
 10
2.207312787228428
 20
6.098944312986302
 30
0.0
 40
0.1818260367492528
100
AcDbArc
 50
296.0563205359582
 51
25.2549940243739
  0
ARC
  5
1FE
330
1E
100
AcDbEntity
  8
IMAGE
100
AcDbCircle
 10
1.581605100863692
 20
6.280546712404876
 30
0.0
 40
0.1818260367492528
100
AcDbArc
 50
116.0563205359582
 51
205.2549940243739
  0
ARC
  5
1FF
330
1E
100
AcDbEntity
  8
IMAGE
100
AcDbCircle
 10
1.337290475190588
 20
6.366316804976237
 30
0.0
 40
0.1818260367492528
100
AcDbArc
 50
296.0563205359582
 51
25.2549940243739
  0
ARC
  5
200
330
1E
100
AcDbEntity
  8
IMAGE
100
AcDbCircle
 10
1.967810127182925
 20
5.902830017371475
 30
0.0
 40
0.1818260367492528
100
AcDbArc
 50
116.0563205359582
 51
205.2549940243739
  0
ARC
  5
201
330
1E
100
AcDbEntity
  8
IMAGE
100
AcDbCircle
 10
1.723495501509825
 20
5.988600109942836
 30
0.0
 40
0.1818260367492528
100
AcDbArc
 50
296.0563205359582
 51
25.2549940243739
  0
ARC
  5
202
330
1E
100
AcDbEntity
  8
IMAGE
100
AcDbCircle
 10
1.993274194852329
 20
5.724581689378186
 30
0.0
 40
0.1818260367492528
100
AcDbArc
 50
116.0563205359582
 51
205.2549940243739
  0
ARC
  5
203
330
1E
100
AcDbEntity
  8
IMAGE
100
AcDbCircle
 10
1.748959569179225
 20
5.810351781949544
 30
0.0
 40
0.1818260367492528
100
AcDbArc
 50
296.0563205359582
 51
25.2549940243739
  0
ARC
  5
204
330
1E
100
AcDbEntity
  8
IMAGE
100
AcDbCircle
 10
2.188498713651062
 20
5.911318032990204
 30
0.0
 40
0.1818260367492528
100
AcDbArc
 50
116.0563205359582
 51
205.2549940243739
  0
ARC
  5
205
330
1E
100
AcDbEntity
  8
IMAGE
100
AcDbCircle
 10
1.944184087977959
 20
5.997088125561563
 30
0.0
 40
0.1818260367492528
100
AcDbArc
 50
296.0563205359582
 51
25.2549940243739
  0
ARC
  5
206
330
1E
100
AcDbEntity
  8
IMAGE
100
AcDbCircle
 10
2.495752721260329
 20
5.753825223727072
 30
0.0
 40
0.1818260367492528
100
AcDbArc
 50
143.5307656099477
 51
232.7294390983634
  0
ARC
  5
207
330
1E
100
AcDbEntity
  8
IMAGE
100
AcDbCircle
 10
2.239422422240611
 20
5.7172066095814
 30
0.0
 40
0.1818260367492528
100
AcDbArc
 50
323.5307656099477
 51
52.72943909836341
  0
ARC
  5
208
330
1E
100
AcDbEntity
  8
IMAGE
100
AcDbCircle
 10
2.546820004509889
 20
6.550474842420242
 30
0.0
 40
0.1818260367492528
100
AcDbArc
 50
143.5307656099477
 51
232.7294390983634
  0
ARC
  5
209
330
1E
100
AcDbEntity
  8
IMAGE
100
AcDbCircle
 10
2.290489705490173
 20
6.513856228274568
 30
0.0
 40
0.1818260367492528
100
AcDbArc
 50
323.5307656099477
 51
52.72943909836341
  0
ARC
  5
20A
330
1E
100
AcDbEntity
  8
IMAGE
100
AcDbCircle
 10
1.709316559217072
 20
6.366632622721819
 30
0.0
 40
0.1818260367492528
100
AcDbArc
 50
143.5307656099477
 51
232.7294390983634
  0
ARC
  5
20B
330
1E
100
AcDbEntity
  8
IMAGE
100
AcDbCircle
 10
1.452986260197354
 20
6.330014008576145
 30
0.0
 40
0.1818260367492528
100
AcDbArc
 50
323.5307656099477
 51
52.72943909836341
  0
ARC
  5
20C
330
1E
100
AcDbEntity
  8
IMAGE
100
AcDbCircle
 10
1.607181992717947
 20
5.907027073475759
 30
0.0
 40
0.1818260367492528
100
AcDbArc
 50
143.5307656099477
 51
232.7294390983634
  0
ARC
  5
20D
330
1E
100
AcDbEntity
  8
IMAGE
100
AcDbCircle
 10
1.350851693698229
 20
5.870408459330087
 30
0.0
 40
0.1818260367492528
100
AcDbArc
 50
323.5307656099477
 51
52.72943909836341
  0
ARC
  5
20E
330
1E
100
AcDbEntity
  8
IMAGE
100
AcDbCircle
 10
1.556114709468387
 20
5.764038680376985
 30
0.0
 40
0.1818260367492528
100
AcDbArc
 50
143.5307656099477
 51
232.7294390983634
  0
ARC
  5
20F
330
1E
100
AcDbEntity
  8
IMAGE
100
AcDbCircle
 10
1.299784410448667
 20
5.727420066231311
 30
0.0
 40
0.1818260367492528
100
AcDbArc
 50
323.5307656099477
 51
52.72943909836341
  0
ARC
  5
210
330
1E
100
AcDbEntity
  8
IMAGE
100
AcDbCircle
 10
1.729743472516897
 20
5.743611767077159
 30
0.0
 40
0.1818260367492528
100
AcDbArc
 50
143.5307656099477
 51
232.7294390983634
  0
ARC
  5
211
330
1E
100
AcDbEntity
  8
IMAGE
100
AcDbCircle
 10
1.47341317349718
 20
5.706993152931487
 30
0.0
 40
0.1818260367492528
100
AcDbArc
 50
323.5307656099477
 51
52.72943909836341
  0
ARC
  5
212
330
1E
100
AcDbEntity
  8
IMAGE
100
AcDbCircle
 10
1.821664582366109
 20
6.152150033073657
 30
0.0
 40
0.1818260367492528
100
AcDbArc
 50
143.5307656099477
 51
232.7294390983634
  0
ARC
  5
213
330
1E
100
AcDbEntity
  8
IMAGE
100
AcDbCircle
 10
1.565334283346391
 20
6.115531418927985
 30
0.0
 40
0.1818260367492528
100
AcDbArc
 50
323.5307656099477
 51
52.72943909836341
  0
ARC
  5
214
330
1E
100
AcDbEntity
  8
IMAGE
100
AcDbCircle
 10
1.985079888764708
 20
6.295138426172431
 30
0.0
 40
0.1818260367492528
100
AcDbArc
 50
143.5307656099477
 51
232.7294390983634
  0
ARC
  5
215
330
1E
100
AcDbEntity
  8
IMAGE
100
AcDbCircle
 10
1.728749589744989
 20
6.258519812026757
 30
0.0
 40
0.1818260367492528
100
AcDbArc
 50
323.5307656099477
 51
52.72943909836341
  0
ARC
  5
216
330
1E
100
AcDbEntity
  8
IMAGE
100
AcDbCircle
 10
2.352764328161555
 20
6.448340275921117
 30
0.0
 40
0.1818260367492528
100
AcDbArc
 50
143.5307656099477
 51
232.7294390983634
  0
ARC
  5
217
330
1E
100
AcDbEntity
  8
IMAGE
100
AcDbCircle
 10
2.096434029141835
 20
6.411721661775444
 30
0.0
 40
0.1818260367492528
100
AcDbArc
 50
323.5307656099477
 51
52.72943909836341
  0
ARC
  5
218
330
1E
100
AcDbEntity
  8
IMAGE
100
AcDbCircle
 10
2.301697044911993
 20
6.346205709421993
 30
0.0
 40
0.1818260367492528
100
AcDbArc
 50
143.5307656099477
 51
232.7294390983634
  0
ARC
  5
219
330
1E
100
AcDbEntity
  8
IMAGE
100
AcDbCircle
 10
2.045366745892273
 20
6.309587095276319
 30
0.0
 40
0.1818260367492528
100
AcDbArc
 50
323.5307656099477
 51
52.72943909836341
  0
ARC
  5
21A
330
1E
100
AcDbEntity
  8
IMAGE
100
AcDbCircle
 10
2.219989391712692
 20
6.16236348972357
 30
0.0
 40
0.1818260367492528
100
AcDbArc
 50
143.5307656099477
 51
232.7294390983634
  0
ARC
  5
21B
330
1E
100
AcDbEntity
  8
IMAGE
100
AcDbCircle
 10
1.963659092692976
 20
6.125744875577896
 30
0.0
 40
0.1818260367492528
100
AcDbArc
 50
323.5307656099477
 51
52.72943909836341
  0
ARC
  5
21C
330
1E
100
AcDbEntity
  8
IMAGE
100
AcDbCircle
 10
2.077000998613918
 20
5.907027073475759
 30
0.0
 40
0.1818260367492528
100
AcDbArc
 50
143.5307656099477
 51
232.7294390983634
  0
ARC
  5
21D
330
1E
100
AcDbEntity
  8
IMAGE
100
AcDbCircle
 10
1.820670699594202
 20
5.870408459330087
 30
0.0
 40
0.1818260367492528
100
AcDbArc
 50
323.5307656099477
 51
52.72943909836341
  0
ARC
  5
21E
330
1E
100
AcDbEntity
  8
IMAGE
100
AcDbCircle
 10
1.862518408965758
 20
5.743611767077159
 30
0.0
 40
0.1818260367492528
100
AcDbArc
 50
143.5307656099477
 51
232.7294390983634
  0
ARC
  5
21F
330
1E
100
AcDbEntity
  8
IMAGE
100
AcDbCircle
 10
1.606188109946041
 20
5.706993152931487
 30
0.0
 40
0.1818260367492528
100
AcDbArc
 50
323.5307656099477
 51
52.72943909836341
  0
ARC
  5
220
330
1E
100
AcDbEntity
  8
IMAGE
100
AcDbCircle
 10
2.233376448836155
 20
5.755107357039375
 30
0.0
 40
0.1818260367492528
100
AcDbArc
 50
143.5307656099477
 51
232.7294390983634
  0
ARC
  5
221
330
1E
100
AcDbEntity
  8
IMAGE
100
AcDbCircle
 10
1.977046149816438
 20
5.718488742893703
 30
0.0
 40
0.1818260367492528
100
AcDbArc
 50
323.5307656099477
 51
52.72943909836341
  0
ARC
  5
222
330
1E
100
AcDbEntity
  8
IMAGE
100
AcDbCircle
 10
2.383404698111291
 20
5.78446559367681
 30
0.0
 40
0.1818260367492528
100
AcDbArc
 50
143.5307656099477
 51
232.7294390983634
  0
ARC
  5
223
330
1E
100
AcDbEntity
  8
IMAGE
100
AcDbCircle
 10
2.127074399091576
 20
5.747846979531137
 30
0.0
 40
0.1818260367492528
100
AcDbArc
 50
323.5307656099477
 51
52.72943909836341
  0
ARC
  5
224
330
1E
100
AcDbEntity
  8
IMAGE
100
AcDbCircle
 10
2.546820004509889
 20
6.152150033073657
 30
0.0
 40
0.1818260367492528
100
AcDbArc
 50
143.5307656099477
 51
232.7294390983634
  0
ARC
  5
225
330
1E
100
AcDbEntity
  8
IMAGE
100
AcDbCircle
 10
2.290489705490173
 20
6.115531418927985
 30
0.0
 40
0.1818260367492528
100
AcDbArc
 50
323.5307656099477
 51
52.72943909836341
  0
ARC
  5
226
330
1E
100
AcDbEntity
  8
IMAGE
100
AcDbCircle
 10
2.240416305012519
 20
6.478980645870854
 30
0.0
 40
0.1818260367492528
100
AcDbArc
 50
143.5307656099477
 51
232.7294390983634
  0
ARC
  5
227
330
1E
100
AcDbEntity
  8
IMAGE
100
AcDbCircle
 10
1.9840860059928
 20
6.442362031725182
 30
0.0
 40
0.1818260367492528
100
AcDbArc
 50
323.5307656099477
 51
52.72943909836341
  0
ARC
  5
228
330
1E
100
AcDbEntity
  8
IMAGE
100
AcDbCircle
 10
1.709316559217072
 20
6.581115212369978
 30
0.0
 40
0.1818260367492528
100
AcDbArc
 50
143.5307656099477
 51
232.7294390983634
  0
ARC
  5
229
330
1E
100
AcDbEntity
  8
IMAGE
100
AcDbCircle
 10
1.452986260197354
 20
6.544496598224307
 30
0.0
 40
0.1818260367492528
100
AcDbArc
 50
323.5307656099477
 51
52.72943909836341
  0
ARC
  5
22A
330
1E
100
AcDbEntity
  8
IMAGE
100
AcDbCircle
 10
2.539047188809481
 20
5.966520165862447
 30
0.0
 40
0.1818260367492528
100
AcDbArc
 50
159.7199718669747
 51
248.9186453553905
  0
ARC
  5
22B
330
1E
100
AcDbEntity
  8
IMAGE
100
AcDbCircle
 10
2.303090996288871
 20
5.85988611731948
 30
0.0
 40
0.1818260367492528
100
AcDbArc
 50
339.7199718669747
 51
68.91864535539045
  0
ARC
  5
22C
330
1E
100
AcDbEntity
  8
IMAGE
100
AcDbCircle
 10
2.365418425760971
 20
6.232070038760169
 30
0.0
 40
0.1818260367492528
100
AcDbArc
 50
159.7199718669747
 51
248.9186453553905
  0
ARC
  5
22D
330
1E
100
AcDbEntity
  8
IMAGE
100
AcDbCircle
 10
2.12946223324036
 20
6.125435990217202
 30
0.0
 40
0.1818260367492528
100
AcDbArc
 50
339.7199718669747
 51
68.91864535539045
  0
ARC
  5
22E
330
1E
100
AcDbEntity
  8
IMAGE
100
AcDbCircle
 10
1.946666703114562
 20
6.170789298860696
 30
0.0
 40
0.1818260367492528
100
AcDbArc
 50
159.7199718669747
 51
248.9186453553905
  0
ARC
  5
22F
330
1E
100
AcDbEntity
  8
IMAGE
100
AcDbCircle
 10
1.710710510593951
 20
6.064155250317727
 30
0.0
 40
0.1818260367492528
100
AcDbArc
 50
339.7199718669747
 51
68.91864535539045
  0
ARC
  5
230
330
1E
100
AcDbEntity
  8
IMAGE
100
AcDbCircle
 10
1.875172506565174
 20
5.997160535812185
 30
0.0
 40
0.1818260367492528
100
AcDbArc
 50
159.7199718669747
 51
248.9186453553905
  0
ARC
  5
231
330
1E
100
AcDbEntity
  8
IMAGE
100
AcDbCircle
 10
1.639216314044563
 20
5.890526487269217
 30
0.0
 40
0.1818260367492528
100
AcDbArc
 50
339.7199718669747
 51
68.91864535539045
  0
ARC
  5
232
330
1E
100
AcDbEntity
  8
IMAGE
100
AcDbCircle
 10
1.667896513713465
 20
6.137740270944161
 30
0.0
 40
0.1818260367492528
100
AcDbArc
 50
159.7199718669747
 51
248.9186453553905
  0
ARC
  5
233
330
1E
100
AcDbEntity
  8
IMAGE
100
AcDbCircle
 10
1.431940321192856
 20
6.031106222401192
 30
0.0
 40
0.1818260367492528
100
AcDbArc
 50
339.7199718669747
 51
68.91864535539045
  0
ARC
  5
234
330
1E
100
AcDbEntity
  8
IMAGE
100
AcDbCircle
 10
1.946666703114562
 20
6.477192998358067
 30
0.0
 40
0.1818260367492528
100
AcDbArc
 50
159.7199718669747
 51
248.9186453553905
  0
ARC
  5
235
330
1E
100
AcDbEntity
  8
IMAGE
100
AcDbCircle
 10
1.710710510593951
 20
6.370558949815101
 30
0.0
 40
0.1818260367492528
100
AcDbArc
 50
339.7199718669747
 51
68.91864535539045
  0
ARC
  5
236
330
1E
100
AcDbEntity
  8
IMAGE
100
AcDbCircle
 10
2.130508922812985
 20
6.415912258458594
 30
0.0
 40
0.1818260367492528
100
AcDbArc
 50
159.7199718669747
 51
248.9186453553905
  0
ARC
  5
237
330
1E
100
AcDbEntity
  8
IMAGE
100
AcDbCircle
 10
1.894552730292375
 20
6.309278209915626
 30
0.0
 40
0.1818260367492528
100
AcDbArc
 50
339.7199718669747
 51
68.91864535539045
  0
ARC
  5
238
330
1E
100
AcDbEntity
  8
IMAGE
100
AcDbCircle
 10
2.477766448910006
 20
6.456766085058244
 30
0.0
 40
0.1818260367492528
100
AcDbArc
 50
159.7199718669747
 51
248.9186453553905
  0
ARC
  5
239
330
1E
100
AcDbEntity
  8
IMAGE
100
AcDbCircle
 10
2.241810256389397
 20
6.350132036515275
 30
0.0
 40
0.1818260367492528
100
AcDbArc
 50
339.7199718669747
 51
68.91864535539045
  0
ARC
  5
23A
330
1E
100
AcDbEntity
  8
IMAGE
100
AcDbCircle
 10
2.283710772561672
 20
5.925666339262797
 30
0.0
 40
0.1818260367492528
100
AcDbArc
 50
159.7199718669747
 51
248.9186453553905
  0
ARC
  5
23B
330
1E
100
AcDbEntity
  8
IMAGE
100
AcDbCircle
 10
2.047754580041059
 20
5.819032290719829
 30
0.0
 40
0.1818260367492528
100
AcDbArc
 50
339.7199718669747
 51
68.91864535539045
  0
ARC
  5
23C
330
1E
100
AcDbEntity
  8
IMAGE
100
AcDbCircle
 10
2.344991512461145
 20
6.007373992462096
 30
0.0
 40
0.1818260367492528
100
AcDbArc
 50
159.7199718669747
 51
248.9186453553905
  0
ARC
  5
23D
330
1E
100
AcDbEntity
  8
IMAGE
100
AcDbCircle
 10
2.109035319940534
 20
5.90073994391913
 30
0.0
 40
0.1818260367492528
100
AcDbArc
 50
339.7199718669747
 51
68.91864535539045
  0
ARC
  5
23E
330
1E
100
AcDbEntity
  8
IMAGE
100
AcDbCircle
 10
1.813891766665699
 20
6.405698801808681
 30
0.0
 40
0.1818260367492528
100
AcDbArc
 50
159.7199718669747
 51
248.9186453553905
  0
ARC
  5
23F
330
1E
100
AcDbEntity
  8
IMAGE
100
AcDbCircle
 10
1.577935574145088
 20
6.299064753265713
 30
0.0
 40
0.1818260367492528
100
AcDbArc
 50
339.7199718669747
 51
68.91864535539045
  0
ARC
  5
240
330
1E
100
AcDbEntity
  8
IMAGE
100
AcDbCircle
 10
1.884620868086768
 20
5.796379816722844
 30
0.0
 40
0.1818260367492528
100
AcDbArc
 50
278.5307656099478
 51
7.729439098363569
  0
ARC
  5
241
330
1E
100
AcDbEntity
  8
IMAGE
100
AcDbCircle
 10
2.091767031127247
 20
5.641020194442485
 30
0.0
 40
0.1818260367492528
100
AcDbArc
 50
98.53076560994793
 51
187.7294390983635
  0
ARC
  5
242
330
1E
100
AcDbEntity
  8
IMAGE
100
AcDbCircle
 10
1.486296058740185
 20
5.939368209821618
 30
0.0
 40
0.1818260367492528
100
AcDbArc
 50
278.5307656099478
 51
7.729439098363569
  0
ARC
  5
243
330
1E
100
AcDbEntity
  8
IMAGE
100
AcDbCircle
 10
1.693442221780662
 20
5.784008587541261
 30
0.0
 40
0.1818260367492528
100
AcDbArc
 50
98.53076560994793
 51
187.7294390983635
  0
ARC
  5
244
330
1E
100
AcDbEntity
  8
IMAGE
100
AcDbCircle
 10
1.269144040498931
 20
6.534283141574394
 30
0.0
 40
0.1818260367492528
100
AcDbArc
 50
323.5307656099477
 51
52.72943909836341
  0
ARC
  5
245
330
1E
100
AcDbEntity
  8
IMAGE
100
AcDbCircle
 10
1.525474339518646
 20
6.570901755720066
 30
0.0
 40
0.1818260367492528
100
AcDbArc
 50
143.5307656099477
 51
232.7294390983634
  0
ARC
  5
246
330
1E
100
AcDbEntity
  8
IMAGE
100
AcDbCircle
 10
2.262518764133528
 20
6.429614129017415
 30
0.0
 40
0.1818260367492528
100
AcDbArc
 50
278.5307656099478
 51
7.729439098363569
  0
ARC
  5
247
330
1E
100
AcDbEntity
  8
IMAGE
100
AcDbCircle
 10
2.469664927174004
 20
6.274254506737057
 30
0.0
 40
0.1818260367492528
100
AcDbArc
 50
98.53076560994793
 51
187.7294390983635
  0
ARC
  5
248
330
1E
100
AcDbEntity
  8
IMAGE
100
AcDbCircle
 10
1.863912360342636
 20
6.053941793667815
 30
0.0
 40
0.1818260367492528
100
AcDbArc
 50
339.7199718669747
 51
68.91864535539045
  0
ARC
  5
249
330
1E
100
AcDbEntity
  8
IMAGE
100
AcDbCircle
 10
2.099868552863247
 20
6.160575842210783
 30
0.0
 40
0.1818260367492528
100
AcDbArc
 50
159.7199718669747
 51
248.9186453553905
  0
ARC
  5
24A
330
1E
100
AcDbEntity
  8
IMAGE
100
AcDbCircle
 10
1.76205938828782
 20
6.582815978766102
 30
0.0
 40
0.1818260367492528
100
AcDbArc
 50
278.5307656099478
 51
7.729439098363569
  0
ARC
  5
24B
330
1E
100
AcDbEntity
  8
IMAGE
100
AcDbCircle
 10
1.969205551328297
 20
6.427456356485742
 30
0.0
 40
0.1818260367492528
100
AcDbArc
 50
98.53076560994793
 51
187.7294390983635
  0
ARC
  5
24C
330
1E
100
AcDbEntity
  8
IMAGE
100
AcDbCircle
 10
2.137435007451514
 20
6.649100370215887
 30
0.0
 40
0.1818260367492528
100
AcDbArc
 50
278.5307656099478
 51
7.729439098363569
  0
ARC
  5
24D
330
1E
100
AcDbEntity
  8
IMAGE
100
AcDbCircle
 10
2.344581170491991
 20
6.49374074793553
 30
0.0
 40
0.1818260367492528
100
AcDbArc
 50
98.53076560994793
 51
187.7294390983635
  0
TEXT
  5
258
330
1E
100
AcDbEntity
  8
TEXT_BUBBLES
100
AcDbText
 10
4.325537403856112
 20
8.051508778537904
 30
0.0
 40
0.125
  1
1
  7
ROMANS
 72
     4
 11
4.37613264195135
 21
8.114008778537904
 31
0.0
100
AcDbText
  0
TEXT
  5
25A
330
1E
100
AcDbEntity
  8
TEXT_BUBBLES
100
AcDbText
 10
4.31363264195135
 20
6.714303169077395
 30
0.0
 40
0.125
  1
4
  7
ROMANS
 72
     4
 11
4.37613264195135
 21
6.776803169077395
 31
0.0
100
AcDbText
  0
TEXT
  5
25C
330
1E
100
AcDbEntity
  8
TEXT_BUBBLES
100
AcDbText
 10
4.316608832427541
 20
5.690233936008534
 30
0.0
 40
0.125
  1
5
  7
ROMANS
 72
     4
 11
4.37613264195135
 21
5.752733936008534
 31
0.0
100
AcDbText
  0
TEXT
  5
25E
330
1E
100
AcDbEntity
  8
TEXT_BUBBLES
100
AcDbText
 10
2.966797714923914
 20
4.144319462946963
 30
0.0
 40
0.125
  1
6
  7
ROMANS
 72
     4
 11
3.029297714923914
 21
4.206819462946963
 31
0.0
100
AcDbText
  0
TEXT
  5
260
330
1E
100
AcDbEntity
  8
TEXT_BUBBLES
100
AcDbText
 10
3.502066174362234
 20
4.144319462946963
 30
0.0
 40
0.125
  1
7
  7
ROMANS
 72
     4
 11
3.561589983886044
 21
4.206819462946963
 31
0.0
100
AcDbText
  0
TEXT
  5
262
330
1E
100
AcDbEntity
  8
TEXT_BUBBLES
100
AcDbText
 10
5.388744749999999
 20
6.320013781443593
 30
0.0
 40
0.125
  1
PLANT MATERIAL
  7
SIMPLEX
100
AcDbText
  0
TEXT
  5
263
330
1E
100
AcDbEntity
  8
TEXT_BUBBLES
100
AcDbText
 10
5.388744749999999
 20
4.045013781443594
 30
0.0
 40
0.125
  1
FINISH GRADE/TOP OF MULCH
  7
SIMPLEX
100
AcDbText
  0
TEXT
  5
265
330
1E
100
AcDbEntity
  8
TEXT_BUBBLES
100
AcDbText
 10
5.054427014795338
 20
5.439478018501922
 30
0.0
 40
0.125
  1
6
  7
ROMANS
 72
     4
 11
5.116927014795338
 21
5.501978018501922
 31
0.0
100
AcDbText
  0
TEXT
  5
267
330
1E
100
AcDbEntity
  8
TEXT_BUBBLES
100
AcDbText
 10
5.057403205271529
 20
4.564478018501922
 30
0.0
 40
0.125
  1
7
  7
ROMANS
 72
     4
 11
5.116927014795338
 21
4.626978018501922
 31
0.0
100
AcDbText
  0
TEXT
  5
269
330
1E
100
AcDbEntity
  8
TEXT_BUBBLES
100
AcDbText
 10
5.057403205271529
 20
4.039478018501921
 30
0.0
 40
0.125
  1
8
  7
ROMANS
 72
     4
 11
5.116927014795338
 21
4.101978018501921
 31
0.0
100
AcDbText
  0
TEXT
  5
26A
330
1E
100
AcDbEntity
  8
TEXT_BUBBLES
100
AcDbText
 10
5.057403205271529
 20
7.014478018501922
 30
0.0
 40
0.125
  1
3
  7
ROMANS
 72
     4
 11
5.116927014795338
 21
7.076978018501922
 31
0.0
100
AcDbText
  0
TEXT
  5
26C
330
1E
100
AcDbEntity
  8
TEXT_BUBBLES
100
AcDbText
 10
5.388744749999999
 20
5.270013781443593
 30
0.0
 40
0.125
  1
  WITH STAINLESS STEEL GEAR
  7
SIMPLEX
100
AcDbText
  0
TEXT
  5
26D
330
1E
100
AcDbEntity
  8
TEXT_LEADERS
100
AcDbText
 10
4.81948445
 20
8.140094031245535
 30
0.0
 40
0.125
  1
IMPACT SPRINKLER:
  7
SIMPLEX
100
AcDbText
  0
TEXT
  5
26E
330
1E
100
AcDbEntity
  8
TEXT_LEADERS
100
AcDbText
 10
4.81948445
 20
6.390094031245536
 30
0.0
 40
0.125
  1
PLANT MATERIAL
  7
SIMPLEX
100
AcDbText
  0
TEXT
  5
26F
330
1E
100
AcDbEntity
  8
TEXT_LEADERS
100
AcDbText
 10
4.81948445
 20
3.52123499284248
 30
0.0
 40
0.125
  1
  SUPPORT SYSTEM
  7
SIMPLEX
100
AcDbText
  0
TEXT
  5
270
330
1E
100
AcDbEntity
  8
TEXT_LEADERS
100
AcDbText
 10
4.81948445
 20
5.737868223409322
 30
0.0
 40
0.125
  1
UV RADIATION RESISTANT
  7
SIMPLEX
100
AcDbText
  0
TEXT
  5
271
330
1E
100
AcDbEntity
  8
TEXT_LEADERS
100
AcDbText
 10
4.81948445
 20
7.965094031245536
 30
0.0
 40
0.125
  1
  RAIN BIRD 2045-PJ MAXI-BIRD
  7
SIMPLEX
100
AcDbText
  0
TEXT
  5
272
330
1E
100
AcDbEntity
  8
TEXT_LEADERS
100
AcDbText
 10
4.81948445
 20
5.128027111254658
 30
0.0
 40
0.125
  1
FINISH GRADE/TOP OF MULCH
  7
SIMPLEX
100
AcDbText
  0
TEXT
  5
273
330
1E
100
AcDbEntity
  8
TEXT_LEADERS
100
AcDbText
 10
4.81948445
 20
7.220855658721858
 30
0.0
 40
0.125
  1
UV RADIATION RESISTANT
  7
SIMPLEX
100
AcDbText
  0
TEXT
  5
274
330
1E
100
AcDbEntity
  8
TEXT_LEADERS
100
AcDbText
 10
4.81948445
 20
6.870855658721858
 30
0.0
 40
0.125
  1
  (LENGTH AS REQUIRED)
  7
SIMPLEX
100
AcDbText
  0
TEXT
  5
275
330
1E
100
AcDbEntity
  8
TEXT_LEADERS
100
AcDbText
 10
4.81948445
 20
7.045855658721858
 30
0.0
 40
0.125
  1
  PVC SCH 80 NIPPLE
  7
SIMPLEX
100
AcDbText
  0
TEXT
  5
276
330
1E
100
AcDbEntity
  8
TEXT_LEADERS
100
AcDbText
 10
4.81948445
 20
3.69623499284248
 30
0.0
 40
0.125
  1
  CLAMPS OR EQUIVALENT
  7
SIMPLEX
100
AcDbText
  0
TEXT
  5
277
330
1E
100
AcDbEntity
  8
TEXT_LEADERS
100
AcDbText
 10
4.81948445
 20
3.87123499284247
 30
0.0
 40
0.125
  1
  WITH STAINLESS STEEL GEAR
  7
SIMPLEX
100
AcDbText
  0
TEXT
  5
278
330
1E
100
AcDbEntity
  8
TEXT_LEADERS
100
AcDbText
 10
4.81948445
 20
4.046234992842469
 30
0.0
 40
0.125
  1
1-INCH GALVANIZED STEEL PIPE
  7
SIMPLEX
100
AcDbText
  0
TEXT
  5
279
330
1E
100
AcDbEntity
  8
TEXT_LEADERS
100
AcDbText
 10
4.81948445
 20
4.475772636324711
 30
0.0
 40
0.125
  1
UV RADIATION RESISTANT
  7
SIMPLEX
100
AcDbText
  0
LINE
  5
2B6
330
1E
100
AcDbEntity
  8
IMAGE
100
AcDbLine
 10
2.890755203569404
 20
5.912559105187097
 30
0.0
 11
3.14876203580128
 21
5.912559105187095
 31
0.0
  0
LINE
  5
2B7
330
1E
100
AcDbEntity
  8
IMAGE
100
AcDbLine
 10
2.890755203569404
 20
5.912559105187097
 30
0.0
 11
2.890755203569405
 21
5.619869179921422
 31
0.0
  0
LINE
  5
2B8
330
1E
100
AcDbEntity
  8
IMAGE
100
AcDbLine
 10
3.14876203580128
 20
5.912559105187095
 30
0.0
 11
3.148762035801281
 21
5.619869179921422
 31
0.0
  0
LINE
  5
2B9
330
1E
100
AcDbEntity
  8
IMAGE
100
AcDbLine
 10
3.148762035801281
 20
5.619869179921422
 30
0.0
 11
3.312448544951017
 21
5.619869179921422
 31
0.0
  0
LWPOLYLINE
  5
2BA
330
1E
100
AcDbEntity
  8
IMAGE
100
AcDbPolyline
 90
        2
 70
     0
 43
0.0
 10
2.672677866492085
 20
4.655647899826205
 10
2.886673408131843
 20
4.655647899826205
  0
LINE
  5
2BE
330
1E
100
AcDbEntity
  8
IMAGE
100
AcDbLine
 10
1.276280473978134
 20
5.358926179404785
 30
0.0
 11
4.20825880370713
 21
5.358926179404785
 31
0.0
  0
TEXT
  5
2CA
330
1E
100
AcDbEntity
  8
TEXT_BUBBLES
100
AcDbText
 10
4.316608832427541
 20
7.08442749167425
 30
0.0
 40
0.125
  1
3
  7
ROMANS
 72
     4
 11
4.37613264195135
 21
7.14692749167425
 31
0.0
100
AcDbText
  0
TEXT
  5
2CD
330
1E
100
AcDbEntity
  8
TEXT_BUBBLES
100
AcDbText
 10
4.471764906176933
 20
4.144319462946963
 30
0.0
 40
0.125
  1
8
  7
ROMANS
 72
     4
 11
4.531288715700743
 21
4.206819462946963
 31
0.0
100
AcDbText
  0
LINE
  5
2D2
330
1E
100
AcDbEntity
  8
IMAGE
100
AcDbLine
 10
2.892240092128337
 20
6.994712681956424
 30
0.0
 11
2.892236024666923
 21
6.862743769985381
 31
0.0
  0
LINE
  5
2D3
330
1E
100
AcDbEntity
  8
IMAGE
100
AcDbLine
 10
3.149907552477395
 20
6.994712681956424
 30
0.0
 11
3.149890969754411
 21
6.862743769985381
 31
0.0
  0
LINE
  5
2D4
330
1E
100
AcDbEntity
  8
IMAGE
100
AcDbLine
 10
2.911366545627805
 20
6.862743769985381
 30
0.0
 11
3.130760448793528
 21
6.862743769985381
 31
0.0
  0
LINE
  5
2D5
330
1E
100
AcDbEntity
  8
IMAGE
100
AcDbLine
 10
2.892236024666923
 20
6.862743769985381
 30
0.0
 11
3.149890969754411
 21
6.862743769985381
 31
0.0
  0
LINE
  5
2D6
330
1E
100
AcDbEntity
  8
IMAGE
100
AcDbLine
 10
2.892247075874756
 20
7.22130055156522
 30
0.0
 11
2.892242713927405
 21
7.079777034205599
 31
0.0
  0
LINE
  5
2D7
330
1E
100
AcDbEntity
  8
IMAGE
100
AcDbLine
 10
2.892247075874756
 20
7.22130055156522
 30
0.0
 11
3.149936024666923
 21
7.22130055156522
 31
0.0
  0
LINE
  5
2D8
330
1E
100
AcDbEntity
  8
IMAGE
100
AcDbLine
 10
3.149936024666923
 20
7.22130055156522
 30
0.0
 11
3.149918241347737
 21
7.079777034205599
 31
0.0
  0
LINE
  5
2D9
330
1E
100
AcDbEntity
  8
IMAGE
100
AcDbLine
 10
2.96752727431139
 20
7.341203265072352
 30
0.0
 11
2.96752727431139
 21
7.252986674909041
 31
0.0
  0
LINE
  5
2DA
330
1E
100
AcDbEntity
  8
IMAGE
100
AcDbLine
 10
3.07894074448154
 20
7.341203265072352
 30
0.0
 11
3.07894074448154
 21
7.252986674909041
 31
0.0
  0
LINE
  5
2DB
330
1E
100
AcDbEntity
  8
IMAGE
100
AcDbLine
 10
2.911820539226329
 20
7.252986674909041
 30
0.0
 11
2.911820539226329
 21
7.341203265072352
 31
0.0
  0
LINE
  5
2DC
330
1E
100
AcDbEntity
  8
IMAGE
100
AcDbLine
 10
3.134647479566601
 20
7.252986674909041
 30
0.0
 11
3.134647479566601
 21
7.341203265072352
 31
0.0
  0
LINE
  5
2DD
330
1E
100
AcDbEntity
  8
IMAGE
100
AcDbLine
 10
2.911820539226329
 20
7.252986674909041
 30
0.0
 11
3.134647479566601
 21
7.252986674909041
 31
0.0
  0
LINE
  5
2DE
330
1E
100
AcDbEntity
  8
IMAGE
100
AcDbLine
 10
2.942931889641259
 20
7.23714361323713
 30
0.0
 11
3.10699576865526
 21
7.237155767367009
 31
0.0
  0
LINE
  5
2DF
330
1E
100
AcDbEntity
  8
IMAGE
100
AcDbLine
 10
3.136950707653855
 20
7.386000752264659
 30
0.0
 11
2.876436089827825
 21
7.386000752264659
 31
0.0
  0
LINE
  5
2E0
330
1E
100
AcDbEntity
  8
IMAGE
100
AcDbLine
 10
3.136950707653855
 20
7.399784594477682
 30
0.0
 11
2.876436089827825
 21
7.399784594477682
 31
0.0
  0
LINE
  5
2E1
330
1E
100
AcDbEntity
  8
IMAGE
100
AcDbLine
 10
3.136950707653855
 20
7.351541146732119
 30
0.0
 11
2.80613849454144
 21
7.351541146732119
 31
0.0
  0
LINE
  5
2E2
330
1E
100
AcDbEntity
  8
IMAGE
100
AcDbLine
 10
3.136950707653855
 20
7.365324988945137
 30
0.0
 11
2.80613849454144
 21
7.365324988945137
 31
0.0
  0
LINE
  5
2E3
330
1E
100
AcDbEntity
  8
IMAGE
100
AcDbLine
 10
2.857827902840251
 20
7.503852603185964
 30
0.0
 11
3.10249110212131
 21
7.503852603185964
 31
0.0
  0
LINE
  5
2E4
330
1E
100
AcDbEntity
  8
IMAGE
100
AcDbLine
 10
3.136950707653855
 20
7.410122476137437
 30
0.0
 11
2.909517311139062
 21
7.410122476137437
 31
0.0
  0
LINE
  5
2E5
330
1E
100
AcDbEntity
  8
IMAGE
100
AcDbLine
 10
3.136950707653855
 20
7.341203265072352
 30
0.0
 11
2.909517311139062
 21
7.341203265072352
 31
0.0
  0
LINE
  5
2E6
330
1E
100
AcDbEntity
  8
IMAGE
100
AcDbLine
 10
2.862652247614801
 20
7.365324988945137
 30
0.0
 11
2.862652247614801
 21
7.490068763225193
 31
0.0
  0
LINE
  5
2E7
330
1E
100
AcDbEntity
  8
IMAGE
100
AcDbLine
 10
2.876436089827825
 20
7.365324988945137
 30
0.0
 11
2.876436089827825
 21
7.490068763495567
 31
0.0
  0
LINE
  5
2E8
330
1E
100
AcDbEntity
  8
IMAGE
100
AcDbLine
 10
2.909517311139062
 20
7.351541146732119
 30
0.0
 11
2.909517311139062
 21
7.341203265072352
 31
0.0
  0
LINE
  5
2E9
330
1E
100
AcDbEntity
  8
IMAGE
100
AcDbLine
 10
2.909517311139062
 20
7.386000752264659
 30
0.0
 11
2.909517311139062
 21
7.365324988945137
 31
0.0
  0
LINE
  5
2EA
330
1E
100
AcDbEntity
  8
IMAGE
100
AcDbLine
 10
2.854381942286996
 20
7.365324988945137
 30
0.0
 11
2.854381942286996
 21
7.351541146732119
 31
0.0
  0
LINE
  5
2EB
330
1E
100
AcDbEntity
  8
IMAGE
100
AcDbLine
 10
2.862652247614801
 20
7.386000752264659
 30
0.0
 11
2.80613849454144
 21
7.386000752264659
 31
0.0
  0
LINE
  5
2EC
330
1E
100
AcDbEntity
  8
IMAGE
100
AcDbLine
 10
2.862652247614801
 20
7.399784594477682
 30
0.0
 11
2.80613849454144
 21
7.399784594477682
 31
0.0
  0
ARC
  5
2ED
330
1E
100
AcDbEntity
  8
IMAGE
100
AcDbCircle
 10
2.869544168721313
 20
7.305365275318506
 30
0.0
 40
0.0068919211065087
100
AcDbArc
 50
179.999981276032
 51
359.999981276032
  0
LINE
  5
2EE
330
1E
100
AcDbEntity
  8
IMAGE
100
AcDbLine
 10
2.876436089827825
 20
7.305365277841125
 30
0.0
 11
2.876436089827825
 21
7.351541146732119
 31
0.0
  0
LINE
  5
2EF
330
1E
100
AcDbEntity
  8
IMAGE
100
AcDbLine
 10
2.862652247614801
 20
7.305365277570758
 30
0.0
 11
2.862652247614801
 21
7.351541146732119
 31
0.0
  0
LINE
  5
2F0
330
1E
100
AcDbEntity
  8
IMAGE
100
AcDbLine
 10
2.909517311139062
 20
7.410122476137437
 30
0.0
 11
2.909517311139062
 21
7.399784594477682
 31
0.0
  0
LINE
  5
2F1
330
1E
100
AcDbEntity
  8
IMAGE
100
AcDbLine
 10
2.848868405401791
 20
7.483176839866437
 30
0.0
 11
2.862652247614801
 21
7.483176839866437
 31
0.0
  0
LINE
  5
2F2
330
1E
100
AcDbEntity
  8
IMAGE
100
AcDbLine
 10
2.848868405401791
 20
7.496960682079452
 30
0.0
 11
2.869544170973558
 21
7.496960682079452
 31
0.0
  0
LINE
  5
2F3
330
1E
100
AcDbEntity
  8
IMAGE
100
AcDbLine
 10
2.862652247614801
 20
7.462501076546907
 30
0.0
 11
2.848868405401791
 21
7.462501076546907
 31
0.0
  0
ARC
  5
2F4
330
1E
100
AcDbEntity
  8
IMAGE
100
AcDbCircle
 10
2.869544168721313
 20
7.490068760972948
 30
0.0
 40
0.0068919211065087
100
AcDbArc
 50
359.9999812760336
 51
179.9999812760336
  0
LINE
  5
2F5
330
1E
100
AcDbEntity
  8
IMAGE
100
AcDbLine
 10
2.883328010934336
 20
7.490068760972948
 30
0.0
 11
2.883328010934336
 21
7.476284918759925
 31
0.0
  0
ARC
  5
2F6
330
1E
100
AcDbEntity
  8
IMAGE
100
AcDbCircle
 10
2.869544168721313
 20
7.490068760972948
 30
0.0
 40
0.0137838422130174
100
AcDbArc
 50
0.0
 51
90.0
  0
LINE
  5
2F7
330
1E
100
AcDbEntity
  8
IMAGE
100
AcDbLine
 10
2.904003774253858
 20
7.476284918759925
 30
0.0
 11
2.876436089827825
 21
7.476284918759925
 31
0.0
  0
LINE
  5
2F8
330
1E
100
AcDbEntity
  8
IMAGE
100
AcDbLine
 10
2.848868405401791
 20
7.517636445398975
 30
0.0
 11
2.857827902840251
 21
7.517636445398975
 31
0.0
  0
LINE
  5
2F9
330
1E
100
AcDbEntity
  8
IMAGE
100
AcDbLine
 10
2.848868405401791
 20
7.462501076546907
 30
0.0
 11
2.848868405401791
 21
7.517636445398975
 31
0.0
  0
LINE
  5
2FA
330
1E
100
AcDbEntity
  8
IMAGE
100
AcDbLine
 10
2.904003774253858
 20
7.462501076546907
 30
0.0
 11
2.876436089827825
 21
7.462501076546907
 31
0.0
  0
LINE
  5
2FB
330
1E
100
AcDbEntity
  8
IMAGE
100
AcDbLine
 10
2.904003774253858
 20
7.503852603185964
 30
0.0
 11
2.904003774253858
 21
7.462501076546907
 31
0.0
  0
LINE
  5
2FC
330
1E
100
AcDbEntity
  8
IMAGE
100
AcDbLine
 10
2.857827902840251
 20
7.534177056054594
 30
0.0
 11
2.904003774253858
 21
7.534177056054594
 31
0.0
  0
LINE
  5
2FD
330
1E
100
AcDbEntity
  8
IMAGE
100
AcDbLine
 10
2.857827902840251
 20
7.520393213841583
 30
0.0
 11
2.904003774253858
 21
7.520393213841583
 31
0.0
  0
LINE
  5
2FE
330
1E
100
AcDbEntity
  8
IMAGE
100
AcDbLine
 10
2.947422877224877
 20
7.437690160563469
 30
0.0
 11
2.947422877224877
 21
7.410122476137437
 31
0.0
  0
LINE
  5
2FF
330
1E
100
AcDbEntity
  8
IMAGE
100
AcDbLine
 10
3.099045141568054
 20
7.437690160563469
 30
0.0
 11
3.099045141568054
 21
7.410122476137437
 31
0.0
  0
ARC
  5
300
330
1E
100
AcDbEntity
  8
IMAGE
100
AcDbCircle
 10
2.914018956374604
 20
7.358433067838626
 30
0.0
 40
0.0068919211065088
100
AcDbArc
 50
270.0000000000016
 51
89.99999999999836
  0
ARC
  5
301
330
1E
100
AcDbEntity
  8
IMAGE
100
AcDbCircle
 10
2.979836352154878
 20
7.358433067838626
 30
0.0
 40
0.0068919211065088
100
AcDbArc
 50
270.0000000000016
 51
89.99999999999836
  0
ARC
  5
302
330
1E
100
AcDbEntity
  8
IMAGE
100
AcDbCircle
 10
2.938484825515821
 20
7.358433067838626
 30
0.0
 40
0.0068919211065088
100
AcDbArc
 50
90.00000000000161
 51
269.9999999999983
  0
LINE
  5
303
330
1E
100
AcDbEntity
  8
IMAGE
100
AcDbLine
 10
3.136950707653855
 20
7.351541146732119
 30
0.0
 11
3.136950707653855
 21
7.341203265072352
 31
0.0
  0
LINE
  5
304
330
1E
100
AcDbEntity
  8
IMAGE
100
AcDbLine
 10
3.136950707653855
 20
7.386000752264659
 30
0.0
 11
3.136950707653855
 21
7.365324988945137
 31
0.0
  0
ARC
  5
305
330
1E
100
AcDbEntity
  8
IMAGE
100
AcDbCircle
 10
3.136950707653855
 20
7.392892673371171
 30
0.0
 40
0.0068919211065087
100
AcDbArc
 50
270.0
 51
90.0
  0
ARC
  5
306
330
1E
100
AcDbEntity
  8
IMAGE
100
AcDbCircle
 10
3.136950707653855
 20
7.358433067838626
 30
0.0
 40
0.0068919211065087
100
AcDbArc
 50
270.0
 51
90.0
  0
LINE
  5
307
330
1E
100
AcDbEntity
  8
IMAGE
100
AcDbLine
 10
3.136950707653855
 20
7.410122476137437
 30
0.0
 11
3.136950707653855
 21
7.399784594477682
 31
0.0
  0
LINE
  5
308
330
1E
100
AcDbEntity
  8
IMAGE
100
AcDbLine
 10
2.992220364417176
 20
7.558987972038031
 30
0.0
 11
3.046927028425473
 21
7.558987972038031
 31
0.0
  0
LINE
  5
309
330
1E
100
AcDbEntity
  8
IMAGE
100
AcDbLine
 10
2.992220364417176
 20
7.54796089826761
 30
0.0
 11
3.046927028425473
 21
7.54796089826761
 31
0.0
  0
LINE
  5
30A
330
1E
100
AcDbEntity
  8
IMAGE
100
AcDbLine
 10
2.992220364417176
 20
7.520393213841583
 30
0.0
 11
3.10249110212131
 21
7.520393213841583
 31
0.0
  0
LINE
  5
30B
330
1E
100
AcDbEntity
  8
IMAGE
100
AcDbLine
 10
2.930193074458597
 20
7.437690160563469
 30
0.0
 11
3.116274944334334
 21
7.437690160563469
 31
0.0
  0
LINE
  5
30C
330
1E
100
AcDbEntity
  8
IMAGE
100
AcDbLine
 10
2.992220364417176
 20
7.545204129825015
 30
0.0
 11
3.006459490770146
 21
7.545204129825015
 31
0.0
  0
ARC
  5
30D
330
1E
100
AcDbEntity
  8
IMAGE
100
AcDbCircle
 10
2.981193290646753
 20
7.556231203595429
 30
0.0
 40
0.0275676844260349
100
AcDbArc
 50
293.578178478197
 51
336.4218215218008
  0
ARC
  5
30E
330
1E
100
AcDbEntity
  8
IMAGE
100
AcDbCircle
 10
2.943976916671608
 20
7.490068760972948
 30
0.0
 40
0.0137838422130174
100
AcDbArc
 50
90.0
 51
180.0
  0
LINE
  5
30F
330
1E
100
AcDbEntity
  8
IMAGE
100
AcDbLine
 10
2.930193074458597
 20
7.490068760972948
 30
0.0
 11
2.930193074458597
 21
7.437690160563469
 31
0.0
  0
ARC
  5
310
330
1E
100
AcDbEntity
  8
IMAGE
100
AcDbCircle
 10
3.046927028425473
 20
7.592069193349277
 30
0.0
 40
0.0330812213112419
100
AcDbArc
 50
270.0
 51
294.3691422866846
  0
ARC
  5
311
330
1E
100
AcDbEntity
  8
IMAGE
100
AcDbCircle
 10
3.046927028425473
 20
7.592069193349277
 30
0.0
 40
0.0441082950816558
100
AcDbArc
 50
270.0
 51
294.3691422866846
  0
LINE
  5
312
330
1E
100
AcDbEntity
  8
IMAGE
100
AcDbLine
 10
3.10249110212131
 20
7.503852603185964
 30
0.0
 11
3.10249110212131
 21
7.520393213841583
 31
0.0
  0
ARC
  5
313
330
1E
100
AcDbEntity
  8
IMAGE
100
AcDbCircle
 10
3.10249110212131
 20
7.490068760972948
 30
0.0
 40
0.0137838422130174
100
AcDbArc
 50
0.0
 51
90.0
  0
LINE
  5
314
330
1E
100
AcDbEntity
  8
IMAGE
100
AcDbLine
 10
3.116274944334334
 20
7.490068760972948
 30
0.0
 11
3.116274944334334
 21
7.437690160563469
 31
0.0
  0
ARC
  5
315
330
1E
100
AcDbEntity
  8
IMAGE
100
AcDbCircle
 10
2.806138494541439
 20
7.358433067838626
 30
0.0
 40
0.0068919211065088
100
AcDbArc
 50
90.00000000000161
 51
269.9999999999983
  0
ARC
  5
316
330
1E
100
AcDbEntity
  8
IMAGE
100
AcDbCircle
 10
2.806138494541439
 20
7.392892673371171
 30
0.0
 40
0.0068919211065086
100
AcDbArc
 50
90.00000000000161
 51
269.9999999999983
  0
LINE
  5
317
330
1E
100
AcDbEntity
  8
IMAGE
100
AcDbLine
 10
2.922423905214708
 20
7.252986674909041
 30
0.0
 11
2.922423905214708
 21
7.22130055156522
 31
0.0
  0
LINE
  5
318
330
1E
100
AcDbEntity
  8
IMAGE
100
AcDbLine
 10
3.127503749480216
 20
7.252986674909041
 30
0.0
 11
3.127503749480216
 21
7.22130055156522
 31
0.0
  0
LINE
  5
319
330
1E
100
AcDbEntity
  8
IMAGE
100
AcDbLine
 10
3.045288156937282
 20
7.96698970154335
 30
0.0
 11
3.067342304478111
 21
7.95044909088773
 31
0.0
  0
LINE
  5
31A
330
1E
100
AcDbEntity
  8
IMAGE
100
AcDbLine
 10
3.001179861855636
 20
7.96698970154335
 30
0.0
 11
2.979125714314807
 21
7.95044909088773
 31
0.0
  0
LINE
  5
31B
330
1E
100
AcDbEntity
  8
IMAGE
100
AcDbLine
 10
3.001179861855636
 20
7.96698970154335
 30
0.0
 11
3.001179861855636
 21
7.878773111380039
 31
0.0
  0
LINE
  5
31C
330
1E
100
AcDbEntity
  8
IMAGE
100
AcDbLine
 10
3.045288156937282
 20
7.96698970154335
 30
0.0
 11
3.045288156937282
 21
7.878773111380039
 31
0.0
  0
LINE
  5
31D
330
1E
100
AcDbEntity
  8
IMAGE
100
AcDbLine
 10
2.973612177429589
 20
7.96698970154335
 30
0.0
 11
2.959828335216579
 21
7.95044909088773
 31
0.0
  0
LINE
  5
31E
330
1E
100
AcDbEntity
  8
IMAGE
100
AcDbLine
 10
3.086639683576338
 20
7.95044909088773
 30
0.0
 11
3.072855841363328
 21
7.96698970154335
 31
0.0
  0
CIRCLE
  5
31F
330
1E
100
AcDbEntity
  8
IMAGE
100
AcDbCircle
 10
2.714475943824865
 20
7.724394078594239
 30
0.0
 40
0.0551353688520697
  0
LINE
  5
320
330
1E
100
AcDbEntity
  8
IMAGE
100
AcDbLine
 10
2.87988205038108
 20
7.878773111380039
 30
0.0
 11
3.179504988934679
 21
7.878773111380039
 31
0.0
  0
ARC
  5
321
330
1E
100
AcDbEntity
  8
IMAGE
100
AcDbCircle
 10
3.160518293152487
 20
7.589367148072843
 30
0.0
 40
0.0220541475408279
100
AcDbArc
 50
180.0
 51
294.3691422866864
  0
ARC
  5
322
330
1E
100
AcDbEntity
  8
IMAGE
100
AcDbCircle
 10
3.160518293152487
 20
7.589367148072843
 30
0.0
 40
0.011027073770414
100
AcDbArc
 50
180.0000000000001
 51
294.3691422866864
  0
ARC
  5
323
330
1E
100
AcDbEntity
  8
IMAGE
100
AcDbCircle
 10
3.160518293152487
 20
7.856718963839209
 30
0.0
 40
0.011027073770414
100
AcDbArc
 50
89.99999999999925
 51
180.0
  0
ARC
  5
324
330
1E
100
AcDbEntity
  8
IMAGE
100
AcDbCircle
 10
3.160518293152487
 20
7.667589068362683
 30
0.0
 40
0.011027073770414
100
AcDbArc
 50
180.0
 51
294.3691422866884
  0
LINE
  5
325
330
1E
100
AcDbEntity
  8
IMAGE
100
AcDbLine
 10
3.10249110212131
 20
7.520393213841583
 30
0.0
 11
3.21190559230675
 21
7.569954792411038
 31
0.0
  0
ARC
  5
326
330
1E
100
AcDbEntity
  8
IMAGE
100
AcDbCircle
 10
2.814375649855829
 20
7.605347083779814
 30
0.0
 40
0.0408001729505316
100
AcDbArc
 50
160.3411016559235
 51
291.8752849740191
  0
ARC
  5
327
330
1E
100
AcDbEntity
  8
IMAGE
100
AcDbCircle
 10
2.815634804824959
 20
7.609583145013341
 30
0.0
 40
0.0408001729505316
100
AcDbArc
 50
160.3411016559235
 51
280.3597485208934
  0
ARC
  5
328
330
1E
100
AcDbEntity
  8
IMAGE
100
AcDbCircle
 10
2.814375649855829
 20
7.605347083779814
 30
0.0
 40
0.0339082518440229
100
AcDbArc
 50
350.9342200201726
 51
155.9569707805172
  0
ARC
  5
329
330
1E
100
AcDbEntity
  8
IMAGE
100
AcDbCircle
 10
2.815634804824959
 20
7.609583145013341
 30
0.0
 40
0.0339082518440229
100
AcDbArc
 50
347.1819037808565
 51
159.7092870198335
  0
CIRCLE
  5
32A
330
1E
100
AcDbEntity
  8
IMAGE
100
AcDbCircle
 10
2.816893959794105
 20
7.613819206246861
 30
0.0
 40
0.0339082518440229
  0
ARC
  5
32B
330
1E
100
AcDbEntity
  8
IMAGE
100
AcDbCircle
 10
2.816893959794105
 20
7.613819206246861
 30
0.0
 40
0.0408001729505316
100
AcDbArc
 50
287.2356435566582
 51
253.4455954003449
  0
LINE
  5
32C
330
1E
100
AcDbEntity
  8
IMAGE
100
AcDbLine
 10
2.857827902840251
 20
7.669258709742172
 30
0.0
 11
2.857827902840251
 21
7.503852603185964
 31
0.0
  0
LINE
  5
32D
330
1E
100
AcDbEntity
  8
IMAGE
100
AcDbLine
 10
3.028193407907525
 20
7.571477797763246
 30
0.0
 11
3.138464145611658
 21
7.621427231529959
 31
0.0
  0
LINE
  5
32E
330
1E
100
AcDbEntity
  8
IMAGE
100
AcDbLine
 10
3.028193407907525
 20
7.658231635971758
 30
0.0
 11
3.028193407907525
 21
7.571477797763246
 31
0.0
  0
LINE
  5
32F
330
1E
100
AcDbEntity
  8
IMAGE
100
AcDbLine
 10
2.92399034546274
 20
7.647204562201342
 30
0.0
 11
2.992220364417176
 21
7.592069193349277
 31
0.0
  0
LINE
  5
330
330
1E
100
AcDbEntity
  8
IMAGE
100
AcDbLine
 10
3.149491219382079
 20
7.638382903185008
 30
0.0
 11
3.149491219382079
 21
7.589367148072843
 31
0.0
  0
LINE
  5
331
330
1E
100
AcDbEntity
  8
IMAGE
100
AcDbLine
 10
3.138464145611658
 20
7.856718963839209
 30
0.0
 11
3.138464145611658
 21
7.589367148072843
 31
0.0
  0
LINE
  5
332
330
1E
100
AcDbEntity
  8
IMAGE
100
AcDbLine
 10
2.992220364417176
 20
7.592069193349277
 30
0.0
 11
2.857827902840251
 21
7.592069193349277
 31
0.0
  0
ARC
  5
333
330
1E
100
AcDbEntity
  8
IMAGE
100
AcDbCircle
 10
2.814375649855829
 20
7.605347083779814
 30
0.0
 40
0.0408001729505316
100
AcDbArc
 50
305.5334418523008
 51
346.5500891447664
  0
ARC
  5
334
330
1E
100
AcDbEntity
  8
IMAGE
100
AcDbCircle
 10
2.815634804824959
 20
7.609583145013341
 30
0.0
 40
0.0408001729505316
100
AcDbArc
 50
297.1622058621264
 51
346.5500891447664
  0
LINE
  5
335
330
1E
100
AcDbEntity
  8
IMAGE
100
AcDbLine
 10
2.805268943847632
 20
7.574710216013953
 30
0.0
 11
2.857827902840251
 21
7.559087242043522
 31
0.0
  0
LINE
  5
336
330
1E
100
AcDbEntity
  8
IMAGE
100
AcDbLine
 10
2.807232628973724
 20
7.581316464364099
 30
0.0
 11
2.857827902840251
 21
7.566277189199714
 31
0.0
  0
LINE
  5
337
330
1E
100
AcDbEntity
  8
IMAGE
100
AcDbLine
 10
2.857827902840251
 20
7.585378564964737
 30
0.0
 11
2.904003774253858
 21
7.585378564964737
 31
0.0
  0
LINE
  5
338
330
1E
100
AcDbEntity
  8
IMAGE
100
AcDbLine
 10
2.857827902840251
 20
7.578285351136259
 30
0.0
 11
2.904003774253858
 21
7.578285351136259
 31
0.0
  0
LINE
  5
339
330
1E
100
AcDbEntity
  8
IMAGE
100
AcDbLine
 10
2.904003774253858
 20
7.520393213841583
 30
0.0
 11
2.904003774253858
 21
7.592069193349277
 31
0.0
  0
ARC
  5
33A
330
1E
100
AcDbEntity
  8
IMAGE
100
AcDbCircle
 10
2.981193290646753
 20
7.556231203595429
 30
0.0
 40
0.0275676844260349
100
AcDbArc
 50
23.57817847819911
 51
66.42182152180291
  0
LINE
  5
33B
330
1E
100
AcDbEntity
  8
IMAGE
100
AcDbLine
 10
2.992220364417176
 20
7.567258277365838
 30
0.0
 11
3.006459490770146
 21
7.567258277365838
 31
0.0
  0
LINE
  5
33C
330
1E
100
AcDbEntity
  8
IMAGE
100
AcDbLine
 10
2.994447960775231
 20
7.580403314475504
 30
0.0
 11
3.028193407907525
 21
7.595689019564239
 31
0.0
  0
LINE
  5
33D
330
1E
100
AcDbEntity
  8
IMAGE
100
AcDbLine
 10
2.992220364417176
 20
7.520393213841583
 30
0.0
 11
2.992220364417176
 21
7.592069193349277
 31
0.0
  0
LINE
  5
33E
330
1E
100
AcDbEntity
  8
IMAGE
100
AcDbLine
 10
3.060576800307195
 20
7.561935309911851
 30
0.0
 11
3.138464145611658
 21
7.597216009728959
 31
0.0
  0
LINE
  5
33F
330
1E
100
AcDbEntity
  8
IMAGE
100
AcDbLine
 10
3.065126724267779
 20
7.551890682099378
 30
0.0
 11
3.138845577603714
 21
7.585283176415882
 31
0.0
  0
LINE
  5
340
330
1E
100
AcDbEntity
  8
IMAGE
100
AcDbLine
 10
2.893264295593045
 20
7.717777834331992
 30
0.0
 11
2.996220463344563
 21
7.717777834331992
 31
0.0
  0
LINE
  5
341
330
1E
100
AcDbEntity
  8
IMAGE
100
AcDbLine
 10
2.758584238906525
 20
7.691312857282995
 30
0.0
 11
3.007247537114984
 21
7.691312857282995
 31
0.0
  0
LINE
  5
342
330
1E
100
AcDbEntity
  8
IMAGE
100
AcDbLine
 10
2.849028750399812
 20
7.724394078594239
 30
0.0
 11
2.987987808747472
 21
7.724394078594239
 31
0.0
  0
LINE
  5
343
330
1E
100
AcDbEntity
  8
IMAGE
100
AcDbLine
 10
2.714475943824866
 20
7.669258709742172
 30
0.0
 11
3.007247537114984
 21
7.669258709742172
 31
0.0
  0
LINE
  5
344
330
1E
100
AcDbEntity
  8
IMAGE
100
AcDbLine
 10
2.984085112825866
 20
7.647204562201342
 30
0.0
 11
2.857827902840251
 21
7.647204562201342
 31
0.0
  0
ARC
  5
345
330
1E
100
AcDbEntity
  8
IMAGE
100
AcDbCircle
 10
2.913517410066463
 20
7.819672276715968
 30
0.0
 40
0.005513536885207
100
AcDbArc
 50
180.0
 51
284.0362434679262
  0
LINE
  5
346
330
1E
100
AcDbEntity
  8
IMAGE
100
AcDbLine
 10
2.885395587266285
 20
7.867746037609617
 30
0.0
 11
3.12743707184125
 21
7.867746037609617
 31
0.0
  0
LINE
  5
347
330
1E
100
AcDbEntity
  8
IMAGE
100
AcDbLine
 10
2.890909124151488
 20
7.867746037609617
 30
0.0
 11
2.890909124151488
 21
7.724394078594239
 31
0.0
  0
LINE
  5
348
330
1E
100
AcDbEntity
  8
IMAGE
100
AcDbLine
 10
2.87988205038108
 20
7.873259574494828
 30
0.0
 11
2.87988205038108
 21
7.724394078594239
 31
0.0
  0
LINE
  5
349
330
1E
100
AcDbEntity
  8
IMAGE
100
AcDbLine
 10
2.857827902840251
 20
7.856718963839202
 30
0.0
 11
2.857827902840251
 21
7.724394078594239
 31
0.0
  0
LINE
  5
34A
330
1E
100
AcDbEntity
  8
IMAGE
100
AcDbLine
 10
2.761469370329261
 20
7.684290829672845
 30
0.0
 11
2.871740108033408
 21
7.684290829672845
 31
0.0
  0
LINE
  5
34B
330
1E
100
AcDbEntity
  8
IMAGE
100
AcDbLine
 10
2.823967219103411
 20
7.73041907636714
 30
0.0
 11
2.739537475121267
 21
7.773504449673404
 31
0.0
  0
LINE
  5
34C
330
1E
100
AcDbEntity
  8
IMAGE
100
AcDbLine
 10
2.761469370329261
 20
7.684290829672845
 30
0.0
 11
2.761469370329261
 21
7.669258709742172
 31
0.0
  0
LINE
  5
34D
330
1E
100
AcDbEntity
  8
IMAGE
100
AcDbLine
 10
2.871740108033408
 20
7.684290829672845
 30
0.0
 11
2.871740108033408
 21
7.669258709742172
 31
0.0
  0
LINE
  5
34E
330
1E
100
AcDbEntity
  8
IMAGE
100
AcDbLine
 10
2.893264295593045
 20
7.717777834331992
 30
0.0
 11
2.893264295593045
 21
7.724394078594239
 31
0.0
  0
ARC
  5
34F
330
1E
100
AcDbEntity
  8
IMAGE
100
AcDbCircle
 10
2.849028750399812
 20
7.779529447446306
 30
0.0
 40
0.0551353688520697
100
AcDbArc
 50
242.9643082105877
 51
270.0
  0
ARC
  5
350
330
1E
100
AcDbEntity
  8
IMAGE
100
AcDbCircle
 10
2.885395587266284
 20
7.873259574494828
 30
0.0
 40
0.0055135368852067
100
AcDbArc
 50
90.00000000000204
 51
269.9999999999979
  0
ARC
  5
351
330
1E
100
AcDbEntity
  8
IMAGE
100
AcDbCircle
 10
2.87988205038108
 20
7.856718963839202
 30
0.0
 40
0.0220541475408279
100
AcDbArc
 50
89.99999999999996
 51
180.0
  0
LINE
  5
352
330
1E
100
AcDbEntity
  8
IMAGE
100
AcDbLine
 10
2.908003873181259
 20
7.819672276715968
 30
0.0
 11
2.908003873181259
 21
7.867746037609617
 31
0.0
  0
LINE
  5
353
330
1E
100
AcDbEntity
  8
IMAGE
100
AcDbLine
 10
2.968098640544384
 20
7.778111663964431
 30
0.0
 11
2.968098640544384
 21
7.793057823147989
 31
0.0
  0
LINE
  5
354
330
1E
100
AcDbEntity
  8
IMAGE
100
AcDbLine
 10
3.078369378248519
 20
7.768502373675898
 30
0.0
 11
3.078369378248519
 21
7.78341038368024
 31
0.0
  0
LINE
  5
355
330
1E
100
AcDbEntity
  8
IMAGE
100
AcDbLine
 10
2.921784930708652
 20
7.816055933139405
 30
0.0
 11
2.921784930708652
 21
7.724394078594239
 31
0.0
  0
LINE
  5
356
330
1E
100
AcDbEntity
  8
IMAGE
100
AcDbLine
 10
3.149491219382079
 20
7.856718963839209
 30
0.0
 11
3.149491219382079
 21
7.667589068362683
 31
0.0
  0
LINE
  5
357
330
1E
100
AcDbEntity
  8
IMAGE
100
AcDbLine
 10
2.960455848481135
 20
7.771862074502155
 30
0.0
 11
3.085411502321801
 21
7.760929871347623
 31
0.0
  0
LINE
  5
358
330
1E
100
AcDbEntity
  8
IMAGE
100
AcDbLine
 10
2.961056518849461
 20
7.778727769779908
 30
0.0
 11
3.086012172690127
 21
7.767795566625376
 31
0.0
  0
LINE
  5
359
330
1E
100
AcDbEntity
  8
IMAGE
100
AcDbLine
 10
2.961056518849461
 20
7.756863363470851
 30
0.0
 11
3.086012172690127
 21
7.745931160316327
 31
0.0
  0
LINE
  5
35A
330
1E
100
AcDbEntity
  8
IMAGE
100
AcDbLine
 10
2.960455848481135
 20
7.749997668193098
 30
0.0
 11
3.085411502321801
 21
7.739065465038566
 31
0.0
  0
LINE
  5
35B
330
1E
100
AcDbEntity
  8
IMAGE
100
AcDbLine
 10
2.984085112825866
 20
7.658231635971758
 30
0.0
 11
3.050247555448354
 21
7.658231635971758
 31
0.0
  0
LINE
  5
35C
330
1E
100
AcDbEntity
  8
IMAGE
100
AcDbLine
 10
2.956517428399832
 20
7.669258709742172
 30
0.0
 11
2.956517428399832
 21
7.647204562201342
 31
0.0
  0
LINE
  5
35D
330
1E
100
AcDbEntity
  8
IMAGE
100
AcDbLine
 10
3.004401057572184
 20
7.704545345807489
 30
0.0
 11
3.023234009396466
 21
7.704545345807489
 31
0.0
  0
LINE
  5
35E
330
1E
100
AcDbEntity
  8
IMAGE
100
AcDbLine
 10
3.003716913803107
 20
7.717777834331992
 30
0.0
 11
3.023234009396466
 21
7.717777834331992
 31
0.0
  0
LINE
  5
35F
330
1E
100
AcDbEntity
  8
IMAGE
100
AcDbLine
 10
3.00001507067646
 20
7.724394078594239
 30
0.0
 11
3.007247537114984
 21
7.724394078594239
 31
0.0
  0
LINE
  5
360
330
1E
100
AcDbEntity
  8
IMAGE
100
AcDbLine
 10
2.982934537775363
 20
7.703957827501791
 30
0.0
 11
2.982934537775363
 21
7.697065906395294
 31
0.0
  0
ARC
  5
361
330
1E
100
AcDbEntity
  8
IMAGE
100
AcDbCircle
 10
2.99446621458758
 20
7.707403788055054
 30
0.0
 40
0.0034459605532544
100
AcDbArc
 50
270.0
 51
0.0
  0
ARC
  5
362
330
1E
100
AcDbEntity
  8
IMAGE
100
AcDbCircle
 10
2.99446621458758
 20
7.707403788055054
 30
0.0
 40
0.0103378816597631
100
AcDbArc
 50
270.0
 51
0.0
  0
LINE
  5
363
330
1E
100
AcDbEntity
  8
IMAGE
100
AcDbLine
 10
2.99446621458758
 20
7.703957827501791
 30
0.0
 11
2.982934537775363
 21
7.703957827501791
 31
0.0
  0
LINE
  5
364
330
1E
100
AcDbEntity
  8
IMAGE
100
AcDbLine
 10
2.99446621458758
 20
7.697065906395294
 30
0.0
 11
2.982934537775363
 21
7.697065906395294
 31
0.0
  0
LINE
  5
365
330
1E
100
AcDbEntity
  8
IMAGE
100
AcDbLine
 10
2.997912175140836
 20
7.711161590069738
 30
0.0
 11
2.997912175140836
 21
7.707403788055054
 31
0.0
  0
LINE
  5
366
330
1E
100
AcDbEntity
  8
IMAGE
100
AcDbLine
 10
3.004804096247362
 20
7.711161590069738
 30
0.0
 11
3.004804096247362
 21
7.707403788055054
 31
0.0
  0
LINE
  5
367
330
1E
100
AcDbEntity
  8
IMAGE
100
AcDbLine
 10
2.989411010086633
 20
7.731151100090779
 30
0.0
 11
2.996220463344563
 21
7.731708986747034
 31
0.0
  0
LINE
  5
368
330
1E
100
AcDbEntity
  8
IMAGE
100
AcDbLine
 10
2.95486615201989
 20
7.727852326519555
 30
0.0
 11
2.95486615201989
 21
7.727459090982516
 31
0.0
  0
ARC
  5
369
330
1E
100
AcDbEntity
  8
IMAGE
100
AcDbCircle
 10
2.984128332927827
 20
7.711161590069738
 30
0.0
 40
0.0206757633195262
100
AcDbArc
 50
0.0
 51
84.45265081048232
  0
LINE
  5
36A
330
1E
100
AcDbEntity
  8
IMAGE
100
AcDbLine
 10
2.986127024116346
 20
7.731740521586663
 30
0.0
 11
2.95260866019568
 21
7.734995931546445
 31
0.0
  0
LINE
  5
36B
330
1E
100
AcDbEntity
  8
IMAGE
100
AcDbLine
 10
2.985460793720168
 20
7.724880877747689
 30
0.0
 11
2.951942429799516
 21
7.728136287707472
 31
0.0
  0
ARC
  5
36C
330
1E
100
AcDbEntity
  8
IMAGE
100
AcDbCircle
 10
2.952275544997606
 20
7.731566109626958
 30
0.0
 40
0.0034459605532544
100
AcDbArc
 50
84.45265081048265
 51
264.4526508104829
  0
ARC
  5
36D
330
1E
100
AcDbEntity
  8
IMAGE
100
AcDbCircle
 10
2.984128332927827
 20
7.711161590069738
 30
0.0
 40
0.0137838422130174
100
AcDbArc
 50
0.0
 51
84.45265081048209
  0
LINE
  5
36E
330
1E
100
AcDbEntity
  8
IMAGE
100
AcDbLine
 10
2.961758073126402
 20
7.73580045024046
 30
0.0
 11
2.996220463344563
 21
7.738623893902832
 31
0.0
  0
LINE
  5
36F
330
1E
100
AcDbEntity
  8
IMAGE
100
AcDbLine
 10
2.996220463344563
 20
7.746868669837184
 30
0.0
 11
2.996220463344563
 21
7.727932623753729
 31
0.0
  0
LINE
  5
370
330
1E
100
AcDbEntity
  8
IMAGE
100
AcDbLine
 10
2.951975211002608
 20
7.734998957369874
 30
0.0
 11
2.95486615201989
 21
7.735235807136874
 31
0.0
  0
LINE
  5
371
330
1E
100
AcDbEntity
  8
IMAGE
100
AcDbLine
 10
2.998857404646884
 20
7.768502373675898
 30
0.0
 11
2.968098640544384
 21
7.768502373675898
 31
0.0
  0
ARC
  5
372
330
1E
100
AcDbEntity
  8
IMAGE
100
AcDbCircle
 10
2.960756182476131
 20
7.775294922245064
 30
0.0
 40
0.0034459605532544
100
AcDbArc
 50
84.99998127603097
 51
264.9999812760309
  0
LINE
  5
373
330
1E
100
AcDbEntity
  8
IMAGE
100
AcDbLine
 10
2.960455848481135
 20
7.778727769987987
 30
0.0
 11
2.968098640544384
 21
7.779396427651202
 31
0.0
  0
LINE
  5
374
330
1E
100
AcDbEntity
  8
IMAGE
100
AcDbLine
 10
2.960455848481135
 20
7.75686336367893
 30
0.0
 11
2.996220463344563
 21
7.759992362034853
 31
0.0
  0
ARC
  5
375
330
1E
100
AcDbEntity
  8
IMAGE
100
AcDbCircle
 10
2.960756182476131
 20
7.753430515936014
 30
0.0
 40
0.0034459605532544
100
AcDbArc
 50
84.99998127603097
 51
264.9999812760309
  0
CIRCLE
  5
376
330
1E
100
AcDbEntity
  8
IMAGE
100
AcDbCircle
 10
2.946625798139516
 20
7.704545345807489
 30
0.0
 40
0.0049997144834675
  0
LINE
  5
377
330
1E
100
AcDbEntity
  8
IMAGE
100
AcDbLine
 10
3.007247537114984
 20
7.704545345807489
 30
0.0
 11
3.007247537114984
 21
7.669258709742172
 31
0.0
  0
LINE
  5
378
330
1E
100
AcDbEntity
  8
IMAGE
100
AcDbLine
 10
2.963139242033325
 20
7.704545345807489
 30
0.0
 11
2.963139242033325
 21
7.717777834331992
 31
0.0
  0
LINE
  5
379
330
1E
100
AcDbEntity
  8
IMAGE
100
AcDbLine
 10
2.956522997771078
 20
7.704545345807489
 30
0.0
 11
2.956522997771078
 21
7.717777834331992
 31
0.0
  0
LINE
  5
37A
330
1E
100
AcDbEntity
  8
IMAGE
100
AcDbLine
 10
2.956522997771078
 20
7.704545345807489
 30
0.0
 11
2.996390780006613
 21
7.704545345807489
 31
0.0
  0
LINE
  5
37B
330
1E
100
AcDbEntity
  8
IMAGE
100
AcDbLine
 10
2.989604219082315
 20
7.704545345807489
 30
0.0
 11
2.989604219082315
 21
7.717777834331992
 31
0.0
  0
LINE
  5
37C
330
1E
100
AcDbEntity
  8
IMAGE
100
AcDbLine
 10
2.996220463344563
 20
7.704545345807489
 30
0.0
 11
2.996220463344563
 21
7.717777834331992
 31
0.0
  0
ARC
  5
37D
330
1E
100
AcDbEntity
  8
IMAGE
100
AcDbCircle
 10
2.965204033679658
 20
7.727840039147495
 30
0.0
 40
0.0034459605532544
100
AcDbArc
 50
191.0985458401355
 51
270.0
  0
ARC
  5
37E
330
1E
100
AcDbEntity
  8
IMAGE
100
AcDbCircle
 10
2.951420191466635
 20
7.727840039147495
 30
0.0
 40
0.0034459605532544
100
AcDbArc
 50
270.0
 51
353.6530247905794
  0
ARC
  5
37F
330
1E
100
AcDbEntity
  8
IMAGE
100
AcDbCircle
 10
2.958312112573146
 20
7.743002265581821
 30
0.0
 40
0.0034459605532544
100
AcDbArc
 50
0.0
 51
180.0
  0
LINE
  5
380
330
1E
100
AcDbEntity
  8
IMAGE
100
AcDbLine
 10
2.961758073126402
 20
7.743002265581821
 30
0.0
 11
2.961758073126402
 21
7.734107311503671
 31
0.0
  0
LINE
  5
381
330
1E
100
AcDbEntity
  8
IMAGE
100
AcDbLine
 10
2.95486615201989
 20
7.743002265581821
 30
0.0
 11
2.95486615201989
 21
7.734776676770583
 31
0.0
  0
LINE
  5
382
330
1E
100
AcDbEntity
  8
IMAGE
100
AcDbLine
 10
2.968098640544384
 20
7.768502373675898
 30
0.0
 11
2.968098640544384
 21
7.771193416838925
 31
0.0
  0
LINE
  5
383
330
1E
100
AcDbEntity
  8
IMAGE
100
AcDbLine
 10
2.996220463344563
 20
7.669258709742172
 30
0.0
 11
2.996220463344563
 21
7.658231635971758
 31
0.0
  0
LINE
  5
384
330
1E
100
AcDbEntity
  8
IMAGE
100
AcDbLine
 10
3.007247537114984
 20
7.724394078594239
 30
0.0
 11
3.007247537114984
 21
7.717777834331992
 31
0.0
  0
LINE
  5
385
330
1E
100
AcDbEntity
  8
IMAGE
100
AcDbLine
 10
2.996220463344563
 20
7.768502373675898
 30
0.0
 11
2.996220463344563
 21
7.75378691696267
 31
0.0
  0
LINE
  5
386
330
1E
100
AcDbEntity
  8
IMAGE
100
AcDbLine
 10
2.984085112825866
 20
7.658231635971758
 30
0.0
 11
2.984085112825866
 21
7.647204562201342
 31
0.0
  0
LINE
  5
387
330
1E
100
AcDbEntity
  8
IMAGE
100
AcDbLine
 10
3.050247555448354
 20
7.742141911754814
 30
0.0
 11
3.050247555448354
 21
7.703571167199972
 31
0.0
  0
LINE
  5
388
330
1E
100
AcDbEntity
  8
IMAGE
100
AcDbLine
 10
3.05213783513141
 20
7.736290199715386
 30
0.0
 11
3.086012172690127
 21
7.739065465246652
 31
0.0
  0
ARC
  5
389
330
1E
100
AcDbEntity
  8
IMAGE
100
AcDbCircle
 10
3.085711836316798
 20
7.742498312781489
 30
0.0
 40
0.0034459605532544
100
AcDbArc
 50
275.0000187239689
 51
95.00001872396902
  0
ARC
  5
38A
330
1E
100
AcDbEntity
  8
IMAGE
100
AcDbCircle
 10
3.085711836316798
 20
7.764362719090546
 30
0.0
 40
0.0034459605532544
100
AcDbArc
 50
264.9999812760309
 51
84.99998127603097
  0
ARC
  5
38B
330
1E
100
AcDbEntity
  8
IMAGE
100
AcDbCircle
 10
3.085711836316798
 20
7.764362719090546
 30
0.0
 40
0.0034459605532544
100
AcDbArc
 50
275.0000187239689
 51
95.00001872396902
  0
LINE
  5
38C
330
1E
100
AcDbEntity
  8
IMAGE
100
AcDbLine
 10
3.050247555448354
 20
7.757800872991702
 30
0.0
 11
3.086012172690127
 21
7.760929871555702
 31
0.0
  0
ARC
  5
38D
330
1E
100
AcDbEntity
  8
IMAGE
100
AcDbCircle
 10
3.085711836316798
 20
7.742498312781489
 30
0.0
 40
0.0034459605532544
100
AcDbArc
 50
264.9999812760309
 51
84.99998127603097
  0
LINE
  5
38E
330
1E
100
AcDbEntity
  8
IMAGE
100
AcDbLine
 10
3.050247555448354
 20
7.669258709742172
 30
0.0
 11
3.050247555448354
 21
7.646558353733509
 31
0.0
  0
ARC
  5
38F
330
1E
100
AcDbEntity
  8
IMAGE
100
AcDbCircle
 10
3.077815239874388
 20
7.746322552892896
 30
0.0
 40
0.0275676844260349
100
AcDbArc
 50
188.7820223347949
 51
294.369142286685
  0
LINE
  5
390
330
1E
100
AcDbEntity
  8
IMAGE
100
AcDbLine
 10
3.039220481677932
 20
7.698576223823297
 30
0.0
 11
3.138464145611658
 21
7.743530714213338
 31
0.0
  0
LINE
  5
391
330
1E
100
AcDbEntity
  8
IMAGE
100
AcDbLine
 10
3.039220481677932
 20
7.691312857282995
 30
0.0
 11
3.138464145611658
 21
7.736267347673041
 31
0.0
  0
LINE
  5
392
330
1E
100
AcDbEntity
  8
IMAGE
100
AcDbLine
 10
3.039220481677932
 20
7.669258709742172
 30
0.0
 11
3.072758942267522
 21
7.669258709742172
 31
0.0
  0
LINE
  5
393
330
1E
100
AcDbEntity
  8
IMAGE
100
AcDbLine
 10
3.039220481677932
 20
7.691312857282995
 30
0.0
 11
3.072758942267522
 21
7.691312857282995
 31
0.0
  0
LINE
  5
394
330
1E
100
AcDbEntity
  8
IMAGE
100
AcDbLine
 10
3.039220481677932
 20
7.698576223823297
 30
0.0
 11
3.039220481677932
 21
7.669258709742172
 31
0.0
  0
LINE
  5
395
330
1E
100
AcDbEntity
  8
IMAGE
100
AcDbLine
 10
3.078369378248519
 20
7.768502373675898
 30
0.0
 11
3.077933331134753
 21
7.768502373675898
 31
0.0
  0
ARC
  5
396
330
1E
100
AcDbEntity
  8
IMAGE
100
AcDbCircle
 10
3.072758942267522
 20
7.724394078594239
 30
0.0
 40
0.0330812213112419
100
AcDbArc
 50
270.0
 51
294.3691422866846
  0
ARC
  5
397
330
1E
100
AcDbEntity
  8
IMAGE
100
AcDbCircle
 10
3.072758942267522
 20
7.724394078594239
 30
0.0
 40
0.0551353688520697
100
AcDbArc
 50
270.0
 51
294.3691422866846
  0
LINE
  5
398
330
1E
100
AcDbEntity
  8
IMAGE
100
AcDbLine
 10
3.086408714149259
 20
7.694260195156821
 30
0.0
 11
3.138464145611658
 21
7.717839790071706
 31
0.0
  0
LINE
  5
399
330
1E
100
AcDbEntity
  8
IMAGE
100
AcDbLine
 10
3.095508562070398
 20
7.67417093953187
 30
0.0
 11
3.138464145611658
 21
7.693628568270711
 31
0.0
  0
ARC
  5
39A
330
1E
100
AcDbEntity
  8
IMAGE
100
AcDbCircle
 10
3.061274629218775
 20
7.646558353733509
 30
0.0
 40
0.011027073770414
100
AcDbArc
 50
180.0
 51
294.3691422866845
  0
LINE
  5
39B
330
1E
100
AcDbEntity
  8
IMAGE
100
AcDbLine
 10
3.065824553179345
 20
7.636513725921036
 30
0.0
 11
3.138464145611658
 21
7.669417346469711
 31
0.0
  0
LINE
  5
39C
330
1E
100
AcDbEntity
  8
IMAGE
100
AcDbLine
 10
3.050247555448354
 20
7.764006318063876
 30
0.0
 11
3.050247555448354
 21
7.749060158880321
 31
0.0
  0
LINE
  5
39D
330
1E
100
AcDbEntity
  8
IMAGE
100
AcDbLine
 10
3.037017851609475
 20
7.889800185150448
 30
0.0
 11
3.030125930502977
 21
7.895313722035658
 31
0.0
  0
LINE
  5
39E
330
1E
100
AcDbEntity
  8
IMAGE
100
AcDbLine
 10
3.009450167183442
 20
7.889800185150448
 30
0.0
 11
3.037017851609475
 21
7.889800185150448
 31
0.0
  0
LINE
  5
39F
330
1E
100
AcDbEntity
  8
IMAGE
100
AcDbLine
 10
3.022933675401482
 20
7.856042884538889
 30
0.0
 11
3.085411502321801
 21
7.84838749658384
 31
0.0
  0
LINE
  5
3A0
330
1E
100
AcDbEntity
  8
IMAGE
100
AcDbLine
 10
3.023534345769808
 20
7.862908579816649
 30
0.0
 11
3.086012172690127
 21
7.8552531918616
 31
0.0
  0
LINE
  5
3A1
330
1E
100
AcDbEntity
  8
IMAGE
100
AcDbLine
 10
2.960455848481135
 20
7.837455293429315
 30
0.0
 11
3.085411502321801
 21
7.826523090274785
 31
0.0
  0
LINE
  5
3A2
330
1E
100
AcDbEntity
  8
IMAGE
100
AcDbLine
 10
2.961056518849461
 20
7.844320988707077
 30
0.0
 11
3.086012172690127
 21
7.833388785552545
 31
0.0
  0
LINE
  5
3A3
330
1E
100
AcDbEntity
  8
IMAGE
100
AcDbLine
 10
2.960455848481135
 20
7.815590887120266
 30
0.0
 11
3.085411502321801
 21
7.804658683965736
 31
0.0
  0
LINE
  5
3A4
330
1E
100
AcDbEntity
  8
IMAGE
100
AcDbLine
 10
2.961056518849461
 20
7.822456582398014
 30
0.0
 11
3.086012172690127
 21
7.811524379243489
 31
0.0
  0
LINE
  5
3A5
330
1E
100
AcDbEntity
  8
IMAGE
100
AcDbLine
 10
2.960455848481135
 20
7.793726480811211
 30
0.0
 11
3.085411502321801
 21
7.782794277656686
 31
0.0
  0
LINE
  5
3A6
330
1E
100
AcDbEntity
  8
IMAGE
100
AcDbLine
 10
2.961056518849461
 20
7.800592176088957
 30
0.0
 11
3.086012172690127
 21
7.789659972934425
 31
0.0
  0
LINE
  5
3A7
330
1E
100
AcDbEntity
  8
IMAGE
100
AcDbLine
 10
3.062413560614096
 20
7.851205426953998
 30
0.0
 11
2.962210067020977
 21
7.851205426953998
 31
0.0
  0
LINE
  5
3A8
330
1E
100
AcDbEntity
  8
IMAGE
100
AcDbLine
 10
3.016342088289953
 20
7.895313722035658
 30
0.0
 11
3.009450167183442
 21
7.889800185150448
 31
0.0
  0
LINE
  5
3A9
330
1E
100
AcDbEntity
  8
IMAGE
100
AcDbLine
 10
3.016342088289953
 20
7.895313722035658
 30
0.0
 11
3.030125930502977
 21
7.895313722035658
 31
0.0
  0
LINE
  5
3AA
330
1E
100
AcDbEntity
  8
IMAGE
100
AcDbLine
 10
3.009450167183442
 20
7.878773111380039
 30
0.0
 11
3.009450167183442
 21
7.889800185150448
 31
0.0
  0
LINE
  5
3AB
330
1E
100
AcDbEntity
  8
IMAGE
100
AcDbLine
 10
2.968098640544384
 20
7.799976070273488
 30
0.0
 11
2.968098640544384
 21
7.814922229457038
 31
0.0
  0
LINE
  5
3AC
330
1E
100
AcDbEntity
  8
IMAGE
100
AcDbLine
 10
2.968098640544384
 20
7.82184047658255
 30
0.0
 11
2.968098640544384
 21
7.836786635766102
 31
0.0
  0
LINE
  5
3AD
330
1E
100
AcDbEntity
  8
IMAGE
100
AcDbLine
 10
3.031504314724271
 20
7.861932022094594
 30
0.0
 11
3.031504314724271
 21
7.867746037609617
 31
0.0
  0
LINE
  5
3AE
330
1E
100
AcDbEntity
  8
IMAGE
100
AcDbLine
 10
2.968098640544384
 20
7.843704882891592
 30
0.0
 11
2.968098640544384
 21
7.851205426953998
 31
0.0
  0
ARC
  5
3AF
330
1E
100
AcDbEntity
  8
IMAGE
100
AcDbCircle
 10
3.023234009396466
 20
7.85947573228181
 30
0.0
 40
0.0034459605532544
100
AcDbArc
 50
84.99998127603097
 51
264.9999812760309
  0
ARC
  5
3B0
330
1E
100
AcDbEntity
  8
IMAGE
100
AcDbCircle
 10
2.960756182476131
 20
7.840888141172224
 30
0.0
 40
0.0034459605532544
100
AcDbArc
 50
84.99998127603097
 51
264.9999812760309
  0
LINE
  5
3B1
330
1E
100
AcDbEntity
  8
IMAGE
100
AcDbLine
 10
2.960455848481135
 20
7.844320988915149
 30
0.0
 11
2.968098640544384
 21
7.844989646578363
 31
0.0
  0
ARC
  5
3B2
330
1E
100
AcDbEntity
  8
IMAGE
100
AcDbCircle
 10
2.960756182476131
 20
7.819023734863175
 30
0.0
 40
0.0034459605532544
100
AcDbArc
 50
84.99998127603097
 51
264.9999812760309
  0
LINE
  5
3B3
330
1E
100
AcDbEntity
  8
IMAGE
100
AcDbLine
 10
2.960455848481135
 20
7.822456582606093
 30
0.0
 11
2.968098640544384
 21
7.823125240269313
 31
0.0
  0
ARC
  5
3B4
330
1E
100
AcDbEntity
  8
IMAGE
100
AcDbCircle
 10
2.960756182476131
 20
7.797159328554127
 30
0.0
 40
0.0034459605532544
100
AcDbArc
 50
84.99998127603097
 51
264.9999812760309
  0
LINE
  5
3B5
330
1E
100
AcDbEntity
  8
IMAGE
100
AcDbLine
 10
2.960455848481135
 20
7.800592176297036
 30
0.0
 11
2.968098640544384
 21
7.801260833960264
 31
0.0
  0
ARC
  5
3B6
330
1E
100
AcDbEntity
  8
IMAGE
100
AcDbCircle
 10
2.957161117641934
 20
7.862697088230588
 30
0.0
 40
0.0050489493790321
100
AcDbArc
 50
0.0
 51
180.0
  0
ARC
  5
3B7
330
1E
100
AcDbEntity
  8
IMAGE
100
AcDbCircle
 10
3.023234009396466
 20
7.85947573228181
 30
0.0
 40
0.0049997144834675
100
AcDbArc
 50
36.55097431626844
 51
309.4778016223993
  0
LINE
  5
3B8
330
1E
100
AcDbEntity
  8
IMAGE
100
AcDbLine
 10
3.014963704068645
 20
7.851205426953998
 30
0.0
 11
3.014963704068645
 21
7.867746037609617
 31
0.0
  0
LINE
  5
3B9
330
1E
100
AcDbEntity
  8
IMAGE
100
AcDbLine
 10
3.031504314724271
 20
7.851205426953998
 30
0.0
 11
3.031504314724271
 21
7.854992726870595
 31
0.0
  0
LINE
  5
3BA
330
1E
100
AcDbEntity
  8
IMAGE
100
AcDbLine
 10
2.962210067020977
 20
7.851205426953998
 30
0.0
 11
2.962210067020977
 21
7.862697088230588
 31
0.0
  0
ARC
  5
3BB
330
1E
100
AcDbEntity
  8
IMAGE
100
AcDbCircle
 10
2.941085094492496
 20
7.832247421559585
 30
0.0
 40
0.011027073770414
100
AcDbArc
 50
284.0362434679261
 51
0.0
  0
LINE
  5
3BC
330
1E
100
AcDbEntity
  8
IMAGE
100
AcDbLine
 10
2.952112168262917
 20
7.832247421559585
 30
0.0
 11
2.952112168262917
 21
7.862697088230588
 31
0.0
  0
LINE
  5
3BD
330
1E
100
AcDbEntity
  8
IMAGE
100
AcDbLine
 10
2.943759552721731
 20
7.821549588642672
 30
0.0
 11
2.91485463918108
 21
7.814323360257513
 31
0.0
  0
LINE
  5
3BE
330
1E
100
AcDbEntity
  8
IMAGE
100
AcDbLine
 10
2.970855408987
 20
7.878773111380039
 30
0.0
 11
2.972010278718786
 21
7.94493555400252
 31
0.0
  0
LINE
  5
3BF
330
1E
100
AcDbEntity
  8
IMAGE
100
AcDbLine
 10
2.979125714314807
 20
7.95044909088773
 30
0.0
 11
2.979125714314807
 21
7.94493555400252
 31
0.0
  0
LINE
  5
3C0
330
1E
100
AcDbEntity
  8
IMAGE
100
AcDbLine
 10
2.959828335216579
 20
7.95044909088773
 30
0.0
 11
2.959828335216579
 21
7.94493555400252
 31
0.0
  0
LINE
  5
3C1
330
1E
100
AcDbEntity
  8
IMAGE
100
AcDbLine
 10
2.959828335216579
 20
7.95044909088773
 30
0.0
 11
2.979125714314807
 21
7.95044909088773
 31
0.0
  0
LINE
  5
3C2
330
1E
100
AcDbEntity
  8
IMAGE
100
AcDbLine
 10
2.959828335216579
 20
7.94493555400252
 30
0.0
 11
3.001179861855636
 21
7.94493555400252
 31
0.0
  0
LINE
  5
3C3
330
1E
100
AcDbEntity
  8
IMAGE
100
AcDbLine
 10
3.037017851609475
 20
7.878773111380039
 30
0.0
 11
3.037017851609475
 21
7.889800185150448
 31
0.0
  0
LINE
  5
3C4
330
1E
100
AcDbEntity
  8
IMAGE
100
AcDbLine
 10
3.078369378248519
 20
7.790328630805734
 30
0.0
 11
3.078369378248519
 21
7.805274789989282
 31
0.0
  0
LINE
  5
3C5
330
1E
100
AcDbEntity
  8
IMAGE
100
AcDbLine
 10
3.078369378248519
 20
7.812193037114789
 30
0.0
 11
3.078369378248519
 21
7.827139196298339
 31
0.0
  0
LINE
  5
3C6
330
1E
100
AcDbEntity
  8
IMAGE
100
AcDbLine
 10
3.078369378248519
 20
7.834057443423845
 30
0.0
 11
3.078369378248519
 21
7.849250365772266
 31
0.0
  0
ARC
  5
3C7
330
1E
100
AcDbEntity
  8
IMAGE
100
AcDbCircle
 10
3.085711836316798
 20
7.851820344326756
 30
0.0
 40
0.0034459605532544
100
AcDbArc
 50
264.9999812760309
 51
84.99998127603097
  0
ARC
  5
3C8
330
1E
100
AcDbEntity
  8
IMAGE
100
AcDbCircle
 10
3.085711836316798
 20
7.829955938017707
 30
0.0
 40
0.0034459605532544
100
AcDbArc
 50
264.9999812760309
 51
84.99998127603097
  0
LINE
  5
3C9
330
1E
100
AcDbEntity
  8
IMAGE
100
AcDbLine
 10
3.078369378248519
 20
7.847718838920626
 30
0.0
 11
3.086012172690127
 21
7.848387496791926
 31
0.0
  0
ARC
  5
3CA
330
1E
100
AcDbEntity
  8
IMAGE
100
AcDbCircle
 10
3.085711836316798
 20
7.851820344326756
 30
0.0
 40
0.0034459605532544
100
AcDbArc
 50
275.0000187239689
 51
95.00001872396902
  0
ARC
  5
3CB
330
1E
100
AcDbEntity
  8
IMAGE
100
AcDbCircle
 10
3.085711836316798
 20
7.80809153170865
 30
0.0
 40
0.0034459605532544
100
AcDbArc
 50
264.9999812760309
 51
84.99998127603097
  0
LINE
  5
3CC
330
1E
100
AcDbEntity
  8
IMAGE
100
AcDbLine
 10
3.078369378248519
 20
7.82585443261157
 30
0.0
 11
3.086012172690127
 21
7.826523090482862
 31
0.0
  0
ARC
  5
3CD
330
1E
100
AcDbEntity
  8
IMAGE
100
AcDbCircle
 10
3.085711836316798
 20
7.829955938017707
 30
0.0
 40
0.0034459605532544
100
AcDbArc
 50
275.0000187239689
 51
95.00001872396902
  0
ARC
  5
3CE
330
1E
100
AcDbEntity
  8
IMAGE
100
AcDbCircle
 10
3.085711836316798
 20
7.786227125399595
 30
0.0
 40
0.0034459605532544
100
AcDbArc
 50
264.9999812760309
 51
84.99998127603097
  0
LINE
  5
3CF
330
1E
100
AcDbEntity
  8
IMAGE
100
AcDbLine
 10
3.078369378248519
 20
7.803990026302513
 30
0.0
 11
3.086012172690127
 21
7.804658684173815
 31
0.0
  0
ARC
  5
3D0
330
1E
100
AcDbEntity
  8
IMAGE
100
AcDbCircle
 10
3.085711836316798
 20
7.80809153170865
 30
0.0
 40
0.0034459605532544
100
AcDbArc
 50
275.0000187239689
 51
95.00001872396902
  0
LINE
  5
3D1
330
1E
100
AcDbEntity
  8
IMAGE
100
AcDbLine
 10
3.078369378248519
 20
7.782125619993457
 30
0.0
 11
3.086012172690127
 21
7.782794277864758
 31
0.0
  0
ARC
  5
3D2
330
1E
100
AcDbEntity
  8
IMAGE
100
AcDbCircle
 10
3.085711836316798
 20
7.786227125399595
 30
0.0
 40
0.0034459605532544
100
AcDbArc
 50
275.0000187239689
 51
95.00001872396902
  0
ARC
  5
3D3
330
1E
100
AcDbEntity
  8
IMAGE
100
AcDbCircle
 10
3.089306901150983
 20
7.862697088230588
 30
0.0
 40
0.0050489493790321
100
AcDbArc
 50
0.0
 51
180.0
  0
LINE
  5
3D4
330
1E
100
AcDbEntity
  8
IMAGE
100
AcDbLine
 10
3.084257951771941
 20
7.855468135984174
 30
0.0
 11
3.084257951771941
 21
7.862697088230588
 31
0.0
  0
ARC
  5
3D5
330
1E
100
AcDbEntity
  8
IMAGE
100
AcDbCircle
 10
3.105382924300421
 20
7.832247421559585
 30
0.0
 40
0.011027073770414
100
AcDbArc
 50
180.0
 51
255.9637565320738
  0
ARC
  5
3D6
330
1E
100
AcDbEntity
  8
IMAGE
100
AcDbCircle
 10
3.12743707184125
 20
7.856718963839209
 30
0.0
 40
0.011027073770414
100
AcDbArc
 50
0.0
 51
90.0000000000001
  0
LINE
  5
3D7
330
1E
100
AcDbEntity
  8
IMAGE
100
AcDbLine
 10
3.102708466071185
 20
7.821549588642672
 30
0.0
 11
3.138464145611658
 21
7.812610668757558
 31
0.0
  0
LINE
  5
3D8
330
1E
100
AcDbEntity
  8
IMAGE
100
AcDbLine
 10
3.094355850530013
 20
7.862697088230588
 30
0.0
 11
3.094355850530013
 21
7.832247421559585
 31
0.0
  0
LINE
  5
3D9
330
1E
100
AcDbEntity
  8
IMAGE
100
AcDbLine
 10
3.07561260980593
 20
7.878773111380039
 30
0.0
 11
3.074457740074144
 21
7.94493555400252
 31
0.0
  0
LINE
  5
3DA
330
1E
100
AcDbEntity
  8
IMAGE
100
AcDbLine
 10
3.045288156937282
 20
7.94493555400252
 30
0.0
 11
3.086639683576338
 21
7.94493555400252
 31
0.0
  0
LINE
  5
3DB
330
1E
100
AcDbEntity
  8
IMAGE
100
AcDbLine
 10
3.067342304478111
 20
7.95044909088773
 30
0.0
 11
3.086639683576338
 21
7.95044909088773
 31
0.0
  0
LINE
  5
3DC
330
1E
100
AcDbEntity
  8
IMAGE
100
AcDbLine
 10
3.067342304478111
 20
7.95044909088773
 30
0.0
 11
3.067342304478111
 21
7.94493555400252
 31
0.0
  0
LINE
  5
3DD
330
1E
100
AcDbEntity
  8
IMAGE
100
AcDbLine
 10
3.086639683576338
 20
7.94493555400252
 30
0.0
 11
3.086639683576338
 21
7.95044909088773
 31
0.0
  0
LINE
  5
3DE
330
1E
100
AcDbEntity
  8
IMAGE
100
AcDbLine
 10
3.21190559230675
 20
7.569954792411038
 30
0.0
 11
3.175560655115943
 21
7.650191598589029
 31
0.0
  0
LINE
  5
3DF
330
1E
100
AcDbEntity
  8
IMAGE
100
AcDbLine
 10
3.208433075340988
 20
7.577620885470156
 30
0.0
 11
3.220988860106569
 21
7.583308290420863
 31
0.0
  0
LINE
  5
3E0
330
1E
100
AcDbEntity
  8
IMAGE
100
AcDbLine
 10
3.204960558375213
 20
7.585286978529251
 30
0.0
 11
3.16961814107364
 21
7.569277892447897
 31
0.0
  0
ARC
  5
3E1
330
1E
100
AcDbEntity
  8
IMAGE
100
AcDbCircle
 10
3.179504988934679
 20
7.856718963839209
 30
0.0
 40
0.011027073770414
100
AcDbArc
 50
44.99999999999964
 51
89.99999999999968
  0
ARC
  5
3E2
330
1E
100
AcDbEntity
  8
IMAGE
100
AcDbCircle
 10
3.179504988934679
 20
7.856718963839202
 30
0.0
 40
0.0220541475408279
100
AcDbArc
 50
45.0
 51
90.0
  0
LINE
  5
3E3
330
1E
100
AcDbEntity
  8
IMAGE
100
AcDbLine
 10
3.160518293152487
 20
7.867746037609617
 30
0.0
 11
3.179504988934679
 21
7.867746037609617
 31
0.0
  0
LINE
  5
3E4
330
1E
100
AcDbEntity
  8
IMAGE
100
AcDbLine
 10
2.973612177429589
 20
7.96698970154335
 30
0.0
 11
3.001179861855636
 21
7.96698970154335
 31
0.0
  0
LINE
  5
3E5
330
1E
100
AcDbEntity
  8
IMAGE
100
AcDbLine
 10
3.045288156937282
 20
7.96698970154335
 30
0.0
 11
3.072855841363328
 21
7.96698970154335
 31
0.0
  0
LINE
  5
3E6
330
1E
100
AcDbEntity
  8
IMAGE
100
AcDbLine
 10
3.230267046810912
 20
7.674972001309432
 30
0.0
 11
3.149491219382079
 21
7.638382903185008
 31
0.0
  0
ARC
  5
3E7
330
1E
100
AcDbEntity
  8
IMAGE
100
AcDbCircle
 10
3.307964671367245
 20
7.806724204314984
 30
0.0
 40
0.0551353688520697
100
AcDbArc
 50
294.3691422866826
 51
172.3229140623079
  0
LINE
  5
3E8
330
1E
100
AcDbEntity
  8
IMAGE
100
AcDbLine
 10
3.243221346430588
 20
7.808597243622695
 30
0.0
 11
3.333672862956494
 21
7.71814572709681
 31
0.0
  0
LINE
  5
3E9
330
1E
100
AcDbEntity
  8
IMAGE
100
AcDbLine
 10
3.243221346430588
 20
7.815056753884124
 30
0.0
 11
3.243221346430588
 21
7.695061256934384
 31
0.0
  0
LINE
  5
3EA
330
1E
100
AcDbEntity
  8
IMAGE
100
AcDbLine
 10
3.23219427266018
 20
7.815056753884117
 30
0.0
 11
3.23219427266018
 21
7.695061256934384
 31
0.0
  0
LINE
  5
3EB
330
1E
100
AcDbEntity
  8
IMAGE
100
AcDbLine
 10
3.195099626214087
 20
7.872313601118611
 30
0.0
 11
3.341470181596191
 21
7.72594304573652
 31
0.0
  0
ARC
  5
3EC
330
1E
100
AcDbEntity
  8
IMAGE
100
AcDbCircle
 10
3.221167198889772
 20
7.695061256934384
 30
0.0
 40
0.011027073770414
100
AcDbArc
 50
294.3691422866884
 51
359.9999999999998
  0
ARC
  5
3ED
330
1E
100
AcDbEntity
  8
IMAGE
100
AcDbCircle
 10
3.221167198889772
 20
7.695061256934384
 30
0.0
 40
0.0220541475408279
100
AcDbArc
 50
294.3691422866884
 51
0.0
  0
LINE
  5
3EE
330
1E
100
AcDbEntity
  8
IMAGE
100
AcDbLine
 10
3.225717122850356
 20
7.685016629121904
 30
0.0
 11
3.165068217113071
 21
7.657544440550203
 31
0.0
  0
LINE
  5
3EF
330
1E
100
AcDbEntity
  8
IMAGE
100
AcDbLine
 10
3.27907560885849
 20
7.665906024606148
 30
0.0
 11
3.316981182205535
 21
7.681711046949225
 31
0.0
  0
LINE
  5
3F0
330
1E
100
AcDbEntity
  8
IMAGE
100
AcDbLine
 10
3.286687140128319
 20
7.662553732258184
 30
0.0
 11
3.324592713475419
 21
7.678358754601274
 31
0.0
  0
LINE
  5
3F1
330
1E
100
AcDbEntity
  8
IMAGE
100
AcDbLine
 10
3.292974017595056
 20
7.656343740973285
 30
0.0
 11
3.330879590942169
 21
7.672148763316376
 31
0.0
  0
LWPOLYLINE
  5
3F2
330
1E
100
AcDbEntity
  8
IMAGE
100
AcDbPolyline
 90
        9
 70
     0
 43
0.0
 10
3.331168635536416
 20
7.632144911283595
 42
0.1492029026861015
 10
3.335832309781069
 20
7.635971723131679
 42
0.1070815255580422
 10
3.338871454736269
 20
7.643713613740511
 42
0.0756612043681028
 10
3.338957083277433
 20
7.652549986740415
 42
0.0624775271329189
 10
3.336147618633483
 20
7.662856014412084
 42
0.0624775271329113
 10
3.330879590942169
 20
7.672148763316383
 42
0.0756612043681038
 10
3.324592713475433
 20
7.678358754601274
 42
0.107081525558033
 10
3.31698118220559
 20
7.681711046949245
 42
0.1492029026861064
 10
3.310975445991718
 20
7.681140539359213
 42
0.1492029026860998
  0
LINE
  5
3FD
330
1E
100
AcDbEntity
  8
IMAGE
100
AcDbLine
 10
3.310975445991718
 20
7.681140539359213
 30
0.0
 11
3.273069872644604
 21
7.665335517016116
 31
0.0
  0
LINE
  5
3FE
330
1E
100
AcDbEntity
  8
IMAGE
100
AcDbLine
 10
3.33071429117012
 20
7.756501065252613
 30
0.0
 11
3.31708557411892
 21
7.750327653213777
 31
0.0
  0
ARC
  5
3FF
330
1E
100
AcDbEntity
  8
IMAGE
100
AcDbCircle
 10
3.325875544316783
 20
7.710348408457112
 30
0.0
 40
0.011027073770414
100
AcDbArc
 50
22.39864946461518
 51
45.0
  0
ARC
  5
400
330
1E
100
AcDbEntity
  8
IMAGE
100
AcDbCircle
 10
3.325875544316783
 20
7.710348408457112
 30
0.0
 40
0.0220541475408279
100
AcDbArc
 50
22.39864946461523
 51
45.00000000000008
  0
LINE
  5
401
330
1E
100
AcDbEntity
  8
IMAGE
100
AcDbLine
 10
3.282247938119357
 20
7.671510193696437
 30
0.0
 11
3.283073672165063
 21
7.66950667869434
 31
0.0
  0
LINE
  5
402
330
1E
100
AcDbEntity
  8
IMAGE
100
AcDbLine
 10
3.322450222280886
 20
7.689720657975587
 30
0.0
 11
3.328562341991849
 21
7.674890551842561
 31
0.0
  0
LINE
  5
403
330
1E
100
AcDbEntity
  8
IMAGE
100
AcDbLine
 10
3.342551364361656
 20
7.698825890115165
 30
0.0
 11
3.282247938119357
 21
7.671510193696437
 31
0.0
  0
LINE
  5
404
330
1E
100
AcDbEntity
  8
IMAGE
100
AcDbLine
 10
3.336070680679449
 20
7.714550259297499
 30
0.0
 11
3.365073296279287
 21
7.64417993151915
 31
0.0
  0
LINE
  5
405
330
1E
100
AcDbEntity
  8
IMAGE
100
AcDbLine
 10
3.346265817042101
 20
7.718752110137901
 30
0.0
 11
3.374436495234197
 21
7.650400348853081
 31
0.0
  0
LINE
  5
406
330
1E
100
AcDbEntity
  8
IMAGE
100
AcDbLine
 10
3.247748817539942
 20
7.819664409792763
 30
0.0
 11
3.264872349844578
 21
7.841118400398648
 31
0.0
  0
ARC
  5
407
330
1E
100
AcDbEntity
  8
IMAGE
100
AcDbCircle
 10
3.221167198889772
 20
7.815056753884124
 30
0.0
 40
0.011027073770414
100
AcDbArc
 50
359.9999999999998
 51
44.99999999999987
  0
ARC
  5
408
330
1E
100
AcDbEntity
  8
IMAGE
100
AcDbCircle
 10
3.221167198889772
 20
7.815056753884124
 30
0.0
 40
0.0220541475408279
100
AcDbArc
 50
0.0000000000004389
 51
44.99999999999964
  0
LINE
  5
409
330
1E
100
AcDbEntity
  8
IMAGE
100
AcDbLine
 10
3.187302307574376
 20
7.864516282478914
 30
0.0
 11
3.22896451752947
 21
7.82285407252382
 31
0.0
  0
LINE
  5
40A
330
1E
100
AcDbEntity
  8
IMAGE
100
AcDbLine
 10
3.225522203945832
 20
7.606706416243167
 30
0.0
 11
3.165068217113071
 21
7.57932252026037
 31
0.0
  0
LINE
  5
40B
330
1E
100
AcDbEntity
  8
IMAGE
100
AcDbLine
 10
3.231331223024043
 20
7.593882150364909
 30
0.0
 11
3.200672224647131
 21
7.661566408490473
 31
0.0
  0
LINE
  5
40C
330
1E
100
AcDbEntity
  8
IMAGE
100
AcDbLine
 10
3.243589272684635
 20
7.593545619332162
 30
0.0
 11
3.210716852459603
 21
7.666116332451049
 31
0.0
  0
LINE
  5
40D
330
1E
100
AcDbEntity
  8
IMAGE
100
AcDbLine
 10
3.37610037004971
 20
7.635336142095598
 30
0.0
 11
3.300765661456145
 21
7.601211712391264
 31
0.0
  0
LINE
  5
40E
330
1E
100
AcDbEntity
  8
IMAGE
100
AcDbLine
 10
3.300765661456145
 20
7.601211712391264
 30
0.0
 11
3.240116755718874
 21
7.601211712391264
 31
0.0
  0
LINE
  5
40F
330
1E
100
AcDbEntity
  8
IMAGE
100
AcDbLine
 10
3.243589272684635
 20
7.593545619332162
 30
0.0
 11
3.260513303112775
 21
7.601211712391264
 31
0.0
  0
LINE
  5
410
330
1E
100
AcDbEntity
  8
IMAGE
100
AcDbLine
 10
3.231331223024043
 20
7.593882150364909
 30
0.0
 11
3.220988860106569
 21
7.583308290420863
 31
0.0
  0
LINE
  5
411
330
1E
100
AcDbEntity
  8
IMAGE
100
AcDbLine
 10
3.240116755718874
 20
7.601211712391264
 30
0.0
 11
3.230072127906401
 21
7.596661788430695
 31
0.0
  0
LWPOLYLINE
  5
412
330
1E
100
AcDbEntity
  8
IMAGE
100
AcDbPolyline
 90
        9
 70
     0
 43
0.0
 10
3.266563972317886
 20
7.63898089334924
 42
0.0269144404663062
 10
3.268090889547536
 20
7.634624413887627
 42
0.062477527132918
 10
3.273358917238864
 20
7.625331664983336
 42
0.0756612043681155
 10
3.279645794705601
 20
7.619121673698429
 42
0.1070815255580553
 10
3.287257325975443
 20
7.615769381350472
 42
0.149202902686114
 10
3.293263062189302
 20
7.616339888940491
 42
0.1492029026861015
 10
3.297926736433969
 20
7.620166700788574
 42
0.1070815255580422
 10
3.300965881389156
 20
7.627908591397406
 42
0.0267597965324953
 10
3.301302011480127
 20
7.631031585261152
 42
0.0624775271329189
  0
LWPOLYLINE
  5
41D
330
1E
100
AcDbEntity
  8
IMAGE
100
AcDbPolyline
 90
        4
 70
     0
 43
0.0
 10
3.273069872644604
 20
7.665335517016116
 42
0.1492029026860998
 10
3.268406198399951
 20
7.661508705168039
 42
0.1070815255580472
 10
3.265367053444764
 20
7.6537668145592
 42
0.0267597965324959
 10
3.265030923353807
 20
7.650643820695454
 42
0.0624775271329136
  0
LINE
  5
423
330
1E
100
AcDbEntity
  8
IMAGE
100
AcDbLine
 10
3.2665639723179
 20
7.63898089334924
 30
0.0
 11
3.271658962556767
 21
7.641288775592314
 31
0.0
  0
LINE
  5
424
330
1E
100
AcDbEntity
  8
IMAGE
100
AcDbLine
 10
3.2665639723179
 20
7.63898089334924
 30
0.0
 11
3.3013020114801
 21
7.631031585261152
 31
0.0
  0
LINE
  5
425
330
1E
100
AcDbEntity
  8
IMAGE
100
AcDbLine
 10
3.265030923353807
 20
7.650643820695454
 30
0.0
 11
3.29976896251602
 21
7.642694512607365
 31
0.0
  0
LWPOLYLINE
  5
426
330
1E
100
AcDbEntity
  8
IMAGE
100
AcDbPolyline
 90
        6
 70
     0
 43
0.0
 10
3.29976896251602
 20
7.642694512607365
 42
0.0269144404662705
 10
3.298242045286383
 20
7.647050992068979
 42
0.0624775271329113
 10
3.292974017595056
 20
7.656343740973285
 42
0.0756612043681038
 10
3.286687140128319
 20
7.662553732258184
 42
0.107081525558033
 10
3.27907560885849
 20
7.665906024606148
 42
0.1492029026861064
 10
3.273069872644604
 20
7.665335517016116
 42
0.1492029026860998
  0
LWPOLYLINE
  5
42E
330
1E
100
AcDbEntity
  8
IMAGE
100
AcDbPolyline
 90
        3
 70
     0
 43
0.0
 10
3.30639700171898
 20
7.633339467504232
 42
0.048802598267344
 10
3.3061465001692
 20
7.639052846640384
 42
0.0355033860300761
 10
3.304863952754886
 20
7.645002394850439
 42
0.0624775271329113
  0
LWPOLYLINE
  5
433
330
1E
100
AcDbEntity
  8
IMAGE
100
AcDbPolyline
 90
        3
 70
     0
 43
0.0
 10
3.270145206844214
 20
7.64947348937867
 42
0.0191372537753844
 10
3.270376415142453
 20
7.647238323802384
 42
0.0355033860300523
 10
3.271658962556752
 20
7.641288775592314
 42
0.062477527132918
  0
LINE
  5
438
330
1E
100
AcDbEntity
  8
IMAGE
100
AcDbLine
 10
3.271658962556767
 20
7.641288775592314
 30
0.0
 11
3.306397001718966
 21
7.633339467504232
 31
0.0
  0
LINE
  5
439
330
1E
100
AcDbEntity
  8
IMAGE
100
AcDbLine
 10
3.3013020114801
 20
7.631031585261152
 30
0.0
 11
3.306397001718966
 21
7.633339467504232
 31
0.0
  0
LINE
  5
43A
330
1E
100
AcDbEntity
  8
IMAGE
100
AcDbLine
 10
3.29976896251602
 20
7.642694512607365
 30
0.0
 11
3.304863952754886
 21
7.645002394850439
 31
0.0
  0
LINE
  5
43B
330
1E
100
AcDbEntity
  8
IMAGE
100
AcDbLine
 10
3.306173819150139
 20
7.638856086655454
 30
0.0
 11
3.338957083277433
 21
7.652549986740415
 31
0.0
  0
LINE
  5
43C
330
1E
100
AcDbEntity
  8
IMAGE
100
AcDbLine
 10
3.300965881389156
 20
7.627908591397406
 30
0.0
 11
3.338871454736255
 21
7.643713613740511
 31
0.0
  0
LINE
  5
43D
330
1E
100
AcDbEntity
  8
IMAGE
100
AcDbLine
 10
3.297926736433969
 20
7.620166700788574
 30
0.0
 11
3.335832309781014
 21
7.635971723131651
 31
0.0
  0
LINE
  5
43E
330
1E
100
AcDbEntity
  8
IMAGE
100
AcDbLine
 10
3.298242045286383
 20
7.647050992068979
 30
0.0
 11
3.336147618633483
 21
7.662856014412084
 31
0.0
  0
LINE
  5
43F
330
1E
100
AcDbEntity
  8
IMAGE
100
AcDbLine
 10
3.303266861709761
 20
7.620511050618715
 30
0.0
 11
3.309576128625355
 21
7.605202597511696
 31
0.0
  0
LINE
  5
440
330
1E
100
AcDbEntity
  8
IMAGE
100
AcDbLine
 10
3.339244620534182
 20
7.648971667393852
 30
0.0
 11
3.349778412786883
 21
7.623413061790846
 31
0.0
  0
LINE
  5
441
330
1E
100
AcDbEntity
  8
IMAGE
100
AcDbLine
 10
3.331168635536416
 20
7.632144911283595
 30
0.0
 11
3.293263062189302
 21
7.616339888940491
 31
0.0
  0
ARC
  5
442
330
1E
100
AcDbEntity
  8
IMAGE
100
AcDbCircle
 10
3.35404622250888
 20
7.641996647172285
 30
0.0
 40
0.0220541475408279
100
AcDbArc
 50
0.0
 51
22.39864946461501
  0
LINE
  5
443
330
1E
100
AcDbEntity
  8
IMAGE
100
AcDbLine
 10
3.37610037004971
 20
7.635336142095598
 30
0.0
 11
3.365073296279287
 21
7.635336142095598
 31
0.0
  0
LINE
  5
444
330
1E
100
AcDbEntity
  8
IMAGE
100
AcDbLine
 10
3.365073296279287
 20
7.64417993151915
 30
0.0
 11
3.365073296279287
 21
7.635336142095598
 31
0.0
  0
LINE
  5
445
330
1E
100
AcDbEntity
  8
IMAGE
100
AcDbLine
 10
3.37610037004971
 20
7.641996647172285
 30
0.0
 11
3.37610037004971
 21
7.635336142095598
 31
0.0
  0
TEXT
  5
446
330
1E
100
AcDbEntity
  8
TEXT_LEADERS
100
AcDbText
 10
4.81948445
 20
7.607497781796219
 30
0.0
 40
0.125
  1
UV RADIATION RESISTANT
  7
SIMPLEX
100
AcDbText
  0
TEXT
  5
447
330
1E
100
AcDbEntity
  8
TEXT_LEADERS
100
AcDbText
 10
4.81948445
 20
7.432497781796218
 30
0.0
 40
0.125
  1
  PVC SCH 80 COUPLING
  7
SIMPLEX
100
AcDbText
  0
TEXT
  5
44B
330
1E
100
AcDbEntity
  8
TEXT_BUBBLES
100
AcDbText
 10
4.316608832427541
 20
7.534718321392975
 30
0.0
 40
0.125
  1
2
  7
ROMANS
 72
     4
 11
4.37613264195135
 21
7.597218321392975
 31
0.0
100
AcDbText
  0
TEXT
  5
44C
330
1E
100
AcDbEntity
  8
TEXT_BUBBLES
100
AcDbText
 10
5.388744749999999
 20
7.545013781443594
 30
0.0
 40
0.125
  1
UV RADIATION RESISTANT
  7
SIMPLEX
100
AcDbText
  0
TEXT
  5
44D
330
1E
100
AcDbEntity
  8
TEXT_BUBBLES
100
AcDbText
 10
5.388744749999999
 20
7.370013781443593
 30
0.0
 40
0.125
  1
  PVC SCH 80 COUPLING
  7
SIMPLEX
100
AcDbText
  0
TEXT
  5
44F
330
1E
100
AcDbEntity
  8
TEXT_BUBBLES
100
AcDbText
 10
5.057403205271529
 20
7.539478018501922
 30
0.0
 40
0.125
  1
2
  7
ROMANS
 72
     4
 11
5.116927014795338
 21
7.601978018501922
 31
0.0
100
AcDbText
  0
TEXT
  5
450
330
1E
100
AcDbEntity
  8
IMAGE
100
AcDbText
 10
1.379079009999999
 20
3.027835161312184
 30
0.0
 40
0.125
  1
1.  A SWING PIPE ASSEMBLY MAY BE USED WITH FLOWS LESS THAN 4 GPM.
  7
SIMPLEX
100
AcDbText
  0
TEXT
  5
451
330
1E
100
AcDbEntity
  8
IMAGE
100
AcDbText
 10
1.379079009999999
 20
3.202835161312185
 30
0.0
 40
0.125
  1
NOTES:
  7
SIMPLEX
100
AcDbText
  0
TEXT
  5
452
330
1E
100
AcDbEntity
  8
IMAGE
100
AcDbText
 10
1.379079009999999
 20
2.677835161312184
 30
0.0
 40
0.125
  1
2.  USE #4 X 24" REBAR ROD WITH "J" HOOKED RADIUS AT ONE END TO HOLD PIPE
  7
SIMPLEX
100
AcDbText
  0
TEXT
  5
453
330
1E
100
AcDbEntity
  8
IMAGE
100
AcDbText
 10
1.379079009999999
 20
2.502835161312185
 30
0.0
 40
0.125
  1
    SECURELY IN PLACE.  INSTALL AT INTERVALS OF 10 FEET.
  7
SIMPLEX
100
AcDbText
  0
TEXT
  5
454
330
1E
100
AcDbEntity
  8
TEXT_BUBBLES
100
AcDbText
 10
5.388744749999999
 20
5.795013781443594
 30
0.0
 40
0.125
  1
  PVC LATERAL PIPE
  7
SIMPLEX
100
AcDbText
  0
TEXT
  5
455
330
1E
100
AcDbEntity
  8
TEXT_BUBBLES
100
AcDbText
 10
5.388744749999999
 20
4.395013781443593
 30
0.0
 40
0.125
  1
  PVC SCH 40 TEE OR ELL
  7
SIMPLEX
100
AcDbText
  0
TEXT
  5
456
330
1E
100
AcDbEntity
  8
TEXT_LEADERS
100
AcDbText
 10
4.81948445
 20
5.562868223409322
 30
0.0
 40
0.125
  1
  PVC LATERAL PIPE
  7
SIMPLEX
100
AcDbText
  0
TEXT
  5
457
330
1E
100
AcDbEntity
  8
TEXT_LEADERS
100
AcDbText
 10
4.81948445
 20
4.300772636324712
 30
0.0
 40
0.125
  1
  PVC SCH 40 TEE OR ELL
  7
SIMPLEX
100
AcDbText
  0
LWPOLYLINE
  5
49F
330
1E
100
AcDbEntity
  8
INSTRUCT-CALLOUT
100
AcDbPolyline
 90
        4
 70
     1
 43
0.0
 10
11.35231280619914
 20
10.14
 10
11.35231280619914
 20
8.708513978657757
 10
16.18999999999999
 20
8.708513978657757
 10
16.18999999999999
 20
10.14
  0
TEXT
  5
4A0
330
1E
100
AcDbEntity
  8
INSTRUCT-CALLOUT
100
AcDbText
 10
11.68290522614117
 20
10.1971154907172
 30
0.0
 40
0.125
  1
CHOOSING EQUIPMENT CALLOUT METHOD
  7
ROMANS
100
AcDbText
  0
TEXT
  5
4A1
330
1E
100
AcDbEntity
  8
INSTRUCT-CALLOUT
100
AcDbText
 10
11.45015545709445
 20
9.823004427242315
 30
0.0
 40
0.125
  1
CHOOSE EITHER LEADERS OR BUBBLE CALLOUTS
  7
ROMANS
100
AcDbText
  0
TEXT
  5
4A2
330
1E
100
AcDbEntity
  8
INSTRUCT-CALLOUT
100
AcDbText
 10
11.45015545709445
 20
9.661104383755317
 30
0.0
 40
0.125
  1
BY TURNING ON THE APPROPRIATE LAYER:
  7
ROMANS
100
AcDbText
  0
TEXT
  5
4A3
330
1E
100
AcDbEntity
  8
INSTRUCT-CALLOUT
100
AcDbText
 10
11.88649918935727
 20
9.324087089280139
 30
0.0
 40
0.125
  1
TEXT_LEADERS         TEXT_BUBBLES
  7
ROMANS
100
AcDbText
  0
TEXT
  5
4A4
330
1E
100
AcDbEntity
  8
INSTRUCT-CALLOUT
100
AcDbText
 10
12.35586712418982
 20
9.006865226184624
 30
0.0
 40
0.125
  1
ITEM 1
  7
ROMANS
100
AcDbText
  0
SOLID
  5
4A5
330
1E
100
AcDbEntity
  8
INSTRUCT-CALLOUT
100
AcDbTrace
 10
14.13370875242549
 20
8.968328494185529
 30
0.0
 11
14.14951104607983
 21
8.9104468259713
 31
0.0
 12
13.96796489460997
 22
8.891980779115398
 32
0.0
 13
13.96796489460997
 23
8.891980779115398
 33
0.0
  0
TEXT
  5
4A6
330
1E
100
AcDbEntity
  8
INSTRUCT-CALLOUT
100
AcDbText
 10
14.39030732924294
 20
8.958597651783788
 30
0.0
 40
0.125
  1
1
  7
ROMANS
 72
     4
 11
14.44090256733818
 21
9.021097651783788
 31
0.0
100
AcDbText
  0
CIRCLE
  5
4A7
330
1E
100
AcDbEntity
  8
INSTRUCT-CALLOUT
100
AcDbCircle
 10
14.44090256733818
 20
9.021097651783788
 30
0.0
 40
0.125
  0
TEXT
  5
4A8
330
1E
100
AcDbEntity
  8
INSTRUCT-CALLOUT
100
AcDbText
 10
11.39134015341624
 20
8.357285921922345
 30
0.0
 40
0.125
  1
LAYER "INSTRUCT-CALLOUT".
  7
ROMANS
100
AcDbText
  0
TEXT
  5
4A9
330
1E
100
AcDbEntity
  8
INSTRUCT-CALLOUT
100
AcDbText
 10
11.39134015341624
 20
8.519185965410345
 30
0.0
 40
0.125
  1
TO TURN OFF THIS INSTRUCTION BOX, TURN OFF
  7
ROMANS
100
AcDbText
  0
LWPOLYLINE
  5
4AA
330
1E
100
AcDbEntity
  8
INSTRUCT-CALLOUT
100
AcDbPolyline
 90
        2
 70
   128
 43
0.0
 10
14.06443434163369
 20
8.918317935205964
 10
14.32031575855853
 20
8.988176206670582
  0
LWPOLYLINE
  5
4AB
330
1E
100
AcDbEntity
  8
INSTRUCT-CALLOUT
100
AcDbPolyline
 90
        2
 70
   128
 43
0.0
 10
11.90585342683574
 20
8.951864133772241
 10
12.19362384131406
 20
9.071615835578525
  0
LWPOLYLINE
  5
4AC
330
1E
100
AcDbEntity
  8
INSTRUCT-CALLOUT
100
AcDbPolyline
 90
        2
 70
   128
 43
0.0
 10
12.19362384131406
 20
9.071615835578525
 10
12.32989238717269
 20
9.071615835578525
  0
INSERT
  5
4AD
330
1E
100
AcDbEntity
  8
TITLE
100
AcDbBlockReference
 66
     1
  2
titleblock
 10
0.0
 20
0.0
 30
0.0
  0
ATTRIB
  5
4AE
330
4AD
100
AcDbEntity
  8
TITLE
100
AcDbText
 10
0.5055556038023421
 20
0.7842270964783673
 30
0.0
 40
0.2
  1
D
  7
L200
 72
     4
 11
0.6064423705144839
 21
0.8842270964783672
 31
0.0
100
AcDbAttribute
  2
D
 70
     0
  0
ATTRIB
  5
4AF
330
4AD
100
AcDbEntity
  8
TITLE
100
AcDbText
 10
1.231442370514484
 20
1.34371230274675
 30
0.0
 40
0.2
  1

  7
L200
100
AcDbAttribute
  2
TITLE1
 70
     0
  0
ATTRIB
  5
4B0
330
4AD
100
AcDbEntity
  8
TITLE
100
AcDbText
 10
1.231442370514484
 20
0.9842270964783674
 30
0.0
 40
0.2
  1
FULL OR PART-CIRCLE IMPACT SPRINKLER
  7
L200
100
AcDbAttribute
  2
TITLE2
 70
     0
  0
ATTRIB
  5
4B1
330
4AD
100
AcDbEntity
  8
TITLE
100
AcDbText
 10
2.713645751168312
 20
0.5927927664583189
 30
0.0
 40
0.2
  1
2045-PJ MAXI-BIRD ON GRADE
  7
L200
100
AcDbAttribute
  2
TITLE3
 70
     0
  0
ATTRIB
  5
4B2
330
4AD
100
AcDbEntity
  8
TITLE
100
AcDbText
 10
2.713645751168312
 20
0.2692560808167741
 30
0.0
 40
0.2
  1

  7
L200
100
AcDbAttribute
  2
TITLE4
 70
     0
  0
ATTRIB
  5
4B3
330
4AD
100
AcDbEntity
  8
TITLE
 62
     7
100
AcDbText
 10
7.613405306156856
 20
0.9696027915446398
 30
0.0
 40
0.08
  1
01-09-04
  7
L80
 72
     2
 11
8.261024353775903
 21
0.9696027915446398
 31
0.0
100
AcDbAttribute
  2
REVISED
 70
     0
  0
ATTRIB
  5
4B4
330
4AD
100
AcDbEntity
  8
TITLE
 62
     7
100
AcDbText
 10
0.2639423705144838
 20
0.0847116480207214
 30
0.0
 40
0.08
  1
I-2045-PJ Maxi-Bird-On Grade.dwg
  7
L80
100
AcDbAttribute
  2
DWG-NAME
 70
     0
  0
ATTRIB
  5
4B5
330
4AD
100
AcDbEntity
  8
TITLE
 62
     7
100
AcDbText
 10
1.231442370514484
 20
0.7005637793954894
 30
0.0
 40
0.1
  1
N.T.S.
  7
L100
100
AcDbAttribute
  2
SCALE
 70
     0
  0
SEQEND
  5
4B6
330
4AD
100
AcDbEntity
  8
IMAGE
  0
SOLID
  5
4B7
330
1E
100
AcDbEntity
  8
INSTRUCT-CALLOUT
100
AcDbTrace
 10
11.99123942437607
 20
8.954902459634132
 30
0.0
 11
11.96818753948433
 21
9.010297500954978
 31
0.0
 12
11.81352835796766
 22
8.913444325619353
 32
0.0
 13
11.81352835796766
 23
8.913444325619353
 33
0.0
  0
LEADER
  5
4C5
330
1E
100
AcDbEntity
  8
TEXT_BUBBLES
100
AcDbLeader
  3
Standard
 76
     2
 10
3.353112631750001
 20
7.702139381069593
 30
0.0
 10
4.219882608809896
 20
8.114008778537904
 30
0.0
1001
ACAD
1000
DSTYLE
1002
{
1070
   279
1070
     2
1002
}
  0
LEADER
  5
4C6
330
1E
100
AcDbEntity
  8
TEXT_BUBBLES
100
AcDbLeader
  3
Standard
 76
     2
 10
3.149923093191835
 20
7.118389063563206
 30
0.0
 10
4.219882608809896
 20
7.597218321392975
 30
0.0
1001
ACAD
1000
DSTYLE
1002
{
1070
   279
1070
     2
1002
}
  0
LEADER
  5
4C7
330
1E
100
AcDbEntity
  8
TEXT_BUBBLES
100
AcDbLeader
  3
Standard
 76
     2
 10
3.128735893346302
 20
6.651755555415667
 30
0.0
 10
4.219882608809896
 20
7.14692749167425
 30
0.0
1001
ACAD
1000
DSTYLE
1002
{
1070
   279
1070
     2
1002
}
  0
LEADER
  5
4C8
330
1E
100
AcDbEntity
  8
TEXT_BUBBLES
100
AcDbLeader
  3
Standard
 76
     2
 10
3.926642292645539
 20
6.556815363264474
 30
0.0
 10
4.219882608809896
 20
6.776803169077395
 30
0.0
1001
ACAD
1000
DSTYLE
1002
{
1070
   279
1070
     2
1002
}
  0
LEADER
  5
4C9
330
1E
100
AcDbEntity
  8
TEXT_BUBBLES
100
AcDbLeader
  3
Standard
 76
     2
 10
3.820599464294752
 20
5.590969653389204
 30
0.0
 10
4.219882608809896
 20
5.752733936008534
 30
0.0
1001
ACAD
1000
DSTYLE
1002
{
1070
   279
1070
     2
1002
}
  0
LEADER
  5
4CA
330
1E
100
AcDbEntity
  8
TEXT_BUBBLES
100
AcDbLeader
  3
Standard
 76
     2
 10
4.145333760837922
 20
5.353741936189465
 30
0.0
 10
4.531288715700743
 20
4.363069496088417
 30
0.0
1001
ACAD
1000
DSTYLE
1002
{
1070
   279
1070
     2
1002
}
  0
LEADER
  5
4CB
330
1E
100
AcDbEntity
  8
TEXT_BUBBLES
100
AcDbLeader
  3
Standard
 76
     2
 10
3.162748794542406
 20
5.361862347689545
 30
0.0
 10
3.561589983886044
 20
4.363069496088417
 30
0.0
1001
ACAD
1000
DSTYLE
1002
{
1070
   279
1070
     2
1002
}
  0
LEADER
  5
4CC
330
1E
100
AcDbEntity
  8
TEXT_BUBBLES
100
AcDbLeader
  3
Standard
 76
     2
 10
2.889026665297503
 20
4.742985653401021
 30
0.0
 10
3.029297714923914
 20
4.363069496088417
 30
0.0
1001
ACAD
1000
DSTYLE
1002
{
1070
   279
1070
     2
1002
}
  0
HATCH
  5
4DF
330
1E
100
AcDbEntity
  8
IMAGE
100
AcDbHatch
 10
0.0
 20
0.0
 30
0.0
210
0.0
220
0.0
230
1.0
  2
EARTH
 70
     0
 71
     0
 91
        2
 92
        7
 72
     0
 73
     1
 93
        8
 10
2.672677866492085
 20
5.358926179404784
 10
1.355087971134925
 20
5.358926179404785
 10
1.438321634758564
 20
5.079210548131409
 10
1.604788894680378
 20
4.899680973863324
 10
1.91581988261559
 20
4.860272039723751
 10
2.314465200160847
 20
4.869029609823592
 10
2.616734721472321
 20
4.816484364304162
 10
2.672677866492085
 20
4.790211741544448
 97
        0
 92
        7
 72
     0
 73
     1
 93
        6
 10
4.123701662043298
 20
5.358926179404784
 10
3.422786823186566
 20
5.358926179404784
 10
3.523543352732213
 20
5.249982596069556
 10
3.694391345965894
 20
5.166785986510395
 10
3.948472935497749
 20
5.136134578700758
 10
4.040468065745124
 20
5.158028416410552
 97
        0
 75
     0
 76
     1
 52
45.0
 41
0.65
 77
     0
 78
     6
 53
45.0
 43
0.0
 44
0.2488699312455367
 45
0.0
 46
0.229809703885628
 79
     2
 49
0.1625
 49
-0.1625
 53
45.0
 43
-0.0430893194785553
 44
0.291959250724092
 45
0.0
 46
0.229809703885628
 79
     2
 49
0.1625
 49
-0.1625
 53
45.0
 43
-0.0861786389571105
 44
0.3350485702026472
 45
0.0
 46
0.229809703885628
 79
     2
 49
0.1625
 49
-0.1625
 53
135.0
 43
-0.0861786389571105
 44
0.3637747831883507
 45
-0.2298097038856279
 46
0.0
 79
     2
 49
0.1625
 49
-0.1625
 53
135.0
 43
-0.0430893194785552
 44
0.4068641026669059
 45
-0.2298097038856279
 46
0.0
 79
     2
 49
0.1625
 49
-0.1625
 53
135.0
 43
0.0
 44
0.4499534221454612
 45
-0.2298097038856279
 46
0.0
 79
     2
 49
0.1625
 49
-0.1625
 47
0.0043787703116428
 98
        2
 10
2.235612269849074
 20
5.070453021801471
 10
3.694391345965895
 20
5.267497692499333
  0
LEADER
  5
4E6
330
1E
100
AcDbEntity
  8
TEXT_LEADERS
100
AcDbLeader
  3
Standard
 76
     3
 10
3.344084170307969
 20
7.722791533597868
 30
0.0
 10
4.506830787696863
 20
8.192571661024093
 30
0.0
 10
4.766996506177173
 20
8.192571661024093
 30
0.0
1001
ACAD
1000
DSTYLE
1002
{
1070
   147
1040
0.09
1070
    77
1070
     0
1070
   279
1070
     2
1002
}
  0
LEADER
  5
4E8
330
1E
100
AcDbEntity
  8
TEXT_LEADERS
100
AcDbLeader
  3
Standard
 76
     3
 10
3.149923545407585
 20
7.113242094229925
 30
0.0
 10
4.513954314696856
 20
7.664346297868889
 30
0.0
 10
4.766996506177173
 20
7.664346297868889
 30
0.0
1001
ACAD
1000
DSTYLE
1002
{
1070
   147
1040
0.09
1070
    77
1070
     0
1070
   279
1070
     2
1002
}
  0
LEADER
  5
4E9
330
1E
100
AcDbEntity
  8
TEXT_LEADERS
100
AcDbLeader
  3
Standard
 76
     3
 10
3.128735893346302
 20
6.731285787800856
 30
0.0
 10
4.513956856264108
 20
7.290951385396271
 30
0.0
 10
4.766999047744425
 20
7.290951385396271
 30
0.0
1001
ACAD
1000
DSTYLE
1002
{
1070
   147
1040
0.09
1070
    77
1070
     0
1070
   279
1070
     2
1002
}
  0
LEADER
  5
4EB
330
1E
100
AcDbEntity
  8
TEXT_LEADERS
100
AcDbLeader
  3
Standard
 76
     3
 10
3.974028361885783
 20
6.232493041810694
 30
0.0
 10
4.513954314696842
 20
6.45063728675539
 30
0.0
 10
4.766996506177173
 20
6.45063728675539
 30
0.0
1001
ACAD
1000
DSTYLE
1002
{
1070
   147
1040
0.09
1070
    77
1070
     0
1070
   279
1070
     2
1002
}
  0
LEADER
  5
4EC
330
1E
100
AcDbEntity
  8
TEXT_LEADERS
100
AcDbLeader
  3
Standard
 76
     3
 10
3.982403580960784
 20
5.594267623836125
 30
0.0
 10
4.512336976036611
 20
5.808374613392623
 30
0.0
 10
4.765379167516929
 20
5.808374613392623
 30
0.0
1001
ACAD
1000
DSTYLE
1002
{
1070
   147
1040
0.09
1070
    77
1070
     0
1070
   279
1070
     2
1002
}
  0
LEADER
  5
4EE
330
1E
100
AcDbEntity
  8
TEXT_LEADERS
100
AcDbLeader
  3
Standard
 76
     3
 10
4.187455624593728
 20
5.358926179404785
 30
0.0
 10
4.509929726063875
 20
5.184756391175434
 30
0.0
 10
4.762971917544193
 20
5.184756391175434
 30
0.0
1001
ACAD
1000
DSTYLE
1002
{
1070
   147
1040
0.09
1070
    77
1070
     0
1070
   279
1070
     2
1002
}
  0
LEADER
  5
4EF
330
1E
100
AcDbEntity
  8
TEXT_LEADERS
100
AcDbLeader
  3
Standard
 76
     3
 10
3.107513443019732
 20
5.361862347689545
 30
0.0
 10
4.513954314696855
 20
4.549853331827463
 30
0.0
 10
4.766996506177173
 20
4.549853331827463
 30
0.0
1001
ACAD
1000
DSTYLE
1002
{
1070
   147
1040
0.09
1070
    77
1070
     0
1070
   279
1070
     2
1002
}
  0
LEADER
  5
4F0
330
1E
100
AcDbEntity
  8
TEXT_LEADERS
100
AcDbLeader
  3
Standard
 76
     3
 10
2.886673408131843
 20
5.039912720004743
 30
0.0
 10
4.513954314696855
 20
4.100401650552291
 30
0.0
 10
4.766996506177173
 20
4.100401650552291
 30
0.0
1001
ACAD
1000
DSTYLE
1002
{
1070
   147
1040
0.09
1070
    77
1070
     0
1070
   279
1070
     2
1002
}
  0
CIRCLE
  5
50B
330
1E
100
AcDbEntity
  8
TEXT_BUBBLES
100
AcDbCircle
 10
5.116927014795338
 20
8.126978018501922
 30
0.0
 40
0.1562500331414542
  0
CIRCLE
  5
50C
330
1E
100
AcDbEntity
  8
TEXT_BUBBLES
100
AcDbCircle
 10
5.116927014795338
 20
7.601978018501922
 30
0.0
 40
0.1562500331414542
  0
CIRCLE
  5
50D
330
1E
100
AcDbEntity
  8
TEXT_BUBBLES
100
AcDbCircle
 10
5.116927014795338
 20
7.076978018501922
 30
0.0
 40
0.1562500331414542
  0
CIRCLE
  5
50E
330
1E
100
AcDbEntity
  8
TEXT_BUBBLES
100
AcDbCircle
 10
5.116927014795338
 20
6.376978018501922
 30
0.0
 40
0.1562500331414542
  0
CIRCLE
  5
50F
330
1E
100
AcDbEntity
  8
TEXT_BUBBLES
100
AcDbCircle
 10
5.116927014795338
 20
6.026978018501922
 30
0.0
 40
0.1562500331414542
  0
CIRCLE
  5
510
330
1E
100
AcDbEntity
  8
TEXT_BUBBLES
100
AcDbCircle
 10
5.116927014795338
 20
5.501978018501922
 30
0.0
 40
0.1562500331414542
  0
CIRCLE
  5
511
330
1E
100
AcDbEntity
  8
TEXT_BUBBLES
100
AcDbCircle
 10
5.116927014795338
 20
4.626978018501922
 30
0.0
 40
0.1562500331414542
  0
CIRCLE
  5
512
330
1E
100
AcDbEntity
  8
TEXT_BUBBLES
100
AcDbCircle
 10
5.116927014795338
 20
4.101978018501921
 30
0.0
 40
0.1562500331414542
  0
CIRCLE
  5
513
330
1E
100
AcDbEntity
  8
TEXT_BUBBLES
100
AcDbCircle
 10
4.531288715700743
 20
4.206819462946963
 30
0.0
 40
0.1562500331414542
  0
CIRCLE
  5
514
330
1E
100
AcDbEntity
  8
TEXT_BUBBLES
100
AcDbCircle
 10
4.37613264195135
 20
5.752733936008534
 30
0.0
 40
0.1562500331414542
  0
CIRCLE
  5
515
330
1E
100
AcDbEntity
  8
TEXT_BUBBLES
100
AcDbCircle
 10
4.37613264195135
 20
6.776803169077395
 30
0.0
 40
0.1562500331414542
  0
CIRCLE
  5
516
330
1E
100
AcDbEntity
  8
TEXT_BUBBLES
100
AcDbCircle
 10
4.37613264195135
 20
7.14692749167425
 30
0.0
 40
0.1562500331414542
  0
CIRCLE
  5
517
330
1E
100
AcDbEntity
  8
TEXT_BUBBLES
100
AcDbCircle
 10
4.37613264195135
 20
7.597218321392975
 30
0.0
 40
0.1562500331414542
  0
CIRCLE
  5
519
330
1E
100
AcDbEntity
  8
TEXT_BUBBLES
100
AcDbCircle
 10
4.37613264195135
 20
8.114008778537904
 30
0.0
 40
0.1562500331414542
  0
CIRCLE
  5
51A
330
1E
100
AcDbEntity
  8
TEXT_BUBBLES
100
AcDbCircle
 10
3.561589983886044
 20
4.206819462946963
 30
0.0
 40
0.1562500331414542
  0
CIRCLE
  5
51B
330
1E
100
AcDbEntity
  8
TEXT_BUBBLES
100
AcDbCircle
 10
3.029297714923914
 20
4.206819462946963
 30
0.0
 40
0.1562500331414542
  0
VIEWPORT
  5
D3
330
1A
100
AcDbEntity
 67
     1
  8
0
100
AcDbViewport
 10
6.172388059701492
 20
4.5
 30
0.0
 40
12.34477611940298
 41
9.0
 68
     1
 69
     1
 12
6.172388059701492
 22
4.5
 13
0.0
 23
0.0
 14
0.14
 24
0.14
 15
0.14
 25
0.14
 16
0.0
 26
0.0
 36
1.0
 17
0.0
 27
0.0
 37
0.0
 42
50.0
 43
0.0
 44
0.0
 45
9.0
 50
0.0
 51
0.0
 72
   100
 90
    32800
  1

281
     0
 71
     0
 74
     0
110
0.0
120
0.0
130
0.0
111
0.0
121
0.0
131
0.0
112
0.0
122
0.0
132
0.0
 79
     0
146
0.0
  0
ENDSEC
  0
SECTION
  2
OBJECTS
  0
DICTIONARY
  5
C
330
0
100
AcDbDictionary
281
     1
  3
ACAD_GROUP
350
D
  3
ACAD_LAYOUT
350
19
  3
ACAD_MLINESTYLE
350
16
  3
ACAD_PLOTSETTINGS
350
18
  3
ACAD_PLOTSTYLENAME
350
E
  3
AcadDim
350
4ED
  3
AcDbVariableDictionary
350
45B
  3
ASE_INDEX_DICTIONARY
350
466
  0
DICTIONARY
  5
D
102
{ACAD_REACTORS
330
C
102
}
330
C
100
AcDbDictionary
281
     1
  0
DICTIONARY
  5
19
102
{ACAD_REACTORS
330
C
102
}
330
C
100
AcDbDictionary
281
     1
  3
Layout1
350
1D
  3
Model
350
21
  0
DICTIONARY
  5
16
102
{ACAD_REACTORS
330
C
102
}
330
C
100
AcDbDictionary
281
     1
  3
Standard
350
17
  0
DICTIONARY
  5
18
102
{ACAD_REACTORS
330
C
102
}
330
C
100
AcDbDictionary
281
     1
  0
ACDBDICTIONARYWDFLT
  5
E
102
{ACAD_REACTORS
330
C
102
}
330
C
100
AcDbDictionary
281
     1
  3
Normal
350
F
100
AcDbDictionaryWithDefault
340
F
  0
XRECORD
  5
4ED
102
{ACAD_REACTORS
330
C
102
}
330
C
100
AcDbXrecord
280
     1
 90
   990106
  3

 60
     4
 61
     0
 62
     1
 63
     3
 64
     0
 65
     0
 66
     0
 67
     3
 68
     1
 69
     0
 70
     0
 71
     1
 72
     0
 40
0.0
170
     1
  0
DICTIONARY
  5
45B
102
{ACAD_REACTORS
330
C
102
}
330
C
100
AcDbDictionary
281
     1
  3
DIMASSOC
350
45E
  3
HIDETEXT
350
45D
  3
SORTENTS
350
45C
  0
DICTIONARY
  5
466
102
{ACAD_REACTORS
330
C
102
}
330
C
100
AcDbDictionary
281
     1
  3
ASEBlockHierarchyIndexRecord
350
468
1001
DCO15
1040
1487050233.591
  0
LAYOUT
  5
1D
102
{ACAD_REACTORS
330
19
102
}
330
19
100
AcDbPlotSettings
  1

  2
S:\AutoCAD 2002\Plotters\1055B&WDraftShaded.pc3
  4

  6

 40
0.0
 41
0.0
 42
0.0
 43
0.0
 44
0.0
 45
0.0
 46
0.0
 47
0.0
 48
0.0
 49
0.0
140
0.0
141
0.0
142
1.0
143
1.0
 70
   688
 72
     0
 73
     0
 74
     5
  7
Color.ctb
 75
    16
147
1.0
148
0.0
149
0.0
100
AcDbLayout
  1
Layout1
 70
     1
 71
     1
 10
0.0
 20
0.0
 11
12.0
 21
9.0
 12
0.0
 22
0.0
 32
0.0
 14
1.000000000000000E+20
 24
1.000000000000000E+20
 34
1.000000000000000E+20
 15
-1.000000000000000E+20
 25
-1.000000000000000E+20
 35
-1.000000000000000E+20
146
0.0
 13
0.0
 23
0.0
 33
0.0
 16
1.0
 26
0.0
 36
0.0
 17
0.0
 27
1.0
 37
0.0
 76
     0
330
1A
331
D3
  0
LAYOUT
  5
21
102
{ACAD_REACTORS
330
19
102
}
330
19
100
AcDbPlotSettings
  1

  2
OKI DOKI Color Laser.pc3
  4
Tabloid
  6

 40
5.027083396911621
 41
5.027085304260253
 42
5.027099609375
 43
5.027069091796875
 44
279.3999938964843
 45
431.7999877929687
 46
0.0
 47
0.0
 48
0.0
 49
0.0000000000000001
140
16.48999999999999
141
10.44
142
1.0
143
0.9931242156595709
 70
 11952
 72
     0
 73
     1
 74
     4
  7
Color.ctb
 75
     0
147
1.006923388063659
148
0.0
149
-0.0000000000000028
100
AcDbLayout
  1
Model
 70
     1
 71
     0
 10
0.0
 20
0.0
 11
12.0
 21
9.0
 12
0.0
 22
0.0
 32
0.0
 14
0.0
 24
0.0
 34
0.0
 15
0.0
 25
0.0
 35
0.0
146
0.0
 13
0.0
 23
0.0
 33
0.0
 16
1.0
 26
0.0
 36
0.0
 17
0.0
 27
1.0
 37
0.0
 76
     0
330
1E
  0
MLINESTYLE
  5
17
102
{ACAD_REACTORS
330
16
102
}
330
16
100
AcDbMlineStyle
  2
STANDARD
 70
     0
  3

 62
   256
 51
90.0
 52
90.0
 71
     2
 49
0.5
 62
   256
  6
BYLAYER
 49
-0.5
 62
   256
  6
BYLAYER
  0
ACDBPLACEHOLDER
  5
F
102
{ACAD_REACTORS
330
E
102
}
330
E
  0
DICTIONARYVAR
  5
45E
102
{ACAD_REACTORS
330
45B
102
}
330
45B
100
DictionaryVariables
280
     0
  1
1
  0
DICTIONARYVAR
  5
45D
102
{ACAD_REACTORS
330
45B
102
}
330
45B
100
DictionaryVariables
280
     0
  1
1
  0
DICTIONARYVAR
  5
45C
102
{ACAD_REACTORS
330
45B
102
}
330
45B
100
DictionaryVariables
280
     0
  1
1
  0
XRECORD
  5
468
102
{ACAD_REACTORS
330
466
102
}
330
466
100
AcDbXrecord
280
     1
330
0
330
0
  0
ENDSEC
  0
EOF
