  0
SECTION
  2
HEADER
  9
$ACADVER
  1
AC1015
  9
$ACADMAINTVER
 70
    13
  9
$DWGCODEPAGE
  3
ANSI_1252
  9
$INSBASE
 10
0.0
 20
0.0
 30
0.0
  9
$EXTMIN
 10
0.0
 20
0.0
 30
0.0
  9
$EXTMAX
 10
16.48999999999999
 20
10.44
 30
0.03
  9
$LIMMIN
 10
0.0
 20
0.0
  9
$LIMMAX
 10
12.0
 20
9.0
  9
$ORTHOMODE
 70
     0
  9
$REGENMODE
 70
     1
  9
$FILLMODE
 70
     1
  9
$QTEXTMODE
 70
     0
  9
$MIRRTEXT
 70
     0
  9
$LTSCALE
 40
1.0
  9
$ATTMODE
 70
     1
  9
$TEXTSIZE
 40
0.59651550821952
  9
$TRACEWID
 40
0.05
  9
$TEXTSTYLE
  7
SIMPLEX
  9
$CLAYER
  8
IMAGE
  9
$CELTYPE
  6
ByLayer
  9
$CECOLOR
 62
   256
  9
$CELTSCALE
 40
1.0
  9
$DISPSILH
 70
     0
  9
$DIMSCALE
 40
1.0
  9
$DIMASZ
 40
0.18
  9
$DIMEXO
 40
0.0625
  9
$DIMDLI
 40
0.38
  9
$DIMRND
 40
0.0
  9
$DIMDLE
 40
0.0
  9
$DIMEXE
 40
0.18
  9
$DIMTP
 40
0.0
  9
$DIMTM
 40
0.0
  9
$DIMTXT
 40
0.18
  9
$DIMCEN
 40
0.09
  9
$DIMTSZ
 40
0.0
  9
$DIMTOL
 70
     0
  9
$DIMLIM
 70
     0
  9
$DIMTIH
 70
     1
  9
$DIMTOH
 70
     1
  9
$DIMSE1
 70
     0
  9
$DIMSE2
 70
     0
  9
$DIMTAD
 70
     0
  9
$DIMZIN
 70
     0
  9
$DIMBLK
  1

  9
$DIMASO
 70
     1
  9
$DIMSHO
 70
     1
  9
$DIMPOST
  1

  9
$DIMAPOST
  1

  9
$DIMALT
 70
     0
  9
$DIMALTD
 70
     2
  9
$DIMALTF
 40
25.4
  9
$DIMLFAC
 40
1.0
  9
$DIMTOFL
 70
     0
  9
$DIMTVP
 40
0.0
  9
$DIMTIX
 70
     0
  9
$DIMSOXD
 70
     0
  9
$DIMSAH
 70
     0
  9
$DIMBLK1
  1

  9
$DIMBLK2
  1

  9
$DIMSTYLE
  2
Standard
  9
$DIMCLRD
 70
     0
  9
$DIMCLRE
 70
     0
  9
$DIMCLRT
 70
     0
  9
$DIMTFAC
 40
1.0
  9
$DIMGAP
 40
0.09
  9
$DIMJUST
 70
     0
  9
$DIMSD1
 70
     0
  9
$DIMSD2
 70
     0
  9
$DIMTOLJ
 70
     1
  9
$DIMTZIN
 70
     0
  9
$DIMALTZ
 70
     0
  9
$DIMALTTZ
 70
     0
  9
$DIMUPT
 70
     0
  9
$DIMDEC
 70
     4
  9
$DIMTDEC
 70
     4
  9
$DIMALTU
 70
     2
  9
$DIMALTTD
 70
     2
  9
$DIMTXSTY
  7
STANDARD
  9
$DIMAUNIT
 70
     0
  9
$DIMADEC
 70
     0
  9
$DIMALTRND
 40
0.0
  9
$DIMAZIN
 70
     0
  9
$DIMDSEP
 70
    46
  9
$DIMATFIT
 70
     3
  9
$DIMFRAC
 70
     0
  9
$DIMLDRBLK
  1

  9
$DIMLUNIT
 70
     2
  9
$DIMLWD
 70
    -2
  9
$DIMLWE
 70
    -2
  9
$DIMTMOVE
 70
     2
  9
$LUNITS
 70
     2
  9
$LUPREC
 70
     4
  9
$SKETCHINC
 40
0.1
  9
$FILLETRAD
 40
0.0
  9
$AUNITS
 70
     0
  9
$AUPREC
 70
     0
  9
$MENU
  1
ACAD
  9
$ELEVATION
 40
0.0
  9
$PELEVATION
 40
0.0
  9
$THICKNESS
 40
0.0
  9
$LIMCHECK
 70
     0
  9
$CHAMFERA
 40
0.0
  9
$CHAMFERB
 40
0.0
  9
$CHAMFERC
 40
0.0
  9
$CHAMFERD
 40
0.0
  9
$SKPOLY
 70
     0
  9
$TDCREATE
 40
2449665.668368866
  9
$TDUCREATE
 40
2449665.960035532
  9
$TDUPDATE
 40
2453019.539225104
  9
$TDUUPDATE
 40
2453019.830891770
  9
$TDINDWG
 40
2.7842591088
  9
$TDUSRTIMER
 40
2.7842591088
  9
$USRTIMER
 70
     1
  9
$ANGBASE
 50
0.0
  9
$ANGDIR
 70
     0
  9
$PDMODE
 70
     0
  9
$PDSIZE
 40
0.0
  9
$PLINEWID
 40
0.0
  9
$SPLFRAME
 70
     0
  9
$SPLINETYPE
 70
     6
  9
$SPLINESEGS
 70
     8
  9
$HANDSEED
  5
528
  9
$SURFTAB1
 70
     6
  9
$SURFTAB2
 70
     6
  9
$SURFTYPE
 70
     6
  9
$SURFU
 70
     6
  9
$SURFV
 70
     6
  9
$UCSBASE
  2

  9
$UCSNAME
  2

  9
$UCSORG
 10
0.0
 20
0.0
 30
0.0
  9
$UCSXDIR
 10
1.0
 20
0.0
 30
0.0
  9
$UCSYDIR
 10
0.0
 20
1.0
 30
0.0
  9
$UCSORTHOREF
  2

  9
$UCSORTHOVIEW
 70
     0
  9
$UCSORGTOP
 10
0.0
 20
0.0
 30
0.0
  9
$UCSORGBOTTOM
 10
0.0
 20
0.0
 30
0.0
  9
$UCSORGLEFT
 10
0.0
 20
0.0
 30
0.0
  9
$UCSORGRIGHT
 10
0.0
 20
0.0
 30
0.0
  9
$UCSORGFRONT
 10
0.0
 20
0.0
 30
0.0
  9
$UCSORGBACK
 10
0.0
 20
0.0
 30
0.0
  9
$PUCSBASE
  2

  9
$PUCSNAME
  2

  9
$PUCSORG
 10
0.0
 20
0.0
 30
0.0
  9
$PUCSXDIR
 10
1.0
 20
0.0
 30
0.0
  9
$PUCSYDIR
 10
0.0
 20
1.0
 30
0.0
  9
$PUCSORTHOREF
  2

  9
$PUCSORTHOVIEW
 70
     0
  9
$PUCSORGTOP
 10
0.0
 20
0.0
 30
0.0
  9
$PUCSORGBOTTOM
 10
0.0
 20
0.0
 30
0.0
  9
$PUCSORGLEFT
 10
0.0
 20
0.0
 30
0.0
  9
$PUCSORGRIGHT
 10
0.0
 20
0.0
 30
0.0
  9
$PUCSORGFRONT
 10
0.0
 20
0.0
 30
0.0
  9
$PUCSORGBACK
 10
0.0
 20
0.0
 30
0.0
  9
$USERI1
 70
     0
  9
$USERI2
 70
     0
  9
$USERI3
 70
     0
  9
$USERI4
 70
     0
  9
$USERI5
 70
     0
  9
$USERR1
 40
0.0
  9
$USERR2
 40
0.0
  9
$USERR3
 40
0.0
  9
$USERR4
 40
0.0
  9
$USERR5
 40
0.0
  9
$WORLDVIEW
 70
     1
  9
$SHADEDGE
 70
     3
  9
$SHADEDIF
 70
    70
  9
$TILEMODE
 70
     1
  9
$MAXACTVP
 70
    16
  9
$PINSBASE
 10
0.0
 20
0.0
 30
0.0
  9
$PLIMCHECK
 70
     0
  9
$PEXTMIN
 10
1.000000000000000E+20
 20
1.000000000000000E+20
 30
1.000000000000000E+20
  9
$PEXTMAX
 10
-1.000000000000000E+20
 20
-1.000000000000000E+20
 30
-1.000000000000000E+20
  9
$PLIMMIN
 10
0.0
 20
0.0
  9
$PLIMMAX
 10
12.0
 20
9.0
  9
$UNITMODE
 70
     0
  9
$VISRETAIN
 70
     0
  9
$PLINEGEN
 70
     1
  9
$PSLTSCALE
 70
     1
  9
$TREEDEPTH
 70
  3020
  9
$CMLSTYLE
  2
Standard
  9
$CMLJUST
 70
     0
  9
$CMLSCALE
 40
1.0
  9
$PROXYGRAPHICS
 70
     1
  9
$MEASUREMENT
 70
     0
  9
$CELWEIGHT
370
    -1
  9
$ENDCAPS
280
     0
  9
$JOINSTYLE
280
     0
  9
$LWDISPLAY
290
     0
  9
$INSUNITS
 70
     0
  9
$HYPERLINKBASE
  1

  9
$STYLESHEET
  1
Color.ctb
  9
$XEDIT
290
     1
  9
$CEPSNTYPE
380
     0
  9
$PSTYLEMODE
290
     1
  9
$FINGERPRINTGUID
  2
{4FE8620E-7C2E-487E-B9A5-F0414F2ADACD}
  9
$VERSIONGUID
  2
{9ED49BAB-491E-4D98-B7AF-0569F7E97852}
  9
$EXTNAMES
290
     1
  9
$PSVPSCALE
 40
0.0
  9
$OLESTARTUP
290
     0
  0
ENDSEC
  0
SECTION
  2
CLASSES
  0
CLASS
  1
ACDBDICTIONARYWDFLT
  2
AcDbDictionaryWithDefault
  3
AutoCAD 2000
 90
        0
280
     0
281
     0
  0
CLASS
  1
ACDBPLACEHOLDER
  2
AcDbPlaceHolder
  3
AutoCAD 2000
 90
        0
280
     0
281
     0
  0
CLASS
  1
LAYOUT
  2
AcDbLayout
  3
AutoCAD 2000
 90
        0
280
     0
281
     0
  0
CLASS
  1
DICTIONARYVAR
  2
AcDbDictionaryVar
  3
AutoCAD 2000
 90
        0
280
     0
281
     0
  0
ENDSEC
  0
SECTION
  2
TABLES
  0
TABLE
  2
VPORT
  5
8
330
0
100
AcDbSymbolTable
 70
     2
  0
VPORT
  5
527
330
8
100
AcDbSymbolTableRecord
100
AcDbViewportTableRecord
  2
*Active
 70
     0
 10
0.0
 20
0.0
 11
1.0
 21
1.0
 12
8.245000038393772
 22
5.220000024307517
 13
0.0
 23
0.0
 14
0.14
 24
0.14
 15
0.14
 25
0.14
 16
0.0
 26
0.0
 36
1.0
 17
0.0
 27
0.0
 37
0.0
 40
11.0072450655855
 41
1.505548705302096
 42
50.0
 43
0.0
 44
0.0
 50
0.0
 51
0.0
 71
     0
 72
  5000
 73
     1
 74
     1
 75
     0
 76
     0
 77
     0
 78
     0
281
     0
 65
     1
110
0.0
120
0.0
130
0.0
111
1.0
121
0.0
131
0.0
112
0.0
122
1.0
132
0.0
 79
     0
146
0.0
  0
ENDTAB
  0
TABLE
  2
LTYPE
  5
5
330
0
100
AcDbSymbolTable
 70
     1
  0
LTYPE
  5
13
330
5
100
AcDbSymbolTableRecord
100
AcDbLinetypeTableRecord
  2
ByBlock
 70
     0
  3

 72
    65
 73
     0
 40
0.0
  0
LTYPE
  5
14
330
5
100
AcDbSymbolTableRecord
100
AcDbLinetypeTableRecord
  2
ByLayer
 70
     0
  3

 72
    65
 73
     0
 40
0.0
  0
LTYPE
  5
15
330
5
100
AcDbSymbolTableRecord
100
AcDbLinetypeTableRecord
  2
CONTINUOUS
 70
     0
  3
Solid line
 72
    65
 73
     0
 40
0.0
  0
ENDTAB
  0
TABLE
  2
LAYER
  5
2
330
0
100
AcDbSymbolTable
 70
     6
  0
LAYER
  5
10
330
2
100
AcDbSymbolTableRecord
100
AcDbLayerTableRecord
  2
0
 70
     0
 62
     7
  6
CONTINUOUS
370
    -3
390
F
  0
LAYER
  5
2B
330
2
100
AcDbSymbolTableRecord
100
AcDbLayerTableRecord
  2
TEXT_BUBBLES
 70
     0
 62
     6
  6
CONTINUOUS
370
    -3
390
F
  0
LAYER
  5
2C
330
2
100
AcDbSymbolTableRecord
100
AcDbLayerTableRecord
  2
IMAGE
 70
     0
 62
     7
  6
CONTINUOUS
370
    -3
390
F
  0
LAYER
  5
2F
330
2
100
AcDbSymbolTableRecord
100
AcDbLayerTableRecord
  2
TEXT_LEADERS
 70
     0
 62
    -5
  6
CONTINUOUS
370
    -3
390
F
  0
LAYER
  5
30
330
2
100
AcDbSymbolTableRecord
100
AcDbLayerTableRecord
  2
INSTRUCT-CALLOUT
 70
     0
 62
     4
  6
CONTINUOUS
370
    -3
390
F
  0
LAYER
  5
44E
330
2
100
AcDbSymbolTableRecord
100
AcDbLayerTableRecord
  2
TITLE
 70
     0
 62
     4
  6
CONTINUOUS
370
    -3
390
F
  0
ENDTAB
  0
TABLE
  2
STYLE
  5
3
330
0
100
AcDbSymbolTable
 70
     6
  0
STYLE
  5
11
330
3
100
AcDbSymbolTableRecord
100
AcDbTextStyleTableRecord
  2
STANDARD
 70
     0
 40
0.0
 41
1.0
 50
0.0
 71
     0
 42
0.2
  3
txt
  4

  0
STYLE
  5
25
330
3
100
AcDbSymbolTableRecord
100
AcDbTextStyleTableRecord
  2
ROMANS
 70
     0
 40
0.0
 41
1.0
 50
0.0
 71
     0
 42
0.59651550821952
  3
ROMANS.SHX
  4

  0
STYLE
  5
26
330
3
100
AcDbSymbolTableRecord
100
AcDbTextStyleTableRecord
  2
SIMPLEX
 70
     0
 40
0.0
 41
1.0
 50
0.0
 71
     0
 42
0.59651550821952
  3
SIMPLEX
  4

  0
STYLE
  5
44F
330
3
100
AcDbSymbolTableRecord
100
AcDbTextStyleTableRecord
  2
L100
 70
     0
 40
0.1
 41
1.0
 50
0.0
 71
     0
 42
0.1
  3
romans.shx
  4

  0
STYLE
  5
450
330
3
100
AcDbSymbolTableRecord
100
AcDbTextStyleTableRecord
  2
L200
 70
     0
 40
0.2
 41
1.0
 50
0.0
 71
     0
 42
0.081
  3
ARIAL.TTF
  4

1001
ACAD
1000
Arial
1071
       34
  0
STYLE
  5
451
330
3
100
AcDbSymbolTableRecord
100
AcDbTextStyleTableRecord
  2
L80
 70
     0
 40
0.08
 41
1.0
 50
0.0
 71
     0
 42
0.08
  3
ROMANS
  4

  0
ENDTAB
  0
TABLE
  2
VIEW
  5
6
330
0
100
AcDbSymbolTable
 70
     0
  0
ENDTAB
  0
TABLE
  2
UCS
  5
7
330
0
100
AcDbSymbolTable
 70
     0
  0
ENDTAB
  0
TABLE
  2
APPID
  5
9
330
0
100
AcDbSymbolTable
 70
     2
  0
APPID
  5
12
330
9
100
AcDbSymbolTableRecord
100
AcDbRegAppTableRecord
  2
ACAD
 70
     0
  0
APPID
  5
438
330
9
100
AcDbSymbolTableRecord
100
AcDbRegAppTableRecord
  2
DCO15
 70
     0
  0
ENDTAB
  0
TABLE
  2
DIMSTYLE
  5
A
330
0
100
AcDbSymbolTable
 70
     1
100
AcDbDimStyleTable
 71
     0
  0
DIMSTYLE
105
429
330
A
100
AcDbSymbolTableRecord
100
AcDbDimStyleTableRecord
  2
Standard
 70
     0
340
11
  0
ENDTAB
  0
TABLE
  2
BLOCK_RECORD
  5
1
330
0
100
AcDbSymbolTable
 70
     2
  0
BLOCK_RECORD
  5
1E
330
1
100
AcDbSymbolTableRecord
100
AcDbBlockTableRecord
  2
*Model_Space
340
21
  0
BLOCK_RECORD
  5
1A
330
1
100
AcDbSymbolTableRecord
100
AcDbBlockTableRecord
  2
*Paper_Space
340
1D
  0
BLOCK_RECORD
  5
22
330
1
100
AcDbSymbolTableRecord
100
AcDbBlockTableRecord
  2
*X0
340
0
102
{BLKREFS
331
161
102
}
  0
BLOCK_RECORD
  5
440
330
1
100
AcDbSymbolTableRecord
100
AcDbBlockTableRecord
  2
titleblock
340
0
102
{BLKREFS
331
461
102
}
  0
ENDTAB
  0
ENDSEC
  0
SECTION
  2
BLOCKS
  0
BLOCK
  5
34
330
1E
100
AcDbEntity
  8
0
100
AcDbBlockBegin
  2
*Model_Space
 70
     0
 10
0.0
 20
0.0
 30
0.0
  3
*Model_Space
  1

  0
ENDBLK
  5
35
330
1E
100
AcDbEntity
  8
0
100
AcDbBlockEnd
  0
BLOCK
  5
32
330
1A
100
AcDbEntity
 67
     1
  8
0
100
AcDbBlockBegin
  2
*Paper_Space
 70
     0
 10
0.0
 20
0.0
 30
0.0
  3
*Paper_Space
  1

  0
ENDBLK
  5
33
330
1A
100
AcDbEntity
 67
     1
  8
0
100
AcDbBlockEnd
  0
BLOCK
  5
36
330
22
100
AcDbEntity
  8
0
100
AcDbBlockBegin
  2
*X0
 70
     1
 10
0.0
 20
0.0
 30
0.0
  3
*X0
  1

  0
LINE
  5
37
330
22
100
AcDbEntity
  8
0
 62
     0
100
AcDbLine
 10
2.182277667596367
 20
1.970145633240403
 30
0.0
 11
2.200167573778146
 21
1.988035539422182
 31
0.0
  0
LINE
  5
38
330
22
100
AcDbEntity
  8
0
 62
     0
100
AcDbLine
 10
2.29782192174813
 20
2.085689887392166
 30
0.0
 11
2.314984512682979
 21
2.102852478327015
 31
0.0
  0
LINE
  5
39
330
22
100
AcDbEntity
  8
0
 62
     0
100
AcDbLine
 10
2.288620796416604
 20
2.103005266355135
 30
0.0
 11
2.298885854904866
 21
2.113270324843397
 31
0.0
  0
LINE
  5
3A
330
22
100
AcDbEntity
  8
0
 62
     0
100
AcDbLine
 10
2.2753798351199
 20
2.116280809352927
 30
0.0
 11
2.280609891690813
 21
2.121510865923839
 31
0.0
  0
LINE
  5
3B
330
22
100
AcDbEntity
  8
0
 62
     0
100
AcDbLine
 10
2.258104081759679
 20
2.125521560287201
 30
0.0
 11
2.259725025225472
 21
2.127142503752994
 31
0.0
  0
LINE
  5
3C
330
22
100
AcDbEntity
  8
0
 62
     0
100
AcDbLine
 10
2.171288611474819
 20
1.932640072824359
 30
0.0
 11
2.237699223905385
 21
1.999050685254925
 31
0.0
  0
LINE
  5
3D
330
22
100
AcDbEntity
  8
0
 62
     0
100
AcDbLine
 10
2.301476857640116
 20
2.062828318989656
 30
0.0
 11
2.329107592040394
 21
2.090459053389935
 31
0.0
  0
LINE
  5
3E
330
22
100
AcDbEntity
  8
0
 62
     0
100
AcDbLine
 10
2.175645446803893
 20
1.910480403858938
 30
0.0
 11
2.341311424122982
 21
2.076146381178026
 31
0.0
  0
LINE
  5
3F
330
22
100
AcDbEntity
  8
0
 62
     0
100
AcDbLine
 10
2.185275754553761
 20
1.89359420731431
 30
0.0
 11
2.351527027677813
 21
2.059845480438362
 31
0.0
  0
LINE
  5
40
330
22
100
AcDbEntity
  8
0
 62
     0
100
AcDbLine
 10
2.198896029418179
 20
1.880697977884233
 30
0.0
 11
2.359535312936381
 21
2.041337261402435
 31
0.0
  0
LINE
  5
41
330
22
100
AcDbEntity
  8
0
 62
     0
100
AcDbLine
 10
2.216612080391566
 20
1.871897524563124
 30
0.0
 11
2.364872975546216
 21
2.020158419717775
 31
0.0
  0
LINE
  5
42
330
22
100
AcDbEntity
  8
0
 62
     0
100
AcDbLine
 10
2.240107376620533
 20
1.868876316497596
 30
0.0
 11
2.366544058459199
 21
1.995312998336262
 31
0.0
  0
LINE
  5
43
330
22
100
AcDbEntity
  8
0
 62
     0
100
AcDbLine
 10
2.271354660518765
 20
1.873607096101333
 30
0.0
 11
2.361813278855462
 21
1.96406571443803
 31
0.0
  0
ENDBLK
  5
44
330
22
100
AcDbEntity
  8
0
100
AcDbBlockEnd
  0
BLOCK
  5
44C
330
440
100
AcDbEntity
  8
0
100
AcDbBlockBegin
  2
titleblock
 70
     2
 10
0.0
 20
0.0
 30
0.0
  3
titleblock
  1

  0
LWPOLYLINE
  5
441
330
440
100
AcDbEntity
  8
IMAGE
100
AcDbPolyline
 90
        4
 70
     1
 43
0.0
 10
0.0
 20
0.0
 10
16.48999999999999
 20
0.0000000000000001
 10
16.48999999999999
 20
10.44
 10
0.0
 20
10.44
  0
ATTDEF
  5
442
330
440
100
AcDbEntity
  8
TITLE
100
AcDbText
 10
0.5055556038023421
 20
0.7842270964783673
 30
0.0
 40
0.2
  1
D
  7
L200
 72
     4
 11
0.6064423705144839
 21
0.8842270964783672
 31
0.0
100
AcDbAttributeDefinition
  3
#
  2
D
 70
     0
  0
ATTDEF
  5
443
330
440
100
AcDbEntity
  8
TITLE
100
AcDbText
 10
1.231442370514484
 20
1.34371230274675
 30
0.0
 40
0.2
  1

  7
L200
100
AcDbAttributeDefinition
  3
DETAIL TITLE TOP LINE
  2
TITLE1
 70
     0
  0
ATTDEF
  5
444
330
440
100
AcDbEntity
  8
TITLE
100
AcDbText
 10
1.231442370514484
 20
0.9842270964783674
 30
0.0
 40
0.2
  1
TITLE
  7
L200
100
AcDbAttributeDefinition
  3
DETAIL TITLE TOP 2ND LINE
  2
TITLE2
 70
     0
  0
ATTDEF
  5
445
330
440
100
AcDbEntity
  8
TITLE
100
AcDbText
 10
2.713645751168312
 20
0.5927927664583189
 30
0.0
 40
0.2
  1
TITLE2
  7
L200
100
AcDbAttributeDefinition
  3
DETAIL TITLE BOTTOM 1
  2
TITLE3
 70
     0
  0
ATTDEF
  5
446
330
440
100
AcDbEntity
  8
TITLE
100
AcDbText
 10
2.713645751168312
 20
0.2692560808167741
 30
0.0
 40
0.2
  1

  7
L200
100
AcDbAttributeDefinition
  3
DETAIL TITLE BOTTOM 2
  2
TITLE4
 70
     0
  0
ATTDEF
  5
447
330
440
100
AcDbEntity
  8
TITLE
 62
     7
100
AcDbText
 10
8.177214829966379
 20
0.9696027915446398
 30
0.0
 40
0.08
  1
-
  7
L80
 72
     2
 11
8.261024353775903
 21
0.9696027915446398
 31
0.0
100
AcDbAttributeDefinition
  3
REVISION DATE
  2
REVISED
 70
     0
  0
ATTDEF
  5
448
330
440
100
AcDbEntity
  8
TITLE
 62
     7
100
AcDbText
 10
0.2639423705144838
 20
0.0847116480207214
 30
0.0
 40
0.08
  1
-
  7
L80
100
AcDbAttributeDefinition
  3
DWG-NAME
  2
DWG-NAME
 70
     0
  0
LWPOLYLINE
  5
449
330
440
100
AcDbEntity
  8
TITLE
 62
     3
100
AcDbPolyline
 90
        2
 70
     1
 43
0.03
 10
0.6064423705144839
 20
0.5417270964783675
 42
0.9999999999999998
 10
0.6064423705144839
 20
1.226727096478367
 42
0.9999999999999998
  0
ATTDEF
  5
44A
330
440
100
AcDbEntity
  8
TITLE
 62
     7
100
AcDbText
 10
1.231442370514484
 20
0.7005637793954894
 30
0.0
 40
0.1
  1
N.T.S.
  7
L100
100
AcDbAttributeDefinition
  3
SCALE
  2
SCALE
 70
     0
  0
LWPOLYLINE
  5
44B
330
440
100
AcDbEntity
  8
TITLE
 62
     3
100
AcDbPolyline
 90
        2
 70
     0
 43
0.04
 39
0.03
 10
0.9489423705144833
 20
0.8842270964783672
 10
8.261024353775903
 20
0.8842270964783672
  0
ENDBLK
  5
44D
330
440
100
AcDbEntity
  8
0
100
AcDbBlockEnd
  0
ENDSEC
  0
SECTION
  2
ENTITIES
  0
TEXT
  5
CB
330
1E
100
AcDbEntity
  8
TEXT_BUBBLES
100
AcDbText
 10
5.217834053031938
 20
7.66248317994092
 30
0.0
 40
0.125
  1
1
  7
ROMANS
 72
     4
 11
5.268429291127176
 21
7.72498317994092
 31
0.0
100
AcDbText
  0
TEXT
  5
CE
330
1E
100
AcDbEntity
  8
TEXT_BUBBLES
100
AcDbText
 10
5.540247026416998
 20
5.043018949270727
 30
0.0
 40
0.125
  1
  (LENGTH AS REQUIRED)
  7
SIMPLEX
100
AcDbText
  0
TEXT
  5
D0
330
1E
100
AcDbEntity
  8
TEXT_BUBBLES
100
AcDbText
 10
5.540247026416998
 20
5.568018949270728
 30
0.0
 40
0.125
  1
PVC SCH 40 STREET ELL
  7
SIMPLEX
100
AcDbText
  0
TEXT
  5
D1
330
1E
100
AcDbEntity
  8
TEXT_BUBBLES
100
AcDbText
 10
5.540247026416998
 20
5.218018949270728
 30
0.0
 40
0.125
  1
PVC SCH 80 NIPPLE
  7
SIMPLEX
100
AcDbText
  0
TEXT
  5
D2
330
1E
100
AcDbEntity
  8
TEXT_BUBBLES
100
AcDbText
 10
5.540247026416998
 20
4.693018949270728
 30
0.0
 40
0.125
  1
PVC SCH 40 TEE OR ELL
  7
SIMPLEX
100
AcDbText
  0
TEXT
  5
D3
330
1E
100
AcDbEntity
  8
TEXT_BUBBLES
100
AcDbText
 10
5.540247026416998
 20
4.343018949270728
 30
0.0
 40
0.125
  1
PVC LATERAL PIPE
  7
SIMPLEX
100
AcDbText
  0
TEXT
  5
D4
330
1E
100
AcDbEntity
  8
TEXT_BUBBLES
100
AcDbText
 10
5.540247026416998
 20
5.918018949270727
 30
0.0
 40
0.125
  1
PVC SCH 40 ELL
  7
SIMPLEX
100
AcDbText
  0
TEXT
  5
D5
330
1E
100
AcDbEntity
  8
TEXT_BUBBLES
100
AcDbText
 10
5.540247026416998
 20
6.618018949270728
 30
0.0
 40
0.125
  1
UV RADIATION RESISTANT
  7
SIMPLEX
100
AcDbText
  0
TEXT
  5
D6
330
1E
100
AcDbEntity
  8
TEXT_BUBBLES
100
AcDbText
 10
5.540247026416998
 20
6.443018949270728
 30
0.0
 40
0.125
  1
  PVC SCH 80 NIPPLE
  7
SIMPLEX
100
AcDbText
  0
TEXT
  5
D7
330
1E
100
AcDbEntity
  8
TEXT_BUBBLES
100
AcDbText
 10
5.540247026416998
 20
6.268018949270727
 30
0.0
 40
0.125
  1
  (LENGTH AS REQUIRED)
  7
SIMPLEX
100
AcDbText
  0
TEXT
  5
D8
330
1E
100
AcDbEntity
  8
TEXT_BUBBLES
100
AcDbText
 10
5.540247026416998
 20
3.993018949270727
 30
0.0
 40
0.125
  1
1-INCH GALVANIZED STEEL PIPE
  7
SIMPLEX
100
AcDbText
  0
TEXT
  5
D9
330
1E
100
AcDbEntity
  8
TEXT_BUBBLES
100
AcDbText
 10
5.540247026416998
 20
3.643018949270727
 30
0.0
 40
0.125
  1
  CLAMPS OR EQUIVALENT
  7
SIMPLEX
100
AcDbText
  0
TEXT
  5
DA
330
1E
100
AcDbEntity
  8
TEXT_BUBBLES
100
AcDbText
 10
5.540247026416998
 20
3.468018949270728
 30
0.0
 40
0.125
  1
  SUPPORT SYSTEM
  7
SIMPLEX
100
AcDbText
  0
TEXT
  5
DC
330
1E
100
AcDbEntity
  8
TEXT_BUBBLES
100
AcDbText
 10
5.205929291127176
 20
5.912483179940918
 30
0.0
 40
0.125
  1
4
  7
ROMANS
 72
     4
 11
5.268429291127176
 21
5.974983179940918
 31
0.0
100
AcDbText
  0
TEXT
  5
DD
330
1E
100
AcDbEntity
  8
TEXT_BUBBLES
100
AcDbText
 10
5.540247026416998
 20
7.668018949270729
 30
0.0
 40
0.125
  1
IMPACT SPRINKLER:
  7
SIMPLEX
100
AcDbText
  0
TEXT
  5
DE
330
1E
100
AcDbEntity
  8
TEXT_BUBBLES
100
AcDbText
 10
5.540247026416998
 20
7.493018949270728
 30
0.0
 40
0.125
  1
  RAIN BIRD 2045-PJ MAXI-BIRD
  7
SIMPLEX
100
AcDbText
  0
TEXT
  5
E0
330
1E
100
AcDbEntity
  8
TEXT_BUBBLES
100
AcDbText
 10
5.208905481603367
 20
6.61248317994092
 30
0.0
 40
0.125
  1
3
  7
ROMANS
 72
     4
 11
5.268429291127176
 21
6.67498317994092
 31
0.0
100
AcDbText
  0
TEXT
  5
E1
330
1E
100
AcDbEntity
  8
TEXT_BUBBLES
100
AcDbText
 10
5.540247026416998
 20
2.768018949270737
 30
0.0
 40
0.125
  1
PLANT MATERIAL
  7
SIMPLEX
100
AcDbText
  0
TEXT
  5
E2
330
1E
100
AcDbEntity
  8
TEXT_BUBBLES
100
AcDbText
 10
5.540247026416998
 20
3.118018949270727
 30
0.0
 40
0.125
  1
FINISH GRADE/TOP OF MULCH
  7
SIMPLEX
100
AcDbText
  0
TEXT
  5
E4
330
1E
100
AcDbEntity
  8
TEXT_BUBBLES
100
AcDbText
 10
5.208905481603367
 20
5.562483179940919
 30
0.0
 40
0.125
  1
5
  7
ROMANS
 72
     4
 11
5.268429291127176
 21
5.624983179940919
 31
0.0
100
AcDbText
  0
TEXT
  5
E6
330
1E
100
AcDbEntity
  8
TEXT_BUBBLES
100
AcDbText
 10
5.205929291127176
 20
5.212483179940919
 30
0.0
 40
0.125
  1
6
  7
ROMANS
 72
     4
 11
5.268429291127176
 21
5.274983179940919
 31
0.0
100
AcDbText
  0
TEXT
  5
E8
330
1E
100
AcDbEntity
  8
TEXT_BUBBLES
100
AcDbText
 10
5.208905481603367
 20
4.687483179940919
 30
0.0
 40
0.125
  1
7
  7
ROMANS
 72
     4
 11
5.268429291127176
 21
4.749983179940919
 31
0.0
100
AcDbText
  0
TEXT
  5
EA
330
1E
100
AcDbEntity
  8
TEXT_BUBBLES
100
AcDbText
 10
5.208905481603367
 20
4.337483179940919
 30
0.0
 40
0.125
  1
8
  7
ROMANS
 72
     4
 11
5.268429291127176
 21
4.399983179940919
 31
0.0
100
AcDbText
  0
TEXT
  5
EC
330
1E
100
AcDbEntity
  8
TEXT_BUBBLES
100
AcDbText
 10
5.211881672079558
 20
3.987483179940918
 30
0.0
 40
0.125
  1
9
  7
ROMANS
 72
     4
 11
5.268429291127176
 21
4.049983179940918
 31
0.0
100
AcDbText
  0
TEXT
  5
EE
330
1E
100
AcDbEntity
  8
TEXT_BUBBLES
100
AcDbText
 10
5.140453100650986
 20
3.112483179940918
 30
0.0
 40
0.125
  1
10
  7
ROMANS
 72
     4
 11
5.268429291127176
 21
3.174983179940918
 31
0.0
100
AcDbText
  0
TEXT
  5
EF
330
1E
100
AcDbEntity
  8
TEXT_BUBBLES
100
AcDbText
 10
5.208905481603367
 20
7.13748317994092
 30
0.0
 40
0.125
  1
2
  7
ROMANS
 72
     4
 11
5.268429291127176
 21
7.19998317994092
 31
0.0
100
AcDbText
  0
TEXT
  5
F1
330
1E
100
AcDbEntity
  8
TEXT_BUBBLES
100
AcDbText
 10
5.540247026416998
 20
3.818018949270727
 30
0.0
 40
0.125
  1
  WITH STAINLESS STEEL GEAR
  7
SIMPLEX
100
AcDbText
  0
TEXT
  5
F2
330
1E
100
AcDbEntity
  8
TEXT_LEADERS
100
AcDbText
 10
5.1700039
 20
7.812275175544435
 30
0.0
 40
0.125
  1
IMPACT SPRINKLER:
  7
SIMPLEX
100
AcDbText
  0
TEXT
  5
F3
330
1E
100
AcDbEntity
  8
TEXT_LEADERS
100
AcDbText
 10
5.1700039
 20
8.05915889
 30
0.0
 40
0.125
  1
PLANT MATERIAL
  7
SIMPLEX
100
AcDbText
  0
TEXT
  5
F4
330
1E
100
AcDbEntity
  8
TEXT_LEADERS
100
AcDbText
 10
5.1700039
 20
5.344336832477905
 30
0.0
 40
0.125
  1
PVC SCH 40 ELL
  7
SIMPLEX
100
AcDbText
  0
TEXT
  5
F5
330
1E
100
AcDbEntity
  8
TEXT_LEADERS
100
AcDbText
 10
5.1700039
 20
5.884007562436961
 30
0.0
 40
0.125
  1
  SUPPORT SYSTEM
  7
SIMPLEX
100
AcDbText
  0
TEXT
  5
F6
330
1E
100
AcDbEntity
  8
TEXT_LEADERS
100
AcDbText
 10
5.1700039
 20
3.144156745066122
 30
0.0
 40
0.125
  1
PVC LATERAL PIPE
  7
SIMPLEX
100
AcDbText
  0
TEXT
  5
F7
330
1E
100
AcDbEntity
  8
TEXT_LEADERS
100
AcDbText
 10
5.1700039
 20
5.617773454758464
 30
0.0
 40
0.125
  1
FINISH GRADE/TOP OF MULCH
  7
SIMPLEX
100
AcDbText
  0
TEXT
  5
F8
330
1E
100
AcDbEntity
  8
TEXT_LEADERS
100
AcDbText
 10
5.1700039
 20
7.000507618506917
 30
0.0
 40
0.125
  1
UV RADIATION RESISTANT
  7
SIMPLEX
100
AcDbText
  0
TEXT
  5
F9
330
1E
100
AcDbEntity
  8
TEXT_LEADERS
100
AcDbText
 10
5.1700039
 20
6.650507618506917
 30
0.0
 40
0.125
  1
  (LENGTH AS REQUIRED)
  7
SIMPLEX
100
AcDbText
  0
TEXT
  5
FA
330
1E
100
AcDbEntity
  8
TEXT_LEADERS
100
AcDbText
 10
5.1700039
 20
6.825507618506917
 30
0.0
 40
0.125
  1
  PVC SCH 80 NIPPLE
  7
SIMPLEX
100
AcDbText
  0
TEXT
  5
FB
330
1E
100
AcDbEntity
  8
TEXT_LEADERS
100
AcDbText
 10
5.1700039
 20
6.059007562436961
 30
0.0
 40
0.125
  1
  CLAMPS OR EQUIVALENT
  7
SIMPLEX
100
AcDbText
  0
TEXT
  5
FC
330
1E
100
AcDbEntity
  8
TEXT_LEADERS
100
AcDbText
 10
5.1700039
 20
6.234007562436961
 30
0.0
 40
0.125
  1
  WITH STAINLESS STEEL GEAR
  7
SIMPLEX
100
AcDbText
  0
TEXT
  5
FD
330
1E
100
AcDbEntity
  8
TEXT_LEADERS
100
AcDbText
 10
5.1700039
 20
6.409007562436961
 30
0.0
 40
0.125
  1
1-INCH GALVANIZED STEEL PIPE
  7
SIMPLEX
100
AcDbText
  0
TEXT
  5
FE
330
1E
100
AcDbEntity
  8
TEXT_LEADERS
100
AcDbText
 10
5.1700039
 20
5.029707537987457
 30
0.0
 40
0.125
  1
PVC SCH 40 STREET ELL
  7
SIMPLEX
100
AcDbText
  0
TEXT
  5
FF
330
1E
100
AcDbEntity
  8
TEXT_LEADERS
100
AcDbText
 10
5.1700039
 20
4.650514805309363
 30
0.0
 40
0.125
  1
PVC SCH 80 NIPPLE
  7
SIMPLEX
100
AcDbText
  0
TEXT
  5
100
330
1E
100
AcDbEntity
  8
TEXT_LEADERS
100
AcDbText
 10
5.1700039
 20
4.475514805309363
 30
0.0
 40
0.125
  1
  (LENGTH AS REQUIRED)
  7
SIMPLEX
100
AcDbText
  0
TEXT
  5
101
330
1E
100
AcDbEntity
  8
TEXT_LEADERS
100
AcDbText
 10
5.1700039
 20
3.349209105625187
 30
0.0
 40
0.125
  1
PVC SCH 40 TEE OR ELL
  7
SIMPLEX
100
AcDbText
  0
TEXT
  5
102
330
1E
100
AcDbEntity
  8
TEXT_LEADERS
100
AcDbText
 10
5.1700039
 20
4.263815015505228
 30
0.0
 40
0.125
  1
PVC SCH 40 STREET ELL
  7
SIMPLEX
100
AcDbText
  0
TEXT
  5
130
330
1E
100
AcDbEntity
  8
TEXT_LEADERS
100
AcDbText
 10
5.1700039
 20
7.401442877613513
 30
0.0
 40
0.125
  1
UV RADIATION RESISTANT
  7
SIMPLEX
100
AcDbText
  0
TEXT
  5
131
330
1E
100
AcDbEntity
  8
TEXT_LEADERS
100
AcDbText
 10
5.1700039
 20
7.226442877613513
 30
0.0
 40
0.125
  1
  PVC SCH 80 COUPLING
  7
SIMPLEX
100
AcDbText
  0
TEXT
  5
132
330
1E
100
AcDbEntity
  8
TEXT_BUBBLES
100
AcDbText
 10
5.540247026416998
 20
6.968018949270728
 30
0.0
 40
0.125
  1
  PVC SCH 80 COUPLING
  7
SIMPLEX
100
AcDbText
  0
TEXT
  5
133
330
1E
100
AcDbEntity
  8
TEXT_BUBBLES
100
AcDbText
 10
5.540247026416998
 20
7.143018949270729
 30
0.0
 40
0.125
  1
UV RADIATION RESISTANT
  7
SIMPLEX
100
AcDbText
  0
TEXT
  5
135
330
1E
100
AcDbEntity
  8
TEXT_BUBBLES
100
AcDbText
 10
5.158310243508129
 20
2.762483179940928
 30
0.0
 40
0.125
  1
11
  7
ROMANS
 72
     4
 11
5.268429291127176
 21
2.824983179940928
 31
0.0
100
AcDbText
  0
TEXT
  5
136
330
1E
100
AcDbEntity
  8
TEXT_LEADERS
100
AcDbText
 10
5.1700039
 20
7.637275175544434
 30
0.0
 40
0.125
  1
  RAIN BIRD 2045-PJ MAXI-BIRD
  7
SIMPLEX
100
AcDbText
  0
LINE
  5
14B
330
1E
100
AcDbEntity
  8
IMAGE
100
AcDbLine
 10
3.105015886768571
 20
5.731309101419816
 30
0.0
 11
3.083463196338323
 21
5.738334197090322
 31
0.0
  0
LINE
  5
14C
330
1E
100
AcDbEntity
  8
IMAGE
100
AcDbLine
 10
2.880001874739168
 20
5.804652379226689
 30
0.0
 11
1.706707122180993
 21
6.185050675525955
 31
0.0
  0
ARC
  5
14D
330
1E
100
AcDbEntity
  8
IMAGE
100
AcDbCircle
 10
2.674013691569354
 20
6.415869781960887
 30
0.0
 40
0.1818260367492528
100
AcDbArc
 50
289.0243376330851
 51
18.2230111215008
  0
ARC
  5
14E
330
1E
100
AcDbEntity
  8
IMAGE
100
AcDbCircle
 10
2.905990311153653
 20
6.30083503475932
 30
0.0
 40
0.1818260367492528
100
AcDbArc
 50
109.0243376330851
 51
198.2230111215008
  0
ARC
  5
14F
330
1E
100
AcDbEntity
  8
IMAGE
100
AcDbCircle
 10
2.392462078676917
 20
6.566816858843303
 30
0.0
 40
0.1818260367492528
100
AcDbArc
 50
316.4987827070745
 51
45.69745619549032
  0
ARC
  5
150
330
1E
100
AcDbEntity
  8
IMAGE
100
AcDbCircle
 10
2.651347227331387
 20
6.571779207444592
 30
0.0
 40
0.1818260367492528
100
AcDbArc
 50
136.4987827070746
 51
225.6974561954903
  0
ARC
  5
151
330
1E
100
AcDbEntity
  8
IMAGE
100
AcDbCircle
 10
2.456197550490416
 20
6.131754722717106
 30
0.0
 40
0.1818260367492528
100
AcDbArc
 50
272.8351313760581
 51
2.0338048644738
  0
ARC
  5
152
330
1E
100
AcDbEntity
  8
IMAGE
100
AcDbCircle
 10
2.646902561519862
 20
5.956604090786342
 30
0.0
 40
0.1818260367492528
100
AcDbArc
 50
92.83513137605813
 51
182.0338048644738
  0
ARC
  5
153
330
1E
100
AcDbEntity
  8
IMAGE
100
AcDbCircle
 10
2.001268656002361
 20
6.803125612999178
 30
0.0
 40
0.1818260367492528
100
AcDbArc
 50
289.0243376330851
 51
18.2230111215008
  0
ARC
  5
154
330
1E
100
AcDbEntity
  8
IMAGE
100
AcDbCircle
 10
2.233245275586662
 20
6.688090865797608
 30
0.0
 40
0.1818260367492528
100
AcDbArc
 50
109.0243376330851
 51
198.2230111215008
  0
ARC
  5
155
330
1E
100
AcDbEntity
  8
IMAGE
100
AcDbCircle
 10
1.934113898719742
 20
6.599427257982515
 30
0.0
 40
0.1818260367492528
100
AcDbArc
 50
289.0243376330851
 51
18.2230111215008
  0
ARC
  5
156
330
1E
100
AcDbEntity
  8
IMAGE
100
AcDbCircle
 10
2.166090518304041
 20
6.484392510780946
 30
0.0
 40
0.1818260367492528
100
AcDbArc
 50
109.0243376330851
 51
198.2230111215008
  0
ARC
  5
157
330
1E
100
AcDbEntity
  8
IMAGE
100
AcDbCircle
 10
1.923623235291007
 20
6.448208794244635
 30
0.0
 40
0.1818260367492528
100
AcDbArc
 50
272.8351313760581
 51
2.0338048644738
  0
ARC
  5
158
330
1E
100
AcDbEntity
  8
IMAGE
100
AcDbCircle
 10
2.114328246320452
 20
6.273058162313871
 30
0.0
 40
0.1818260367492528
100
AcDbArc
 50
92.83513137605813
 51
182.0338048644738
  0
ARC
  5
159
330
1E
100
AcDbEntity
  8
IMAGE
100
AcDbCircle
 10
2.100130620374121
 20
6.706861825399158
 30
0.0
 40
0.1818260367492528
100
AcDbArc
 50
316.4987827070745
 51
45.69745619549032
  0
ARC
  5
15A
330
1E
100
AcDbEntity
  8
IMAGE
100
AcDbCircle
 10
2.359015769028591
 20
6.711824174000446
 30
0.0
 40
0.1818260367492528
100
AcDbArc
 50
136.4987827070746
 51
225.6974561954903
  0
ARC
  5
15B
330
1E
100
AcDbEntity
  8
IMAGE
100
AcDbCircle
 10
2.282153141534053
 20
6.43397939732198
 30
0.0
 40
0.1818260367492528
100
AcDbArc
 50
92.83513137605813
 51
182.0338048644738
  0
ARC
  5
15C
330
1E
100
AcDbEntity
  8
IMAGE
100
AcDbCircle
 10
2.091448130504606
 20
6.609130029252744
 30
0.0
 40
0.1818260367492528
100
AcDbArc
 50
272.8351313760581
 51
2.0338048644738
  0
ARC
  5
15D
330
1E
100
AcDbEntity
  8
IMAGE
100
AcDbCircle
 10
2.004679708758779
 20
6.370763429707636
 30
0.0
 40
0.1818260367492528
100
AcDbArc
 50
289.0243376330851
 51
18.2230111215008
  0
ARC
  5
15E
330
1E
100
AcDbEntity
  8
IMAGE
100
AcDbCircle
 10
2.236656328343078
 20
6.255728682506068
 30
0.0
 40
0.1818260367492528
100
AcDbArc
 50
109.0243376330851
 51
198.2230111215008
  0
ARC
  5
15F
330
1E
100
AcDbEntity
  8
IMAGE
100
AcDbCircle
 10
1.932632763079265
 20
6.305810244618598
 30
0.0
 40
0.1818260367492528
100
AcDbArc
 50
272.8351313760581
 51
2.0338048644738
  0
ARC
  5
160
330
1E
100
AcDbEntity
  8
IMAGE
100
AcDbCircle
 10
2.12333777410871
 20
6.130659612687834
 30
0.0
 40
0.1818260367492528
100
AcDbArc
 50
92.83513137605813
 51
182.0338048644738
  0
INSERT
  5
161
330
1E
100
AcDbEntity
  8
IMAGE
100
AcDbBlockReference
  2
*X0
 10
4.59894999915136
 20
1.788018944585261
 30
0.0
 41
-1.0
1001
ACAD
1000
HATCH
1002
{
1070
    16
1000
ANSI31
1040
0.15
1040
0.0
1002
}
  0
LWPOLYLINE
  5
162
330
1E
100
AcDbEntity
  8
IMAGE
100
AcDbPolyline
 90
        3
 70
     0
 43
0.0
 10
2.362567003436084
 20
3.65684198795029
 42
1.0
 10
2.362567003436084
 20
3.787056323826781
 42
-1.0
 10
2.362567003436084
 20
3.917270659703273
 42
-1.0
  0
ARC
  5
167
330
1E
100
AcDbEntity
  8
IMAGE
100
AcDbCircle
 10
2.362567003436084
 20
3.787056323826781
 30
0.0
 40
0.1302143358764916
100
AcDbArc
 50
90.0
 51
270.0
  0
LINE
  5
168
330
1E
100
AcDbEntity
  8
IMAGE
100
AcDbLine
 10
3.012050377759634
 20
4.042477987642207
 30
0.0
 11
2.836535606311301
 21
4.042464985210834
 31
0.0
  0
LINE
  5
169
330
1E
100
AcDbEntity
  8
IMAGE
100
AcDbLine
 10
3.033989723709054
 20
4.068401609135543
 30
0.0
 11
2.814596264214849
 21
4.068401609135543
 31
0.0
  0
LINE
  5
16A
330
1E
100
AcDbEntity
  8
IMAGE
100
AcDbLine
 10
2.798644504625055
 20
3.927976534773746
 30
0.0
 11
2.798644504625054
 21
4.012583550816895
 31
0.0
  0
LINE
  5
16B
330
1E
100
AcDbEntity
  8
IMAGE
100
AcDbLine
 10
2.697696817916116
 20
3.895049725203311
 30
0.0
 11
2.768947032058199
 21
3.895091921070451
 31
0.0
  0
ARC
  5
16C
330
1E
100
AcDbEntity
  8
IMAGE
100
AcDbCircle
 10
2.764175967571479
 20
3.929496682513309
 30
0.0
 40
0.0345020419071655
100
AcDbArc
 50
265.6969257657568
 51
357.4747507850247
  0
LINE
  5
16D
330
1E
100
AcDbEntity
  8
IMAGE
100
AcDbLine
 10
2.698845655535081
 20
3.675558230943873
 30
0.0
 11
2.922494969126173
 21
3.675690680745403
 31
0.0
  0
LINE
  5
16E
330
1E
100
AcDbEntity
  8
IMAGE
100
AcDbLine
 10
3.050174489470176
 20
4.012583550816895
 30
0.0
 11
3.050189611120114
 21
3.806776024343263
 31
0.0
  0
ARC
  5
16F
330
1E
100
AcDbEntity
  8
IMAGE
100
AcDbCircle
 10
2.920841791519338
 20
3.805039591213521
 30
0.0
 40
0.1293594744712923
100
AcDbArc
 50
270.0
 51
0.7691224641491505
  0
LINE
  5
170
330
1E
100
AcDbEntity
  8
IMAGE
100
AcDbLine
 10
2.6978281010102
 20
3.909609636458321
 30
0.0
 11
2.6978281010102
 21
3.66069328127957
 31
0.0
  0
LINE
  5
171
330
1E
100
AcDbEntity
  8
IMAGE
100
AcDbLine
 10
2.469207238417378
 20
3.66069328127957
 30
0.0
 11
2.6978281010102
 21
3.66069328127957
 31
0.0
  0
LINE
  5
172
330
1E
100
AcDbEntity
  8
IMAGE
100
AcDbLine
 10
2.469207238417378
 20
3.909609636458321
 30
0.0
 11
2.6978281010102
 21
3.909609636458321
 31
0.0
  0
ARC
  5
173
330
1E
100
AcDbEntity
  8
IMAGE
100
AcDbCircle
 10
2.362567003436084
 20
3.787056323826781
 30
0.0
 40
0.1302143358764916
100
AcDbArc
 50
270.0
 51
90.0
  0
CIRCLE
  5
174
330
1E
100
AcDbEntity
  8
IMAGE
100
AcDbCircle
 10
2.362567003436084
 20
3.787056323826781
 30
0.0
 40
0.1624544679404956
  0
LINE
  5
175
330
1E
100
AcDbEntity
  8
IMAGE
100
AcDbLine
 10
3.050183121959951
 20
4.012583550816895
 30
0.0
 11
2.798644504625054
 21
4.012583550816895
 31
0.0
  0
LINE
  5
176
330
1E
100
AcDbEntity
  8
IMAGE
100
AcDbLine
 10
3.012050377759634
 20
4.471296819278062
 30
0.0
 11
2.836535606311301
 21
4.471309821709436
 31
0.0
  0
LINE
  5
177
330
1E
100
AcDbEntity
  8
IMAGE
100
AcDbLine
 10
3.033989723709054
 20
4.445373197784729
 30
0.0
 11
2.814596264214849
 21
4.445373197784729
 31
0.0
  0
LINE
  5
178
330
1E
100
AcDbEntity
  8
IMAGE
100
AcDbLine
 10
3.033989723709054
 20
4.501191256103377
 30
0.0
 11
2.814596264214849
 21
4.501191256103377
 31
0.0
  0
LINE
  5
179
330
1E
100
AcDbEntity
  8
IMAGE
100
AcDbLine
 10
2.814596264214849
 20
4.501191256103377
 30
0.0
 11
2.814596264214849
 21
4.012583550816895
 31
0.0
  0
LINE
  5
17A
330
1E
100
AcDbEntity
  8
IMAGE
100
AcDbLine
 10
3.033989723709054
 20
4.501191256103377
 30
0.0
 11
3.033989723709054
 21
4.012583550816895
 31
0.0
  0
LWPOLYLINE
  5
17B
330
1E
100
AcDbEntity
  8
IMAGE
100
AcDbPolyline
 90
        4
 70
     0
 43
0.0
 10
3.049941483298849
 20
4.802595270185523
 10
3.049941483298849
 20
4.501191256103377
 10
2.798644504625054
 20
4.501191256103377
 10
2.798644504625054
 20
4.791139445530767
  0
LWPOLYLINE
  5
181
330
1E
100
AcDbEntity
  8
IMAGE
100
AcDbPolyline
 90
        2
 70
     0
 43
0.0
 10
2.348555931195924
 20
4.192634573482157
 10
2.551791727091639
 20
4.125632311517888
  0
LINE
  5
185
330
1E
100
AcDbEntity
  8
IMAGE
100
AcDbLine
 10
3.669157855245057
 20
6.842605429743734
 30
0.0
 11
3.513346951805375
 21
6.893985570986764
 31
0.0
  0
LINE
  5
186
330
1E
100
AcDbEntity
  8
IMAGE
100
AcDbLine
 10
3.498826793267953
 20
6.915441570314907
 30
0.0
 11
3.488905829865413
 21
6.885348632642999
 31
0.0
  0
LINE
  5
187
330
1E
100
AcDbEntity
  8
IMAGE
100
AcDbLine
 10
3.693595175132813
 20
6.85123082394244
 30
0.0
 11
3.683674211730273
 21
6.821137886270534
 31
0.0
  0
LINE
  5
188
330
1E
100
AcDbEntity
  8
IMAGE
100
AcDbLine
 10
3.791551157982955
 20
7.257247326970523
 30
0.0
 11
3.784645977811413
 21
7.236302067111758
 31
0.0
  0
LINE
  5
189
330
1E
100
AcDbEntity
  8
IMAGE
100
AcDbLine
 10
3.805512592703377
 20
7.490667413626587
 30
0.0
 11
3.810331691366357
 21
7.483273229858285
 31
0.0
  0
LINE
  5
18A
330
1E
100
AcDbEntity
  8
IMAGE
100
AcDbLine
 10
3.784150116542903
 20
7.491904705072711
 30
0.0
 11
3.792421805291643
 21
7.494983151233803
 31
0.0
  0
LINE
  5
18B
330
1E
100
AcDbEntity
  8
IMAGE
100
AcDbLine
 10
3.805512592703377
 20
7.490667413626587
 30
0.0
 11
3.792421805291643
 21
7.494983151233803
 31
0.0
  0
LINE
  5
18C
330
1E
100
AcDbEntity
  8
IMAGE
100
AcDbLine
 10
3.810331691366357
 20
7.483273229858285
 30
0.0
 11
3.784150116542903
 21
7.491904705072711
 31
0.0
  0
LINE
  5
18D
330
1E
100
AcDbEntity
  8
IMAGE
100
AcDbLine
 10
3.806879101280587
 20
7.472800599928907
 30
0.0
 11
3.810331691366357
 21
7.483273229858285
 31
0.0
  0
LINE
  5
18E
330
1E
100
AcDbEntity
  8
IMAGE
100
AcDbLine
 10
3.780697526457134
 20
7.481432075143334
 30
0.0
 11
3.784150116542903
 21
7.491904705072711
 31
0.0
  0
ARC
  5
18F
330
1E
100
AcDbEntity
  8
IMAGE
100
AcDbCircle
 10
3.906535207643918
 20
7.15204443031663
 30
0.0
 40
0.0408001729505316
100
AcDbArc
 50
175.2036875866822
 51
216.2203348791476
  0
ARC
  5
190
330
1E
100
AcDbEntity
  8
IMAGE
100
AcDbCircle
 10
3.906665679157223
 20
7.156461744341543
 30
0.0
 40
0.0408001729505316
100
AcDbArc
 50
175.2036875866822
 51
224.5915708693221
  0
ARC
  5
191
330
1E
100
AcDbEntity
  8
IMAGE
100
AcDbCircle
 10
3.906535207643918
 20
7.15204443031663
 30
0.0
 40
0.0408001729505316
100
AcDbArc
 50
229.8784917574294
 51
1.412675075524999
  0
ARC
  5
192
330
1E
100
AcDbEntity
  8
IMAGE
100
AcDbCircle
 10
3.906665679157223
 20
7.156461744341543
 30
0.0
 40
0.0408001729505316
100
AcDbArc
 50
241.3940282105551
 51
1.412675075524999
  0
ARC
  5
193
330
1E
100
AcDbEntity
  8
IMAGE
100
AcDbCircle
 10
3.906535207643918
 20
7.15204443031663
 30
0.0
 40
0.0339082518440229
100
AcDbArc
 50
5.796805950931305
 51
170.8195567112758
  0
ARC
  5
194
330
1E
100
AcDbEntity
  8
IMAGE
100
AcDbCircle
 10
3.906665679157223
 20
7.156461744341543
 30
0.0
 40
0.0339082518440229
100
AcDbArc
 50
2.04448971161508
 51
174.571872950592
  0
LINE
  5
195
330
1E
100
AcDbEntity
  8
IMAGE
100
AcDbLine
 10
3.90559158613339
 20
7.120096670782237
 30
0.0
 11
3.850783731880579
 21
7.121715496983938
 31
0.0
  0
LINE
  5
196
330
1E
100
AcDbEntity
  8
IMAGE
100
AcDbLine
 10
3.905795059872767
 20
7.126985587603886
 30
0.0
 11
3.85303491299948
 21
7.1285439319202
 31
0.0
  0
CIRCLE
  5
197
330
1E
100
AcDbEntity
  8
IMAGE
100
AcDbCircle
 10
3.906796150670511
 20
7.160879058366454
 30
0.0
 40
0.0339082518440229
  0
ARC
  5
198
330
1E
100
AcDbEntity
  8
IMAGE
100
AcDbCircle
 10
3.906796150670511
 20
7.160879058366454
 30
0.0
 40
0.0408001729505316
100
AcDbArc
 50
268.3081813311035
 51
234.5181331747903
  0
LINE
  5
199
330
1E
100
AcDbEntity
  8
IMAGE
100
AcDbLine
 10
3.736710346539696
 20
6.940788883778028
 30
0.0
 11
3.733473543334285
 21
6.930970793219229
 31
0.0
  0
LINE
  5
19A
330
1E
100
AcDbEntity
  8
IMAGE
100
AcDbLine
 10
3.747499690557729
 20
6.973515852307343
 30
0.0
 11
3.74102608414691
 21
6.953879671189756
 31
0.0
  0
LINE
  5
19B
330
1E
100
AcDbEntity
  8
IMAGE
100
AcDbLine
 10
3.785534761346785
 20
6.939206163325229
 30
0.0
 11
3.824592187397249
 21
7.057677791540367
 31
0.0
  0
LINE
  5
19C
330
1E
100
AcDbEntity
  8
IMAGE
100
AcDbLine
 10
3.772443973935051
 20
6.943521900932445
 30
0.0
 11
3.81150140007017
 21
7.061993529404363
 31
0.0
  0
ARC
  5
19D
330
1E
100
AcDbEntity
  8
IMAGE
100
AcDbCircle
 10
3.734592913880126
 20
6.948743748031878
 30
0.0
 40
0.0068919211065088
100
AcDbArc
 50
71.75377673145021
 51
251.7537767314469
  0
LINE
  5
19E
330
1E
100
AcDbEntity
  8
IMAGE
100
AcDbLine
 10
3.793389233793817
 20
6.936616720760902
 30
0.0
 11
3.789073496186603
 21
6.923525933349175
 31
0.0
  0
ARC
  5
19F
330
1E
100
AcDbEntity
  8
IMAGE
100
AcDbCircle
 10
3.672084832110343
 20
6.969351253964406
 30
0.0
 40
0.0068919211065088
100
AcDbArc
 50
71.75377673145021
 51
251.7537767314469
  0
ARC
  5
1A0
330
1E
100
AcDbEntity
  8
IMAGE
100
AcDbCircle
 10
3.711357194345529
 20
6.956404041142763
 30
0.0
 40
0.0068919211065088
100
AcDbArc
 50
251.7537767314502
 51
71.753776731447
  0
LINE
  5
1A1
330
1E
100
AcDbEntity
  8
IMAGE
100
AcDbLine
 10
3.792008367757604
 20
6.958842344442816
 30
0.0
 11
3.845680596145677
 21
6.941147820253243
 31
0.0
  0
LINE
  5
1A2
330
1E
100
AcDbEntity
  8
IMAGE
100
AcDbLine
 10
3.796324105364819
 20
6.97193313185455
 30
0.0
 11
3.849996333752892
 21
6.954238607664978
 31
0.0
  0
ARC
  5
1A3
330
1E
100
AcDbEntity
  8
IMAGE
100
AcDbCircle
 10
3.83704912093125
 20
6.914966245429791
 30
0.0
 40
0.0068919211065088
100
AcDbArc
 50
251.7537767314502
 51
71.753776731447
  0
ARC
  5
1A4
330
1E
100
AcDbEntity
  8
IMAGE
100
AcDbCircle
 10
3.847838464949284
 20
6.94769321395911
 30
0.0
 40
0.0068919211065086
100
AcDbArc
 50
251.7537767314502
 51
71.753776731447
  0
LINE
  5
1A5
330
1E
100
AcDbEntity
  8
IMAGE
100
AcDbLine
 10
3.520712354246187
 20
7.011998554297054
 30
0.0
 11
3.517475551040775
 21
7.002180463738254
 31
0.0
  0
LINE
  5
1A6
330
1E
100
AcDbEntity
  8
IMAGE
100
AcDbLine
 10
3.53150169826422
 20
7.044725522826368
 30
0.0
 11
3.525028091853401
 21
7.025089341708781
 31
0.0
  0
LINE
  5
1A7
330
1E
100
AcDbEntity
  8
IMAGE
100
AcDbLine
 10
3.53150169826422
 20
7.044725522826368
 30
0.0
 11
3.77891758034587
 21
6.963158082050032
 31
0.0
  0
LINE
  5
1A8
330
1E
100
AcDbEntity
  8
IMAGE
100
AcDbLine
 10
3.535817435871435
 20
7.0578163102381
 30
0.0
 11
3.783233317953086
 21
6.976248869461764
 31
0.0
  0
ARC
  5
1A9
330
1E
100
AcDbEntity
  8
IMAGE
100
AcDbCircle
 10
3.533659567067827
 20
7.051270916532235
 30
0.0
 40
0.0068919211065087
100
AcDbArc
 50
71.75377673144858
 51
251.7537767314485
  0
ARC
  5
1AA
330
1E
100
AcDbEntity
  8
IMAGE
100
AcDbCircle
 10
3.522870223049793
 20
7.018543948002914
 30
0.0
 40
0.0068919211065087
100
AcDbArc
 50
71.75377673144858
 51
251.7537767314485
  0
LINE
  5
1AB
330
1E
100
AcDbEntity
  8
IMAGE
100
AcDbLine
 10
3.520712354246187
 20
7.011998554297054
 30
0.0
 11
3.834891252127644
 21
6.90842085172393
 31
0.0
  0
LINE
  5
1AC
330
1E
100
AcDbEntity
  8
IMAGE
100
AcDbLine
 10
3.525028091853401
 20
7.025089341708781
 30
0.0
 11
3.839206989734858
 21
6.921511639135657
 31
0.0
  0
LINE
  5
1AD
330
1E
100
AcDbEntity
  8
IMAGE
100
AcDbLine
 10
3.835525105300181
 20
7.046816658088289
 30
0.0
 11
3.822434317888461
 21
7.0511323956955
 31
0.0
  0
LINE
  5
1AE
330
1E
100
AcDbEntity
  8
IMAGE
100
AcDbLine
 10
3.839840842907394
 20
7.059907445500014
 30
0.0
 11
3.820204659650806
 21
7.066381052616014
 31
0.0
  0
LINE
  5
1AF
330
1E
100
AcDbEntity
  8
IMAGE
100
AcDbLine
 10
3.815960711477639
 20
7.031496214577906
 30
0.0
 11
3.82905149888936
 21
7.027180476970695
 31
0.0
  0
ARC
  5
1B0
330
1E
100
AcDbEntity
  8
IMAGE
100
AcDbCircle
 10
3.818046792986201
 20
7.059835658204974
 30
0.0
 40
0.0068919211065087
100
AcDbArc
 50
341.7537954554148
 51
161.7537954554149
  0
ARC
  5
1B1
330
1E
100
AcDbEntity
  8
IMAGE
100
AcDbCircle
 10
3.760215909049538
 20
6.884419106887818
 30
0.0
 40
0.0068919211065087
100
AcDbArc
 50
161.7537954554165
 51
341.7537954554165
  0
LINE
  5
1B2
330
1E
100
AcDbEntity
  8
IMAGE
100
AcDbLine
 10
3.753670516133506
 20
6.886576978087205
 30
0.0
 11
3.768128236327838
 21
6.930431113520716
 31
0.0
  0
LINE
  5
1B3
330
1E
100
AcDbEntity
  8
IMAGE
100
AcDbLine
 10
3.766761303460587
 20
6.882261240223218
 30
0.0
 11
3.781219023739571
 21
6.926115375913502
 31
0.0
  0
LINE
  5
1B4
330
1E
100
AcDbEntity
  8
IMAGE
100
AcDbLine
 10
3.804956005574469
 20
7.064151395812189
 30
0.0
 11
3.800640267967253
 21
7.051060608400456
 31
0.0
  0
ARC
  5
1B5
330
1E
100
AcDbEntity
  8
IMAGE
100
AcDbCircle
 10
3.818046792986201
 20
7.059835658204974
 30
0.0
 40
0.0137838422130174
100
AcDbArc
 50
71.75377673144858
 51
161.7537767314485
  0
LINE
  5
1B6
330
1E
100
AcDbEntity
  8
IMAGE
100
AcDbLine
 10
3.781004086849666
 20
7.057534214811276
 30
0.0
 11
3.80718566167312
 21
7.048902739596849
 31
0.0
  0
LINE
  5
1B7
330
1E
100
AcDbEntity
  8
IMAGE
100
AcDbLine
 10
3.846314449318213
 20
7.079543626617603
 30
0.0
 11
3.837805437500592
 21
7.08234885606229
 31
0.0
  0
LINE
  5
1B8
330
1E
100
AcDbEntity
  8
IMAGE
100
AcDbLine
 10
3.82905149888936
 20
7.027180476970695
 30
0.0
 11
3.846314449318213
 21
7.079543626617603
 31
0.0
  0
LINE
  5
1B9
330
1E
100
AcDbEntity
  8
IMAGE
100
AcDbLine
 10
3.776688349242452
 20
7.044443427399547
 30
0.0
 11
3.802869924065906
 21
7.035811952185122
 31
0.0
  0
LINE
  5
1BA
330
1E
100
AcDbEntity
  8
IMAGE
100
AcDbLine
 10
3.789635562064094
 20
7.083715789634734
 30
0.0
 11
3.776688349242452
 21
7.044443427399547
 31
0.0
  0
ARC
  5
1BB
330
1E
100
AcDbEntity
  8
IMAGE
100
AcDbCircle
 10
3.732726955465833
 20
7.157628912399694
 30
0.0
 40
0.0275676844260349
100
AcDbArc
 50
95.33195520964566
 51
138.1755982532494
  0
LINE
  5
1BC
330
1E
100
AcDbEntity
  8
IMAGE
100
AcDbLine
 10
3.718801735450672
 20
7.150608872556086
 30
0.0
 11
3.705278555691736
 21
7.155067160176161
 31
0.0
  0
LINE
  5
1BD
330
1E
100
AcDbEntity
  8
IMAGE
100
AcDbLine
 10
3.725706915622213
 20
7.171554132414843
 30
0.0
 11
3.712183735863276
 21
7.17601242003492
 31
0.0
  0
ARC
  5
1BE
330
1E
100
AcDbEntity
  8
IMAGE
100
AcDbCircle
 10
3.732726955465833
 20
7.157628912399694
 30
0.0
 40
0.0275676844260349
100
AcDbArc
 50
185.3319552096476
 51
228.1755982532514
  0
LINE
  5
1BF
330
1E
100
AcDbEntity
  8
IMAGE
100
AcDbLine
 10
3.859015576769758
 20
7.146684886056723
 30
0.0
 11
3.815161438940473
 21
7.161142607040888
 31
0.0
  0
LINE
  5
1C0
330
1E
100
AcDbEntity
  8
IMAGE
100
AcDbLine
 10
3.856794682972334
 20
7.1399483206739
 30
0.0
 11
3.812940545143048
 21
7.154406041658065
 31
0.0
  0
LINE
  5
1C1
330
1E
100
AcDbEntity
  8
IMAGE
100
AcDbLine
 10
3.842984322629247
 20
7.098057800956363
 30
0.0
 11
3.799130184799961
 21
7.112515521940528
 31
0.0
  0
LINE
  5
1C2
330
1E
100
AcDbEntity
  8
IMAGE
100
AcDbLine
 10
3.876772429773513
 20
7.244979747236881
 30
0.0
 11
3.872065854908655
 21
7.230703445802278
 31
0.0
  0
LINE
  5
1C3
330
1E
100
AcDbEntity
  8
IMAGE
100
AcDbLine
 10
3.981498729067341
 20
7.21045384637917
 30
0.0
 11
3.976792154202483
 21
7.196177544944568
 31
0.0
  0
LINE
  5
1C4
330
1E
100
AcDbEntity
  8
IMAGE
100
AcDbLine
 10
3.981498729067341
 20
7.21045384637917
 30
0.0
 11
3.876772429773513
 21
7.244979747236881
 31
0.0
  0
LINE
  5
1C5
330
1E
100
AcDbEntity
  8
IMAGE
100
AcDbLine
 10
3.7571234171278
 20
7.305752164740912
 30
0.0
 11
3.739237390513672
 21
7.311648784651879
 31
0.0
  0
LINE
  5
1C6
330
1E
100
AcDbEntity
  8
IMAGE
100
AcDbLine
 10
3.761916270091531
 20
7.318105114417647
 30
0.0
 11
3.743380498616599
 21
7.324215940567142
 31
0.0
  0
LINE
  5
1C7
330
1E
100
AcDbEntity
  8
IMAGE
100
AcDbLine
 10
3.767503537733848
 20
7.323229640831389
 30
0.0
 11
3.760634721394688
 21
7.325494134788826
 31
0.0
  0
LINE
  5
1C8
330
1E
100
AcDbEntity
  8
IMAGE
100
AcDbLine
 10
3.777326642613072
 20
7.298472993775884
 30
0.0
 11
3.775168773809469
 21
7.291927600070032
 31
0.0
  0
ARC
  5
1C9
330
1E
100
AcDbEntity
  8
IMAGE
100
AcDbCircle
 10
3.767453715602323
 20
7.305356272535059
 30
0.0
 40
0.0034459605532544
100
AcDbArc
 50
161.7537767314485
 51
251.7537767314485
  0
ARC
  5
1CA
330
1E
100
AcDbEntity
  8
IMAGE
100
AcDbCircle
 10
3.767453715602323
 20
7.305356272535059
 30
0.0
 40
0.0103378816597631
100
AcDbArc
 50
161.7537767314485
 51
251.7537767314485
  0
LINE
  5
1CB
330
1E
100
AcDbEntity
  8
IMAGE
100
AcDbLine
 10
3.766374781200517
 20
7.30208357568212
 30
0.0
 11
3.777326642613072
 21
7.298472993775884
 31
0.0
  0
LINE
  5
1CC
330
1E
100
AcDbEntity
  8
IMAGE
100
AcDbLine
 10
3.764216912396914
 20
7.295538181976267
 30
0.0
 11
3.775168773809469
 21
7.291927600070032
 31
0.0
  0
LINE
  5
1CD
330
1E
100
AcDbEntity
  8
IMAGE
100
AcDbLine
 10
3.765357591088554
 20
7.310004065789813
 30
0.0
 11
3.76418101874939
 21
7.306435206936862
 31
0.0
  0
LINE
  5
1CE
330
1E
100
AcDbEntity
  8
IMAGE
100
AcDbLine
 10
3.758812197382674
 20
7.312161934593424
 30
0.0
 11
3.75763562504351
 21
7.308593075740475
 31
0.0
  0
LINE
  5
1CF
330
1E
100
AcDbEntity
  8
IMAGE
100
AcDbLine
 10
3.779690055257187
 20
7.326326773561962
 30
0.0
 11
3.7733976578816
 21
7.328988657567862
 31
0.0
  0
LINE
  5
1D0
330
1E
100
AcDbEntity
  8
IMAGE
100
AcDbLine
 10
3.811465139823041
 20
7.312377826406049
 30
0.0
 11
3.811342017302523
 21
7.312004362843527
 31
0.0
  0
ARC
  5
1D1
330
1E
100
AcDbEntity
  8
IMAGE
100
AcDbCircle
 10
3.778448378500274
 20
7.305688328182602
 30
0.0
 40
0.0206757633195262
100
AcDbArc
 50
77.30112592096627
 51
161.7537767314485
  0
LINE
  5
1D2
330
1E
100
AcDbEntity
  8
IMAGE
100
AcDbLine
 10
3.782993470227608
 20
7.325858338842873
 30
0.0
 11
3.815845795774184
 21
7.318455425895511
 31
0.0
  0
LINE
  5
1D3
330
1E
100
AcDbEntity
  8
IMAGE
100
AcDbLine
 10
3.781478439651835
 20
7.319135001956116
 30
0.0
 11
3.814330765198397
 21
7.311732089008756
 31
0.0
  0
ARC
  5
1D4
330
1E
100
AcDbEntity
  8
IMAGE
100
AcDbCircle
 10
3.815088280486284
 20
7.315093757452135
 30
0.0
 40
0.0034459605532544
100
AcDbArc
 50
257.3011259209656
 51
77.30112592096594
  0
ARC
  5
1D5
330
1E
100
AcDbEntity
  8
IMAGE
100
AcDbCircle
 10
3.778448378500274
 20
7.305688328182602
 30
0.0
 40
0.0137838422130174
100
AcDbArc
 50
77.3011259209665
 51
161.7537767314485
  0
LINE
  5
1D6
330
1E
100
AcDbEntity
  8
IMAGE
100
AcDbLine
 10
3.807408313232133
 20
7.322084185416125
 30
0.0
 11
3.775562723644938
 21
7.335555881579095
 31
0.0
  0
LINE
  5
1D7
330
1E
100
AcDbEntity
  8
IMAGE
100
AcDbLine
 10
3.725353621961787
 20
7.3558129603164
 30
0.0
 11
3.713277075361714
 21
7.319181561793669
 31
0.0
  0
LINE
  5
1D8
330
1E
100
AcDbEntity
  8
IMAGE
100
AcDbLine
 10
3.778144172925411
 20
7.343386108256531
 30
0.0
 11
3.772215274077663
 21
7.325402170986626
 31
0.0
  0
LINE
  5
1D9
330
1E
100
AcDbEntity
  8
IMAGE
100
AcDbLine
 10
3.81463424302715
 20
7.364253220745085
 30
0.0
 11
3.819313903478498
 21
7.378447883558985
 31
0.0
  0
LINE
  5
1DA
330
1E
100
AcDbEntity
  8
IMAGE
100
AcDbLine
 10
3.821480014990375
 20
7.385018279605466
 30
0.0
 11
3.82615967544172
 21
7.399212942419358
 31
0.0
  0
LINE
  5
1DB
330
1E
100
AcDbEntity
  8
IMAGE
100
AcDbLine
 10
3.828325786953602
 20
7.40578333846585
 30
0.0
 11
3.833005447404948
 21
7.419978001279744
 31
0.0
  0
LINE
  5
1DC
330
1E
100
AcDbEntity
  8
IMAGE
100
AcDbLine
 10
3.71373309077349
 20
7.410381816501939
 30
0.0
 11
3.718412751224835
 21
7.424576479315831
 31
0.0
  0
LINE
  5
1DD
330
1E
100
AcDbEntity
  8
IMAGE
100
AcDbLine
 10
3.720578862736715
 20
7.431146875362317
 30
0.0
 11
3.72525852318806
 21
7.44534153817621
 31
0.0
  0
LINE
  5
1DE
330
1E
100
AcDbEntity
  8
IMAGE
100
AcDbLine
 10
3.72742463469994
 20
7.451911934222696
 30
0.0
 11
3.73218155699557
 21
7.466340952891977
 31
0.0
  0
LINE
  5
1DF
330
1E
100
AcDbEntity
  8
IMAGE
100
AcDbLine
 10
3.721726207890875
 20
7.350847322569777
 30
0.0
 11
3.69042401890735
 21
7.364089143012998
 31
0.0
  0
ARC
  5
1E0
330
1E
100
AcDbEntity
  8
IMAGE
100
AcDbCircle
 10
3.691784082997714
 20
7.367255350492726
 30
0.0
 40
0.0034459605532544
100
AcDbArc
 50
66.75375800747956
 51
246.7537580074795
  0
LINE
  5
1E1
330
1E
100
AcDbEntity
  8
IMAGE
100
AcDbLine
 10
3.816448342383051
 20
7.318259965874137
 30
0.0
 11
3.81377691650184
 21
7.319390063895873
 31
0.0
  0
LINE
  5
1E2
330
1E
100
AcDbEntity
  8
IMAGE
100
AcDbLine
 10
3.782413356388538
 20
7.364757693920005
 30
0.0
 11
3.811625562658066
 21
7.355127087813443
 31
0.0
  0
LINE
  5
1E3
330
1E
100
AcDbEntity
  8
IMAGE
100
AcDbLine
 10
3.780660876072075
 20
7.463711464712142
 30
0.0
 11
3.782481251336049
 21
7.46923315017106
 31
0.0
  0
LINE
  5
1E4
330
1E
100
AcDbEntity
  8
IMAGE
100
AcDbLine
 10
3.835171558916822
 20
7.426548397326216
 30
0.0
 11
3.837519988301346
 21
7.433671812283805
 31
0.0
  0
ARC
  5
1E5
330
1E
100
AcDbEntity
  8
IMAGE
100
AcDbCircle
 10
3.787746281218754
 20
7.4587892351597
 30
0.0
 40
0.0034459605532544
100
AcDbArc
 50
256.7537954554176
 51
76.7537954554176
  0
ARC
  5
1E6
330
1E
100
AcDbEntity
  8
IMAGE
100
AcDbCircle
 10
3.726012942813834
 20
7.471080644794609
 30
0.0
 40
0.0034459605532544
100
AcDbArc
 50
76.7537954554176
 51
256.7537954554176
  0
LINE
  5
1E7
330
1E
100
AcDbEntity
  8
IMAGE
100
AcDbLine
 10
3.786956685585336
 20
7.455434956866191
 30
0.0
 11
3.725223347180431
 21
7.4677263665011
 31
0.0
  0
LINE
  5
1E8
330
1E
100
AcDbEntity
  8
IMAGE
100
AcDbLine
 10
3.788535874528247
 20
7.462143514000258
 30
0.0
 11
3.726802536123342
 21
7.474434923635167
 31
0.0
  0
ARC
  5
1E9
330
1E
100
AcDbEntity
  8
IMAGE
100
AcDbCircle
 10
3.841262911254245
 20
7.421574349568198
 30
0.0
 40
0.0034459605532544
100
AcDbArc
 50
256.7537954554176
 51
76.7537954554176
  0
ARC
  5
1EA
330
1E
100
AcDbEntity
  8
IMAGE
100
AcDbCircle
 10
3.719167170850612
 20
7.450315585934237
 30
0.0
 40
0.0034459605532544
100
AcDbArc
 50
76.7537954554176
 51
256.7537954554176
  0
LINE
  5
1EB
330
1E
100
AcDbEntity
  8
IMAGE
100
AcDbLine
 10
3.840473315620844
 20
7.418220071274696
 30
0.0
 11
3.718377575217207
 21
7.446961307640723
 31
0.0
  0
LINE
  5
1EC
330
1E
100
AcDbEntity
  8
IMAGE
100
AcDbLine
 10
3.842052504563755
 20
7.424928628408764
 30
0.0
 11
3.719956764160118
 21
7.45366986477479
 31
0.0
  0
LINE
  5
1ED
330
1E
100
AcDbEntity
  8
IMAGE
100
AcDbLine
 10
3.731702034092744
 20
7.464886431567638
 30
0.0
 11
3.724652878723472
 21
7.467914437314888
 31
0.0
  0
LINE
  5
1EE
330
1E
100
AcDbEntity
  8
IMAGE
100
AcDbLine
 10
3.842622973151014
 20
7.424740557990208
 30
0.0
 11
3.835573819975364
 21
7.427768562795169
 31
0.0
  0
ARC
  5
1EF
330
1E
100
AcDbEntity
  8
IMAGE
100
AcDbCircle
 10
3.726012942813834
 20
7.471080644794609
 30
0.0
 40
0.0034459605532544
100
AcDbArc
 50
66.75375800747956
 51
246.7537580074795
  0
ARC
  5
1F0
330
1E
100
AcDbEntity
  8
IMAGE
100
AcDbCircle
 10
3.834417139291022
 20
7.400809290707826
 30
0.0
 40
0.0034459605532544
100
AcDbArc
 50
256.7537954554176
 51
76.7537954554176
  0
ARC
  5
1F1
330
1E
100
AcDbEntity
  8
IMAGE
100
AcDbCircle
 10
3.712321398887386
 20
7.429550527073857
 30
0.0
 40
0.0034459605532544
100
AcDbArc
 50
76.7537954554176
 51
256.7537954554176
  0
LINE
  5
1F2
330
1E
100
AcDbEntity
  8
IMAGE
100
AcDbLine
 10
3.833627543657621
 20
7.397455012414322
 30
0.0
 11
3.711531803253984
 21
7.42619624878035
 31
0.0
  0
LINE
  5
1F3
330
1E
100
AcDbEntity
  8
IMAGE
100
AcDbLine
 10
3.835206732600528
 20
7.404163569548378
 30
0.0
 11
3.713110992196893
 21
7.432904805914409
 31
0.0
  0
LINE
  5
1F4
330
1E
100
AcDbEntity
  8
IMAGE
100
AcDbLine
 10
3.724856262129519
 20
7.444121372707259
 30
0.0
 11
3.717807106760245
 21
7.447149378454502
 31
0.0
  0
LINE
  5
1F5
330
1E
100
AcDbEntity
  8
IMAGE
100
AcDbLine
 10
3.835777201187789
 20
7.403975499129829
 30
0.0
 11
3.828728048012141
 21
7.407003503934797
 31
0.0
  0
ARC
  5
1F6
330
1E
100
AcDbEntity
  8
IMAGE
100
AcDbCircle
 10
3.719167170850612
 20
7.450315585934237
 30
0.0
 40
0.0034459605532544
100
AcDbArc
 50
66.75375800747956
 51
246.7537580074795
  0
ARC
  5
1F7
330
1E
100
AcDbEntity
  8
IMAGE
100
AcDbCircle
 10
3.8275713673278
 20
7.380044231847454
 30
0.0
 40
0.0034459605532544
100
AcDbArc
 50
256.7537954554176
 51
76.7537954554176
  0
ARC
  5
1F8
330
1E
100
AcDbEntity
  8
IMAGE
100
AcDbCircle
 10
3.705475626924162
 20
7.40878546821348
 30
0.0
 40
0.0034459605532544
100
AcDbArc
 50
76.7537954554176
 51
256.7537954554176
  0
LINE
  5
1F9
330
1E
100
AcDbEntity
  8
IMAGE
100
AcDbLine
 10
3.826781771694397
 20
7.376689953553945
 30
0.0
 11
3.704686031290761
 21
7.405431189919976
 31
0.0
  0
LINE
  5
1FA
330
1E
100
AcDbEntity
  8
IMAGE
100
AcDbLine
 10
3.828360960637303
 20
7.383398510687998
 30
0.0
 11
3.706265220233665
 21
7.412139747054023
 31
0.0
  0
LINE
  5
1FB
330
1E
100
AcDbEntity
  8
IMAGE
100
AcDbLine
 10
3.718010490166294
 20
7.423356313846879
 30
0.0
 11
3.710961334797023
 21
7.426384319594131
 31
0.0
  0
LINE
  5
1FC
330
1E
100
AcDbEntity
  8
IMAGE
100
AcDbLine
 10
3.828931429224564
 20
7.383210440269449
 30
0.0
 11
3.821882276048918
 21
7.386238445074424
 31
0.0
  0
ARC
  5
1FD
330
1E
100
AcDbEntity
  8
IMAGE
100
AcDbCircle
 10
3.712321398887386
 20
7.429550527073857
 30
0.0
 40
0.0034459605532544
100
AcDbArc
 50
66.75375800747956
 51
246.7537580074795
  0
ARC
  5
1FE
330
1E
100
AcDbEntity
  8
IMAGE
100
AcDbCircle
 10
3.820725595364573
 20
7.359279172987069
 30
0.0
 40
0.0034459605532544
100
AcDbArc
 50
256.7537954554176
 51
76.7537954554176
  0
ARC
  5
1FF
330
1E
100
AcDbEntity
  8
IMAGE
100
AcDbCircle
 10
3.698629854960939
 20
7.388020409353106
 30
0.0
 40
0.0034459605532544
100
AcDbArc
 50
76.7537954554176
 51
256.7537954554176
  0
LINE
  5
200
330
1E
100
AcDbEntity
  8
IMAGE
100
AcDbLine
 10
3.819935999731172
 20
7.355924894693565
 30
0.0
 11
3.697840259327534
 21
7.38466613105959
 31
0.0
  0
LINE
  5
201
330
1E
100
AcDbEntity
  8
IMAGE
100
AcDbLine
 10
3.82151518867408
 20
7.362633451827624
 30
0.0
 11
3.699419448270442
 21
7.39137468819365
 31
0.0
  0
LINE
  5
202
330
1E
100
AcDbEntity
  8
IMAGE
100
AcDbLine
 10
3.711164718203069
 20
7.4025912549865
 30
0.0
 11
3.704115562833798
 21
7.405619260733752
 31
0.0
  0
LINE
  5
203
330
1E
100
AcDbEntity
  8
IMAGE
100
AcDbLine
 10
3.822085657261341
 20
7.362445381409077
 30
0.0
 11
3.815036504085691
 21
7.36547338621404
 31
0.0
  0
ARC
  5
204
330
1E
100
AcDbEntity
  8
IMAGE
100
AcDbCircle
 10
3.705475626924162
 20
7.40878546821348
 30
0.0
 40
0.0034459605532544
100
AcDbArc
 50
66.75375800747956
 51
246.7537580074795
  0
ARC
  5
205
330
1E
100
AcDbEntity
  8
IMAGE
100
AcDbCircle
 10
3.698629854960939
 20
7.388020409353106
 30
0.0
 40
0.0034459605532544
100
AcDbArc
 50
66.75375800747956
 51
246.7537580074795
  0
LINE
  5
206
330
1E
100
AcDbEntity
  8
IMAGE
100
AcDbLine
 10
3.815239885298116
 20
7.341680322548697
 30
0.0
 11
3.7822532167673
 21
7.355849938149649
 31
0.0
  0
LINE
  5
207
330
1E
100
AcDbEntity
  8
IMAGE
100
AcDbLine
 10
3.730256461595
 20
7.370684585330142
 30
0.0
 11
3.697269790870572
 21
7.384854201873372
 31
0.0
  0
LINE
  5
208
330
1E
100
AcDbEntity
  8
IMAGE
100
AcDbLine
 10
3.814669416710855
 20
7.341868392967246
 30
0.0
 11
3.69257367630722
 21
7.370609629333277
 31
0.0
  0
LINE
  5
209
330
1E
100
AcDbEntity
  8
IMAGE
100
AcDbLine
 10
3.813090227767947
 20
7.335159835833186
 30
0.0
 11
3.690994487364309
 21
7.36390107219921
 31
0.0
  0
ARC
  5
20A
330
1E
100
AcDbEntity
  8
IMAGE
100
AcDbCircle
 10
3.81387982340135
 20
7.338514114126695
 30
0.0
 40
0.0034459605532544
100
AcDbArc
 50
256.7537954554176
 51
76.7537954554176
  0
ARC
  5
20B
330
1E
100
AcDbEntity
  8
IMAGE
100
AcDbCircle
 10
3.691784082997714
 20
7.367255350492726
 30
0.0
 40
0.0034459605532544
100
AcDbArc
 50
76.7537954554176
 51
256.7537954554176
  0
CIRCLE
  5
20C
330
1E
100
AcDbEntity
  8
IMAGE
100
AcDbCircle
 10
3.811993723041212
 20
7.287662661390054
 30
0.0
 40
0.0049997144834675
  0
LINE
  5
20D
330
1E
100
AcDbEntity
  8
IMAGE
100
AcDbLine
 10
3.754420059240299
 20
7.306643400915934
 30
0.0
 11
3.743371770965834
 21
7.273130985141918
 31
0.0
  0
LINE
  5
20E
330
1E
100
AcDbEntity
  8
IMAGE
100
AcDbLine
 10
3.79631057895783
 20
7.292833040572849
 30
0.0
 11
3.800453687060757
 21
7.305400196488113
 31
0.0
  0
LINE
  5
20F
330
1E
100
AcDbEntity
  8
IMAGE
100
AcDbLine
 10
3.802594156915458
 20
7.290761486521388
 30
0.0
 11
3.806737265018385
 21
7.303328642436651
 31
0.0
  0
LINE
  5
210
330
1E
100
AcDbEntity
  8
IMAGE
100
AcDbLine
 10
3.802594156915458
 20
7.290761486521388
 30
0.0
 11
3.764730936069129
 21
7.303244137182289
 31
0.0
  0
LINE
  5
211
330
1E
100
AcDbEntity
  8
IMAGE
100
AcDbLine
 10
3.771176267127317
 20
7.301119256778699
 30
0.0
 11
3.775319375230244
 21
7.313686412693963
 31
0.0
  0
LINE
  5
212
330
1E
100
AcDbEntity
  8
IMAGE
100
AcDbLine
 10
3.764892689169688
 20
7.303190810830161
 30
0.0
 11
3.769035797272615
 21
7.315757966745424
 31
0.0
  0
ARC
  5
213
330
1E
100
AcDbEntity
  8
IMAGE
100
AcDbCircle
 10
3.801643202073242
 20
7.315602960051334
 30
0.0
 40
0.0034459605532544
100
AcDbArc
 50
251.7537767314485
 51
330.6552308913129
  0
ARC
  5
214
330
1E
100
AcDbEntity
  8
IMAGE
100
AcDbCircle
 10
3.814733989484976
 20
7.311287222444118
 30
0.0
 40
0.0034459605532544
100
AcDbArc
 50
168.1007519408691
 51
251.7537767314485
  0
ARC
  5
215
330
1E
100
AcDbEntity
  8
IMAGE
100
AcDbCircle
 10
3.812935907147045
 20
7.327844957400632
 30
0.0
 40
0.0034459605532544
100
AcDbArc
 50
341.7537767314485
 51
161.7537767314485
  0
LINE
  5
216
330
1E
100
AcDbEntity
  8
IMAGE
100
AcDbLine
 10
3.809663210294112
 20
7.328923891802435
 30
0.0
 11
3.806878189453316
 21
7.320476178089915
 31
0.0
  0
LINE
  5
217
330
1E
100
AcDbEntity
  8
IMAGE
100
AcDbLine
 10
3.816208603999979
 20
7.326766022998828
 30
0.0
 11
3.813633162230876
 21
7.318954018711481
 31
0.0
  0
LINE
  5
218
330
1E
100
AcDbEntity
  8
IMAGE
100
AcDbLine
 10
3.866815304897016
 20
7.283522266554356
 30
0.0
 11
3.868886858948479
 21
7.289805844511985
 31
0.0
  0
LINE
  5
219
330
1E
100
AcDbEntity
  8
IMAGE
100
AcDbLine
 10
3.866815304897016
 20
7.283522266554356
 30
0.0
 11
3.769035797272615
 21
7.315757966745424
 31
0.0
  0
LWPOLYLINE
  5
21A
330
1E
100
AcDbEntity
  8
IMAGE
100
AcDbPolyline
 90
        6
 70
     0
 43
0.0
 10
3.457241108924746
 20
7.339491252832747
 42
-0.0269144404662705
 10
3.460055271369189
 20
7.343150607866341
 42
-0.0624775271329113
 10
3.467967992279762
 20
7.350326689369953
 42
-0.0756612043681038
 10
3.475883119835873
 20
7.354256011933802
 42
-0.107081525558033
 10
3.484161548312061
 20
7.355056570627739
 42
-0.1492029026861064
 10
3.489686688094456
 20
7.35263434504657
 42
-0.1492029026860998
  0
LWPOLYLINE
  5
222
330
1E
100
AcDbEntity
  8
IMAGE
100
AcDbPolyline
 90
        9
 70
     0
 43
0.0
 10
3.487613805806442
 20
7.325567832772104
 42
-0.0269144404663062
 10
3.484799643361984
 20
7.321908477738514
 42
-0.062477527132918
 10
3.476886922451417
 20
7.314732396234916
 42
-0.0756612043681155
 10
3.468971794895304
 20
7.310803073671058
 42
-0.1070815255580553
 10
3.460693366419105
 20
7.310002514977133
 42
-0.149202902686114
 10
3.455168226636732
 20
7.312424740558281
 42
-0.1492029026861015
 10
3.451937222421963
 20
7.31751934144011
 42
-0.1070815255580422
 10
3.451474881662992
 20
7.325823527931293
 42
-0.0267597965324953
 10
3.452133465413515
 20
7.32889473967173
 42
-0.0624775271329189
  0
LWPOLYLINE
  5
22D
330
1E
100
AcDbEntity
  8
IMAGE
100
AcDbPolyline
 90
        4
 70
     0
 43
0.0
 10
3.489686688094456
 20
7.35263434504657
 42
-0.1492029026860998
 10
3.492917692309214
 20
7.347539744164752
 42
-0.1070815255580472
 10
3.493380033068183
 20
7.339235557673561
 42
-0.0267597965324959
 10
3.492721449317647
 20
7.336164345933129
 42
-0.0624775271329136
  0
LWPOLYLINE
  5
233
330
1E
100
AcDbEntity
  8
IMAGE
100
AcDbPolyline
 90
        3
 70
     0
 43
0.0
 10
3.44801725318362
 20
7.332681828640899
 42
-0.048802598267344
 10
3.45004402534953
 20
7.338029505404442
 42
-0.0355033860300761
 10
3.453124896694836
 20
7.343278341801912
 42
-0.0624775271329113
  0
LWPOLYLINE
  5
238
330
1E
100
AcDbEntity
  8
IMAGE
100
AcDbPolyline
 90
        3
 70
     0
 43
0.0
 10
3.487497881048345
 20
7.33665414747176
 42
-0.0191372537753844
 10
3.486578464921829
 20
7.334603758138758
 42
-0.0355033860300523
 10
3.483497593576531
 20
7.32935492174127
 42
-0.062477527132918
  0
LINE
  5
23D
330
1E
100
AcDbEntity
  8
IMAGE
100
AcDbLine
 10
3.483497593576518
 20
7.329354921741275
 30
0.0
 11
3.448017253183633
 21
7.332681828640895
 31
0.0
  0
LINE
  5
23E
330
1E
100
AcDbEntity
  8
IMAGE
100
AcDbLine
 10
3.487613805806429
 20
7.32556783277211
 30
0.0
 11
3.483497593576518
 21
7.329354921741275
 31
0.0
  0
LINE
  5
23F
330
1E
100
AcDbEntity
  8
IMAGE
100
AcDbLine
 10
3.452133465413541
 20
7.328894739671723
 30
0.0
 11
3.448017253183633
 21
7.332681828640895
 31
0.0
  0
LINE
  5
240
330
1E
100
AcDbEntity
  8
IMAGE
100
AcDbLine
 10
3.457241108924746
 20
7.339491252832747
 30
0.0
 11
3.453124896694836
 21
7.343278341801914
 31
0.0
  0
LINE
  5
241
330
1E
100
AcDbEntity
  8
IMAGE
100
AcDbLine
 10
3.487613805806429
 20
7.32556783277211
 30
0.0
 11
3.452133465413541
 21
7.328894739671723
 31
0.0
  0
LINE
  5
242
330
1E
100
AcDbEntity
  8
IMAGE
100
AcDbLine
 10
3.492721449317647
 20
7.336164345933131
 30
0.0
 11
3.457241108924746
 21
7.339491252832747
 31
0.0
  0
LINE
  5
243
330
1E
100
AcDbEntity
  8
IMAGE
100
AcDbLine
 10
3.449956474184935
 20
7.337851192163299
 30
0.0
 11
3.423109136842569
 21
7.36112103926211
 31
0.0
  0
LINE
  5
244
330
1E
100
AcDbEntity
  8
IMAGE
100
AcDbLine
 10
3.451474881662992
 20
7.325823527931294
 30
0.0
 11
3.420423780926121
 21
7.352702150758126
 31
0.0
  0
LINE
  5
245
330
1E
100
AcDbEntity
  8
IMAGE
100
AcDbLine
 10
3.451937222421963
 20
7.31751934144011
 30
0.0
 11
3.420886121685135
 21
7.344397964266899
 31
0.0
  0
LINE
  5
246
330
1E
100
AcDbEntity
  8
IMAGE
100
AcDbLine
 10
3.484161548312061
 20
7.355056570627741
 30
0.0
 11
3.453110447575233
 21
7.381935193454529
 31
0.0
  0
LINE
  5
247
330
1E
100
AcDbEntity
  8
IMAGE
100
AcDbLine
 10
3.475883119835873
 20
7.354256011933804
 30
0.0
 11
3.444832019098996
 21
7.381134634760622
 31
0.0
  0
LINE
  5
248
330
1E
100
AcDbEntity
  8
IMAGE
100
AcDbLine
 10
3.467967992279762
 20
7.350326689369953
 30
0.0
 11
3.436916891542874
 21
7.377205312196778
 31
0.0
  0
LINE
  5
249
330
1E
100
AcDbEntity
  8
IMAGE
100
AcDbLine
 10
3.460055271369189
 20
7.343150607866343
 30
0.0
 11
3.429004170632318
 21
7.370029230693175
 31
0.0
  0
LINE
  5
24A
330
1E
100
AcDbEntity
  8
IMAGE
100
AcDbLine
 10
3.446973416237299
 20
7.319518376939488
 30
0.0
 11
3.436188285618368
 21
7.306955075499395
 31
0.0
  0
LINE
  5
24B
330
1E
100
AcDbEntity
  8
IMAGE
100
AcDbLine
 10
3.421715680926664
 20
7.357812666908454
 30
0.0
 11
3.403709099991353
 21
7.336837297004368
 31
0.0
  0
LWPOLYLINE
  5
24C
330
1E
100
AcDbEntity
  8
IMAGE
100
AcDbPolyline
 90
        9
 70
     0
 43
0.0
 10
3.424117125899848
 20
7.339303363385116
 42
-0.1492029026861015
 10
3.420886121685092
 20
7.344397964266942
 42
-0.1070815255580422
 10
3.420423780926108
 20
7.35270215075813
 42
-0.0756612043681028
 10
3.423109136842569
 20
7.361121039262108
 42
-0.0624775271329189
 10
3.429004170632318
 20
7.370029230693175
 42
-0.0624775271329113
 10
3.436916891542876
 20
7.377205312196783
 42
-0.0756612043681038
 10
3.444832019098984
 20
7.381134634760625
 42
-0.107081525558033
 10
3.453110447575187
 20
7.381935193454564
 42
-0.1492029026861064
 10
3.458635587357569
 20
7.379512967873399
 42
-0.1492029026860998
  0
LINE
  5
257
330
1E
100
AcDbEntity
  8
IMAGE
100
AcDbLine
 10
3.424117125899848
 20
7.339303363385118
 30
0.0
 11
3.455168226636732
 21
7.312424740558283
 31
0.0
  0
LINE
  5
258
330
1E
100
AcDbEntity
  8
IMAGE
100
AcDbLine
 10
3.458635587357569
 20
7.379512967873401
 30
0.0
 11
3.489686688094456
 21
7.352634345046572
 31
0.0
  0
LINE
  5
259
330
1E
100
AcDbEntity
  8
IMAGE
100
AcDbLine
 10
3.702533803583205
 20
7.286594342699578
 30
0.0
 11
3.695426294761666
 21
7.265035365885456
 31
0.0
  0
ARC
  5
25A
330
1E
100
AcDbEntity
  8
IMAGE
100
AcDbCircle
 10
3.700481010916579
 20
7.368414873057432
 30
0.0
 40
0.0275676844260349
100
AcDbArc
 50
227.3846344447635
 51
332.9717543966535
  0
LINE
  5
25B
330
1E
100
AcDbEntity
  8
IMAGE
100
AcDbLine
 10
3.722185782500675
 20
7.310985175249177
 30
0.0
 11
3.642007418250088
 21
7.384752654149561
 31
0.0
  0
LINE
  5
25C
330
1E
100
AcDbEntity
  8
IMAGE
100
AcDbLine
 10
3.719911613684134
 20
7.304087012472562
 30
0.0
 11
3.639733249433549
 21
7.377854491372954
 31
0.0
  0
ARC
  5
25D
330
1E
100
AcDbEntity
  8
IMAGE
100
AcDbCircle
 10
3.500815376364863
 20
7.497839579702114
 30
0.0
 40
0.0551353688520697
100
AcDbArc
 50
349.4308626691405
 51
227.3846344447658
  0
LINE
  5
25E
330
1E
100
AcDbEntity
  8
IMAGE
100
AcDbLine
 10
3.562055156946307
 20
7.491275492233539
 30
0.0
 11
3.552509870151673
 21
7.51701216978744
 31
0.0
  0
LINE
  5
25F
330
1E
100
AcDbEntity
  8
IMAGE
100
AcDbLine
 10
3.463484687389412
 20
7.457264605160263
 30
0.0
 11
3.474495246619964
 21
7.447134425986458
 31
0.0
  0
ARC
  5
260
330
1E
100
AcDbEntity
  8
IMAGE
100
AcDbCircle
 10
3.851505622995102
 20
7.441161118550098
 30
0.0
 40
0.0050489493790321
100
AcDbArc
 50
341.7537767314485
 51
161.7537767314485
  0
ARC
  5
261
330
1E
100
AcDbEntity
  8
IMAGE
100
AcDbCircle
 10
3.72600416030138
 20
7.482536122610005
 30
0.0
 40
0.0050489493790321
100
AcDbArc
 50
341.7537767314485
 51
161.7537767314485
  0
ARC
  5
262
330
1E
100
AcDbEntity
  8
IMAGE
100
AcDbCircle
 10
3.787746281218754
 20
7.4587892351597
 30
0.0
 40
0.0049997144834675
100
AcDbArc
 50
212.2759751090492
 51
125.2028024151801
  0
LINE
  5
263
330
1E
100
AcDbEntity
  8
IMAGE
100
AcDbLine
 10
3.793011311101471
 20
7.448345320148332
 30
0.0
 11
3.798190196230127
 21
7.464054265042403
 31
0.0
  0
LINE
  5
264
330
1E
100
AcDbEntity
  8
IMAGE
100
AcDbLine
 10
3.777302366207393
 20
7.453524205276989
 30
0.0
 11
3.778488174375193
 21
7.457121078870464
 31
0.0
  0
LINE
  5
265
330
1E
100
AcDbEntity
  8
IMAGE
100
AcDbLine
 10
3.843112482974599
 20
7.431828092817559
 30
0.0
 11
3.846710535968408
 21
7.442741950684951
 31
0.0
  0
LINE
  5
266
330
1E
100
AcDbEntity
  8
IMAGE
100
AcDbLine
 10
3.728535853668421
 20
7.474089811633705
 30
0.0
 11
3.730799247328074
 21
7.480955290475154
 31
0.0
  0
LINE
  5
267
330
1E
100
AcDbEntity
  8
IMAGE
100
AcDbLine
 10
3.747947244409903
 20
7.463201927412502
 30
0.0
 11
3.843112482974599
 21
7.431828092817559
 31
0.0
  0
LINE
  5
268
330
1E
100
AcDbEntity
  8
IMAGE
100
AcDbLine
 10
3.706899263364251
 20
7.38965298867115
 30
0.0
 11
3.711566979261615
 21
7.403811420455465
 31
0.0
  0
LINE
  5
269
330
1E
100
AcDbEntity
  8
IMAGE
100
AcDbLine
 10
3.811625562658066
 20
7.355127087813443
 30
0.0
 11
3.812468131515271
 21
7.357682824698599
 31
0.0
  0
LINE
  5
26A
330
1E
100
AcDbEntity
  8
IMAGE
100
AcDbLine
 10
3.713006433512594
 20
7.283141752613804
 30
0.0
 11
3.681154294543657
 21
7.293642685040166
 31
0.0
  0
LINE
  5
26B
330
1E
100
AcDbEntity
  8
IMAGE
100
AcDbLine
 10
3.719911613684134
 20
7.304087012472562
 30
0.0
 11
3.688059474715197
 21
7.314587944898926
 31
0.0
  0
LINE
  5
26C
330
1E
100
AcDbEntity
  8
IMAGE
100
AcDbLine
 10
3.722185782500675
 20
7.310985175249177
 30
0.0
 11
3.713006433512594
 21
7.283141752613804
 31
0.0
  0
LINE
  5
26D
330
1E
100
AcDbEntity
  8
IMAGE
100
AcDbLine
 10
3.753844400895224
 20
7.269678395056146
 30
0.0
 11
3.750391810809453
 21
7.259205765126763
 31
0.0
  0
LINE
  5
26E
330
1E
100
AcDbEntity
  8
IMAGE
100
AcDbLine
 10
3.760634721394688
 20
7.325494134788826
 30
0.0
 11
3.758563167343226
 21
7.319210556831198
 31
0.0
  0
LINE
  5
26F
330
1E
100
AcDbEntity
  8
IMAGE
100
AcDbLine
 10
3.706899263364251
 20
7.38965298867115
 30
0.0
 11
3.707313385927437
 21
7.389516461794368
 31
0.0
  0
LINE
  5
270
330
1E
100
AcDbEntity
  8
IMAGE
100
AcDbLine
 10
3.784917711667162
 20
7.363932064420584
 30
0.0
 11
3.780310284437284
 21
7.349956504302998
 31
0.0
  0
LINE
  5
271
330
1E
100
AcDbEntity
  8
IMAGE
100
AcDbLine
 10
3.885278551179943
 20
7.2263475175913
 30
0.0
 11
3.83348969989338
 21
7.069258068650569
 31
0.0
  0
ARC
  5
272
330
1E
100
AcDbEntity
  8
IMAGE
100
AcDbCircle
 10
3.69841724497251
 20
7.346005834687074
 30
0.0
 40
0.0330812213112419
100
AcDbArc
 50
227.3846344447638
 51
251.7537767314485
  0
ARC
  5
273
330
1E
100
AcDbEntity
  8
IMAGE
100
AcDbCircle
 10
3.69841724497251
 20
7.346005834687074
 30
0.0
 40
0.0551353688520697
100
AcDbArc
 50
227.3846344447638
 51
251.7537767314485
  0
LINE
  5
274
330
1E
100
AcDbEntity
  8
IMAGE
100
AcDbLine
 10
3.67601883158723
 20
7.321660849961972
 30
0.0
 11
3.633963558942311
 21
7.360353475665691
 31
0.0
  0
LINE
  5
275
330
1E
100
AcDbEntity
  8
IMAGE
100
AcDbLine
 10
3.661086555997059
 20
7.305430860145227
 30
0.0
 11
3.626382996220514
 21
7.337359599743658
 31
0.0
  0
LINE
  5
276
330
1E
100
AcDbEntity
  8
IMAGE
100
AcDbLine
 10
3.986437400715922
 20
7.21621946667812
 30
0.0
 11
3.750276951137375
 21
7.294076245000677
 31
0.0
  0
ARC
  5
277
330
1E
100
AcDbEntity
  8
IMAGE
100
AcDbCircle
 10
3.928161181041149
 20
7.328318791652531
 30
0.0
 40
0.0551353688520697
100
AcDbArc
 50
251.7537767314485
 51
278.7894685208608
  0
LINE
  5
278
330
1E
100
AcDbEntity
  8
IMAGE
100
AcDbLine
 10
3.936586096333148
 20
7.273830905835806
 30
0.0
 11
4.030260775398765
 21
7.288314881939909
 31
0.0
  0
LINE
  5
279
330
1E
100
AcDbEntity
  8
IMAGE
100
AcDbLine
 10
3.910898230612295
 20
7.275955642005623
 30
0.0
 11
3.778926066127917
 21
7.319463890627885
 31
0.0
  0
CIRCLE
  5
27A
330
1E
100
AcDbEntity
  8
IMAGE
100
AcDbCircle
 10
4.038685690690765
 20
7.233826996123184
 30
0.0
 40
0.0551353688520697
  0
LINE
  5
27B
330
1E
100
AcDbEntity
  8
IMAGE
100
AcDbLine
 10
4.021422740261913
 20
7.181463846476276
 30
0.0
 11
3.743371770965834
 21
7.273130985141918
 31
0.0
  0
LINE
  5
27C
330
1E
100
AcDbEntity
  8
IMAGE
100
AcDbLine
 10
3.727707050288143
 20
7.184735697096893
 30
0.0
 11
3.700444304791577
 21
7.209818573530981
 31
0.0
  0
LINE
  5
27D
330
1E
100
AcDbEntity
  8
IMAGE
100
AcDbLine
 10
3.69286374206978
 20
7.186824697608949
 30
0.0
 11
3.603776670680246
 21
7.268788563053822
 31
0.0
  0
LINE
  5
27E
330
1E
100
AcDbEntity
  8
IMAGE
100
AcDbLine
 10
3.720026473356199
 20
7.269216532598653
 30
0.0
 11
3.69286374206978
 21
7.186824697608949
 31
0.0
  0
LINE
  5
27F
330
1E
100
AcDbEntity
  8
IMAGE
100
AcDbLine
 10
3.758464402987959
 20
7.244933542326185
 30
0.0
 11
3.8783733710084
 21
7.205402257732533
 31
0.0
  0
LINE
  5
280
330
1E
100
AcDbEntity
  8
IMAGE
100
AcDbLine
 10
3.761916993073731
 20
7.255406172255568
 30
0.0
 11
3.699081213497434
 21
7.276121712770194
 31
0.0
  0
LINE
  5
281
330
1E
100
AcDbEntity
  8
IMAGE
100
AcDbLine
 10
3.761916993073731
 20
7.255406172255568
 30
0.0
 11
3.758464402987959
 21
7.244933542326185
 31
0.0
  0
ARC
  5
282
330
1E
100
AcDbEntity
  8
IMAGE
100
AcDbCircle
 10
3.684953664832276
 20
7.268487955971229
 30
0.0
 40
0.011027073770414
100
AcDbArc
 50
227.3846344447639
 51
341.7537767314485
  0
LINE
  5
283
330
1E
100
AcDbEntity
  8
IMAGE
100
AcDbLine
 10
3.677487527037191
 20
7.260372961062859
 30
0.0
 11
3.618802433498714
 21
7.314365723821621
 31
0.0
  0
LINE
  5
284
330
1E
100
AcDbEntity
  8
IMAGE
100
AcDbLine
 10
3.732199393925014
 20
7.376578019176786
 30
0.0
 11
3.727519733473667
 21
7.362383356362887
 31
0.0
  0
ARC
  5
285
330
1E
100
AcDbEntity
  8
IMAGE
100
AcDbCircle
 10
3.68151924313253
 20
7.212246272181616
 30
0.0
 40
0.0330812213112419
100
AcDbArc
 50
227.3846344447638
 51
251.7537767314485
  0
ARC
  5
286
330
1E
100
AcDbEntity
  8
IMAGE
100
AcDbCircle
 10
3.68151924313253
 20
7.212246272181616
 30
0.0
 40
0.0441082950816558
100
AcDbArc
 50
227.3846344447638
 51
251.7537767314485
  0
LINE
  5
287
330
1E
100
AcDbEntity
  8
IMAGE
100
AcDbLine
 10
3.723117473057885
 20
7.163699659967811
 30
0.0
 11
3.671161472875216
 21
7.180828382393466
 31
0.0
  0
LINE
  5
288
330
1E
100
AcDbEntity
  8
IMAGE
100
AcDbLine
 10
3.719664882972113
 20
7.153227030038422
 30
0.0
 11
3.667708882789443
 21
7.170355752464077
 31
0.0
  0
LINE
  5
289
330
1E
100
AcDbEntity
  8
IMAGE
100
AcDbLine
 10
3.65912082974726
 20
7.187901287456503
 30
0.0
 11
3.596196107958447
 21
7.245794687131784
 31
0.0
  0
LINE
  5
28A
330
1E
100
AcDbEntity
  8
IMAGE
100
AcDbLine
 10
3.651654691952163
 20
7.179786292548136
 30
0.0
 11
3.592097669965843
 21
7.234581266277155
 31
0.0
  0
LINE
  5
28B
330
1E
100
AcDbEntity
  8
IMAGE
100
AcDbLine
 10
3.815537591432104
 20
7.226117798247159
 30
0.0
 11
3.733475243315199
 21
7.195117549755961
 31
0.0
  0
LINE
  5
28C
330
1E
100
AcDbEntity
  8
IMAGE
100
AcDbLine
 10
3.711033407757688
 20
7.127045455214975
 30
0.0
 11
3.606307108463873
 21
7.161571356072682
 31
0.0
  0
ARC
  5
28D
330
1E
100
AcDbEntity
  8
IMAGE
100
AcDbCircle
 10
3.879483794442027
 20
7.386634707158112
 30
0.0
 40
0.005513536885207
100
AcDbArc
 50
237.7175332635223
 51
341.7537767314485
  0
ARC
  5
28E
330
1E
100
AcDbEntity
  8
IMAGE
100
AcDbCircle
 10
3.857239512622878
 20
7.407209046000504
 30
0.0
 40
0.011027073770414
100
AcDbArc
 50
161.7537767314485
 51
237.7175332635224
  0
ARC
  5
28F
330
1E
100
AcDbEntity
  8
IMAGE
100
AcDbCircle
 10
3.701202616017043
 20
7.458650894501642
 30
0.0
 40
0.011027073770414
100
AcDbArc
 50
265.7900201993747
 51
341.7537767314485
  0
ARC
  5
290
330
1E
100
AcDbEntity
  8
IMAGE
100
AcDbCircle
 10
3.92296989294325
 20
7.428722646499291
 30
0.0
 40
0.0055135368852067
100
AcDbArc
 50
251.7537767314506
 51
71.75377673144655
  0
LINE
  5
291
330
1E
100
AcDbEntity
  8
IMAGE
100
AcDbLine
 10
3.929932502950824
 20
7.432232666421102
 30
0.0
 11
3.64537467562906
 21
7.526044969545001
 31
0.0
  0
LINE
  5
292
330
1E
100
AcDbEntity
  8
IMAGE
100
AcDbLine
 10
3.921243597900363
 20
7.423486331534597
 30
0.0
 11
3.691372015621405
 21
7.499269812028844
 31
0.0
  0
ARC
  5
293
330
1E
100
AcDbEntity
  8
IMAGE
100
AcDbCircle
 10
3.92302732277928
 20
7.411287406562328
 30
0.0
 40
0.0220541475408279
100
AcDbArc
 50
341.7537767314485
 51
71.75377673144864
  0
ARC
  5
294
330
1E
100
AcDbEntity
  8
IMAGE
100
AcDbCircle
 10
3.572793360056824
 20
7.245245648241876
 30
0.0
 40
0.0220541475408279
100
AcDbArc
 50
227.384634444762
 51
341.7537767314485
  0
ARC
  5
295
330
1E
100
AcDbEntity
  8
IMAGE
100
AcDbCircle
 10
3.572793360056824
 20
7.245245648241876
 30
0.0
 40
0.011027073770414
100
AcDbArc
 50
227.3846344447621
 51
341.7537767314484
  0
ARC
  5
296
330
1E
100
AcDbEntity
  8
IMAGE
100
AcDbCircle
 10
3.453629688463156
 20
7.411917497241926
 30
0.0
 40
0.011027073770414
100
AcDbArc
 50
116.7537767314485
 51
139.3551272668333
  0
ARC
  5
297
330
1E
100
AcDbEntity
  8
IMAGE
100
AcDbCircle
 10
3.687919425535636
 20
7.488797182099466
 30
0.0
 40
0.011027073770414
100
AcDbArc
 50
71.75377673144848
 51
161.7537767314485
  0
ARC
  5
298
330
1E
100
AcDbEntity
  8
IMAGE
100
AcDbCircle
 10
3.656501535747494
 20
7.499154952356777
 30
0.0
 40
0.011027073770414
100
AcDbArc
 50
341.7537767314485
 51
71.75377673144935
  0
ARC
  5
299
330
1E
100
AcDbEntity
  8
IMAGE
100
AcDbCircle
 10
3.597284737561459
 20
7.319534552135767
 30
0.0
 40
0.011027073770414
100
AcDbArc
 50
227.38463444476
 51
341.7537767314485
  0
ARC
  5
29A
330
1E
100
AcDbEntity
  8
IMAGE
100
AcDbCircle
 10
3.548286848297207
 20
7.364614678130459
 30
0.0
 40
0.011027073770414
100
AcDbArc
 50
161.7537767314486
 51
227.3846344447601
  0
ARC
  5
29B
330
1E
100
AcDbEntity
  8
IMAGE
100
AcDbCircle
 10
3.585857582993604
 20
7.478576773506896
 30
0.0
 40
0.011027073770414
100
AcDbArc
 50
116.7537767314487
 51
161.7537767314486
  0
ARC
  5
29C
330
1E
100
AcDbEntity
  8
IMAGE
100
AcDbCircle
 10
3.638469495457518
 20
7.505099709686236
 30
0.0
 40
0.011027073770414
100
AcDbArc
 50
71.75377673144888
 51
116.7537767314489
  0
ARC
  5
29D
330
1E
100
AcDbEntity
  8
IMAGE
100
AcDbCircle
 10
3.585857582993604
 20
7.478576773506896
 30
0.0
 40
0.0220541475408279
100
AcDbArc
 50
116.7537767314489
 51
161.7537767314481
  0
ARC
  5
29E
330
1E
100
AcDbEntity
  8
IMAGE
100
AcDbCircle
 10
3.548286848297207
 20
7.364614678130459
 30
0.0
 40
0.0220541475408279
100
AcDbArc
 50
161.7537767314485
 51
227.3846344447601
  0
ARC
  5
29F
330
1E
100
AcDbEntity
  8
IMAGE
100
AcDbCircle
 10
3.405474419714775
 20
7.355822751745472
 30
0.0
 40
0.0220541475408279
100
AcDbArc
 50
139.3551272668335
 51
161.7537767314485
  0
ARC
  5
2A0
330
1E
100
AcDbEntity
  8
IMAGE
100
AcDbCircle
 10
3.453629688463156
 20
7.411917497241926
 30
0.0
 40
0.0220541475408279
100
AcDbArc
 50
116.7537767314485
 51
139.3551272668333
  0
ARC
  5
2A1
330
1E
100
AcDbEntity
  8
IMAGE
100
AcDbCircle
 10
3.638469495457515
 20
7.505099709686229
 30
0.0
 40
0.0220541475408279
100
AcDbArc
 50
71.75377673144858
 51
116.7537767314485
  0
LINE
  5
2A2
330
1E
100
AcDbEntity
  8
IMAGE
100
AcDbLine
 10
3.733475243315199
 20
7.195117549755961
 30
0.0
 11
3.861110420579548
 21
7.153039108085627
 31
0.0
  0
LINE
  5
2A3
330
1E
100
AcDbEntity
  8
IMAGE
100
AcDbLine
 10
3.79481444719275
 20
7.099424734528806
 30
0.0
 11
3.817256282750261
 21
7.167496829069792
 31
0.0
  0
LINE
  5
2A4
330
1E
100
AcDbEntity
  8
IMAGE
100
AcDbLine
 10
3.711033407757688
 20
7.127045455214975
 30
0.0
 11
3.733475243315199
 21
7.195117549755961
 31
0.0
  0
LINE
  5
2A5
330
1E
100
AcDbEntity
  8
IMAGE
100
AcDbLine
 10
3.838668585022036
 20
7.084967013544641
 30
0.0
 11
3.79481444719275
 21
7.099424734528806
 31
0.0
  0
LINE
  5
2A6
330
1E
100
AcDbEntity
  8
IMAGE
100
AcDbLine
 10
3.49520749313687
 20
7.275223648788523
 30
0.0
 11
3.481534669880752
 21
7.287803223222118
 31
0.0
  0
LINE
  5
2A7
330
1E
100
AcDbEntity
  8
IMAGE
100
AcDbLine
 10
3.506954573473463
 20
7.271705248842073
 30
0.0
 11
3.513466231680701
 21
7.258424838749565
 31
0.0
  0
LINE
  5
2A8
330
1E
100
AcDbEntity
  8
IMAGE
100
AcDbLine
 10
3.523609975316155
 20
7.249092166505716
 30
0.0
 11
3.513466231680701
 21
7.258424838749565
 31
0.0
  0
ARC
  5
2A9
330
1E
100
AcDbEntity
  8
IMAGE
100
AcDbCircle
 10
3.747356540962873
 20
7.083140641283927
 30
0.0
 40
0.0137838422130174
100
AcDbArc
 50
341.7537767314485
 51
71.75377673144858
  0
LINE
  5
2AA
330
1E
100
AcDbEntity
  8
IMAGE
100
AcDbLine
 10
3.606307108463873
 20
7.161571356072682
 30
0.0
 11
3.517911794338441
 21
7.242898775640144
 31
0.0
  0
LINE
  5
2AB
330
1E
100
AcDbEntity
  8
IMAGE
100
AcDbLine
 10
3.601128223335217
 20
7.14586241117861
 30
0.0
 11
3.606307108463873
 21
7.161571356072682
 31
0.0
  0
ARC
  5
2AC
330
1E
100
AcDbEntity
  8
IMAGE
100
AcDbCircle
 10
3.596812485728005
 20
7.132771623766885
 30
0.0
 40
0.0137838422130174
100
AcDbArc
 50
71.75377673144858
 51
161.7537767314485
  0
LINE
  5
2AD
330
1E
100
AcDbEntity
  8
IMAGE
100
AcDbLine
 10
3.760447328374593
 20
7.078824903676716
 30
0.0
 11
3.744047525467178
 21
7.029079911512139
 31
0.0
  0
LINE
  5
2AE
330
1E
100
AcDbEntity
  8
IMAGE
100
AcDbLine
 10
3.583721698316271
 20
7.137087361374099
 30
0.0
 11
3.567321895408856
 21
7.087342369209522
 31
0.0
  0
LINE
  5
2AF
330
1E
100
AcDbEntity
  8
IMAGE
100
AcDbLine
 10
3.83348969989338
 20
7.069258068650569
 30
0.0
 11
3.601128223335217
 21
7.14586241117861
 31
0.0
  0
LINE
  5
2B0
330
1E
100
AcDbEntity
  8
IMAGE
100
AcDbLine
 10
3.744047525467178
 20
7.029079911512139
 30
0.0
 11
3.567321895408856
 21
7.087342369209522
 31
0.0
  0
LINE
  5
2B1
330
1E
100
AcDbEntity
  8
IMAGE
100
AcDbLine
 10
3.727684041202511
 20
7.034474583521157
 30
0.0
 11
3.719052565988085
 21
7.008293008697707
 31
0.0
  0
LINE
  5
2B2
330
1E
100
AcDbEntity
  8
IMAGE
100
AcDbLine
 10
3.583685379673522
 20
7.081947697200503
 30
0.0
 11
3.575053904459096
 21
7.05576612237705
 31
0.0
  0
LINE
  5
2B3
330
1E
100
AcDbEntity
  8
IMAGE
100
AcDbLine
 10
3.755052231370352
 20
6.996424730277864
 30
0.0
 11
3.751815428164944
 21
6.986606639719076
 31
0.0
  0
LINE
  5
2B4
330
1E
100
AcDbEntity
  8
IMAGE
100
AcDbLine
 10
3.539054239076842
 20
7.067634400796888
 30
0.0
 11
3.535817435871435
 21
7.0578163102381
 31
0.0
  0
LINE
  5
2B5
330
1E
100
AcDbEntity
  8
IMAGE
100
AcDbLine
 10
3.539054239076842
 20
7.067634400796888
 30
0.0
 11
3.755052231370352
 21
6.996424730277864
 31
0.0
  0
LINE
  5
2B6
330
1E
100
AcDbEntity
  8
IMAGE
100
AcDbLine
 10
3.678380334639983
 20
6.949133782593806
 30
0.0
 11
3.650759613953816
 21
6.86535274315875
 31
0.0
  0
LINE
  5
2B7
330
1E
100
AcDbEntity
  8
IMAGE
100
AcDbLine
 10
3.572568759735064
 20
6.98401747436368
 30
0.0
 11
3.544948039048897
 21
6.900236434928624
 31
0.0
  0
LINE
  5
2B8
330
1E
100
AcDbEntity
  8
IMAGE
100
AcDbLine
 10
3.703665401406263
 20
6.847910897273818
 30
0.0
 11
3.731286122092429
 21
6.931691936708872
 31
0.0
  0
LINE
  5
2B9
330
1E
100
AcDbEntity
  8
IMAGE
100
AcDbLine
 10
3.492042251596451
 20
6.917678280813557
 30
0.0
 11
3.519662972282618
 21
7.001459320248613
 31
0.0
  0
LINE
  5
2BA
330
1E
100
AcDbEntity
  8
IMAGE
100
AcDbLine
 10
3.517475551040775
 20
7.002180463738254
 30
0.0
 11
3.733473543334285
 21
6.930970793219229
 31
0.0
  0
LINE
  5
2BB
330
1E
100
AcDbEntity
  8
IMAGE
100
AcDbLine
 10
3.703665401406263
 20
6.847910897273818
 30
0.0
 11
3.492042251596451
 21
6.917678280813557
 31
0.0
  0
LINE
  5
2BC
330
1E
100
AcDbEntity
  8
IMAGE
100
AcDbLine
 10
3.884720109406715
 20
7.384908412115228
 30
0.0
 11
3.899772061874147
 21
7.430565013098853
 31
0.0
  0
LINE
  5
2BD
330
1E
100
AcDbEntity
  8
IMAGE
100
AcDbLine
 10
3.846766882693489
 20
7.410661636086278
 30
0.0
 11
3.856300710021769
 21
7.439580286415257
 31
0.0
  0
LINE
  5
2BE
330
1E
100
AcDbEntity
  8
IMAGE
100
AcDbLine
 10
3.85135002239939
 20
7.397886478712168
 30
0.0
 11
3.876539049330284
 21
7.381973423513946
 31
0.0
  0
LINE
  5
2BF
330
1E
100
AcDbEntity
  8
IMAGE
100
AcDbLine
 10
3.870499685134246
 20
7.385788764855925
 30
0.0
 11
3.84180024801838
 21
7.298735689735677
 31
0.0
  0
LINE
  5
2C0
330
1E
100
AcDbEntity
  8
IMAGE
100
AcDbLine
 10
3.700393097484961
 20
7.447653575024409
 30
0.0
 11
3.663636435263178
 21
7.450359252467711
 31
0.0
  0
LINE
  5
2C1
330
1E
100
AcDbEntity
  8
IMAGE
100
AcDbLine
 10
3.7212090732747
 20
7.484116954744852
 30
0.0
 11
3.71167524594642
 21
7.455198304415873
 31
0.0
  0
LINE
  5
2C2
330
1E
100
AcDbEntity
  8
IMAGE
100
AcDbLine
 10
3.529308156293875
 20
7.255285557371264
 30
0.0
 11
3.557861084466642
 21
7.22901565842514
 31
0.0
  0
LINE
  5
2C3
330
1E
100
AcDbEntity
  8
IMAGE
100
AcDbLine
 10
3.517911794338441
 20
7.242898775640144
 30
0.0
 11
3.577551540314794
 21
7.307721612857626
 31
0.0
  0
LINE
  5
2C4
330
1E
100
AcDbEntity
  8
IMAGE
100
AcDbLine
 10
3.516486806818035
 20
7.282065896767367
 30
0.0
 11
3.565327222261726
 21
7.237130653333512
 31
0.0
  0
LINE
  5
2C5
330
1E
100
AcDbEntity
  8
IMAGE
100
AcDbLine
 10
3.50090567411458
 20
7.281417039654082
 30
0.0
 11
3.50902066902295
 21
7.273950901858997
 31
0.0
  0
LINE
  5
2C6
330
1E
100
AcDbEntity
  8
IMAGE
100
AcDbLine
 10
3.506954573473463
 20
7.271705248842073
 30
0.0
 11
3.557264053043869
 21
7.326386957345357
 31
0.0
  0
LINE
  5
2C7
330
1E
100
AcDbEntity
  8
IMAGE
100
AcDbLine
 10
3.49520749313687
 20
7.275223648788523
 30
0.0
 11
3.549149058135501
 21
7.333853095140449
 31
0.0
  0
LINE
  5
2C8
330
1E
100
AcDbEntity
  8
IMAGE
100
AcDbLine
 10
3.482903396601829
 20
7.361372220903518
 30
0.0
 11
3.481491877695022
 21
7.359727981427777
 31
0.0
  0
LINE
  5
2C9
330
1E
100
AcDbEntity
  8
IMAGE
100
AcDbLine
 10
3.450424210974814
 20
7.391254442408493
 30
0.0
 11
3.439976085967077
 21
7.379083709517633
 31
0.0
  0
LINE
  5
2CA
330
1E
100
AcDbEntity
  8
IMAGE
100
AcDbLine
 10
3.434184618161301
 20
7.406195553160987
 30
0.0
 11
3.482903396601829
 21
7.361372220903518
 31
0.0
  0
LINE
  5
2CB
330
1E
100
AcDbEntity
  8
IMAGE
100
AcDbLine
 10
3.443306209502984
 20
7.30040628512582
 30
0.0
 11
3.50090567411458
 21
7.281417039654082
 31
0.0
  0
LINE
  5
2CC
330
1E
100
AcDbEntity
  8
IMAGE
100
AcDbLine
 10
3.38244374769021
 20
7.356402318589021
 30
0.0
 11
3.3929163776196
 21
7.352949728503247
 31
0.0
  0
LINE
  5
2CD
330
1E
100
AcDbEntity
  8
IMAGE
100
AcDbLine
 10
3.38244374769021
 20
7.356402318589021
 30
0.0
 11
3.443306209502984
 21
7.30040628512582
 31
0.0
  0
LINE
  5
2CE
330
1E
100
AcDbEntity
  8
IMAGE
100
AcDbLine
 10
3.598612881978606
 20
7.28834428966924
 30
0.0
 11
3.583265989986201
 21
7.241793058156108
 31
0.0
  0
LINE
  5
2CF
330
1E
100
AcDbEntity
  8
IMAGE
100
AcDbLine
 10
3.540820710502107
 20
7.356499683222086
 30
0.0
 11
3.589818599766358
 21
7.311419557227393
 31
0.0
  0
LINE
  5
2D0
330
1E
100
AcDbEntity
  8
IMAGE
100
AcDbLine
 10
3.533354572707036
 20
7.348384688313712
 30
0.0
 11
3.598612881978606
 21
7.28834428966924
 31
0.0
  0
LINE
  5
2D1
330
1E
100
AcDbEntity
  8
IMAGE
100
AcDbLine
 10
3.562889842687919
 20
7.479347229099507
 30
0.0
 11
3.448665770685531
 21
7.421764114744151
 31
0.0
  0
LINE
  5
2D2
330
1E
100
AcDbEntity
  8
IMAGE
100
AcDbLine
 10
3.564912323134851
 20
7.485481953678434
 30
0.0
 11
3.527341588438455
 21
7.371519858301997
 31
0.0
  0
LINE
  5
2D3
330
1E
100
AcDbEntity
  8
IMAGE
100
AcDbLine
 10
3.575384953064225
 20
7.482029363592657
 30
0.0
 11
3.537814218367831
 21
7.368067268216227
 31
0.0
  0
LINE
  5
2D4
330
1E
100
AcDbEntity
  8
IMAGE
100
AcDbLine
 10
3.659954125833264
 20
7.509627582286155
 30
0.0
 11
3.641922085543287
 21
7.515572339615612
 31
0.0
  0
LINE
  5
2D5
330
1E
100
AcDbEntity
  8
IMAGE
100
AcDbLine
 10
3.395685378745385
 20
7.361348850131935
 30
0.0
 11
3.3929163776196
 21
7.352949728503247
 31
0.0
  0
LINE
  5
2D6
330
1E
100
AcDbEntity
  8
IMAGE
100
AcDbLine
 10
3.445262770496223
 20
7.419100187522928
 30
0.0
 11
3.395685378745385
 21
7.361348850131935
 31
0.0
  0
LINE
  5
2D7
330
1E
100
AcDbEntity
  8
IMAGE
100
AcDbLine
 10
3.633505577679907
 20
7.514946327188463
 30
0.0
 11
3.580893665215991
 21
7.488423391009115
 31
0.0
  0
LINE
  5
2D8
330
1E
100
AcDbEntity
  8
IMAGE
100
AcDbLine
 10
3.666974165676871
 20
7.495702362271009
 30
0.0
 11
3.607757367490835
 21
7.316081962049997
 31
0.0
  0
LINE
  5
2D9
330
1E
100
AcDbEntity
  8
IMAGE
100
AcDbLine
 10
3.916007282935675
 20
7.425212626577481
 30
0.0
 11
3.871123611820654
 21
7.289068437495517
 31
0.0
  0
LINE
  5
2DA
330
1E
100
AcDbEntity
  8
IMAGE
100
AcDbLine
 10
3.67744679560626
 20
7.492249772185235
 30
0.0
 11
3.59373861991559
 21
7.238340468070335
 31
0.0
  0
LINE
  5
2DB
330
1E
100
AcDbEntity
  8
IMAGE
100
AcDbLine
 10
3.928206207907937
 20
7.426996351456406
 30
0.0
 11
3.881596241750031
 21
7.285615847409749
 31
0.0
  0
LINE
  5
2DC
330
1E
100
AcDbEntity
  8
IMAGE
100
AcDbLine
 10
3.943972582638044
 20
7.404382226390787
 30
0.0
 11
3.902541501608796
 21
7.278710667238206
 31
0.0
  0
LINE
  5
2DD
330
1E
100
AcDbEntity
  8
IMAGE
100
AcDbLine
 10
3.384529159856009
 20
7.362727931917014
 30
0.0
 11
3.38244374769021
 21
7.356402318589021
 31
0.0
  0
LINE
  5
2DE
330
1E
100
AcDbEntity
  8
IMAGE
100
AcDbLine
 10
3.436895852529308
 20
7.426282877803942
 30
0.0
 11
3.388740583780929
 21
7.370188132307495
 31
0.0
  0
LINE
  5
2DF
330
1E
100
AcDbEntity
  8
IMAGE
100
AcDbLine
 10
3.628541659902281
 20
7.524792944690689
 30
0.0
 11
3.443701852907922
 21
7.431610732246383
 31
0.0
  0
LINE
  5
2E0
330
1E
100
AcDbEntity
  8
IMAGE
100
AcDbLine
 10
3.843533306033418
 20
7.460716534628712
 30
0.0
 11
3.863152043935722
 21
7.523913905309708
 31
0.0
  0
LINE
  5
2E1
330
1E
100
AcDbEntity
  8
IMAGE
100
AcDbLine
 10
3.744043321704291
 20
7.493516140443535
 30
0.0
 11
3.765855664831236
 21
7.555990328915118
 31
0.0
  0
LINE
  5
2E2
330
1E
100
AcDbEntity
  8
IMAGE
100
AcDbLine
 10
3.793558594524726
 20
7.546857297283951
 30
0.0
 11
3.754286232289539
 21
7.559804510105593
 31
0.0
  0
LINE
  5
2E3
330
1E
100
AcDbEntity
  8
IMAGE
100
AcDbLine
 10
3.800463774696268
 20
7.567802557142718
 30
0.0
 11
3.774282199872802
 21
7.576434032357148
 31
0.0
  0
LINE
  5
2E4
330
1E
100
AcDbEntity
  8
IMAGE
100
AcDbLine
 10
3.774339629708847
 20
7.558998792420187
 30
0.0
 11
3.756012527332425
 21
7.565040825070287
 31
0.0
  0
LINE
  5
2E5
330
1E
100
AcDbEntity
  8
IMAGE
100
AcDbLine
 10
3.800463774696268
 20
7.567802557142718
 30
0.0
 11
3.774339629708847
 21
7.558998792420187
 31
0.0
  0
LINE
  5
2E6
330
1E
100
AcDbEntity
  8
IMAGE
100
AcDbLine
 10
3.842354294413786
 20
7.553992196799637
 30
0.0
 11
3.858120669143897
 21
7.531378071734023
 31
0.0
  0
LINE
  5
2E7
330
1E
100
AcDbEntity
  8
IMAGE
100
AcDbLine
 10
3.858120669143897
 20
7.531378071734023
 30
0.0
 11
3.85639437410101
 21
7.526141756769328
 31
0.0
  0
LINE
  5
2E8
330
1E
100
AcDbEntity
  8
IMAGE
100
AcDbLine
 10
3.774339629708847
 20
7.558998792420187
 30
0.0
 11
3.77261333466596
 21
7.553762477455492
 31
0.0
  0
LINE
  5
2E9
330
1E
100
AcDbEntity
  8
IMAGE
100
AcDbLine
 10
3.842354294413786
 20
7.553992196799637
 30
0.0
 11
3.81473357372762
 21
7.47021115736458
 31
0.0
  0
LINE
  5
2EA
330
1E
100
AcDbEntity
  8
IMAGE
100
AcDbLine
 10
3.800463774696268
 20
7.567802557142718
 30
0.0
 11
3.772843054010102
 21
7.484021517707661
 31
0.0
  0
LINE
  5
2EB
330
1E
100
AcDbEntity
  8
IMAGE
100
AcDbLine
 10
3.876447771520318
 20
7.525336039083923
 30
0.0
 11
3.874721476477431
 21
7.520099724119228
 31
0.0
  0
LINE
  5
2EC
330
1E
100
AcDbEntity
  8
IMAGE
100
AcDbLine
 10
3.868535869237254
 20
7.545360721585206
 30
0.0
 11
3.876447771520318
 21
7.525336039083923
 31
0.0
  0
LINE
  5
2ED
330
1E
100
AcDbEntity
  8
IMAGE
100
AcDbLine
 10
3.756012527332425
 20
7.565040825070287
 30
0.0
 11
3.774282199872802
 21
7.576434032357148
 31
0.0
  0
LINE
  5
2EE
330
1E
100
AcDbEntity
  8
IMAGE
100
AcDbLine
 10
3.754286232289539
 20
7.559804510105593
 30
0.0
 11
3.756012527332425
 21
7.565040825070287
 31
0.0
  0
LINE
  5
2EF
330
1E
100
AcDbEntity
  8
IMAGE
100
AcDbLine
 10
3.876447771520318
 20
7.525336039083923
 30
0.0
 11
3.858120669143897
 21
7.531378071734023
 31
0.0
  0
LINE
  5
2F0
330
1E
100
AcDbEntity
  8
IMAGE
100
AcDbLine
 10
3.868535869237254
 20
7.545360721585206
 30
0.0
 11
3.842354294413786
 21
7.553992196799637
 31
0.0
  0
LINE
  5
2F1
330
1E
100
AcDbEntity
  8
IMAGE
100
AcDbLine
 10
3.874721476477431
 20
7.520099724119228
 30
0.0
 11
3.835449114242244
 21
7.53304693694087
 31
0.0
  0
LINE
  5
2F2
330
1E
100
AcDbEntity
  8
IMAGE
100
AcDbLine
 10
3.397195672787079
 20
6.678655577460061
 30
0.0
 11
3.355379683853933
 21
6.551829635313284
 31
0.0
  0
LINE
  5
2F3
330
1E
100
AcDbEntity
  8
IMAGE
100
AcDbLine
 10
3.641907694793085
 20
6.597979538418858
 30
0.0
 11
3.6000796782093
 21
6.471157561517454
 31
0.0
  0
LINE
  5
2F4
330
1E
100
AcDbEntity
  8
IMAGE
100
AcDbLine
 10
3.467654739798525
 20
6.89235463814224
 30
0.0
 11
3.712387028144369
 21
6.811671917745499
 31
0.0
  0
LINE
  5
2F5
330
1E
100
AcDbEntity
  8
IMAGE
100
AcDbLine
 10
3.373548317759071
 20
6.54583984614706
 30
0.0
 11
3.581911044304162
 21
6.477147350683678
 31
0.0
  0
LINE
  5
2F6
330
1E
100
AcDbEntity
  8
IMAGE
100
AcDbLine
 10
3.6000796782093
 20
6.471157561517454
 30
0.0
 11
3.355379683853933
 21
6.551829635313284
 31
0.0
  0
LINE
  5
2F7
330
1E
100
AcDbEntity
  8
IMAGE
100
AcDbLine
 10
3.71233374305284
 20
6.811689484639391
 30
0.0
 11
3.467601454706996
 21
6.892372205036132
 31
0.0
  0
LINE
  5
2F8
330
1E
100
AcDbEntity
  8
IMAGE
100
AcDbLine
 10
3.467654739798525
 20
6.89235463814224
 30
0.0
 11
3.423831913958102
 21
6.759442053350054
 31
0.0
  0
LINE
  5
2F9
330
1E
100
AcDbEntity
  8
IMAGE
100
AcDbLine
 10
3.712387028144369
 20
6.811671917745499
 30
0.0
 11
3.668551597421156
 21
6.678763488499118
 31
0.0
  0
TEXT
  5
2FF
330
1E
100
AcDbEntity
  8
TEXT_BUBBLES
100
AcDbText
 10
4.462975843548491
 20
7.549341646024348
 30
0.0
 40
0.125
  1
1
  7
ROMANS
 72
     4
 11
4.513571081643729
 21
7.611841646024348
 31
0.0
100
AcDbText
  0
ARC
  5
302
330
1E
100
AcDbEntity
  8
IMAGE
100
AcDbCircle
 10
2.307984685047594
 20
6.603245345015263
 30
0.0
 40
0.1818260367492528
100
AcDbArc
 50
334.0243376330923
 51
63.22301112150066
  0
ARC
  5
303
330
1E
100
AcDbEntity
  8
IMAGE
100
AcDbCircle
 10
2.553358775650695
 20
6.685935735981745
 30
0.0
 40
0.1818260367492528
100
AcDbArc
 50
154.0243376330924
 51
243.2230111215007
  0
ARC
  5
304
330
1E
100
AcDbEntity
  8
IMAGE
100
AcDbCircle
 10
2.119132365792557
 20
6.334311476475637
 30
0.0
 40
0.1818260367492528
100
AcDbArc
 50
272.8351313760581
 51
2.0338048644738
  0
ARC
  5
305
330
1E
100
AcDbEntity
  8
IMAGE
100
AcDbCircle
 10
2.309837376822002
 20
6.159160844544873
 30
0.0
 40
0.1818260367492528
100
AcDbArc
 50
92.83513137605813
 51
182.0338048644738
  0
ARC
  5
306
330
1E
100
AcDbEntity
  8
IMAGE
100
AcDbCircle
 10
2.658183477548164
 20
6.302419288187087
 30
0.0
 40
0.1818260367492528
100
AcDbArc
 50
92.83513137605813
 51
182.0338048644738
  0
ARC
  5
307
330
1E
100
AcDbEntity
  8
IMAGE
100
AcDbCircle
 10
2.467478466518718
 20
6.477569920117851
 30
0.0
 40
0.1818260367492528
100
AcDbArc
 50
272.8351313760581
 51
2.0338048644738
  0
ARC
  5
308
330
1E
100
AcDbEntity
  8
IMAGE
100
AcDbCircle
 10
2.734778287998283
 20
6.081356278487007
 30
0.0
 40
0.1818260367492528
100
AcDbArc
 50
92.83513137605813
 51
182.0338048644738
  0
ARC
  5
309
330
1E
100
AcDbEntity
  8
IMAGE
100
AcDbCircle
 10
2.544073276968837
 20
6.256506910417771
 30
0.0
 40
0.1818260367492528
100
AcDbArc
 50
272.8351313760581
 51
2.0338048644738
  0
ARC
  5
30A
330
1E
100
AcDbEntity
  8
IMAGE
100
AcDbCircle
 10
2.499368110122821
 20
5.99909950355294
 30
0.0
 40
0.1818260367492528
100
AcDbArc
 50
92.83513137605813
 51
182.0338048644738
  0
ARC
  5
30B
330
1E
100
AcDbEntity
  8
IMAGE
100
AcDbCircle
 10
2.308663099093376
 20
6.174250135483706
 30
0.0
 40
0.1818260367492528
100
AcDbArc
 50
272.8351313760581
 51
2.0338048644738
  0
ARC
  5
30C
330
1E
100
AcDbEntity
  8
IMAGE
100
AcDbCircle
 10
2.485832033393676
 20
6.186383090993968
 30
0.0
 40
0.1818260367492528
100
AcDbArc
 50
92.83513137605813
 51
182.0338048644738
  0
ARC
  5
30D
330
1E
100
AcDbEntity
  8
IMAGE
100
AcDbCircle
 10
2.295127022364228
 20
6.361533722924733
 30
0.0
 40
0.1818260367492528
100
AcDbArc
 50
272.8351313760581
 51
2.0338048644738
  0
ARC
  5
30E
330
1E
100
AcDbEntity
  8
IMAGE
100
AcDbCircle
 10
2.853695317264492
 20
6.467188062788103
 30
0.0
 40
0.1818260367492528
100
AcDbArc
 50
109.0243376330851
 51
198.2230111215008
  0
ARC
  5
30F
330
1E
100
AcDbEntity
  8
IMAGE
100
AcDbCircle
 10
2.621718697680192
 20
6.582222809989673
 30
0.0
 40
0.1818260367492528
100
AcDbArc
 50
289.0243376330851
 51
18.2230111215008
  0
ARC
  5
310
330
1E
100
AcDbEntity
  8
IMAGE
100
AcDbCircle
 10
2.529555741841128
 20
6.376623014628739
 30
0.0
 40
0.1818260367492528
100
AcDbArc
 50
109.0243376330851
 51
198.2230111215008
  0
ARC
  5
311
330
1E
100
AcDbEntity
  8
IMAGE
100
AcDbCircle
 10
2.297579122256829
 20
6.491657761830309
 30
0.0
 40
0.1818260367492528
100
AcDbArc
 50
289.0243376330851
 51
18.2230111215008
  0
ARC
  5
312
330
1E
100
AcDbEntity
  8
IMAGE
100
AcDbCircle
 10
2.61268666435719
 20
6.124168573371175
 30
0.0
 40
0.1818260367492528
100
AcDbArc
 50
109.0243376330851
 51
198.2230111215008
  0
ARC
  5
313
330
1E
100
AcDbEntity
  8
IMAGE
100
AcDbCircle
 10
2.380710044772891
 20
6.239203320572743
 30
0.0
 40
0.1818260367492528
100
AcDbArc
 50
289.0243376330851
 51
18.2230111215008
  0
ARC
  5
314
330
1E
100
AcDbEntity
  8
IMAGE
100
AcDbCircle
 10
2.786540559981872
 20
6.292690626954083
 30
0.0
 40
0.1818260367492528
100
AcDbArc
 50
109.0243376330851
 51
198.2230111215008
  0
ARC
  5
315
330
1E
100
AcDbEntity
  8
IMAGE
100
AcDbCircle
 10
2.554563940397572
 20
6.407725374155651
 30
0.0
 40
0.1818260367492528
100
AcDbArc
 50
289.0243376330851
 51
18.2230111215008
  0
ARC
  5
316
330
1E
100
AcDbEntity
  8
IMAGE
100
AcDbCircle
 10
2.322262901021522
 20
6.157586479787692
 30
0.0
 40
0.1818260367492528
100
AcDbArc
 50
136.4987827070746
 51
225.6974561954903
  0
ARC
  5
317
330
1E
100
AcDbEntity
  8
IMAGE
100
AcDbCircle
 10
2.063377752367052
 20
6.152624131186405
 30
0.0
 40
0.1818260367492528
100
AcDbArc
 50
316.4987827070745
 51
45.69745619549032
  0
ARC
  5
318
330
1E
100
AcDbEntity
  8
IMAGE
100
AcDbCircle
 10
2.450033469303267
 20
6.118629876761334
 30
0.0
 40
0.1818260367492528
100
AcDbArc
 50
136.4987827070746
 51
225.6974561954903
  0
ARC
  5
319
330
1E
100
AcDbEntity
  8
IMAGE
100
AcDbCircle
 10
2.191148320648797
 20
6.113667528160043
 30
0.0
 40
0.1818260367492528
100
AcDbArc
 50
316.4987827070745
 51
45.69745619549032
  0
ARC
  5
31A
330
1E
100
AcDbEntity
  8
IMAGE
100
AcDbCircle
 10
2.870182558130023
 20
6.181936659257956
 30
0.0
 40
0.1818260367492528
100
AcDbArc
 50
136.4987827070746
 51
225.6974561954903
  0
ARC
  5
31B
330
1E
100
AcDbEntity
  8
IMAGE
100
AcDbCircle
 10
2.611297409475553
 20
6.176974310656667
 30
0.0
 40
0.1818260367492528
100
AcDbArc
 50
316.4987827070745
 51
45.69745619549032
  0
ARC
  5
31C
330
1E
100
AcDbEntity
  8
IMAGE
100
AcDbCircle
 10
2.42955885948208
 20
6.426260720366666
 30
0.0
 40
0.1818260367492528
100
AcDbArc
 50
136.4987827070746
 51
225.6974561954903
  0
ARC
  5
31D
330
1E
100
AcDbEntity
  8
IMAGE
100
AcDbCircle
 10
2.170673710827609
 20
6.421298371765377
 30
0.0
 40
0.1818260367492528
100
AcDbArc
 50
316.4987827070745
 51
45.69745619549032
  0
ARC
  5
31E
330
1E
100
AcDbEntity
  8
IMAGE
100
AcDbCircle
 10
2.435495526908167
 20
6.661144360758902
 30
0.0
 40
0.1818260367492528
100
AcDbArc
 50
136.4987827070746
 51
225.6974561954903
  0
ARC
  5
31F
330
1E
100
AcDbEntity
  8
IMAGE
100
AcDbCircle
 10
2.176610378253696
 20
6.656182012157612
 30
0.0
 40
0.1818260367492528
100
AcDbArc
 50
316.4987827070745
 51
45.69745619549032
  0
ARC
  5
320
330
1E
100
AcDbEntity
  8
IMAGE
100
AcDbCircle
 10
2.735046105042702
 20
6.580264064865552
 30
0.0
 40
0.1818260367492528
100
AcDbArc
 50
136.4987827070746
 51
225.6974561954903
  0
ARC
  5
321
330
1E
100
AcDbEntity
  8
IMAGE
100
AcDbCircle
 10
2.476160956388232
 20
6.575301716264263
 30
0.0
 40
0.1818260367492528
100
AcDbArc
 50
316.4987827070745
 51
45.69745619549032
  0
ARC
  5
322
330
1E
100
AcDbEntity
  8
IMAGE
100
AcDbCircle
 10
2.943176985382883
 20
6.518196643308851
 30
0.0
 40
0.1818260367492528
100
AcDbArc
 50
136.4987827070746
 51
225.6974561954903
  0
ARC
  5
323
330
1E
100
AcDbEntity
  8
IMAGE
100
AcDbCircle
 10
2.684291836728412
 20
6.513234294707562
 30
0.0
 40
0.1818260367492528
100
AcDbArc
 50
316.4987827070745
 51
45.69745619549032
  0
ARC
  5
324
330
1E
100
AcDbEntity
  8
IMAGE
100
AcDbCircle
 10
2.813040272100687
 20
6.007950087402585
 30
0.0
 40
0.1818260367492528
100
AcDbArc
 50
136.4987827070746
 51
225.6974561954903
  0
ARC
  5
325
330
1E
100
AcDbEntity
  8
IMAGE
100
AcDbCircle
 10
2.554155123446217
 20
6.002987738801298
 30
0.0
 40
0.1818260367492528
100
AcDbArc
 50
316.4987827070745
 51
45.69745619549032
  0
LINE
  5
326
330
1E
100
AcDbEntity
  8
IMAGE
100
AcDbLine
 10
2.911327447394795
 20
5.899671226410541
 30
0.0
 11
2.416635862747956
 21
4.399139229711257
 31
0.0
  0
LINE
  5
327
330
1E
100
AcDbEntity
  8
IMAGE
100
AcDbLine
 10
3.344454770291912
 20
5.756878908626493
 30
0.0
 11
3.091524107570577
 21
4.989672503385815
 31
0.0
  0
LINE
  5
328
330
1E
100
AcDbEntity
  8
IMAGE
100
AcDbLine
 10
3.114563243290511
 20
5.832668964446273
 30
0.0
 11
2.551791727091639
 21
4.125632311517888
 31
0.0
  0
LINE
  5
329
330
1E
100
AcDbEntity
  8
IMAGE
100
AcDbLine
 10
3.136092043746821
 20
5.825571404089876
 30
0.0
 11
2.883161381025487
 21
5.058364998849198
 31
0.0
  0
ARC
  5
32A
330
1E
100
AcDbEntity
  8
IMAGE
100
AcDbCircle
 10
3.274431640778791
 20
5.828356209635201
 30
0.0
 40
0.0363347932812923
100
AcDbArc
 50
124.3070622911517
 51
214.5654081474501
  0
LINE
  5
32B
330
1E
100
AcDbEntity
  8
IMAGE
100
AcDbLine
 10
3.235525341701633
 20
5.864444761977813
 30
0.0
 11
3.226083702802196
 21
5.813816750942491
 31
0.0
  0
LINE
  5
32C
330
1E
100
AcDbEntity
  8
IMAGE
100
AcDbLine
 10
3.363325481791647
 20
5.822311935781391
 30
0.0
 11
3.353883842892
 21
5.77168392474614
 31
0.0
  0
ARC
  5
32D
330
1E
100
AcDbEntity
  8
IMAGE
100
AcDbCircle
 10
3.38380478392553
 20
5.792298349076435
 30
0.0
 40
0.0363347932812923
100
AcDbArc
 50
124.3070622911517
 51
214.5654081474501
  0
LINE
  5
32E
330
1E
100
AcDbEntity
  8
IMAGE
100
AcDbLine
 10
3.344898484848476
 20
5.828386901419007
 30
0.0
 11
3.33545684594883
 21
5.777758890383756
 31
0.0
  0
ARC
  5
32F
330
1E
100
AcDbEntity
  8
IMAGE
100
AcDbCircle
 10
3.36537778698236
 20
5.798373314714051
 30
0.0
 40
0.0363347932812923
100
AcDbArc
 50
124.3070622911517
 51
214.5654081474501
  0
LINE
  5
330
330
1E
100
AcDbEntity
  8
IMAGE
100
AcDbLine
 10
3.326471487905194
 20
5.834461867056665
 30
0.0
 11
3.317029849005661
 21
5.783833856021377
 31
0.0
  0
ARC
  5
331
330
1E
100
AcDbEntity
  8
IMAGE
100
AcDbCircle
 10
3.346950790039183
 20
5.804448280351675
 30
0.0
 40
0.0363347932812923
100
AcDbArc
 50
124.3070622911517
 51
214.5654081474501
  0
LINE
  5
332
330
1E
100
AcDbEntity
  8
IMAGE
100
AcDbLine
 10
3.308638910218169
 20
5.840340866060843
 30
0.0
 11
3.299197271318733
 21
5.789712855025522
 31
0.0
  0
ARC
  5
333
330
1E
100
AcDbEntity
  8
IMAGE
100
AcDbCircle
 10
3.329118212352155
 20
5.810327279355854
 30
0.0
 40
0.0363347932812923
100
AcDbArc
 50
124.3070622911517
 51
214.5654081474501
  0
LINE
  5
334
330
1E
100
AcDbEntity
  8
IMAGE
100
AcDbLine
 10
3.253952338644807
 20
5.858369796340191
 30
0.0
 11
3.24451069974537
 21
5.80774178530487
 31
0.0
  0
ARC
  5
335
330
1E
100
AcDbEntity
  8
IMAGE
100
AcDbCircle
 10
3.292264218465822
 20
5.822477210631021
 30
0.0
 40
0.0363347932812923
100
AcDbArc
 50
124.3070622911517
 51
214.5654081474501
  0
LINE
  5
336
330
1E
100
AcDbEntity
  8
IMAGE
100
AcDbLine
 10
3.271784916331831
 20
5.852490797336013
 30
0.0
 11
3.262343277432297
 21
5.801862786300723
 31
0.0
  0
ARC
  5
337
330
1E
100
AcDbEntity
  8
IMAGE
100
AcDbCircle
 10
3.310691215408996
 20
5.816402244993398
 30
0.0
 40
0.0363347932812923
100
AcDbArc
 50
124.3070622911517
 51
214.5654081474501
  0
LINE
  5
338
330
1E
100
AcDbEntity
  8
IMAGE
100
AcDbLine
 10
3.290211913275113
 20
5.846415831698354
 30
0.0
 11
3.280770274375466
 21
5.795787820663102
 31
0.0
  0
LINE
  5
339
330
1E
100
AcDbEntity
  8
IMAGE
100
AcDbLine
 10
3.377324902982142
 20
5.835610210964082
 30
0.0
 11
3.350691151785519
 21
5.754822914185639
 31
0.0
  0
ARC
  5
33A
330
1E
100
AcDbEntity
  8
IMAGE
100
AcDbCircle
 10
3.237577646892345
 20
5.840506140910477
 30
0.0
 40
0.0363347932812923
100
AcDbArc
 50
124.3070622911517
 51
214.5654081474501
  0
LINE
  5
33B
330
1E
100
AcDbEntity
  8
IMAGE
100
AcDbLine
 10
3.217098344758452
 20
5.870519727615437
 30
0.0
 11
3.207656705858815
 21
5.819891716580182
 31
0.0
  0
LINE
  5
33C
330
1E
100
AcDbEntity
  8
IMAGE
100
AcDbLine
 10
3.198671347815288
 20
5.876594693253057
 30
0.0
 11
3.189229708915641
 21
5.825966682217805
 31
0.0
  0
ARC
  5
33D
330
1E
100
AcDbEntity
  8
IMAGE
100
AcDbCircle
 10
3.219150649949171
 20
5.8465811065481
 30
0.0
 40
0.0363347932812923
100
AcDbArc
 50
124.3070622911517
 51
214.5654081474501
  0
LINE
  5
33E
330
1E
100
AcDbEntity
  8
IMAGE
100
AcDbLine
 10
3.180244350872006
 20
5.882669658890716
 30
0.0
 11
3.170802711972472
 21
5.832041647855426
 31
0.0
  0
ARC
  5
33F
330
1E
100
AcDbEntity
  8
IMAGE
100
AcDbCircle
 10
3.200723653005997
 20
5.852656072185723
 30
0.0
 40
0.0363347932812923
100
AcDbArc
 50
124.3070622911517
 51
214.5654081474501
  0
LINE
  5
340
330
1E
100
AcDbEntity
  8
IMAGE
100
AcDbLine
 10
3.162411773184982
 20
5.888548657894894
 30
0.0
 11
3.152970134285545
 21
5.837920646859572
 31
0.0
  0
ARC
  5
341
330
1E
100
AcDbEntity
  8
IMAGE
100
AcDbCircle
 10
3.182891075318966
 20
5.858535071189903
 30
0.0
 40
0.0363347932812923
100
AcDbArc
 50
124.3070622911517
 51
214.5654081474501
  0
LINE
  5
342
330
1E
100
AcDbEntity
  8
IMAGE
100
AcDbLine
 10
3.143984776241808
 20
5.894623623532515
 30
0.0
 11
3.13454313734237
 21
5.843995612497193
 31
0.0
  0
ARC
  5
343
330
1E
100
AcDbEntity
  8
IMAGE
100
AcDbCircle
 10
3.164464078375701
 20
5.864610036827555
 30
0.0
 40
0.0363347932812923
100
AcDbArc
 50
124.3070622911517
 51
214.5654081474501
  0
LINE
  5
344
330
1E
100
AcDbEntity
  8
IMAGE
100
AcDbLine
 10
3.125557779298627
 20
5.90069858917014
 30
0.0
 11
3.11611614039899
 21
5.850070578134884
 31
0.0
  0
ARC
  5
345
330
1E
100
AcDbEntity
  8
IMAGE
100
AcDbCircle
 10
3.14603708143252
 20
5.870685002465179
 30
0.0
 40
0.0363347932812923
100
AcDbArc
 50
124.3070622911517
 51
214.5654081474501
  0
LINE
  5
346
330
1E
100
AcDbEntity
  8
IMAGE
100
AcDbLine
 10
3.107130782355453
 20
5.906773554807763
 30
0.0
 11
3.097689143455816
 21
5.856145543772507
 31
0.0
  0
ARC
  5
347
330
1E
100
AcDbEntity
  8
IMAGE
100
AcDbCircle
 10
3.127610084489345
 20
5.876759968102803
 30
0.0
 40
0.0363347932812923
100
AcDbArc
 50
124.3070622911517
 51
214.5654081474501
  0
ARC
  5
348
330
1E
100
AcDbEntity
  8
IMAGE
100
AcDbCircle
 10
3.256004643835527
 20
5.834431175272854
 30
0.0
 40
0.0363347932812923
100
AcDbArc
 50
124.3070622911517
 51
214.5654081474501
  0
ARC
  5
349
330
1E
100
AcDbEntity
  8
IMAGE
100
AcDbCircle
 10
3.072329093659721
 20
5.894984865015704
 30
0.0
 40
0.0363347932812923
100
AcDbArc
 50
124.3070622911517
 51
214.5654081474501
  0
LINE
  5
34A
330
1E
100
AcDbEntity
  8
IMAGE
100
AcDbLine
 10
3.032828375326205
 20
5.931269383991828
 30
0.0
 11
3.023386736426871
 21
5.880641372956475
 31
0.0
  0
LINE
  5
34B
330
1E
100
AcDbEntity
  8
IMAGE
100
AcDbLine
 10
3.088109366155826
 20
5.913044487078929
 30
0.0
 11
3.078667727256491
 21
5.862416476043573
 31
0.0
  0
ARC
  5
34C
330
1E
100
AcDbEntity
  8
IMAGE
100
AcDbCircle
 10
3.108588668290021
 20
5.883030900373869
 30
0.0
 40
0.0363347932812923
100
AcDbArc
 50
124.3070622911517
 51
214.5654081474501
  0
LINE
  5
34D
330
1E
100
AcDbEntity
  8
IMAGE
100
AcDbLine
 10
3.070276788468909
 20
5.918923486083071
 30
0.0
 11
3.060835149569468
 21
5.868295475047752
 31
0.0
  0
ARC
  5
34E
330
1E
100
AcDbEntity
  8
IMAGE
100
AcDbCircle
 10
3.090756090602997
 20
5.888909899378047
 30
0.0
 40
0.0363347932812923
100
AcDbArc
 50
124.3070622911517
 51
214.5654081474501
  0
LINE
  5
34F
330
1E
100
AcDbEntity
  8
IMAGE
100
AcDbLine
 10
3.05184979152573
 20
5.924998451720696
 30
0.0
 11
3.042408152626299
 21
5.874370440685373
 31
0.0
  0
LINE
  5
350
330
1E
100
AcDbEntity
  8
IMAGE
100
AcDbLine
 10
3.014995797639278
 20
5.937148382995976
 30
0.0
 11
3.005554158739846
 21
5.886520371960653
 31
0.0
  0
ARC
  5
351
330
1E
100
AcDbEntity
  8
IMAGE
100
AcDbCircle
 10
3.035475099773366
 20
5.907134796290952
 30
0.0
 40
0.0363347932812923
100
AcDbArc
 50
124.3070622911517
 51
214.5654081474501
  0
ARC
  5
352
330
1E
100
AcDbEntity
  8
IMAGE
100
AcDbCircle
 10
3.053307677460292
 20
5.901255797286806
 30
0.0
 40
0.0363347932812923
100
AcDbArc
 50
124.3070622911517
 51
214.5654081474501
  0
LINE
  5
353
330
1E
100
AcDbEntity
  8
IMAGE
100
AcDbLine
 10
3.377324902982142
 20
5.835610210964082
 30
0.0
 11
2.937121045565184
 21
5.980735502708785
 31
0.0
  0
LINE
  5
354
330
1E
100
AcDbEntity
  8
IMAGE
100
AcDbLine
 10
3.350691151785519
 20
5.754822914185639
 30
0.0
 11
2.910487294368561
 21
5.899948205930344
 31
0.0
  0
ARC
  5
355
330
1E
100
AcDbEntity
  8
IMAGE
100
AcDbCircle
 10
2.927955053733487
 20
5.976401214865985
 30
0.0
 40
0.0101391053531439
100
AcDbArc
 50
25.30788490461779
 51
120.0564806638344
  0
ARC
  5
356
330
1E
100
AcDbEntity
  8
IMAGE
100
AcDbCircle
 10
2.927955053733487
 20
5.976401214865985
 30
0.0
 40
0.0084378183081614
100
AcDbArc
 50
11.1965038244184
 51
120.0564806638344
  0
CIRCLE
  5
357
330
1E
100
AcDbEntity
  8
IMAGE
100
AcDbCircle
 10
2.88860597337393
 20
5.950096169777044
 30
0.0
 40
0.0322956548274434
  0
ARC
  5
358
330
1E
100
AcDbEntity
  8
IMAGE
100
AcDbCircle
 10
2.88860597337393
 20
5.950096169777044
 30
0.0
 40
0.019416878360384
100
AcDbArc
 50
294.4068678124203
 51
89.10068565047673
  0
LINE
  5
359
330
1E
100
AcDbEntity
  8
IMAGE
100
AcDbLine
 10
2.879646341929093
 20
5.972277854955724
 30
0.0
 11
2.889237532127653
 21
5.926181670272832
 31
0.0
  0
LINE
  5
35A
330
1E
100
AcDbEntity
  8
IMAGE
100
AcDbLine
 10
2.887974414620325
 20
5.974010669281263
 30
0.0
 11
2.89756560481888
 21
5.927914484598375
 31
0.0
  0
LWPOLYLINE
  5
35B
330
1E
100
AcDbEntity
  8
IMAGE
100
AcDbPolyline
 90
        4
 70
     0
 43
0.0
 10
2.88009474615562
 20
5.924279339314139
 10
2.861992328738827
 20
5.944558693534039
 10
2.870503555957122
 20
5.970375523996896
 10
2.879646341929093
 20
5.972277854955724
  0
ARC
  5
361
330
1E
100
AcDbEntity
  8
IMAGE
100
AcDbCircle
 10
2.88860597337393
 20
5.950096169777044
 30
0.0
 40
0.019416878360384
100
AcDbArc
 50
114.4068678124181
 51
269.100685650478
  0
LWPOLYLINE
  5
362
330
1E
100
AcDbEntity
  8
IMAGE
100
AcDbPolyline
 90
        5
 70
     0
 43
0.0
 10
2.887974414620325
 20
5.974010669281264
 10
2.897117200592273
 20
5.975913000240044
 10
2.91521961800935
 20
5.95563364601999
 10
2.906708390791055
 20
5.929816815557135
 10
2.897565604818881
 20
5.927914484598375
  0
LWPOLYLINE
  5
369
330
1E
100
AcDbEntity
  8
IMAGE
100
AcDbPolyline
 90
        2
 70
     0
 43
0.0
 10
2.889237532127653
 20
5.926181670272832
 10
2.88009474615562
 20
5.924279339314139
  0
CIRCLE
  5
36D
330
1E
100
AcDbEntity
  8
IMAGE
100
AcDbCircle
 10
2.88860597337393
 20
5.950096169777044
 30
0.0
 40
0.0360498443820563
  0
ARC
  5
36E
330
1E
100
AcDbEntity
  8
IMAGE
100
AcDbCircle
 10
2.904596034527653
 20
5.905547056805282
 30
0.0
 40
0.0084378183081614
100
AcDbArc
 50
203.4510727990611
 51
312.3110496384787
  0
LINE
  5
36F
330
1E
100
AcDbEntity
  8
IMAGE
100
AcDbLine
 10
2.896863455239175
 20
5.902169683722966
 30
0.0
 11
2.891825135390654
 21
5.914190344680298
 31
0.0
  0
LINE
  5
370
330
1E
100
AcDbEntity
  8
IMAGE
100
AcDbLine
 10
2.895294416761783
 20
5.901512039544227
 30
0.0
 11
2.890029039786671
 21
5.914074424095444
 31
0.0
  0
ARC
  5
371
330
1E
100
AcDbEntity
  8
IMAGE
100
AcDbCircle
 10
2.904596034527653
 20
5.905547056805282
 30
0.0
 40
0.0101391053531439
100
AcDbArc
 50
203.4510727990611
 51
298.199668558271
  0
LINE
  5
372
330
1E
100
AcDbEntity
  8
IMAGE
100
AcDbLine
 10
2.997163219952247
 20
5.943027382000154
 30
0.0
 11
2.987721581052817
 21
5.892399370964831
 31
0.0
  0
ARC
  5
373
330
1E
100
AcDbEntity
  8
IMAGE
100
AcDbCircle
 10
3.017642522086243
 20
5.913013795295162
 30
0.0
 40
0.0363347932812923
100
AcDbArc
 50
124.3070622911517
 51
214.5654081474501
  0
LINE
  5
374
330
1E
100
AcDbEntity
  8
IMAGE
100
AcDbLine
 10
2.979330642265229
 20
5.948906381004331
 30
0.0
 11
2.969889003365889
 21
5.898278369968977
 31
0.0
  0
ARC
  5
375
330
1E
100
AcDbEntity
  8
IMAGE
100
AcDbCircle
 10
2.999809944399419
 20
5.918892794299273
 30
0.0
 40
0.0363347932812923
100
AcDbArc
 50
124.3070622911517
 51
214.5654081474501
  0
LINE
  5
376
330
1E
100
AcDbEntity
  8
IMAGE
100
AcDbLine
 10
2.962092483834658
 20
5.954589413374964
 30
0.0
 11
2.952650844935021
 21
5.903961402339708
 31
0.0
  0
ARC
  5
377
330
1E
100
AcDbEntity
  8
IMAGE
100
AcDbCircle
 10
2.982571785968539
 20
5.924575826670007
 30
0.0
 40
0.0363347932812923
100
AcDbArc
 50
124.3070622911517
 51
214.5654081474501
  0
LINE
  5
378
330
1E
100
AcDbEntity
  8
IMAGE
100
AcDbLine
 10
2.944854325403778
 20
5.960272445745699
 30
0.0
 11
2.935412686504442
 21
5.909644434710342
 31
0.0
  0
ARC
  5
379
330
1E
100
AcDbEntity
  8
IMAGE
100
AcDbCircle
 10
2.965333627537869
 20
5.930258859040673
 30
0.0
 40
0.0363347932812923
100
AcDbArc
 50
124.3070622911517
 51
214.5654081474501
  0
LINE
  5
37A
330
1E
100
AcDbEntity
  8
IMAGE
100
AcDbLine
 10
2.92287684771737
 20
5.985176935976932
 30
0.0
 11
2.911172764225959
 21
5.978209000132741
 31
0.0
  0
LINE
  5
37B
330
1E
100
AcDbEntity
  8
IMAGE
100
AcDbLine
 10
2.92374714104452
 20
5.983715099072872
 30
0.0
 11
2.912547768911626
 21
5.977047639243517
 31
0.0
  0
LINE
  5
37C
330
1E
100
AcDbEntity
  8
IMAGE
100
AcDbLine
 10
3.393831597248101
 20
6.679764637355424
 30
0.0
 11
3.141196994487134
 21
5.913456261224713
 31
0.0
  0
LINE
  5
37D
330
1E
100
AcDbEntity
  8
IMAGE
100
AcDbLine
 10
3.247061266062489
 20
6.918022255470392
 30
0.0
 11
3.450297061958202
 21
6.851019993506124
 31
0.0
  0
LINE
  5
37E
330
1E
100
AcDbEntity
  8
IMAGE
100
AcDbLine
 10
3.190595801352386
 20
6.746766899319693
 30
0.0
 11
2.937961198591419
 21
5.980458523188982
 31
0.0
  0
LINE
  5
37F
330
1E
100
AcDbEntity
  8
IMAGE
100
AcDbLine
 10
3.661026635092416
 20
6.663330730132404
 30
0.0
 11
3.651584996192769
 21
6.612702719097152
 31
0.0
  0
ARC
  5
380
330
1E
100
AcDbEntity
  8
IMAGE
100
AcDbCircle
 10
3.681505937226298
 20
6.633317143427447
 30
0.0
 40
0.0363347932812923
100
AcDbArc
 50
124.3070622911517
 51
214.5654081474501
  0
LINE
  5
381
330
1E
100
AcDbEntity
  8
IMAGE
100
AcDbLine
 10
3.642599638149247
 20
6.66940569577002
 30
0.0
 11
3.6331579992496
 21
6.618777684734766
 31
0.0
  0
ARC
  5
382
330
1E
100
AcDbEntity
  8
IMAGE
100
AcDbCircle
 10
3.66307894028313
 20
6.639392109065063
 30
0.0
 40
0.0363347932812923
100
AcDbArc
 50
124.3070622911517
 51
214.5654081474501
  0
LINE
  5
383
330
1E
100
AcDbEntity
  8
IMAGE
100
AcDbLine
 10
3.624172641206076
 20
6.675480661407634
 30
0.0
 11
3.614731002306429
 21
6.624852650372382
 31
0.0
  0
ARC
  5
384
330
1E
100
AcDbEntity
  8
IMAGE
100
AcDbCircle
 10
3.644651943339959
 20
6.645467074702679
 30
0.0
 40
0.0363347932812923
100
AcDbArc
 50
124.3070622911517
 51
214.5654081474501
  0
LINE
  5
385
330
1E
100
AcDbEntity
  8
IMAGE
100
AcDbLine
 10
3.605745644262793
 20
6.681555627045291
 30
0.0
 11
3.59630400536326
 21
6.630927616010003
 31
0.0
  0
ARC
  5
386
330
1E
100
AcDbEntity
  8
IMAGE
100
AcDbCircle
 10
3.626224946396783
 20
6.651542040340302
 30
0.0
 40
0.0363347932812923
100
AcDbArc
 50
124.3070622911517
 51
214.5654081474501
  0
LINE
  5
387
330
1E
100
AcDbEntity
  8
IMAGE
100
AcDbLine
 10
3.587913066575768
 20
6.687434626049469
 30
0.0
 11
3.578471427676332
 21
6.636806615014149
 31
0.0
  0
ARC
  5
388
330
1E
100
AcDbEntity
  8
IMAGE
100
AcDbCircle
 10
3.608392368709754
 20
6.65742103934448
 30
0.0
 40
0.0363347932812923
100
AcDbArc
 50
124.3070622911517
 51
214.5654081474501
  0
ARC
  5
389
330
1E
100
AcDbEntity
  8
IMAGE
100
AcDbCircle
 10
3.516851803249944
 20
6.687599900899105
 30
0.0
 40
0.0363347932812923
100
AcDbArc
 50
124.3070622911517
 51
214.5654081474501
  0
LINE
  5
38A
330
1E
100
AcDbEntity
  8
IMAGE
100
AcDbLine
 10
3.496372501116051
 20
6.717613487604065
 30
0.0
 11
3.486930862216415
 21
6.666985476568809
 31
0.0
  0
ARC
  5
38B
330
1E
100
AcDbEntity
  8
IMAGE
100
AcDbCircle
 10
3.535278800193125
 20
6.68152493526148
 30
0.0
 40
0.0363347932812923
100
AcDbArc
 50
124.3070622911517
 51
214.5654081474501
  0
LINE
  5
38C
330
1E
100
AcDbEntity
  8
IMAGE
100
AcDbLine
 10
3.514799498059232
 20
6.71153852196644
 30
0.0
 11
3.505357859159794
 21
6.660910510931119
 31
0.0
  0
ARC
  5
38D
330
1E
100
AcDbEntity
  8
IMAGE
100
AcDbCircle
 10
3.55370579713639
 20
6.675449969623826
 30
0.0
 40
0.0363347932812923
100
AcDbArc
 50
124.3070622911517
 51
214.5654081474501
  0
LINE
  5
38E
330
1E
100
AcDbEntity
  8
IMAGE
100
AcDbLine
 10
3.533226495002407
 20
6.705463556328817
 30
0.0
 11
3.523784856102968
 21
6.654835545293495
 31
0.0
  0
ARC
  5
38F
330
1E
100
AcDbEntity
  8
IMAGE
100
AcDbCircle
 10
3.571538374823421
 20
6.669570970619647
 30
0.0
 40
0.0363347932812923
100
AcDbArc
 50
124.3070622911517
 51
214.5654081474501
  0
LINE
  5
390
330
1E
100
AcDbEntity
  8
IMAGE
100
AcDbLine
 10
3.55105907268943
 20
6.699584557324639
 30
0.0
 11
3.541617433789896
 21
6.648956546289351
 31
0.0
  0
ARC
  5
391
330
1E
100
AcDbEntity
  8
IMAGE
100
AcDbCircle
 10
3.589965371766596
 20
6.663496004982025
 30
0.0
 40
0.0363347932812923
100
AcDbArc
 50
124.3070622911517
 51
214.5654081474501
  0
LINE
  5
392
330
1E
100
AcDbEntity
  8
IMAGE
100
AcDbLine
 10
3.569486069632713
 20
6.693509591686982
 30
0.0
 11
3.560044430733065
 21
6.64288158065173
 31
0.0
  0
LINE
  5
393
330
1E
100
AcDbEntity
  8
IMAGE
100
AcDbLine
 10
3.676037097704685
 20
6.676295687742266
 30
0.0
 11
3.649403346508061
 21
6.595508390963823
 31
0.0
  0
LINE
  5
394
330
1E
100
AcDbEntity
  8
IMAGE
100
AcDbLine
 10
3.477945504172887
 20
6.723688453241685
 30
0.0
 11
3.46850386527324
 21
6.673060442206431
 31
0.0
  0
ARC
  5
395
330
1E
100
AcDbEntity
  8
IMAGE
100
AcDbCircle
 10
3.49842480630677
 20
6.693674866536728
 30
0.0
 40
0.0363347932812923
100
AcDbArc
 50
124.3070622911517
 51
214.5654081474501
  0
LINE
  5
396
330
1E
100
AcDbEntity
  8
IMAGE
100
AcDbLine
 10
3.459518507229605
 20
6.729763418879342
 30
0.0
 11
3.450076868330071
 21
6.679135407844052
 31
0.0
  0
ARC
  5
397
330
1E
100
AcDbEntity
  8
IMAGE
100
AcDbCircle
 10
3.479997809363596
 20
6.699749832174349
 30
0.0
 40
0.0363347932812923
100
AcDbArc
 50
124.3070622911517
 51
214.5654081474501
  0
LINE
  5
398
330
1E
100
AcDbEntity
  8
IMAGE
100
AcDbLine
 10
3.441685929542582
 20
6.73564241788352
 30
0.0
 11
3.432244290643144
 21
6.685014406848198
 31
0.0
  0
ARC
  5
399
330
1E
100
AcDbEntity
  8
IMAGE
100
AcDbCircle
 10
3.462165231676566
 20
6.705628831178529
 30
0.0
 40
0.0363347932812923
100
AcDbArc
 50
124.3070622911517
 51
214.5654081474501
  0
LINE
  5
39A
330
1E
100
AcDbEntity
  8
IMAGE
100
AcDbLine
 10
3.423258932599408
 20
6.741717383521143
 30
0.0
 11
3.41381729369997
 21
6.691089372485821
 31
0.0
  0
ARC
  5
39B
330
1E
100
AcDbEntity
  8
IMAGE
100
AcDbCircle
 10
3.4437382347333
 20
6.711703796816182
 30
0.0
 40
0.0363347932812923
100
AcDbArc
 50
124.3070622911517
 51
214.5654081474501
  0
LINE
  5
39C
330
1E
100
AcDbEntity
  8
IMAGE
100
AcDbLine
 10
3.404831935656226
 20
6.747792349158766
 30
0.0
 11
3.395390296756589
 21
6.697164338123512
 31
0.0
  0
ARC
  5
39D
330
1E
100
AcDbEntity
  8
IMAGE
100
AcDbCircle
 10
3.425311237790119
 20
6.717778762453807
 30
0.0
 40
0.0363347932812923
100
AcDbArc
 50
124.3070622911517
 51
214.5654081474501
  0
LINE
  5
39E
330
1E
100
AcDbEntity
  8
IMAGE
100
AcDbLine
 10
3.386404938713052
 20
6.753867314796389
 30
0.0
 11
3.376963299813415
 21
6.703239303761133
 31
0.0
  0
ARC
  5
39F
330
1E
100
AcDbEntity
  8
IMAGE
100
AcDbCircle
 10
3.406884240846945
 20
6.72385372809143
 30
0.0
 40
0.0363347932812923
100
AcDbArc
 50
124.3070622911517
 51
214.5654081474501
  0
LINE
  5
3A0
330
1E
100
AcDbEntity
  8
IMAGE
100
AcDbLine
 10
3.367383522513425
 20
6.760138247067557
 30
0.0
 11
3.357941883614091
 21
6.709510236032201
 31
0.0
  0
ARC
  5
3A1
330
1E
100
AcDbEntity
  8
IMAGE
100
AcDbCircle
 10
3.38786282464762
 20
6.730124660362497
 30
0.0
 40
0.0363347932812923
100
AcDbArc
 50
124.3070622911517
 51
214.5654081474501
  0
LINE
  5
3A2
330
1E
100
AcDbEntity
  8
IMAGE
100
AcDbLine
 10
3.349550944826508
 20
6.766017246071699
 30
0.0
 11
3.340109305927067
 21
6.715389235036379
 31
0.0
  0
ARC
  5
3A3
330
1E
100
AcDbEntity
  8
IMAGE
100
AcDbCircle
 10
3.370030246960597
 20
6.736003659366675
 30
0.0
 40
0.0363347932812923
100
AcDbArc
 50
124.3070622911517
 51
214.5654081474501
  0
LINE
  5
3A4
330
1E
100
AcDbEntity
  8
IMAGE
100
AcDbLine
 10
3.331123947883328
 20
6.772092211709322
 30
0.0
 11
3.321682308983898
 21
6.721464200673999
 31
0.0
  0
ARC
  5
3A5
330
1E
100
AcDbEntity
  8
IMAGE
100
AcDbCircle
 10
3.351603250017319
 20
6.74207862500433
 30
0.0
 40
0.0363347932812923
100
AcDbArc
 50
124.3070622911517
 51
214.5654081474501
  0
LINE
  5
3A6
330
1E
100
AcDbEntity
  8
IMAGE
100
AcDbLine
 10
3.312102531683805
 20
6.778363143980456
 30
0.0
 11
3.30266089278447
 21
6.727735132945101
 31
0.0
  0
ARC
  5
3A7
330
1E
100
AcDbEntity
  8
IMAGE
100
AcDbCircle
 10
3.332581833817892
 20
6.748349557275432
 30
0.0
 40
0.0363347932812923
100
AcDbArc
 50
124.3070622911517
 51
214.5654081474501
  0
LINE
  5
3A8
330
1E
100
AcDbEntity
  8
IMAGE
100
AcDbLine
 10
3.294269953996877
 20
6.784242142984602
 30
0.0
 11
3.284828315097445
 21
6.733614131949279
 31
0.0
  0
CIRCLE
  5
3A9
330
1E
100
AcDbEntity
  8
IMAGE
100
AcDbCircle
 10
3.167880129731529
 20
6.79718992976567
 30
0.0
 40
0.0322956548274434
  0
ARC
  5
3AA
330
1E
100
AcDbEntity
  8
IMAGE
100
AcDbCircle
 10
3.167880129731529
 20
6.79718992976567
 30
0.0
 40
0.019416878360384
100
AcDbArc
 50
294.4068678124203
 51
89.10068565047673
  0
LINE
  5
3AB
330
1E
100
AcDbEntity
  8
IMAGE
100
AcDbLine
 10
3.158920498286692
 20
6.819371614944351
 30
0.0
 11
3.168511688485253
 21
6.77327543026146
 31
0.0
  0
LINE
  5
3AC
330
1E
100
AcDbEntity
  8
IMAGE
100
AcDbLine
 10
3.167248570977925
 20
6.82110442926989
 30
0.0
 11
3.17683976117648
 21
6.775008244587002
 31
0.0
  0
LWPOLYLINE
  5
3AD
330
1E
100
AcDbEntity
  8
IMAGE
100
AcDbPolyline
 90
        4
 70
     0
 43
0.0
 10
3.159368902513219
 20
6.771373099302765
 10
3.141266485096426
 20
6.791652453522665
 10
3.149777712314721
 20
6.81746928398552
 10
3.158920498286692
 20
6.819371614944349
  0
ARC
  5
3B3
330
1E
100
AcDbEntity
  8
IMAGE
100
AcDbCircle
 10
3.167880129731529
 20
6.79718992976567
 30
0.0
 40
0.019416878360384
100
AcDbArc
 50
114.4068678124181
 51
269.100685650478
  0
LWPOLYLINE
  5
3B4
330
1E
100
AcDbEntity
  8
IMAGE
100
AcDbPolyline
 90
        5
 70
     0
 43
0.0
 10
3.167248570977924
 20
6.821104429269889
 10
3.176391356949872
 20
6.82300676022867
 10
3.194493774366949
 20
6.802727406008616
 10
3.185982547148655
 20
6.776910575545761
 10
3.17683976117648
 20
6.775008244587001
  0
LWPOLYLINE
  5
3BB
330
1E
100
AcDbEntity
  8
IMAGE
100
AcDbPolyline
 90
        2
 70
     0
 43
0.0
 10
3.168511688485253
 20
6.773275430261458
 10
3.159368902513219
 20
6.771373099302765
  0
ARC
  5
3BF
330
1E
100
AcDbEntity
  8
IMAGE
100
AcDbCircle
 10
3.207229210091086
 20
6.823494974854611
 30
0.0
 40
0.0101391053531439
100
AcDbArc
 50
25.30788490461779
 51
120.0564806638344
  0
CIRCLE
  5
3C0
330
1E
100
AcDbEntity
  8
IMAGE
100
AcDbCircle
 10
3.167880129731529
 20
6.79718992976567
 30
0.0
 40
0.0360498443820563
  0
LINE
  5
3C1
330
1E
100
AcDbEntity
  8
IMAGE
100
AcDbLine
 10
3.20215100407497
 20
6.83227069596556
 30
0.0
 11
3.190446920583559
 21
6.825302760121369
 31
0.0
  0
LINE
  5
3C2
330
1E
100
AcDbEntity
  8
IMAGE
100
AcDbLine
 10
3.203021297402119
 20
6.830808859061498
 30
0.0
 11
3.191821925269225
 21
6.824141399232143
 31
0.0
  0
ARC
  5
3C3
330
1E
100
AcDbEntity
  8
IMAGE
100
AcDbCircle
 10
3.207229210091086
 20
6.823494974854611
 30
0.0
 40
0.0084378183081614
100
AcDbArc
 50
11.1965038244184
 51
120.0564806638344
  0
ARC
  5
3C4
330
1E
100
AcDbEntity
  8
IMAGE
100
AcDbCircle
 10
3.183870190885253
 20
6.752640816793908
 30
0.0
 40
0.0084378183081614
100
AcDbArc
 50
203.4510727990611
 51
312.3110496384788
  0
LINE
  5
3C5
330
1E
100
AcDbEntity
  8
IMAGE
100
AcDbLine
 10
3.176137611596775
 20
6.749263443711594
 30
0.0
 11
3.171099291748253
 21
6.761284104668925
 31
0.0
  0
LINE
  5
3C6
330
1E
100
AcDbEntity
  8
IMAGE
100
AcDbLine
 10
3.174568573119382
 20
6.748605799532855
 30
0.0
 11
3.169303196144271
 21
6.761168184084072
 31
0.0
  0
ARC
  5
3C7
330
1E
100
AcDbEntity
  8
IMAGE
100
AcDbCircle
 10
3.183870190885253
 20
6.752640816793908
 30
0.0
 40
0.0101391053531439
100
AcDbArc
 50
203.4510727990611
 51
298.199668558271
  0
LINE
  5
3C8
330
1E
100
AcDbEntity
  8
IMAGE
100
AcDbLine
 10
3.276437376309846
 20
6.790121141988782
 30
0.0
 11
3.266995737410416
 21
6.739493130953459
 31
0.0
  0
ARC
  5
3C9
330
1E
100
AcDbEntity
  8
IMAGE
100
AcDbCircle
 10
3.296916678443842
 20
6.760107555283788
 30
0.0
 40
0.0363347932812923
100
AcDbArc
 50
124.3070622911517
 51
214.5654081474501
  0
LINE
  5
3CA
330
1E
100
AcDbEntity
  8
IMAGE
100
AcDbLine
 10
3.258604798622828
 20
6.796000140992958
 30
0.0
 11
3.249163159723488
 21
6.745372129957603
 31
0.0
  0
ARC
  5
3CB
330
1E
100
AcDbEntity
  8
IMAGE
100
AcDbCircle
 10
3.279084100757018
 20
6.7659865542879
 30
0.0
 40
0.0363347932812923
100
AcDbArc
 50
124.3070622911517
 51
214.5654081474501
  0
LINE
  5
3CC
330
1E
100
AcDbEntity
  8
IMAGE
100
AcDbLine
 10
3.241366640192257
 20
6.80168317336359
 30
0.0
 11
3.23192500129262
 21
6.751055162328334
 31
0.0
  0
ARC
  5
3CD
330
1E
100
AcDbEntity
  8
IMAGE
100
AcDbCircle
 10
3.261845942326139
 20
6.771669586658635
 30
0.0
 40
0.0363347932812923
100
AcDbArc
 50
124.3070622911517
 51
214.5654081474501
  0
LINE
  5
3CE
330
1E
100
AcDbEntity
  8
IMAGE
100
AcDbLine
 10
3.224128481761377
 20
6.807366205734325
 30
0.0
 11
3.214686842862042
 21
6.75673819469897
 31
0.0
  0
ARC
  5
3CF
330
1E
100
AcDbEntity
  8
IMAGE
100
AcDbCircle
 10
3.244607783895469
 20
6.777352619029301
 30
0.0
 40
0.0363347932812923
100
AcDbArc
 50
124.3070622911517
 51
214.5654081474501
  0
LINE
  5
3D0
330
1E
100
AcDbEntity
  8
IMAGE
100
AcDbLine
 10
3.649403346508061
 20
6.595508390963823
 30
0.0
 11
3.18976145072616
 21
6.74704196591897
 31
0.0
  0
LINE
  5
3D1
330
1E
100
AcDbEntity
  8
IMAGE
100
AcDbLine
 10
3.676037097704685
 20
6.676295687742266
 30
0.0
 11
3.216395201922783
 21
6.827829262697411
 31
0.0
  0
ARC
  5
3D2
330
1E
100
AcDbEntity
  8
IMAGE
100
AcDbCircle
 10
3.314749256130965
 20
6.754228556279578
 30
0.0
 40
0.0363347932812923
100
AcDbArc
 50
124.3070622911517
 51
214.5654081474501
  0
LINE
  5
3D3
330
1E
100
AcDbEntity
  8
IMAGE
100
AcDbLine
 10
2.416635862747958
 20
4.399139229711257
 30
0.0
 11
2.348555931195924
 21
4.192634573482157
 31
0.0
  0
LINE
  5
3D4
330
1E
100
AcDbEntity
  8
IMAGE
100
AcDbLine
 10
3.247061266062489
 20
6.918022255470392
 30
0.0
 11
3.217235354949018
 21
6.82755228317761
 31
0.0
  0
LINE
  5
3D5
330
1E
100
AcDbEntity
  8
IMAGE
100
AcDbLine
 10
3.450291259558196
 20
6.85102190642665
 30
0.0
 11
3.420465348444725
 21
6.760551934133866
 31
0.0
  0
LINE
  5
3D6
330
1E
100
AcDbEntity
  8
IMAGE
100
AcDbLine
 10
3.487292301852164
 20
5.606706170883967
 30
0.0
 11
3.313609828244416
 21
5.663317942733685
 31
0.0
  0
LINE
  5
3D7
330
1E
100
AcDbEntity
  8
IMAGE
100
AcDbLine
 10
2.864401378388054
 20
5.064549748959894
 30
0.0
 11
2.799571753424984
 21
4.869215536143961
 31
0.0
  0
LINE
  5
3D8
330
1E
100
AcDbEntity
  8
IMAGE
100
AcDbLine
 10
3.108700923322163
 20
4.984009694314078
 30
0.0
 11
3.045282253273454
 21
4.788210321458915
 31
0.0
  0
LINE
  5
3D9
330
1E
100
AcDbEntity
  8
IMAGE
100
AcDbLine
 10
3.108700923322163
 20
4.984009694314078
 30
0.0
 11
2.864401378388056
 21
5.064549748959894
 31
0.0
  0
ARC
  5
3DA
330
1E
100
AcDbEntity
  8
IMAGE
100
AcDbCircle
 10
2.922427003349219
 20
4.828712928801438
 30
0.0
 40
0.1293594744712923
100
AcDbArc
 50
161.5166386883741
 51
342.3746608584916
  0
LINE
  5
3DB
330
1E
100
AcDbEntity
  8
IMAGE
100
AcDbLine
 10
3.107906440533354
 20
5.039364504531896
 30
0.0
 11
2.899543713988263
 21
5.108056999995278
 31
0.0
  0
LWPOLYLINE
  5
3DC
330
1E
100
AcDbEntity
  8
IMAGE
100
AcDbPolyline
 90
        2
 70
     0
 43
0.0
 10
3.084419458432888
 20
5.018651152179748
 10
2.906461501427305
 20
5.07731988030101
  0
LINE
  5
3E0
330
1E
100
AcDbEntity
  8
IMAGE
100
AcDbLine
 10
3.581911044304162
 20
6.477147350683678
 30
0.0
 11
3.371088521488535
 21
5.837666205404934
 31
0.0
  0
LINE
  5
3E1
330
1E
100
AcDbEntity
  8
IMAGE
100
AcDbLine
 10
3.373548317759071
 20
6.54583984614706
 30
0.0
 11
3.162725794943445
 21
5.906358700868317
 31
0.0
  0
LINE
  5
3E2
330
1E
100
AcDbEntity
  8
IMAGE
100
AcDbLine
 10
3.565562115982192
 20
6.427556674755013
 30
0.0
 11
3.357199389437102
 21
6.496249170218396
 31
0.0
  0
LWPOLYLINE
  5
3E3
330
1E
100
AcDbEntity
  8
IMAGE
100
AcDbPolyline
 90
        2
 70
     0
 43
0.0
 10
3.558493063383724
 20
6.456643297380987
 10
3.380535106378141
 20
6.515312025502248
  0
TEXT
  5
3E7
330
1E
100
AcDbEntity
  8
TEXT_BUBBLES
100
AcDbText
 10
1.241263132721359
 20
6.508682914827101
 30
0.0
 40
0.125
  1
11
  7
ROMANS
 72
     4
 11
1.351382180340406
 21
6.571182914827101
 31
0.0
100
AcDbText
  0
TEXT
  5
3E8
330
1E
100
AcDbEntity
  8
TEXT_BUBBLES
100
AcDbText
 10
1.294834561292787
 20
4.843013494972876
 30
0.0
 40
0.125
  1
9
  7
ROMANS
 72
     4
 11
1.351382180340406
 21
4.905513494972876
 31
0.0
100
AcDbText
  0
TEXT
  5
3E9
330
1E
100
AcDbEntity
  8
TEXT_BUBBLES
100
AcDbText
 10
2.373118100544997
 20
3.037472777727951
 30
0.0
 40
0.125
  1
8
  7
ROMANS
 72
     4
 11
2.432641910068806
 21
3.099972777727951
 31
0.0
100
AcDbText
  0
TEXT
  5
3EA
330
1E
100
AcDbEntity
  8
TEXT_BUBBLES
100
AcDbText
 10
2.721357096370559
 20
3.037472777727951
 30
0.0
 40
0.125
  1
7
  7
ROMANS
 72
     4
 11
2.780880905894369
 21
3.099972777727951
 31
0.0
100
AcDbText
  0
TEXT
  5
3EB
330
1E
100
AcDbEntity
  8
TEXT_BUBBLES
100
AcDbText
 10
3.06471756004896
 20
3.037472777727951
 30
0.0
 40
0.125
  1
5
  7
ROMANS
 72
     4
 11
3.124241369572769
 21
3.099972777727951
 31
0.0
100
AcDbText
  0
TEXT
  5
3EC
330
1E
100
AcDbEntity
  8
TEXT_BUBBLES
100
AcDbText
 10
3.987487235508671
 20
4.548161429873591
 30
0.0
 40
0.125
  1
6
  7
ROMANS
 72
     4
 11
4.049987235508671
 21
4.610661429873591
 31
0.0
100
AcDbText
  0
TEXT
  5
3ED
330
1E
100
AcDbEntity
  8
TEXT_BUBBLES
100
AcDbText
 10
3.990463425984861
 20
4.876792053970886
 30
0.0
 40
0.125
  1
5
  7
ROMANS
 72
     4
 11
4.049987235508671
 21
4.939292053970886
 31
0.0
100
AcDbText
  0
TEXT
  5
3EE
330
1E
100
AcDbEntity
  8
TEXT_BUBBLES
100
AcDbText
 10
3.987487235508671
 20
5.190991401968544
 30
0.0
 40
0.125
  1
4
  7
ROMANS
 72
     4
 11
4.049987235508671
 21
5.253491401968544
 31
0.0
100
AcDbText
  0
TEXT
  5
3F3
330
1E
100
AcDbEntity
  8
TEXT_BUBBLES
100
AcDbText
 10
3.990463425984861
 20
6.308880793178971
 30
0.0
 40
0.125
  1
3
  7
ROMANS
 72
     4
 11
4.049987235508671
 21
6.371380793178971
 31
0.0
100
AcDbText
  0
TEXT
  5
3F6
330
1E
100
AcDbEntity
  8
TEXT_BUBBLES
100
AcDbText
 10
4.154058422433736
 20
6.801094544367952
 30
0.0
 40
0.125
  1
2
  7
ROMANS
 72
     4
 11
4.213582231957545
 21
6.863594544367952
 31
0.0
100
AcDbText
  0
TEXT
  5
3F7
330
1E
100
AcDbEntity
  8
TEXT_BUBBLES
100
AcDbText
 10
1.223405989864216
 20
6.001366182426778
 30
0.0
 40
0.125
  1
10
  7
ROMANS
 72
     4
 11
1.351382180340406
 21
6.063866182426778
 31
0.0
100
AcDbText
  0
ARC
  5
419
330
1E
100
AcDbEntity
  8
IMAGE
100
AcDbCircle
 10
1.723629162765568
 20
6.293597733274724
 30
0.0
 40
0.1818260367492528
100
AcDbArc
 50
316.4987827070745
 51
45.69745619549032
  0
ARC
  5
41A
330
1E
100
AcDbEntity
  8
IMAGE
100
AcDbCircle
 10
1.982514311420039
 20
6.298560081876013
 30
0.0
 40
0.1818260367492528
100
AcDbArc
 50
136.4987827070746
 51
225.6974561954903
  0
ARC
  5
41B
330
1E
100
AcDbEntity
  8
IMAGE
100
AcDbCircle
 10
1.779383776191073
 20
6.475285078563958
 30
0.0
 40
0.1818260367492528
100
AcDbArc
 50
272.8351313760581
 51
2.0338048644738
  0
ARC
  5
41C
330
1E
100
AcDbEntity
  8
IMAGE
100
AcDbCircle
 10
1.970088787220519
 20
6.300134446633192
 30
0.0
 40
0.1818260367492528
100
AcDbArc
 50
92.83513137605813
 51
182.0338048644738
  0
ARC
  5
41D
330
1E
100
AcDbEntity
  8
IMAGE
100
AcDbCircle
 10
2.089810269880596
 20
6.567234322454988
 30
0.0
 40
0.1818260367492528
100
AcDbArc
 50
136.4987827070746
 51
225.6974561954903
  0
ARC
  5
41E
330
1E
100
AcDbEntity
  8
IMAGE
100
AcDbCircle
 10
1.830925121226125
 20
6.562271973853698
 30
0.0
 40
0.1818260367492528
100
AcDbArc
 50
316.4987827070745
 51
45.69745619549032
  0
ARC
  5
41F
330
1E
100
AcDbEntity
  8
IMAGE
100
AcDbCircle
 10
1.879597464575402
 20
6.773660004460424
 30
0.0
 40
0.1818260367492528
100
AcDbArc
 50
316.4987827070745
 51
45.69745619549032
  0
ARC
  5
420
330
1E
100
AcDbEntity
  8
IMAGE
100
AcDbCircle
 10
2.138482613229873
 20
6.778622353061713
 30
0.0
 40
0.1818260367492528
100
AcDbArc
 50
136.4987827070746
 51
225.6974561954903
  0
LINE
  5
427
330
1E
100
AcDbEntity
  8
IMAGE
100
AcDbLine
 10
4.173430876589907
 20
5.606706170883997
 30
0.0
 11
3.487292301852165
 21
5.606706170883967
 31
0.0
  0
INSERT
  5
461
330
1E
100
AcDbEntity
  8
TITLE
100
AcDbBlockReference
 66
     1
  2
titleblock
 10
0.0
 20
0.0
 30
0.0
  0
ATTRIB
  5
462
330
461
100
AcDbEntity
  8
TITLE
100
AcDbText
 10
0.5055556038023421
 20
0.7842270964783673
 30
0.0
 40
0.2
  1
D
  7
L200
 72
     4
 11
0.6064423705144839
 21
0.8842270964783672
 31
0.0
100
AcDbAttribute
  2
D
 70
     0
  0
ATTRIB
  5
463
330
461
100
AcDbEntity
  8
TITLE
100
AcDbText
 10
1.231442370514484
 20
1.34371230274675
 30
0.0
 40
0.2
  1

  7
L200
100
AcDbAttribute
  2
TITLE1
 70
     0
  0
ATTRIB
  5
464
330
461
100
AcDbEntity
  8
TITLE
100
AcDbText
 10
1.231442370514484
 20
0.9842270964783674
 30
0.0
 40
0.2
  1
FULL OR PART-CIRCLE IMPACT SPRINKLER
  7
L200
100
AcDbAttribute
  2
TITLE2
 70
     0
  0
ATTRIB
  5
465
330
461
100
AcDbEntity
  8
TITLE
100
AcDbText
 10
2.713645751168312
 20
0.5927927664583189
 30
0.0
 40
0.2
  1
2045-PJ MAXI-BIRD
  7
L200
100
AcDbAttribute
  2
TITLE3
 70
     0
  0
ATTRIB
  5
466
330
461
100
AcDbEntity
  8
TITLE
100
AcDbText
 10
2.713645751168312
 20
0.2692560808167741
 30
0.0
 40
0.2
  1
AT BOTTOM OF SLOPE
  7
L200
100
AcDbAttribute
  2
TITLE4
 70
     0
  0
ATTRIB
  5
467
330
461
100
AcDbEntity
  8
TITLE
 62
     7
100
AcDbText
 10
7.613405306156856
 20
0.9696027915446398
 30
0.0
 40
0.08
  1
01-09-04
  7
L80
 72
     2
 11
8.261024353775903
 21
0.9696027915446398
 31
0.0
100
AcDbAttribute
  2
REVISED
 70
     0
  0
ATTRIB
  5
468
330
461
100
AcDbEntity
  8
TITLE
 62
     7
100
AcDbText
 10
0.2639423705144838
 20
0.0847116480207214
 30
0.0
 40
0.08
  1
I-2045-PJ Maxi-Bird-Bottom of Slope.dwg
  7
L80
100
AcDbAttribute
  2
DWG-NAME
 70
     0
  0
ATTRIB
  5
469
330
461
100
AcDbEntity
  8
TITLE
 62
     7
100
AcDbText
 10
1.231442370514484
 20
0.7005637793954894
 30
0.0
 40
0.1
  1
N.T.S.
  7
L100
100
AcDbAttribute
  2
SCALE
 70
     0
  0
SEQEND
  5
46A
330
461
100
AcDbEntity
  8
IMAGE
  0
LWPOLYLINE
  5
47F
330
1E
100
AcDbEntity
  8
INSTRUCT-CALLOUT
100
AcDbPolyline
 90
        2
 70
   128
 43
0.0
 10
12.19362384131406
 20
9.071615835578525
 10
12.32989238717269
 20
9.071615835578525
  0
LWPOLYLINE
  5
480
330
1E
100
AcDbEntity
  8
INSTRUCT-CALLOUT
100
AcDbPolyline
 90
        2
 70
   128
 43
0.0
 10
11.90585342683574
 20
8.951864133772241
 10
12.19362384131406
 20
9.071615835578525
  0
LWPOLYLINE
  5
481
330
1E
100
AcDbEntity
  8
INSTRUCT-CALLOUT
100
AcDbPolyline
 90
        2
 70
   128
 43
0.0
 10
14.06443434163369
 20
8.918317935205964
 10
14.32031575855853
 20
8.988176206670582
  0
TEXT
  5
482
330
1E
100
AcDbEntity
  8
INSTRUCT-CALLOUT
100
AcDbText
 10
11.39134015341624
 20
8.519185965410345
 30
0.0
 40
0.125
  1
TO TURN OFF THIS INSTRUCTION BOX, TURN OFF
  7
ROMANS
100
AcDbText
  0
TEXT
  5
483
330
1E
100
AcDbEntity
  8
INSTRUCT-CALLOUT
100
AcDbText
 10
11.39134015341624
 20
8.357285921922345
 30
0.0
 40
0.125
  1
LAYER "INSTRUCT-CALLOUT".
  7
ROMANS
100
AcDbText
  0
CIRCLE
  5
484
330
1E
100
AcDbEntity
  8
INSTRUCT-CALLOUT
100
AcDbCircle
 10
14.44090256733818
 20
9.021097651783788
 30
0.0
 40
0.125
  0
TEXT
  5
485
330
1E
100
AcDbEntity
  8
INSTRUCT-CALLOUT
100
AcDbText
 10
14.39030732924294
 20
8.958597651783788
 30
0.0
 40
0.125
  1
1
  7
ROMANS
 72
     4
 11
14.44090256733818
 21
9.021097651783788
 31
0.0
100
AcDbText
  0
SOLID
  5
486
330
1E
100
AcDbEntity
  8
INSTRUCT-CALLOUT
100
AcDbTrace
 10
14.13370875242549
 20
8.968328494185529
 30
0.0
 11
14.14951104607983
 21
8.9104468259713
 31
0.0
 12
13.96796489460997
 22
8.891980779115398
 32
0.0
 13
13.96796489460997
 23
8.891980779115398
 33
0.0
  0
TEXT
  5
487
330
1E
100
AcDbEntity
  8
INSTRUCT-CALLOUT
100
AcDbText
 10
12.35586712418982
 20
9.006865226184624
 30
0.0
 40
0.125
  1
ITEM 1
  7
ROMANS
100
AcDbText
  0
SOLID
  5
488
330
1E
100
AcDbEntity
  8
INSTRUCT-CALLOUT
100
AcDbTrace
 10
11.99123942437607
 20
8.954902459634132
 30
0.0
 11
11.96818753948433
 21
9.010297500954978
 31
0.0
 12
11.81352835796766
 22
8.913444325619353
 32
0.0
 13
11.81352835796766
 23
8.913444325619353
 33
0.0
  0
TEXT
  5
489
330
1E
100
AcDbEntity
  8
INSTRUCT-CALLOUT
100
AcDbText
 10
11.88649918935727
 20
9.324087089280139
 30
0.0
 40
0.125
  1
TEXT_LEADERS         TEXT_BUBBLES
  7
ROMANS
100
AcDbText
  0
TEXT
  5
48A
330
1E
100
AcDbEntity
  8
INSTRUCT-CALLOUT
100
AcDbText
 10
11.45015545709445
 20
9.661104383755317
 30
0.0
 40
0.125
  1
BY TURNING ON THE APPROPRIATE LAYER:
  7
ROMANS
100
AcDbText
  0
TEXT
  5
48B
330
1E
100
AcDbEntity
  8
INSTRUCT-CALLOUT
100
AcDbText
 10
11.45015545709445
 20
9.823004427242315
 30
0.0
 40
0.125
  1
CHOOSE EITHER LEADERS OR BUBBLE CALLOUTS
  7
ROMANS
100
AcDbText
  0
TEXT
  5
48C
330
1E
100
AcDbEntity
  8
INSTRUCT-CALLOUT
100
AcDbText
 10
11.68290522614117
 20
10.1971154907172
 30
0.0
 40
0.125
  1
CHOOSING EQUIPMENT CALLOUT METHOD
  7
ROMANS
100
AcDbText
  0
LWPOLYLINE
  5
48D
330
1E
100
AcDbEntity
  8
INSTRUCT-CALLOUT
100
AcDbPolyline
 90
        4
 70
     1
 43
0.0
 10
11.35231280619914
 20
10.14
 10
11.35231280619914
 20
8.708513978657757
 10
16.18999999999999
 20
8.708513978657757
 10
16.18999999999999
 20
10.14
  0
LEADER
  5
4A4
330
1E
100
AcDbEntity
  8
TEXT_LEADERS
100
AcDbLeader
  3
Standard
 76
     3
 10
3.070433805521929
 20
4.865863450305718
 30
0.0
 10
4.463262326441662
 20
5.412804569434978
 30
0.0
 10
5.081773836770718
 20
5.412804569434978
 30
0.0
1001
ACAD
1000
DSTYLE
1002
{
1070
   147
1040
0.09
1070
    77
1070
     0
1070
   279
1070
     2
1002
}
  0
LEADER
  5
4A5
330
1E
100
AcDbEntity
  8
TEXT_LEADERS
100
AcDbLeader
  3
Standard
 76
     3
 10
3.051000213778178
 20
4.544457770053782
 30
0.0
 10
4.463262326441662
 20
5.091398889183042
 30
0.0
 10
5.081773836770718
 20
5.091398889183042
 30
0.0
1001
ACAD
1000
DSTYLE
1002
{
1070
   147
1040
0.09
1070
    77
1070
     0
1070
   279
1070
     2
1002
}
  0
LEADER
  5
4A6
330
1E
100
AcDbEntity
  8
TEXT_LEADERS
100
AcDbLeader
  3
Standard
 76
     3
 10
3.049002042911549
 20
3.781907048615923
 30
0.0
 10
4.463262326441662
 20
4.328848167745182
 30
0.0
 10
5.081773836770718
 20
4.328848167745182
 30
0.0
1001
ACAD
1000
DSTYLE
1002
{
1070
   147
1040
0.09
1070
    77
1070
     0
1070
   279
1070
     2
1002
}
  0
LEADER
  5
4A8
330
1E
100
AcDbEntity
  8
TEXT_LEADERS
100
AcDbLeader
  3
Standard
 76
     3
 10
3.03507221418426
 20
4.166333440345622
 30
0.0
 10
4.463262326441662
 20
4.713274559474882
 30
0.0
 10
5.081773836770718
 20
4.713274559474882
 30
0.0
1001
ACAD
1000
DSTYLE
1002
{
1070
   147
1040
0.09
1070
    77
1070
     0
1070
   279
1070
     2
1002
}
  0
LEADER
  5
4A9
330
1E
100
AcDbEntity
  8
TEXT_LEADERS
100
AcDbLeader
  3
Standard
 76
     3
 10
4.173430876589907
 20
5.606706170883997
 30
0.0
 10
4.556959310749077
 20
5.685554194204725
 30
0.0
 10
5.075447708132009
 20
5.685554194204725
 30
0.0
1001
ACAD
1000
DSTYLE
1002
{
1070
   147
1040
0.09
1070
    77
1070
     0
1070
   279
1070
     2
1002
}
  0
LEADER
  5
4AB
330
1E
100
AcDbEntity
  8
TEXT_LEADERS
100
AcDbLeader
  3
Standard
 76
     3
 10
2.416463584247776
 20
3.63380289733772
 30
0.0
 10
3.294177432694286
 20
3.224518208138475
 30
0.0
 10
5.081773836770718
 20
3.224518208138475
 30
0.0
1001
ACAD
1000
DSTYLE
1002
{
1070
   147
1040
0.09
1070
    77
1070
     0
1070
   279
1070
     2
1002
}
  0
LEADER
  5
4AD
330
1E
100
AcDbEntity
  8
TEXT_LEADERS
100
AcDbLeader
  3
Standard
 76
     3
 10
2.580422823965705
 20
3.66069328127957
 30
0.0
 10
3.112296553168903
 20
3.412676488180697
 30
0.0
 10
5.081773836770718
 20
3.412676488180697
 30
0.0
1001
ACAD
1000
DSTYLE
1002
{
1070
   147
1040
0.09
1070
    77
1070
     0
1070
   279
1070
     2
1002
}
  0
LEADER
  5
4AF
330
1E
100
AcDbEntity
  8
TEXT_LEADERS
100
AcDbLeader
  3
Standard
 76
     3
 10
2.993163014206789
 20
5.464429572873045
 30
0.0
 10
4.728853557258201
 20
6.466530975133666
 30
0.0
 10
5.081773836770718
 20
6.466530975133666
 30
0.0
1001
ACAD
1000
DSTYLE
1002
{
1070
   147
1040
0.09
1070
    77
1070
     0
1070
   279
1070
     2
1002
}
  0
LEADER
  5
4B0
330
1E
100
AcDbEntity
  8
TEXT_LEADERS
100
AcDbLeader
  3
Standard
 76
     3
 10
3.523588052946913
 20
6.300238105831159
 30
0.0
 10
4.680667807849701
 20
7.062457602147023
 30
0.0
 10
5.081773836770718
 20
7.062457602147023
 30
0.0
1001
ACAD
1000
DSTYLE
1002
{
1070
   147
1040
0.09
1070
    77
1070
     0
1070
   279
1070
     2
1002
}
  0
LEADER
  5
4B1
330
1E
100
AcDbEntity
  8
TEXT_LEADERS
100
AcDbLeader
  3
Standard
 76
     3
 10
3.712387028144369
 20
6.811671917745499
 30
0.0
 10
4.728853557258201
 20
7.471859402907611
 30
0.0
 10
5.081773836770718
 20
7.471859402907611
 30
0.0
1001
ACAD
1000
DSTYLE
1002
{
1070
   147
1040
0.09
1070
    77
1070
     0
1070
   279
1070
     2
1002
}
  0
LEADER
  5
4B2
330
1E
100
AcDbEntity
  8
TEXT_LEADERS
100
AcDbLeader
  3
Standard
 76
     3
 10
3.929932502950821
 20
7.432232666421092
 30
0.0
 10
4.728853557258201
 20
7.880121217084357
 30
0.0
 10
5.081773836770718
 20
7.880121217084357
 30
0.0
1001
ACAD
1000
DSTYLE
1002
{
1070
   147
1040
0.09
1070
    77
1070
     0
1070
   279
1070
     2
1002
}
  0
LEADER
  5
4B3
330
1E
100
AcDbEntity
  8
TEXT_LEADERS
100
AcDbLeader
  3
Standard
 76
     3
 10
2.034329099807805
 20
6.869152562800053
 30
0.0
 10
4.183562830817696
 20
8.110013235950038
 30
0.0
 10
5.081773836770718
 20
8.110013235950038
 30
0.0
1001
ACAD
1000
DSTYLE
1002
{
1070
   147
1040
0.09
1070
    77
1070
     0
1070
   279
1070
     2
1002
}
  0
LEADER
  5
4B6
330
1E
100
AcDbEntity
  8
TEXT_BUBBLES
100
AcDbLeader
  3
Standard
 76
     2
 10
3.913327485317987
 20
7.381865203061854
 30
0.0
 10
4.357321048502275
 20
7.611841646024348
 30
0.0
1001
ACAD
1000
DSTYLE
1002
{
1070
   279
1070
     2
1002
}
  0
LEADER
  5
4B8
330
1E
100
AcDbEntity
  8
TEXT_BUBBLES
100
AcDbLeader
  3
Standard
 76
     2
 10
3.461064967888479
 20
6.110588852489788
 30
0.0
 10
3.893737202367216
 20
6.371380793178971
 30
0.0
1001
ACAD
1000
DSTYLE
1002
{
1070
   279
1070
     2
1002
}
  0
LEADER
  5
4B9
330
1E
100
AcDbEntity
  8
TEXT_BUBBLES
100
AcDbLeader
  3
Standard
 76
     2
 10
3.065961644134341
 20
4.852056058975621
 30
0.0
 10
3.893737202367216
 20
5.253491401968544
 30
0.0
1001
ACAD
1000
DSTYLE
1002
{
1070
   279
1070
     2
1002
}
  0
LEADER
  5
4BA
330
1E
100
AcDbEntity
  8
TEXT_BUBBLES
100
AcDbLeader
  3
Standard
 76
     2
 10
3.049941483298849
 20
4.531813998269548
 30
0.0
 10
3.893737202367216
 20
4.939292053970886
 30
0.0
1001
ACAD
1000
DSTYLE
1002
{
1070
   279
1070
     2
1002
}
  0
LEADER
  5
4BB
330
1E
100
AcDbEntity
  8
TEXT_BUBBLES
100
AcDbLeader
  3
Standard
 76
     2
 10
3.033989723709054
 20
4.200673714600445
 30
0.0
 10
3.893737202367216
 20
4.610661429873591
 30
0.0
1001
ACAD
1000
DSTYLE
1002
{
1070
   279
1070
     2
1002
}
  0
LEADER
  5
4BF
330
1E
100
AcDbEntity
  8
TEXT_BUBBLES
100
AcDbLeader
  3
Standard
 76
     2
 10
2.91215689439378
 20
3.675684558321308
 30
0.0
 10
3.124241369572769
 20
3.256222810869405
 30
0.0
1001
ACAD
1000
DSTYLE
1002
{
1070
   279
1070
     2
1002
}
  0
LEADER
  5
4C0
330
1E
100
AcDbEntity
  8
TEXT_BUBBLES
100
AcDbLeader
  3
Standard
 76
     2
 10
2.635511938309864
 20
3.66069328127957
 30
0.0
 10
2.780880905894369
 20
3.256222810869405
 30
0.0
1001
ACAD
1000
DSTYLE
1002
{
1070
   279
1070
     2
1002
}
  0
LEADER
  5
4C1
330
1E
100
AcDbEntity
  8
TEXT_BUBBLES
100
AcDbLeader
  3
Standard
 76
     2
 10
2.362283187239259
 20
3.624602103807122
 30
0.0
 10
2.432641910068806
 20
3.256222810869405
 30
0.0
1001
ACAD
1000
DSTYLE
1002
{
1070
   279
1070
     2
1002
}
  0
LEADER
  5
4C2
330
1E
100
AcDbEntity
  8
TEXT_BUBBLES
100
AcDbLeader
  3
Standard
 76
     2
 10
2.763412309893095
 20
5.451005020018682
 30
0.0
 10
1.50763221348186
 20
4.905513494972876
 30
0.0
1001
ACAD
1000
DSTYLE
1002
{
1070
   279
1070
     2
1002
}
  0
LEADER
  5
4C3
330
1E
100
AcDbEntity
  8
TEXT_BUBBLES
100
AcDbLeader
  3
Standard
 76
     2
 10
1.899719952375944
 20
6.122473261274357
 30
0.0
 10
1.50763221348186
 20
6.063866182426778
 30
0.0
1001
ACAD
1000
DSTYLE
1002
{
1070
   279
1070
     2
1002
}
  0
LEADER
  5
4C4
330
1E
100
AcDbEntity
  8
TEXT_BUBBLES
100
AcDbLeader
  3
Standard
 76
     2
 10
1.956721328006582
 20
6.773770257234346
 30
0.0
 10
1.50763221348186
 20
6.571182914827101
 30
0.0
1001
ACAD
1000
DSTYLE
1002
{
1070
   279
1070
     2
1002
}
  0
LEADER
  5
4C6
330
1E
100
AcDbEntity
  8
TEXT_BUBBLES
100
AcDbLeader
  3
Standard
 76
     2
 10
3.690037618963338
 20
6.743908813338213
 30
0.0
 10
4.057332198816091
 20
6.863594544367952
 30
0.0
1001
ACAD
1000
DSTYLE
1002
{
1070
   279
1070
     2
1002
}
  0
HATCH
  5
4DE
330
1E
100
AcDbEntity
  8
IMAGE
100
AcDbHatch
 10
0.0
 20
0.0
 30
0.0
210
0.0
220
0.0
230
1.0
  2
EARTH
 70
     0
 71
     0
 91
        1
 92
        7
 72
     0
 73
     1
 93
        8
 10
4.118971402603779
 20
5.57091652003878
 10
4.124576886108793
 20
5.606706170883995
 10
3.487292301852163
 20
5.606706170883967
 10
3.313609828244417
 20
5.663317942733685
 10
3.220289556377095
 20
5.380252577921469
 10
3.43443455895943
 20
5.363545541455841
 10
3.767960403031152
 20
5.37755299395241
 10
4.008263277029277
 20
5.429441159508452
 97
        0
 75
     0
 76
     1
 52
45.0
 41
0.65
 77
     0
 78
     6
 53
45.0
 43
0.0
 44
0.0
 45
0.0
 46
0.229809703885628
 79
     2
 49
0.1625
 49
-0.1625
 53
45.0
 43
-0.0430893194785553
 44
0.0430893194785553
 45
0.0
 46
0.229809703885628
 79
     2
 49
0.1625
 49
-0.1625
 53
45.0
 43
-0.0861786389571105
 44
0.0861786389571105
 45
0.0
 46
0.229809703885628
 79
     2
 49
0.1625
 49
-0.1625
 53
135.0
 43
-0.0861786389571105
 44
0.114904851942814
 45
-0.2298097038856279
 46
0.0
 79
     2
 49
0.1625
 49
-0.1625
 53
135.0
 43
-0.0430893194785552
 44
0.1579941714213692
 45
-0.2298097038856279
 46
0.0
 79
     2
 49
0.1625
 49
-0.1625
 53
135.0
 43
0.0
 44
0.2010834908999244
 45
-0.2298097038856279
 46
0.0
 79
     2
 49
0.1625
 49
-0.1625
 47
0.0026613013649786
 98
        1
 10
3.663526504536315
 20
5.481268763850751
  0
HATCH
  5
4E6
330
1E
100
AcDbEntity
  8
IMAGE
100
AcDbHatch
 10
0.0
 20
0.0
 30
0.0
210
0.0
220
0.0
230
1.0
  2
EARTH
 70
     0
 71
     0
 91
        1
 92
        7
 72
     0
 73
     1
 93
        7
 10
1.776999655073677
 20
6.162260869557219
 10
1.782716766435205
 20
5.896463424869991
 10
1.875207089912806
 20
5.798411207219018
 10
2.144269950854425
 20
5.683550041554665
 10
2.503020393521128
 20
5.595303045668792
 10
2.784910561620856
 20
5.516214972222802
 10
2.880001874739169
 20
5.804652379226689
 97
        0
 75
     0
 76
     1
 52
45.0
 41
0.65
 77
     0
 78
     6
 53
45.0
 43
0.0
 44
0.0
 45
0.0
 46
0.229809703885628
 79
     2
 49
0.1625
 49
-0.1625
 53
45.0
 43
-0.0430893194785553
 44
0.0430893194785553
 45
0.0
 46
0.229809703885628
 79
     2
 49
0.1625
 49
-0.1625
 53
45.0
 43
-0.0861786389571105
 44
0.0861786389571105
 45
0.0
 46
0.229809703885628
 79
     2
 49
0.1625
 49
-0.1625
 53
135.0
 43
-0.0861786389571105
 44
0.114904851942814
 45
-0.2298097038856279
 46
0.0
 79
     2
 49
0.1625
 49
-0.1625
 53
135.0
 43
-0.0430893194785552
 44
0.1579941714213692
 45
-0.2298097038856279
 46
0.0
 79
     2
 49
0.1625
 49
-0.1625
 53
135.0
 43
0.0
 44
0.2010834908999244
 45
-0.2298097038856279
 46
0.0
 79
     2
 49
0.1625
 49
-0.1625
 47
0.0026613013649786
 98
        1
 10
2.1926884520333
 20
6.016984429832405
  0
CIRCLE
  5
508
330
1E
100
AcDbEntity
  8
TEXT_BUBBLES
100
AcDbCircle
 10
5.268429291127176
 20
7.72498317994092
 30
0.0
 40
0.1562500331414542
  0
CIRCLE
  5
509
330
1E
100
AcDbEntity
  8
TEXT_BUBBLES
100
AcDbCircle
 10
5.268429291127176
 20
7.19998317994092
 30
0.0
 40
0.1562500331414542
  0
CIRCLE
  5
50A
330
1E
100
AcDbEntity
  8
TEXT_BUBBLES
100
AcDbCircle
 10
5.268429291127176
 20
6.67498317994092
 30
0.0
 40
0.1562500331414542
  0
CIRCLE
  5
50B
330
1E
100
AcDbEntity
  8
TEXT_BUBBLES
100
AcDbCircle
 10
5.268429291127176
 20
5.974983179940918
 30
0.0
 40
0.1562500331414542
  0
CIRCLE
  5
50C
330
1E
100
AcDbEntity
  8
TEXT_BUBBLES
100
AcDbCircle
 10
5.268429291127176
 20
5.624983179940919
 30
0.0
 40
0.1562500331414542
  0
CIRCLE
  5
50D
330
1E
100
AcDbEntity
  8
TEXT_BUBBLES
100
AcDbCircle
 10
5.268429291127176
 20
5.274983179940919
 30
0.0
 40
0.1562500331414542
  0
CIRCLE
  5
50E
330
1E
100
AcDbEntity
  8
TEXT_BUBBLES
100
AcDbCircle
 10
5.268429291127176
 20
4.749983179940919
 30
0.0
 40
0.1562500331414542
  0
CIRCLE
  5
50F
330
1E
100
AcDbEntity
  8
TEXT_BUBBLES
100
AcDbCircle
 10
5.268429291127176
 20
4.399983179940919
 30
0.0
 40
0.1562500331414542
  0
CIRCLE
  5
510
330
1E
100
AcDbEntity
  8
TEXT_BUBBLES
100
AcDbCircle
 10
5.268429291127176
 20
4.049983179940918
 30
0.0
 40
0.1562500331414542
  0
CIRCLE
  5
511
330
1E
100
AcDbEntity
  8
TEXT_BUBBLES
100
AcDbCircle
 10
5.268429291127176
 20
3.174983179940918
 30
0.0
 40
0.1562500331414542
  0
CIRCLE
  5
512
330
1E
100
AcDbEntity
  8
TEXT_BUBBLES
100
AcDbCircle
 10
5.268429291127176
 20
2.824983179940929
 30
0.0
 40
0.1562500331414542
  0
CIRCLE
  5
513
330
1E
100
AcDbEntity
  8
TEXT_BUBBLES
100
AcDbCircle
 10
4.513571081643729
 20
7.611841646024348
 30
0.0
 40
0.1562500331414542
  0
CIRCLE
  5
514
330
1E
100
AcDbEntity
  8
TEXT_BUBBLES
100
AcDbCircle
 10
4.213582231957545
 20
6.863594544367952
 30
0.0
 40
0.1562500331414542
  0
CIRCLE
  5
515
330
1E
100
AcDbEntity
  8
TEXT_BUBBLES
100
AcDbCircle
 10
4.049987235508671
 20
6.371380793178971
 30
0.0
 40
0.1562500331414542
  0
CIRCLE
  5
516
330
1E
100
AcDbEntity
  8
TEXT_BUBBLES
100
AcDbCircle
 10
4.049987235508671
 20
5.253491401968544
 30
0.0
 40
0.1562500331414542
  0
CIRCLE
  5
517
330
1E
100
AcDbEntity
  8
TEXT_BUBBLES
100
AcDbCircle
 10
4.049987235508671
 20
4.939292053970886
 30
0.0
 40
0.1562500331414542
  0
CIRCLE
  5
518
330
1E
100
AcDbEntity
  8
TEXT_BUBBLES
100
AcDbCircle
 10
4.049987235508671
 20
4.610661429873591
 30
0.0
 40
0.1562500331414542
  0
CIRCLE
  5
519
330
1E
100
AcDbEntity
  8
TEXT_BUBBLES
100
AcDbCircle
 10
3.124241369572769
 20
3.099972777727951
 30
0.0
 40
0.1562500331414542
  0
CIRCLE
  5
51A
330
1E
100
AcDbEntity
  8
TEXT_BUBBLES
100
AcDbCircle
 10
2.780880905894369
 20
3.099972777727951
 30
0.0
 40
0.1562500331414542
  0
CIRCLE
  5
51B
330
1E
100
AcDbEntity
  8
TEXT_BUBBLES
100
AcDbCircle
 10
2.432641910068806
 20
3.099972777727951
 30
0.0
 40
0.1562500331414542
  0
CIRCLE
  5
51C
330
1E
100
AcDbEntity
  8
TEXT_BUBBLES
100
AcDbCircle
 10
1.351382180340406
 20
4.905513494972876
 30
0.0
 40
0.1562500331414542
  0
CIRCLE
  5
51D
330
1E
100
AcDbEntity
  8
TEXT_BUBBLES
100
AcDbCircle
 10
1.351382180340406
 20
6.063866182426778
 30
0.0
 40
0.1562500331414542
  0
CIRCLE
  5
51E
330
1E
100
AcDbEntity
  8
TEXT_BUBBLES
100
AcDbCircle
 10
1.351382180340406
 20
6.571182914827101
 30
0.0
 40
0.1562500331414542
  0
VIEWPORT
  5
CD
330
1A
100
AcDbEntity
 67
     1
  8
0
100
AcDbViewport
 10
6.172388059701492
 20
4.5
 30
0.0
 40
12.34477611940298
 41
9.0
 68
     1
 69
     1
 12
6.172388059701492
 22
4.5
 13
0.0
 23
0.0
 14
0.14
 24
0.14
 15
0.14
 25
0.14
 16
0.0
 26
0.0
 36
1.0
 17
0.0
 27
0.0
 37
0.0
 42
50.0
 43
0.0
 44
0.0
 45
9.0
 50
0.0
 51
0.0
 72
   100
 90
    32800
  1

281
     0
 71
     0
 74
     0
110
0.0
120
0.0
130
0.0
111
0.0
121
0.0
131
0.0
112
0.0
122
0.0
132
0.0
 79
     0
146
0.0
  0
ENDSEC
  0
SECTION
  2
OBJECTS
  0
DICTIONARY
  5
C
330
0
100
AcDbDictionary
281
     1
  3
ACAD_GROUP
350
D
  3
ACAD_LAYOUT
350
19
  3
ACAD_MLINESTYLE
350
16
  3
ACAD_PLOTSETTINGS
350
18
  3
ACAD_PLOTSTYLENAME
350
E
  3
AcadDim
350
4AE
  3
AcDbVariableDictionary
350
42C
  3
ASE_INDEX_DICTIONARY
350
437
  0
DICTIONARY
  5
D
102
{ACAD_REACTORS
330
C
102
}
330
C
100
AcDbDictionary
281
     1
  0
DICTIONARY
  5
19
102
{ACAD_REACTORS
330
C
102
}
330
C
100
AcDbDictionary
281
     1
  3
Layout1
350
1D
  3
Model
350
21
  0
DICTIONARY
  5
16
102
{ACAD_REACTORS
330
C
102
}
330
C
100
AcDbDictionary
281
     1
  3
Standard
350
17
  0
DICTIONARY
  5
18
102
{ACAD_REACTORS
330
C
102
}
330
C
100
AcDbDictionary
281
     1
  0
ACDBDICTIONARYWDFLT
  5
E
102
{ACAD_REACTORS
330
C
102
}
330
C
100
AcDbDictionary
281
     1
  3
Normal
350
F
100
AcDbDictionaryWithDefault
340
F
  0
XRECORD
  5
4AE
102
{ACAD_REACTORS
330
C
102
}
330
C
100
AcDbXrecord
280
     1
 90
   990106
  3

 60
     4
 61
     0
 62
     1
 63
     3
 64
     0
 65
     0
 66
     0
 67
     3
 68
     1
 69
     0
 70
     0
 71
     1
 72
     0
 40
0.0
170
     1
  0
DICTIONARY
  5
42C
102
{ACAD_REACTORS
330
C
102
}
330
C
100
AcDbDictionary
281
     1
  3
DIMASSOC
350
42F
  3
HIDETEXT
350
42E
  3
SORTENTS
350
42D
  0
DICTIONARY
  5
437
102
{ACAD_REACTORS
330
C
102
}
330
C
100
AcDbDictionary
281
     1
  3
ASEBlockHierarchyIndexRecord
350
439
1001
DCO15
1040
1487050232.857
  0
LAYOUT
  5
1D
102
{ACAD_REACTORS
330
19
102
}
330
19
100
AcDbPlotSettings
  1

  2
S:\AutoCAD 2002\Plotters\1055B&WDraftShaded.pc3
  4

  6

 40
0.0
 41
0.0
 42
0.0
 43
0.0
 44
0.0
 45
0.0
 46
0.0
 47
0.0
 48
0.0
 49
0.0
140
0.0
141
0.0
142
1.0
143
1.0
 70
   688
 72
     0
 73
     0
 74
     5
  7
Color.ctb
 75
    16
147
1.0
148
0.0
149
0.0
100
AcDbLayout
  1
Layout1
 70
     1
 71
     1
 10
0.0
 20
0.0
 11
12.0
 21
9.0
 12
0.0
 22
0.0
 32
0.0
 14
1.000000000000000E+20
 24
1.000000000000000E+20
 34
1.000000000000000E+20
 15
-1.000000000000000E+20
 25
-1.000000000000000E+20
 35
-1.000000000000000E+20
146
0.0
 13
0.0
 23
0.0
 33
0.0
 16
1.0
 26
0.0
 36
0.0
 17
0.0
 27
1.0
 37
0.0
 76
     0
330
1A
331
CD
  0
LAYOUT
  5
21
102
{ACAD_REACTORS
330
19
102
}
330
19
100
AcDbPlotSettings
  1

  2
OKI DOKI Color Laser.pc3
  4
Tabloid
  6

 40
5.027083396911621
 41
5.027085304260253
 42
5.027099609375
 43
5.027069091796875
 44
279.3999938964843
 45
431.7999877929687
 46
0.0
 47
0.0
 48
0.0
 49
0.0000000000000001
140
16.48999999999999
141
10.44
142
1.0
143
1.0
 70
 11936
 72
     0
 73
     1
 74
     4
  7
Color.ctb
 75
     0
147
1.0
148
0.0
149
-0.0000000000000028
100
AcDbLayout
  1
Model
 70
     1
 71
     0
 10
0.0
 20
0.0
 11
12.0
 21
9.0
 12
0.0
 22
0.0
 32
0.0
 14
0.0
 24
0.0
 34
0.0
 15
0.0
 25
0.0
 35
0.0
146
0.0
 13
0.0
 23
0.0
 33
0.0
 16
1.0
 26
0.0
 36
0.0
 17
0.0
 27
1.0
 37
0.0
 76
     0
330
1E
  0
MLINESTYLE
  5
17
102
{ACAD_REACTORS
330
16
102
}
330
16
100
AcDbMlineStyle
  2
STANDARD
 70
     0
  3

 62
   256
 51
90.0
 52
90.0
 71
     2
 49
0.5
 62
   256
  6
BYLAYER
 49
-0.5
 62
   256
  6
BYLAYER
  0
ACDBPLACEHOLDER
  5
F
102
{ACAD_REACTORS
330
E
102
}
330
E
  0
DICTIONARYVAR
  5
42F
102
{ACAD_REACTORS
330
42C
102
}
330
42C
100
DictionaryVariables
280
     0
  1
1
  0
DICTIONARYVAR
  5
42E
102
{ACAD_REACTORS
330
42C
102
}
330
42C
100
DictionaryVariables
280
     0
  1
1
  0
DICTIONARYVAR
  5
42D
102
{ACAD_REACTORS
330
42C
102
}
330
42C
100
DictionaryVariables
280
     0
  1
1
  0
XRECORD
  5
439
102
{ACAD_REACTORS
330
437
102
}
330
437
100
AcDbXrecord
280
     1
330
161
330
0
  0
ENDSEC
  0
EOF
