  0
SECTION
  2
HEADER
  9
$ACADVER
  1
AC1015
  9
$ACADMAINTVER
 70
    13
  9
$DWGCODEPAGE
  3
ANSI_1252
  9
$INSBASE
 10
0.0
 20
0.0
 30
0.0
  9
$EXTMIN
 10
20.64052165166647
 20
-3.321406828426057
 30
-0.0000004574423482
  9
$EXTMAX
 10
37.13174759271852
 20
7.118978556046309
 30
0.030000457861469
  9
$LIMMIN
 10
0.0
 20
0.0
  9
$LIMMAX
 10
11.00555555555599
 20
8.505555555555599
  9
$ORTHOMODE
 70
     1
  9
$REGENMODE
 70
     1
  9
$FILLMODE
 70
     1
  9
$QTEXTMODE
 70
     0
  9
$MIRRTEXT
 70
     0
  9
$LTSCALE
 40
1.0
  9
$ATTMODE
 70
     1
  9
$TEXTSIZE
 40
0.0
  9
$TRACEWID
 40
0.05
  9
$TEXTSTYLE
  7
STANDARD
  9
$CLAYER
  8
TITLE
  9
$CELTYPE
  6
BYLAYER
  9
$CECOLOR
 62
   256
  9
$CELTSCALE
 40
1.0
  9
$DISPSILH
 70
     0
  9
$DIMSCALE
 40
1.0
  9
$DIMASZ
 40
0.18
  9
$DIMEXO
 40
0.0625
  9
$DIMDLI
 40
0.38
  9
$DIMRND
 40
0.0
  9
$DIMDLE
 40
0.0
  9
$DIMEXE
 40
0.18
  9
$DIMTP
 40
0.0
  9
$DIMTM
 40
0.0
  9
$DIMTXT
 40
0.18
  9
$DIMCEN
 40
0.09
  9
$DIMTSZ
 40
0.0
  9
$DIMTOL
 70
     0
  9
$DIMLIM
 70
     0
  9
$DIMTIH
 70
     1
  9
$DIMTOH
 70
     1
  9
$DIMSE1
 70
     0
  9
$DIMSE2
 70
     0
  9
$DIMTAD
 70
     0
  9
$DIMZIN
 70
     0
  9
$DIMBLK
  1

  9
$DIMASO
 70
     1
  9
$DIMSHO
 70
     1
  9
$DIMPOST
  1

  9
$DIMAPOST
  1

  9
$DIMALT
 70
     0
  9
$DIMALTD
 70
     2
  9
$DIMALTF
 40
25.4
  9
$DIMLFAC
 40
1.0
  9
$DIMTOFL
 70
     0
  9
$DIMTVP
 40
0.0
  9
$DIMTIX
 70
     0
  9
$DIMSOXD
 70
     0
  9
$DIMSAH
 70
     0
  9
$DIMBLK1
  1

  9
$DIMBLK2
  1

  9
$DIMSTYLE
  2
STANDARD
  9
$DIMCLRD
 70
     0
  9
$DIMCLRE
 70
     0
  9
$DIMCLRT
 70
     0
  9
$DIMTFAC
 40
1.0
  9
$DIMGAP
 40
0.09
  9
$DIMJUST
 70
     0
  9
$DIMSD1
 70
     0
  9
$DIMSD2
 70
     0
  9
$DIMTOLJ
 70
     1
  9
$DIMTZIN
 70
     0
  9
$DIMALTZ
 70
     0
  9
$DIMALTTZ
 70
     0
  9
$DIMUPT
 70
     0
  9
$DIMDEC
 70
     4
  9
$DIMTDEC
 70
     4
  9
$DIMALTU
 70
     2
  9
$DIMALTTD
 70
     2
  9
$DIMTXSTY
  7
STANDARD
  9
$DIMAUNIT
 70
     0
  9
$DIMADEC
 70
     0
  9
$DIMALTRND
 40
0.0
  9
$DIMAZIN
 70
     0
  9
$DIMDSEP
 70
    46
  9
$DIMATFIT
 70
     3
  9
$DIMFRAC
 70
     0
  9
$DIMLDRBLK
  1

  9
$DIMLUNIT
 70
     2
  9
$DIMLWD
 70
    -2
  9
$DIMLWE
 70
    -2
  9
$DIMTMOVE
 70
     0
  9
$LUNITS
 70
     2
  9
$LUPREC
 70
     2
  9
$SKETCHINC
 40
0.1
  9
$FILLETRAD
 40
0.0
  9
$AUNITS
 70
     0
  9
$AUPREC
 70
     2
  9
$MENU
  1
.
  9
$ELEVATION
 40
0.0
  9
$PELEVATION
 40
0.0
  9
$THICKNESS
 40
0.0
  9
$LIMCHECK
 70
     0
  9
$CHAMFERA
 40
0.25
  9
$CHAMFERB
 40
0.25
  9
$CHAMFERC
 40
0.0
  9
$CHAMFERD
 40
0.0
  9
$SKPOLY
 70
     0
  9
$TDCREATE
 40
2444971.708333333
  9
$TDUCREATE
 40
2444972.000000000
  9
$TDUPDATE
 40
2453021.658145764
  9
$TDUUPDATE
 40
2453021.949812430
  9
$TDINDWG
 40
0.3806666088
  9
$TDUSRTIMER
 40
0.3806666088
  9
$USRTIMER
 70
     1
  9
$ANGBASE
 50
0.0
  9
$ANGDIR
 70
     0
  9
$PDMODE
 70
     0
  9
$PDSIZE
 40
0.0
  9
$PLINEWID
 40
0.0
  9
$SPLFRAME
 70
     0
  9
$SPLINETYPE
 70
     6
  9
$SPLINESEGS
 70
     8
  9
$HANDSEED
  5
32E4
  9
$SURFTAB1
 70
     6
  9
$SURFTAB2
 70
     6
  9
$SURFTYPE
 70
     6
  9
$SURFU
 70
     6
  9
$SURFV
 70
     6
  9
$UCSBASE
  2

  9
$UCSNAME
  2

  9
$UCSORG
 10
0.0
 20
0.0
 30
0.0
  9
$UCSXDIR
 10
1.0
 20
0.0
 30
0.0
  9
$UCSYDIR
 10
0.0
 20
1.0
 30
0.0
  9
$UCSORTHOREF
  2

  9
$UCSORTHOVIEW
 70
     0
  9
$UCSORGTOP
 10
0.0
 20
0.0
 30
0.0
  9
$UCSORGBOTTOM
 10
0.0
 20
0.0
 30
0.0
  9
$UCSORGLEFT
 10
0.0
 20
0.0
 30
0.0
  9
$UCSORGRIGHT
 10
0.0
 20
0.0
 30
0.0
  9
$UCSORGFRONT
 10
0.0
 20
0.0
 30
0.0
  9
$UCSORGBACK
 10
0.0
 20
0.0
 30
0.0
  9
$PUCSBASE
  2

  9
$PUCSNAME
  2

  9
$PUCSORG
 10
0.0
 20
0.0
 30
0.0
  9
$PUCSXDIR
 10
1.0
 20
0.0
 30
0.0
  9
$PUCSYDIR
 10
0.0
 20
1.0
 30
0.0
  9
$PUCSORTHOREF
  2

  9
$PUCSORTHOVIEW
 70
     0
  9
$PUCSORGTOP
 10
0.0
 20
0.0
 30
0.0
  9
$PUCSORGBOTTOM
 10
0.0
 20
0.0
 30
0.0
  9
$PUCSORGLEFT
 10
0.0
 20
0.0
 30
0.0
  9
$PUCSORGRIGHT
 10
0.0
 20
0.0
 30
0.0
  9
$PUCSORGFRONT
 10
0.0
 20
0.0
 30
0.0
  9
$PUCSORGBACK
 10
0.0
 20
0.0
 30
0.0
  9
$USERI1
 70
     0
  9
$USERI2
 70
     0
  9
$USERI3
 70
     0
  9
$USERI4
 70
     0
  9
$USERI5
 70
     0
  9
$USERR1
 40
0.0
  9
$USERR2
 40
0.0
  9
$USERR3
 40
0.0
  9
$USERR4
 40
0.0
  9
$USERR5
 40
0.0
  9
$WORLDVIEW
 70
     1
  9
$SHADEDGE
 70
     3
  9
$SHADEDIF
 70
    70
  9
$TILEMODE
 70
     1
  9
$MAXACTVP
 70
    48
  9
$PINSBASE
 10
0.0
 20
0.0
 30
0.0
  9
$PLIMCHECK
 70
     0
  9
$PEXTMIN
 10
1.000000000000000E+20
 20
1.000000000000000E+20
 30
1.000000000000000E+20
  9
$PEXTMAX
 10
-1.000000000000000E+20
 20
-1.000000000000000E+20
 30
-1.000000000000000E+20
  9
$PLIMMIN
 10
0.0
 20
0.0
  9
$PLIMMAX
 10
12.0
 20
9.0
  9
$UNITMODE
 70
     0
  9
$VISRETAIN
 70
     0
  9
$PLINEGEN
 70
     1
  9
$PSLTSCALE
 70
     1
  9
$TREEDEPTH
 70
  3020
  9
$CMLSTYLE
  2
STANDARD
  9
$CMLJUST
 70
     0
  9
$CMLSCALE
 40
1.0
  9
$PROXYGRAPHICS
 70
     1
  9
$MEASUREMENT
 70
     0
  9
$CELWEIGHT
370
    -1
  9
$ENDCAPS
280
     0
  9
$JOINSTYLE
280
     0
  9
$LWDISPLAY
290
     0
  9
$INSUNITS
 70
     0
  9
$HYPERLINKBASE
  1

  9
$STYLESHEET
  1
8500ColorShaded.ctb
  9
$XEDIT
290
     1
  9
$CEPSNTYPE
380
     0
  9
$PSTYLEMODE
290
     1
  9
$FINGERPRINTGUID
  2
{03110DBD-6FDC-4DF0-9E0E-B04EB641DEB3}
  9
$VERSIONGUID
  2
{5C0E6D8E-71EA-4EC0-BC9A-A089533FA465}
  9
$EXTNAMES
290
     1
  9
$PSVPSCALE
 40
0.0
  9
$OLESTARTUP
290
     0
  0
ENDSEC
  0
SECTION
  2
CLASSES
  0
CLASS
  1
ACDBDICTIONARYWDFLT
  2
AcDbDictionaryWithDefault
  3
AutoCAD 2000
 90
        0
280
     0
281
     0
  0
CLASS
  1
ACDBPLACEHOLDER
  2
AcDbPlaceHolder
  3
AutoCAD 2000
 90
        0
280
     0
281
     0
  0
CLASS
  1
LAYOUT
  2
AcDbLayout
  3
AutoCAD 2000
 90
        0
280
     0
281
     0
  0
CLASS
  1
DICTIONARYVAR
  2
AcDbDictionaryVar
  3
AutoCAD 2000
 90
        0
280
     0
281
     0
  0
CLASS
  1
PLOTSETTINGS
  2
AcDbPlotSettings
  3
AutoCAD 2000
 90
        0
280
     0
281
     0
  0
ENDSEC
  0
SECTION
  2
TABLES
  0
TABLE
  2
VPORT
  5
8
330
0
100
AcDbSymbolTable
 70
     4
  0
VPORT
  5
32E3
330
8
100
AcDbSymbolTableRecord
100
AcDbViewportTableRecord
  2
*Active
 70
     0
 10
0.0
 20
0.0
 11
1.0
 21
1.0
 12
28.8861346221925
 22
1.898785863810126
 13
0.0
 23
0.0
 14
1.0
 24
1.0
 15
0.0
 25
0.0
 16
0.0
 26
0.0
 36
1.0
 17
0.0
 27
0.0
 37
0.0
 40
10.52666956120354
 41
1.609655172413793
 42
50.0
 43
0.0
 44
0.0
 50
0.0
 51
0.0
 71
     0
 72
  1000
 73
     1
 74
     0
 75
     0
 76
     0
 77
     0
 78
     0
281
     0
 65
     1
110
0.0
120
0.0
130
0.0
111
1.0
121
0.0
131
0.0
112
0.0
122
1.0
132
0.0
 79
     0
146
0.0
  0
ENDTAB
  0
TABLE
  2
LTYPE
  5
5
330
0
100
AcDbSymbolTable
 70
     2
  0
LTYPE
  5
12
330
5
100
AcDbSymbolTableRecord
100
AcDbLinetypeTableRecord
  2
BYBLOCK
 70
     0
  3

 72
    65
 73
     0
 40
0.0
  0
LTYPE
  5
13
330
5
100
AcDbSymbolTableRecord
100
AcDbLinetypeTableRecord
  2
BYLAYER
 70
     0
  3

 72
    65
 73
     0
 40
0.0
  0
LTYPE
  5
14
330
5
100
AcDbSymbolTableRecord
100
AcDbLinetypeTableRecord
  2
CONTINUOUS
 70
     0
  3
___________________________
 72
    65
 73
     0
 40
0.0
  0
ENDTAB
  0
TABLE
  2
LAYER
  5
2
102
{ACAD_XDICTIONARY
360
32E2
102
}
330
0
100
AcDbSymbolTable
 70
     5
  0
LAYER
  5
E
330
2
100
AcDbSymbolTableRecord
100
AcDbLayerTableRecord
  2
0
 70
     0
 62
     7
  6
CONTINUOUS
370
    -3
390
1803
  0
LAYER
  5
192C
330
2
100
AcDbSymbolTableRecord
100
AcDbLayerTableRecord
  2
TITLE
 70
     0
 62
     7
  6
CONTINUOUS
370
    -3
390
1803
  0
LAYER
  5
21F0
330
2
100
AcDbSymbolTableRecord
100
AcDbLayerTableRecord
  2
Image
 70
     0
 62
     7
  6
CONTINUOUS
370
    -3
390
1803
  0
LAYER
  5
21F1
330
2
100
AcDbSymbolTableRecord
100
AcDbLayerTableRecord
  2
TEXT_BUBBLES
 70
     0
 62
     7
  6
CONTINUOUS
370
    -3
390
1803
1001
RAK
1000
{EFB-CP-BUBBLES
1070
     0
1070
     6
1000
CONTINUOUS
1000
EFB-CP-BUBBLES}
1000
{EFB-CP-LEADERS
1070
     0
1070
    -6
1000
CONTINUOUS
1000
EFB-CP-LEADERS}
1000
{EFB-CP-BSP-BUBBLES
1070
     0
1070
     6
1000
CONTINUOUS
1000
EFB-CP-BSP-BUBBLES}
1000
{EFB-CP-BSP-LEADERS
1070
     0
1070
    -6
1000
CONTINUOUS
1000
EFB-CP-BSP-LEADERS}
1000
{EFB-CP-NP-BUBBLES
1070
     0
1070
     6
1000
CONTINUOUS
1000
EFB-CP-NP-BUBBLES}
1000
{EFB-CP-NP-LEADERS
1070
     0
1070
    -6
1000
CONTINUOUS
1000
EFB-CP-NP-LEADERS}
1000
{EFB-CP-PRS-BUBBLES
1070
     0
1070
     6
1000
CONTINUOUS
1000
EFB-CP-PRS-BUBBLES}
1000
{EFB-CP-PRS-LEADERS
1070
     0
1070
    -6
1000
CONTINUOUS
1000
EFB-CP-PRS-LEADERS}
1000
{EFB-CP-PRS-BSP-BUBBLES
1070
     0
1070
     6
1000
CONTINUOUS
1000
EFB-CP-PRS-BSP-BUBBLES}
1000
{EFB-CP-PRS-BSP-LEADERS
1070
     0
1070
    -6
1000
CONTINUOUS
1000
EFB-CP-PRS-BSP-LEADERS}
1000
{EFB-CP-PRS-NP-BUBBLES
1070
     0
1070
     6
1000
CONTINUOUS
1000
EFB-CP-PRS-NP-BUBBLES}
1000
{EFB-CP-PRS-NP-LEADERS
1070
     0
1070
    -6
1000
CONTINUOUS
1000
EFB-CP-PRS-NP-LEADERS}
  0
LAYER
  5
21F2
330
2
100
AcDbSymbolTableRecord
100
AcDbLayerTableRecord
  2
DEFPOINTS
 70
     0
 62
     7
  6
CONTINUOUS
290
     0
370
    -3
390
1803
  0
ENDTAB
  0
TABLE
  2
STYLE
  5
3
330
0
100
AcDbSymbolTable
 70
     6
  0
STYLE
  5
F
330
3
100
AcDbSymbolTableRecord
100
AcDbTextStyleTableRecord
  2
STANDARD
 70
     0
 40
0.0
 41
1.0
 50
0.0
 71
     0
 42
0.0
  3
TXT
  4

  0
STYLE
  5
1932
330
3
100
AcDbSymbolTableRecord
100
AcDbTextStyleTableRecord
  2
ROMANS
 70
     0
 40
0.0
 41
1.0
 50
0.0
 71
     0
 42
0.1
  3
romans
  4

  0
STYLE
  5
21F3
330
3
100
AcDbSymbolTableRecord
100
AcDbTextStyleTableRecord
  2
L100
 70
     0
 40
0.1
 41
1.0
 50
0.0
 71
     0
 42
0.1
  3
SIMPLEX
  4

  0
STYLE
  5
21F4
330
3
100
AcDbSymbolTableRecord
100
AcDbTextStyleTableRecord
  2
L200
 70
     0
 40
0.2
 41
1.0
 50
0.0
 71
     0
 42
0.081
  3
ARIAL.TTF
  4

1001
ACAD
1000
Arial
1071
       34
  0
STYLE
  5
21F5
330
3
100
AcDbSymbolTableRecord
100
AcDbTextStyleTableRecord
  2
L80
 70
     0
 40
0.08
 41
1.0
 50
0.0
 71
     0
 42
0.08
  3
ROMANS
  4

  0
ENDTAB
  0
TABLE
  2
VIEW
  5
6
330
0
100
AcDbSymbolTable
 70
     1
  0
VIEW
  5
3280
330
6
100
AcDbSymbolTableRecord
100
AcDbViewTableRecord
  2
PS1
 70
     0
 40
10.44
 10
28.88618082566485
 20
1.898773529306818
 41
16.49
 11
0.0
 21
0.0
 31
1.0
 12
0.0
 22
0.0
 32
0.0
 42
50.0
 43
0.0
 44
0.0
 50
0.0
 71
     0
281
     0
 72
     1
110
0.0
120
0.0
130
0.0
111
1.0
121
0.0
131
0.0
112
0.0
122
1.0
132
0.0
 79
     0
146
0.0
  0
ENDTAB
  0
TABLE
  2
UCS
  5
7
330
0
100
AcDbSymbolTable
 70
     0
  0
ENDTAB
  0
TABLE
  2
APPID
  5
9
330
0
100
AcDbSymbolTable
 70
    28
  0
APPID
  5
10
330
9
100
AcDbSymbolTableRecord
100
AcDbRegAppTableRecord
  2
ACAD
 70
     0
  0
APPID
  5
1933
330
9
100
AcDbSymbolTableRecord
100
AcDbRegAppTableRecord
  2
ABNSLEADERTOOLS
 70
     0
  0
APPID
  5
21F6
330
9
100
AcDbSymbolTableRecord
100
AcDbRegAppTableRecord
  2
CLSI_CADWRITER
 70
     0
  0
APPID
  5
21F7
330
9
100
AcDbSymbolTableRecord
100
AcDbRegAppTableRecord
  2
RAK
 70
     0
  0
APPID
  5
21F8
330
9
100
AcDbSymbolTableRecord
100
AcDbRegAppTableRecord
  2
WID_Sprinkler
 70
     0
  0
APPID
  5
21F9
330
9
100
AcDbSymbolTableRecord
100
AcDbRegAppTableRecord
  2
WID_Valve
 70
     0
  0
APPID
  5
21FA
330
9
100
AcDbSymbolTableRecord
100
AcDbRegAppTableRecord
  2
WID_Fitting
 70
     0
  0
APPID
  5
21FB
330
9
100
AcDbSymbolTableRecord
100
AcDbRegAppTableRecord
  2
WID_HPNode
 70
     0
  0
APPID
  5
21FC
330
9
100
AcDbSymbolTableRecord
100
AcDbRegAppTableRecord
  2
WID_Node
 70
     0
  0
APPID
  5
21FD
330
9
100
AcDbSymbolTableRecord
100
AcDbRegAppTableRecord
  2
WID_Conduit
 70
     0
  0
APPID
  5
21FE
330
9
100
AcDbSymbolTableRecord
100
AcDbRegAppTableRecord
  2
WID_SprinklerSection
 70
     0
  0
APPID
  5
21FF
330
9
100
AcDbSymbolTableRecord
100
AcDbRegAppTableRecord
  2
WID_MainLineSection
 70
     0
  0
APPID
  5
2200
330
9
100
AcDbSymbolTableRecord
100
AcDbRegAppTableRecord
  2
WID_ManifoldSection
 70
     0
  0
APPID
  5
2201
330
9
100
AcDbSymbolTableRecord
100
AcDbRegAppTableRecord
  2
WID_DripSection
 70
     0
  0
APPID
  5
2202
330
9
100
AcDbSymbolTableRecord
100
AcDbRegAppTableRecord
  2
WID_HPSection
 70
     0
  0
APPID
  5
2203
330
9
100
AcDbSymbolTableRecord
100
AcDbRegAppTableRecord
  2
WID_Sleeve
 70
     0
  0
APPID
  5
2204
330
9
100
AcDbSymbolTableRecord
100
AcDbRegAppTableRecord
  2
WID_Layout
 70
     0
  0
APPID
  5
2205
330
9
100
AcDbSymbolTableRecord
100
AcDbRegAppTableRecord
  2
WID_Island
 70
     0
  0
APPID
  5
2206
330
9
100
AcDbSymbolTableRecord
100
AcDbRegAppTableRecord
  2
WID_Controller
 70
     0
  0
APPID
  5
2207
330
9
100
AcDbSymbolTableRecord
100
AcDbRegAppTableRecord
  2
WID_SprinklerLateral
 70
     0
  0
APPID
  5
2208
330
9
100
AcDbSymbolTableRecord
100
AcDbRegAppTableRecord
  2
WID_HPDripLateral
 70
     0
  0
APPID
  5
2209
330
9
100
AcDbSymbolTableRecord
100
AcDbRegAppTableRecord
  2
WID_LabelPipeSize
 70
     0
  0
APPID
  5
220A
330
9
100
AcDbSymbolTableRecord
100
AcDbRegAppTableRecord
  2
WID_LabelPipeSegment
 70
     0
  0
APPID
  5
220B
330
9
100
AcDbSymbolTableRecord
100
AcDbRegAppTableRecord
  2
WID_LabelValveDesignator
 70
     0
  0
APPID
  5
220C
330
9
100
AcDbSymbolTableRecord
100
AcDbRegAppTableRecord
  2
WID_CheckArc
 70
     0
  0
APPID
  5
220D
330
9
100
AcDbSymbolTableRecord
100
AcDbRegAppTableRecord
  2
WID_ObjectType
 70
     0
  0
APPID
  5
220E
330
9
100
AcDbSymbolTableRecord
100
AcDbRegAppTableRecord
  2
WID_DripLateral
 70
     0
  0
APPID
  5
220F
330
9
100
AcDbSymbolTableRecord
100
AcDbRegAppTableRecord
  2
DCO15
 70
     0
  0
ENDTAB
  0
TABLE
  2
DIMSTYLE
  5
A
330
0
100
AcDbSymbolTable
 70
     1
100
AcDbDimStyleTable
 71
     0
  0
DIMSTYLE
105
17FF
330
A
100
AcDbSymbolTableRecord
100
AcDbDimStyleTableRecord
  2
STANDARD
 70
     0
340
F
  0
ENDTAB
  0
TABLE
  2
BLOCK_RECORD
  5
1
330
0
100
AcDbSymbolTable
 70
     5
  0
BLOCK_RECORD
  5
18
330
1
100
AcDbSymbolTableRecord
100
AcDbBlockTableRecord
  2
*MODEL_SPACE
340
1806
  0
BLOCK_RECORD
  5
15
330
1
100
AcDbSymbolTableRecord
100
AcDbBlockTableRecord
  2
*PAPER_SPACE
340
1807
  0
BLOCK_RECORD
  5
20F6
330
1
100
AcDbSymbolTableRecord
100
AcDbBlockTableRecord
  2
TITLBLK
340
0
102
{BLKREFS
331
2252
102
}
  0
BLOCK_RECORD
  5
2117
330
1
100
AcDbSymbolTableRecord
100
AcDbBlockTableRecord
  2
bubble
340
0
310
2800000020000000200000000100080000000000000400000000000000000000000000000000000000000000000080000080000000808000800000008000800080800000C0C0C000C0DCC000F0CAA6000020400000206000002080000020A0000020C0000020E00000400000004020000040400000406000004080000040A0
310
000040C0000040E00000600000006020000060400000606000006080000060A0000060C0000060E00000800000008020000080400000806000008080000080A0000080C0000080E00000A0000000A0200000A0400000A0600000A0800000A0A00000A0C00000A0E00000C0000000C0200000C0400000C0600000C0800000C0
310
A00000C0C00000C0E00000E0000000E0200000E0400000E0600000E0800000E0A00000E0C00000E0E00040000000400020004000400040006000400080004000A0004000C0004000E00040200000402020004020400040206000402080004020A0004020C0004020E000404000004040200040404000404060004040800040
310
40A0004040C0004040E00040600000406020004060400040606000406080004060A0004060C0004060E00040800000408020004080400040806000408080004080A0004080C0004080E00040A0000040A0200040A0400040A0600040A0800040A0A00040A0C00040A0E00040C0000040C0200040C0400040C0600040C08000
310
40C0A00040C0C00040C0E00040E0000040E0200040E0400040E0600040E0800040E0A00040E0C00040E0E00080000000800020008000400080006000800080008000A0008000C0008000E00080200000802020008020400080206000802080008020A0008020C0008020E00080400000804020008040400080406000804080
310
008040A0008040C0008040E00080600000806020008060400080606000806080008060A0008060C0008060E00080800000808020008080400080806000808080008080A0008080C0008080E00080A0000080A0200080A0400080A0600080A0800080A0A00080A0C00080A0E00080C0000080C0200080C0400080C0600080C0
310
800080C0A00080C0C00080C0E00080E0000080E0200080E0400080E0600080E0800080E0A00080E0C00080E0E000C0000000C0002000C0004000C0006000C0008000C000A000C000C000C000E000C0200000C0202000C0204000C0206000C0208000C020A000C020C000C020E000C0400000C0402000C0404000C0406000C0
310
408000C040A000C040C000C040E000C0600000C0602000C0604000C0606000C0608000C060A000C060C000C060E000C0800000C0802000C0804000C0806000C0808000C080A000C080C000C080E000C0A00000C0A02000C0A04000C0A06000C0A08000C0A0A000C0A0C000C0A0E000C0C00000C0C02000C0C04000C0C06000
310
C0C08000C0C0A000F0FBFF00A4A0A000808080000000FF0000FF000000FFFF00FF000000FF00FF00FFFF0000FFFFFF0008080808080808080808080808080808080808080808080808080808080808080808080808080808080808080808080808080808080808080808080808080808080808080808080808080808FDFDFD
310
08080808080808080808080808080808080808080808080808080808FD080808FDFDFDFDFDFD0808080808080808080808080808080808080808FDFD08080808080808080808FDFDFDFD080808080808080808080808080808FD08080808080808080808080808080808FD08080808080808080808080808FD080808080808
310
0808080808080808080808FD0808080808080808080808FDFD08080808080808080808080808080808080808FD080808080808080808FD080808080808080808080808080808080808080808FD0808080808080808FD08FD0808080808080808FD0808FD0808080808080808FDFD08080808080808FD0808FD080808080808
310
FD08080808FD080808080808FD08FD08080808080808FD0808FD080808080808FD08080808FD080808080808FD0808FD080808080808FD080808FD08080808FD080808080808FD08080808FD080808FD080808080808FD08080808FD0808FD0808080808080808FD0808FD0808080808FD0808080808FD08080808FD0808FD
310
0808080808080808FD0808FD0808080808FD0808080808FD0808080808FDFD08080808080808080808FDFD08080808080808FD08080808FD0808080808FDFD08080808080808080808FDFD08080808080808FD08080808FD08080808FD0808FD0808080808080808FD0808FD0808080808FD0808080808FD08080808FD0808
310
FD0808080808080808FD0808FD0808080808FD0808080808FD080808FD08080808FD080808080808FD08080808FD080808FD080808080808FD0808FD080808080808FD08080808FD080808080808FD0808FD080808080808FD0808FD080808080808FD08080808FD080808080808FD08FD08080808080808FD08FD08080808
310
08080808FD0808FD0808080808080808FDFD0808080808080808FD080808080808080808080808080808080808080808FD08080808080808080808FDFD08080808080808080808080808080808080808FD080808080808080808080808FD0808080808080808080808080808080808FD0808080808080808080808080808FD
310
08080808080808080808080808080808FD080808080808080808080808080808FDFD0808080808080808080808FDFDFD080808080808080808080808080808080808FD08080808FDFDFDFDFDFD08080808080808080808080808080808080808080808FDFDFDFD080808080808080808080808080808080808080808080808
310
0808080808080808080808080808080808080808080808080808080808080808080808080808080808080808080808080808080808080808
102
{BLKREFS
331
2222
331
2225
331
2228
331
222B
331
222E
331
224C
331
2BDE
331
2BE3
331
2BE8
331
2BED
331
2BF2
331
2BF7
102
}
  0
BLOCK_RECORD
  5
211C
330
1
100
AcDbSymbolTableRecord
100
AcDbBlockTableRecord
  2
PlotLayout2002
340
0
102
{BLKREFS
331
2120
331
32C4
102
}
  0
BLOCK_RECORD
  5
211F
330
1
100
AcDbSymbolTableRecord
100
AcDbBlockTableRecord
  2
wid
340
0
102
{BLKREFS
331
224F
331
2250
102
}
  0
BLOCK_RECORD
  5
32C3
330
1
100
AcDbSymbolTableRecord
100
AcDbBlockTableRecord
  2
pagesetups
340
0
102
{BLKREFS
331
32C8
102
}
  0
ENDTAB
  0
ENDSEC
  0
SECTION
  2
BLOCKS
  0
BLOCK
  5
19
330
18
100
AcDbEntity
  8
0
100
AcDbBlockBegin
  2
*MODEL_SPACE
 70
     0
 10
0.0
 20
0.0
 30
0.0
  3
*MODEL_SPACE
  1

  0
ENDBLK
  5
1A
330
18
100
AcDbEntity
  8
0
100
AcDbBlockEnd
  0
BLOCK
  5
16
330
15
100
AcDbEntity
 67
     1
  8
0
100
AcDbBlockBegin
  2
*PAPER_SPACE
 70
     0
 10
0.0
 20
0.0
 30
0.0
  3
*PAPER_SPACE
  1

  0
ENDBLK
  5
17
330
15
100
AcDbEntity
 67
     1
  8
0
100
AcDbBlockEnd
  0
BLOCK
  5
2101
330
20F6
100
AcDbEntity
  8
0
100
AcDbBlockBegin
  2
TITLBLK
 70
     2
 10
0.0
 20
0.0
 30
0.0
  3
TITLBLK
  1

  0
LWPOLYLINE
  5
20F7
330
20F6
100
AcDbEntity
  8
0
100
AcDbPolyline
 90
        2
 70
     0
 43
0.04
 39
0.03
 10
0.3424999999999994
 20
-0.0000000000000003
 10
7.654581983261419
 20
-0.0000000000000003
  0
ATTDEF
  5
20F8
330
20F6
100
AcDbEntity
  8
0
100
AcDbText
 10
0.625
 20
0.0999999999999998
 30
0.0
 40
0.2
  1
TITLE
  7
L200
100
AcDbAttributeDefinition
  3
DETAIL TITLE TOP 2ND LINE
  2
TITLE2
 70
     0
  0
LWPOLYLINE
  5
20F9
330
20F6
100
AcDbEntity
  8
0
100
AcDbPolyline
 90
        2
 70
     1
 43
0.03
 10
0.0
 20
-0.3425000000000002
 42
0.9999999999999998
 10
0.0
 20
0.3425000000000002
 42
0.9999999999999998
  0
ATTDEF
  5
20FA
330
20F6
100
AcDbEntity
  8
0
100
AcDbText
 10
-0.0776944065484311
 20
-0.1000000000000003
 30
0.0
 40
0.2
  1
#
  7
L200
 72
     4
 11
0.0
 21
-0.0000000000000003
 31
0.0
100
AcDbAttributeDefinition
  3
#
  2
#
 70
     0
  0
ATTDEF
  5
20FB
330
20F6
100
AcDbEntity
  8
0
100
AcDbText
 10
0.625
 20
-0.1836633170828782
 30
0.0
 40
0.1
  1
N.T.S.
  7
L100
100
AcDbAttributeDefinition
  3
SCALE
  2
SCALE
 70
     0
  0
ATTDEF
  5
20FC
330
20F6
100
AcDbEntity
  8
0
100
AcDbText
 10
2.107203380653828
 20
-0.2914343300200487
 30
0.0
 40
0.2
  1
TITLE2
  7
L200
100
AcDbAttributeDefinition
  3
DETAIL TITLE BOTTOM 1
  2
TITLE3
 70
     0
  0
ATTDEF
  5
20FD
330
20F6
100
AcDbEntity
  8
0
100
AcDbText
 10
7.570772459451895
 20
-0.1618486459795794
 30
0.0
 40
0.08
  1
-
  7
L80
 72
     2
 11
7.654581983261419
 21
-0.1618486459795794
 31
0.0
100
AcDbAttributeDefinition
  3
DWG-NAME
  2
DWG-NAME
 70
     0
  0
ATTDEF
  5
20FE
330
20F6
100
AcDbEntity
  8
0
100
AcDbText
 10
7.570772459451895
 20
0.0853756950662722
 30
0.0
 40
0.08
  1
-
  7
L80
 72
     2
 11
7.654581983261419
 21
0.0853756950662722
 31
0.0
100
AcDbAttributeDefinition
  3
REVISION DATE
  2
REVISED
 70
     0
  0
ATTDEF
  5
20FF
330
20F6
100
AcDbEntity
  8
0
100
AcDbText
 10
0.625
 20
0.459485206268383
 30
0.0
 40
0.2
  1
TITLE
  7
L200
100
AcDbAttributeDefinition
  3
DETAIL TITLE TOP LINE
  2
TITLE1
 70
     0
  0
ATTDEF
  5
2100
330
20F6
100
AcDbEntity
  8
0
100
AcDbText
 10
2.107203380653828
 20
-0.6149710156615936
 30
0.0
 40
0.2
  1
TITLE2
  7
L200
100
AcDbAttributeDefinition
  3
DETAIL TITLE BOTTOM 2
  2
TITLE4
 70
     0
  0
ENDBLK
  5
2102
330
20F6
100
AcDbEntity
  8
0
100
AcDbBlockEnd
  0
BLOCK
  5
211A
330
2117
100
AcDbEntity
  8
0
100
AcDbBlockBegin
  2
bubble
 70
     2
 10
0.0
 20
0.0
 30
0.0
  3
bubble
  1

  0
CIRCLE
  5
2118
330
2117
100
AcDbEntity
  8
0
100
AcDbCircle
 10
0.0
 20
0.0
 30
0.0
 40
0.1398891854377198
  0
ATTDEF
  5
2119
330
2117
100
AcDbEntity
  8
0
100
AcDbText
 10
0.0
 20
0.0
 30
0.0
 40
0.125
  1

  7
ROMANS
 72
     4
 11
0.0
 21
0.0
 31
0.0
100
AcDbAttributeDefinition
  3
Number
  2
XX
 70
     0
  0
ENDBLK
  5
211B
330
2117
100
AcDbEntity
  8
0
100
AcDbBlockEnd
  0
BLOCK
  5
211D
330
211C
100
AcDbEntity
  8
0
100
AcDbBlockBegin
  2
PlotLayout2002
 70
     0
 10
0.0
 20
0.0
 30
0.0
  3
PlotLayout2002
  1

  0
ENDBLK
  5
211E
330
211C
100
AcDbEntity
  8
0
100
AcDbBlockEnd
  0
BLOCK
  5
2121
330
211F
100
AcDbEntity
  8
0
 62
    40
100
AcDbBlockBegin
  2
wid
 70
     0
 10
0.0
 20
0.0
 30
0.0
  3
wid
  1

  0
INSERT
  5
2120
330
211F
100
AcDbEntity
  8
0
100
AcDbBlockReference
  2
PlotLayout2002
 10
0.0
 20
0.0
 30
0.0
  0
ENDBLK
  5
2122
330
211F
100
AcDbEntity
  8
0
 62
    40
100
AcDbBlockEnd
  0
BLOCK
  5
32C5
330
32C3
100
AcDbEntity
  8
0
100
AcDbBlockBegin
  2
pagesetups
 70
     0
 10
0.0
 20
0.0
 30
0.0
  3
pagesetups
  1

  0
INSERT
  5
32C4
330
32C3
100
AcDbEntity
  8
0
100
AcDbBlockReference
  2
PlotLayout2002
 10
0.0
 20
0.0
 30
0.0
  0
ENDBLK
  5
32C6
330
32C3
100
AcDbEntity
  8
0
100
AcDbBlockEnd
  0
ENDSEC
  0
SECTION
  2
ENTITIES
  0
LWPOLYLINE
  5
1D16
330
18
100
AcDbEntity
  8
Image
100
AcDbPolyline
 90
        8
 70
     1
 43
0.0
 10
23.62189604408241
 20
3.165460367623687
 10
24.33427370968972
 20
3.165460367623687
 42
-0.4142135623730951
 10
24.35944430145152
 20
3.14028977586189
 10
24.35944430145152
 20
3.05955271589902
 42
-0.4142135623730951
 10
24.33427370968972
 20
3.034382124137222
 10
23.62189604408242
 20
3.034382124137219
 42
-0.414213562373094
 10
23.59672545232062
 20
3.05955271589902
 10
23.59672545232062
 20
3.14028977586189
 42
-0.4142135623730951
  0
LWPOLYLINE
  5
1D17
330
18
100
AcDbEntity
  8
Image
100
AcDbPolyline
 90
        4
 70
     1
 43
0.0
 10
23.58644450897783
 20
2.779137783348638
 10
24.39128787605759
 20
2.779137783348638
 10
24.39128787605759
 20
2.659179463274098
 10
23.58644450897783
 20
2.659179463274098
  0
LINE
  5
1D18
330
18
100
AcDbEntity
  8
Image
100
AcDbLine
 10
24.30854694756414
 20
2.659179463274097
 30
0.0
 11
24.29999588762257
 21
2.432104960822928
 31
0.0
  0
LINE
  5
1D19
330
18
100
AcDbEntity
  8
Image
100
AcDbLine
 10
24.29999588762257
 20
2.432104960822928
 30
0.0
 11
23.98219918384268
 21
2.432104960822928
 31
0.0
  0
LINE
  5
1D1A
330
18
100
AcDbEntity
  8
Image
100
AcDbLine
 10
23.65585142012121
 20
2.659179463274097
 30
0.0
 11
23.66486674794509
 21
2.432104960822928
 31
0.0
  0
LINE
  5
1D1B
330
18
100
AcDbEntity
  8
Image
100
AcDbLine
 10
23.66486674794509
 20
2.432104960822928
 30
0.0
 11
23.98219918384268
 21
2.432104960822928
 31
0.0
  0
LINE
  5
1D1C
330
18
100
AcDbEntity
  8
Image
100
AcDbLine
 10
24.21517588852487
 20
3.034382124137219
 30
0.0
 11
24.21517588852487
 21
2.779137783348638
 31
0.0
  0
LINE
  5
1D1D
330
18
100
AcDbEntity
  8
Image
100
AcDbLine
 10
23.74836035541436
 20
3.034382124137219
 30
0.0
 11
23.74836035541436
 21
2.779137783348638
 31
0.0
  0
LINE
  5
1D1E
330
18
100
AcDbEntity
  8
Image
100
AcDbLine
 10
24.14727073670816
 20
3.165460367623687
 30
0.0
 11
24.14727073670816
 21
3.320766774836608
 31
0.0
  0
LINE
  5
1D1F
330
18
100
AcDbEntity
  8
Image
100
AcDbLine
 10
24.14727073670816
 20
3.320766774836608
 30
0.0
 11
23.83839296218293
 21
3.320766774836608
 31
0.0
  0
LINE
  5
1D20
330
18
100
AcDbEntity
  8
Image
100
AcDbLine
 10
24.18997275395266
 20
2.779137783348638
 30
0.0
 11
24.18997275395266
 21
2.659179463274097
 31
0.0
  0
LINE
  5
1D21
330
18
100
AcDbEntity
  8
Image
100
AcDbLine
 10
23.79143411189516
 20
2.779137783348638
 30
0.0
 11
23.79143411189516
 21
2.659179463274097
 31
0.0
  0
LINE
  5
1D22
330
18
100
AcDbEntity
  8
Image
100
AcDbLine
 10
24.31359966198963
 20
2.779137783348638
 30
0.0
 11
24.31359966198963
 21
2.979633583967188
 31
0.0
  0
LINE
  5
1D23
330
18
100
AcDbEntity
  8
Image
100
AcDbLine
 10
24.30398574836821
 20
3.388532353948286
 30
0.0
 11
24.27442378217833
 21
3.388532353948286
 31
0.0
  0
LINE
  5
1D24
330
18
100
AcDbEntity
  8
Image
100
AcDbLine
 10
24.2648098685569
 20
3.378918440326858
 30
0.0
 11
24.2648098685569
 21
3.204836044387469
 31
0.0
  0
LINE
  5
1D25
330
18
100
AcDbEntity
  8
Image
100
AcDbLine
 10
24.21523043323014
 20
2.432104960822928
 30
0.0
 11
24.21523043323014
 21
2.148341102918239
 31
0.0
  0
LINE
  5
1D26
330
18
100
AcDbEntity
  8
Image
100
AcDbLine
 10
24.21523043323014
 20
2.148341102918239
 30
0.0
 11
23.98219918384268
 21
2.148341102918239
 31
0.0
  0
LINE
  5
1D27
330
18
100
AcDbEntity
  8
Image
100
AcDbLine
 10
23.74916793445521
 20
2.432104960822928
 30
0.0
 11
23.74916793445521
 21
2.148341102918239
 31
0.0
  0
LINE
  5
1D28
330
18
100
AcDbEntity
  8
Image
100
AcDbLine
 10
23.74916793445521
 20
2.148341102918239
 30
0.0
 11
23.98219918384268
 21
2.148341102918239
 31
0.0
  0
LINE
  5
1D29
330
18
100
AcDbEntity
  8
Image
100
AcDbLine
 10
24.19109516855005
 20
2.148341102918239
 30
0.0
 11
24.19109516855005
 21
2.134417222842238
 31
0.0
  0
LINE
  5
1D2A
330
18
100
AcDbEntity
  8
Image
100
AcDbLine
 10
24.19109516855005
 20
2.134417222842238
 30
0.0
 11
23.77814007348792
 21
2.134417222842238
 31
0.0
  0
LINE
  5
1D2B
330
18
100
AcDbEntity
  8
Image
100
AcDbLine
 10
23.77814007348792
 20
2.134417222842238
 30
0.0
 11
23.77814007348792
 21
2.148341102918239
 31
0.0
  0
POLYLINE
  5
1D2C
330
18
100
AcDbEntity
  8
Image
100
AcDb2dPolyline
 66
     1
 10
0.0
 20
0.0
 30
0.0
 70
     4
 75
     6
  0
VERTEX
  5
1D2D
330
1D2C
100
AcDbEntity
  8
Image
100
AcDbVertex
100
AcDb2dVertex
 10
24.11757562586818
 20
2.134417222842238
 30
0.0
 70
    16
 50
270.0
  0
VERTEX
  5
1D2E
330
1D2C
100
AcDbEntity
  8
Image
100
AcDbVertex
100
AcDb2dVertex
 10
24.11757562586818
 20
2.134417222842238
 30
0.0
 70
     8
  0
VERTEX
  5
1D2F
330
1D2C
100
AcDbEntity
  8
Image
100
AcDbVertex
100
AcDb2dVertex
 10
24.12621336948525
 20
2.127096107464832
 30
0.0
 70
     8
  0
VERTEX
  5
1D30
330
1D2C
100
AcDbEntity
  8
Image
100
AcDbVertex
100
AcDb2dVertex
 10
24.13309358685179
 20
2.121119415496474
 30
0.0
 70
     8
  0
VERTEX
  5
1D31
330
1D2C
100
AcDbEntity
  8
Image
100
AcDbVertex
100
AcDb2dVertex
 10
24.13842741856505
 20
2.116298600675781
 30
0.0
 70
     8
  0
VERTEX
  5
1D32
330
1D2C
100
AcDbEntity
  8
Image
100
AcDbVertex
100
AcDb2dVertex
 10
24.14242600522228
 20
2.112445116741371
 30
0.0
 70
     8
  0
VERTEX
  5
1D33
330
1D2C
100
AcDbEntity
  8
Image
100
AcDbVertex
100
AcDb2dVertex
 10
24.14530048742074
 20
2.109370417431861
 30
0.0
 70
     8
  0
VERTEX
  5
1D34
330
1D2C
100
AcDbEntity
  8
Image
100
AcDbVertex
100
AcDb2dVertex
 10
24.14726200575768
 20
2.10688595648587
 30
0.0
 70
     8
  0
VERTEX
  5
1D35
330
1D2C
100
AcDbEntity
  8
Image
100
AcDbVertex
100
AcDb2dVertex
 10
24.14852170083036
 20
2.104803187642015
 30
0.0
 70
     8
  0
VERTEX
  5
1D36
330
1D2C
100
AcDbEntity
  8
Image
100
AcDbVertex
100
AcDb2dVertex
 10
24.14929071323602
 20
2.102933564638913
 30
0.0
 70
     8
  0
VERTEX
  5
1D37
330
1D2C
100
AcDbEntity
  8
Image
100
AcDbVertex
100
AcDb2dVertex
 10
24.14974472600879
 20
2.101126834622088
 30
0.0
 70
     8
  0
VERTEX
  5
1D38
330
1D2C
100
AcDbEntity
  8
Image
100
AcDbVertex
100
AcDb2dVertex
 10
24.14991759193024
 20
2.099385918364686
 30
0.0
 70
     8
  0
VERTEX
  5
1D39
330
1D2C
100
AcDbEntity
  8
Image
100
AcDbVertex
100
AcDb2dVertex
 10
24.14980770621881
 20
2.097752030046761
 30
0.0
 70
     8
  0
VERTEX
  5
1D3A
330
1D2C
100
AcDbEntity
  8
Image
100
AcDbVertex
100
AcDb2dVertex
 10
24.14941346409296
 20
2.096266383848365
 30
0.0
 70
     8
  0
VERTEX
  5
1D3B
330
1D2C
100
AcDbEntity
  8
Image
100
AcDbVertex
100
AcDb2dVertex
 10
24.14873326077111
 20
2.09497019394955
 30
0.0
 70
     8
  0
VERTEX
  5
1D3C
330
1D2C
100
AcDbEntity
  8
Image
100
AcDbVertex
100
AcDb2dVertex
 10
24.14776549147171
 20
2.093904674530368
 30
0.0
 70
     8
  0
VERTEX
  5
1D3D
330
1D2C
100
AcDbEntity
  8
Image
100
AcDbVertex
100
AcDb2dVertex
 10
24.14650855141321
 20
2.093111039770873
 30
0.0
 70
     8
  0
VERTEX
  5
1D3E
330
1D2C
100
AcDbEntity
  8
Image
100
AcDbVertex
100
AcDb2dVertex
 10
24.14496083581405
 20
2.092630503851116
 30
0.0
 70
     8
  0
VERTEX
  5
1D3F
330
1D2C
100
AcDbEntity
  8
Image
100
AcDbVertex
100
AcDb2dVertex
 10
24.14312035173006
 20
2.092491937511978
 30
0.0
 70
     8
  0
VERTEX
  5
1D40
330
1D2C
100
AcDbEntity
  8
Image
100
AcDbVertex
100
AcDb2dVertex
 10
24.14098355356667
 20
2.09267483773765
 30
0.0
 70
     8
  0
VERTEX
  5
1D41
330
1D2C
100
AcDbEntity
  8
Image
100
AcDbVertex
100
AcDb2dVertex
 10
24.13854650756669
 20
2.093146358073151
 30
0.0
 70
     8
  0
VERTEX
  5
1D42
330
1D2C
100
AcDbEntity
  8
Image
100
AcDbVertex
100
AcDb2dVertex
 10
24.13580527997294
 20
2.093873652063502
 30
0.0
 70
     8
  0
VERTEX
  5
1D43
330
1D2C
100
AcDbEntity
  8
Image
100
AcDbVertex
100
AcDb2dVertex
 10
24.13275593702823
 20
2.09482387325372
 30
0.0
 70
     8
  0
VERTEX
  5
1D44
330
1D2C
100
AcDbEntity
  8
Image
100
AcDbVertex
100
AcDb2dVertex
 10
24.12939454497539
 20
2.095964175188825
 30
0.0
 70
     8
  0
VERTEX
  5
1D45
330
1D2C
100
AcDbEntity
  8
Image
100
AcDbVertex
100
AcDb2dVertex
 10
24.12571717005723
 20
2.097261711413836
 30
0.0
 70
     8
  0
VERTEX
  5
1D46
330
1D2C
100
AcDbEntity
  8
Image
100
AcDbVertex
100
AcDb2dVertex
 10
24.12171987851656
 20
2.098683635473772
 30
0.0
 70
     8
  0
VERTEX
  5
1D47
330
1D2C
100
AcDbEntity
  8
Image
100
AcDbVertex
100
AcDb2dVertex
 10
24.11741292213398
 20
2.100194414279286
 30
0.0
 70
     8
  0
VERTEX
  5
1D48
330
1D2C
100
AcDbEntity
  8
Image
100
AcDbVertex
100
AcDb2dVertex
 10
24.11286329484122
 20
2.101747768203565
 30
0.0
 70
     8
  0
VERTEX
  5
1D49
330
1D2C
100
AcDbEntity
  8
Image
100
AcDbVertex
100
AcDb2dVertex
 10
24.10815217610775
 20
2.103294730985429
 30
0.0
 70
     8
  0
VERTEX
  5
1D4A
330
1D2C
100
AcDbEntity
  8
Image
100
AcDbVertex
100
AcDb2dVertex
 10
24.10336074540306
 20
2.104786336363699
 30
0.0
 70
     8
  0
VERTEX
  5
1D4B
330
1D2C
100
AcDbEntity
  8
Image
100
AcDbVertex
100
AcDb2dVertex
 10
24.09857018219667
 20
2.106173618077194
 30
0.0
 70
     8
  0
VERTEX
  5
1D4C
330
1D2C
100
AcDbEntity
  8
Image
100
AcDbVertex
100
AcDb2dVertex
 10
24.09386166595806
 20
2.107407609864736
 30
0.0
 70
     8
  0
VERTEX
  5
1D4D
330
1D2C
100
AcDbEntity
  8
Image
100
AcDbVertex
100
AcDb2dVertex
 10
24.08931637615671
 20
2.108439345465144
 30
0.0
 70
     8
  0
VERTEX
  5
1D4E
330
1D2C
100
AcDbEntity
  8
Image
100
AcDbVertex
100
AcDb2dVertex
 10
24.08501549226214
 20
2.109219858617239
 30
0.0
 70
     8
  0
VERTEX
  5
1D4F
330
1D2C
100
AcDbEntity
  8
Image
100
AcDbVertex
100
AcDb2dVertex
 10
24.08102049531913
 20
2.109708152579729
 30
0.0
 70
     8
  0
VERTEX
  5
1D50
330
1D2C
100
AcDbEntity
  8
Image
100
AcDbVertex
100
AcDb2dVertex
 10
24.07731407267373
 20
2.109895108690877
 30
0.0
 70
     8
  0
VERTEX
  5
1D51
330
1D2C
100
AcDbEntity
  8
Image
100
AcDbVertex
100
AcDb2dVertex
 10
24.07385921324731
 20
2.109779577808833
 30
0.0
 70
     8
  0
VERTEX
  5
1D52
330
1D2C
100
AcDbEntity
  8
Image
100
AcDbVertex
100
AcDb2dVertex
 10
24.07061890596122
 20
2.109360410791747
 30
0.0
 70
     8
  0
VERTEX
  5
1D53
330
1D2C
100
AcDbEntity
  8
Image
100
AcDbVertex
100
AcDb2dVertex
 10
24.06755613973681
 20
2.108636458497771
 30
0.0
 70
     8
  0
VERTEX
  5
1D54
330
1D2C
100
AcDbEntity
  8
Image
100
AcDbVertex
100
AcDb2dVertex
 10
24.06463390349545
 20
2.107606571785055
 30
0.0
 70
     8
  0
VERTEX
  5
1D55
330
1D2C
100
AcDbEntity
  8
Image
100
AcDbVertex
100
AcDb2dVertex
 10
24.06181518615848
 20
2.106269601511749
 30
0.0
 70
     8
  0
VERTEX
  5
1D56
330
1D2C
100
AcDbEntity
  8
Image
100
AcDbVertex
100
AcDb2dVertex
 10
24.05906297664726
 20
2.104624398536004
 30
0.0
 70
     8
  0
VERTEX
  5
1D57
330
1D2C
100
AcDbEntity
  8
Image
100
AcDbVertex
100
AcDb2dVertex
 10
24.05634791621553
 20
2.102660201500967
 30
0.0
 70
     8
  0
VERTEX
  5
1D58
330
1D2C
100
AcDbEntity
  8
Image
100
AcDbVertex
100
AcDb2dVertex
 10
24.05367125544645
 20
2.100327800189776
 30
0.0
 70
     8
  0
VERTEX
  5
1D59
330
1D2C
100
AcDbEntity
  8
Image
100
AcDbVertex
100
AcDb2dVertex
 10
24.05104189725557
 20
2.097568372170566
 30
0.0
 70
     8
  0
VERTEX
  5
1D5A
330
1D2C
100
AcDbEntity
  8
Image
100
AcDbVertex
100
AcDb2dVertex
 10
24.04846874455845
 20
2.094323095011469
 30
0.0
 70
     8
  0
VERTEX
  5
1D5B
330
1D2C
100
AcDbEntity
  8
Image
100
AcDbVertex
100
AcDb2dVertex
 10
24.04596070027062
 20
2.090533146280622
 30
0.0
 70
     8
  0
VERTEX
  5
1D5C
330
1D2C
100
AcDbEntity
  8
Image
100
AcDbVertex
100
AcDb2dVertex
 10
24.04352666730763
 20
2.086139703546157
 30
0.0
 70
     8
  0
VERTEX
  5
1D5D
330
1D2C
100
AcDbEntity
  8
Image
100
AcDbVertex
100
AcDb2dVertex
 10
24.04117554858503
 20
2.08108394437621
 30
0.0
 70
     8
  0
VERTEX
  5
1D5E
330
1D2C
100
AcDbEntity
  8
Image
100
AcDbVertex
100
AcDb2dVertex
 10
24.03891624701836
 20
2.075307046338914
 30
0.0
 70
     8
  0
VERTEX
  5
1D5F
330
1D2C
100
AcDbEntity
  8
Image
100
AcDbVertex
100
AcDb2dVertex
 10
24.03675592751759
 20
2.068790558696588
 30
0.0
 70
     8
  0
VERTEX
  5
1D60
330
1D2C
100
AcDbEntity
  8
Image
100
AcDbVertex
100
AcDb2dVertex
 10
24.03469480297035
 20
2.061677517488281
 30
0.0
 70
     8
  0
VERTEX
  5
1D61
330
1D2C
100
AcDbEntity
  8
Image
100
AcDbVertex
100
AcDb2dVertex
 10
24.03273134825868
 20
2.054151330447223
 30
0.0
 70
     8
  0
VERTEX
  5
1D62
330
1D2C
100
AcDbEntity
  8
Image
100
AcDbVertex
100
AcDb2dVertex
 10
24.03086403826463
 20
2.046395405306648
 30
0.0
 70
     8
  0
VERTEX
  5
1D63
330
1D2C
100
AcDbEntity
  8
Image
100
AcDbVertex
100
AcDb2dVertex
 10
24.02909134787025
 20
2.038593149799787
 30
0.0
 70
     8
  0
VERTEX
  5
1D64
330
1D2C
100
AcDbEntity
  8
Image
100
AcDbVertex
100
AcDb2dVertex
 10
24.02741175195758
 20
2.030927971659873
 30
0.0
 70
     8
  0
VERTEX
  5
1D65
330
1D2C
100
AcDbEntity
  8
Image
100
AcDbVertex
100
AcDb2dVertex
 10
24.02582372540867
 20
2.023583278620138
 30
0.0
 70
     8
  0
VERTEX
  5
1D66
330
1D2C
100
AcDbEntity
  8
Image
100
AcDbVertex
100
AcDb2dVertex
 10
24.02432574310557
 20
2.016742478413814
 30
0.0
 70
     8
  0
VERTEX
  5
1D67
330
1D2C
100
AcDbEntity
  8
Image
100
AcDbVertex
100
AcDb2dVertex
 10
24.02291264526898
 20
2.010553891131464
 30
0.0
 70
     8
  0
VERTEX
  5
1D68
330
1D2C
100
AcDbEntity
  8
Image
100
AcDbVertex
100
AcDb2dVertex
 10
24.0215647334742
 20
2.005025486292978
 30
0.0
 70
     8
  0
VERTEX
  5
1D69
330
1D2C
100
AcDbEntity
  8
Image
100
AcDbVertex
100
AcDb2dVertex
 10
24.0202586746352
 20
2.000130145775573
 30
0.0
 70
     8
  0
VERTEX
  5
1D6A
330
1D2C
100
AcDbEntity
  8
Image
100
AcDbVertex
100
AcDb2dVertex
 10
24.01897113566594
 20
1.99584075145647
 30
0.0
 70
     8
  0
VERTEX
  5
1D6B
330
1D2C
100
AcDbEntity
  8
Image
100
AcDbVertex
100
AcDb2dVertex
 10
24.0176787834804
 20
1.992130185212889
 30
0.0
 70
     8
  0
VERTEX
  5
1D6C
330
1D2C
100
AcDbEntity
  8
Image
100
AcDbVertex
100
AcDb2dVertex
 10
24.01635828499252
 20
1.988971328922048
 30
0.0
 70
     8
  0
VERTEX
  5
1D6D
330
1D2C
100
AcDbEntity
  8
Image
100
AcDbVertex
100
AcDb2dVertex
 10
24.01498630711628
 20
1.986337064461169
 30
0.0
 70
     8
  0
VERTEX
  5
1D6E
330
1D2C
100
AcDbEntity
  8
Image
100
AcDbVertex
100
AcDb2dVertex
 10
24.01353951676563
 20
1.98420027370747
 30
0.0
 70
     8
  0
VERTEX
  5
1D6F
330
1D2C
100
AcDbEntity
  8
Image
100
AcDbVertex
100
AcDb2dVertex
 10
24.0120078562789
 20
1.982539417886644
 30
0.0
 70
     8
  0
VERTEX
  5
1D70
330
1D2C
100
AcDbEntity
  8
Image
100
AcDbVertex
100
AcDb2dVertex
 10
24.01043436969182
 20
1.98135527561827
 30
0.0
 70
     8
  0
VERTEX
  5
1D71
330
1D2C
100
AcDbEntity
  8
Image
100
AcDbVertex
100
AcDb2dVertex
 10
24.0088753764645
 20
1.980654204870401
 30
0.0
 70
     8
  0
VERTEX
  5
1D72
330
1D2C
100
AcDbEntity
  8
Image
100
AcDbVertex
100
AcDb2dVertex
 10
24.00738719605702
 20
1.980442563611091
 30
0.0
 70
     8
  0
VERTEX
  5
1D73
330
1D2C
100
AcDbEntity
  8
Image
100
AcDbVertex
100
AcDb2dVertex
 10
24.00602614792949
 20
1.980726709808392
 30
0.0
 70
     8
  0
VERTEX
  5
1D74
330
1D2C
100
AcDbEntity
  8
Image
100
AcDbVertex
100
AcDb2dVertex
 10
24.004848551542
 20
1.981513001430357
 30
0.0
 70
     8
  0
VERTEX
  5
1D75
330
1D2C
100
AcDbEntity
  8
Image
100
AcDbVertex
100
AcDb2dVertex
 10
24.00391072635464
 20
1.982807796445039
 30
0.0
 70
     8
  0
VERTEX
  5
1D76
330
1D2C
100
AcDbEntity
  8
Image
100
AcDbVertex
100
AcDb2dVertex
 10
24.00326899182751
 20
1.98461745282049
 30
0.0
 70
     8
  0
VERTEX
  5
1D77
330
1D2C
100
AcDbEntity
  8
Image
100
AcDbVertex
100
AcDb2dVertex
 10
24.00295490911593
 20
1.986940830705186
 30
0.0
 70
     8
  0
VERTEX
  5
1D78
330
1D2C
100
AcDbEntity
  8
Image
100
AcDbVertex
100
AcDb2dVertex
 10
24.00290100615611
 20
1.9897467989693
 30
0.0
 70
     8
  0
VERTEX
  5
1D79
330
1D2C
100
AcDbEntity
  8
Image
100
AcDbVertex
100
AcDb2dVertex
 10
24.00301505257948
 20
1.992996728663425
 30
0.0
 70
     8
  0
VERTEX
  5
1D7A
330
1D2C
100
AcDbEntity
  8
Image
100
AcDbVertex
100
AcDb2dVertex
 10
24.00320481801748
 20
1.996651990838158
 30
0.0
 70
     8
  0
VERTEX
  5
1D7B
330
1D2C
100
AcDbEntity
  8
Image
100
AcDbVertex
100
AcDb2dVertex
 10
24.00337807210153
 20
2.000673956544091
 30
0.0
 70
     8
  0
VERTEX
  5
1D7C
330
1D2C
100
AcDbEntity
  8
Image
100
AcDbVertex
100
AcDb2dVertex
 10
24.00344258446307
 20
2.005023996831821
 30
0.0
 70
     8
  0
VERTEX
  5
1D7D
330
1D2C
100
AcDbEntity
  8
Image
100
AcDbVertex
100
AcDb2dVertex
 10
24.00330612473354
 20
2.009663482751943
 30
0.0
 70
     8
  0
VERTEX
  5
1D7E
330
1D2C
100
AcDbEntity
  8
Image
100
AcDbVertex
100
AcDb2dVertex
 10
24.00287646254437
 20
2.014553785355051
 30
0.0
 70
     8
  0
VERTEX
  5
1D7F
330
1D2C
100
AcDbEntity
  8
Image
100
AcDbVertex
100
AcDb2dVertex
 10
24.00208203932958
 20
2.019649295873655
 30
0.0
 70
     8
  0
VERTEX
  5
1D80
330
1D2C
100
AcDbEntity
  8
Image
100
AcDbVertex
100
AcDb2dVertex
 10
24.00093398373362
 20
2.024876486267922
 30
0.0
 70
     8
  0
VERTEX
  5
1D81
330
1D2C
100
AcDbEntity
  8
Image
100
AcDbVertex
100
AcDb2dVertex
 10
23.99946409620351
 20
2.030154848679935
 30
0.0
 70
     8
  0
VERTEX
  5
1D82
330
1D2C
100
AcDbEntity
  8
Image
100
AcDbVertex
100
AcDb2dVertex
 10
23.99770417718629
 20
2.035403875251777
 30
0.0
 70
     8
  0
VERTEX
  5
1D83
330
1D2C
100
AcDbEntity
  8
Image
100
AcDbVertex
100
AcDb2dVertex
 10
23.99568602712898
 20
2.04054305812553
 30
0.0
 70
     8
  0
VERTEX
  5
1D84
330
1D2C
100
AcDbEntity
  8
Image
100
AcDbVertex
100
AcDb2dVertex
 10
23.99344144647864
 20
2.045491889443277
 30
0.0
 70
     8
  0
VERTEX
  5
1D85
330
1D2C
100
AcDbEntity
  8
Image
100
AcDbVertex
100
AcDb2dVertex
 10
23.99100223568227
 20
2.050169861347101
 30
0.0
 70
     8
  0
VERTEX
  5
1D86
330
1D2C
100
AcDbEntity
  8
Image
100
AcDbVertex
100
AcDb2dVertex
 10
23.98840019518692
 20
2.054496465979083
 30
0.0
 70
     8
  0
VERTEX
  5
1D87
330
1D2C
100
AcDbEntity
  8
Image
100
AcDbVertex
100
AcDb2dVertex
 10
23.98565663955786
 20
2.058404289875951
 30
0.0
 70
     8
  0
VERTEX
  5
1D88
330
1D2C
100
AcDbEntity
  8
Image
100
AcDbVertex
100
AcDb2dVertex
 10
23.98275093983331
 20
2.061878297153011
 30
0.0
 70
     8
  0
VERTEX
  5
1D89
330
1D2C
100
AcDbEntity
  8
Image
100
AcDbVertex
100
AcDb2dVertex
 10
23.9796519811697
 20
2.064916546320214
 30
0.0
 70
     8
  0
VERTEX
  5
1D8A
330
1D2C
100
AcDbEntity
  8
Image
100
AcDbVertex
100
AcDb2dVertex
 10
23.97632864872349
 20
2.067517095887511
 30
0.0
 70
     8
  0
VERTEX
  5
1D8B
330
1D2C
100
AcDbEntity
  8
Image
100
AcDbVertex
100
AcDb2dVertex
 10
23.97274982765114
 20
2.069678004364852
 30
0.0
 70
     8
  0
VERTEX
  5
1D8C
330
1D2C
100
AcDbEntity
  8
Image
100
AcDbVertex
100
AcDb2dVertex
 10
23.9688844031091
 20
2.071397330262187
 30
0.0
 70
     8
  0
VERTEX
  5
1D8D
330
1D2C
100
AcDbEntity
  8
Image
100
AcDbVertex
100
AcDb2dVertex
 10
23.96470126025382
 20
2.072673132089469
 30
0.0
 70
     8
  0
VERTEX
  5
1D8E
330
1D2C
100
AcDbEntity
  8
Image
100
AcDbVertex
100
AcDb2dVertex
 10
23.96016928424174
 20
2.073503468356648
 30
0.0
 70
     8
  0
VERTEX
  5
1D8F
330
1D2C
100
AcDbEntity
  8
Image
100
AcDbVertex
100
AcDb2dVertex
 10
23.95527244102352
 20
2.073894095379739
 30
0.0
 70
     8
  0
VERTEX
  5
1D90
330
1D2C
100
AcDbEntity
  8
Image
100
AcDbVertex
100
AcDb2dVertex
 10
23.95005501972665
 20
2.07388156069902
 30
0.0
 70
     8
  0
VERTEX
  5
1D91
330
1D2C
100
AcDbEntity
  8
Image
100
AcDbVertex
100
AcDb2dVertex
 10
23.94457639027278
 20
2.073510109660834
 30
0.0
 70
     8
  0
VERTEX
  5
1D92
330
1D2C
100
AcDbEntity
  8
Image
100
AcDbVertex
100
AcDb2dVertex
 10
23.93889592258361
 20
2.072823987611525
 30
0.0
 70
     8
  0
VERTEX
  5
1D93
330
1D2C
100
AcDbEntity
  8
Image
100
AcDbVertex
100
AcDb2dVertex
 10
23.93307298658081
 20
2.071867439897434
 30
0.0
 70
     8
  0
VERTEX
  5
1D94
330
1D2C
100
AcDbEntity
  8
Image
100
AcDbVertex
100
AcDb2dVertex
 10
23.92716695218607
 20
2.070684711864905
 30
0.0
 70
     8
  0
VERTEX
  5
1D95
330
1D2C
100
AcDbEntity
  8
Image
100
AcDbVertex
100
AcDb2dVertex
 10
23.92123718932105
 20
2.069320048860281
 30
0.0
 70
     8
  0
VERTEX
  5
1D96
330
1D2C
100
AcDbEntity
  8
Image
100
AcDbVertex
100
AcDb2dVertex
 10
23.91534306790744
 20
2.067817696229905
 30
0.0
 70
     8
  0
VERTEX
  5
1D97
330
1D2C
100
AcDbEntity
  8
Image
100
AcDbVertex
100
AcDb2dVertex
 10
23.90953653320396
 20
2.06622099620265
 30
0.0
 70
     8
  0
VERTEX
  5
1D98
330
1D2C
100
AcDbEntity
  8
Image
100
AcDbVertex
100
AcDb2dVertex
 10
23.90383983181747
 20
2.064569678537507
 30
0.0
 70
     8
  0
VERTEX
  5
1D99
330
1D2C
100
AcDbEntity
  8
Image
100
AcDbVertex
100
AcDb2dVertex
 10
23.89826778569189
 20
2.062902569876
 30
0.0
 70
     8
  0
VERTEX
  5
1D9A
330
1D2C
100
AcDbEntity
  8
Image
100
AcDbVertex
100
AcDb2dVertex
 10
23.89283521677112
 20
2.06125849685965
 30
0.0
 70
     8
  0
VERTEX
  5
1D9B
330
1D2C
100
AcDbEntity
  8
Image
100
AcDbVertex
100
AcDb2dVertex
 10
23.88755694699908
 20
2.059676286129979
 30
0.0
 70
     8
  0
VERTEX
  5
1D9C
330
1D2C
100
AcDbEntity
  8
Image
100
AcDbVertex
100
AcDb2dVertex
 10
23.88244779831967
 20
2.05819476432851
 30
0.0
 70
     8
  0
VERTEX
  5
1D9D
330
1D2C
100
AcDbEntity
  8
Image
100
AcDbVertex
100
AcDb2dVertex
 10
23.87752259267681
 20
2.056852758096765
 30
0.0
 70
     8
  0
VERTEX
  5
1D9E
330
1D2C
100
AcDbEntity
  8
Image
100
AcDbVertex
100
AcDb2dVertex
 10
23.8727961520144
 20
2.055689094076266
 30
0.0
 70
     8
  0
VERTEX
  5
1D9F
330
1D2C
100
AcDbEntity
  8
Image
100
AcDbVertex
100
AcDb2dVertex
 10
23.86828770805931
 20
2.054735063175403
 30
0.0
 70
     8
  0
VERTEX
  5
1DA0
330
1D2C
100
AcDbEntity
  8
Image
100
AcDbVertex
100
AcDb2dVertex
 10
23.86403413167019
 20
2.053991813370031
 30
0.0
 70
     8
  0
VERTEX
  5
1DA1
330
1D2C
100
AcDbEntity
  8
Image
100
AcDbVertex
100
AcDb2dVertex
 10
23.86007670348866
 20
2.053452956902877
 30
0.0
 70
     8
  0
VERTEX
  5
1DA2
330
1D2C
100
AcDbEntity
  8
Image
100
AcDbVertex
100
AcDb2dVertex
 10
23.85645670415635
 20
2.053112106016663
 30
0.0
 70
     8
  0
VERTEX
  5
1DA3
330
1D2C
100
AcDbEntity
  8
Image
100
AcDbVertex
100
AcDb2dVertex
 10
23.85321541431487
 20
2.052962872954114
 30
0.0
 70
     8
  0
VERTEX
  5
1DA4
330
1D2C
100
AcDbEntity
  8
Image
100
AcDbVertex
100
AcDb2dVertex
 10
23.85039411460581
 20
2.052998869957953
 30
0.0
 70
     8
  0
VERTEX
  5
1DA5
330
1D2C
100
AcDbEntity
  8
Image
100
AcDbVertex
100
AcDb2dVertex
 10
23.84803408567081
 20
2.053213709270906
 30
0.0
 70
     8
  0
VERTEX
  5
1DA6
330
1D2C
100
AcDbEntity
  8
Image
100
AcDbVertex
100
AcDb2dVertex
 10
23.84617660815147
 20
2.053601003135696
 30
0.0
 70
     8
  0
VERTEX
  5
1DA7
330
1D2C
100
AcDbEntity
  8
Image
100
AcDbVertex
100
AcDb2dVertex
 10
23.84485844999824
 20
2.054157411322843
 30
0.0
 70
     8
  0
VERTEX
  5
1DA8
330
1D2C
100
AcDbEntity
  8
Image
100
AcDbVertex
100
AcDb2dVertex
 10
23.84409832839685
 20
2.054891783714048
 30
0.0
 70
     8
  0
VERTEX
  5
1DA9
330
1D2C
100
AcDbEntity
  8
Image
100
AcDbVertex
100
AcDb2dVertex
 10
23.84391044784186
 20
2.05581601771881
 30
0.0
 70
     8
  0
VERTEX
  5
1DAA
330
1D2C
100
AcDbEntity
  8
Image
100
AcDbVertex
100
AcDb2dVertex
 10
23.84430901282782
 20
2.056942010746625
 30
0.0
 70
     8
  0
VERTEX
  5
1DAB
330
1D2C
100
AcDbEntity
  8
Image
100
AcDbVertex
100
AcDb2dVertex
 10
23.84530822784929
 20
2.058281660206992
 30
0.0
 70
     8
  0
VERTEX
  5
1DAC
330
1D2C
100
AcDbEntity
  8
Image
100
AcDbVertex
100
AcDb2dVertex
 10
23.84692229740084
 20
2.059846863509407
 30
0.0
 70
     8
  0
VERTEX
  5
1DAD
330
1D2C
100
AcDbEntity
  8
Image
100
AcDbVertex
100
AcDb2dVertex
 10
23.84916542597701
 20
2.061649518063369
 30
0.0
 70
     8
  0
VERTEX
  5
1DAE
330
1D2C
100
AcDbEntity
  8
Image
100
AcDbVertex
100
AcDb2dVertex
 10
23.85205181807236
 20
2.063701521278375
 30
0.0
 70
     8
  0
VERTEX
  5
1DAF
330
1D2C
100
AcDbEntity
  8
Image
100
AcDbVertex
100
AcDb2dVertex
 10
23.85556968937867
 20
2.066003476310967
 30
0.0
 70
     8
  0
VERTEX
  5
1DB0
330
1D2C
100
AcDbEntity
  8
Image
100
AcDbVertex
100
AcDb2dVertex
 10
23.85960330037647
 20
2.068510809305871
 30
0.0
 70
     8
  0
VERTEX
  5
1DB1
330
1D2C
100
AcDbEntity
  8
Image
100
AcDbVertex
100
AcDb2dVertex
 10
23.86401092274352
 20
2.071167652154855
 30
0.0
 70
     8
  0
VERTEX
  5
1DB2
330
1D2C
100
AcDbEntity
  8
Image
100
AcDbVertex
100
AcDb2dVertex
 10
23.86865082815759
 20
2.07391813674969
 30
0.0
 70
     8
  0
VERTEX
  5
1DB3
330
1D2C
100
AcDbEntity
  8
Image
100
AcDbVertex
100
AcDb2dVertex
 10
23.87338128829643
 20
2.076706394982145
 30
0.0
 70
     8
  0
VERTEX
  5
1DB4
330
1D2C
100
AcDbEntity
  8
Image
100
AcDbVertex
100
AcDb2dVertex
 10
23.87806057483778
 20
2.079476558743989
 30
0.0
 70
     8
  0
VERTEX
  5
1DB5
330
1D2C
100
AcDbEntity
  8
Image
100
AcDbVertex
100
AcDb2dVertex
 10
23.88254695945942
 20
2.082172759926994
 30
0.0
 70
     8
  0
VERTEX
  5
1DB6
330
1D2C
100
AcDbEntity
  8
Image
100
AcDbVertex
100
AcDb2dVertex
 10
23.88669871383909
 20
2.084739130422927
 30
0.0
 70
     8
  0
VERTEX
  5
1DB7
330
1D2C
100
AcDbEntity
  8
Image
100
AcDbVertex
100
AcDb2dVertex
 10
23.89040315123211
 20
2.087134978077782
 30
0.0
 70
     8
  0
VERTEX
  5
1DB8
330
1D2C
100
AcDbEntity
  8
Image
100
AcDbVertex
100
AcDb2dVertex
 10
23.89366375120404
 20
2.089380314554443
 30
0.0
 70
     8
  0
VERTEX
  5
1DB9
330
1D2C
100
AcDbEntity
  8
Image
100
AcDbVertex
100
AcDb2dVertex
 10
23.89651303489801
 20
2.091510327470016
 30
0.0
 70
     8
  0
VERTEX
  5
1DBA
330
1D2C
100
AcDbEntity
  8
Image
100
AcDbVertex
100
AcDb2dVertex
 10
23.89898352345714
 20
2.093560204441609
 30
0.0
 70
     8
  0
VERTEX
  5
1DBB
330
1D2C
100
AcDbEntity
  8
Image
100
AcDbVertex
100
AcDb2dVertex
 10
23.90110773802456
 20
2.095565133086329
 30
0.0
 70
     8
  0
VERTEX
  5
1DBC
330
1D2C
100
AcDbEntity
  8
Image
100
AcDbVertex
100
AcDb2dVertex
 10
23.90291819974338
 20
2.097560301021282
 30
0.0
 70
     8
  0
VERTEX
  5
1DBD
330
1D2C
100
AcDbEntity
  8
Image
100
AcDbVertex
100
AcDb2dVertex
 10
23.90444742975673
 20
2.099580895863576
 30
0.0
 70
     8
  0
VERTEX
  5
1DBE
330
1D2C
100
AcDbEntity
  8
Image
100
AcDbVertex
100
AcDb2dVertex
 10
23.90572794920774
 20
2.101662105230317
 30
0.0
 70
     8
  0
VERTEX
  5
1DBF
330
1D2C
100
AcDbEntity
  8
Image
100
AcDbVertex
100
AcDb2dVertex
 10
23.90677430223325
 20
2.103858063624833
 30
0.0
 70
     8
  0
VERTEX
  5
1DC0
330
1D2C
100
AcDbEntity
  8
Image
100
AcDbVertex
100
AcDb2dVertex
 10
23.90752912494493
 20
2.106298693095336
 30
0.0
 70
     8
  0
VERTEX
  5
1DC1
330
1D2C
100
AcDbEntity
  8
Image
100
AcDbVertex
100
AcDb2dVertex
 10
23.9079170764482
 20
2.109132862576256
 30
0.0
 70
     8
  0
VERTEX
  5
1DC2
330
1D2C
100
AcDbEntity
  8
Image
100
AcDbVertex
100
AcDb2dVertex
 10
23.90786281584844
 20
2.112509441002026
 30
0.0
 70
     8
  0
VERTEX
  5
1DC3
330
1D2C
100
AcDbEntity
  8
Image
100
AcDbVertex
100
AcDb2dVertex
 10
23.90729100225107
 20
2.116577297307077
 30
0.0
 70
     8
  0
VERTEX
  5
1DC4
330
1D2C
100
AcDbEntity
  8
Image
100
AcDbVertex
100
AcDb2dVertex
 10
23.90612629476148
 20
2.121485300425842
 30
0.0
 70
     8
  0
VERTEX
  5
1DC5
330
1D2C
100
AcDbEntity
  8
Image
100
AcDbVertex
100
AcDb2dVertex
 10
23.90429335248506
 20
2.127382319292751
 30
0.0
 70
     8
  0
VERTEX
  5
1DC6
330
1D2C
100
AcDbEntity
  8
Image
100
AcDbVertex
100
AcDb2dVertex
 10
23.90171683452724
 20
2.134417222842238
 30
0.0
 70
     8
  0
VERTEX
  5
1DC7
330
1D2C
100
AcDbEntity
  8
Image
100
AcDbVertex
100
AcDb2dVertex
 10
24.14314065771197
 20
2.112934087280307
 30
0.0
 70
    16
 50
270.0
  0
VERTEX
  5
1DC8
330
1D2C
100
AcDbEntity
  8
Image
100
AcDbVertex
100
AcDb2dVertex
 10
24.15227249531346
 20
2.10267116912562
 30
0.0
 70
    16
 50
270.0
  0
VERTEX
  5
1DC9
330
1D2C
100
AcDbEntity
  8
Image
100
AcDbVertex
100
AcDb2dVertex
 10
24.14807955925107
 20
2.088851164973344
 30
0.0
 70
    16
 50
270.0
  0
VERTEX
  5
1DCA
330
1D2C
100
AcDbEntity
  8
Image
100
AcDbVertex
100
AcDb2dVertex
 10
24.12517428256656
 20
2.097707194087698
 30
0.0
 70
    16
 50
270.0
  0
VERTEX
  5
1DCB
330
1D2C
100
AcDbEntity
  8
Image
100
AcDbVertex
100
AcDb2dVertex
 10
24.08154258158205
 20
2.112421871518496
 30
0.0
 70
    16
 50
270.0
  0
VERTEX
  5
1DCC
330
1D2C
100
AcDbEntity
  8
Image
100
AcDbVertex
100
AcDb2dVertex
 10
24.05874834467808
 20
2.107924471541749
 30
0.0
 70
    16
 50
270.0
  0
VERTEX
  5
1DCD
330
1D2C
100
AcDbEntity
  8
Image
100
AcDbVertex
100
AcDb2dVertex
 10
24.03784189958924
 20
2.083626633530529
 30
0.0
 70
    16
 50
270.0
  0
VERTEX
  5
1DCE
330
1D2C
100
AcDbEntity
  8
Image
100
AcDbVertex
100
AcDb2dVertex
 10
24.02338153907513
 20
2.009411272369622
 30
0.0
 70
    16
 50
270.0
  0
VERTEX
  5
1DCF
330
1D2C
100
AcDbEntity
  8
Image
100
AcDbVertex
100
AcDb2dVertex
 10
24.01458640274365
 20
1.97918314747387
 30
0.0
 70
    16
 50
270.0
  0
VERTEX
  5
1DD0
330
1D2C
100
AcDbEntity
  8
Image
100
AcDbVertex
100
AcDb2dVertex
 10
23.99950995054403
 20
1.979057779979721
 30
0.0
 70
    16
 50
270.0
  0
VERTEX
  5
1DD1
330
1D2C
100
AcDbEntity
  8
Image
100
AcDbVertex
100
AcDb2dVertex
 10
24.00698774604528
 20
2.012290449530186
 30
0.0
 70
    16
 50
270.0
  0
VERTEX
  5
1DD2
330
1D2C
100
AcDbEntity
  8
Image
100
AcDbVertex
100
AcDb2dVertex
 10
23.98979784054105
 20
2.059103134029842
 30
0.0
 70
    16
 50
270.0
  0
VERTEX
  5
1DD3
330
1D2C
100
AcDbEntity
  8
Image
100
AcDbVertex
100
AcDb2dVertex
 10
23.96422206291205
 20
2.078275810224943
 30
0.0
 70
    16
 50
270.0
  0
VERTEX
  5
1DD4
330
1D2C
100
AcDbEntity
  8
Image
100
AcDbVertex
100
AcDb2dVertex
 10
23.91432961326119
 20
2.068814435210271
 30
0.0
 70
    16
 50
270.0
  0
VERTEX
  5
1DD5
330
1D2C
100
AcDbEntity
  8
Image
100
AcDbVertex
100
AcDb2dVertex
 10
23.87051789148785
 20
2.053372626313404
 30
0.0
 70
    16
 50
270.0
  0
VERTEX
  5
1DD6
330
1D2C
100
AcDbEntity
  8
Image
100
AcDbVertex
100
AcDb2dVertex
 10
23.8403757328738
 20
2.05182962399371
 30
0.0
 70
    16
 50
270.0
  0
VERTEX
  5
1DD7
330
1D2C
100
AcDbEntity
  8
Image
100
AcDbVertex
100
AcDb2dVertex
 10
23.84503882592576
 20
2.060914896525933
 30
0.0
 70
    16
 50
270.0
  0
VERTEX
  5
1DD8
330
1D2C
100
AcDbEntity
  8
Image
100
AcDbVertex
100
AcDb2dVertex
 10
23.89177987185734
 20
2.086719917572806
 30
0.0
 70
    16
 50
270.0
  0
VERTEX
  5
1DD9
330
1D2C
100
AcDbEntity
  8
Image
100
AcDbVertex
100
AcDb2dVertex
 10
23.90803396967942
 20
2.100640215720404
 30
0.0
 70
    16
 50
270.0
  0
VERTEX
  5
1DDA
330
1D2C
100
AcDbEntity
  8
Image
100
AcDbVertex
100
AcDb2dVertex
 10
23.90964595300743
 20
2.114007972525121
 30
0.0
 70
    16
 50
270.0
  0
VERTEX
  5
1DDB
330
1D2C
100
AcDbEntity
  8
Image
100
AcDbVertex
100
AcDb2dVertex
 10
23.90171683452724
 20
2.134417222842238
 30
0.0
 70
    16
 50
270.0
  0
SEQEND
  5
1DDC
330
1D2C
100
AcDbEntity
  8
Image
  0
LINE
  5
1DF5
330
18
100
AcDbEntity
  8
Image
100
AcDbLine
 10
24.33894272981843
 20
3.165460367623687
 30
0.0
 11
24.33894272981843
 21
3.195222130766041
 31
0.0
  0
LINE
  5
1DF6
330
18
100
AcDbEntity
  8
Image
100
AcDbLine
 10
24.329328816197
 20
3.204836044387469
 30
0.0
 11
24.25305873470765
 21
3.204836044387469
 31
0.0
  0
LINE
  5
1DF7
330
18
100
AcDbEntity
  8
Image
100
AcDbLine
 10
24.24344482108623
 20
3.195222130766041
 30
0.0
 11
24.24344482108623
 21
3.165460367623687
 31
0.0
  0
LINE
  5
1DF8
330
18
100
AcDbEntity
  8
Image
100
AcDbLine
 10
24.33800487076446
 20
3.034382124137219
 30
0.0
 11
24.33800487076446
 21
3.019462654684528
 31
0.0
  0
LINE
  5
1DF9
330
18
100
AcDbEntity
  8
Image
100
AcDbLine
 10
24.32839095714304
 20
3.009848741063102
 30
0.0
 11
24.25277757825814
 21
3.009848741063102
 31
0.0
  0
LINE
  5
1DFA
330
18
100
AcDbEntity
  8
Image
100
AcDbLine
 10
24.24316366463671
 20
3.019462654684528
 30
0.0
 11
24.24316366463671
 21
3.034382124137219
 31
0.0
  0
LWPOLYLINE
  5
1DFB
330
18
100
AcDbEntity
  8
Image
100
AcDbPolyline
 90
        8
 70
     1
 43
0.0
 10
24.2514030680244
 20
3.004355076136572
 10
24.32976546737677
 20
3.004355076136572
 42
-0.4142135623730951
 10
24.3393793809982
 20
2.994741162515143
 10
24.3393793809982
 20
2.989247497588614
 42
-0.4142135623730951
 10
24.32976546737677
 20
2.979633583967188
 10
24.2514030680244
 20
2.979633583967188
 42
-0.4142135623730872
 10
24.24178915440297
 20
2.989247497588614
 10
24.24178915440297
 20
2.994741162515143
 42
-0.4142135623730951
  0
ARC
  5
1DFC
330
18
100
AcDbEntity
  8
Image
100
AcDbCircle
 10
24.329328816197
 20
3.195222130766041
 30
0.0
 40
0.0096139136214273
100
AcDbArc
 50
0.0
 51
90.0
  0
ARC
  5
1DFD
330
18
100
AcDbEntity
  8
Image
100
AcDbCircle
 10
24.25305873470765
 20
3.195222130766041
 30
0.0
 40
0.0096139136214273
100
AcDbArc
 50
90.0
 51
180.0
  0
ARC
  5
1DFE
330
18
100
AcDbEntity
  8
Image
100
AcDbCircle
 10
24.32839095714304
 20
3.019462654684528
 30
0.0
 40
0.0096139136214273
100
AcDbArc
 50
270.0
 51
0.0
  0
ARC
  5
1DFF
330
18
100
AcDbEntity
  8
Image
100
AcDbCircle
 10
24.25277757825814
 20
3.019462654684528
 30
0.0
 40
0.0096139136214273
100
AcDbArc
 50
180.0
 51
270.0
  0
LINE
  5
1E00
330
18
100
AcDbEntity
  8
Image
100
AcDbLine
 10
24.31359966198963
 20
3.204836044387469
 30
0.0
 11
24.31359966198963
 21
3.378918440326858
 31
0.0
  0
LINE
  5
1E01
330
18
100
AcDbEntity
  8
Image
100
AcDbLine
 10
24.2648098685569
 20
3.009848741063102
 30
0.0
 11
24.2648098685569
 21
3.004355076136572
 31
0.0
  0
LINE
  5
1E02
330
18
100
AcDbEntity
  8
Image
100
AcDbLine
 10
24.31359966198963
 20
3.004355076136572
 30
0.0
 11
24.31359966198963
 21
3.009848741063102
 31
0.0
  0
LINE
  5
1E03
330
18
100
AcDbEntity
  8
Image
100
AcDbLine
 10
24.2648098685569
 20
2.979633583967188
 30
0.0
 11
24.2648098685569
 21
2.779137783348638
 31
0.0
  0
LINE
  5
1E04
330
18
100
AcDbEntity
  8
Image
100
AcDbLine
 10
24.32151074795964
 20
3.204836044387469
 30
0.0
 11
24.32151074795964
 21
3.165460367623687
 31
0.0
  0
LINE
  5
1E05
330
18
100
AcDbEntity
  8
Image
100
AcDbLine
 10
24.25690876697406
 20
3.204836044387469
 30
0.0
 11
24.25690876697406
 21
3.165460367623687
 31
0.0
  0
LINE
  5
1E06
330
18
100
AcDbEntity
  8
Image
100
AcDbLine
 10
24.3201362377259
 20
3.034382124137219
 30
0.0
 11
24.3201362377259
 21
3.009848741063102
 31
0.0
  0
LINE
  5
1E07
330
18
100
AcDbEntity
  8
Image
100
AcDbLine
 10
24.3201362377259
 20
3.004355076136572
 30
0.0
 11
24.3201362377259
 21
2.979633583967188
 31
0.0
  0
LINE
  5
1E08
330
18
100
AcDbEntity
  8
Image
100
AcDbLine
 10
24.25690876697406
 20
3.034382124137219
 30
0.0
 11
24.25690876697406
 21
3.009848741063102
 31
0.0
  0
LINE
  5
1E09
330
18
100
AcDbEntity
  8
Image
100
AcDbLine
 10
24.25690876697406
 20
3.004355076136572
 30
0.0
 11
24.25690876697406
 21
2.979633583967188
 31
0.0
  0
ARC
  5
1E0A
330
18
100
AcDbEntity
  8
Image
100
AcDbCircle
 10
24.30398574836821
 20
3.378918440326858
 30
0.0
 40
0.0096139136214273
100
AcDbArc
 50
0.0
 51
90.0
  0
ARC
  5
1E0B
330
18
100
AcDbEntity
  8
Image
100
AcDbCircle
 10
24.27442378217833
 20
3.378918440326858
 30
0.0
 40
0.0096139136214273
100
AcDbArc
 50
90.0
 51
180.0
  0
ARC
  5
1E0C
330
18
100
AcDbEntity
  8
Image
100
AcDbCircle
 10
23.80087274211693
 20
3.378918440326858
 30
0.0
 40
0.0096139136214273
100
AcDbArc
 50
90.0
 51
180.0
  0
ARC
  5
1E0D
330
18
100
AcDbEntity
  8
Image
100
AcDbCircle
 10
23.83043470830681
 20
3.378918440326858
 30
0.0
 40
0.0096139136214273
100
AcDbArc
 50
0.0
 51
90.0
  0
LINE
  5
1E0E
330
18
100
AcDbEntity
  8
Image
100
AcDbLine
 10
23.78335772691266
 20
3.004355076136572
 30
0.0
 11
23.78335772691266
 21
2.979633583967188
 31
0.0
  0
LINE
  5
1E0F
330
18
100
AcDbEntity
  8
Image
100
AcDbLine
 10
23.78335772691266
 20
3.034382124137219
 30
0.0
 11
23.78335772691266
 21
3.009848741063102
 31
0.0
  0
LINE
  5
1E10
330
18
100
AcDbEntity
  8
Image
100
AcDbLine
 10
23.8465851976645
 20
3.004355076136572
 30
0.0
 11
23.8465851976645
 21
2.979633583967188
 31
0.0
  0
LINE
  5
1E11
330
18
100
AcDbEntity
  8
Image
100
AcDbLine
 10
23.8465851976645
 20
3.034382124137219
 30
0.0
 11
23.8465851976645
 21
3.009848741063102
 31
0.0
  0
LINE
  5
1E12
330
18
100
AcDbEntity
  8
Image
100
AcDbLine
 10
23.78335772691266
 20
3.204836044387469
 30
0.0
 11
23.78335772691266
 21
3.165460367623687
 31
0.0
  0
LINE
  5
1E13
330
18
100
AcDbEntity
  8
Image
100
AcDbLine
 10
23.84795970789824
 20
3.204836044387469
 30
0.0
 11
23.84795970789824
 21
3.165460367623687
 31
0.0
  0
LINE
  5
1E14
330
18
100
AcDbEntity
  8
Image
100
AcDbLine
 10
23.7912588284955
 20
2.979633583967188
 30
0.0
 11
23.7912588284955
 21
2.779137783348638
 31
0.0
  0
LINE
  5
1E15
330
18
100
AcDbEntity
  8
Image
100
AcDbLine
 10
23.84004862192824
 20
3.004355076136572
 30
0.0
 11
23.84004862192824
 21
3.009848741063102
 31
0.0
  0
LINE
  5
1E16
330
18
100
AcDbEntity
  8
Image
100
AcDbLine
 10
23.7912588284955
 20
3.009848741063102
 30
0.0
 11
23.7912588284955
 21
3.004355076136572
 31
0.0
  0
LINE
  5
1E17
330
18
100
AcDbEntity
  8
Image
100
AcDbLine
 10
23.84004862192824
 20
3.204836044387469
 30
0.0
 11
23.84004862192824
 21
3.378918440326858
 31
0.0
  0
ARC
  5
1E18
330
18
100
AcDbEntity
  8
Image
100
AcDbCircle
 10
23.77922653819674
 20
3.019462654684528
 30
0.0
 40
0.0096139136214273
100
AcDbArc
 50
180.0
 51
270.0
  0
ARC
  5
1E19
330
18
100
AcDbEntity
  8
Image
100
AcDbCircle
 10
23.85483991708164
 20
3.019462654684528
 30
0.0
 40
0.0096139136214273
100
AcDbArc
 50
270.0
 51
0.0
  0
ARC
  5
1E1A
330
18
100
AcDbEntity
  8
Image
100
AcDbCircle
 10
23.77950769464626
 20
3.195222130766041
 30
0.0
 40
0.0096139136214273
100
AcDbArc
 50
90.0
 51
180.0
  0
ARC
  5
1E1B
330
18
100
AcDbEntity
  8
Image
100
AcDbCircle
 10
23.8557777761356
 20
3.195222130766041
 30
0.0
 40
0.0096139136214273
100
AcDbArc
 50
0.0
 51
90.0
  0
LWPOLYLINE
  5
1E1C
330
18
100
AcDbEntity
  8
Image
100
AcDbPolyline
 90
        8
 70
     1
 43
0.0
 10
23.77785202796301
 20
3.004355076136572
 10
23.85621442731538
 20
3.004355076136572
 42
-0.4142135623730951
 10
23.86582834093681
 20
2.994741162515143
 10
23.86582834093681
 20
2.989247497588614
 42
-0.4142135623730951
 10
23.85621442731538
 20
2.979633583967188
 10
23.77785202796301
 20
2.979633583967188
 42
-0.4142135623730872
 10
23.76823811434158
 20
2.989247497588614
 10
23.76823811434158
 20
2.994741162515143
 42
-0.4142135623730951
  0
LINE
  5
1E1D
330
18
100
AcDbEntity
  8
Image
100
AcDbLine
 10
23.7696126245753
 20
3.019462654684528
 30
0.0
 11
23.7696126245753
 21
3.034382124137219
 31
0.0
  0
LINE
  5
1E1E
330
18
100
AcDbEntity
  8
Image
100
AcDbLine
 10
23.85483991708164
 20
3.009848741063102
 30
0.0
 11
23.77922653819674
 21
3.009848741063102
 31
0.0
  0
LINE
  5
1E1F
330
18
100
AcDbEntity
  8
Image
100
AcDbLine
 10
23.86445383070307
 20
3.034382124137219
 30
0.0
 11
23.86445383070307
 21
3.019462654684528
 31
0.0
  0
LINE
  5
1E20
330
18
100
AcDbEntity
  8
Image
100
AcDbLine
 10
23.76989378102484
 20
3.195222130766041
 30
0.0
 11
23.76989378102484
 21
3.165460367623687
 31
0.0
  0
LINE
  5
1E21
330
18
100
AcDbEntity
  8
Image
100
AcDbLine
 10
23.8557777761356
 20
3.204836044387469
 30
0.0
 11
23.77950769464626
 21
3.204836044387469
 31
0.0
  0
LINE
  5
1E22
330
18
100
AcDbEntity
  8
Image
100
AcDbLine
 10
23.86539168975704
 20
3.165460367623687
 30
0.0
 11
23.86539168975704
 21
3.195222130766041
 31
0.0
  0
LINE
  5
1E23
330
18
100
AcDbEntity
  8
Image
100
AcDbLine
 10
23.7912588284955
 20
3.378918440326858
 30
0.0
 11
23.7912588284955
 21
3.204836044387469
 31
0.0
  0
LINE
  5
1E24
330
18
100
AcDbEntity
  8
Image
100
AcDbLine
 10
23.83043470830681
 20
3.388532353948286
 30
0.0
 11
23.80087274211693
 21
3.388532353948286
 31
0.0
  0
LINE
  5
1E25
330
18
100
AcDbEntity
  8
Image
100
AcDbLine
 10
23.84004862192824
 20
2.779137783348638
 30
0.0
 11
23.84004862192824
 21
2.979633583967188
 31
0.0
  0
LINE
  5
1E26
330
18
100
AcDbEntity
  8
Image
100
AcDbLine
 10
24.30088784937968
 20
2.455791120619178
 30
0.0
 11
23.66392635836746
 21
2.455791120619178
 31
0.0
  0
LINE
  5
1E27
330
18
100
AcDbEntity
  8
Image
100
AcDbLine
 10
24.30186776742643
 20
2.481812971059731
 30
0.0
 11
23.66289323703603
 21
2.481812971059731
 31
0.0
  0
LINE
  5
1E28
330
18
100
AcDbEntity
  8
Image
100
AcDbLine
 10
24.30284768547318
 20
2.507834821500284
 30
0.0
 11
23.6618601157046
 21
2.507834821500286
 31
0.0
  0
LINE
  5
1E29
330
18
100
AcDbEntity
  8
Image
100
AcDbLine
 10
24.3039255953246
 20
2.536458856984894
 30
0.0
 11
23.66072368224003
 21
2.536458856984894
 31
0.0
  0
LINE
  5
1E2A
330
18
100
AcDbEntity
  8
Image
100
AcDbLine
 10
24.30519948878537
 20
2.570287262557613
 30
0.0
 11
23.65938062450918
 21
2.570287262557613
 31
0.0
  0
LINE
  5
1E2B
330
18
100
AcDbEntity
  8
Image
100
AcDbLine
 10
24.30637539044147
 20
2.601513483086274
 30
0.0
 11
23.65814087891146
 21
2.601513483086275
 31
0.0
  0
LINE
  5
1E2C
330
18
100
AcDbEntity
  8
Image
100
AcDbLine
 10
22.50049324340915
 20
2.252478853281598
 30
0.0
 11
23.74916793445521
 21
2.252479013199552
 31
0.0
  0
LINE
  5
1E2E
330
18
100
AcDbEntity
  8
Image
100
AcDbLine
 10
26.77133611507055
 20
2.282262754084755
 30
0.0
 11
26.58185038219354
 21
2.282262754084755
 31
0.0
  0
LINE
  5
1E2F
330
18
100
AcDbEntity
  8
Image
100
AcDbLine
 10
26.35767074187068
 20
4.764254993284783
 30
0.0
 11
26.30596257022069
 21
4.764254993284783
 31
0.0
  0
LINE
  5
1E30
330
18
100
AcDbEntity
  8
Image
100
AcDbLine
 10
23.04834775627064
 20
4.764254993284785
 30
0.0
 11
23.04834775627064
 21
4.298881448434778
 31
0.0
  0
LINE
  5
1E31
330
18
100
AcDbEntity
  8
Image
100
AcDbLine
 10
23.04834775627064
 20
4.298881448434778
 30
0.0
 11
22.99663958462064
 21
4.092048761834777
 31
0.0
  0
LINE
  5
1E32
330
18
100
AcDbEntity
  8
Image
100
AcDbLine
 10
22.6346823830705
 20
2.489095440684756
 30
0.0
 11
22.6346823830705
 21
2.282262754084755
 31
0.0
  0
LINE
  5
1E33
330
18
100
AcDbEntity
  8
Image
100
AcDbLine
 10
22.99663958462064
 20
4.092048761834777
 30
0.0
 11
22.87850339683629
 21
3.523258873684769
 31
0.0
  0
LINE
  5
1E34
330
18
100
AcDbEntity
  8
Image
100
AcDbLine
 10
22.87850339683629
 20
3.523258873684769
 30
0.0
 11
22.84742816959161
 21
3.109593500484764
 31
0.0
  0
LINE
  5
1E35
330
18
100
AcDbEntity
  8
Image
100
AcDbLine
 10
22.91698674591767
 20
3.517840306071163
 30
0.0
 11
22.82416811594779
 21
2.282262754084755
 31
0.0
  0
LINE
  5
1E36
330
18
100
AcDbEntity
  8
Image
100
AcDbLine
 10
23.03445185418233
 20
4.08339915001614
 30
0.0
 11
22.91698674591767
 21
3.517840306071163
 31
0.0
  0
LINE
  5
1E37
330
18
100
AcDbEntity
  8
Image
100
AcDbLine
 10
23.10771299315575
 20
4.376443705909778
 30
0.0
 11
23.03445185418233
 21
4.08339915001614
 31
0.0
  0
LINE
  5
1E38
330
18
100
AcDbEntity
  8
Image
100
AcDbLine
 10
23.10005592792065
 20
4.764254993284785
 30
0.0
 11
23.10005592792065
 21
4.415224834647281
 31
0.0
  0
LINE
  5
1E39
330
18
100
AcDbEntity
  8
Image
100
AcDbLine
 10
26.30596257022069
 20
4.415224834647281
 30
0.0
 11
26.21547326983318
 21
4.415224834647281
 31
0.0
  0
LINE
  5
1E3A
330
18
100
AcDbEntity
  8
Image
100
AcDbLine
 10
23.19054522830815
 20
4.415224834647281
 30
0.0
 11
23.19054522830815
 21
4.182538062222278
 31
0.0
  0
LINE
  5
1E3B
330
18
100
AcDbEntity
  8
Image
100
AcDbLine
 10
23.15176409957064
 20
4.376443705909778
 30
0.0
 11
23.15176409957064
 21
4.182538062222278
 31
0.0
  0
LINE
  5
1E3C
330
18
100
AcDbEntity
  8
Image
100
AcDbLine
 10
23.15176409957064
 20
4.376443705909778
 30
0.0
 11
23.10771299315575
 21
4.376443705909778
 31
0.0
  0
LINE
  5
1E3D
330
18
100
AcDbEntity
  8
Image
100
AcDbLine
 10
22.84742816959161
 20
3.109593500484764
 30
0.0
 11
22.76964736790053
 21
3.109593500484764
 31
0.0
  0
LINE
  5
1E3E
330
18
100
AcDbEntity
  8
Image
100
AcDbLine
 10
22.76964736790053
 20
3.109593500484764
 30
0.0
 11
22.6346823830705
 21
2.489095440684756
 31
0.0
  0
LINE
  5
1E3F
330
18
100
AcDbEntity
  8
Image
100
AcDbLine
 10
22.88340526788296
 20
3.070812371747265
 30
0.0
 11
22.76964736790053
 21
3.070812371747265
 31
0.0
  0
LINE
  5
1E40
330
18
100
AcDbEntity
  8
Image
100
AcDbLine
 10
26.52261323025837
 20
3.070812371747265
 30
0.0
 11
26.6363711302408
 21
3.070812371747265
 31
0.0
  0
LINE
  5
1E41
330
18
100
AcDbEntity
  8
Image
100
AcDbLine
 10
26.6363711302408
 20
3.109593500484764
 30
0.0
 11
26.77133611507083
 21
2.489095440684756
 31
0.0
  0
LINE
  5
1E42
330
18
100
AcDbEntity
  8
Image
100
AcDbLine
 10
26.55859032854972
 20
3.109593500484764
 30
0.0
 11
26.6363711302408
 21
3.109593500484764
 31
0.0
  0
LINE
  5
1E43
330
18
100
AcDbEntity
  8
Image
100
AcDbLine
 10
26.25425439857068
 20
4.376443705909778
 30
0.0
 11
26.29830550498558
 21
4.376443705909778
 31
0.0
  0
LINE
  5
1E44
330
18
100
AcDbEntity
  8
Image
100
AcDbLine
 10
26.25425439857068
 20
4.376443705909778
 30
0.0
 11
26.25425439857068
 21
4.182538062222278
 31
0.0
  0
LINE
  5
1E45
330
18
100
AcDbEntity
  8
Image
100
AcDbLine
 10
26.21547326983318
 20
4.415224834647281
 30
0.0
 11
26.21547326983318
 21
4.182538062222278
 31
0.0
  0
LINE
  5
1E46
330
18
100
AcDbEntity
  8
Image
100
AcDbLine
 10
26.30596257022069
 20
4.764254993284785
 30
0.0
 11
26.30596257022069
 21
4.415224834647281
 31
0.0
  0
LINE
  5
1E47
330
18
100
AcDbEntity
  8
Image
100
AcDbLine
 10
26.29830550498558
 20
4.376443705909778
 30
0.0
 11
26.371566643959
 21
4.08339915001614
 31
0.0
  0
LINE
  5
1E48
330
18
100
AcDbEntity
  8
Image
100
AcDbLine
 10
26.371566643959
 20
4.08339915001614
 30
0.0
 11
26.48903175222366
 21
3.517840306071163
 31
0.0
  0
LINE
  5
1E49
330
18
100
AcDbEntity
  8
Image
100
AcDbLine
 10
26.48903175222366
 20
3.517840306071163
 30
0.0
 11
26.58185038219354
 21
2.282262754084755
 31
0.0
  0
LINE
  5
1E4A
330
18
100
AcDbEntity
  8
Image
100
AcDbLine
 10
26.52751510130504
 20
3.523258873684769
 30
0.0
 11
26.55859032854972
 21
3.109593500484764
 31
0.0
  0
LINE
  5
1E4B
330
18
100
AcDbEntity
  8
Image
100
AcDbLine
 10
26.40937891352069
 20
4.092048761834777
 30
0.0
 11
26.52751510130504
 21
3.523258873684769
 31
0.0
  0
LINE
  5
1E4C
330
18
100
AcDbEntity
  8
Image
100
AcDbLine
 10
26.77133611507083
 20
2.489095440684756
 30
0.0
 11
26.77133611507083
 21
2.282262754084755
 31
0.0
  0
LINE
  5
1E4D
330
18
100
AcDbEntity
  8
Image
100
AcDbLine
 10
26.35767074187068
 20
4.298881448434778
 30
0.0
 11
26.40937891352069
 21
4.092048761834777
 31
0.0
  0
LINE
  5
1E4E
330
18
100
AcDbEntity
  8
Image
100
AcDbLine
 10
26.35767074187068
 20
4.764254993284785
 30
0.0
 11
26.35767074187068
 21
4.298881448434778
 31
0.0
  0
LINE
  5
1E4F
330
18
100
AcDbEntity
  8
Image
100
AcDbLine
 10
26.34678191590746
 20
4.182538062222278
 30
0.0
 11
26.21547326983318
 21
4.182538062222278
 31
0.0
  0
LINE
  5
1E50
330
18
100
AcDbEntity
  8
Image
100
AcDbLine
 10
23.19054522830815
 20
4.415224834647281
 30
0.0
 11
23.10005592792065
 21
4.415224834647281
 31
0.0
  0
LINE
  5
1E51
330
18
100
AcDbEntity
  8
Image
100
AcDbLine
 10
23.19054522830815
 20
4.182538062222278
 30
0.0
 11
23.05923658223386
 21
4.182538062222278
 31
0.0
  0
LINE
  5
1E52
330
18
100
AcDbEntity
  8
Image
100
AcDbLine
 10
22.82416811594779
 20
2.282262754084755
 30
0.0
 11
22.6346823830705
 21
2.282262754084755
 31
0.0
  0
LINE
  5
1E6B
330
18
100
AcDbEntity
  8
Image
100
AcDbLine
 10
23.10005592792065
 20
4.764254993284785
 30
0.0
 11
23.04834775627064
 21
4.764254993284785
 31
0.0
  0
LINE
  5
1E6D
330
18
100
AcDbEntity
  8
Image
100
AcDbLine
 10
24.2402538919552
 20
2.252479013199552
 30
0.0
 11
25.13012412366427
 21
2.252479013199552
 31
0.0
  0
LWPOLYLINE
  5
1E6E
330
18
100
AcDbEntity
  8
Image
100
AcDbPolyline
 90
        3
 70
     0
 43
0.0
 10
24.31257216826729
 20
2.655086736333048
 10
24.48599026575276
 20
2.655910561043103
 10
24.48542259310498
 20
2.327446597020175
  0
ARC
  5
1E6F
330
18
100
AcDbEntity
  8
Image
100
AcDbCircle
 10
24.39625684690325
 20
2.265144241949258
 30
0.0
 40
0.026077534631868
100
AcDbArc
 50
330.9432383685444
 51
209.0567616314558
  0
LINE
  5
1E70
330
18
100
AcDbEntity
  8
Image
100
AcDbLine
 10
24.2402538919552
 20
2.252479013199552
 30
0.0
 11
24.2402538919552
 21
2.180351301674283
 31
0.0
  0
LINE
  5
1E71
330
18
100
AcDbEntity
  8
Image
100
AcDbLine
 10
24.67918314381825
 20
2.255592192049294
 30
0.0
 11
24.42052196909928
 21
2.255592192049294
 31
0.0
  0
LINE
  5
1E72
330
18
100
AcDbEntity
  8
Image
100
AcDbLine
 10
24.37199172470722
 20
2.255592192049294
 30
0.0
 11
24.31257216826729
 21
2.255592192049294
 31
0.0
  0
LWPOLYLINE
  5
1E73
330
18
100
AcDbEntity
  8
Image
100
AcDbPolyline
 90
        3
 70
     0
 43
0.0
 10
24.31257216826729
 20
2.327446597020175
 10
24.67918314381825
 20
2.327446597020175
 10
24.67918314381825
 20
2.255592192049294
  0
LWPOLYLINE
  5
1E74
330
18
100
AcDbEntity
  8
Image
100
AcDbPolyline
 90
        2
 70
     0
 43
0.0
 10
24.31257216826729
 20
2.655086736333048
 10
24.31257216826729
 20
2.255592192049294
  0
LWPOLYLINE
  5
1E75
330
18
100
AcDbEntity
  8
Image
100
AcDbPolyline
 90
        2
 70
     0
 43
0.0
 10
23.65182619941806
 20
2.655086736333048
 10
23.65182619941806
 20
2.255592192049294
  0
LINE
  5
1E76
330
18
100
AcDbEntity
  8
Image
100
AcDbLine
 10
23.59240664297813
 20
2.255592192049294
 30
0.0
 11
23.65182619941806
 21
2.255592192049294
 31
0.0
  0
ARC
  5
1E77
330
18
100
AcDbEntity
  8
Image
100
AcDbCircle
 10
23.5681415207821
 20
2.265144241949258
 30
0.0
 40
0.026077534631868
100
AcDbArc
 50
330.9432383685441
 51
209.0567616314555
  0
LINE
  5
1E78
330
18
100
AcDbEntity
  8
Image
100
AcDbLine
 10
23.28521522386711
 20
2.255592192049294
 30
0.0
 11
23.54387639858607
 21
2.255592192049294
 31
0.0
  0
LWPOLYLINE
  5
1E79
330
18
100
AcDbEntity
  8
Image
100
AcDbPolyline
 90
        3
 70
     0
 43
0.0
 10
23.65182619941806
 20
2.327446597020175
 10
23.28521522386711
 20
2.327446597020175
 10
23.28521522386711
 20
2.255592192049294
  0
LINE
  5
1E7A
330
18
100
AcDbEntity
  8
Image
100
AcDbLine
 10
23.73035422894264
 20
2.252479013199552
 30
0.0
 11
23.73035422894264
 21
2.180351301674283
 31
0.0
  0
LWPOLYLINE
  5
1E8A
330
18
100
AcDbEntity
  8
Image
100
AcDbPolyline
 90
        4
 70
     0
 43
0.0
 10
23.11203636331965
 20
4.764329447593259
 10
23.11203636331965
 20
4.424939142686013
 10
26.2965548106453
 20
4.424939142686013
 10
26.2965548106453
 20
4.764329447593254
  0
LINE
  5
1E8B
330
18
100
AcDbEntity
  8
Image
100
AcDbLine
 10
26.2965548106453
 20
4.764329447593254
 30
0.0
 11
23.11203636331965
 21
4.764329447593259
 31
0.0
  0
ARC
  5
1E99
330
18
100
AcDbEntity
  8
Image
100
AcDbCircle
 10
24.74473630565022
 20
2.061525867468706
 30
0.0
 40
0.204838852179931
100
AcDbArc
 50
108.6643211000198
 51
160.7615471347779
  0
ARC
  5
1E9B
330
18
100
AcDbEntity
  8
Image
100
AcDbCircle
 10
23.21966206203514
 20
2.061525867468706
 30
0.0
 40
0.204838852179931
100
AcDbArc
 50
23.13070477520663
 51
71.33567889998011
  0
LWPOLYLINE
  5
207C
330
18
100
AcDbEntity
  8
Image
100
AcDbPolyline
 90
        2
 70
     0
 43
0.0
 10
26.35767074187068
 20
4.752618149250686
 10
26.71738253872443
 20
4.752618149250686
  0
LWPOLYLINE
  5
207E
330
18
100
AcDbEntity
  8
Image
100
AcDbPolyline
 90
        2
 70
     0
 43
0.0
 10
23.04834775627065
 20
4.752618149250686
 10
22.68863595941691
 20
4.752618149250686
  0
LINE
  5
2083
330
18
100
AcDbEntity
  8
Image
100
AcDbLine
 10
25.13012412366427
 20
2.252479013199552
 30
0.0
 11
26.89899927086619
 21
2.252479013199552
 31
0.0
  0
LINE
  5
2220
330
18
100
AcDbEntity
  8
TEXT_BUBBLES
100
AcDbLine
 10
27.11316192405963
 20
1.49624475481698
 30
0.0
 11
27.45347078681029
 21
1.49624475481698
 31
0.0
  0
SOLID
  5
2221
330
18
100
AcDbEntity
  8
TEXT_BUBBLES
100
AcDbTrace
 10
27.11316192405963
 20
1.475411421483647
 30
0.0
 11
27.11316192405963
 21
1.517078088150314
 31
0.0
 12
26.98816192405963
 22
1.49624475481698
 32
0.0
 13
26.98816192405963
 23
1.49624475481698
 33
0.0
  0
INSERT
  5
2222
330
18
100
AcDbEntity
  8
TEXT_BUBBLES
100
AcDbBlockReference
 66
     1
  2
bubble
 10
29.49484160740734
 20
3.901364142769781
 30
0.0
  0
ATTRIB
  5
2223
330
2222
100
AcDbEntity
  8
TEXT_BUBBLES
100
AcDbText
 10
29.44424636931211
 20
3.838864142769781
 30
0.0
 40
0.125
  1
1
  7
ROMANS
 72
     4
 11
29.49484160740734
 21
3.901364142769781
 31
0.0
100
AcDbAttribute
  2
XX
 70
     0
  0
SEQEND
  5
2224
330
2222
100
AcDbEntity
  8
TEXT_BUBBLES
  0
INSERT
  5
2225
330
18
100
AcDbEntity
  8
TEXT_BUBBLES
100
AcDbBlockReference
 66
     1
  2
bubble
 10
29.49484160740734
 20
3.273992551521493
 30
0.0
  0
ATTRIB
  5
2226
330
2225
100
AcDbEntity
  8
TEXT_BUBBLES
100
AcDbText
 10
29.43531779788353
 20
3.211492551521493
 30
0.0
 40
0.125
  1
2
  7
ROMANS
 72
     4
 11
29.49484160740734
 21
3.273992551521493
 31
0.0
100
AcDbAttribute
  2
XX
 70
     0
  0
SEQEND
  5
2227
330
2225
100
AcDbEntity
  8
TEXT_BUBBLES
  0
INSERT
  5
2228
330
18
100
AcDbEntity
  8
TEXT_BUBBLES
100
AcDbBlockReference
 66
     1
  2
bubble
 10
29.50133760873202
 20
2.655840297067971
 30
0.0
  0
ATTRIB
  5
2229
330
2228
100
AcDbEntity
  8
TEXT_BUBBLES
100
AcDbText
 10
29.44181379920821
 20
2.593340297067971
 30
0.0
 40
0.125
  1
3
  7
ROMANS
 72
     4
 11
29.50133760873202
 21
2.655840297067971
 31
0.0
100
AcDbAttribute
  2
XX
 70
     0
  0
SEQEND
  5
222A
330
2228
100
AcDbEntity
  8
TEXT_BUBBLES
  0
INSERT
  5
222B
330
18
100
AcDbEntity
  8
TEXT_BUBBLES
100
AcDbBlockReference
 66
     1
  2
bubble
 10
29.50133760873202
 20
2.248741604942411
 30
0.0
  0
ATTRIB
  5
222C
330
222B
100
AcDbEntity
  8
TEXT_BUBBLES
100
AcDbText
 10
29.43883760873202
 20
2.186241604942411
 30
0.0
 40
0.125
  1
4
  7
ROMANS
 72
     4
 11
29.50133760873202
 21
2.248741604942411
 31
0.0
100
AcDbAttribute
  2
XX
 70
     0
  0
SEQEND
  5
222D
330
222B
100
AcDbEntity
  8
TEXT_BUBBLES
  0
INSERT
  5
222E
330
18
100
AcDbEntity
  8
TEXT_BUBBLES
100
AcDbBlockReference
 66
     1
  2
bubble
 10
29.50133760873202
 20
1.805490386781873
 30
0.0
  0
ATTRIB
  5
222F
330
222E
100
AcDbEntity
  8
TEXT_BUBBLES
100
AcDbText
 10
29.44181379920821
 20
1.742990386781873
 30
0.0
 40
0.125
  1
5
  7
ROMANS
 72
     4
 11
29.50133760873202
 21
1.805490386781873
 31
0.0
100
AcDbAttribute
  2
XX
 70
     0
  0
SEQEND
  5
2230
330
222E
100
AcDbEntity
  8
TEXT_BUBBLES
  0
INSERT
  5
224C
330
18
100
AcDbEntity
  8
TEXT_BUBBLES
100
AcDbBlockReference
 66
     1
  2
bubble
 10
27.59721077199536
 20
1.49487119692612
 30
0.0
  0
ATTRIB
  5
224D
330
224C
100
AcDbEntity
  8
TEXT_BUBBLES
100
AcDbText
 10
27.53768696247155
 20
1.43237119692612
 30
0.0
 40
0.125
  1
5
  7
ROMANS
 72
     4
 11
27.59721077199536
 21
1.49487119692612
 31
0.0
100
AcDbAttribute
  2
XX
 70
     0
  0
SEQEND
  5
224E
330
224C
100
AcDbEntity
  8
TEXT_BUBBLES
  0
INSERT
  5
224F
330
18
100
AcDbEntity
  8
TEXT_BUBBLES
100
AcDbBlockReference
  2
wid
 10
20.84173627557338
 20
-3.45260199617665
 30
0.0
  0
INSERT
  5
2250
330
18
100
AcDbEntity
  8
TEXT_BUBBLES
100
AcDbBlockReference
  2
wid
 10
20.84173627557338
 20
-3.45260199617665
 30
0.0
  0
LWPOLYLINE
  5
2251
330
18
100
AcDbEntity
  8
Image
100
AcDbPolyline
 90
        4
 70
     1
 43
0.0
 10
20.64118082566485
 20
-3.321226470693181
 10
37.13118082566485
 20
-3.321226470693181
 10
37.13118082566485
 20
7.118773529306817
 10
20.64118082566485
 20
7.118773529306817
  0
INSERT
  5
2252
330
18
100
AcDbEntity
  8
TEXT_BUBBLES
100
AcDbBlockReference
 66
     1
  2
TITLBLK
 10
21.24762319617933
 20
-2.436999374214813
 30
0.0
  0
ATTRIB
  5
2253
330
2252
100
AcDbEntity
  8
TITLE
100
AcDbText
 10
21.87262319617933
 20
-2.336999374214814
 30
0.0
 40
0.2
  1
MAXICOM FLOW SENSOR PE-CABLE SPLICE
  7
L200
100
AcDbAttribute
  2
TITLE2
 70
     0
  0
ATTRIB
  5
2254
330
2252
100
AcDbEntity
  8
TITLE
100
AcDbText
 10
21.01453997653404
 20
-2.535703330558606
 30
0.0
 40
0.2
  1
611
  7
L200
 72
     4
 11
21.24762319617933
 21
-2.436999374214814
 31
0.0
100
AcDbAttribute
  2
#
 70
     0
  0
ATTRIB
  5
2255
330
2252
100
AcDbEntity
  8
TITLE
 62
     7
100
AcDbText
 10
21.87262319617933
 20
-2.620662691297692
 30
0.0
 40
0.1
  1
N.T.S.
  7
L100
100
AcDbAttribute
  2
SCALE
 70
     0
  0
ATTRIB
  5
2256
330
2252
100
AcDbEntity
  8
TITLE
100
AcDbText
 10
23.35482657683316
 20
-2.728433704234862
 30
0.0
 40
0.2
  1

  7
L200
100
AcDbAttribute
  2
TITLE3
 70
     0
  0
ATTRIB
  5
2257
330
2252
100
AcDbEntity
  8
TITLE
 62
     7
100
AcDbText
 10
20.8995873735459
 20
-3.268813616340436
 30
0.0
 40
0.08
  1
611-FS BOX WIRING.DWG
  7
L80
 72
     2
 11
22.44625404021257
 21
-3.268813616340436
 31
0.0
100
AcDbAttribute
  2
DWG-NAME
 70
     0
  0
ATTRIB
  5
2258
330
2252
100
AcDbEntity
  8
TITLE
 62
     7
100
AcDbText
 10
28.33077660801218
 20
-2.351623679148541
 30
0.0
 40
0.08
  1
1-16-04
  7
L80
 72
     2
 11
28.90220517944075
 21
-2.351623679148541
 31
0.0
100
AcDbAttribute
  2
REVISED
 70
     0
  0
ATTRIB
  5
2259
330
2252
100
AcDbEntity
  8
TITLE
100
AcDbText
 10
21.87262319617933
 20
-1.977514167946431
 30
0.0
 40
0.2
  1

  7
L200
100
AcDbAttribute
  2
TITLE1
 70
     0
  0
ATTRIB
  5
225A
330
2252
100
AcDbEntity
  8
TITLE
100
AcDbText
 10
23.35482657683316
 20
-3.051970389876407
 30
0.0
 40
0.2
  1

  7
L200
100
AcDbAttribute
  2
TITLE4
 70
     0
  0
SEQEND
  5
225B
330
2252
100
AcDbEntity
  8
TEXT_BUBBLES
  0
LWPOLYLINE
  5
2340
330
18
100
AcDbEntity
  8
Image
100
AcDbPolyline
 90
       12
 70
     0
 43
0.0
 10
25.68028380826246
 20
3.581774864699867
 10
25.69751720950875
 20
3.116961738666448
 10
25.74896333067171
 20
2.661513936608917
 10
25.83357695503044
 20
2.224677515187206
 10
25.94964199354035
 20
1.815316118399212
 10
26.06654610531838
 20
1.441736809435207
 10
26.22090035371924
 20
1.111521581932781
 10
26.40465540247582
 20
0.8313740162837689
 10
26.67281347131554
 20
0.5827027338737781
 10
26.89995209318736
 20
0.442882506600637
 10
27.13690030684697
 20
0.342423457322919
 10
27.37884999747367
 20
0.3076390500595885
  0
LINE
  5
2343
330
18
100
AcDbEntity
  8
Image
100
AcDbLine
 10
25.60494102137784
 20
3.610011685972303
 30
0.0
 11
25.53532605051726
 21
3.868282791074662
 31
0.0
  0
LINE
  5
2344
330
18
100
AcDbEntity
  8
Image
100
AcDbLine
 10
25.67739016313513
 20
3.564902931230129
 30
0.0
 11
25.56075027848465
 21
3.868282791074662
 31
0.0
  0
LWPOLYLINE
  5
2345
330
18
100
AcDbEntity
  8
Image
100
AcDbPolyline
 90
        8
 70
     1
 43
0.0
 10
25.51675666820607
 20
3.855063050406029
 10
25.52508924023879
 20
3.846731978116292
 10
25.56674760117345
 20
3.846731978116292
 10
25.57508017320617
 20
3.855063050406029
 10
25.57508017320617
 20
3.930050199728587
 10
25.56674760117345
 20
3.93838277176131
 10
25.52508924023879
 20
3.93838277176131
 10
25.51675666820607
 20
3.930050199728587
  0
LINE
  5
2346
330
18
100
AcDbEntity
  8
Image
100
AcDbLine
 10
25.66554530930654
 20
3.551852475986473
 30
0.0
 11
25.73516326082239
 21
3.887349244937245
 31
0.0
  0
LWPOLYLINE
  5
2347
330
18
100
AcDbEntity
  8
Image
100
AcDbPolyline
 90
        8
 70
     1
 43
0.0
 10
25.69172718320637
 20
3.875892980744849
 10
25.7000582554961
 20
3.867561908455113
 10
25.74171811617374
 20
3.867561908455113
 10
25.75005068820646
 20
3.875892980744849
 10
25.75005068820646
 20
3.946713844051045
 10
25.74171811617374
 20
3.955046416083768
 10
25.7000582554961
 20
3.955046416083768
 10
25.69172718320637
 20
3.946713844051045
  0
LINE
  5
2348
330
18
100
AcDbEntity
  8
Image
100
AcDbLine
 10
25.71654940783221
 20
3.883822784280807
 30
0.0
 11
25.6035466456852
 21
3.547465316635588
 31
0.0
  0
POLYLINE
  5
24D2
330
18
100
AcDbEntity
  8
Image
100
AcDb2dPolyline
 66
     1
 10
0.0
 20
0.0
 30
0.0
 70
     4
  0
VERTEX
  5
2545
330
24D2
100
AcDbEntity
  8
Image
100
AcDbVertex
100
AcDb2dVertex
 10
24.02973727968956
 20
3.320766774836608
 30
0.0
 70
    16
  0
VERTEX
  5
2556
330
24D2
100
AcDbEntity
  8
Image
100
AcDbVertex
100
AcDb2dVertex
 10
24.02973727968956
 20
3.320766774836606
 30
0.0
 70
     8
  0
VERTEX
  5
2557
330
24D2
100
AcDbEntity
  8
Image
100
AcDbVertex
100
AcDb2dVertex
 10
24.06647800584789
 20
3.358085596116843
 30
0.0
 70
     8
  0
VERTEX
  5
2558
330
24D2
100
AcDbEntity
  8
Image
100
AcDbVertex
100
AcDb2dVertex
 10
24.10156125165968
 20
3.386599876516068
 30
0.0
 70
     8
  0
VERTEX
  5
2559
330
24D2
100
AcDbEntity
  8
Image
100
AcDbVertex
100
AcDb2dVertex
 10
24.13498701812471
 20
3.407179560333474
 30
0.0
 70
     8
  0
VERTEX
  5
255A
330
24D2
100
AcDbEntity
  8
Image
100
AcDbVertex
100
AcDb2dVertex
 10
24.16675530624271
 20
3.420694591868254
 30
0.0
 70
     8
  0
VERTEX
  5
255B
330
24D2
100
AcDbEntity
  8
Image
100
AcDbVertex
100
AcDb2dVertex
 10
24.19686611701342
 20
3.4280149154196
 30
0.0
 70
     8
  0
VERTEX
  5
255C
330
24D2
100
AcDbEntity
  8
Image
100
AcDbVertex
100
AcDb2dVertex
 10
24.22531945143659
 20
3.430010475286706
 30
0.0
 70
     8
  0
VERTEX
  5
255D
330
24D2
100
AcDbEntity
  8
Image
100
AcDbVertex
100
AcDb2dVertex
 10
24.25211531051196
 20
3.427551215768766
 30
0.0
 70
     8
  0
VERTEX
  5
255E
330
24D2
100
AcDbEntity
  8
Image
100
AcDbVertex
100
AcDb2dVertex
 10
24.27725369523927
 20
3.421507081164972
 30
0.0
 70
     8
  0
VERTEX
  5
255F
330
24D2
100
AcDbEntity
  8
Image
100
AcDbVertex
100
AcDb2dVertex
 10
24.30077489224452
 20
3.412450597801499
 30
0.0
 70
     8
  0
VERTEX
  5
2560
330
24D2
100
AcDbEntity
  8
Image
100
AcDbVertex
100
AcDb2dVertex
 10
24.32288033065871
 20
3.39976462011243
 30
0.0
 70
     8
  0
VERTEX
  5
2561
330
24D2
100
AcDbEntity
  8
Image
100
AcDbVertex
100
AcDb2dVertex
 10
24.34381172523912
 20
3.382534584558832
 30
0.0
 70
     8
  0
VERTEX
  5
2562
330
24D2
100
AcDbEntity
  8
Image
100
AcDbVertex
100
AcDb2dVertex
 10
24.363810790743
 20
3.359845927601768
 30
0.0
 70
     8
  0
VERTEX
  5
2563
330
24D2
100
AcDbEntity
  8
Image
100
AcDbVertex
100
AcDb2dVertex
 10
24.38311924192762
 20
3.330784085702305
 30
0.0
 70
     8
  0
VERTEX
  5
2564
330
24D2
100
AcDbEntity
  8
Image
100
AcDbVertex
100
AcDb2dVertex
 10
24.40197879355023
 20
3.294434495321502
 30
0.0
 70
     8
  0
VERTEX
  5
2565
330
24D2
100
AcDbEntity
  8
Image
100
AcDbVertex
100
AcDb2dVertex
 10
24.42063116036811
 20
3.249882592920428
 30
0.0
 70
     8
  0
VERTEX
  5
2566
330
24D2
100
AcDbEntity
  8
Image
100
AcDbVertex
100
AcDb2dVertex
 10
24.43931805713851
 20
3.196213814960145
 30
0.0
 70
     8
  0
VERTEX
  5
2567
330
24D2
100
AcDbEntity
  8
Image
100
AcDbVertex
100
AcDb2dVertex
 10
24.45824078600988
 20
3.133046819594993
 30
0.0
 70
     8
  0
VERTEX
  5
2568
330
24D2
100
AcDbEntity
  8
Image
100
AcDbVertex
100
AcDb2dVertex
 10
24.4774389986955
 20
3.062133151752403
 30
0.0
 70
     8
  0
VERTEX
  5
2569
330
24D2
100
AcDbEntity
  8
Image
100
AcDbVertex
100
AcDb2dVertex
 10
24.49691193429982
 20
2.985757578053077
 30
0.0
 70
     8
  0
VERTEX
  5
256A
330
24D2
100
AcDbEntity
  8
Image
100
AcDbVertex
100
AcDb2dVertex
 10
24.51665883192727
 20
2.906204865117724
 30
0.0
 70
     8
  0
VERTEX
  5
256B
330
24D2
100
AcDbEntity
  8
Image
100
AcDbVertex
100
AcDb2dVertex
 10
24.53667893068232
 20
2.825759779567045
 30
0.0
 70
     8
  0
VERTEX
  5
256C
330
24D2
100
AcDbEntity
  8
Image
100
AcDbVertex
100
AcDb2dVertex
 10
24.55697146966942
 20
2.746707088021743
 30
0.0
 70
     8
  0
VERTEX
  5
256D
330
24D2
100
AcDbEntity
  8
Image
100
AcDbVertex
100
AcDb2dVertex
 10
24.57753568799303
 20
2.671331557102527
 30
0.0
 70
     8
  0
VERTEX
  5
256E
330
24D2
100
AcDbEntity
  8
Image
100
AcDbVertex
100
AcDb2dVertex
 10
24.59837082475758
 20
2.6019179534301
 30
0.0
 70
     8
  0
VERTEX
  5
256F
330
24D2
100
AcDbEntity
  8
Image
100
AcDbVertex
100
AcDb2dVertex
 10
24.61973944382184
 20
2.540295815354046
 30
0.0
 70
     8
  0
VERTEX
  5
2570
330
24D2
100
AcDbEntity
  8
Image
100
AcDbVertex
100
AcDb2dVertex
 10
24.64295740806171
 20
2.48647376813948
 30
0.0
 70
     8
  0
VERTEX
  5
2571
330
24D2
100
AcDbEntity
  8
Image
100
AcDbVertex
100
AcDb2dVertex
 10
24.6696039051074
 20
2.440005208780398
 30
0.0
 70
     8
  0
VERTEX
  5
2572
330
24D2
100
AcDbEntity
  8
Image
100
AcDbVertex
100
AcDb2dVertex
 10
24.7012581225891
 20
2.400443534270796
 30
0.0
 70
     8
  0
VERTEX
  5
2573
330
24D2
100
AcDbEntity
  8
Image
100
AcDbVertex
100
AcDb2dVertex
 10
24.73949924813702
 20
2.367342141604671
 30
0.0
 70
     8
  0
VERTEX
  5
2574
330
24D2
100
AcDbEntity
  8
Image
100
AcDbVertex
100
AcDb2dVertex
 10
24.78590646938136
 20
2.340254427776013
 30
0.0
 70
     8
  0
VERTEX
  5
2575
330
24D2
100
AcDbEntity
  8
Image
100
AcDbVertex
100
AcDb2dVertex
 10
24.84205897395233
 20
2.318733789778823
 30
0.0
 70
     8
  0
VERTEX
  5
2576
330
24D2
100
AcDbEntity
  8
Image
100
AcDbVertex
100
AcDb2dVertex
 10
24.90953594948012
 20
2.302333624607095
 30
0.0
 70
     8
  0
VERTEX
  5
2577
330
24D2
100
AcDbEntity
  8
Image
100
AcDbVertex
100
AcDb2dVertex
 10
24.98904679855098
 20
2.290577885800281
 30
0.0
 70
     8
  0
VERTEX
  5
2578
330
24D2
100
AcDbEntity
  8
Image
100
AcDbVertex
100
AcDb2dVertex
 10
25.07782178357525
 20
2.282872753079666
 30
0.0
 70
     8
  0
VERTEX
  5
2579
330
24D2
100
AcDbEntity
  8
Image
100
AcDbVertex
100
AcDb2dVertex
 10
25.17222138191936
 20
2.278594962711991
 30
0.0
 70
     8
  0
VERTEX
  5
257A
330
24D2
100
AcDbEntity
  8
Image
100
AcDbVertex
100
AcDb2dVertex
 10
25.26860607094968
 20
2.277121250964002
 30
0.0
 70
     8
  0
VERTEX
  5
257B
330
24D2
100
AcDbEntity
  8
Image
100
AcDbVertex
100
AcDb2dVertex
 10
25.36333632803262
 20
2.277828354102435
 30
0.0
 70
     8
  0
VERTEX
  5
257C
330
24D2
100
AcDbEntity
  8
Image
100
AcDbVertex
100
AcDb2dVertex
 10
25.45277263053458
 20
2.280093008394037
 30
0.0
 70
     8
  0
VERTEX
  5
257D
330
24D2
100
AcDbEntity
  8
Image
100
AcDbVertex
100
AcDb2dVertex
 10
25.53327545582193
 20
2.283291950105546
 30
0.0
 70
     8
  0
VERTEX
  5
257E
330
24D2
100
AcDbEntity
  8
Image
100
AcDbVertex
100
AcDb2dVertex
 10
25.60120528126109
 20
2.286801915503707
 30
0.0
 70
     8
  0
VERTEX
  5
257F
330
24D2
100
AcDbEntity
  8
Image
100
AcDbVertex
100
AcDb2dVertex
 10
25.65358301268198
 20
2.290110023125518
 30
0.0
 70
     8
  0
VERTEX
  5
2580
330
24D2
100
AcDbEntity
  8
Image
100
AcDbVertex
100
AcDb2dVertex
 10
25.69007126976847
 20
2.293144920589018
 30
0.0
 70
     8
  0
VERTEX
  5
2581
330
24D2
100
AcDbEntity
  8
Image
100
AcDbVertex
100
AcDb2dVertex
 10
25.71099310066802
 20
2.295945637782501
 30
0.0
 70
     8
  0
VERTEX
  5
2582
330
24D2
100
AcDbEntity
  8
Image
100
AcDbVertex
100
AcDb2dVertex
 10
25.71667155352803
 20
2.29855120459426
 30
0.0
 70
     8
  0
VERTEX
  5
2583
330
24D2
100
AcDbEntity
  8
Image
100
AcDbVertex
100
AcDb2dVertex
 10
25.70742967649593
 20
2.301000650912591
 30
0.0
 70
     8
  0
VERTEX
  5
2584
330
24D2
100
AcDbEntity
  8
Image
100
AcDbVertex
100
AcDb2dVertex
 10
25.68359051771914
 20
2.303333006625791
 30
0.0
 70
     8
  0
VERTEX
  5
2585
330
24D2
100
AcDbEntity
  8
Image
100
AcDbVertex
100
AcDb2dVertex
 10
25.64547712534508
 20
2.305587301622151
 30
0.0
 70
     8
  0
VERTEX
  5
2586
330
24D2
100
AcDbEntity
  8
Image
100
AcDbVertex
100
AcDb2dVertex
 10
25.59341254752117
 20
2.307802565789971
 30
0.0
 70
     8
  0
VERTEX
  5
2587
330
24D2
100
AcDbEntity
  8
Image
100
AcDbVertex
100
AcDb2dVertex
 10
25.52823958521961
 20
2.310013241397345
 30
0.0
 70
     8
  0
VERTEX
  5
2588
330
24D2
100
AcDbEntity
  8
Image
100
AcDbVertex
100
AcDb2dVertex
 10
25.45288005071173
 20
2.312235420231595
 30
0.0
 70
     8
  0
VERTEX
  5
2589
330
24D2
100
AcDbEntity
  8
Image
100
AcDbVertex
100
AcDb2dVertex
 10
25.37077550909361
 20
2.314480606459837
 30
0.0
 70
     8
  0
VERTEX
  5
258A
330
24D2
100
AcDbEntity
  8
Image
100
AcDbVertex
100
AcDb2dVertex
 10
25.28536752546138
 20
2.316760304249194
 30
0.0
 70
     8
  0
VERTEX
  5
258B
330
24D2
100
AcDbEntity
  8
Image
100
AcDbVertex
100
AcDb2dVertex
 10
25.20009766491114
 20
2.319086017766788
 30
0.0
 70
     8
  0
VERTEX
  5
258C
330
24D2
100
AcDbEntity
  8
Image
100
AcDbVertex
100
AcDb2dVertex
 10
25.11840749253896
 20
2.321469251179737
 30
0.0
 70
     8
  0
VERTEX
  5
258D
330
24D2
100
AcDbEntity
  8
Image
100
AcDbVertex
100
AcDb2dVertex
 10
25.04373857344097
 20
2.323921508655165
 30
0.0
 70
     8
  0
VERTEX
  5
258E
330
24D2
100
AcDbEntity
  8
Image
100
AcDbVertex
100
AcDb2dVertex
 10
24.97953247271325
 20
2.326454294360192
 30
0.0
 70
     8
  0
VERTEX
  5
258F
330
24D2
100
AcDbEntity
  8
Image
100
AcDbVertex
100
AcDb2dVertex
 10
24.92867442665451
 20
2.329065691109926
 30
0.0
 70
     8
  0
VERTEX
  5
2590
330
24D2
100
AcDbEntity
  8
Image
100
AcDbVertex
100
AcDb2dVertex
 10
24.89182435637361
 20
2.331700096311434
 30
0.0
 70
     8
  0
VERTEX
  5
2591
330
24D2
100
AcDbEntity
  8
Image
100
AcDbVertex
100
AcDb2dVertex
 10
24.86908585418207
 20
2.334288486019768
 30
0.0
 70
     8
  0
VERTEX
  5
2592
330
24D2
100
AcDbEntity
  8
Image
100
AcDbVertex
100
AcDb2dVertex
 10
24.86056251239137
 20
2.336761836289981
 30
0.0
 70
     8
  0
VERTEX
  5
2593
330
24D2
100
AcDbEntity
  8
Image
100
AcDbVertex
100
AcDb2dVertex
 10
24.866357923313
 20
2.339051123177125
 30
0.0
 70
     8
  0
VERTEX
  5
2594
330
24D2
100
AcDbEntity
  8
Image
100
AcDbVertex
100
AcDb2dVertex
 10
24.88657567925843
 20
2.341087322736257
 30
0.0
 70
     8
  0
VERTEX
  5
2595
330
24D2
100
AcDbEntity
  8
Image
100
AcDbVertex
100
AcDb2dVertex
 10
24.92131937253914
 20
2.342801411022427
 30
0.0
 70
     8
  0
VERTEX
  5
2596
330
24D2
100
AcDbEntity
  8
Image
100
AcDbVertex
100
AcDb2dVertex
 10
24.97069259546663
 20
2.344124364090691
 30
0.0
 70
     8
  0
VERTEX
  5
2597
330
24D2
100
AcDbEntity
  8
Image
100
AcDbVertex
100
AcDb2dVertex
 10
25.03417355001394
 20
2.345031256559034
 30
0.0
 70
     8
  0
VERTEX
  5
2598
330
24D2
100
AcDbEntity
  8
Image
100
AcDbVertex
100
AcDb2dVertex
 10
25.10873887680045
 20
2.34567355729718
 30
0.0
 70
     8
  0
VERTEX
  5
2599
330
24D2
100
AcDbEntity
  8
Image
100
AcDbVertex
100
AcDb2dVertex
 10
25.19073982610708
 20
2.346246833737787
 30
0.0
 70
     8
  0
VERTEX
  5
259A
330
24D2
100
AcDbEntity
  8
Image
100
AcDbVertex
100
AcDb2dVertex
 10
25.27652764821475
 20
2.346946653313512
 30
0.0
 70
     8
  0
VERTEX
  5
259B
330
24D2
100
AcDbEntity
  8
Image
100
AcDbVertex
100
AcDb2dVertex
 10
25.3624535934044
 20
2.347968583457011
 30
0.0
 70
     8
  0
VERTEX
  5
259C
330
24D2
100
AcDbEntity
  8
Image
100
AcDbVertex
100
AcDb2dVertex
 10
25.44486891195696
 20
2.349508191600942
 30
0.0
 70
     8
  0
VERTEX
  5
259D
330
24D2
100
AcDbEntity
  8
Image
100
AcDbVertex
100
AcDb2dVertex
 10
25.52012485415336
 20
2.351761045177964
 30
0.0
 70
     8
  0
VERTEX
  5
259E
330
24D2
100
AcDbEntity
  8
Image
100
AcDbVertex
100
AcDb2dVertex
 10
25.58457267027453
 20
2.354922711620732
 30
0.0
 70
     8
  0
VERTEX
  5
259F
330
24D2
100
AcDbEntity
  8
Image
100
AcDbVertex
100
AcDb2dVertex
 10
25.63543647134052
 20
2.359198344854423
 30
0.0
 70
     8
  0
VERTEX
  5
25A0
330
24D2
100
AcDbEntity
  8
Image
100
AcDbVertex
100
AcDb2dVertex
 10
25.67343181132789
 20
2.364831444774283
 30
0.0
 70
     8
  0
VERTEX
  5
25A1
330
24D2
100
AcDbEntity
  8
Image
100
AcDbVertex
100
AcDb2dVertex
 10
25.70014710495229
 20
2.372075097768079
 30
0.0
 70
     8
  0
VERTEX
  5
25A2
330
24D2
100
AcDbEntity
  8
Image
100
AcDbVertex
100
AcDb2dVertex
 10
25.7171707669294
 20
2.381182390223579
 30
0.0
 70
     8
  0
VERTEX
  5
25A3
330
24D2
100
AcDbEntity
  8
Image
100
AcDbVertex
100
AcDb2dVertex
 10
25.72609121197488
 20
2.392406408528549
 30
0.0
 70
     8
  0
VERTEX
  5
25A4
330
24D2
100
AcDbEntity
  8
Image
100
AcDbVertex
100
AcDb2dVertex
 10
25.72849685480441
 20
2.406000239070752
 30
0.0
 70
     8
  0
VERTEX
  5
25A5
330
24D2
100
AcDbEntity
  8
Image
100
AcDbVertex
100
AcDb2dVertex
 10
25.72597611013365
 20
2.422216968237957
 30
0.0
 70
     8
  0
VERTEX
  5
25A6
330
24D2
100
AcDbEntity
  8
Image
100
AcDbVertex
100
AcDb2dVertex
 10
25.72011739267828
 20
2.441309682417932
 30
0.0
 70
     8
  0
VERTEX
  5
25A7
330
24D2
100
AcDbEntity
  8
Image
100
AcDbVertex
100
AcDb2dVertex
 10
25.71227507536603
 20
2.463500790924635
 30
0.0
 70
     8
  0
VERTEX
  5
25A8
330
24D2
100
AcDbEntity
  8
Image
100
AcDbVertex
100
AcDb2dVertex
 10
25.70286736397295
 20
2.488889994776819
 30
0.0
 70
     8
  0
VERTEX
  5
25A9
330
24D2
100
AcDbEntity
  8
Image
100
AcDbVertex
100
AcDb2dVertex
 10
25.69207842248718
 20
2.517546317919432
 30
0.0
 70
     8
  0
VERTEX
  5
25AA
330
24D2
100
AcDbEntity
  8
Image
100
AcDbVertex
100
AcDb2dVertex
 10
25.68009241489683
 20
2.549538784297418
 30
0.0
 70
     8
  0
VERTEX
  5
25AB
330
24D2
100
AcDbEntity
  8
Image
100
AcDbVertex
100
AcDb2dVertex
 10
25.66709350519003
 20
2.584936417855724
 30
0.0
 70
     8
  0
VERTEX
  5
25AC
330
24D2
100
AcDbEntity
  8
Image
100
AcDbVertex
100
AcDb2dVertex
 10
25.6532658573549
 20
2.6238082425393
 30
0.0
 70
     8
  0
VERTEX
  5
25AD
330
24D2
100
AcDbEntity
  8
Image
100
AcDbVertex
100
AcDb2dVertex
 10
25.63879363537956
 20
2.666223282293088
 30
0.0
 70
     8
  0
VERTEX
  5
25AE
330
24D2
100
AcDbEntity
  8
Image
100
AcDbVertex
100
AcDb2dVertex
 10
25.62386100325214
 20
2.712250561062039
 30
0.0
 70
     8
  0
VERTEX
  5
25AF
330
24D2
100
AcDbEntity
  8
Image
100
AcDbVertex
100
AcDb2dVertex
 10
25.60869528842387
 20
2.761831600691353
 30
0.0
 70
     8
  0
VERTEX
  5
25B0
330
24D2
100
AcDbEntity
  8
Image
100
AcDbVertex
100
AcDb2dVertex
 10
25.59369647219849
 20
2.814397914627256
 30
0.0
 70
     8
  0
VERTEX
  5
25B1
330
24D2
100
AcDbEntity
  8
Image
100
AcDbVertex
100
AcDb2dVertex
 10
25.57930769934282
 20
2.869253514216229
 30
0.0
 70
     8
  0
VERTEX
  5
25B2
330
24D2
100
AcDbEntity
  8
Image
100
AcDbVertex
100
AcDb2dVertex
 10
25.5659721146237
 20
2.925702410804753
 30
0.0
 70
     8
  0
VERTEX
  5
25B3
330
24D2
100
AcDbEntity
  8
Image
100
AcDbVertex
100
AcDb2dVertex
 10
25.55413286280795
 20
2.98304861573931
 30
0.0
 70
     8
  0
VERTEX
  5
25B4
330
24D2
100
AcDbEntity
  8
Image
100
AcDbVertex
100
AcDb2dVertex
 10
25.54423308866241
 20
3.040596140366383
 30
0.0
 70
     8
  0
VERTEX
  5
25B5
330
24D2
100
AcDbEntity
  8
Image
100
AcDbVertex
100
AcDb2dVertex
 10
25.53671593695392
 20
3.097648996032451
 30
0.0
 70
     8
  0
VERTEX
  5
25B6
330
24D2
100
AcDbEntity
  8
Image
100
AcDbVertex
100
AcDb2dVertex
 10
25.53202455244932
 20
3.153511194083994
 30
0.0
 70
     8
  0
VERTEX
  5
25B7
330
24D2
100
AcDbEntity
  8
Image
100
AcDbVertex
100
AcDb2dVertex
 10
25.53051252557541
 20
3.207630181122739
 30
0.0
 70
     8
  0
VERTEX
  5
25B8
330
24D2
100
AcDbEntity
  8
Image
100
AcDbVertex
100
AcDb2dVertex
 10
25.53217522939896
 20
3.26002714477138
 30
0.0
 70
     8
  0
VERTEX
  5
25B9
330
24D2
100
AcDbEntity
  8
Image
100
AcDbVertex
100
AcDb2dVertex
 10
25.53691848264674
 20
3.310866707907857
 30
0.0
 70
     8
  0
VERTEX
  5
25BA
330
24D2
100
AcDbEntity
  8
Image
100
AcDbVertex
100
AcDb2dVertex
 10
25.54464810404548
 20
3.360313493410106
 30
0.0
 70
     8
  0
VERTEX
  5
25BB
330
24D2
100
AcDbEntity
  8
Image
100
AcDbVertex
100
AcDb2dVertex
 10
25.55526991232195
 20
3.408532124156064
 30
0.0
 70
     8
  0
VERTEX
  5
25BC
330
24D2
100
AcDbEntity
  8
Image
100
AcDbVertex
100
AcDb2dVertex
 10
25.56868972620289
 20
3.455687223023672
 30
0.0
 70
     8
  0
VERTEX
  5
25BD
330
24D2
100
AcDbEntity
  8
Image
100
AcDbVertex
100
AcDb2dVertex
 10
25.58481336441505
 20
3.501943412890867
 30
0.0
 70
     8
  0
VERTEX
  5
25BE
330
24D2
100
AcDbEntity
  8
Image
100
AcDbVertex
100
AcDb2dVertex
 10
25.6035466456852
 20
3.547465316635588
 30
0.0
 70
     8
  0
VERTEX
  5
2546
330
24D2
100
AcDbEntity
  8
Image
100
AcDbVertex
100
AcDb2dVertex
 10
24.1299225241291
 20
3.432796303246765
 30
0.0
 70
    16
  0
VERTEX
  5
2547
330
24D2
100
AcDbEntity
  8
Image
100
AcDbVertex
100
AcDb2dVertex
 10
24.29493341095462
 20
3.450466342889336
 30
0.0
 70
    16
  0
VERTEX
  5
2548
330
24D2
100
AcDbEntity
  8
Image
100
AcDbVertex
100
AcDb2dVertex
 10
24.4363714469008
 20
3.303215832007007
 30
0.0
 70
    16
  0
VERTEX
  5
2549
330
24D2
100
AcDbEntity
  8
Image
100
AcDbVertex
100
AcDb2dVertex
 10
24.59548914427322
 20
2.513953218843509
 30
0.0
 70
    16
  0
VERTEX
  5
254A
330
24D2
100
AcDbEntity
  8
Image
100
AcDbVertex
100
AcDb2dVertex
 10
24.77189692455182
 20
2.252479013199552
 30
0.0
 70
    16
  0
VERTEX
  5
254B
330
24D2
100
AcDbEntity
  8
Image
100
AcDbVertex
100
AcDb2dVertex
 10
25.77413885440027
 20
2.290132476000851
 30
0.0
 70
    16
  0
VERTEX
  5
254C
330
24D2
100
AcDbEntity
  8
Image
100
AcDbVertex
100
AcDb2dVertex
 10
25.73877934541373
 20
2.30780257581928
 30
0.0
 70
    16
  0
VERTEX
  5
254D
330
24D2
100
AcDbEntity
  8
Image
100
AcDbVertex
100
AcDb2dVertex
 10
24.83121904907182
 20
2.325472615461851
 30
0.0
 70
    16
  0
VERTEX
  5
254E
330
24D2
100
AcDbEntity
  8
Image
100
AcDbVertex
100
AcDb2dVertex
 10
24.81353929457855
 20
2.349032728494467
 30
0.0
 70
    16
  0
VERTEX
  5
254F
330
24D2
100
AcDbEntity
  8
Image
100
AcDbVertex
100
AcDb2dVertex
 10
25.73877934541373
 20
2.343142655104422
 30
0.0
 70
    16
  0
VERTEX
  5
2550
330
24D2
100
AcDbEntity
  8
Image
100
AcDbVertex
100
AcDb2dVertex
 10
25.73877934541373
 20
2.407932920812236
 30
0.0
 70
    16
  0
VERTEX
  5
2551
330
24D2
100
AcDbEntity
  8
Image
100
AcDbVertex
100
AcDb2dVertex
 10
25.62680762900102
 20
2.672983756154222
 30
0.0
 70
    16
  0
VERTEX
  5
2552
330
24D2
100
AcDbEntity
  8
Image
100
AcDbVertex
100
AcDb2dVertex
 10
25.49715615809502
 20
3.173635420943107
 30
0.0
 70
    16
  0
VERTEX
  5
2553
330
24D2
100
AcDbEntity
  8
Image
100
AcDbVertex
100
AcDb2dVertex
 10
25.55019542157485
 20
3.426906290032578
 30
0.0
 70
    16
  0
VERTEX
  5
2554
330
24D2
100
AcDbEntity
  8
Image
100
AcDbVertex
100
AcDb2dVertex
 10
25.6035466456852
 20
3.547465316635588
 30
0.0
 70
    16
  0
SEQEND
  5
2555
330
24D2
100
AcDbEntity
  8
Image
  0
POLYLINE
  5
24D3
330
18
100
AcDbEntity
  8
Image
100
AcDb2dPolyline
 66
     1
 10
0.0
 20
0.0
 30
0.0
 70
     4
 75
     6
  0
VERTEX
  5
24D4
330
24D3
100
AcDbEntity
  8
Image
100
AcDbVertex
100
AcDb2dVertex
 10
25.60494102137784
 20
3.610011685972303
 30
0.0
 70
    16
  0
VERTEX
  5
24E4
330
24D3
100
AcDbEntity
  8
Image
100
AcDbVertex
100
AcDb2dVertex
 10
25.60494102137784
 20
3.610011685972303
 30
0.0
 70
     8
  0
VERTEX
  5
24E5
330
24D3
100
AcDbEntity
  8
Image
100
AcDbVertex
100
AcDb2dVertex
 10
25.61017701745143
 20
3.467667381944664
 30
0.0
 70
     8
  0
VERTEX
  5
24E6
330
24D3
100
AcDbEntity
  8
Image
100
AcDbVertex
100
AcDb2dVertex
 10
25.61388400694156
 20
3.325451589919092
 30
0.0
 70
     8
  0
VERTEX
  5
24E7
330
24D3
100
AcDbEntity
  8
Image
100
AcDbVertex
100
AcDb2dVertex
 10
25.61603048249314
 20
3.185929408181242
 30
0.0
 70
     8
  0
VERTEX
  5
24E8
330
24D3
100
AcDbEntity
  8
Image
100
AcDbVertex
100
AcDb2dVertex
 10
25.6165849367511
 20
3.051665935016771
 30
0.0
 70
     8
  0
VERTEX
  5
24E9
330
24D3
100
AcDbEntity
  8
Image
100
AcDbVertex
100
AcDb2dVertex
 10
25.61551586236038
 20
2.925226268711327
 30
0.0
 70
     8
  0
VERTEX
  5
24EA
330
24D3
100
AcDbEntity
  8
Image
100
AcDbVertex
100
AcDb2dVertex
 10
25.61279175196592
 20
2.809175507550573
 30
0.0
 70
     8
  0
VERTEX
  5
24EB
330
24D3
100
AcDbEntity
  8
Image
100
AcDbVertex
100
AcDb2dVertex
 10
25.60838109821264
 20
2.706078749820155
 30
0.0
 70
     8
  0
VERTEX
  5
24EC
330
24D3
100
AcDbEntity
  8
Image
100
AcDbVertex
100
AcDb2dVertex
 10
25.60225239374547
 20
2.618501093805726
 30
0.0
 70
     8
  0
VERTEX
  5
24ED
330
24D3
100
AcDbEntity
  8
Image
100
AcDbVertex
100
AcDb2dVertex
 10
25.59421056541578
 20
2.548218705840975
 30
0.0
 70
     8
  0
VERTEX
  5
24EE
330
24D3
100
AcDbEntity
  8
Image
100
AcDbVertex
100
AcDb2dVertex
 10
25.58340627690071
 20
2.493852024451671
 30
0.0
 70
     8
  0
VERTEX
  5
24EF
330
24D3
100
AcDbEntity
  8
Image
100
AcDbVertex
100
AcDb2dVertex
 10
25.56882662608378
 20
2.453232556211606
 30
0.0
 70
     8
  0
VERTEX
  5
24F0
330
24D3
100
AcDbEntity
  8
Image
100
AcDbVertex
100
AcDb2dVertex
 10
25.54945871084854
 20
2.424191807694581
 30
0.0
 70
     8
  0
VERTEX
  5
24F1
330
24D3
100
AcDbEntity
  8
Image
100
AcDbVertex
100
AcDb2dVertex
 10
25.52428962907854
 20
2.40456128547439
 30
0.0
 70
     8
  0
VERTEX
  5
24F2
330
24D3
100
AcDbEntity
  8
Image
100
AcDbVertex
100
AcDb2dVertex
 10
25.49230647865731
 20
2.392172496124833
 30
0.0
 70
     8
  0
VERTEX
  5
24F3
330
24D3
100
AcDbEntity
  8
Image
100
AcDbVertex
100
AcDb2dVertex
 10
25.45249635746844
 20
2.384856946219705
 30
0.0
 70
     8
  0
VERTEX
  5
24F4
330
24D3
100
AcDbEntity
  8
Image
100
AcDbVertex
100
AcDb2dVertex
 10
25.40384636339544
 20
2.380446142332798
 30
0.0
 70
     8
  0
VERTEX
  5
24F5
330
24D3
100
AcDbEntity
  8
Image
100
AcDbVertex
100
AcDb2dVertex
 10
25.34595747440345
 20
2.37712725462333
 30
0.0
 70
     8
  0
VERTEX
  5
24F6
330
24D3
100
AcDbEntity
  8
Image
100
AcDbVertex
100
AcDb2dVertex
 10
25.28088618878401
 20
2.374510107592177
 30
0.0
 70
     8
  0
VERTEX
  5
24F7
330
24D3
100
AcDbEntity
  8
Image
100
AcDbVertex
100
AcDb2dVertex
 10
25.21130288491022
 20
2.372560189325629
 30
0.0
 70
     8
  0
VERTEX
  5
24F8
330
24D3
100
AcDbEntity
  8
Image
100
AcDbVertex
100
AcDb2dVertex
 10
25.13987794115519
 20
2.371242987909976
 30
0.0
 70
     8
  0
VERTEX
  5
24F9
330
24D3
100
AcDbEntity
  8
Image
100
AcDbVertex
100
AcDb2dVertex
 10
25.06928173589203
 20
2.370523991431518
 30
0.0
 70
     8
  0
VERTEX
  5
24FA
330
24D3
100
AcDbEntity
  8
Image
100
AcDbVertex
100
AcDb2dVertex
 10
25.00218464749385
 20
2.370368687976541
 30
0.0
 70
     8
  0
VERTEX
  5
24FB
330
24D3
100
AcDbEntity
  8
Image
100
AcDbVertex
100
AcDb2dVertex
 10
24.94125705433376
 20
2.370742565631336
 30
0.0
 70
     8
  0
VERTEX
  5
24FC
330
24D3
100
AcDbEntity
  8
Image
100
AcDbVertex
100
AcDb2dVertex
 10
24.88916933478488
 20
2.371611112482199
 30
0.0
 70
     8
  0
VERTEX
  5
24FD
330
24D3
100
AcDbEntity
  8
Image
100
AcDbVertex
100
AcDb2dVertex
 10
24.84815831435438
 20
2.372934064688569
 30
0.0
 70
     8
  0
VERTEX
  5
24FE
330
24D3
100
AcDbEntity
  8
Image
100
AcDbVertex
100
AcDb2dVertex
 10
24.81872660708565
 20
2.374648150702475
 30
0.0
 70
     8
  0
VERTEX
  5
24FF
330
24D3
100
AcDbEntity
  8
Image
100
AcDbVertex
100
AcDb2dVertex
 10
24.80094327415612
 20
2.376684347049093
 30
0.0
 70
     8
  0
VERTEX
  5
2500
330
24D3
100
AcDbEntity
  8
Image
100
AcDbVertex
100
AcDb2dVertex
 10
24.79487737674324
 20
2.378973630253602
 30
0.0
 70
     8
  0
VERTEX
  5
2501
330
24D3
100
AcDbEntity
  8
Image
100
AcDbVertex
100
AcDb2dVertex
 10
24.80059797602446
 20
2.381446976841178
 30
0.0
 70
     8
  0
VERTEX
  5
2502
330
24D3
100
AcDbEntity
  8
Image
100
AcDbVertex
100
AcDb2dVertex
 10
24.81817413317724
 20
2.384035363336999
 30
0.0
 70
     8
  0
VERTEX
  5
2503
330
24D3
100
AcDbEntity
  8
Image
100
AcDbVertex
100
AcDb2dVertex
 10
24.84767490937901
 20
2.386669766266242
 30
0.0
 70
     8
  0
VERTEX
  5
2504
330
24D3
100
AcDbEntity
  8
Image
100
AcDbVertex
100
AcDb2dVertex
 10
24.88916936580722
 20
2.389281162154083
 30
0.0
 70
     8
  0
VERTEX
  5
2505
330
24D3
100
AcDbEntity
  8
Image
100
AcDbVertex
100
AcDb2dVertex
 10
24.94221435757386
 20
2.391817783365024
 30
0.0
 70
     8
  0
VERTEX
  5
2506
330
24D3
100
AcDbEntity
  8
Image
100
AcDbVertex
100
AcDb2dVertex
 10
25.00431791552906
 20
2.394296885620855
 30
0.0
 70
     8
  0
VERTEX
  5
2507
330
24D3
100
AcDbEntity
  8
Image
100
AcDbVertex
100
AcDb2dVertex
 10
25.07247586445751
 20
2.396752980482691
 30
0.0
 70
     8
  0
VERTEX
  5
2508
330
24D3
100
AcDbEntity
  8
Image
100
AcDbVertex
100
AcDb2dVertex
 10
25.1436840291439
 20
2.399220579511649
 30
0.0
 70
     8
  0
VERTEX
  5
2509
330
24D3
100
AcDbEntity
  8
Image
100
AcDbVertex
100
AcDb2dVertex
 10
25.21493823437286
 20
2.401734194268844
 30
0.0
 70
     8
  0
VERTEX
  5
250A
330
24D3
100
AcDbEntity
  8
Image
100
AcDbVertex
100
AcDb2dVertex
 10
25.28323430492912
 20
2.404328336315388
 30
0.0
 70
     8
  0
VERTEX
  5
250B
330
24D3
100
AcDbEntity
  8
Image
100
AcDbVertex
100
AcDb2dVertex
 10
25.34556806559734
 20
2.407037517212397
 30
0.0
 70
     8
  0
VERTEX
  5
250C
330
24D3
100
AcDbEntity
  8
Image
100
AcDbVertex
100
AcDb2dVertex
 10
25.39893534116219
 20
2.409896248520988
 30
0.0
 70
     8
  0
VERTEX
  5
250D
330
24D3
100
AcDbEntity
  8
Image
100
AcDbVertex
100
AcDb2dVertex
 10
25.44082689714917
 20
2.412916033996921
 30
0.0
 70
     8
  0
VERTEX
  5
250E
330
24D3
100
AcDbEntity
  8
Image
100
AcDbVertex
100
AcDb2dVertex
 10
25.47071326204697
 20
2.416016346174552
 30
0.0
 70
     8
  0
VERTEX
  5
250F
330
24D3
100
AcDbEntity
  8
Image
100
AcDbVertex
100
AcDb2dVertex
 10
25.48855990508509
 20
2.419093649782877
 30
0.0
 70
     8
  0
VERTEX
  5
2510
330
24D3
100
AcDbEntity
  8
Image
100
AcDbVertex
100
AcDb2dVertex
 10
25.49433229549304
 20
2.422044409550899
 30
0.0
 70
     8
  0
VERTEX
  5
2511
330
24D3
100
AcDbEntity
  8
Image
100
AcDbVertex
100
AcDb2dVertex
 10
25.48799590250034
 20
2.424765090207619
 30
0.0
 70
     8
  0
VERTEX
  5
2512
330
24D3
100
AcDbEntity
  8
Image
100
AcDbVertex
100
AcDb2dVertex
 10
25.46951619533648
 20
2.427152156482035
 30
0.0
 70
     8
  0
VERTEX
  5
2513
330
24D3
100
AcDbEntity
  8
Image
100
AcDbVertex
100
AcDb2dVertex
 10
25.43885864323097
 20
2.429102073103148
 30
0.0
 70
     8
  0
VERTEX
  5
2514
330
24D3
100
AcDbEntity
  8
Image
100
AcDbVertex
100
AcDb2dVertex
 10
25.39598871541331
 20
2.43051130479996
 30
0.0
 70
     8
  0
VERTEX
  5
2515
330
24D3
100
AcDbEntity
  8
Image
100
AcDbVertex
100
AcDb2dVertex
 10
25.34135914836946
 20
2.431360678509079
 30
0.0
 70
     8
  0
VERTEX
  5
2516
330
24D3
100
AcDbEntity
  8
Image
100
AcDbVertex
100
AcDb2dVertex
 10
25.27737174761115
 20
2.431968469997553
 30
0.0
 70
     8
  0
VERTEX
  5
2517
330
24D3
100
AcDbEntity
  8
Image
100
AcDbVertex
100
AcDb2dVertex
 10
25.20691558590658
 20
2.432737317240039
 30
0.0
 70
     8
  0
VERTEX
  5
2518
330
24D3
100
AcDbEntity
  8
Image
100
AcDbVertex
100
AcDb2dVertex
 10
25.13287973602393
 20
2.434069858211192
 30
0.0
 70
     8
  0
VERTEX
  5
2519
330
24D3
100
AcDbEntity
  8
Image
100
AcDbVertex
100
AcDb2dVertex
 10
25.05815327073139
 20
2.436368730885671
 30
0.0
 70
     8
  0
VERTEX
  5
251A
330
24D3
100
AcDbEntity
  8
Image
100
AcDbVertex
100
AcDb2dVertex
 10
24.98562526279714
 20
2.44003657323813
 30
0.0
 70
     8
  0
VERTEX
  5
251B
330
24D3
100
AcDbEntity
  8
Image
100
AcDbVertex
100
AcDb2dVertex
 10
24.91818478498936
 20
2.445476023243227
 30
0.0
 70
     8
  0
VERTEX
  5
251C
330
24D3
100
AcDbEntity
  8
Image
100
AcDbVertex
100
AcDb2dVertex
 10
24.85872091007626
 20
2.453089718875621
 30
0.0
 70
     8
  0
VERTEX
  5
251D
330
24D3
100
AcDbEntity
  8
Image
100
AcDbVertex
100
AcDb2dVertex
 10
24.80942058558341
 20
2.463249620918632
 30
0.0
 70
     8
  0
VERTEX
  5
251E
330
24D3
100
AcDbEntity
  8
Image
100
AcDbVertex
100
AcDb2dVertex
 10
24.76966225806606
 20
2.476204981390244
 30
0.0
 70
     8
  0
VERTEX
  5
251F
330
24D3
100
AcDbEntity
  8
Image
100
AcDbVertex
100
AcDb2dVertex
 10
24.73812224883684
 20
2.492174375117111
 30
0.0
 70
     8
  0
VERTEX
  5
2520
330
24D3
100
AcDbEntity
  8
Image
100
AcDbVertex
100
AcDb2dVertex
 10
24.71347687920839
 20
2.511376376925881
 30
0.0
 70
     8
  0
VERTEX
  5
2521
330
24D3
100
AcDbEntity
  8
Image
100
AcDbVertex
100
AcDb2dVertex
 10
24.69440247049333
 20
2.534029561643211
 30
0.0
 70
     8
  0
VERTEX
  5
2522
330
24D3
100
AcDbEntity
  8
Image
100
AcDbVertex
100
AcDb2dVertex
 10
24.67957534400433
 20
2.560352504095747
 30
0.0
 70
     8
  0
VERTEX
  5
2523
330
24D3
100
AcDbEntity
  8
Image
100
AcDbVertex
100
AcDb2dVertex
 10
24.667671821054
 20
2.590563779110144
 30
0.0
 70
     8
  0
VERTEX
  5
2524
330
24D3
100
AcDbEntity
  8
Image
100
AcDbVertex
100
AcDb2dVertex
 10
24.65736822295499
 20
2.624881961513051
 30
0.0
 70
     8
  0
VERTEX
  5
2525
330
24D3
100
AcDbEntity
  8
Image
100
AcDbVertex
100
AcDb2dVertex
 10
24.64753079016678
 20
2.663404834766147
 30
0.0
 70
     8
  0
VERTEX
  5
2526
330
24D3
100
AcDbEntity
  8
Image
100
AcDbVertex
100
AcDb2dVertex
 10
24.63778543973618
 20
2.705747016871216
 30
0.0
 70
     8
  0
VERTEX
  5
2527
330
24D3
100
AcDbEntity
  8
Image
100
AcDbVertex
100
AcDb2dVertex
 10
24.62794800785682
 20
2.751402334465073
 30
0.0
 70
     8
  0
VERTEX
  5
2528
330
24D3
100
AcDbEntity
  8
Image
100
AcDbVertex
100
AcDb2dVertex
 10
24.61783433072237
 20
2.799864614184532
 30
0.0
 70
     8
  0
VERTEX
  5
2529
330
24D3
100
AcDbEntity
  8
Image
100
AcDbVertex
100
AcDb2dVertex
 10
24.60726024452647
 20
2.8506276826664
 30
0.0
 70
     8
  0
VERTEX
  5
252A
330
24D3
100
AcDbEntity
  8
Image
100
AcDbVertex
100
AcDb2dVertex
 10
24.59604158546276
 20
2.903185366547497
 30
0.0
 70
     8
  0
VERTEX
  5
252B
330
24D3
100
AcDbEntity
  8
Image
100
AcDbVertex
100
AcDb2dVertex
 10
24.58399418972489
 20
2.95703149246463
 30
0.0
 70
     8
  0
VERTEX
  5
252C
330
24D3
100
AcDbEntity
  8
Image
100
AcDbVertex
100
AcDb2dVertex
 10
24.57093389350651
 20
3.011659887054613
 30
0.0
 70
     8
  0
VERTEX
  5
252D
330
24D3
100
AcDbEntity
  8
Image
100
AcDbVertex
100
AcDb2dVertex
 10
24.55668612475069
 20
3.066524113094109
 30
0.0
 70
     8
  0
VERTEX
  5
252E
330
24D3
100
AcDbEntity
  8
Image
100
AcDbVertex
100
AcDb2dVertex
 10
24.54111467839813
 20
3.12091667791919
 30
0.0
 70
     8
  0
VERTEX
  5
252F
330
24D3
100
AcDbEntity
  8
Image
100
AcDbVertex
100
AcDb2dVertex
 10
24.52409294113897
 20
3.17408982500577
 30
0.0
 70
     8
  0
VERTEX
  5
2530
330
24D3
100
AcDbEntity
  8
Image
100
AcDbVertex
100
AcDb2dVertex
 10
24.50549429966333
 20
3.225295797829773
 30
0.0
 70
     8
  0
VERTEX
  5
2531
330
24D3
100
AcDbEntity
  8
Image
100
AcDbVertex
100
AcDb2dVertex
 10
24.48519214066135
 20
3.273786839867118
 30
0.0
 70
     8
  0
VERTEX
  5
2532
330
24D3
100
AcDbEntity
  8
Image
100
AcDbVertex
100
AcDb2dVertex
 10
24.46305985082315
 20
3.318815194593722
 30
0.0
 70
     8
  0
VERTEX
  5
2533
330
24D3
100
AcDbEntity
  8
Image
100
AcDbVertex
100
AcDb2dVertex
 10
24.43897081683886
 20
3.359633105485507
 30
0.0
 70
     8
  0
VERTEX
  5
2534
330
24D3
100
AcDbEntity
  8
Image
100
AcDbVertex
100
AcDb2dVertex
 10
24.4127984253986
 20
3.395492816018391
 30
0.0
 70
     8
  0
VERTEX
  5
2535
330
24D3
100
AcDbEntity
  8
Image
100
AcDbVertex
100
AcDb2dVertex
 10
24.3845081453835
 20
3.425808583622981
 30
0.0
 70
     8
  0
VERTEX
  5
2536
330
24D3
100
AcDbEntity
  8
Image
100
AcDbVertex
100
AcDb2dVertex
 10
24.35443377443858
 20
3.450642721548627
 30
0.0
 70
     8
  0
VERTEX
  5
2537
330
24D3
100
AcDbEntity
  8
Image
100
AcDbVertex
100
AcDb2dVertex
 10
24.32300119239986
 20
3.470219556999373
 30
0.0
 70
     8
  0
VERTEX
  5
2538
330
24D3
100
AcDbEntity
  8
Image
100
AcDbVertex
100
AcDb2dVertex
 10
24.29063627910336
 20
3.484763417179252
 30
0.0
 70
     8
  0
VERTEX
  5
2539
330
24D3
100
AcDbEntity
  8
Image
100
AcDbVertex
100
AcDb2dVertex
 10
24.25776491438509
 20
3.494498629292312
 30
0.0
 70
     8
  0
VERTEX
  5
253A
330
24D3
100
AcDbEntity
  8
Image
100
AcDbVertex
100
AcDb2dVertex
 10
24.22481297808106
 20
3.499649520542583
 30
0.0
 70
     8
  0
VERTEX
  5
253B
330
24D3
100
AcDbEntity
  8
Image
100
AcDbVertex
100
AcDb2dVertex
 10
24.19220635002729
 20
3.500440418134108
 30
0.0
 70
     8
  0
VERTEX
  5
253C
330
24D3
100
AcDbEntity
  8
Image
100
AcDbVertex
100
AcDb2dVertex
 10
24.16037091005981
 20
3.497095649270927
 30
0.0
 70
     8
  0
VERTEX
  5
253D
330
24D3
100
AcDbEntity
  8
Image
100
AcDbVertex
100
AcDb2dVertex
 10
24.12968724131133
 20
3.489785623196834
 30
0.0
 70
     8
  0
VERTEX
  5
253E
330
24D3
100
AcDbEntity
  8
Image
100
AcDbVertex
100
AcDb2dVertex
 10
24.10035474010146
 20
3.478465077314661
 30
0.0
 70
     8
  0
VERTEX
  5
253F
330
24D3
100
AcDbEntity
  8
Image
100
AcDbVertex
100
AcDb2dVertex
 10
24.07252750604654
 20
3.463034831066987
 30
0.0
 70
     8
  0
VERTEX
  5
2540
330
24D3
100
AcDbEntity
  8
Image
100
AcDbVertex
100
AcDb2dVertex
 10
24.04635963876288
 20
3.4433957038964
 30
0.0
 70
     8
  0
VERTEX
  5
2541
330
24D3
100
AcDbEntity
  8
Image
100
AcDbVertex
100
AcDb2dVertex
 10
24.02200523786682
 20
3.419448515245484
 30
0.0
 70
     8
  0
VERTEX
  5
2542
330
24D3
100
AcDbEntity
  8
Image
100
AcDbVertex
100
AcDb2dVertex
 10
23.99961840297466
 20
3.391094084556823
 30
0.0
 70
     8
  0
VERTEX
  5
2543
330
24D3
100
AcDbEntity
  8
Image
100
AcDbVertex
100
AcDb2dVertex
 10
23.97935323370274
 20
3.358233231273001
 30
0.0
 70
     8
  0
VERTEX
  5
2544
330
24D3
100
AcDbEntity
  8
Image
100
AcDbVertex
100
AcDb2dVertex
 10
23.96136382966737
 20
3.320766774836603
 30
0.0
 70
     8
  0
VERTEX
  5
24D5
330
24D3
100
AcDbEntity
  8
Image
100
AcDbVertex
100
AcDb2dVertex
 10
25.62091434648092
 20
3.232535613260865
 30
0.0
 70
    16
  0
VERTEX
  5
24D6
330
24D3
100
AcDbEntity
  8
Image
100
AcDbVertex
100
AcDb2dVertex
 10
25.62091434648092
 20
2.425602960454807
 30
0.0
 70
    16
  0
VERTEX
  5
24D7
330
24D3
100
AcDbEntity
  8
Image
100
AcDbVertex
100
AcDb2dVertex
 10
25.50894263006821
 20
2.372592781351236
 30
0.0
 70
    16
  0
VERTEX
  5
24D8
330
24D3
100
AcDbEntity
  8
Image
100
AcDbVertex
100
AcDb2dVertex
 10
24.76639331361885
 20
2.366702768137038
 30
0.0
 70
    16
  0
VERTEX
  5
24D9
330
24D3
100
AcDbEntity
  8
Image
100
AcDbVertex
100
AcDb2dVertex
 10
24.76050012416576
 20
2.390262820993807
 30
0.0
 70
    16
  0
VERTEX
  5
24DA
330
24D3
100
AcDbEntity
  8
Image
100
AcDbVertex
100
AcDb2dVertex
 10
25.52662238456148
 20
2.407932920812236
 30
0.0
 70
    16
  0
VERTEX
  5
24DB
330
24D3
100
AcDbEntity
  8
Image
100
AcDbVertex
100
AcDb2dVertex
 10
25.52662238456148
 20
2.43738298688318
 30
0.0
 70
    16
  0
VERTEX
  5
24DC
330
24D3
100
AcDbEntity
  8
Image
100
AcDbVertex
100
AcDb2dVertex
 10
24.74282036967249
 20
2.425602960454807
 30
0.0
 70
    16
  0
VERTEX
  5
24DD
330
24D3
100
AcDbEntity
  8
Image
100
AcDbVertex
100
AcDb2dVertex
 10
24.65442159720612
 20
2.578743484551322
 30
0.0
 70
    16
  0
VERTEX
  5
24DE
330
24D3
100
AcDbEntity
  8
Image
100
AcDbVertex
100
AcDb2dVertex
 10
24.58370257923304
 20
3.008714870418208
 30
0.0
 70
    16
  0
VERTEX
  5
24DF
330
24D3
100
AcDbEntity
  8
Image
100
AcDbVertex
100
AcDb2dVertex
 10
24.4363714469008
 20
3.456356356103523
 30
0.0
 70
    16
  0
VERTEX
  5
24E0
330
24D3
100
AcDbEntity
  8
Image
100
AcDbVertex
100
AcDb2dVertex
 10
24.14760218555535
 20
3.538816601278049
 30
0.0
 70
    16
  0
VERTEX
  5
24E1
330
24D3
100
AcDbEntity
  8
Image
100
AcDbVertex
100
AcDb2dVertex
 10
24.00616424267619
 20
3.426906290032578
 30
0.0
 70
    16
  0
VERTEX
  5
24E2
330
24D3
100
AcDbEntity
  8
Image
100
AcDbVertex
100
AcDb2dVertex
 10
23.96136382966737
 20
3.320766774836608
 30
0.0
 70
    16
  0
SEQEND
  5
24E3
330
24D3
100
AcDbEntity
  8
Image
  0
LWPOLYLINE
  5
25C2
330
18
100
AcDbEntity
  8
Image
100
AcDbPolyline
 90
        4
 70
     0
 43
0.0
 10
22.6346823830705
 20
2.252479013199552
 10
22.6346823830705
 20
2.282262754084755
 10
22.82416811594779
 20
2.282262754084755
 10
22.82416811594779
 20
2.252479013199552
  0
LWPOLYLINE
  5
25C6
330
18
100
AcDbEntity
  8
Image
100
AcDbPolyline
 90
        4
 70
     0
 43
0.0
 10
26.78248350301961
 20
2.252479013199552
 10
26.78248350301961
 20
2.282262754084755
 10
26.59299777014232
 20
2.282262754084755
 10
26.59299777014232
 20
2.252479013199552
  0
LINE
  5
25C7
330
18
100
AcDbEntity
  8
Image
100
AcDbLine
 10
26.59299777014232
 20
2.282262754084755
 30
0.0
 11
26.78248350301961
 21
2.282262754084755
 31
0.0
  0
HATCH
  5
25D8
330
18
100
AcDbEntity
  8
Image
100
AcDbHatch
 10
0.0
 20
0.0
 30
0.0
210
0.0
220
0.0
230
1.0
  2
EARTH
 70
     0
 71
     0
 91
        2
 92
        1
 93
        5
 72
     1
 10
26.7377500267356
 20
4.752618149250686
 11
26.36024341769431
 21
4.752618149250686
 72
     1
 10
26.36024341769431
 20
4.752618149250686
 11
26.36024341769431
 21
4.376443705909778
 72
     1
 10
26.36024341769431
 20
4.376443705909778
 11
26.5920910294418
 21
4.306749158618814
 72
     1
 10
26.5920910294418
 20
4.306749158618814
 11
26.7377500267356
 21
4.396336331817678
 72
     1
 10
26.7377500267356
 20
4.396336331817678
 11
26.7377500267356
 21
4.752618149250686
 97
        0
 92
        1
 93
        5
 72
     1
 10
22.67084114722935
 20
4.752618149250686
 11
23.04834775627064
 21
4.752618149250686
 72
     1
 10
23.04834775627064
 20
4.752618149250686
 11
23.04834775627064
 21
4.376443705909778
 72
     1
 10
23.04834775627064
 20
4.376443705909778
 11
22.81650014452315
 21
4.306749158618814
 72
     1
 10
22.81650014452315
 20
4.306749158618814
 11
22.67084114722935
 21
4.396336331817678
 72
     1
 10
22.67084114722935
 20
4.396336331817678
 11
22.67084114722935
 21
4.752618149250686
 97
        0
 75
     0
 76
     1
 52
45.0
 41
0.75
 77
     0
 78
     6
 53
45.0
 43
0.0
 44
0.0
 45
0.0
 46
0.2651650429449553
 79
     2
 49
0.1875
 49
-0.1875
 53
45.0
 43
-0.0497184455521791
 44
0.0497184455521791
 45
0.0
 46
0.2651650429449553
 79
     2
 49
0.1875
 49
-0.1875
 53
45.0
 43
-0.0994368911043583
 44
0.0994368911043583
 45
0.0
 46
0.2651650429449553
 79
     2
 49
0.1875
 49
-0.1875
 53
135.0
 43
-0.0994368911043583
 44
0.1325825214724777
 45
-0.2651650429449553
 46
0.0000000000000001
 79
     2
 49
0.1875
 49
-0.1875
 53
135.0
 43
-0.0497184455521791
 44
0.1823009670246568
 45
-0.2651650429449553
 46
0.0000000000000001
 79
     2
 49
0.1875
 49
-0.1875
 53
135.0
 43
0.0
 44
0.2320194125768359
 45
-0.2651650429449553
 46
0.0000000000000001
 79
     2
 49
0.1875
 49
-0.1875
 98
        1
 10
5.381112377538876
 20
-7.642102145156775
  0
LINE
  5
291B
330
18
100
AcDbEntity
  8
Image
100
AcDbLine
 10
26.80623980563376
 20
5.115348630508004
 30
0.0
 11
26.51300541832128
 21
4.752618149250686
 31
0.0
  0
LINE
  5
291D
330
18
100
AcDbEntity
  8
Image
100
AcDbLine
 10
26.68202098002658
 20
5.181299627100234
 30
0.0
 11
26.57941929999386
 21
4.752618149250693
 31
0.0
  0
LINE
  5
291F
330
18
100
AcDbEntity
  8
Image
100
AcDbLine
 10
26.59170902011078
 20
5.263738372840529
 30
0.0
 11
26.59170902011078
 21
4.752618149250686
 31
0.0
  0
LINE
  5
2920
330
18
100
AcDbEntity
  8
Image
100
AcDbLine
 10
26.42668533893928
 20
5.214275125396346
 30
0.0
 11
26.46519086454596
 21
4.752618149250693
 31
0.0
  0
LINE
  5
2923
330
18
100
AcDbEntity
  8
Image
100
AcDbLine
 10
26.4729674090644
 20
5.18465285313572
 30
0.0
 11
26.35767074187068
 21
4.752618149250686
 31
0.0
  0
LINE
  5
2924
330
18
100
AcDbEntity
  8
Image
100
AcDbLine
 10
26.54910462059462
 20
5.143123465028325
 30
0.0
 11
26.44203058239752
 21
4.752618149250686
 31
0.0
  0
LINE
  5
2925
330
18
100
AcDbEntity
  8
Image
100
AcDbLine
 10
26.6981913642814
 20
5.170809723766579
 30
0.0
 11
26.7377500267356
 21
4.752618149250686
 31
0.0
  0
LINE
  5
2926
330
18
100
AcDbEntity
  8
Image
100
AcDbLine
 10
26.23645704086348
 20
5.230762874544425
 30
0.0
 11
26.46434688629083
 21
4.752618149250686
 31
0.0
  0
LINE
  5
2927
330
18
100
AcDbEntity
  8
Image
100
AcDbLine
 10
26.43448545826931
 20
5.247250623692478
 30
0.0
 11
26.55366922800428
 21
4.752618149250686
 31
0.0
  0
LINE
  5
2928
330
18
100
AcDbEntity
  8
Image
100
AcDbLine
 10
26.58240325614683
 20
5.17773128845115
 30
0.0
 11
26.54254889934678
 21
4.752618149250686
 31
0.0
  0
LINE
  5
2929
330
18
100
AcDbEntity
  8
Image
100
AcDbLine
 10
26.38167788029444
 20
5.170809723766579
 30
0.0
 11
26.42123654274863
 21
4.752618149250686
 31
0.0
  0
LINE
  5
292A
330
18
100
AcDbEntity
  8
Image
100
AcDbLine
 10
26.80417326200226
 20
5.181299627100234
 30
0.0
 11
26.70157158196953
 21
4.752618149250693
 31
0.0
  0
LINE
  5
292B
330
18
100
AcDbEntity
  8
Image
100
AcDbLine
 10
26.36934668217565
 20
5.263738372840529
 30
0.0
 11
26.36934668217565
 21
4.752618149250686
 31
0.0
  0
LINE
  5
292F
330
18
100
AcDbEntity
  8
Image
100
AcDbLine
 10
26.52746765851189
 20
5.205417547189409
 30
0.0
 11
26.47224821973886
 21
4.752618149250686
 31
0.0
  0
LINE
  5
2947
330
18
100
AcDbEntity
  8
Image
100
AcDbLine
 10
22.99669494471924
 20
5.263738372840526
 30
0.0
 11
22.99669494471924
 21
4.752618149250684
 31
0.0
  0
LINE
  5
2948
330
18
100
AcDbEntity
  8
Image
100
AcDbLine
 10
22.83167126354773
 20
5.214275125396342
 30
0.0
 11
22.87017678915441
 21
4.75261814925069
 31
0.0
  0
LINE
  5
2949
330
18
100
AcDbEntity
  8
Image
100
AcDbLine
 10
22.87795333367287
 20
5.184652853135716
 30
0.0
 11
22.76720829871981
 21
4.762437407377233
 31
0.0
  0
LINE
  5
294A
330
18
100
AcDbEntity
  8
Image
100
AcDbLine
 10
22.95409054520308
 20
5.143123465028322
 30
0.0
 11
22.84701650700598
 21
4.752618149250684
 31
0.0
  0
LINE
  5
294B
330
18
100
AcDbEntity
  8
Image
100
AcDbLine
 10
22.90828625792629
 20
5.263738372840526
 30
0.0
 11
22.90828625792629
 21
4.752618149250684
 31
0.0
  0
LINE
  5
294C
330
18
100
AcDbEntity
  8
Image
100
AcDbLine
 10
23.12281704344926
 20
5.115348630508002
 30
0.0
 11
22.82958265613679
 21
4.752618149250684
 31
0.0
  0
LINE
  5
294D
330
18
100
AcDbEntity
  8
Image
100
AcDbLine
 10
22.74326257675479
 20
5.214275125396342
 30
0.0
 11
22.78176810236146
 21
4.75261814925069
 31
0.0
  0
LINE
  5
294E
330
18
100
AcDbEntity
  8
Image
100
AcDbLine
 10
22.78954464687991
 20
5.184652853135716
 30
0.0
 11
22.67879961192686
 21
4.752618149250686
 31
0.0
  0
LINE
  5
294F
330
18
100
AcDbEntity
  8
Image
100
AcDbLine
 10
23.06640723426253
 20
5.205417547189405
 30
0.0
 11
23.0111877954895
 21
4.752618149250684
 31
0.0
  0
LINE
  5
2950
330
18
100
AcDbEntity
  8
Image
100
AcDbLine
 10
22.86568185841012
 20
5.143123465028322
 30
0.0
 11
22.75860782021302
 21
4.752618149250684
 31
0.0
  0
LINE
  5
2951
330
18
100
AcDbEntity
  8
Image
100
AcDbLine
 10
22.68726454094391
 20
5.263738372840526
 30
0.0
 11
22.68726454094391
 21
4.752618149250684
 31
0.0
  0
LINE
  5
2952
330
18
100
AcDbEntity
  8
Image
100
AcDbLine
 10
22.84538551728014
 20
5.205417547189405
 30
0.0
 11
22.79016607850712
 21
4.752618149250684
 31
0.0
  0
LINE
  5
2953
330
18
100
AcDbEntity
  8
Image
100
AcDbLine
 10
22.68682538970314
 20
5.170809723766579
 30
0.0
 11
22.72638405215734
 21
4.752618149250686
 31
0.0
  0
LINE
  5
2954
330
18
100
AcDbEntity
  8
Image
100
AcDbLine
 10
22.48232096854106
 20
5.230762874544425
 30
0.0
 11
22.7102108139684
 21
4.752618149250686
 31
0.0
  0
LINE
  5
2955
330
18
100
AcDbEntity
  8
Image
100
AcDbLine
 10
22.62346036637498
 20
5.247250623692477
 30
0.0
 11
22.74264413610995
 21
4.752618149250686
 31
0.0
  0
LINE
  5
2956
330
18
100
AcDbEntity
  8
Image
100
AcDbLine
 10
26.75423216572919
 20
5.143123465028325
 30
0.0
 11
26.64715812753209
 21
4.752618149250686
 31
0.0
  0
LINE
  5
2957
330
18
100
AcDbEntity
  8
Image
100
AcDbLine
 10
26.63181288407383
 20
5.214275125396346
 30
0.0
 11
26.67031840968052
 21
4.752618149250693
 31
0.0
  0
LINE
  5
2958
330
18
100
AcDbEntity
  8
Image
100
AcDbLine
 10
26.67204565754345
 20
5.177731288451148
 30
0.0
 11
26.6321913007434
 21
4.752618149250686
 31
0.0
  0
LINE
  5
2959
330
18
100
AcDbEntity
  8
Image
100
AcDbLine
 10
26.77166338142321
 20
5.181299627100234
 30
0.0
 11
26.66906170139048
 21
4.752618149250693
 31
0.0
  0
LINE
  5
295A
330
18
100
AcDbEntity
  8
Image
100
AcDbLine
 10
23.06803747164321
 20
5.181299627100226
 30
0.0
 11
22.96543579161049
 21
4.752618149250686
 31
0.0
  0
LINE
  5
295B
330
18
100
AcDbEntity
  8
Image
100
AcDbLine
 10
23.02318084754471
 20
5.143123465028319
 30
0.0
 11
22.91610680934761
 21
4.75261814925068
 31
0.0
  0
LINE
  5
295D
330
18
100
AcDbEntity
  8
Image
100
AcDbLine
 10
22.94458668026873
 20
5.263738372840526
 30
0.0
 11
22.94458668026873
 21
4.752618149250684
 31
0.0
  0
MTEXT
  5
2BD6
330
18
100
AcDbEntity
  8
TEXT_BUBBLES
100
AcDbMText
 10
29.96133699779533
 20
3.957649889527532
 30
0.0
 40
0.125
 41
6.03
 71
     1
 72
     5
  3
PE-CABLE TO FLOW SENSING EQUIPMENT AT CCU/SATELLITE CONTROLLER ASSEMBLY\P\PRAIN BIRD FS SERIES FLOW SENSOR WIRES. LEAVE 36-INCHES OF WIRE IN VALVE BOX\P\PPREFORMED SUPER SERVISEAL WATERPROOF WIRE SPLICE KIT\P\PVALVE BOX WITH COVER - 12-INCH SIZE\P\PB
  1
RICK (1 OF 4)\P\PFINISH GRADE
  7
ROMANS
 73
     1
 44
1.0
  0
INSERT
  5
2BDE
330
18
100
AcDbEntity
  8
TEXT_BUBBLES
100
AcDbBlockReference
 66
     1
  2
bubble
 10
26.05941982321556
 20
0.3336410462786739
 30
0.0
  0
ATTRIB
  5
2BDF
330
2BDE
100
AcDbEntity
  8
TEXT_BUBBLES
100
AcDbText
 10
26.00882458512032
 20
0.2711410462786739
 30
0.0
 40
0.125
  1
1
  7
ROMANS
 72
     4
 11
26.05941982321556
 21
0.3336410462786739
 31
0.0
100
AcDbAttribute
  2
XX
 70
     0
  0
SEQEND
  5
2BE0
330
2BDE
100
AcDbEntity
  8
TEXT_BUBBLES
  0
LINE
  5
2BE1
330
18
100
AcDbEntity
  8
TEXT_BUBBLES
100
AcDbLine
 10
26.65783800102896
 20
0.5965899512786869
 30
0.0
 11
26.19930262214986
 21
0.3323043470851648
 31
0.0
  0
SOLID
  5
2BE2
330
18
100
AcDbEntity
  8
TEXT_BUBBLES
100
AcDbTrace
 10
26.53913546026738
 20
0.5522195265058441
 30
0.0
 11
26.55994222185649
 21
0.5161198065168361
 31
0.0
 12
26.65783800102896
 22
0.5965899512786869
 32
0.0
 13
26.65783800102896
 23
0.5965899512786869
 33
0.0
  0
INSERT
  5
2BE3
330
18
100
AcDbEntity
  8
TEXT_BUBBLES
100
AcDbBlockReference
 66
     1
  2
bubble
 10
23.3146977103585
 20
5.274936924712931
 30
0.0
  0
ATTRIB
  5
2BE4
330
2BE3
100
AcDbEntity
  8
TEXT_BUBBLES
100
AcDbText
 10
23.2521977103585
 20
5.212436924712931
 30
0.0
 40
0.125
  1
6
  7
ROMANS
 72
     4
 11
23.3146977103585
 21
5.274936924712931
 31
0.0
100
AcDbAttribute
  2
XX
 70
     0
  0
SEQEND
  5
2BE5
330
2BE3
100
AcDbEntity
  8
TEXT_BUBBLES
  0
LINE
  5
2BE6
330
18
100
AcDbEntity
  8
TEXT_BUBBLES
100
AcDbLine
 10
23.07038812389308
 20
4.862710479214716
 30
0.0
 11
23.23155929536097
 21
5.162433644075753
 31
0.0
  0
SOLID
  5
2BE7
330
18
100
AcDbEntity
  8
TEXT_BUBBLES
100
AcDbTrace
 10
23.08873684555375
 20
4.852843757814119
 30
0.0
 11
23.05203940223241
 21
4.87257720061531
 31
0.0
 12
23.0111877954895
 22
4.752618149250684
 32
0.0
 13
23.0111877954895
 23
4.752618149250684
 33
0.0
  0
INSERT
  5
2BE8
330
18
100
AcDbEntity
  8
TEXT_BUBBLES
100
AcDbBlockReference
 66
     1
  2
bubble
 10
25.0277730056411
 20
3.096410889335312
 30
0.0
  0
ATTRIB
  5
2BE9
330
2BE8
100
AcDbEntity
  8
TEXT_BUBBLES
100
AcDbText
 10
24.96824919611729
 20
3.033910889335312
 30
0.0
 40
0.125
  1
2
  7
ROMANS
 72
     4
 11
25.0277730056411
 21
3.096410889335312
 31
0.0
100
AcDbAttribute
  2
XX
 70
     0
  0
SEQEND
  5
2BEA
330
2BE8
100
AcDbEntity
  8
TEXT_BUBBLES
  0
LINE
  5
2BEB
330
18
100
AcDbEntity
  8
TEXT_BUBBLES
100
AcDbLine
 10
24.70254298282023
 20
2.748209545304312
 30
0.0
 11
24.95390716298782
 21
2.977613492513874
 31
0.0
  0
SOLID
  5
2BEC
330
18
100
AcDbEntity
  8
TEXT_BUBBLES
100
AcDbTrace
 10
24.71658683951432
 20
2.732821307363158
 30
0.0
 11
24.68849912612614
 21
2.763597783245469
 31
0.0
 12
24.6102135551733
 22
2.66394640513977
 32
0.0
 13
24.6102135551733
 23
2.66394640513977
 33
0.0
  0
INSERT
  5
2BED
330
18
100
AcDbEntity
  8
TEXT_BUBBLES
100
AcDbBlockReference
 66
     1
  2
bubble
 10
27.129186973396
 20
3.620085706796254
 30
0.0
  0
ATTRIB
  5
2BEE
330
2BED
100
AcDbEntity
  8
TEXT_BUBBLES
100
AcDbText
 10
27.066686973396
 20
3.557585706796254
 30
0.0
 40
0.125
  1
4
  7
ROMANS
 72
     4
 11
27.129186973396
 21
3.620085706796254
 31
0.0
100
AcDbAttribute
  2
XX
 70
     0
  0
SEQEND
  5
2BEF
330
2BED
100
AcDbEntity
  8
TEXT_BUBBLES
  0
LINE
  5
2BF0
330
18
100
AcDbEntity
  8
TEXT_BUBBLES
100
AcDbLine
 10
26.64513812546027
 20
3.621459264687114
 30
0.0
 11
26.98544698821093
 21
3.621459264687114
 31
0.0
  0
SOLID
  5
2BF1
330
18
100
AcDbEntity
  8
TEXT_BUBBLES
100
AcDbTrace
 10
26.64513812546027
 20
3.600625931353781
 30
0.0
 11
26.64513812546027
 21
3.642292598020448
 31
0.0
 12
26.52013812546027
 22
3.621459264687114
 32
0.0
 13
26.52013812546027
 23
3.621459264687114
 33
0.0
  0
INSERT
  5
2BF2
330
18
100
AcDbEntity
  8
TEXT_BUBBLES
100
AcDbBlockReference
 66
     1
  2
bubble
 10
29.50133760873202
 20
1.389482838371469
 30
0.0
  0
ATTRIB
  5
2BF3
330
2BF2
100
AcDbEntity
  8
TEXT_BUBBLES
100
AcDbText
 10
29.43883760873202
 20
1.326982838371469
 30
0.0
 40
0.125
  1
6
  7
ROMANS
 72
     4
 11
29.50133760873202
 21
1.389482838371469
 31
0.0
100
AcDbAttribute
  2
XX
 70
     0
  0
SEQEND
  5
2BF4
330
2BF2
100
AcDbEntity
  8
TEXT_BUBBLES
  0
INSERT
  5
2BF7
330
18
100
AcDbEntity
  8
TEXT_BUBBLES
100
AcDbBlockReference
 66
     1
  2
bubble
 10
24.71596185827702
 20
3.848272245063367
 30
0.0
  0
ATTRIB
  5
2BF8
330
2BF7
100
AcDbEntity
  8
TEXT_BUBBLES
100
AcDbText
 10
24.65643804875321
 20
3.785772245063367
 30
0.0
 40
0.125
  1
3
  7
ROMANS
 72
     4
 11
24.71596185827702
 21
3.848272245063367
 31
0.0
100
AcDbAttribute
  2
XX
 70
     0
  0
SEQEND
  5
2BF9
330
2BF7
100
AcDbEntity
  8
TEXT_BUBBLES
  0
LINE
  5
2BFA
330
18
100
AcDbEntity
  8
TEXT_BUBBLES
100
AcDbLine
 10
25.38344601388342
 20
3.445788505355059
 30
0.0
 11
24.84153651365568
 21
3.78662818509844
 31
0.0
  0
SOLID
  5
2BFB
330
18
100
AcDbEntity
  8
TEXT_BUBBLES
100
AcDbTrace
 10
25.28872682383535
 20
3.529974625436793
 30
0.0
 11
25.26654317354117
 21
3.494704287038407
 31
0.0
 12
25.38344601388342
 22
3.445788505355059
 32
0.0
 13
25.38344601388342
 23
3.445788505355059
 33
0.0
  0
LINE
  5
3231
330
18
100
AcDbEntity
  8
Image
100
AcDbLine
 10
22.82258640939202
 20
1.864587607673996
 30
0.0
 11
22.81080178522728
 21
1.664611956731283
 31
0.0
  0
LINE
  5
3232
330
18
100
AcDbEntity
  8
Image
100
AcDbLine
 10
22.62131629779385
 20
1.864587607673999
 30
0.0
 11
22.62131629779385
 21
1.664611956731283
 31
0.0
  0
LWPOLYLINE
  5
3233
330
18
100
AcDbEntity
  8
Image
100
AcDbPolyline
 90
       16
 70
     1
 43
0.0
 10
23.36942767462201
 20
1.443943301008085
 42
0.0708989349029243
 10
23.35208077107294
 20
1.427862927778763
 42
0.0824870853856804
 10
23.34201218978727
 20
1.410159190469415
 42
0.1068139206260733
 10
23.33930412358443
 20
1.390898387055961
 42
0.1340008839894652
 10
23.34450139575158
 20
1.376184917162144
 42
0.1340008839894659
 10
23.3564522263323
 20
1.366151199868617
 42
0.106813920626075
 10
23.37543714942058
 20
1.361922149617918
 42
0.0824870853856831
 10
23.39554928978389
 20
1.365131581628522
 42
0.0708989349029243
 10
23.4166977058572
 20
1.375725823627145
 42
0.0708989349029259
 10
23.43404460940627
 20
1.391806196856482
 42
0.0824870853856834
 10
23.44411319069194
 20
1.409509934165822
 42
0.1068139206260768
 10
23.44682125689478
 20
1.428770737579273
 42
0.1340008839894672
 10
23.44162398472764
 20
1.443484207473093
 42
0.1340008839894638
 10
23.42967315414691
 20
1.453517924766631
 42
0.1068139206260751
 10
23.41068823105864
 20
1.457746975017335
 42
0.082487085385683
 10
23.39057609069532
 20
1.454537543006715
 42
0.0708989349029251
  0
LINE
  5
3234
330
18
100
AcDbEntity
  8
Image
100
AcDbLine
 10
22.42042885364492
 20
1.371171079905021
 30
0.0
 11
23.04520980512155
 21
1.371171079905021
 31
0.0
  0
LWPOLYLINE
  5
3235
330
18
100
AcDbEntity
  8
Image
100
AcDbPolyline
 90
        2
 70
     0
 43
0.0
 10
22.42042885364492
 20
1.371171079905021
 10
23.04520980512155
 20
1.650282530133904
  0
LWPOLYLINE
  5
3236
330
18
100
AcDbEntity
  8
Image
100
AcDbPolyline
 90
        2
 70
     0
 43
0.0
 10
22.42042885364492
 20
1.650282530133898
 10
23.04520980512155
 20
1.371171079905021
  0
LINE
  5
3237
330
18
100
AcDbEntity
  8
Image
100
AcDbLine
 10
23.04520980512155
 20
1.650282530133904
 30
0.0
 11
22.42042885364492
 21
1.650282530133898
 31
0.0
  0
LINE
  5
3238
330
18
100
AcDbEntity
  8
Image
100
AcDbLine
 10
22.42042885364492
 20
1.650282530133898
 30
0.0
 11
22.42042885364492
 21
1.371171079905021
 31
0.0
  0
LINE
  5
3239
330
18
100
AcDbEntity
  8
Image
100
AcDbLine
 10
22.81080178522728
 20
1.664611956731283
 30
0.0
 11
22.62131629779385
 21
1.664611956731283
 31
0.0
  0
LINE
  5
323A
330
18
100
AcDbEntity
  8
Image
100
AcDbLine
 10
23.04520980512155
 20
1.371171079905021
 30
0.0
 11
23.04520980512155
 21
1.650282530133898
 31
0.0
  0
LWPOLYLINE
  5
323B
330
18
100
AcDbEntity
  8
Image
100
AcDbPolyline
 90
       16
 70
     1
 43
0.0
 10
23.14171243049645
 20
1.629084053356435
 42
0.1833035428166229
 10
23.13683825076756
 20
1.620734079822566
 42
0.1024612315138192
 10
23.13748773545594
 20
1.603836194409649
 42
0.0615734602679465
 10
23.14405889905537
 20
1.586671533123878
 42
0.0478438451985803
 10
23.15708570083964
 20
1.566970478994378
 42
0.0478438451985776
 10
23.17361954488609
 20
1.550104504383122
 42
0.061573460267943
 10
23.1890261043207
 20
1.5400823432143
 42
0.1024612315138217
 10
23.20541271241508
 20
1.535906288024391
 42
0.1833035428166229
 10
23.21459869072759
 20
1.53892249234246
 42
0.1833035428166234
 10
23.21947287045648
 20
1.547272465876367
 42
0.102461231513819
 10
23.21882338576811
 20
1.564170351289265
 42
0.0615734602679484
 10
23.21225222216866
 20
1.581335012575023
 42
0.0478438451985819
 10
23.1992254203844
 20
1.601036066704537
 42
0.0478438451985799
 10
23.18269157633794
 20
1.617902041315792
 42
0.0615734602679431
 10
23.16728501690333
 20
1.627924202484615
 42
0.1024612315138189
 10
23.15089840880895
 20
1.632100257674521
 42
0.183303542816622
  0
LWPOLYLINE
  5
323C
330
18
100
AcDbEntity
  8
Image
100
AcDbPolyline
 90
       16
 70
     1
 43
0.0
 10
23.19000327713448
 20
1.508598126470534
 42
0.1096021439183502
 10
23.16126935150228
 20
1.503698923891919
 42
0.1024204874116924
 10
23.13541250153389
 20
1.486336083037571
 42
0.0936695383243779
 10
23.11783937496808
 20
1.460006644451945
 42
0.0882994724157594
 10
23.11033512437395
 20
1.427308848704604
 42
0.088299472415759
 10
23.11457386627363
 20
1.394029835936472
 42
0.0936695383243767
 10
23.1294611330862
 20
1.36609377679449
 42
0.1024204874116938
 10
23.15347706741587
 20
1.346262492643081
 42
0.1096021439183517
 10
23.18158677116108
 20
1.338549826210539
 42
0.109602143918351
 10
23.2103206967933
 20
1.343449028789154
 42
0.1024204874116929
 10
23.23617754676168
 20
1.360811869643484
 42
0.0936695383243769
 10
23.25375067332749
 20
1.387141308229128
 42
0.0882994724157586
 10
23.26125492392162
 20
1.419839103976467
 42
0.0882994724157589
 10
23.25701618202194
 20
1.453118116744602
 42
0.0936695383243761
 10
23.24212891520936
 20
1.481054175886565
 42
0.102420487411692
 10
23.2181129808797
 20
1.50088546003799
 42
0.1096021439183503
  0
LWPOLYLINE
  5
323D
330
18
100
AcDbEntity
  8
Image
100
AcDbPolyline
 90
       16
 70
     1
 43
0.0
 10
23.3653654168604
 20
1.555391756276526
 42
0.0846731520301792
 10
23.3605987753788
 20
1.58333725451659
 42
0.0916544813065032
 10
23.34755412100155
 20
1.606084073154557
 42
0.1036340346640379
 10
23.32730774559125
 20
1.621822782671308
 42
0.1140536254072521
 10
23.3045538489757
 20
1.627081518313545
 42
0.1140536254072534
 10
23.28179995236015
 20
1.621822782671308
 42
0.1036340346640368
 10
23.26155357694984
 20
1.606084073154557
 42
0.0916544813065076
 10
23.24850892257261
 20
1.58333725451659
 42
0.0846731520301862
 10
23.243742281091
 20
1.555391756276526
 42
0.0846731520301835
 10
23.24850892257261
 20
1.527446258036477
 42
0.091654481306508
 10
23.26155357694984
 20
1.504699439398506
 42
0.103634034664036
 10
23.28179995236015
 20
1.488960729881744
 42
0.1140536254072547
 10
23.3045538489757
 20
1.483701994239501
 42
0.1140536254072534
 10
23.32730774559125
 20
1.488960729881744
 42
0.1036340346640367
 10
23.34755412100155
 20
1.504699439398506
 42
0.0916544813065066
 10
23.3605987753788
 20
1.527446258036477
 42
0.0846731520301858
  0
LINE
  5
323E
330
18
100
AcDbEntity
  8
Image
100
AcDbLine
 10
22.50049324340915
 20
1.864587607673993
 30
0.0
 11
23.40803562761009
 21
1.864587607673993
 31
0.0
  0
LWPOLYLINE
  5
323F
330
18
100
AcDbEntity
  8
Image
100
AcDbPolyline
 90
        4
 70
     0
 43
0.0
 10
22.50049324340915
 20
2.252478853281598
 42
0.7006559369241782
 10
22.50049324340915
 20
2.058533230477796
 42
-0.700655936924184
 10
22.50049324340915
 20
1.864587607673993
 42
-0.6576649053447458
 10
22.50049324340915
 20
2.058533230477684
 42
-0.6576649053447458
  0
LINE
  5
3240
330
18
100
AcDbEntity
  8
Image
100
AcDbLine
 10
24.55129183792406
 20
1.864587607674001
 30
0.0
 11
26.90809753429541
 21
1.864587607673993
 31
0.0
  0
LWPOLYLINE
  5
3241
330
18
100
AcDbEntity
  8
Image
100
AcDbPolyline
 90
       16
 70
     1
 43
0.0
 10
25.06766767445073
 20
1.567036174973176
 42
0.0846731520301792
 10
25.06290103296913
 20
1.594981673213224
 42
0.0916544813065032
 10
25.04985637859188
 20
1.617728491851211
 42
0.1036340346640379
 10
25.02961000318158
 20
1.633467201367957
 42
0.1140536254072521
 10
25.00685610656603
 20
1.638725937010195
 42
0.1140536254072534
 10
24.98410220995048
 20
1.633467201367957
 42
0.1036340346640368
 10
24.96385583454018
 20
1.617728491851211
 42
0.0916544813065076
 10
24.95081118016293
 20
1.594981673213224
 42
0.0846731520301862
 10
24.94604453868134
 20
1.567036174973176
 42
0.0846731520301835
 10
24.95081118016293
 20
1.539090676733114
 42
0.091654481306508
 10
24.96385583454018
 20
1.516343858095142
 42
0.103634034664036
 10
24.98410220995048
 20
1.500605148578397
 42
0.1140536254072547
 10
25.00685610656603
 20
1.495346412936156
 42
0.1140536254072534
 10
25.02961000318158
 20
1.500605148578397
 42
0.1036340346640367
 10
25.04985637859188
 20
1.516343858095142
 42
0.0916544813065066
 10
25.06290103296913
 20
1.539090676733114
 42
0.0846731520301858
  0
LWPOLYLINE
  5
3242
330
18
100
AcDbEntity
  8
Image
100
AcDbPolyline
 90
       16
 70
     1
 43
0.0
 10
24.93402862198297
 20
1.439010675158618
 42
0.0708989349029243
 10
24.91668171843389
 20
1.422930301929276
 42
0.0824870853856804
 10
24.90661313714822
 20
1.405226564619941
 42
0.1068139206260733
 10
24.90390507094538
 20
1.385965761206481
 42
0.1340008839894652
 10
24.90910234311253
 20
1.37125229131267
 42
0.1340008839894659
 10
24.92105317369325
 20
1.361218574019124
 42
0.106813920626075
 10
24.94003809678153
 20
1.356989523768425
 42
0.0824870853856831
 10
24.96015023714484
 20
1.360198955779045
 42
0.0708989349029243
 10
24.98129865321816
 20
1.370793197777665
 42
0.0708989349029259
 10
24.99864555676723
 20
1.38687357100701
 42
0.0824870853856834
 10
25.0087141380529
 20
1.404577308316342
 42
0.1068139206260768
 10
25.01142220425574
 20
1.423838111729802
 42
0.1340008839894672
 10
25.00622493208859
 20
1.438551581623622
 42
0.1340008839894638
 10
24.99427410150788
 20
1.448585298917143
 42
0.1068139206260751
 10
24.97528917841959
 20
1.452814349167858
 42
0.082487085385683
 10
24.95517703805628
 20
1.449604917157241
 42
0.0708989349029251
  0
LWPOLYLINE
  5
3243
330
18
100
AcDbEntity
  8
Image
100
AcDbPolyline
 90
       16
 70
     1
 43
0.0
 10
24.80423209557703
 20
1.592345925960024
 42
0.1833035428166229
 10
24.79935791584814
 20
1.583995952426132
 42
0.1024612315138192
 10
24.80000740053652
 20
1.567098067013236
 42
0.0615734602679465
 10
24.80657856413595
 20
1.549933405727469
 42
0.0478438451985803
 10
24.81960536592022
 20
1.530232351597961
 42
0.0478438451985776
 10
24.83613920996667
 20
1.513366376986692
 42
0.061573460267943
 10
24.85154576940129
 20
1.503344215817881
 42
0.1024612315138217
 10
24.86793237749566
 20
1.499168160627961
 42
0.1833035428166229
 10
24.87711835580816
 20
1.502184364946055
 42
0.1833035428166234
 10
24.88199253553705
 20
1.510534338479931
 42
0.102461231513819
 10
24.88134305084868
 20
1.527432223892843
 42
0.0615734602679484
 10
24.87477188724924
 20
1.544596885178607
 42
0.0478438451985819
 10
24.86174508546498
 20
1.564297939308115
 42
0.0478438451985799
 10
24.84521124141852
 20
1.581163913919373
 42
0.0615734602679431
 10
24.82980468198392
 20
1.591186075088196
 42
0.1024612315138189
 10
24.81341807388953
 20
1.595362130278104
 42
0.183303542816622
  0
LWPOLYLINE
  5
3244
330
18
100
AcDbEntity
  8
Image
100
AcDbPolyline
 90
       16
 70
     1
 43
0.0
 10
24.73260771917057
 20
1.460382619982265
 42
0.1615511064879552
 10
24.72089646985818
 20
1.444800001219491
 42
0.1061532262602322
 10
24.71760994084657
 20
1.415748532133025
 42
0.0703450477663066
 10
24.725045558322
 20
1.385274755921563
 42
0.0566056099584688
 10
24.74345799020522
 20
1.350992583929104
 42
0.0566056099584683
 10
24.76908949042812
 20
1.321712707551309
 42
0.0703450477663069
 10
24.79501043049312
 20
1.304047931584021
 42
0.1061532262602343
 10
24.8233654497648
 20
1.29692178177305
 42
0.1615511064879549
 10
24.84206854136301
 20
1.302414115760638
 42
0.1615511064879543
 10
24.8537797906754
 20
1.317996734523401
 42
0.106153226260232
 10
24.857066319687
 20
1.347048203609881
 42
0.0703450477663075
 10
24.84963070221158
 20
1.37752197982134
 42
0.0566056099584687
 10
24.83121827032835
 20
1.411804151813807
 42
0.05660560995847
 10
24.80558677010545
 20
1.441084028191578
 42
0.0703450477663058
 10
24.77966583004046
 20
1.458748804158885
 42
0.1061532262602316
 10
24.75131081076878
 20
1.465874953969858
 42
0.1615511064879538
  0
LWPOLYLINE
  5
3245
330
18
100
AcDbEntity
  8
Image
100
AcDbPolyline
 90
       16
 70
     1
 43
0.0
 10
25.2254851601782
 20
1.484688122320105
 42
0.1615511064879552
 10
25.21377391086582
 20
1.469105503557329
 42
0.1061532262602322
 10
25.21048738185422
 20
1.440054034470847
 42
0.0703450477663066
 10
25.21792299932964
 20
1.409580258259401
 42
0.0566056099584688
 10
25.23633543121286
 20
1.375298086266936
 42
0.0566056099584683
 10
25.26196693143576
 20
1.346018209889147
 42
0.0703450477663069
 10
25.28788787150075
 20
1.328353433921856
 42
0.1061532262602343
 10
25.31624289077244
 20
1.32122728411087
 42
0.1615511064879549
 10
25.33494598237065
 20
1.326719618098479
 42
0.1615511064879543
 10
25.34665723168304
 20
1.342302236861239
 42
0.106153226260232
 10
25.34994376069464
 20
1.371353705947703
 42
0.0703450477663075
 10
25.34250814321922
 20
1.401827482159178
 42
0.0566056099584687
 10
25.32409571133598
 20
1.436109654151624
 42
0.05660560995847
 10
25.2984642111131
 20
1.465389530529416
 42
0.0703450477663058
 10
25.27254327104811
 20
1.483054306496707
 42
0.1061532262602316
 10
25.24418825177642
 20
1.490180456307677
 42
0.1615511064879538
  0
LWPOLYLINE
  5
3246
330
18
100
AcDbEntity
  8
Image
100
AcDbPolyline
 90
       16
 70
     1
 43
0.0
 10
25.16820529845389
 20
1.63710216847875
 42
0.1096021439183502
 10
25.13947137282169
 20
1.63220296590015
 42
0.1024204874116924
 10
25.1136145228533
 20
1.614840125045805
 42
0.0936695383243779
 10
25.0960413962875
 20
1.588510686460158
 42
0.0882994724157594
 10
25.08853714569336
 20
1.555812890712825
 42
0.088299472415759
 10
25.09277588759304
 20
1.522533877944689
 42
0.0936695383243767
 10
25.10766315440561
 20
1.494597818802724
 42
0.1024204874116938
 10
25.13167908873528
 20
1.474766534651312
 42
0.1096021439183517
 10
25.1597887924805
 20
1.467053868218757
 42
0.109602143918351
 10
25.1885227181127
 20
1.471953070797375
 42
0.1024204874116929
 10
25.21437956808109
 20
1.489315911651718
 42
0.0936695383243769
 10
25.23195269464689
 20
1.515645350237349
 42
0.0882994724157586
 10
25.23945694524103
 20
1.548343145984687
 42
0.0882994724157589
 10
25.23521820334135
 20
1.581622158752836
 42
0.0936695383243761
 10
25.22033093652877
 20
1.609558217894799
 42
0.102420487411692
 10
25.19631500219911
 20
1.629389502046213
 42
0.1096021439183503
  0
LWPOLYLINE
  5
3247
330
18
100
AcDbEntity
  8
Image
100
AcDbPolyline
 90
       16
 70
     1
 43
0.0
 10
25.10515940352484
 20
1.398201003074467
 42
0.0708989349029243
 10
25.08781249997577
 20
1.382120629845143
 42
0.0824870853856804
 10
25.07774391869009
 20
1.364416892535792
 42
0.1068139206260733
 10
25.07503585248725
 20
1.34515608912234
 42
0.1340008839894652
 10
25.0802331246544
 20
1.330442619228523
 42
0.1340008839894659
 10
25.09218395523512
 20
1.320408901934996
 42
0.106813920626075
 10
25.1111688783234
 20
1.316179851684297
 42
0.0824870853856831
 10
25.13128101868672
 20
1.319389283694902
 42
0.0708989349029243
 10
25.15242943476003
 20
1.329983525693521
 42
0.0708989349029259
 10
25.1697763383091
 20
1.346063898922861
 42
0.0824870853856834
 10
25.17984491959478
 20
1.363767636232204
 42
0.1068139206260768
 10
25.18255298579761
 20
1.383028439645666
 42
0.1340008839894672
 10
25.17735571363046
 20
1.397741909539472
 42
0.1340008839894638
 10
25.16540488304975
 20
1.40777562683301
 42
0.1068139206260751
 10
25.14641995996147
 20
1.412004677083728
 42
0.082487085385683
 10
25.12630781959815
 20
1.408795245073094
 42
0.0708989349029251
  0
LWPOLYLINE
  5
3248
330
18
100
AcDbEntity
  8
Image
100
AcDbPolyline
 90
       16
 70
     1
 43
0.0
 10
25.41654491157882
 20
1.659225796982938
 42
0.0708989349029243
 10
25.39919800802975
 20
1.643145423753611
 42
0.0824870853856804
 10
25.38912942674407
 20
1.625441686444264
 42
0.1068139206260733
 10
25.38642136054124
 20
1.606180883030812
 42
0.1340008839894652
 10
25.39161863270837
 20
1.591467413136989
 42
0.1340008839894659
 10
25.40356946328911
 20
1.581433695843465
 42
0.106813920626075
 10
25.42255438637738
 20
1.577204645592763
 42
0.0824870853856831
 10
25.44266652674069
 20
1.580414077603365
 42
0.0708989349029243
 10
25.46381494281401
 20
1.591008319601993
 42
0.0708989349029259
 10
25.48116184636307
 20
1.60708869283133
 42
0.0824870853856834
 10
25.49123042764875
 20
1.624792430140667
 42
0.1068139206260768
 10
25.49393849385159
 20
1.644053233554127
 42
0.1340008839894672
 10
25.48874122168445
 20
1.658766703447944
 42
0.1340008839894638
 10
25.47679039110372
 20
1.668800420741484
 42
0.1068139206260751
 10
25.45780546801545
 20
1.673029470992183
 42
0.082487085385683
 10
25.43769332765213
 20
1.669820038981563
 42
0.0708989349029251
  0
LWPOLYLINE
  5
3249
330
18
100
AcDbEntity
  8
Image
100
AcDbPolyline
 90
       16
 70
     1
 43
0.0
 10
25.28848464164275
 20
1.603817906377365
 42
0.0708989349029243
 10
25.27113773809368
 20
1.587737533148038
 42
0.0824870853856804
 10
25.261069156808
 20
1.570033795838698
 42
0.1068139206260733
 10
25.25836109060515
 20
1.550772992425236
 42
0.1340008839894652
 10
25.26355836277231
 20
1.536059522531413
 42
0.1340008839894659
 10
25.27550919335303
 20
1.526025805237889
 42
0.106813920626075
 10
25.2944941164413
 20
1.52179675498719
 42
0.0824870853856831
 10
25.31460625680463
 20
1.525006186997792
 42
0.0708989349029243
 10
25.33575467287794
 20
1.535600428996433
 42
0.0708989349029259
 10
25.35310157642701
 20
1.551680802225751
 42
0.0824870853856834
 10
25.36317015771267
 20
1.569384539535091
 42
0.1068139206260768
 10
25.36587822391551
 20
1.588645342948548
 42
0.1340008839894672
 10
25.36068095174837
 20
1.603358812842371
 42
0.1340008839894638
 10
25.34873012116765
 20
1.613392530135906
 42
0.1068139206260751
 10
25.32974519807936
 20
1.617621580386605
 42
0.082487085385683
 10
25.30963305771605
 20
1.614412148375987
 42
0.0708989349029251
  0
LWPOLYLINE
  5
324A
330
18
100
AcDbEntity
  8
Image
100
AcDbPolyline
 90
       16
 70
     1
 43
0.0
 10
25.46934192311581
 20
1.468682613421405
 42
0.0846731520301792
 10
25.46457528163422
 20
1.496628111661466
 42
0.0916544813065032
 10
25.45153062725697
 20
1.519374930299432
 42
0.1036340346640379
 10
25.43128425184667
 20
1.535113639816183
 42
0.1140536254072521
 10
25.40853035523111
 20
1.540372375458418
 42
0.1140536254072534
 10
25.38577645861557
 20
1.535113639816183
 42
0.1036340346640368
 10
25.36553008320526
 20
1.519374930299432
 42
0.0916544813065076
 10
25.35248542882801
 20
1.496628111661466
 42
0.0846731520301862
 10
25.34771878734643
 20
1.468682613421405
 42
0.0846731520301835
 10
25.35248542882801
 20
1.440737115181353
 42
0.091654481306508
 10
25.36553008320526
 20
1.417990296543366
 42
0.103634034664036
 10
25.38577645861557
 20
1.40225158702662
 42
0.1140536254072547
 10
25.40853035523111
 20
1.396992851384383
 42
0.1140536254072534
 10
25.43128425184667
 20
1.40225158702662
 42
0.1036340346640367
 10
25.45153062725697
 20
1.417990296543366
 42
0.0916544813065066
 10
25.46457528163422
 20
1.440737115181353
 42
0.0846731520301858
  0
LWPOLYLINE
  5
324B
330
18
100
AcDbEntity
  8
Image
100
AcDbPolyline
 90
       16
 70
     1
 43
0.0
 10
24.10538332442119
 20
1.548272989553768
 42
0.1615511064879552
 10
24.0936720751088
 20
1.532690370791008
 42
0.1061532262602322
 10
24.0903855460972
 20
1.503638901704541
 42
0.0703450477663066
 10
24.09782116357262
 20
1.473165125493061
 42
0.0566056099584688
 10
24.11623359545585
 20
1.438882953500626
 42
0.0566056099584683
 10
24.14186509567874
 20
1.409603077122828
 42
0.0703450477663069
 10
24.16778603574374
 20
1.39193830115554
 42
0.1061532262602343
 10
24.19614105501542
 20
1.38481215134457
 42
0.1615511064879549
 10
24.21484414661364
 20
1.390304485332158
 42
0.1615511064879543
 10
24.22655539592602
 20
1.405887104094923
 42
0.106153226260232
 10
24.22984192493762
 20
1.434938573181382
 42
0.0703450477663075
 10
24.22240630746221
 20
1.465412349392859
 42
0.0566056099584687
 10
24.20399387557897
 20
1.499694521385324
 42
0.05660560995847
 10
24.17836237535607
 20
1.528974397763114
 42
0.0703450477663058
 10
24.15244143529109
 20
1.546639173730388
 42
0.1061532262602316
 10
24.1240864160194
 20
1.553765323541377
 42
0.1615511064879538
  0
LWPOLYLINE
  5
324C
330
18
100
AcDbEntity
  8
Image
100
AcDbPolyline
 90
       16
 70
     1
 43
0.0
 10
23.80480558528242
 20
1.40997607159387
 42
0.0708989349029243
 10
23.78745868173335
 20
1.393895698364544
 42
0.0824870853856804
 10
23.77739010044768
 20
1.376191961055198
 42
0.1068139206260733
 10
23.77468203424483
 20
1.356931157641739
 42
0.1340008839894652
 10
23.77987930641198
 20
1.342217687747921
 42
0.1340008839894659
 10
23.79183013699271
 20
1.332183970454397
 42
0.106813920626075
 10
23.81081506008098
 20
1.327954920203695
 42
0.0824870853856831
 10
23.8309272004443
 20
1.3311643522143
 42
0.0708989349029243
 10
23.85207561651761
 20
1.341758594212922
 42
0.0708989349029259
 10
23.86942252006668
 20
1.357838967442262
 42
0.0824870853856834
 10
23.87949110135235
 20
1.375542704751602
 42
0.1068139206260768
 10
23.88219916755519
 20
1.39480350816507
 42
0.1340008839894672
 10
23.87700189538804
 20
1.409516978058873
 42
0.1340008839894638
 10
23.86505106480732
 20
1.419550695352411
 42
0.1068139206260751
 10
23.84606614171904
 20
1.423779745603128
 42
0.082487085385683
 10
23.82595400135573
 20
1.420570313592495
 42
0.0708989349029251
  0
LWPOLYLINE
  5
324D
330
18
100
AcDbEntity
  8
Image
100
AcDbPolyline
 90
       16
 70
     1
 43
0.0
 10
23.79274355746663
 20
1.53716608940048
 42
0.0846731520301792
 10
23.78797691598502
 20
1.565111587640547
 42
0.0916544813065032
 10
23.77493226160778
 20
1.5878584062785
 42
0.1036340346640379
 10
23.75468588619747
 20
1.60359711579528
 42
0.1140536254072521
 10
23.73193198958193
 20
1.608855851437497
 42
0.1140536254072534
 10
23.70917809296639
 20
1.60359711579528
 42
0.1036340346640368
 10
23.68893171755608
 20
1.5878584062785
 42
0.0916544813065076
 10
23.67588706317883
 20
1.565111587640547
 42
0.0846731520301862
 10
23.67112042169723
 20
1.53716608940048
 42
0.0846731520301835
 10
23.67588706317883
 20
1.509220591160437
 42
0.091654481306508
 10
23.68893171755608
 20
1.486473772522463
 42
0.103634034664036
 10
23.70917809296639
 20
1.470735063005701
 42
0.1140536254072547
 10
23.73193198958193
 20
1.465476327363458
 42
0.1140536254072534
 10
23.75468588619747
 20
1.470735063005701
 42
0.1036340346640367
 10
23.77493226160778
 20
1.486473772522463
 42
0.0916544813065066
 10
23.78797691598502
 20
1.509220591160437
 42
0.0846731520301858
  0
LWPOLYLINE
  5
324E
330
18
100
AcDbEntity
  8
Image
100
AcDbPolyline
 90
       16
 70
     1
 43
0.0
 10
23.51930382938581
 20
1.546629118130196
 42
0.1847277609904711
 10
23.52945536814821
 20
1.540872531873981
 42
0.1021404146396031
 10
23.55004901878853
 20
1.541966280912942
 42
0.0610262113808276
 10
23.57089057795177
 20
1.550255335227652
 42
0.0473278026433084
 10
23.59480593026642
 20
1.566442580317056
 42
0.0473278026433059
 10
23.61525073662039
 20
1.586838189478502
 42
0.0610262113808241
 10
23.62735657208568
 20
1.605720132108297
 42
0.1021404146396033
 10
23.63235153805866
 20
1.625728756463432
 42
0.1847277609904728
 10
23.62863321973253
 20
1.636790679144174
 42
0.1847277609904705
 10
23.61848168097015
 20
1.642547265400381
 42
0.1021404146396031
 10
23.59788803032982
 20
1.641453516361423
 42
0.0610262113808276
 10
23.57704647116658
 20
1.633164462046731
 42
0.0473278026433085
 10
23.55313111885193
 20
1.616977216957324
 42
0.0473278026433093
 10
23.53268631249796
 20
1.596581607795865
 42
0.0610262113808288
 10
23.52058047703267
 20
1.577699665166086
 42
0.1021404146396033
 10
23.51558551105968
 20
1.557691040810954
 42
0.1847277609904759
  0
LWPOLYLINE
  5
324F
330
18
100
AcDbEntity
  8
Image
100
AcDbPolyline
 90
       16
 70
     1
 43
0.0
 10
23.5504339768017
 20
1.495593588743784
 42
0.0708989349029243
 10
23.53308707325264
 20
1.479513215514458
 42
0.0824870853856804
 10
23.52301849196697
 20
1.46180947820511
 42
0.1068139206260733
 10
23.52031042576412
 20
1.442548674791658
 42
0.1340008839894652
 10
23.52550769793126
 20
1.427835204897835
 42
0.1340008839894659
 10
23.53745852851199
 20
1.417801487604309
 42
0.106813920626075
 10
23.55644345160027
 20
1.41357243735361
 42
0.0824870853856831
 10
23.57655559196358
 20
1.416781869364214
 42
0.0708989349029243
 10
23.5977040080369
 20
1.427376111362833
 42
0.0708989349029259
 10
23.61505091158596
 20
1.443456484592173
 42
0.0824870853856834
 10
23.62511949287164
 20
1.461160221901511
 42
0.1068139206260768
 10
23.62782755907448
 20
1.480421025314968
 42
0.1340008839894672
 10
23.62263028690734
 20
1.495134495208787
 42
0.1340008839894638
 10
23.61067945632661
 20
1.505168212502325
 42
0.1068139206260751
 10
23.59169453323833
 20
1.509397262753024
 42
0.082487085385683
 10
23.57158239287502
 20
1.506187830742407
 42
0.0708989349029251
  0
LWPOLYLINE
  5
3250
330
18
100
AcDbEntity
  8
Image
100
AcDbPolyline
 90
       16
 70
     1
 43
0.0
 10
23.73878135674299
 20
1.373776904059617
 42
0.0846731520301792
 10
23.73401471526139
 20
1.401722402299671
 42
0.0916544813065032
 10
23.72097006088415
 20
1.424469220937637
 42
0.1036340346640379
 10
23.70072368547384
 20
1.440207930454401
 42
0.1140536254072521
 10
23.6779697888583
 20
1.445466666096642
 42
0.1140536254072534
 10
23.65521589224275
 20
1.440207930454401
 42
0.1036340346640368
 10
23.63496951683244
 20
1.424469220937637
 42
0.0916544813065076
 10
23.6219248624552
 20
1.401722402299671
 42
0.0846731520301862
 10
23.6171582209736
 20
1.373776904059617
 42
0.0846731520301835
 10
23.6219248624552
 20
1.345831405819574
 42
0.091654481306508
 10
23.63496951683244
 20
1.323084587181584
 42
0.103634034664036
 10
23.65521589224275
 20
1.307345877664822
 42
0.1140536254072547
 10
23.6779697888583
 20
1.302087142022606
 42
0.1140536254072534
 10
23.70072368547385
 20
1.307345877664822
 42
0.1036340346640367
 10
23.72097006088415
 20
1.323084587181584
 42
0.0916544813065066
 10
23.73401471526139
 20
1.345831405819574
 42
0.0846731520301858
  0
LWPOLYLINE
  5
3251
330
18
100
AcDbEntity
  8
Image
100
AcDbPolyline
 90
       16
 70
     1
 43
0.0
 10
23.40460048274333
 20
1.621362417832332
 42
0.1833035428166229
 10
23.39972630301444
 20
1.613012444298463
 42
0.1024612315138192
 10
23.40037578770281
 20
1.59611455888554
 42
0.0615734602679465
 10
23.40694695130226
 20
1.578949897599782
 42
0.0478438451985803
 10
23.41997375308652
 20
1.559248843470274
 42
0.0478438451985776
 10
23.43650759713298
 20
1.542382868859013
 42
0.061573460267943
 10
23.45191415656759
 20
1.532360707690188
 42
0.1024612315138217
 10
23.46830076466197
 20
1.528184652500282
 42
0.1833035428166229
 10
23.47748674297447
 20
1.531200856818346
 42
0.1833035428166234
 10
23.48236092270336
 20
1.539550830352255
 42
0.102461231513819
 10
23.48171143801498
 20
1.55644871576515
 42
0.0615734602679484
 10
23.47514027441554
 20
1.573613377050917
 42
0.0478438451985819
 10
23.46211347263129
 20
1.593314431180425
 42
0.0478438451985799
 10
23.44557962858482
 20
1.610180405791696
 42
0.0615734602679431
 10
23.43017306915021
 20
1.620202566960506
 42
0.1024612315138189
 10
23.41378646105583
 20
1.624378622150414
 42
0.183303542816622
  0
LWPOLYLINE
  5
3252
330
18
100
AcDbEntity
  8
Image
100
AcDbPolyline
 90
       16
 70
     1
 43
0.0
 10
24.01133329439307
 20
1.642211070640386
 42
0.1096021439183502
 10
23.98259936876087
 20
1.637311868061771
 42
0.1024204874116924
 10
23.95674251879248
 20
1.619949027207442
 42
0.0936695383243779
 10
23.93916939222667
 20
1.593619588621795
 42
0.0882994724157594
 10
23.93166514163254
 20
1.560921792874461
 42
0.088299472415759
 10
23.93590388353222
 20
1.527642780106321
 42
0.0936695383243767
 10
23.95079115034479
 20
1.499706720964342
 42
0.1024204874116938
 10
23.97480708467446
 20
1.479875436812949
 42
0.1096021439183517
 10
24.00291678841967
 20
1.472162770380391
 42
0.109602143918351
 10
24.03165071405188
 20
1.477061972959007
 42
0.1024204874116929
 10
24.05750756402026
 20
1.494424813813341
 42
0.0936695383243769
 10
24.07508069058607
 20
1.520754252398986
 42
0.0882994724157586
 10
24.0825849411802
 20
1.553452048146314
 42
0.0882994724157589
 10
24.07834619928053
 20
1.586731060914454
 42
0.0936695383243761
 10
24.06345893246796
 20
1.614667120056436
 42
0.102420487411692
 10
24.03944299813828
 20
1.634498404207834
 42
0.1096021439183503
  0
LWPOLYLINE
  5
3253
330
18
100
AcDbEntity
  8
Image
100
AcDbPolyline
 90
       16
 70
     1
 43
0.0
 10
23.99774756973302
 20
1.434841711967488
 42
0.1615511064879552
 10
23.98603632042063
 20
1.419259093204714
 42
0.1061532262602322
 10
23.98274979140903
 20
1.39020762411825
 42
0.0703450477663066
 10
23.99018540888445
 20
1.35973384790677
 42
0.0566056099584688
 10
24.00859784076767
 20
1.325451675914327
 42
0.0566056099584683
 10
24.03422934099057
 20
1.29617179953654
 42
0.0703450477663069
 10
24.06015028105556
 20
1.27850702356926
 42
0.1061532262602343
 10
24.08850530032725
 20
1.271380873758287
 42
0.1615511064879549
 10
24.10720839192546
 20
1.276873207745858
 42
0.1615511064879543
 10
24.11891964123785
 20
1.29245582650864
 42
0.106153226260232
 10
24.12220617024945
 20
1.321507295595101
 42
0.0703450477663075
 10
24.11477055277403
 20
1.351981071806579
 42
0.0566056099584687
 10
24.0963581208908
 20
1.386263243799027
 42
0.05660560995847
 10
24.07072662066791
 20
1.415543120176812
 42
0.0703450477663058
 10
24.04480568060291
 20
1.43320789614411
 42
0.1061532262602316
 10
24.01645066133123
 20
1.440334045955081
 42
0.1615511064879538
  0
LWPOLYLINE
  5
3254
330
18
100
AcDbEntity
  8
Image
100
AcDbPolyline
 90
       16
 70
     1
 43
0.0
 10
24.54556549024422
 20
1.414095494745068
 42
0.0708989349029243
 10
24.52821858669516
 20
1.398015121515744
 42
0.0824870853856804
 10
24.51815000540948
 20
1.380311384206394
 42
0.1068139206260733
 10
24.51544193920663
 20
1.361050580792942
 42
0.1340008839894652
 10
24.52063921137379
 20
1.34633711089912
 42
0.1340008839894659
 10
24.53259004195451
 20
1.336303393605595
 42
0.106813920626075
 10
24.55157496504278
 20
1.332074343354894
 42
0.0824870853856831
 10
24.5716871054061
 20
1.335283775365498
 42
0.0708989349029243
 10
24.59283552147941
 20
1.34587801736412
 42
0.0708989349029259
 10
24.61018242502849
 20
1.361958390593457
 42
0.0824870853856834
 10
24.62025100631416
 20
1.379662127902797
 42
0.1068139206260768
 10
24.622959072517
 20
1.398922931316252
 42
0.1340008839894672
 10
24.61776180034985
 20
1.413636401210074
 42
0.1340008839894638
 10
24.60581096976913
 20
1.423670118503609
 42
0.1068139206260751
 10
24.58682604668085
 20
1.427899168754311
 42
0.082487085385683
 10
24.56671390631754
 20
1.424689736743693
 42
0.0708989349029251
  0
LWPOLYLINE
  5
3255
330
18
100
AcDbEntity
  8
Image
100
AcDbPolyline
 90
       16
 70
     1
 43
0.0
 10
24.57043688088728
 20
1.533753881781044
 42
0.1833035428166229
 10
24.56556270115838
 20
1.525403908247154
 42
0.1024612315138192
 10
24.56621218584677
 20
1.508506022834243
 42
0.0615734602679465
 10
24.57278334944621
 20
1.491341361548478
 42
0.0478438451985803
 10
24.58581015123048
 20
1.471640307418965
 42
0.0478438451985776
 10
24.60234399527692
 20
1.454774332807712
 42
0.061573460267943
 10
24.61775055471154
 20
1.44475217163889
 42
0.1024612315138217
 10
24.63413716280591
 20
1.440576116448981
 42
0.1833035428166229
 10
24.64332314111842
 20
1.443592320767064
 42
0.1833035428166234
 10
24.64819732084732
 20
1.451942294300951
 42
0.102461231513819
 10
24.64754783615894
 20
1.46884017971385
 42
0.0615734602679484
 10
24.64097667255949
 20
1.486004840999624
 42
0.0478438451985819
 10
24.62794987077523
 20
1.505705895129138
 42
0.0478438451985799
 10
24.61141602672878
 20
1.522571869740393
 42
0.0615734602679431
 10
24.59600946729417
 20
1.5325940309092
 42
0.1024612315138189
 10
24.57962285919978
 20
1.536770086099124
 42
0.183303542816622
  0
LWPOLYLINE
  5
3256
330
18
100
AcDbEntity
  8
Image
100
AcDbPolyline
 90
       16
 70
     1
 43
0.0
 10
24.34053775916726
 20
1.550230392677418
 42
0.0846731520301792
 10
24.33577111768565
 20
1.578175890917483
 42
0.0916544813065032
 10
24.32272646330841
 20
1.600922709555454
 42
0.1036340346640379
 10
24.3024800878981
 20
1.616661419072197
 42
0.1140536254072521
 10
24.27972619128256
 20
1.621920154714437
 42
0.1140536254072534
 10
24.25697229466701
 20
1.616661419072197
 42
0.1036340346640368
 10
24.2367259192567
 20
1.600922709555454
 42
0.0916544813065076
 10
24.22368126487946
 20
1.578175890917483
 42
0.0846731520301862
 10
24.21891462339786
 20
1.550230392677418
 42
0.0846731520301835
 10
24.22368126487946
 20
1.522284894437372
 42
0.091654481306508
 10
24.2367259192567
 20
1.499538075799401
 42
0.103634034664036
 10
24.25697229466701
 20
1.483799366282642
 42
0.1140536254072547
 10
24.27972619128256
 20
1.478540630640402
 42
0.1140536254072534
 10
24.3024800878981
 20
1.483799366282642
 42
0.1036340346640367
 10
24.32272646330841
 20
1.499538075799401
 42
0.0916544813065066
 10
24.33577111768565
 20
1.522284894437372
 42
0.0846731520301858
  0
LWPOLYLINE
  5
3257
330
18
100
AcDbEntity
  8
Image
100
AcDbPolyline
 90
       16
 70
     1
 43
0.0
 10
24.38511558477002
 20
1.652420133772744
 42
0.1615511064879552
 10
24.37340433545764
 20
1.636837515009979
 42
0.1061532262602322
 10
24.37011780644603
 20
1.607786045923515
 42
0.0703450477663066
 10
24.37755342392145
 20
1.57731226971204
 42
0.0566056099584688
 10
24.39596585580468
 20
1.543030097719591
 42
0.0566056099584683
 10
24.42159735602758
 20
1.513750221341804
 42
0.0703450477663069
 10
24.44751829609257
 20
1.496085445374495
 42
0.1061532262602343
 10
24.47587331536425
 20
1.488959295563527
 42
0.1615511064879549
 10
24.49457640696246
 20
1.494451629551131
 42
0.1615511064879543
 10
24.50628765627485
 20
1.510034248313894
 42
0.106153226260232
 10
24.50957418528645
 20
1.539085717400361
 42
0.0703450477663075
 10
24.50213856781103
 20
1.569559493611817
 42
0.0566056099584687
 10
24.48372613592781
 20
1.603841665604281
 42
0.05660560995847
 10
24.45809463570491
 20
1.633121541982071
 42
0.0703450477663058
 10
24.43217369563992
 20
1.650786317949362
 42
0.1061532262602316
 10
24.40381867636823
 20
1.657912467760335
 42
0.1615511064879538
  0
LWPOLYLINE
  5
3258
330
18
100
AcDbEntity
  8
Image
100
AcDbPolyline
 90
       16
 70
     1
 43
0.0
 10
24.40489229181912
 20
1.452785397613609
 42
0.1833035428166229
 10
24.40001811209023
 20
1.444435424079727
 42
0.1024612315138192
 10
24.40066759677861
 20
1.427537538666807
 42
0.0615734602679465
 10
24.40723876037806
 20
1.410372877381046
 42
0.0478438451985803
 10
24.42026556216231
 20
1.390671823251538
 42
0.0478438451985776
 10
24.43679940620878
 20
1.373805848640279
 42
0.061573460267943
 10
24.45220596564338
 20
1.363783687471451
 42
0.1024612315138217
 10
24.46859257373776
 20
1.359607632281548
 42
0.1833035428166229
 10
24.47777855205026
 20
1.362623836599634
 42
0.1833035428166234
 10
24.48265273177916
 20
1.370973810133519
 42
0.102461231513819
 10
24.48200324709077
 20
1.387871695546417
 42
0.0615734602679484
 10
24.47543208349134
 20
1.405036356832194
 42
0.0478438451985819
 10
24.46240528170708
 20
1.424737410961707
 42
0.0478438451985799
 10
24.44587143766062
 20
1.441603385572963
 42
0.0615734602679431
 10
24.43046487822601
 20
1.451625546741772
 42
0.1024612315138189
 10
24.41407827013163
 20
1.455801601931691
 42
0.183303542816622
  0
LWPOLYLINE
  5
3259
330
18
100
AcDbEntity
  8
Image
100
AcDbPolyline
 90
       16
 70
     1
 43
0.0
 10
24.37158116367613
 20
1.384579674945876
 42
0.0846731520301792
 10
24.36681452219454
 20
1.412525173185922
 42
0.0916544813065032
 10
24.3537698678173
 20
1.435271991823896
 42
0.1036340346640379
 10
24.33352349240699
 20
1.451010701340658
 42
0.1140536254072521
 10
24.31076959579145
 20
1.456269436982901
 42
0.1140536254072534
 10
24.28801569917591
 20
1.451010701340658
 42
0.1036340346640368
 10
24.2677693237656
 20
1.435271991823896
 42
0.0916544813065076
 10
24.25472466938835
 20
1.412525173185922
 42
0.0846731520301862
 10
24.24995802790675
 20
1.384579674945876
 42
0.0846731520301835
 10
24.25472466938835
 20
1.356634176705812
 42
0.091654481306508
 10
24.2677693237656
 20
1.333887358067843
 42
0.103634034664036
 10
24.28801569917591
 20
1.318148648551079
 42
0.1140536254072547
 10
24.31076959579145
 20
1.312889912908844
 42
0.1140536254072534
 10
24.33352349240699
 20
1.318148648551079
 42
0.1036340346640367
 10
24.3537698678173
 20
1.333887358067843
 42
0.0916544813065066
 10
24.36681452219454
 20
1.356634176705812
 42
0.0846731520301858
  0
LWPOLYLINE
  5
325A
330
18
100
AcDbEntity
  8
Image
100
AcDbPolyline
 90
       16
 70
     1
 43
0.0
 10
24.66743641773168
 20
1.598123793966784
 42
0.1833035428166229
 10
24.66256223800278
 20
1.589773820432891
 42
0.1024612315138192
 10
24.66321172269116
 20
1.57287593501998
 42
0.0615734602679465
 10
24.66978288629061
 20
1.555711273734216
 42
0.0478438451985803
 10
24.68280968807487
 20
1.536010219604705
 42
0.0478438451985776
 10
24.69934353212133
 20
1.519144244993449
 42
0.061573460267943
 10
24.71475009155593
 20
1.509122083824643
 42
0.1024612315138217
 10
24.73113669965032
 20
1.504946028634718
 42
0.1833035428166229
 10
24.74032267796282
 20
1.507962232952798
 42
0.1833035428166234
 10
24.74519685769171
 20
1.516312206486691
 42
0.102461231513819
 10
24.74454737300332
 20
1.533210091899592
 42
0.0615734602679484
 10
24.73797620940389
 20
1.550374753185367
 42
0.0478438451985819
 10
24.72494940761963
 20
1.570075807314875
 42
0.0478438451985799
 10
24.70841556357317
 20
1.58694178192613
 42
0.0615734602679431
 10
24.69300900413857
 20
1.596963943094942
 42
0.1024612315138189
 10
24.67662239604418
 20
1.601139998284859
 42
0.183303542816622
  0
LINE
  5
325B
330
18
100
AcDbEntity
  8
Image
100
AcDbLine
 10
26.75796467152155
 20
1.864587607673996
 30
0.0
 11
26.75796467152126
 21
1.664611956731283
 31
0.0
  0
LINE
  5
325C
330
18
100
AcDbEntity
  8
Image
100
AcDbLine
 10
26.55669455992336
 20
1.864587607673996
 30
0.0
 11
26.56847918408782
 21
1.664611956731283
 31
0.0
  0
LWPOLYLINE
  5
325E
330
18
100
AcDbEntity
  8
Image
100
AcDbPolyline
 90
        2
 70
     0
 43
0.0
 10
26.363380972583
 20
1.650282530133898
 10
26.98816192405963
 20
1.371171079905021
  0
LWPOLYLINE
  5
325F
330
18
100
AcDbEntity
  8
Image
100
AcDbPolyline
 90
        2
 70
     0
 43
0.0
 10
26.363380972583
 20
1.371171079905021
 10
26.98816192405963
 20
1.650282530133904
  0
LINE
  5
3260
330
18
100
AcDbEntity
  8
Image
100
AcDbLine
 10
26.36338097258299
 20
1.371171079905021
 30
0.0
 11
26.98816192405963
 21
1.371171079905021
 31
0.0
  0
LINE
  5
3261
330
18
100
AcDbEntity
  8
Image
100
AcDbLine
 10
26.98816192405963
 20
1.650282530133904
 30
0.0
 11
26.36338097258299
 21
1.650282530133898
 31
0.0
  0
LWPOLYLINE
  5
3262
330
18
100
AcDbEntity
  8
Image
100
AcDbPolyline
 90
       16
 70
     1
 43
0.0
 10
25.722636501928
 20
1.423373075909472
 42
0.0846731520301792
 10
25.7178698604464
 20
1.451318574149518
 42
0.0916544813065032
 10
25.70482520606915
 20
1.474065392787492
 42
0.1036340346640379
 10
25.68457883065886
 20
1.489804102304251
 42
0.1140536254072521
 10
25.66182493404329
 20
1.495062837946488
 42
0.1140536254072534
 10
25.63907103742775
 20
1.489804102304251
 42
0.1036340346640368
 10
25.61882466201745
 20
1.474065392787492
 42
0.0916544813065076
 10
25.60578000764021
 20
1.451318574149518
 42
0.0846731520301862
 10
25.60101336615861
 20
1.423373075909472
 42
0.0846731520301835
 10
25.60578000764021
 20
1.395427577669408
 42
0.091654481306508
 10
25.61882466201745
 20
1.372680759031436
 42
0.103634034664036
 10
25.63907103742775
 20
1.356942049514688
 42
0.1140536254072547
 10
25.66182493404329
 20
1.35168331387245
 42
0.1140536254072534
 10
25.68457883065886
 20
1.356942049514688
 42
0.1036340346640367
 10
25.70482520606915
 20
1.372680759031436
 42
0.0916544813065066
 10
25.7178698604464
 20
1.395427577669408
 42
0.0846731520301858
  0
LWPOLYLINE
  5
3263
330
18
100
AcDbEntity
  8
Image
100
AcDbPolyline
 90
       16
 70
     1
 43
0.0
 10
25.53542802915432
 20
1.667852437955038
 42
0.1833035428166229
 10
25.53055384942544
 20
1.659502464421148
 42
0.1024612315138192
 10
25.53120333411381
 20
1.642604579008247
 42
0.0615734602679465
 10
25.53777449771325
 20
1.625439917722472
 42
0.0478438451985803
 10
25.5508012994975
 20
1.605738863592975
 42
0.0478438451985776
 10
25.56733514354397
 20
1.588872888981703
 42
0.061573460267943
 10
25.58274170297858
 20
1.578850727812897
 42
0.1024612315138217
 10
25.59912831107296
 20
1.574674672622972
 42
0.1833035428166229
 10
25.60831428938547
 20
1.577690876941058
 42
0.1833035428166234
 10
25.61318846911435
 20
1.586040850474945
 42
0.102461231513819
 10
25.61253898442598
 20
1.602938735887843
 42
0.0615734602679484
 10
25.60596782082653
 20
1.620103397173618
 42
0.0478438451985819
 10
25.59294101904228
 20
1.639804451303118
 42
0.0478438451985799
 10
25.57640717499582
 20
1.656670425914374
 42
0.0615734602679431
 10
25.5610006155612
 20
1.666692587083196
 42
0.1024612315138189
 10
25.54461400746681
 20
1.670868642273116
 42
0.183303542816622
  0
LWPOLYLINE
  5
3264
330
18
100
AcDbEntity
  8
Image
100
AcDbPolyline
 90
       16
 70
     1
 43
0.0
 10
25.52006969835483
 20
1.541212142913286
 42
0.0708989349029243
 10
25.50272279480575
 20
1.525131769683963
 42
0.0824870853856804
 10
25.49265421352008
 20
1.507428032374614
 42
0.1068139206260733
 10
25.48994614731724
 20
1.488167228961155
 42
0.1340008839894652
 10
25.49514341948439
 20
1.473453759067335
 42
0.1340008839894659
 10
25.50709425006511
 20
1.463420041773813
 42
0.106813920626075
 10
25.52607917315339
 20
1.459190991523109
 42
0.0824870853856831
 10
25.5461913135167
 20
1.462400423533716
 42
0.0708989349029243
 10
25.56733972959001
 20
1.472994665532338
 42
0.0708989349029259
 10
25.58468663313908
 20
1.489075038761678
 42
0.0824870853856834
 10
25.59475521442475
 20
1.506778776071016
 42
0.1068139206260768
 10
25.5974632806276
 20
1.526039579484475
 42
0.1340008839894672
 10
25.59226600846045
 20
1.540753049378289
 42
0.1340008839894638
 10
25.58031517787973
 20
1.550786766671833
 42
0.1068139206260751
 10
25.56133025479145
 20
1.555015816922532
 42
0.082487085385683
 10
25.54121811442814
 20
1.551806384911911
 42
0.0708989349029251
  0
LWPOLYLINE
  5
3265
330
18
100
AcDbEntity
  8
Image
100
AcDbPolyline
 90
       16
 70
     1
 43
0.0
 10
26.18383356991625
 20
1.463244549387037
 42
0.0708989349029243
 10
26.16648666636718
 20
1.447164176157713
 42
0.0824870853856804
 10
26.15641808508151
 20
1.429460438848362
 42
0.1068139206260733
 10
26.15371001887868
 20
1.410199635434911
 42
0.1340008839894652
 10
26.15890729104581
 20
1.395486165541091
 42
0.1340008839894659
 10
26.17085812162654
 20
1.385452448247564
 42
0.106813920626075
 10
26.18984304471482
 20
1.381223397996862
 42
0.0824870853856831
 10
26.20995518507814
 20
1.384432830007469
 42
0.0708989349029243
 10
26.23110360115145
 20
1.395027072006091
 42
0.0708989349029259
 10
26.24845050470051
 20
1.411107445235431
 42
0.0824870853856834
 10
26.25851908598618
 20
1.428811182544769
 42
0.1068139206260768
 10
26.26122715218904
 20
1.448071985958226
 42
0.1340008839894672
 10
26.25602988002189
 20
1.462785455852043
 42
0.1340008839894638
 10
26.24407904944116
 20
1.472819173145583
 42
0.1068139206260751
 10
26.22509412635289
 20
1.477048223396282
 42
0.082487085385683
 10
26.20498198598957
 20
1.473838791385664
 42
0.0708989349029251
  0
LWPOLYLINE
  5
3266
330
18
100
AcDbEntity
  8
Image
100
AcDbPolyline
 90
       16
 70
     1
 43
0.0
 10
26.15919613434837
 20
1.652799580117026
 42
0.1615511064879552
 10
26.14748488503598
 20
1.637216961354261
 42
0.1061532262602322
 10
26.14419835602438
 20
1.6081654922678
 42
0.0703450477663066
 10
26.15163397349979
 20
1.577691716056322
 42
0.0566056099584688
 10
26.17004640538303
 20
1.543409544063876
 42
0.0566056099584683
 10
26.19567790560593
 20
1.514129667686086
 42
0.0703450477663069
 10
26.22159884567092
 20
1.496464891718793
 42
0.1061532262602343
 10
26.2499538649426
 20
1.48933874190782
 42
0.1615511064879549
 10
26.26865695654082
 20
1.494831075895416
 42
0.1615511064879543
 10
26.2803682058532
 20
1.510413694658171
 42
0.106153226260232
 10
26.2836547348648
 20
1.539465163744642
 42
0.0703450477663075
 10
26.27621911738939
 20
1.569938939956109
 42
0.0566056099584687
 10
26.25780668550615
 20
1.604221111948574
 42
0.05660560995847
 10
26.23217518528325
 20
1.633500988326353
 42
0.0703450477663058
 10
26.20625424521826
 20
1.651165764293644
 42
0.1061532262602316
 10
26.17789922594658
 20
1.658291914104611
 42
0.1615511064879538
  0
LWPOLYLINE
  5
3267
330
18
100
AcDbEntity
  8
Image
100
AcDbPolyline
 90
       16
 70
     1
 43
0.0
 10
25.70656621559228
 20
1.645977647378554
 42
0.0708989349029243
 10
25.6892193120432
 20
1.629897274149228
 42
0.0824870853856804
 10
25.67915073075753
 20
1.61219353683988
 42
0.1068139206260733
 10
25.6764426645547
 20
1.592932733426426
 42
0.1340008839894652
 10
25.68163993672182
 20
1.578219263532606
 42
0.1340008839894659
 10
25.69359076730256
 20
1.568185546239081
 42
0.106813920626075
 10
25.71257569039084
 20
1.56395649598838
 42
0.0824870853856831
 10
25.73268783075415
 20
1.567165927998981
 42
0.0708989349029243
 10
25.75383624682746
 20
1.577760169997606
 42
0.0708989349029259
 10
25.77118315037654
 20
1.593840543226946
 42
0.0824870853856834
 10
25.7812517316622
 20
1.611544280536283
 42
0.1068139206260768
 10
25.78395979786505
 20
1.630805083949743
 42
0.1340008839894672
 10
25.7787625256979
 20
1.64551855384356
 42
0.1340008839894638
 10
25.76681169511717
 20
1.655552271137098
 42
0.1068139206260751
 10
25.74782677202891
 20
1.659781321387799
 42
0.082487085385683
 10
25.72771463166558
 20
1.656571889377179
 42
0.0708989349029251
  0
LWPOLYLINE
  5
3268
330
18
100
AcDbEntity
  8
Image
100
AcDbPolyline
 90
       16
 70
     1
 43
0.0
 10
25.7265098782731
 20
1.518843557096823
 42
0.1833035428166229
 10
25.72163569854422
 20
1.510493583562936
 42
0.1024612315138192
 10
25.72228518323258
 20
1.493595698150037
 42
0.0615734602679465
 10
25.72885634683203
 20
1.476431036864263
 42
0.0478438451985803
 10
25.74188314861629
 20
1.456729982734757
 42
0.0478438451985776
 10
25.75841699266275
 20
1.439864008123505
 42
0.061573460267943
 10
25.77382355209735
 20
1.429841846954682
 42
0.1024612315138217
 10
25.79021016019174
 20
1.42566579176476
 42
0.1833035428166229
 10
25.79939613850425
 20
1.428681996082843
 42
0.1833035428166234
 10
25.80427031823314
 20
1.43703196961673
 42
0.102461231513819
 10
25.80362083354476
 20
1.453929855029631
 42
0.0615734602679484
 10
25.79704966994532
 20
1.471094516315403
 42
0.0478438451985819
 10
25.78402286816105
 20
1.490795570444908
 42
0.0478438451985799
 10
25.76748902411459
 20
1.507661545056175
 42
0.0615734602679431
 10
25.75208246467998
 20
1.517683706224981
 42
0.1024612315138189
 10
25.7356958565856
 20
1.521859761414906
 42
0.183303542816622
  0
LWPOLYLINE
  5
3269
330
18
100
AcDbEntity
  8
Image
100
AcDbPolyline
 90
       16
 70
     1
 43
0.0
 10
25.88653813357447
 20
1.654506663668028
 42
0.0708989349029243
 10
25.8691912300254
 20
1.638426290438701
 42
0.0824870853856804
 10
25.85912264873972
 20
1.620722553129353
 42
0.1068139206260733
 10
25.85641458253688
 20
1.601461749715896
 42
0.1340008839894652
 10
25.86161185470403
 20
1.586748279822074
 42
0.1340008839894659
 10
25.87356268528475
 20
1.576714562528552
 42
0.106813920626075
 10
25.89254760837302
 20
1.572485512277848
 42
0.0824870853856831
 10
25.91265974873634
 20
1.575694944288455
 42
0.0708989349029243
 10
25.93380816480966
 20
1.586289186287077
 42
0.0708989349029259
 10
25.95115506835873
 20
1.602369559516417
 42
0.0824870853856834
 10
25.96122364964439
 20
1.620073296825754
 42
0.1068139206260768
 10
25.96393171584724
 20
1.639334100239214
 42
0.1340008839894672
 10
25.95873444368008
 20
1.654047570133028
 42
0.1340008839894638
 10
25.94678361309938
 20
1.664081287426571
 42
0.1068139206260751
 10
25.92779869001109
 20
1.66831033767727
 42
0.082487085385683
 10
25.90768654964779
 20
1.66510090566665
 42
0.0708989349029251
  0
LWPOLYLINE
  5
326A
330
18
100
AcDbEntity
  8
Image
100
AcDbPolyline
 90
       16
 70
     1
 43
0.0
 10
25.86157953835891
 20
1.502501607019007
 42
0.1615511064879552
 10
25.84986828904654
 20
1.486918988256244
 42
0.1061532262602322
 10
25.84658176003492
 20
1.457867519169782
 42
0.0703450477663066
 10
25.85401737751034
 20
1.427393742958305
 42
0.0566056099584688
 10
25.87242980939358
 20
1.393111570965856
 42
0.0566056099584683
 10
25.89806130961648
 20
1.363831694588069
 42
0.0703450477663069
 10
25.92398224968146
 20
1.346166918620773
 42
0.1061532262602343
 10
25.95233726895315
 20
1.339040768809803
 42
0.1615511064879549
 10
25.97104036055137
 20
1.344533102797396
 42
0.1615511064879543
 10
25.98275160986375
 20
1.360115721560154
 42
0.106153226260232
 10
25.98603813887535
 20
1.389167190646625
 42
0.0703450477663075
 10
25.97860252139993
 20
1.419640966858092
 42
0.0566056099584687
 10
25.96019008951671
 20
1.453923138850557
 42
0.05660560995847
 10
25.93455858929381
 20
1.483203015228336
 42
0.0703450477663058
 10
25.90863764922881
 20
1.500867791195627
 42
0.1061532262602316
 10
25.88028262995713
 20
1.507993941006595
 42
0.1615511064879538
  0
LWPOLYLINE
  5
326B
330
18
100
AcDbEntity
  8
Image
100
AcDbPolyline
 90
       16
 70
     1
 43
0.0
 10
26.05923235580471
 20
1.568760644186599
 42
0.1833035428166229
 10
26.05435817607582
 20
1.560410670652708
 42
0.1024612315138192
 10
26.0550076607642
 20
1.543512785239794
 42
0.0615734602679465
 10
26.06157882436364
 20
1.526348123954035
 42
0.0478438451985803
 10
26.0746056261479
 20
1.506647069824522
 42
0.0478438451985776
 10
26.09113947019434
 20
1.489781095213269
 42
0.061573460267943
 10
26.10654602962896
 20
1.47975893404446
 42
0.1024612315138217
 10
26.12293263772334
 20
1.475582878854538
 42
0.1833035428166229
 10
26.13211861603585
 20
1.478599083172616
 42
0.1833035428166234
 10
26.13699279576474
 20
1.486949056706506
 42
0.102461231513819
 10
26.13634331107637
 20
1.503846942119407
 42
0.0615734602679484
 10
26.12977214747692
 20
1.521011603405187
 42
0.0478438451985819
 10
26.11674534569266
 20
1.540712657534694
 42
0.0478438451985799
 10
26.1002115016462
 20
1.557578632145937
 42
0.0615734602679431
 10
26.0848049422116
 20
1.567600793314757
 42
0.1024612315138189
 10
26.06841833411721
 20
1.571776848504681
 42
0.183303542816622
  0
LINE
  5
326C
330
18
100
AcDbEntity
  8
Image
100
AcDbLine
 10
26.36338097258299
 20
1.650282530133898
 30
0.0
 11
26.36338097258299
 21
1.371171079905021
 31
0.0
  0
LINE
  5
326D
330
18
100
AcDbEntity
  8
Image
100
AcDbLine
 10
26.75796467152126
 20
1.664611956731283
 30
0.0
 11
26.5684791840881
 21
1.664611956731283
 31
0.0
  0
LINE
  5
326E
330
18
100
AcDbEntity
  8
Image
100
AcDbLine
 10
26.98816192405963
 20
1.371171079905021
 30
0.0
 11
26.98816192405963
 21
1.650282530133898
 31
0.0
  0
LWPOLYLINE
  5
326F
330
18
100
AcDbEntity
  8
Image
100
AcDbPolyline
 90
        4
 70
     0
 43
0.0
 10
26.90809753429541
 20
2.252478853281598
 42
-0.7006559369241782
 10
26.90809753429541
 20
2.058533230477796
 42
0.700655936924184
 10
26.90809753429541
 20
1.864587607673993
 42
0.6576649053447458
 10
26.90809753429541
 20
2.058533230477684
 42
0.6576649053447458
  0
LWPOLYLINE
  5
3270
330
18
100
AcDbEntity
  8
Image
100
AcDbPolyline
 90
        3
 70
     0
 43
0.0
 10
23.65182736456801
 20
1.838499962928237
 10
24.55129183792406
 20
1.838499962928237
 10
24.55129183792406
 20
1.89742506850923
  0
LWPOLYLINE
  5
3271
330
18
100
AcDbEntity
  8
Image
100
AcDbPolyline
 90
        3
 70
     0
 43
0.0
 10
23.65182736456801
 20
1.838499962928237
 10
23.40799235857486
 20
1.838499962928237
 10
23.40799235857486
 20
1.89742506850923
  0
LWPOLYLINE
  5
3272
330
18
100
AcDbEntity
  8
Image
100
AcDbPolyline
 90
        2
 70
     0
 43
0.0
 10
23.40803562761009
 20
1.89742506850923
 10
23.40803562761009
 20
2.141992695339337
  0
LWPOLYLINE
  5
3273
330
18
100
AcDbEntity
  8
Image
100
AcDbPolyline
 90
        2
 70
     0
 43
0.0
 10
24.551336587895
 20
1.89742506850923
 10
24.551336587895
 20
2.129020345276861
  0
LWPOLYLINE
  5
328A
330
18
100
AcDbEntity
  8
Image
100
AcDbPolyline
 90
       12
 70
     0
 43
0.0
 10
25.6637512600317
 20
3.567990496176427
 10
25.68177581320326
 20
3.086576911552577
 10
25.73322193436622
 20
2.631129109495046
 10
25.81783555872496
 20
2.194292688073335
 10
25.93390059723486
 20
1.78493129128534
 10
26.0508047090129
 20
1.411351982321336
 10
26.20515895741376
 20
1.08113675481891
 10
26.38891400617033
 20
0.8009891891698973
 10
26.65707207501006
 20
0.5523179067599067
 10
26.88421069688188
 20
0.4124976794867657
 10
27.12115891054148
 20
0.3120386302090476
 10
27.36310860116819
 20
0.2772542229457171
  0
LWPOLYLINE
  5
3293
330
18
100
AcDbEntity
  8
Image
100
AcDbPolyline
 90
       24
 70
     1
 43
0.009
 10
25.73482102125505
 20
3.352213657696458
 10
25.75148802125506
 20
3.354991657696458
 10
25.76815402125506
 20
3.363325657696459
 10
25.78204302125506
 20
3.377213657696459
 10
25.79037702125505
 20
3.391102657696458
 10
25.79315402125506
 20
3.410547657696459
 10
25.79315402125506
 20
4.224436657696457
 10
25.79037702125505
 20
4.241102657696457
 10
25.78204302125506
 20
4.257769657696459
 10
25.76815402125506
 20
4.271658657696458
 10
25.75426602125506
 20
4.279991657696458
 10
25.73482102125505
 20
4.282769657696458
 10
25.50426602125506
 20
4.282769657696458
 10
25.48759902125506
 20
4.279991657696458
 10
25.47093202125505
 20
4.271658657696458
 10
25.45704302125505
 20
4.257769657696459
 10
25.44871002125505
 20
4.243880657696457
 10
25.44593202125505
 20
4.224436657696457
 10
25.44593202125505
 20
3.410547657696459
 10
25.44871002125505
 20
3.393880657696459
 10
25.45704302125505
 20
3.377213657696459
 10
25.47093202125505
 20
3.363325657696459
 10
25.48482102125505
 20
3.354991657696458
 10
25.50426602125506
 20
3.352213657696458
  0
INSERT
  5
32C8
330
18
100
AcDbEntity
  8
DEFPOINTS
100
AcDbBlockReference
  2
pagesetups
 10
0.0
 20
0.0
 30
0.0
  0
ENDSEC
  0
SECTION
  2
OBJECTS
  0
DICTIONARY
  5
C
330
0
100
AcDbDictionary
281
     1
  3
ACAD_GROUP
350
D
  3
ACAD_LAYOUT
350
1804
  3
ACAD_MLINESTYLE
350
1B
  3
ACAD_PLOTSETTINGS
350
1805
  3
ACAD_PLOTSTYLENAME
350
1802
  3
AcDbVariableDictionary
350
20F3
  3
ASE_INDEX_DICTIONARY
350
329C
  0
DICTIONARY
  5
32E2
330
2
100
AcDbDictionary
280
     1
281
     1
  0
DICTIONARY
  5
D
102
{ACAD_REACTORS
330
C
102
}
330
C
100
AcDbDictionary
281
     1
  0
DICTIONARY
  5
1804
102
{ACAD_REACTORS
330
C
102
}
330
C
100
AcDbDictionary
281
     1
  3
Layout1
350
1807
  3
Model
350
1806
  0
DICTIONARY
  5
1B
102
{ACAD_REACTORS
330
C
102
}
330
C
100
AcDbDictionary
281
     1
  3
STANDARD
350
1C
  0
DICTIONARY
  5
1805
102
{ACAD_REACTORS
330
C
102
}
330
C
100
AcDbDictionary
281
     1
  3
1055 B&W Full Shaded Draft
350
32B1
  3
1055 B&W Full Shaded Final
350
32B2
  3
1055 B&W Half Shaded Draft
350
32B3
  3
1055 B&W Half Shaded Final
350
32B4
  3
1055 Color Full Shaded Draft
350
32B5
  3
1055 Color Full Shaded Final
350
32B6
  3
1055 Color Half Shaded Draft
350
32B7
  3
1055 Color Half Shaded Final
350
32B8
  3
1055-B&W-Shaded-Draft
350
32B9
  3
1055-B&W-Shaded-Final
350
32BA
  3
1055-Color-Shaded-Draft
350
32BB
  3
1055-Color-Shaded-Final
350
32BC
  3
1055cm B&W Shaded Draft
350
2210
  3
1055cm B&W Shaded Final
350
2211
  3
1055cm Color Draft
350
2212
  3
1055cm Color Shaded Draft
350
2213
  3
1055cm Color Shaded Final
350
2214
  3
1055cmB&WShadedDraft
350
2215
  3
1055cmColorShadedDraft
350
2216
  3
8500 B&W Shaded 11x17
350
2217
  3
8500 B&W Shaded 8.5x11
350
2218
  3
8500 Color Shaded 11x17
350
2219
  3
8500 Color Shaded 8.5x11
350
221A
  3
8500-B&W-Shaded-11x17
350
32BD
  3
8500-B&W-Shaded-8.5x11
350
32BE
  3
8500-Color-Shaded-11x17
350
32BF
  3
8500-Color-Shaded-8.5x11
350
32C0
  3
8500B&WShaded11x17
350
221B
  3
8500ColorShaded11x17
350
221C
  3
Laser Jet 5 Shaded 11x17
350
221D
  3
Laser Jet 5 Shaded 8.5x11
350
221E
  3
LaserJet5-Shaded-11x17
350
32C1
  3
LaserJet5-Shaded-8.5x11
350
32C2
  3
LaserJet5Shaded 11x17
350
221F
  0
ACDBDICTIONARYWDFLT
  5
1802
102
{ACAD_REACTORS
330
C
102
}
330
C
100
AcDbDictionary
281
     1
  3
Normal
350
1803
100
AcDbDictionaryWithDefault
340
1803
  0
DICTIONARY
  5
20F3
102
{ACAD_REACTORS
330
C
102
}
330
C
100
AcDbDictionary
281
     1
  3
DIMASSOC
350
20F4
  3
SORTENTS
350
32D9
  0
DICTIONARY
  5
329C
102
{ACAD_REACTORS
330
C
102
}
330
C
100
AcDbDictionary
281
     1
  3
ASEBlockHierarchyIndexRecord
350
329D
1001
DCO15
1040
1449384207.483999
  0
LAYOUT
  5
1807
102
{ACAD_REACTORS
330
1804
102
}
330
1804
100
AcDbPlotSettings
  1

  2
S:\AutoCAD 2002\Plotters\1055ColorDraftShaded.pc3
  4

  6

 40
0.0
 41
0.0
 42
0.0
 43
0.0
 44
0.0
 45
0.0
 46
0.0
 47
0.0
 48
0.0
 49
0.0
140
0.0
141
0.0
142
1.0
143
1.0
 70
   688
 72
     0
 73
     0
 74
     5
  7
Black&White.ctb
 75
    16
147
1.0
148
0.0
149
0.0
100
AcDbLayout
  1
Layout1
 70
     1
 71
     1
 10
0.0
 20
0.0
 11
12.0
 21
9.0
 12
0.0
 22
0.0
 32
0.0
 14
1.000000000000000E+20
 24
1.000000000000000E+20
 34
1.000000000000000E+20
 15
-1.000000000000000E+20
 25
-1.000000000000000E+20
 35
-1.000000000000000E+20
146
0.0
 13
0.0
 23
0.0
 33
0.0
 16
1.0
 26
0.0
 36
0.0
 17
0.0
 27
1.0
 37
0.0
 76
     0
330
15
  0
LAYOUT
  5
1806
102
{ACAD_REACTORS
330
1804
102
}
330
1804
100
AcDbPlotSettings
  1

  2
8500ColorShaded.pc3
  4
11x17
  6
PS1
 40
5.027083396911621
 41
5.027085304260253
 42
5.027099609375
 43
5.027069091796875
 44
279.3999938964843
 45
431.7999877929687
 46
2.032
 47
1.523999999999999
 48
20.64118082566485
 49
-3.321226470693181
140
37.13118082566485
141
7.118773529306817
142
1.0
143
1.0
 70
 11956
 72
     0
 73
     1
 74
     3
  7
8500ColorShaded.ctb
 75
    16
147
1.0
148
-524.2859929718872
149
84.35915235560681
100
AcDbLayout
  1
Model
 70
     1
 71
     0
 10
0.0
 20
0.0
 11
12.0
 21
9.0
 12
0.0
 22
0.0
 32
0.0
 14
0.0
 24
0.0
 34
0.0
 15
0.0
 25
0.0
 35
0.0
146
0.0
 13
0.0
 23
0.0
 33
0.0
 16
1.0
 26
0.0
 36
0.0
 17
0.0
 27
1.0
 37
0.0
 76
     0
330
18
  0
MLINESTYLE
  5
1C
102
{ACAD_REACTORS
330
1B
102
}
330
1B
100
AcDbMlineStyle
  2
STANDARD
 70
     0
  3

 62
   256
 51
90.0
 52
90.0
 71
     2
 49
0.5
 62
   256
  6
BYLAYER
 49
-0.5
 62
   256
  6
BYLAYER
  0
PLOTSETTINGS
  5
32B1
102
{ACAD_REACTORS
330
1805
102
}
330
1805
100
AcDbPlotSettings
  1
1055 B&W Full Shaded Draft
  2
1055B&WDraftShaded.pc3
  4
User607
  6
PS1
 40
0.0
 41
0.0
 42
0.0
 43
0.0
 44
901.7000122070312
 45
1155.700073242187
 46
0.0
 47
0.0
 48
180377.877572
 49
80019.819395
140
180380.8390819999
141
80022.26069
142
1.0
143
1.0
 70
   688
 72
     0
 73
     2
 74
     5
  7
1055B&WFullDraftShaded.ctb
 75
    16
147
1.0
148
-4581114.014650871
149
-2032337.537636779
  0
PLOTSETTINGS
  5
32B2
102
{ACAD_REACTORS
330
1805
102
}
330
1805
100
AcDbPlotSettings
  1
1055 B&W Full Shaded Final
  2
1055B&WFinalShaded.pc3
  4
User258
  6
PS1
 40
4.995333194732666
 41
8.297393798828125
 42
4.99530029296875
 43
8.29736328125
 44
761.9576416015624
 45
1066.757690429687
 46
0.0
 47
0.0
 48
180377.877572
 49
80019.819395
140
180380.8390819999
141
80022.26069
142
1.0
143
1.0
 70
   688
 72
     0
 73
     3
 74
     5
  7
1055B&WFullFinalShaded.ctb
 75
    16
147
1.0
148
-4581114.014650871
149
-2032337.537636779
  0
PLOTSETTINGS
  5
32B3
102
{ACAD_REACTORS
330
1805
102
}
330
1805
100
AcDbPlotSettings
  1
1055 B&W Half Shaded Draft
  2
1055B&WDraftShaded.pc3
  4
User607
  6
PS1
 40
0.0
 41
0.0
 42
0.0
 43
0.0
 44
901.7000122070312
 45
1155.700073242187
 46
0.0
 47
0.0
 48
180377.877572
 49
80019.819395
140
180380.8390819999
141
80022.26069
142
1.0
143
2.0
 70
   688
 72
     0
 73
     2
 74
     5
  7
1055B&WHalfDraftShaded.ctb
 75
    17
147
0.5
148
-4581114.014650871
149
-2032337.537636779
  0
PLOTSETTINGS
  5
32B4
102
{ACAD_REACTORS
330
1805
102
}
330
1805
100
AcDbPlotSettings
  1
1055 B&W Half Shaded Final
  2
1055B&WFinalShaded.pc3
  4
User258
  6
PS1
 40
4.995333194732666
 41
8.297393798828125
 42
4.99530029296875
 43
8.29736328125
 44
761.9576416015624
 45
1066.757690429687
 46
0.0
 47
0.0
 48
180377.877572
 49
80019.819395
140
180380.8390819999
141
80022.26069
142
1.0
143
2.0
 70
   688
 72
     0
 73
     3
 74
     5
  7
1055B&WHalfFinalShaded.ctb
 75
    17
147
0.5
148
-4581114.014650871
149
-2032337.537636779
  0
PLOTSETTINGS
  5
32B5
102
{ACAD_REACTORS
330
1805
102
}
330
1805
100
AcDbPlotSettings
  1
1055 Color Full Shaded Draft
  2
1055ColorDraftShaded.pc3
  4
User607
  6
PS1
 40
0.0
 41
0.0
 42
0.0
 43
0.0
 44
901.7000122070312
 45
1155.700073242187
 46
0.0
 47
0.0
 48
180377.877572
 49
80019.819395
140
180380.8390819999
141
80022.26069
142
1.0
143
1.0
 70
   688
 72
     0
 73
     2
 74
     5
  7
1055ColorFullDraftShaded.ctb
 75
    16
147
1.0
148
-4581114.014650871
149
-2032337.537636779
  0
PLOTSETTINGS
  5
32B6
102
{ACAD_REACTORS
330
1805
102
}
330
1805
100
AcDbPlotSettings
  1
1055 Color Full Shaded Final
  2
1055ColorFinalShaded.pc3
  4
User607
  6
PS1
 40
0.0
 41
0.0
 42
0.0
 43
0.0
 44
901.7000122070312
 45
1155.700073242187
 46
0.0
 47
0.0
 48
180377.877572
 49
80019.819395
140
180380.8390819999
141
80022.26069
142
1.0
143
1.0
 70
   688
 72
     0
 73
     2
 74
     5
  7
1055ColorFullFinalShaded.ctb
 75
    16
147
1.0
148
-4581114.014650871
149
-2032337.537636779
  0
PLOTSETTINGS
  5
32B7
102
{ACAD_REACTORS
330
1805
102
}
330
1805
100
AcDbPlotSettings
  1
1055 Color Half Shaded Draft
  2
1055ColorDraftShaded.pc3
  4
User607
  6
PS1
 40
0.0
 41
0.0
 42
0.0
 43
0.0
 44
901.7000122070312
 45
1155.700073242187
 46
0.0
 47
0.0
 48
180377.877572
 49
80019.819395
140
180380.8390819999
141
80022.26069
142
1.0
143
1.0
 70
   688
 72
     0
 73
     2
 74
     5
  7
1055ColorHalfDraftShaded.ctb
 75
    16
147
1.0
148
-4581114.014650871
149
-2032337.537636779
  0
PLOTSETTINGS
  5
32B8
102
{ACAD_REACTORS
330
1805
102
}
330
1805
100
AcDbPlotSettings
  1
1055 Color Half Shaded Final
  2
1055ColorFinalShaded.pc3
  4
User607
  6
PS1
 40
0.0
 41
0.0
 42
0.0
 43
0.0
 44
901.7000122070312
 45
1155.700073242187
 46
0.0
 47
0.0
 48
180377.877572
 49
80019.819395
140
180380.8390819999
141
80022.26069
142
1.0
143
1.0
 70
   688
 72
     0
 73
     2
 74
     5
  7
1055ColorHalfFinalShaded.ctb
 75
    16
147
1.0
148
-4581114.014650871
149
-2032337.537636779
  0
PLOTSETTINGS
  5
32B9
102
{ACAD_REACTORS
330
1805
102
}
330
1805
100
AcDbPlotSettings
  1
1055-B&W-Shaded-Draft
  2
1055B&WDraftShaded.pc3
  4
User257
  6

 40
4.995333194732666
 41
8.297393798828125
 42
4.99530029296875
 43
8.29736328125
 44
901.6152954101562
 45
1155.615356445312
 46
0.0
 47
0.0
 48
180360.0524337165
 49
80033.77936194791
140
180369.1574725906
141
80037.61796031875
142
1.0
143
1.0
 70
  1712
 72
     0
 73
     1
 74
     4
  7
1055B&WFullDraftShaded.ctb
 75
    16
147
1.0
148
-4581145.331816398
149
-2032857.995793476
  0
PLOTSETTINGS
  5
32BA
102
{ACAD_REACTORS
330
1805
102
}
330
1805
100
AcDbPlotSettings
  1
1055-B&W-Shaded-Final
  2
1055B&WFinalShaded.pc3
  4
User607
  6

 40
0.0
 41
0.0
 42
0.0
 43
0.0
 44
901.7000122070312
 45
1155.700073242187
 46
0.0
 47
0.0
 48
180360.0524337165
 49
80033.77936194791
140
180369.1574725906
141
80037.61796031875
142
1.0
143
1.0
 70
  1712
 72
     0
 73
     1
 74
     4
  7
1055B&WFullFinalShaded.ctb
 75
    16
147
1.0
148
-4581145.331816398
149
-2032857.995793476
  0
PLOTSETTINGS
  5
32BB
102
{ACAD_REACTORS
330
1805
102
}
330
1805
100
AcDbPlotSettings
  1
1055-Color-Shaded-Draft
  2
1055ColorDraftShaded.pc3
  4
User257
  6

 40
4.995333194732666
 41
8.297393798828125
 42
4.99530029296875
 43
8.29736328125
 44
901.6152954101562
 45
1155.615356445312
 46
0.0
 47
0.0
 48
180360.0524337165
 49
80033.77936194791
140
180369.1574725906
141
80037.61796031875
142
1.0
143
1.0
 70
  1712
 72
     0
 73
     1
 74
     4
  7
1055ColorFullDraftShaded.ctb
 75
    16
147
1.0
148
-4581145.331816398
149
-2032857.995793476
  0
PLOTSETTINGS
  5
32BC
102
{ACAD_REACTORS
330
1805
102
}
330
1805
100
AcDbPlotSettings
  1
1055-Color-Shaded-Final
  2
1055ColorDraftShaded.pc3
  4
User257
  6

 40
4.995333194732666
 41
8.297393798828125
 42
4.99530029296875
 43
8.29736328125
 44
901.6152954101562
 45
1155.615356445312
 46
0.0
 47
0.0
 48
180360.0524337165
 49
80033.77936194791
140
180369.1574725906
141
80037.61796031875
142
1.0
143
1.0
 70
  1712
 72
     0
 73
     1
 74
     4
  7
1055ColorFullFinalShaded.ctb
 75
    16
147
1.0
148
-4581145.331816398
149
-2032857.995793476
  0
PLOTSETTINGS
  5
2210
102
{ACAD_REACTORS
330
1805
102
}
330
1805
100
AcDbPlotSettings
  1
1055cm B&W Shaded Draft
  2
1055B&WDraftShaded.pc3
  4
User257
  6
PS1
 40
4.995333194732666
 41
8.297393798828125
 42
4.99530029296875
 43
8.29736328125
 44
901.6152954101562
 45
1155.615356445312
 46
0.0
 47
0.0
 48
180377.877572
 49
80019.819395
140
180380.8390819999
141
80022.26069
142
1.0
143
1.0
 70
   688
 72
     0
 73
     2
 74
     3
  7
1055B&WDraftShaded.ctb
 75
    16
147
1.0
148
-4581153.377679998
149
-2032365.335819999
  0
PLOTSETTINGS
  5
2211
102
{ACAD_REACTORS
330
1805
102
}
330
1805
100
AcDbPlotSettings
  1
1055cm B&W Shaded Final
  2
1055B&WFinalShaded.pc3
  4
User257
  6
PS1
 40
4.995333194732666
 41
8.297271728515625
 42
4.99530029296875
 43
8.29736328125
 44
901.6576538085937
 45
1155.657592773437
 46
0.0
 47
0.0
 48
180377.877572
 49
80019.819395
140
180380.8390819999
141
80022.26069
142
1.0
143
1.0
 70
   672
 72
     0
 73
     2
 74
     3
  7
1055B&WFinalShaded.ctb
 75
     0
147
1.0
148
-4581153.377679998
149
-2032365.335819999
  0
PLOTSETTINGS
  5
2212
102
{ACAD_REACTORS
330
1805
102
}
330
1805
100
AcDbPlotSettings
  1
1055cm Color Draft
  2
1055ColorDraftShaded.pc3
  4
User257
  6
PS1
 40
4.995333194732666
 41
8.297393798828125
 42
4.99530029296875
 43
8.29736328125
 44
901.6152954101562
 45
1155.615356445312
 46
0.0
 47
0.0
 48
180377.877572
 49
80019.819395
140
180380.8390819999
141
80022.26069
142
1.0
143
1.0
 70
   688
 72
     0
 73
     2
 74
     3
  7
Color.CTB
 75
    16
147
1.0
148
-4581153.377679998
149
-2032365.335819999
  0
PLOTSETTINGS
  5
2213
102
{ACAD_REACTORS
330
1805
102
}
330
1805
100
AcDbPlotSettings
  1
1055cm Color Shaded Draft
  2
1055ColorDraftShaded.pc3
  4
User257
  6
PS1
 40
4.995333194732666
 41
8.297393798828125
 42
4.99530029296875
 43
8.29736328125
 44
901.6152954101562
 45
1155.615356445312
 46
0.0
 47
0.0
 48
180377.877572
 49
80019.819395
140
180380.8390819999
141
80022.26069
142
1.0
143
1.0
 70
   688
 72
     0
 73
     2
 74
     3
  7
1055ColorDraftShaded.CTB
 75
    16
147
1.0
148
-4581153.377679998
149
-2032365.335819999
  0
PLOTSETTINGS
  5
2214
102
{ACAD_REACTORS
330
1805
102
}
330
1805
100
AcDbPlotSettings
  1
1055cm Color Shaded Final
  2
1055ColorFinalShaded.pc3
  4
User257
  6
PS1
 40
4.995333194732666
 41
8.297271728515625
 42
4.99530029296875
 43
8.29736328125
 44
901.6576538085937
 45
1155.657592773437
 46
0.0
 47
0.0
 48
180377.877572
 49
80019.819395
140
180380.8390819999
141
80022.26069
142
1.0
143
1.0
 70
   688
 72
     0
 73
     2
 74
     3
  7
1055ColorFinalShaded.ctb
 75
    16
147
1.0
148
-4581153.377679998
149
-2032365.335819999
  0
PLOTSETTINGS
  5
2215
102
{ACAD_REACTORS
330
1805
102
}
330
1805
100
AcDbPlotSettings
  1
1055cmB&WShadedDraft
  2
1055B&WDraftShaded.pc3
  4
User257
  6

 40
4.995333194732666
 41
8.297393798828125
 42
4.99530029296875
 43
8.29736328125
 44
901.6152954101562
 45
1155.615356445312
 46
0.0
 47
0.0
 48
180360.0524337165
 49
80033.77936194791
140
180369.1574725906
141
80037.61796031875
142
1.0
143
30.0
 70
  1712
 72
     0
 73
     1
 74
     0
  7
1055B&WDraftShaded.ctb
 75
    23
147
0.0333333333333333
148
-4580581.320935756
149
-2032339.826086972
  0
PLOTSETTINGS
  5
2216
102
{ACAD_REACTORS
330
1805
102
}
330
1805
100
AcDbPlotSettings
  1
1055cmColorShadedDraft
  2
1055ColorDraftShaded.pc3
  4
User257
  6

 40
4.995333194732666
 41
8.297393798828125
 42
4.99530029296875
 43
8.29736328125
 44
901.6152954101562
 45
1155.615356445312
 46
0.0
 47
0.0
 48
180360.0524337165
 49
80033.77936194791
140
180369.1574725906
141
80037.61796031875
142
1.0
143
30.0
 70
  1712
 72
     0
 73
     1
 74
     0
  7
1055ColorDraftShaded.ctb
 75
    23
147
0.0333333333333333
148
-4580581.320935756
149
-2032339.826086972
  0
PLOTSETTINGS
  5
2217
102
{ACAD_REACTORS
330
1805
102
}
330
1805
100
AcDbPlotSettings
  1
8500 B&W Shaded 11x17
  2
8500B&WShaded.pc3
  4
11x17
  6
PS1
 40
5.027083396911621
 41
5.027085304260253
 42
5.027099609375
 43
5.027069091796875
 44
279.3999938964843
 45
431.7999877929687
 46
0.0
 47
0.762
 48
180377.877572
 49
80019.819395
140
180380.8390819999
141
80022.26069
142
1.0
143
1.980353799589804
 70
   692
 72
     0
 73
     1
 74
     3
  7
8500B&WShaded.ctb
 75
     0
147
0.5049602753846977
148
-4581153.377679998
149
-2032365.335819999
  0
PLOTSETTINGS
  5
2218
102
{ACAD_REACTORS
330
1805
102
}
330
1805
100
AcDbPlotSettings
  1
8500 B&W Shaded 8.5x11
  2
8500B&WShaded.pc3
  4
Letter
  6
PS1
 40
5.027083396911621
 41
5.027085304260253
 42
5.027084350585937
 43
5.027069091796875
 44
215.8999938964843
 45
279.3999938964843
 46
16.50999999999999
 47
0.0
 48
180377.877572
 49
80019.819395
140
180380.8390819999
141
80022.26069
142
1.0
143
3.089030970531291
 70
   692
 72
     0
 73
     1
 74
     3
  7
8500B&WShaded.ctb
 75
     0
147
0.3237261165523398
148
-4581153.377679998
149
-2032365.335819999
  0
PLOTSETTINGS
  5
2219
102
{ACAD_REACTORS
330
1805
102
}
330
1805
100
AcDbPlotSettings
  1
8500 Color Shaded 11x17
  2
8500ColorShaded.pc3
  4
11x17
  6
PS1
 40
5.027083396911621
 41
5.027085304260253
 42
5.027099609375
 43
5.027069091796875
 44
279.3999938964843
 45
431.7999877929687
 46
0.0
 47
0.762
 48
180377.877572
 49
80019.819395
140
180380.8390819999
141
80022.26069
142
1.0
143
1.980353799589804
 70
   692
 72
     0
 73
     1
 74
     3
  7
8500ColorShaded.ctb
 75
     0
147
0.5049602753846977
148
-4581153.377679998
149
-2032365.335819999
  0
PLOTSETTINGS
  5
221A
102
{ACAD_REACTORS
330
1805
102
}
330
1805
100
AcDbPlotSettings
  1
8500 Color Shaded 8.5x11
  2
8500ColorShaded.pc3
  4
Letter
  6
PS1
 40
5.027083396911621
 41
5.027085304260253
 42
5.027084350585937
 43
5.027069091796875
 44
215.8999938964843
 45
279.3999938964843
 46
16.50999999999999
 47
0.0
 48
180377.877572
 49
80019.819395
140
180380.8390819999
141
80022.26069
142
1.0
143
3.089030970531291
 70
   692
 72
     0
 73
     1
 74
     3
  7
8500ColorShaded.ctb
 75
     0
147
0.3237261165523398
148
-4581153.377679998
149
-2032365.335819999
  0
PLOTSETTINGS
  5
32BD
102
{ACAD_REACTORS
330
1805
102
}
330
1805
100
AcDbPlotSettings
  1
8500-B&W-Shaded-11x17
  2
8500B&WShaded.pc3
  4
11x17
  6

 40
5.027083396911621
 41
5.027085304260253
 42
5.027099609375
 43
5.027069091796875
 44
279.3999938964843
 45
431.7999877929687
 46
0.0
 47
0.0
 48
180360.0524337165
 49
80033.77936194791
140
180369.1574725906
141
80037.61796031875
142
1.0
143
4.787622939151733
 70
  1712
 72
     0
 73
     1
 74
     0
  7
8500B&WShaded.ctb
 75
     0
147
0.2088719209322652
148
-4580581.320935756
149
-2032339.826086972
  0
PLOTSETTINGS
  5
32BE
102
{ACAD_REACTORS
330
1805
102
}
330
1805
100
AcDbPlotSettings
  1
8500-B&W-Shaded-8.5x11
  2
8500B&WShaded.pc3
  4
Letter
  6

 40
5.027083396911621
 41
5.027085304260253
 42
5.027084350585937
 43
5.027069091796875
 44
215.8999938964843
 45
279.3999938964843
 46
0.0
 47
0.0
 48
180360.0524337165
 49
80033.77936194791
140
180369.1574725906
141
80037.61796031875
142
1.0
143
1.400341199009821
 70
  1712
 72
     0
 73
     1
 74
     0
  7
8500B&WShaded.ctb
 75
     0
147
0.7141116755738516
148
0.0
149
0.0
  0
PLOTSETTINGS
  5
32BF
102
{ACAD_REACTORS
330
1805
102
}
330
1805
100
AcDbPlotSettings
  1
8500-Color-Shaded-11x17
  2
8500ColorShaded.pc3
  4
11x17
  6

 40
5.027083396911621
 41
5.027085304260253
 42
5.027099609375
 43
5.027069091796875
 44
279.3999938964843
 45
431.7999877929687
 46
0.0
 47
0.0
 48
180360.0524337165
 49
80033.77936194791
140
180369.1574725906
141
80037.61796031875
142
1.0
143
4.787622939151733
 70
  1712
 72
     0
 73
     1
 74
     0
  7
8500ColorShaded.ctb
 75
     0
147
0.2088719209322652
148
-4580581.320935756
149
-2032339.826086972
  0
PLOTSETTINGS
  5
32C0
102
{ACAD_REACTORS
330
1805
102
}
330
1805
100
AcDbPlotSettings
  1
8500-Color-Shaded-8.5x11
  2
8500ColorShaded.pc3
  4
Letter
  6

 40
5.027083396911621
 41
5.027085304260253
 42
5.027084350585937
 43
5.027069091796875
 44
215.8999938964843
 45
279.3999938964843
 46
0.0
 47
0.0
 48
180360.0524337165
 49
80033.77936194791
140
180369.1574725906
141
80037.61796031875
142
1.0
143
1.400341199009821
 70
  1712
 72
     0
 73
     1
 74
     0
  7
8500ColorShaded.ctb
 75
     0
147
0.7141116755738516
148
0.0
149
0.0
  0
PLOTSETTINGS
  5
221B
102
{ACAD_REACTORS
330
1805
102
}
330
1805
100
AcDbPlotSettings
  1
8500B&WShaded11x17
  2
8500B&WShaded.pc3
  4
11x17
  6

 40
5.027083396911621
 41
5.027085304260253
 42
5.027099609375
 43
5.027069091796875
 44
279.3999938964843
 45
431.7999877929687
 46
0.0
 47
0.0
 48
180360.0524337165
 49
80033.77936194791
140
180369.1574725906
141
80037.61796031875
142
1.0
143
4.787622939151733
 70
  1712
 72
     0
 73
     1
 74
     0
  7
8500B&WShaded.ctb
 75
     0
147
0.2088719209322652
148
-4580581.320935756
149
-2032339.826086972
  0
PLOTSETTINGS
  5
221C
102
{ACAD_REACTORS
330
1805
102
}
330
1805
100
AcDbPlotSettings
  1
8500ColorShaded11x17
  2
8500ColorShaded.pc3
  4
11x17
  6

 40
5.027083396911621
 41
5.027085304260253
 42
5.027099609375
 43
5.027069091796875
 44
279.3999938964843
 45
431.7999877929687
 46
0.0
 47
0.0
 48
180360.0524337165
 49
80033.77936194791
140
180369.1574725906
141
80037.61796031875
142
1.0
143
4.787622939151733
 70
  1712
 72
     0
 73
     1
 74
     0
  7
8500ColorShaded.ctb
 75
     0
147
0.2088719209322652
148
-4580581.320935756
149
-2032339.826086972
  0
PLOTSETTINGS
  5
221D
102
{ACAD_REACTORS
330
1805
102
}
330
1805
100
AcDbPlotSettings
  1
Laser Jet 5 Shaded 11x17
  2
LaserJet5Shaded.pc3
  4
11x17
  6
PS1
 40
7.143749713897705
 41
5.873736858367919
 42
7.143768310546875
 43
7.14373779296875
 44
279.3999938964843
 45
431.7999877929687
 46
0.0
 47
2.54
 48
180377.877572
 49
80019.819395
140
180380.8390819999
141
80022.26069
142
1.0
143
2.011976231014692
 70
   692
 72
     0
 73
     1
 74
     3
  7
LaserJet5Shaded.ctb
 75
     0
147
0.4970237642895384
148
-4581153.377679998
149
-2032365.335819999
  0
PLOTSETTINGS
  5
221E
102
{ACAD_REACTORS
330
1805
102
}
330
1805
100
AcDbPlotSettings
  1
Laser Jet 5 Shaded 8.5x11
  2
LaserJet5Shaded.pc3
  4
Letter
  6
PS1
 40
7.143749713897705
 41
6.974400997161865
 42
7.14373779296875
 43
6.297088623046875
 44
215.8999938964843
 45
279.3999938964843
 46
15.49399999999999
 47
0.0
 48
180377.877572
 49
80019.819395
140
180380.8390819999
141
80022.26069
142
1.0
143
3.126375516456624
 70
   692
 72
     0
 73
     1
 74
     3
  7
LaserJet5Shaded.ctb
 75
     0
147
0.3198592090861117
148
-4581153.377679998
149
-2032365.335819999
  0
PLOTSETTINGS
  5
32C1
102
{ACAD_REACTORS
330
1805
102
}
330
1805
100
AcDbPlotSettings
  1
LaserJet5-Shaded-11x17
  2
LaserJet5Shaded.pc3
  4
11x17
  6

 40
7.143749713897705
 41
5.873736858367919
 42
7.143768310546875
 43
7.14373779296875
 44
279.3999938964843
 45
431.7999877929687
 46
0.0
 47
0.0
 48
180360.0524337165
 49
80033.77936194791
140
180369.1574725906
141
80037.61796031875
142
1.0
143
4.864072045424008
 70
  1712
 72
     0
 73
     1
 74
     0
  7
LaserJet5Shaded.ctb
 75
     0
147
0.205589060084086
148
-4580581.320935756
149
-2032339.826086972
  0
PLOTSETTINGS
  5
32C2
102
{ACAD_REACTORS
330
1805
102
}
330
1805
100
AcDbPlotSettings
  1
LaserJet5-Shaded-8.5x11
  2
LaserJet5Shaded.pc3
  4
Letter
  6

 40
7.143749713897705
 41
6.974400997161865
 42
7.14373779296875
 43
6.297088623046875
 44
215.8999938964843
 45
279.3999938964843
 46
0.0
 47
0.0
 48
180360.0524337165
 49
80033.77936194791
140
180369.1574725906
141
80037.61796031875
142
1.0
143
1.417270490660323
 70
  1712
 72
     0
 73
     1
 74
     0
  7
LaserJet5Shaded.ctb
 75
     0
147
0.7055816138061886
148
0.0
149
0.0
  0
PLOTSETTINGS
  5
221F
102
{ACAD_REACTORS
330
1805
102
}
330
1805
100
AcDbPlotSettings
  1
LaserJet5Shaded 11x17
  2
LaserJet5Shaded.pc3
  4
11x17
  6

 40
7.143749713897705
 41
5.873736858367919
 42
7.143768310546875
 43
7.14373779296875
 44
279.3999938964843
 45
431.7999877929687
 46
0.0
 47
0.0
 48
180360.0524337165
 49
80033.77936194791
140
180369.1574725906
141
80037.61796031875
142
1.0
143
4.864072045424008
 70
  1712
 72
     0
 73
     1
 74
     0
  7
LaserJet5Shaded.ctb
 75
     0
147
0.205589060084086
148
-4580581.320935756
149
-2032339.826086972
  0
ACDBPLACEHOLDER
  5
1803
102
{ACAD_REACTORS
330
1802
102
}
330
1802
  0
DICTIONARYVAR
  5
20F4
102
{ACAD_REACTORS
330
20F3
102
}
330
20F3
100
DictionaryVariables
280
     0
  1
1
  0
DICTIONARYVAR
  5
32D9
102
{ACAD_REACTORS
330
20F3
102
}
330
20F3
100
DictionaryVariables
280
     0
  1
1
  0
XRECORD
  5
329D
102
{ACAD_REACTORS
330
329C
102
}
330
329C
100
AcDbXrecord
280
     1
330
2BDE
330
2BE3
330
2BE8
330
2BED
330
2BF2
330
2BF7
330
2222
330
2225
330
2228
330
222B
330
222E
330
224C
330
224F
330
2250
330
2252
330
32C8
330
2120
330
32C4
  0
ENDSEC
  0
EOF
