  0
SECTION
  2
HEADER
  9
$ACADVER
  1
AC1015
  9
$ACADMAINTVER
 70
    13
  9
$DWGCODEPAGE
  3
ANSI_1252
  9
$INSBASE
 10
0.0
 20
0.0
 30
0.0
  9
$EXTMIN
 10
-12.3679850877085
 20
0.4069135318729228
 30
0.0
  9
$EXTMAX
 10
4.122014912291488
 20
10.84691353187292
 30
0.03
  9
$LIMMIN
 10
0.0
 20
0.0
  9
$LIMMAX
 10
12.0
 20
9.0
  9
$ORTHOMODE
 70
     1
  9
$REGENMODE
 70
     1
  9
$FILLMODE
 70
     1
  9
$QTEXTMODE
 70
     0
  9
$MIRRTEXT
 70
     0
  9
$LTSCALE
 40
1.0
  9
$ATTMODE
 70
     1
  9
$TEXTSIZE
 40
0.1103
  9
$TRACEWID
 40
0.05
  9
$TEXTSTYLE
  7
ROMANS
  9
$CLAYER
  8
IMAGE
  9
$CELTYPE
  6
ByLayer
  9
$CECOLOR
 62
   256
  9
$CELTSCALE
 40
1.0
  9
$DISPSILH
 70
     0
  9
$DIMSCALE
 40
1.0
  9
$DIMASZ
 40
0.18
  9
$DIMEXO
 40
0.0625
  9
$DIMDLI
 40
0.38
  9
$DIMRND
 40
0.0
  9
$DIMDLE
 40
0.0
  9
$DIMEXE
 40
0.18
  9
$DIMTP
 40
0.0
  9
$DIMTM
 40
0.0
  9
$DIMTXT
 40
0.18
  9
$DIMCEN
 40
0.09
  9
$DIMTSZ
 40
0.0
  9
$DIMTOL
 70
     0
  9
$DIMLIM
 70
     0
  9
$DIMTIH
 70
     1
  9
$DIMTOH
 70
     1
  9
$DIMSE1
 70
     0
  9
$DIMSE2
 70
     0
  9
$DIMTAD
 70
     0
  9
$DIMZIN
 70
     0
  9
$DIMBLK
  1

  9
$DIMASO
 70
     1
  9
$DIMSHO
 70
     1
  9
$DIMPOST
  1

  9
$DIMAPOST
  1

  9
$DIMALT
 70
     0
  9
$DIMALTD
 70
     2
  9
$DIMALTF
 40
25.4
  9
$DIMLFAC
 40
1.0
  9
$DIMTOFL
 70
     0
  9
$DIMTVP
 40
0.0
  9
$DIMTIX
 70
     0
  9
$DIMSOXD
 70
     0
  9
$DIMSAH
 70
     0
  9
$DIMBLK1
  1

  9
$DIMBLK2
  1

  9
$DIMSTYLE
  2
STANDARD
  9
$DIMCLRD
 70
     0
  9
$DIMCLRE
 70
     0
  9
$DIMCLRT
 70
     0
  9
$DIMTFAC
 40
1.0
  9
$DIMGAP
 40
0.09
  9
$DIMJUST
 70
     0
  9
$DIMSD1
 70
     0
  9
$DIMSD2
 70
     0
  9
$DIMTOLJ
 70
     1
  9
$DIMTZIN
 70
     0
  9
$DIMALTZ
 70
     0
  9
$DIMALTTZ
 70
     0
  9
$DIMUPT
 70
     0
  9
$DIMDEC
 70
     4
  9
$DIMTDEC
 70
     4
  9
$DIMALTU
 70
     2
  9
$DIMALTTD
 70
     2
  9
$DIMTXSTY
  7
STANDARD
  9
$DIMAUNIT
 70
     0
  9
$DIMADEC
 70
     0
  9
$DIMALTRND
 40
0.0
  9
$DIMAZIN
 70
     0
  9
$DIMDSEP
 70
    46
  9
$DIMATFIT
 70
     3
  9
$DIMFRAC
 70
     0
  9
$DIMLDRBLK
  1

  9
$DIMLUNIT
 70
     2
  9
$DIMLWD
 70
    -2
  9
$DIMLWE
 70
    -2
  9
$DIMTMOVE
 70
     2
  9
$LUNITS
 70
     2
  9
$LUPREC
 70
     4
  9
$SKETCHINC
 40
0.1
  9
$FILLETRAD
 40
0.0
  9
$AUNITS
 70
     0
  9
$AUPREC
 70
     0
  9
$MENU
  1
c:\acad13nt\win\SUPPORT\ACAD
  9
$ELEVATION
 40
0.0
  9
$PELEVATION
 40
0.0
  9
$THICKNESS
 40
0.0
  9
$LIMCHECK
 70
     0
  9
$CHAMFERA
 40
0.0
  9
$CHAMFERB
 40
0.0
  9
$CHAMFERC
 40
0.0
  9
$CHAMFERD
 40
0.0
  9
$SKPOLY
 70
     0
  9
$TDCREATE
 40
2452284.382241851
  9
$TDUCREATE
 40
2452284.673908518
  9
$TDUPDATE
 40
2453013.683289988
  9
$TDUUPDATE
 40
2453013.974956655
  9
$TDINDWG
 40
0.0169037269
  9
$TDUSRTIMER
 40
0.0169037269
  9
$USRTIMER
 70
     1
  9
$ANGBASE
 50
0.0
  9
$ANGDIR
 70
     0
  9
$PDMODE
 70
     0
  9
$PDSIZE
 40
0.0
  9
$PLINEWID
 40
0.0
  9
$SPLFRAME
 70
     0
  9
$SPLINETYPE
 70
     6
  9
$SPLINESEGS
 70
     8
  9
$HANDSEED
  5
4848
  9
$SURFTAB1
 70
     6
  9
$SURFTAB2
 70
     6
  9
$SURFTYPE
 70
     6
  9
$SURFU
 70
     6
  9
$SURFV
 70
     6
  9
$UCSBASE
  2

  9
$UCSNAME
  2

  9
$UCSORG
 10
0.0
 20
0.0
 30
0.0
  9
$UCSXDIR
 10
1.0
 20
0.0
 30
0.0
  9
$UCSYDIR
 10
0.0
 20
1.0
 30
0.0
  9
$UCSORTHOREF
  2

  9
$UCSORTHOVIEW
 70
     0
  9
$UCSORGTOP
 10
0.0
 20
0.0
 30
0.0
  9
$UCSORGBOTTOM
 10
0.0
 20
0.0
 30
0.0
  9
$UCSORGLEFT
 10
0.0
 20
0.0
 30
0.0
  9
$UCSORGRIGHT
 10
0.0
 20
0.0
 30
0.0
  9
$UCSORGFRONT
 10
0.0
 20
0.0
 30
0.0
  9
$UCSORGBACK
 10
0.0
 20
0.0
 30
0.0
  9
$PUCSBASE
  2

  9
$PUCSNAME
  2

  9
$PUCSORG
 10
0.0
 20
0.0
 30
0.0
  9
$PUCSXDIR
 10
1.0
 20
0.0
 30
0.0
  9
$PUCSYDIR
 10
0.0
 20
1.0
 30
0.0
  9
$PUCSORTHOREF
  2

  9
$PUCSORTHOVIEW
 70
     0
  9
$PUCSORGTOP
 10
0.0
 20
0.0
 30
0.0
  9
$PUCSORGBOTTOM
 10
0.0
 20
0.0
 30
0.0
  9
$PUCSORGLEFT
 10
0.0
 20
0.0
 30
0.0
  9
$PUCSORGRIGHT
 10
0.0
 20
0.0
 30
0.0
  9
$PUCSORGFRONT
 10
0.0
 20
0.0
 30
0.0
  9
$PUCSORGBACK
 10
0.0
 20
0.0
 30
0.0
  9
$USERI1
 70
     0
  9
$USERI2
 70
     0
  9
$USERI3
 70
     0
  9
$USERI4
 70
     0
  9
$USERI5
 70
     0
  9
$USERR1
 40
0.0
  9
$USERR2
 40
0.0
  9
$USERR3
 40
0.0
  9
$USERR4
 40
0.0
  9
$USERR5
 40
0.0
  9
$WORLDVIEW
 70
     1
  9
$SHADEDGE
 70
     3
  9
$SHADEDIF
 70
    70
  9
$TILEMODE
 70
     1
  9
$MAXACTVP
 70
    16
  9
$PINSBASE
 10
0.0
 20
0.0
 30
0.0
  9
$PLIMCHECK
 70
     0
  9
$PEXTMIN
 10
1.000000000000000E+20
 20
1.000000000000000E+20
 30
1.000000000000000E+20
  9
$PEXTMAX
 10
-1.000000000000000E+20
 20
-1.000000000000000E+20
 30
-1.000000000000000E+20
  9
$PLIMMIN
 10
0.0
 20
0.0
  9
$PLIMMAX
 10
12.0
 20
9.0
  9
$UNITMODE
 70
     0
  9
$VISRETAIN
 70
     0
  9
$PLINEGEN
 70
     1
  9
$PSLTSCALE
 70
     1
  9
$TREEDEPTH
 70
  3020
  9
$CMLSTYLE
  2
Standard
  9
$CMLJUST
 70
     0
  9
$CMLSCALE
 40
1.0
  9
$PROXYGRAPHICS
 70
     1
  9
$MEASUREMENT
 70
     0
  9
$CELWEIGHT
370
    -1
  9
$ENDCAPS
280
     0
  9
$JOINSTYLE
280
     0
  9
$LWDISPLAY
290
     0
  9
$INSUNITS
 70
     0
  9
$HYPERLINKBASE
  1

  9
$STYLESHEET
  1
OKIColorShaded.ctb
  9
$XEDIT
290
     1
  9
$CEPSNTYPE
380
     0
  9
$PSTYLEMODE
290
     1
  9
$FINGERPRINTGUID
  2
{F29AF055-2000-4FB1-A6F7-70E37E87F22B}
  9
$VERSIONGUID
  2
{4AC6D0B9-7C16-418C-BE0B-163BA131EBF2}
  9
$EXTNAMES
290
     1
  9
$PSVPSCALE
 40
0.0
  9
$OLESTARTUP
290
     0
  0
ENDSEC
  0
SECTION
  2
CLASSES
  0
CLASS
  1
ACDBDICTIONARYWDFLT
  2
AcDbDictionaryWithDefault
  3
AutoCAD 2000
 90
        0
280
     0
281
     0
  0
CLASS
  1
ACDBPLACEHOLDER
  2
AcDbPlaceHolder
  3
AutoCAD 2000
 90
        0
280
     0
281
     0
  0
CLASS
  1
LAYOUT
  2
AcDbLayout
  3
AutoCAD 2000
 90
        0
280
     0
281
     0
  0
CLASS
  1
DICTIONARYVAR
  2
AcDbDictionaryVar
  3
AutoCAD 2000
 90
        0
280
     0
281
     0
  0
ENDSEC
  0
SECTION
  2
TABLES
  0
TABLE
  2
VPORT
  5
47A9
330
0
100
AcDbSymbolTable
 70
     2
  0
VPORT
  5
4847
330
47A9
100
AcDbSymbolTableRecord
100
AcDbViewportTableRecord
  2
*Active
 70
     0
 10
0.0
 20
0.0
 11
1.0
 21
1.0
 12
-4.122558807034525
 22
5.627035033069686
 13
0.0
 23
0.0
 14
0.14
 24
0.14
 15
0.14
 25
0.14
 16
0.0
 26
0.0
 36
1.0
 17
0.0
 27
0.0
 37
0.0
 40
11.00813499070556
 41
1.505548705302096
 42
50.0
 43
0.0
 44
0.0
 50
0.0
 51
0.0
 71
     0
 72
 20000
 73
     1
 74
     1
 75
     0
 76
     0
 77
     0
 78
     0
281
     0
 65
     1
110
0.0
120
0.0
130
0.0
111
1.0
121
0.0
131
0.0
112
0.0
122
1.0
132
0.0
 79
     0
146
0.0
  0
ENDTAB
  0
TABLE
  2
LTYPE
  5
47A6
330
0
100
AcDbSymbolTable
 70
     2
  0
LTYPE
  5
47B4
330
47A6
100
AcDbSymbolTableRecord
100
AcDbLinetypeTableRecord
  2
ByBlock
 70
     0
  3

 72
    65
 73
     0
 40
0.0
  0
LTYPE
  5
47B5
330
47A6
100
AcDbSymbolTableRecord
100
AcDbLinetypeTableRecord
  2
ByLayer
 70
     0
  3

 72
    65
 73
     0
 40
0.0
  0
LTYPE
  5
47B6
330
47A6
100
AcDbSymbolTableRecord
100
AcDbLinetypeTableRecord
  2
CONTINUOUS
 70
     0
  3
Solid line
 72
    65
 73
     0
 40
0.0
  0
LTYPE
  5
47C8
330
47A6
100
AcDbSymbolTableRecord
100
AcDbLinetypeTableRecord
  2
0
 70
     0
  3
Solid Line
 72
    65
 73
     0
 40
0.0
  0
ENDTAB
  0
TABLE
  2
LAYER
  5
47A3
330
0
100
AcDbSymbolTable
 70
     6
  0
LAYER
  5
47B1
330
47A3
100
AcDbSymbolTableRecord
100
AcDbLayerTableRecord
  2
0
 70
     0
 62
     7
  6
CONTINUOUS
370
    -3
390
47B0
  0
LAYER
  5
47CF
330
47A3
100
AcDbSymbolTableRecord
100
AcDbLayerTableRecord
  2
TEXT_BUBBLES
 70
     0
 62
     6
  6
CONTINUOUS
370
    -3
390
47B0
  0
LAYER
  5
47D0
330
47A3
100
AcDbSymbolTableRecord
100
AcDbLayerTableRecord
  2
IMAGE
 70
     0
 62
     7
  6
CONTINUOUS
370
    -3
390
47B0
  0
LAYER
  5
47D3
330
47A3
100
AcDbSymbolTableRecord
100
AcDbLayerTableRecord
  2
TEXT_LEADERS
 70
     0
 62
    -5
  6
CONTINUOUS
370
    -3
390
47B0
  0
LAYER
  5
47D5
330
47A3
100
AcDbSymbolTableRecord
100
AcDbLayerTableRecord
  2
INSTRUCT-CALLOUT
 70
     0
 62
     4
  6
CONTINUOUS
370
    -3
390
47B0
  0
LAYER
  5
47F7
330
47A3
100
AcDbSymbolTableRecord
100
AcDbLayerTableRecord
  2
TITLE
 70
     0
 62
     4
  6
CONTINUOUS
370
    -3
390
47B0
  0
ENDTAB
  0
TABLE
  2
STYLE
  5
47A4
330
0
100
AcDbSymbolTable
 70
     6
  0
STYLE
  5
47B2
330
47A4
100
AcDbSymbolTableRecord
100
AcDbTextStyleTableRecord
  2
STANDARD
 70
     0
 40
0.0
 41
1.0
 50
0.0
 71
     0
 42
0.2
  3
txt
  4

  0
STYLE
  5
47C6
330
47A4
100
AcDbSymbolTableRecord
100
AcDbTextStyleTableRecord
  2
ROMANS
 70
     0
 40
0.0
 41
1.0
 50
0.0
 71
     0
 42
0.1103
  3
romans.shx
  4

  0
STYLE
  5
47C7
330
47A4
100
AcDbSymbolTableRecord
100
AcDbTextStyleTableRecord
  2
SIMPLEX
 70
     0
 40
0.0
 41
1.0
 50
0.0
 71
     0
 42
0.2
  3
SIMPLEX
  4

  0
STYLE
  5
47F8
330
47A4
100
AcDbSymbolTableRecord
100
AcDbTextStyleTableRecord
  2
L100
 70
     0
 40
0.1
 41
1.0
 50
0.0
 71
     0
 42
0.1
  3
romans.shx
  4

  0
STYLE
  5
47F9
330
47A4
100
AcDbSymbolTableRecord
100
AcDbTextStyleTableRecord
  2
L200
 70
     0
 40
0.2
 41
1.0
 50
0.0
 71
     0
 42
0.081
  3
ARIAL.TTF
  4

1001
ACAD
1000
Arial
1071
       34
  0
STYLE
  5
47FA
330
47A4
100
AcDbSymbolTableRecord
100
AcDbTextStyleTableRecord
  2
L80
 70
     0
 40
0.08
 41
1.0
 50
0.0
 71
     0
 42
0.08
  3
ROMANS
  4

  0
ENDTAB
  0
TABLE
  2
VIEW
  5
47A7
330
0
100
AcDbSymbolTable
 70
     0
  0
ENDTAB
  0
TABLE
  2
UCS
  5
47A8
330
0
100
AcDbSymbolTable
 70
     0
  0
ENDTAB
  0
TABLE
  2
APPID
  5
47AA
330
0
100
AcDbSymbolTable
 70
     3
  0
APPID
  5
47B3
330
47AA
100
AcDbSymbolTableRecord
100
AcDbRegAppTableRecord
  2
ACAD
 70
     0
  0
APPID
  5
47CA
330
47AA
100
AcDbSymbolTableRecord
100
AcDbRegAppTableRecord
  2
RAK
 70
     0
  0
APPID
  5
47CB
330
47AA
100
AcDbSymbolTableRecord
100
AcDbRegAppTableRecord
  2
ABNSLEADERTOOLS
 70
     0
  0
ENDTAB
  0
TABLE
  2
DIMSTYLE
  5
47AB
330
0
100
AcDbSymbolTable
 70
     1
100
AcDbDimStyleTable
 71
     0
  0
DIMSTYLE
105
47CC
330
47AB
100
AcDbSymbolTableRecord
100
AcDbDimStyleTableRecord
  2
STANDARD
 70
     0
279
     2
340
47B2
  0
ENDTAB
  0
TABLE
  2
BLOCK_RECORD
  5
47A2
330
0
100
AcDbSymbolTable
 70
     2
  0
BLOCK_RECORD
  5
47BF
330
47A2
100
AcDbSymbolTableRecord
100
AcDbBlockTableRecord
  2
*Model_Space
340
47C2
  0
BLOCK_RECORD
  5
47BB
330
47A2
100
AcDbSymbolTableRecord
100
AcDbBlockTableRecord
  2
*Paper_Space
340
47BE
  0
BLOCK_RECORD
  5
47C4
330
47A2
100
AcDbSymbolTableRecord
100
AcDbBlockTableRecord
  2
*X0
340
0
102
{BLKREFS
331
38F6
102
}
  0
BLOCK_RECORD
  5
47EA
330
47A2
100
AcDbSymbolTableRecord
100
AcDbBlockTableRecord
  2
TITLBLK
340
0
102
{BLKREFS
331
481C
102
}
  0
ENDTAB
  0
ENDSEC
  0
SECTION
  2
BLOCKS
  0
BLOCK
  5
47DA
330
47BF
100
AcDbEntity
  8
0
100
AcDbBlockBegin
  2
*Model_Space
 70
     0
 10
0.0
 20
0.0
 30
0.0
  3
*Model_Space
  1

  0
ENDBLK
  5
47DB
330
47BF
100
AcDbEntity
  8
0
100
AcDbBlockEnd
  0
BLOCK
  5
47D8
330
47BB
100
AcDbEntity
 67
     1
  8
0
100
AcDbBlockBegin
  2
*Paper_Space
 70
     0
 10
0.0
 20
0.0
 30
0.0
  3
*Paper_Space
  1

  0
ENDBLK
  5
47D9
330
47BB
100
AcDbEntity
 67
     1
  8
0
100
AcDbBlockEnd
  0
BLOCK
  5
3B82
330
47C4
100
AcDbEntity
  8
0
100
AcDbBlockBegin
  2
*X0
 70
     1
 10
0.0
 20
0.0
 30
0.0
  3
*X0
  1

  0
LINE
  5
3AB9
330
47C4
100
AcDbEntity
  8
0
 62
     0
100
AcDbLine
 10
-11.3977211404796
 20
2.373916038005523
 30
0.0
 11
-11.3977211404796
 21
2.373916038005523
 31
0.0
  0
LINE
  5
3ABA
330
47C4
100
AcDbEntity
  8
0
 62
     0
100
AcDbLine
 10
-11.59740041919901
 20
2.556888385901431
 30
0.0
 11
-11.59740041919901
 21
2.556888385901431
 31
0.0
  0
LINE
  5
3ABB
330
47C4
100
AcDbEntity
  8
0
 62
     0
100
AcDbLine
 10
-10.91173266602761
 20
2.457336856615788
 30
0.0
 11
-10.91173266602761
 21
2.457336856615788
 31
0.0
  0
LINE
  5
3ABC
330
47C4
100
AcDbEntity
  8
0
 62
     0
100
AcDbLine
 10
-11.11141194474702
 20
2.640309204511696
 30
0.0
 11
-11.11141194474702
 21
2.640309204511696
 31
0.0
  0
LINE
  5
3ABD
330
47C4
100
AcDbEntity
  8
0
 62
     0
100
AcDbLine
 10
-11.56299431354322
 20
3.054108206676288
 30
0.0
 11
-11.56299431354322
 21
3.054108206676288
 31
0.0
  0
LINE
  5
3ABE
330
47C4
100
AcDbEntity
  8
0
 62
     0
100
AcDbLine
 10
-10.42574419157562
 20
2.540757675226052
 30
0.0
 11
-10.42574419157562
 21
2.540757675226052
 31
0.0
  0
LINE
  5
3ABF
330
47C4
100
AcDbEntity
  8
0
 62
     0
100
AcDbLine
 10
-10.62542347029503
 20
2.72373002312196
 30
0.0
 11
-10.62542347029503
 21
2.72373002312196
 31
0.0
  0
LINE
  5
3AC0
330
47C4
100
AcDbEntity
  8
0
 62
     0
100
AcDbLine
 10
-11.07700583909123
 20
3.137529025286552
 30
0.0
 11
-11.07700583909123
 21
3.137529025286552
 31
0.0
  0
LINE
  5
3AC1
330
47C4
100
AcDbEntity
  8
0
 62
     0
100
AcDbLine
 10
-9.621497666733933
 20
2.332548720882223
 30
0.0
 11
-9.621497666733933
 21
2.332548720882223
 31
0.0
  0
LINE
  5
3AC2
330
47C4
100
AcDbEntity
  8
0
 62
     0
100
AcDbLine
 10
-9.939755717123636
 20
2.624178493836317
 30
0.0
 11
-9.939755717123636
 21
2.624178493836317
 31
0.0
  0
LINE
  5
3AC3
330
47C4
100
AcDbEntity
  8
0
 62
     0
100
AcDbLine
 10
-10.13943499584304
 20
2.807150841732225
 30
0.0
 11
-10.13943499584304
 21
2.807150841732225
 31
0.0
  0
LINE
  5
3AC4
330
47C4
100
AcDbEntity
  8
0
 62
     0
100
AcDbLine
 10
-10.59101736463924
 20
3.220949843896816
 30
0.0
 11
-10.59101736463924
 21
3.220949843896816
 31
0.0
  0
LINE
  5
3AC5
330
47C4
100
AcDbEntity
  8
0
 62
     0
100
AcDbLine
 10
-9.135509192281947
 20
2.415969539492489
 30
0.0
 11
-9.135509192281947
 21
2.415969539492489
 31
0.0
  0
LINE
  5
3AC6
330
47C4
100
AcDbEntity
  8
0
 62
     0
100
AcDbLine
 10
-9.45376724267165
 20
2.707599312446582
 30
0.0
 11
-9.45376724267165
 21
2.707599312446582
 31
0.0
  0
LINE
  5
3AC7
330
47C4
100
AcDbEntity
  8
0
 62
     0
100
AcDbLine
 10
-9.653446521391058
 20
2.89057166034249
 30
0.0
 11
-9.653446521391058
 21
2.89057166034249
 31
0.0
  0
LINE
  5
3AC8
330
47C4
100
AcDbEntity
  8
0
 62
     0
100
AcDbLine
 10
-10.10502889018725
 20
3.304370662507081
 30
0.0
 11
-10.10502889018725
 21
3.304370662507081
 31
0.0
  0
LINE
  5
3AC9
330
47C4
100
AcDbEntity
  8
0
 62
     0
100
AcDbLine
 10
-8.649520717829958
 20
2.499390358102752
 30
0.0
 11
-8.649520717829958
 21
2.499390358102752
 31
0.0
  0
LINE
  5
3ACA
330
47C4
100
AcDbEntity
  8
0
 62
     0
100
AcDbLine
 10
-8.967778768219661
 20
2.791020131056846
 30
0.0
 11
-8.967778768219661
 21
2.791020131056846
 31
0.0
  0
LINE
  5
3ACB
330
47C4
100
AcDbEntity
  8
0
 62
     0
100
AcDbLine
 10
-9.167458046939069
 20
2.973992478952754
 30
0.0
 11
-9.167458046939069
 21
2.973992478952754
 31
0.0
  0
LINE
  5
3ACC
330
47C4
100
AcDbEntity
  8
0
 62
     0
100
AcDbLine
 10
-8.163532243377968
 20
2.582811176713018
 30
0.0
 11
-8.163532243377968
 21
2.582811176713018
 31
0.0
  0
LINE
  5
3ACD
330
47C4
100
AcDbEntity
  8
0
 62
     0
100
AcDbLine
 10
-8.481790293767671
 20
2.874440949667111
 30
0.0
 11
-8.481790293767671
 21
2.874440949667111
 31
0.0
  0
LINE
  5
3ACE
330
47C4
100
AcDbEntity
  8
0
 62
     0
100
AcDbLine
 10
-8.681469572487079
 20
3.057413297563019
 30
0.0
 11
-8.681469572487079
 21
3.057413297563019
 31
0.0
  0
LINE
  5
3ACF
330
47C4
100
AcDbEntity
  8
0
 62
     0
100
AcDbLine
 10
-7.995801819315682
 20
2.957861768277376
 30
0.0
 11
-7.995801819315682
 21
2.957861768277376
 31
0.0
  0
LINE
  5
3AD0
330
47C4
100
AcDbEntity
  8
0
 62
     0
100
AcDbLine
 10
-8.19548109803509
 20
3.140834116173284
 30
0.0
 11
-8.19548109803509
 21
3.140834116173284
 31
0.0
  0
LINE
  5
3AD1
330
47C4
100
AcDbEntity
  8
0
 62
     0
100
AcDbLine
 10
-11.59443475408753
 20
2.489041346502278
 30
0.0
 11
-11.59443475408753
 21
2.489041346502278
 31
0.0
  0
LINE
  5
3AD2
330
47C4
100
AcDbEntity
  8
0
 62
     0
100
AcDbLine
 10
-11.14958272394385
 20
2.470245620056962
 30
0.0
 11
-11.14958272394385
 21
2.470245620056962
 31
0.0
  0
LINE
  5
3AD3
330
47C4
100
AcDbEntity
  8
0
 62
     0
100
AcDbLine
 10
-11.69778716372223
 20
2.819490365482397
 30
0.0
 11
-11.69778716372223
 21
2.819490365482397
 31
0.0
  0
LINE
  5
3AD4
330
47C4
100
AcDbEntity
  8
0
 62
     0
100
AcDbLine
 10
-10.70473069380018
 20
2.451449893611645
 30
0.0
 11
-10.70473069380018
 21
2.451449893611645
 31
0.0
  0
LINE
  5
3AD5
330
47C4
100
AcDbEntity
  8
0
 62
     0
100
AcDbLine
 10
-11.25293513357855
 20
2.800694639037081
 30
0.0
 11
-11.25293513357855
 21
2.800694639037081
 31
0.0
  0
LINE
  5
3AD6
330
47C4
100
AcDbEntity
  8
0
 62
     0
100
AcDbLine
 10
-11.42864168478957
 20
2.912632057442669
 30
0.0
 11
-11.42864168478957
 21
2.912632057442669
 31
0.0
  0
LINE
  5
3AD7
330
47C4
100
AcDbEntity
  8
0
 62
     0
100
AcDbLine
 10
-10.2598786636565
 20
2.432654167166328
 30
0.0
 11
-10.2598786636565
 21
2.432654167166328
 31
0.0
  0
LINE
  5
3AD8
330
47C4
100
AcDbEntity
  8
0
 62
     0
100
AcDbLine
 10
-10.80808310343488
 20
2.781898912591763
 30
0.0
 11
-10.80808310343488
 21
2.781898912591763
 31
0.0
  0
LINE
  5
3AD9
330
47C4
100
AcDbEntity
  8
0
 62
     0
100
AcDbLine
 10
-10.9837896546459
 20
2.893836330997352
 30
0.0
 11
-10.9837896546459
 21
2.893836330997352
 31
0.0
  0
LINE
  5
3ADA
330
47C4
100
AcDbEntity
  8
0
 62
     0
100
AcDbLine
 10
-9.815026633512834
 20
2.413858440721011
 30
0.0
 11
-9.815026633512834
 21
2.413858440721011
 31
0.0
  0
LINE
  5
3ADB
330
47C4
100
AcDbEntity
  8
0
 62
     0
100
AcDbLine
 10
-10.36323107329121
 20
2.763103186146447
 30
0.0
 11
-10.36323107329121
 21
2.763103186146447
 31
0.0
  0
LINE
  5
3ADC
330
47C4
100
AcDbEntity
  8
0
 62
     0
100
AcDbLine
 10
-10.53893762450222
 20
2.875040604552036
 30
0.0
 11
-10.53893762450222
 21
2.875040604552036
 31
0.0
  0
LINE
  5
3ADD
330
47C4
100
AcDbEntity
  8
0
 62
     0
100
AcDbLine
 10
-9.370174603369161
 20
2.395062714275695
 30
0.0
 11
-9.370174603369161
 21
2.395062714275695
 31
0.0
  0
LINE
  5
3ADE
330
47C4
100
AcDbEntity
  8
0
 62
     0
100
AcDbLine
 10
-9.918379043147536
 20
2.744307459701131
 30
0.0
 11
-9.918379043147536
 21
2.744307459701131
 31
0.0
  0
LINE
  5
3ADF
330
47C4
100
AcDbEntity
  8
0
 62
     0
100
AcDbLine
 10
-10.09408559435855
 20
2.85624487810672
 30
0.0
 11
-10.09408559435855
 21
2.85624487810672
 31
0.0
  0
LINE
  5
3AE0
330
47C4
100
AcDbEntity
  8
0
 62
     0
100
AcDbLine
 10
-10.82151071637216
 20
3.319665790305855
 30
0.0
 11
-10.82151071637216
 21
3.319665790305855
 31
0.0
  0
LINE
  5
3AE1
330
47C4
100
AcDbEntity
  8
0
 62
     0
100
AcDbLine
 10
-8.925322573225486
 20
2.376266987830378
 30
0.0
 11
-8.925322573225486
 21
2.376266987830378
 31
0.0
  0
LINE
  5
3AE2
330
47C4
100
AcDbEntity
  8
0
 62
     0
100
AcDbLine
 10
-9.473527013003861
 20
2.725511733255814
 30
0.0
 11
-9.473527013003861
 21
2.725511733255814
 31
0.0
  0
LINE
  5
3AE3
330
47C4
100
AcDbEntity
  8
0
 62
     0
100
AcDbLine
 10
-9.649233564214879
 20
2.837449151661402
 30
0.0
 11
-9.649233564214879
 21
2.837449151661402
 31
0.0
  0
LINE
  5
3AE4
330
47C4
100
AcDbEntity
  8
0
 62
     0
100
AcDbLine
 10
-10.37665868622849
 20
3.300870063860539
 30
0.0
 11
-10.37665868622849
 21
3.300870063860539
 31
0.0
  0
LINE
  5
3AE5
330
47C4
100
AcDbEntity
  8
0
 62
     0
100
AcDbLine
 10
-8.480470543081812
 20
2.357471261385063
 30
0.0
 11
-8.480470543081812
 21
2.357471261385063
 31
0.0
  0
LINE
  5
3AE6
330
47C4
100
AcDbEntity
  8
0
 62
     0
100
AcDbLine
 10
-9.028674982860188
 20
2.706716006810498
 30
0.0
 11
-9.028674982860188
 21
2.706716006810498
 31
0.0
  0
LINE
  5
3AE7
330
47C4
100
AcDbEntity
  8
0
 62
     0
100
AcDbLine
 10
-9.204381534071206
 20
2.818653425216087
 30
0.0
 11
-9.204381534071206
 21
2.818653425216087
 31
0.0
  0
LINE
  5
3AE8
330
47C4
100
AcDbEntity
  8
0
 62
     0
100
AcDbLine
 10
-9.93180665608482
 20
3.282074337415223
 30
0.0
 11
-9.93180665608482
 21
3.282074337415223
 31
0.0
  0
LINE
  5
3AE9
330
47C4
100
AcDbEntity
  8
0
 62
     0
100
AcDbLine
 10
-8.035618512938137
 20
2.338675534939745
 30
0.0
 11
-8.035618512938137
 21
2.338675534939745
 31
0.0
  0
LINE
  5
3AEA
330
47C4
100
AcDbEntity
  8
0
 62
     0
100
AcDbLine
 10
-8.583822952716513
 20
2.687920280365181
 30
0.0
 11
-8.583822952716513
 21
2.687920280365181
 31
0.0
  0
LINE
  5
3AEB
330
47C4
100
AcDbEntity
  8
0
 62
     0
100
AcDbLine
 10
-8.759529503927531
 20
2.799857698770769
 30
0.0
 11
-8.759529503927531
 21
2.799857698770769
 31
0.0
  0
LINE
  5
3AEC
330
47C4
100
AcDbEntity
  8
0
 62
     0
100
AcDbLine
 10
-9.486954625941145
 20
3.263278610969906
 30
0.0
 11
-9.486954625941145
 21
3.263278610969906
 31
0.0
  0
LINE
  5
3AED
330
47C4
100
AcDbEntity
  8
0
 62
     0
100
AcDbLine
 10
-8.138970922572839
 20
2.669124553919865
 30
0.0
 11
-8.138970922572839
 21
2.669124553919865
 31
0.0
  0
LINE
  5
3AEE
330
47C4
100
AcDbEntity
  8
0
 62
     0
100
AcDbLine
 10
-8.314677473783858
 20
2.781061972325454
 30
0.0
 11
-8.314677473783858
 21
2.781061972325454
 31
0.0
  0
LINE
  5
3AEF
330
47C4
100
AcDbEntity
  8
0
 62
     0
100
AcDbLine
 10
-9.042102595797471
 20
3.244482884524589
 30
0.0
 11
-9.042102595797471
 21
3.244482884524589
 31
0.0
  0
LINE
  5
3AF0
330
47C4
100
AcDbEntity
  8
0
 62
     0
100
AcDbLine
 10
-7.869825443640182
 20
2.762266245880137
 30
0.0
 11
-7.869825443640182
 21
2.762266245880137
 31
0.0
  0
LINE
  5
3AF1
330
47C4
100
AcDbEntity
  8
0
 62
     0
100
AcDbLine
 10
-8.597250565653796
 20
3.225687158079274
 30
0.0
 11
-8.597250565653796
 21
3.225687158079274
 31
0.0
  0
LINE
  5
3AF2
330
47C4
100
AcDbEntity
  8
0
 62
     0
100
AcDbLine
 10
-8.152398535510123
 20
3.206891431633957
 30
0.0
 11
-8.152398535510123
 21
3.206891431633957
 31
0.0
  0
LINE
  5
3AF3
330
47C4
100
AcDbEntity
  8
0
 62
     0
100
AcDbLine
 10
-7.832523446156728
 20
2.503500372188816
 30
0.0
 11
-7.832523446156728
 21
2.503500372188816
 31
0.0
  0
LINE
  5
3AF4
330
47C4
100
AcDbEntity
  8
0
 62
     0
100
AcDbLine
 10
-8.148133393694058
 20
2.4619495343321
 30
0.0
 11
-8.148133393694058
 21
2.4619495343321
 31
0.0
  0
LINE
  5
3AF5
330
47C4
100
AcDbEntity
  8
0
 62
     0
100
AcDbLine
 10
-8.35674991660813
 20
2.434484648052464
 30
0.0
 11
-8.35674991660813
 21
2.434484648052464
 31
0.0
  0
LINE
  5
3AF6
330
47C4
100
AcDbEntity
  8
0
 62
     0
100
AcDbLine
 10
-8.883041897187395
 20
2.365196994348987
 30
0.0
 11
-8.883041897187395
 21
2.365196994348987
 31
0.0
  0
LINE
  5
3AF7
330
47C4
100
AcDbEntity
  8
0
 62
     0
100
AcDbLine
 10
-7.928908779158941
 20
2.790625960900734
 30
0.0
 11
-7.928908779158941
 21
2.790625960900734
 31
0.0
  0
LINE
  5
3AF8
330
47C4
100
AcDbEntity
  8
0
 62
     0
100
AcDbLine
 10
-8.137525302073013
 20
2.763161074621098
 30
0.0
 11
-8.137525302073013
 21
2.763161074621098
 31
0.0
  0
LINE
  5
3AF9
330
47C4
100
AcDbEntity
  8
0
 62
     0
100
AcDbLine
 10
-8.663817282652278
 20
2.693873420917621
 30
0.0
 11
-8.663817282652278
 21
2.693873420917621
 31
0.0
  0
LINE
  5
3AFA
330
47C4
100
AcDbEntity
  8
0
 62
     0
100
AcDbLine
 10
-8.979427230189607
 20
2.652322583060904
 30
0.0
 11
-8.979427230189607
 21
2.652322583060904
 31
0.0
  0
LINE
  5
3AFB
330
47C4
100
AcDbEntity
  8
0
 62
     0
100
AcDbLine
 10
-9.188043753103679
 20
2.624857696781268
 30
0.0
 11
-9.188043753103679
 21
2.624857696781268
 31
0.0
  0
LINE
  5
3AFC
330
47C4
100
AcDbEntity
  8
0
 62
     0
100
AcDbLine
 10
-9.714335733682943
 20
2.555570043077791
 30
0.0
 11
-9.714335733682943
 21
2.555570043077791
 31
0.0
  0
LINE
  5
3AFD
330
47C4
100
AcDbEntity
  8
0
 62
     0
100
AcDbLine
 10
-10.02994568122027
 20
2.514019205221075
 30
0.0
 11
-10.02994568122027
 21
2.514019205221075
 31
0.0
  0
LINE
  5
3AFE
330
47C4
100
AcDbEntity
  8
0
 62
     0
100
AcDbLine
 10
-10.23856220413434
 20
2.486554318941438
 30
0.0
 11
-10.23856220413434
 21
2.486554318941438
 31
0.0
  0
LINE
  5
3AFF
330
47C4
100
AcDbEntity
  8
0
 62
     0
100
AcDbLine
 10
-10.76485418471361
 20
2.417266665237961
 30
0.0
 11
-10.76485418471361
 21
2.417266665237961
 31
0.0
  0
LINE
  5
3B00
330
47C4
100
AcDbEntity
  8
0
 62
     0
100
AcDbLine
 10
-11.08046413225093
 20
2.375715827381245
 30
0.0
 11
-11.08046413225093
 21
2.375715827381245
 31
0.0
  0
LINE
  5
3B01
330
47C4
100
AcDbEntity
  8
0
 62
     0
100
AcDbLine
 10
-11.28908065516501
 20
2.348250941101609
 30
0.0
 11
-11.28908065516501
 21
2.348250941101609
 31
0.0
  0
LINE
  5
3B02
330
47C4
100
AcDbEntity
  8
0
 62
     0
100
AcDbLine
 10
-7.91830068753789
 20
3.091837501189731
 30
0.0
 11
-7.91830068753789
 21
3.091837501189731
 31
0.0
  0
LINE
  5
3B03
330
47C4
100
AcDbEntity
  8
0
 62
     0
100
AcDbLine
 10
-8.444592668117154
 20
3.022549847486254
 30
0.0
 11
-8.444592668117154
 21
3.022549847486254
 31
0.0
  0
LINE
  5
3B04
330
47C4
100
AcDbEntity
  8
0
 62
     0
100
AcDbLine
 10
-8.760202615654483
 20
2.980999009629537
 30
0.0
 11
-8.760202615654483
 21
2.980999009629537
 31
0.0
  0
LINE
  5
3B05
330
47C4
100
AcDbEntity
  8
0
 62
     0
100
AcDbLine
 10
-8.968819138568555
 20
2.953534123349901
 30
0.0
 11
-8.968819138568555
 21
2.953534123349901
 31
0.0
  0
LINE
  5
3B06
330
47C4
100
AcDbEntity
  8
0
 62
     0
100
AcDbLine
 10
-9.49511111914782
 20
2.884246469646424
 30
0.0
 11
-9.49511111914782
 21
2.884246469646424
 31
0.0
  0
LINE
  5
3B07
330
47C4
100
AcDbEntity
  8
0
 62
     0
100
AcDbLine
 10
-9.810721066685148
 20
2.842695631789708
 30
0.0
 11
-9.810721066685148
 21
2.842695631789708
 31
0.0
  0
LINE
  5
3B08
330
47C4
100
AcDbEntity
  8
0
 62
     0
100
AcDbLine
 10
-10.01933758959922
 20
2.815230745510072
 30
0.0
 11
-10.01933758959922
 21
2.815230745510072
 31
0.0
  0
LINE
  5
3B09
330
47C4
100
AcDbEntity
  8
0
 62
     0
100
AcDbLine
 10
-10.54562957017848
 20
2.745943091806594
 30
0.0
 11
-10.54562957017848
 21
2.745943091806594
 31
0.0
  0
LINE
  5
3B0A
330
47C4
100
AcDbEntity
  8
0
 62
     0
100
AcDbLine
 10
-10.86123951771581
 20
2.704392253949878
 30
0.0
 11
-10.86123951771581
 21
2.704392253949878
 31
0.0
  0
LINE
  5
3B0B
330
47C4
100
AcDbEntity
  8
0
 62
     0
100
AcDbLine
 10
-11.06985604062988
 20
2.676927367670242
 30
0.0
 11
-11.06985604062988
 21
2.676927367670242
 31
0.0
  0
LINE
  5
3B0C
330
47C4
100
AcDbEntity
  8
0
 62
     0
100
AcDbLine
 10
-11.59614802120915
 20
2.607639713966765
 30
0.0
 11
-11.59614802120915
 21
2.607639713966765
 31
0.0
  0
LINE
  5
3B0D
330
47C4
100
AcDbEntity
  8
0
 62
     0
100
AcDbLine
 10
-8.540978001119357
 20
3.30967543619817
 30
0.0
 11
-8.540978001119357
 21
3.30967543619817
 31
0.0
  0
LINE
  5
3B0E
330
47C4
100
AcDbEntity
  8
0
 62
     0
100
AcDbLine
 10
-8.74959452403343
 20
3.282210549918534
 30
0.0
 11
-8.74959452403343
 21
3.282210549918534
 31
0.0
  0
LINE
  5
3B0F
330
47C4
100
AcDbEntity
  8
0
 62
     0
100
AcDbLine
 10
-9.275886504612694
 20
3.212922896215057
 30
0.0
 11
-9.275886504612694
 21
3.212922896215057
 31
0.0
  0
LINE
  5
3B10
330
47C4
100
AcDbEntity
  8
0
 62
     0
100
AcDbLine
 10
-9.591496452150023
 20
3.171372058358341
 30
0.0
 11
-9.591496452150023
 21
3.171372058358341
 31
0.0
  0
LINE
  5
3B11
330
47C4
100
AcDbEntity
  8
0
 62
     0
100
AcDbLine
 10
-9.800112975064097
 20
3.143907172078705
 30
0.0
 11
-9.800112975064097
 21
3.143907172078705
 31
0.0
  0
LINE
  5
3B12
330
47C4
100
AcDbEntity
  8
0
 62
     0
100
AcDbLine
 10
-10.32640495564336
 20
3.074619518375227
 30
0.0
 11
-10.32640495564336
 21
3.074619518375227
 31
0.0
  0
LINE
  5
3B13
330
47C4
100
AcDbEntity
  8
0
 62
     0
100
AcDbLine
 10
-10.64201490318069
 20
3.033068680518511
 30
0.0
 11
-10.64201490318069
 21
3.033068680518511
 31
0.0
  0
LINE
  5
3B14
330
47C4
100
AcDbEntity
  8
0
 62
     0
100
AcDbLine
 10
-10.85063142609476
 20
3.005603794238875
 30
0.0
 11
-10.85063142609476
 21
3.005603794238875
 31
0.0
  0
LINE
  5
3B15
330
47C4
100
AcDbEntity
  8
0
 62
     0
100
AcDbLine
 10
-11.37692340667402
 20
2.936316140535398
 30
0.0
 11
-11.37692340667402
 21
2.936316140535398
 31
0.0
  0
LINE
  5
3B16
330
47C4
100
AcDbEntity
  8
0
 62
     0
100
AcDbLine
 10
-11.69253335421135
 20
2.894765302678681
 30
0.0
 11
-11.69253335421135
 21
2.894765302678681
 31
0.0
  0
LINE
  5
3B17
330
47C4
100
AcDbEntity
  8
0
 62
     0
100
AcDbLine
 10
-11.1576987921389
 20
3.264992567104032
 30
0.0
 11
-11.1576987921389
 21
3.264992567104032
 31
0.0
  0
LINE
  5
3B18
330
47C4
100
AcDbEntity
  8
0
 62
     0
100
AcDbLine
 10
-11.47330873967623
 20
3.223441729247316
 30
0.0
 11
-11.47330873967623
 21
3.223441729247316
 31
0.0
  0
LINE
  5
3B19
330
47C4
100
AcDbEntity
  8
0
 62
     0
100
AcDbLine
 10
-11.6819252625903
 20
3.19597684296768
 30
0.0
 11
-11.6819252625903
 21
3.19597684296768
 31
0.0
  0
LINE
  5
3B1A
330
47C4
100
AcDbEntity
  8
0
 62
     0
100
AcDbLine
 10
-8.069820152359254
 20
2.445549080061468
 30
0.0
 11
-8.069820152359254
 21
2.445549080061468
 31
0.0
  0
LINE
  5
3B1B
330
47C4
100
AcDbEntity
  8
0
 62
     0
100
AcDbLine
 10
-8.059686939594845
 20
2.722960624920894
 30
0.0
 11
-8.059686939594845
 21
2.722960624920894
 31
0.0
  0
LINE
  5
3B1C
330
47C4
100
AcDbEntity
  8
0
 62
     0
100
AcDbLine
 10
-8.502642554590785
 20
2.383068827057691
 30
0.0
 11
-8.502642554590785
 21
2.383068827057691
 31
0.0
  0
LINE
  5
3B1D
330
47C4
100
AcDbEntity
  8
0
 62
     0
100
AcDbLine
 10
-8.049553726830437
 20
3.000372169780319
 30
0.0
 11
-8.049553726830437
 21
3.000372169780319
 31
0.0
  0
LINE
  5
3B1E
330
47C4
100
AcDbEntity
  8
0
 62
     0
100
AcDbLine
 10
-8.492509341826377
 20
2.660480371917116
 30
0.0
 11
-8.492509341826377
 21
2.660480371917116
 31
0.0
  0
LINE
  5
3B1F
330
47C4
100
AcDbEntity
  8
0
 62
     0
100
AcDbLine
 10
-8.039420514066026
 20
3.277783714639745
 30
0.0
 11
-8.039420514066026
 21
3.277783714639745
 31
0.0
  0
LINE
  5
3B20
330
47C4
100
AcDbEntity
  8
0
 62
     0
100
AcDbLine
 10
-8.482376129061966
 20
2.937891916776544
 30
0.0
 11
-8.482376129061966
 21
2.937891916776544
 31
0.0
  0
LINE
  5
3B21
330
47C4
100
AcDbEntity
  8
0
 62
     0
100
AcDbLine
 10
-8.913431443953538
 20
2.607131540348472
 30
0.0
 11
-8.913431443953538
 21
2.607131540348472
 31
0.0
  0
LINE
  5
3B22
330
47C4
100
AcDbEntity
  8
0
 62
     0
100
AcDbLine
 10
-8.472242916297558
 20
3.21530346163597
 30
0.0
 11
-8.472242916297558
 21
3.21530346163597
 31
0.0
  0
LINE
  5
3B23
330
47C4
100
AcDbEntity
  8
0
 62
     0
100
AcDbLine
 10
-8.903298231189131
 20
2.884543085207898
 30
0.0
 11
-8.903298231189131
 21
2.884543085207898
 31
0.0
  0
LINE
  5
3B24
330
47C4
100
AcDbEntity
  8
0
 62
     0
100
AcDbLine
 10
-9.34129538780825
 20
2.548456046276001
 30
0.0
 11
-9.34129538780825
 21
2.548456046276001
 31
0.0
  0
LINE
  5
3B25
330
47C4
100
AcDbEntity
  8
0
 62
     0
100
AcDbLine
 10
-8.893165018424721
 20
3.161954630067326
 30
0.0
 11
-8.893165018424721
 21
3.161954630067326
 31
0.0
  0
LINE
  5
3B26
330
47C4
100
AcDbEntity
  8
0
 62
     0
100
AcDbLine
 10
-9.331162175043839
 20
2.825867591135428
 30
0.0
 11
-9.331162175043839
 21
2.825867591135428
 31
0.0
  0
LINE
  5
3B27
330
47C4
100
AcDbEntity
  8
0
 62
     0
100
AcDbLine
 10
-9.774117790039779
 20
2.485975793272225
 30
0.0
 11
-9.774117790039779
 21
2.485975793272225
 31
0.0
  0
LINE
  5
3B28
330
47C4
100
AcDbEntity
  8
0
 62
     0
100
AcDbLine
 10
-9.321028962279433
 20
3.103279135994852
 30
0.0
 11
-9.321028962279433
 21
3.103279135994852
 31
0.0
  0
LINE
  5
3B29
330
47C4
100
AcDbEntity
  8
0
 62
     0
100
AcDbLine
 10
-9.763984577275373
 20
2.76338733813165
 30
0.0
 11
-9.763984577275373
 21
2.76338733813165
 31
0.0
  0
LINE
  5
3B2A
330
47C4
100
AcDbEntity
  8
0
 62
     0
100
AcDbLine
 10
-10.19503989216694
 20
2.432626961703578
 30
0.0
 11
-10.19503989216694
 21
2.432626961703578
 31
0.0
  0
LINE
  5
3B2B
330
47C4
100
AcDbEntity
  8
0
 62
     0
100
AcDbLine
 10
-9.753851364510961
 20
3.040798882991077
 30
0.0
 11
-9.753851364510961
 21
3.040798882991077
 31
0.0
  0
LINE
  5
3B2C
330
47C4
100
AcDbEntity
  8
0
 62
     0
100
AcDbLine
 10
-10.18490667940253
 20
2.710038506563005
 30
0.0
 11
-10.18490667940253
 21
2.710038506563005
 31
0.0
  0
LINE
  5
3B2D
330
47C4
100
AcDbEntity
  8
0
 62
     0
100
AcDbLine
 10
-10.62290383602165
 20
2.373951467631107
 30
0.0
 11
-10.62290383602165
 21
2.373951467631107
 31
0.0
  0
LINE
  5
3B2E
330
47C4
100
AcDbEntity
  8
0
 62
     0
100
AcDbLine
 10
-9.743718151746552
 20
3.318210427850502
 30
0.0
 11
-9.743718151746552
 21
3.318210427850502
 31
0.0
  0
LINE
  5
3B2F
330
47C4
100
AcDbEntity
  8
0
 62
     0
100
AcDbLine
 10
-10.17477346663812
 20
2.98745005142243
 30
0.0
 11
-10.17477346663812
 21
2.98745005142243
 31
0.0
  0
LINE
  5
3B30
330
47C4
100
AcDbEntity
  8
0
 62
     0
100
AcDbLine
 10
-10.61277062325724
 20
2.651363012490532
 30
0.0
 11
-10.61277062325724
 21
2.651363012490532
 31
0.0
  0
LINE
  5
3B31
330
47C4
100
AcDbEntity
  8
0
 62
     0
100
AcDbLine
 10
-10.16464025387371
 20
3.264861596281857
 30
0.0
 11
-10.16464025387371
 21
3.264861596281857
 31
0.0
  0
LINE
  5
3B32
330
47C4
100
AcDbEntity
  8
0
 62
     0
100
AcDbLine
 10
-10.60263741049283
 20
2.928774557349958
 30
0.0
 11
-10.60263741049283
 21
2.928774557349958
 31
0.0
  0
LINE
  5
3B33
330
47C4
100
AcDbEntity
  8
0
 62
     0
100
AcDbLine
 10
-11.04559302548877
 20
2.588882759486756
 30
0.0
 11
-11.04559302548877
 21
2.588882759486756
 31
0.0
  0
LINE
  5
3B34
330
47C4
100
AcDbEntity
  8
0
 62
     0
100
AcDbLine
 10
-10.59250419772842
 20
3.206186102209386
 30
0.0
 11
-10.59250419772842
 21
3.206186102209386
 31
0.0
  0
LINE
  5
3B35
330
47C4
100
AcDbEntity
  8
0
 62
     0
100
AcDbLine
 10
-11.03545981272436
 20
2.866294304346183
 30
0.0
 11
-11.03545981272436
 21
2.866294304346183
 31
0.0
  0
LINE
  5
3B36
330
47C4
100
AcDbEntity
  8
0
 62
     0
100
AcDbLine
 10
-11.46651512761593
 20
2.535533927918112
 30
0.0
 11
-11.46651512761593
 21
2.535533927918112
 31
0.0
  0
LINE
  5
3B37
330
47C4
100
AcDbEntity
  8
0
 62
     0
100
AcDbLine
 10
-11.02532659995995
 20
3.14370584920561
 30
0.0
 11
-11.02532659995995
 21
3.14370584920561
 31
0.0
  0
LINE
  5
3B38
330
47C4
100
AcDbEntity
  8
0
 62
     0
100
AcDbLine
 10
-11.45638191485152
 20
2.812945472777538
 30
0.0
 11
-11.45638191485152
 21
2.812945472777538
 31
0.0
  0
LINE
  5
3B39
330
47C4
100
AcDbEntity
  8
0
 62
     0
100
AcDbLine
 10
-11.44624870208711
 20
3.090357017636965
 30
0.0
 11
-11.44624870208711
 21
3.090357017636965
 31
0.0
  0
LINE
  5
3B3A
330
47C4
100
AcDbEntity
  8
0
 62
     0
100
AcDbLine
 10
-7.965335813792472
 20
2.625559851074547
 30
0.0
 11
-7.948438876962011
 21
2.675917478340216
 31
0.0
  0
LINE
  5
3B3B
330
47C4
100
AcDbEntity
  8
0
 62
     0
100
AcDbLine
 10
-8.462758089812856
 20
2.961075981718609
 30
0.0
 11
-8.445861152982395
 21
3.011433608984278
 31
0.0
  0
LINE
  5
3B3C
330
47C4
100
AcDbEntity
  8
0
 62
     0
100
AcDbLine
 10
-8.66552133761038
 20
2.356784437149588
 30
0.0
 11
-8.648624400779919
 21
2.407142064415257
 31
0.0
  0
LINE
  5
3B3D
330
47C4
100
AcDbEntity
  8
0
 62
     0
100
AcDbLine
 10
-8.960180365833242
 20
3.29659211236267
 30
0.0
 11
-8.948201304530781
 21
3.33229308645724
 31
0.0
  0
LINE
  5
3B3E
330
47C4
100
AcDbEntity
  8
0
 62
     0
100
AcDbLine
 10
-9.162943613630764
 20
2.692300567793648
 30
0.0
 11
-9.146046676800303
 21
2.742658195059318
 31
0.0
  0
LINE
  5
3B3F
330
47C4
100
AcDbEntity
  8
0
 62
     0
100
AcDbLine
 10
-9.660365889651151
 20
3.02781669843771
 30
0.0
 11
-9.64346895282069
 21
3.07817432570338
 31
0.0
  0
LINE
  5
3B40
330
47C4
100
AcDbEntity
  8
0
 62
     0
100
AcDbLine
 10
-9.863129137448675
 20
2.423525153868689
 30
0.0
 11
-9.846232200618214
 21
2.473882781134358
 31
0.0
  0
LINE
  5
3B41
330
47C4
100
AcDbEntity
  8
0
 62
     0
100
AcDbLine
 10
-10.36055141346906
 20
2.759041284512749
 30
0.0
 11
-10.34365447663859
 21
2.809398911778418
 31
0.0
  0
LINE
  5
3B42
330
47C4
100
AcDbEntity
  8
0
 62
     0
100
AcDbLine
 10
-10.85797368948944
 20
3.094557415156811
 30
0.0
 11
-10.84107675265898
 21
3.14491504242248
 31
0.0
  0
LINE
  5
3B43
330
47C4
100
AcDbEntity
  8
0
 62
     0
100
AcDbLine
 10
-11.06073693728696
 20
2.490265870587789
 30
0.0
 11
-11.0438400004565
 21
2.540623497853458
 31
0.0
  0
LINE
  5
3B44
330
47C4
100
AcDbEntity
  8
0
 62
     0
100
AcDbLine
 10
-11.55815921330735
 20
2.82578200123185
 30
0.0
 11
-11.54126227647689
 21
2.876139628497519
 31
0.0
  0
LINE
  5
3B45
330
47C4
100
AcDbEntity
  8
0
 62
     0
100
AcDbLine
 10
-11.10218967668363
 20
2.51822679828775
 30
0.0
 11
-11.06073779805588
 21
2.490267153114213
 31
0.0
  0
LINE
  5
3B46
330
47C4
100
AcDbEntity
  8
0
 62
     0
100
AcDbLine
 10
-11.59961222021666
 20
2.853742540370198
 30
0.0
 11
-11.55816034158891
 21
2.825782895196661
 31
0.0
  0
LINE
  5
3B47
330
47C4
100
AcDbEntity
  8
0
 62
     0
100
AcDbLine
 10
-9.904581813016269
 20
2.451487018328565
 30
0.0
 11
-9.863129934388517
 21
2.423527373155028
 31
0.0
  0
LINE
  5
3B48
330
47C4
100
AcDbEntity
  8
0
 62
     0
100
AcDbLine
 10
-10.40200435654929
 20
2.787002760411013
 30
0.0
 11
-10.36055247792154
 21
2.759043115237476
 31
0.0
  0
LINE
  5
3B49
330
47C4
100
AcDbEntity
  8
0
 62
     0
100
AcDbLine
 10
-10.89942690008232
 20
3.122518502493461
 30
0.0
 11
-10.85797502145456
 21
3.094558857319924
 31
0.0
  0
LINE
  5
3B4A
330
47C4
100
AcDbEntity
  8
0
 62
     0
100
AcDbLine
 10
-8.706973949348899
 20
2.384747238369379
 30
0.0
 11
-8.665522070721147
 21
2.356787593195842
 31
0.0
  0
LINE
  5
3B4B
330
47C4
100
AcDbEntity
  8
0
 62
     0
100
AcDbLine
 10
-9.204396492881924
 20
2.720262980451827
 30
0.0
 11
-9.162944614254172
 21
2.69230333527829
 31
0.0
  0
LINE
  5
3B4C
330
47C4
100
AcDbEntity
  8
0
 62
     0
100
AcDbLine
 10
-9.701819036414949
 20
3.055778722534275
 30
0.0
 11
-9.660367157787197
 21
3.027819077360738
 31
0.0
  0
LINE
  5
3B4D
330
47C4
100
AcDbEntity
  8
0
 62
     0
100
AcDbLine
 10
-8.006788629214556
 20
2.653523200492643
 30
0.0
 11
-7.965336750586804
 21
2.625563555319105
 31
0.0
  0
LINE
  5
3B4E
330
47C4
100
AcDbEntity
  8
0
 62
     0
100
AcDbLine
 10
-8.504211172747581
 20
2.989038942575091
 30
0.0
 11
-8.462759294119829
 21
2.961079297401553
 31
0.0
  0
LINE
  5
3B4F
330
47C4
100
AcDbEntity
  8
0
 62
     0
100
AcDbLine
 10
-9.001633716280604
 20
3.324554684657538
 30
0.0
 11
-8.960181837652852
 21
3.296595039484
 31
0.0
  0
LINE
  5
3B50
330
47C4
100
AcDbEntity
  8
0
 62
     0
100
AcDbLine
 10
-8.006788630884182
 20
2.653523200568249
 30
0.0
 11
-7.948439854228107
 21
2.67592119741483
 31
0.0
  0
LINE
  5
3B51
330
47C4
100
AcDbEntity
  8
0
 62
     0
100
AcDbLine
 10
-8.706973950757083
 20
2.384747238409274
 30
0.0
 11
-8.648625174101008
 21
2.407145235255855
 31
0.0
  0
LINE
  5
3B52
330
47C4
100
AcDbEntity
  8
0
 62
     0
100
AcDbLine
 10
-8.504211174316232
 20
2.989038942789365
 30
0.0
 11
-8.445862397660157
 21
3.011436939635947
 31
0.0
  0
LINE
  5
3B53
330
47C4
100
AcDbEntity
  8
0
 62
     0
100
AcDbLine
 10
-9.204396494189133
 20
2.720262980630391
 30
0.0
 11
-9.146047717533058
 21
2.742660977476972
 31
0.0
  0
LINE
  5
3B54
330
47C4
100
AcDbEntity
  8
0
 62
     0
100
AcDbLine
 10
-9.904581814062034
 20
2.451487018471416
 30
0.0
 11
-9.846233037405959
 21
2.473885015317997
 31
0.0
  0
LINE
  5
3B55
330
47C4
100
AcDbEntity
  8
0
 62
     0
100
AcDbLine
 10
-9.001633717748285
 20
3.32455468501048
 30
0.0
 11
-8.981474492761124
 21
3.332293086457238
 31
0.0
  0
LINE
  5
3B56
330
47C4
100
AcDbEntity
  8
0
 62
     0
100
AcDbLine
 10
-9.701819037621186
 20
3.055778722851505
 30
0.0
 11
-9.643470260965111
 21
3.078176719698086
 31
0.0
  0
LINE
  5
3B57
330
47C4
100
AcDbEntity
  8
0
 62
     0
100
AcDbLine
 10
-10.40200435749408
 20
2.78700276069253
 30
0.0
 11
-10.34365558083801
 21
2.809400757539111
 31
0.0
  0
LINE
  5
3B58
330
47C4
100
AcDbEntity
  8
0
 62
     0
100
AcDbLine
 10
-11.10218967736698
 20
2.518226798533555
 30
0.0
 11
-11.04384090071091
 21
2.540624795380136
 31
0.0
  0
LINE
  5
3B59
330
47C4
100
AcDbEntity
  8
0
 62
     0
100
AcDbLine
 10
-10.89942690092613
 20
3.122518502913646
 30
0.0
 11
-10.84107812427006
 21
3.144916499760227
 31
0.0
  0
LINE
  5
3B5A
330
47C4
100
AcDbEntity
  8
0
 62
     0
100
AcDbLine
 10
-11.59961222079904
 20
2.853742540754671
 30
0.0
 11
-11.54126344414296
 21
2.876140537601252
 31
0.0
  0
LINE
  5
3B5B
330
47C4
100
AcDbEntity
  8
0
 62
     0
100
AcDbLine
 10
-8.562783896621159
 20
2.627783302979885
 30
0.0
 11
-8.488669934906999
 21
2.616288927005871
 31
0.0
  0
LINE
  5
3B5C
330
47C4
100
AcDbEntity
  8
0
 62
     0
100
AcDbLine
 10
-9.452151437191082
 20
2.765715814668053
 30
0.0
 11
-9.378037475476922
 21
2.754221438694039
 31
0.0
  0
LINE
  5
3B5D
330
47C4
100
AcDbEntity
  8
0
 62
     0
100
AcDbLine
 10
-10.341518977761
 20
2.903648326356221
 30
0.0
 11
-10.26740501604684
 21
2.892153950382207
 31
0.0
  0
LINE
  5
3B5E
330
47C4
100
AcDbEntity
  8
0
 62
     0
100
AcDbLine
 10
-11.23088651833092
 20
3.041580838044389
 30
0.0
 11
-11.15677255661676
 21
3.030086462070375
 31
0.0
  0
LINE
  5
3B5F
330
47C4
100
AcDbEntity
  8
0
 62
     0
100
AcDbLine
 10
-8.488669047474189
 20
2.616285996432309
 30
0.0
 11
-8.497875867862875
 21
2.695427504677907
 31
0.0
  0
LINE
  5
3B60
330
47C4
100
AcDbEntity
  8
0
 62
     0
100
AcDbLine
 10
-9.378036463918059
 20
2.754219063900289
 30
0.0
 11
-9.387243284306745
 21
2.833360572145887
 31
0.0
  0
LINE
  5
3B61
330
47C4
100
AcDbEntity
  8
0
 62
     0
100
AcDbLine
 10
-10.26740388036193
 20
2.89215213136827
 30
0.0
 11
-10.27661070075061
 21
2.971293639613868
 31
0.0
  0
LINE
  5
3B62
330
47C4
100
AcDbEntity
  8
0
 62
     0
100
AcDbLine
 10
-11.1567712968058
 20
3.03008519883625
 30
0.0
 11
-11.16597811719448
 21
3.109226707081848
 31
0.0
  0
LINE
  5
3B63
330
47C4
100
AcDbEntity
  8
0
 62
     0
100
AcDbLine
 10
-8.562783896698691
 20
2.627783301857328
 30
0.0
 11
-8.497876817172684
 21
2.695430426906399
 31
0.0
  0
LINE
  5
3B64
330
47C4
100
AcDbEntity
  8
0
 62
     0
100
AcDbLine
 10
-9.452151437220061
 20
2.765715813798178
 30
0.0
 11
-9.387244357694054
 21
2.833362938847248
 31
0.0
  0
LINE
  5
3B65
330
47C4
100
AcDbEntity
  8
0
 62
     0
100
AcDbLine
 10
-10.34151897774143
 20
2.903648325739025
 30
0.0
 11
-10.27661189821542
 21
2.971295450788096
 31
0.0
  0
LINE
  5
3B66
330
47C4
100
AcDbEntity
  8
0
 62
     0
100
AcDbLine
 10
-11.2308865182628
 20
3.041580837679873
 30
0.0
 11
-11.16597943873679
 21
3.109227962728944
 31
0.0
  0
LINE
  5
3B67
330
47C4
100
AcDbEntity
  8
0
 62
     0
100
AcDbLine
 10
-8.303989372960446
 20
2.709154665729866
 30
0.0
 11
-8.313624841169412
 21
2.761390236469302
 31
0.0
  0
LINE
  5
3B68
330
47C4
100
AcDbEntity
  8
0
 62
     0
100
AcDbLine
 10
-8.901706146222073
 20
2.761448580914806
 30
0.0
 11
-8.911341614431039
 21
2.813684151654242
 31
0.0
  0
LINE
  5
3B69
330
47C4
100
AcDbEntity
  8
0
 62
     0
100
AcDbLine
 10
-9.4994229194837
 20
2.813742496099745
 30
0.0
 11
-9.509058387692666
 21
2.865978066839181
 31
0.0
  0
LINE
  5
3B6A
330
47C4
100
AcDbEntity
  8
0
 62
     0
100
AcDbLine
 10
-10.09713969274532
 20
2.866036411284686
 30
0.0
 11
-10.10677516095429
 21
2.918271982024122
 31
0.0
  0
LINE
  5
3B6B
330
47C4
100
AcDbEntity
  8
0
 62
     0
100
AcDbLine
 10
-10.69485646600695
 20
2.918330326469625
 30
0.0
 11
-10.70449193421592
 21
2.970565897209061
 31
0.0
  0
LINE
  5
3B6C
330
47C4
100
AcDbEntity
  8
0
 62
     0
100
AcDbLine
 10
-10.58675497280079
 20
2.332293086457241
 30
0.0
 11
-10.58886631238264
 21
2.34373903030666
 31
0.0
  0
LINE
  5
3B6D
330
47C4
100
AcDbEntity
  8
0
 62
     0
100
AcDbLine
 10
-11.29257323926859
 20
2.970624241654565
 30
0.0
 11
-11.30220870747755
 21
3.022859812394001
 31
0.0
  0
LINE
  5
3B6E
330
47C4
100
AcDbEntity
  8
0
 62
     0
100
AcDbLine
 10
-11.17694761743531
 20
2.343797374752164
 30
0.0
 11
-11.18658308564427
 21
2.3960329454916
 31
0.0
  0
LINE
  5
3B6F
330
47C4
100
AcDbEntity
  8
0
 62
     0
100
AcDbLine
 10
-11.22675819301016
 20
2.348156389056416
 30
0.0
 11
-11.17694845810558
 21
2.343798601919033
 31
0.0
  0
LINE
  5
3B70
330
47C4
100
AcDbEntity
  8
0
 62
     0
100
AcDbLine
 10
-7.756083391224055
 20
2.661222493248188
 30
0.0
 11
-7.744815957497638
 21
2.660236720530097
 31
0.0
  0
LINE
  5
3B71
330
47C4
100
AcDbEntity
  8
0
 62
     0
100
AcDbLine
 10
-8.353800210079102
 20
2.713515938896783
 30
0.0
 11
-8.303990475174515
 21
2.7091581517594
 31
0.0
  0
LINE
  5
3B72
330
47C4
100
AcDbEntity
  8
0
 62
     0
100
AcDbLine
 10
-8.951517028934148
 20
2.765809384545378
 30
0.0
 11
-8.901707294029561
 21
2.761451597407995
 31
0.0
  0
LINE
  5
3B73
330
47C4
100
AcDbEntity
  8
0
 62
     0
100
AcDbLine
 10
-9.549233847789194
 20
2.818102830193973
 30
0.0
 11
-9.499424112884607
 21
2.81374504305659
 31
0.0
  0
LINE
  5
3B74
330
47C4
100
AcDbEntity
  8
0
 62
     0
100
AcDbLine
 10
-10.14695066664424
 20
2.870396275842568
 30
0.0
 11
-10.09714093173965
 21
2.866038488705185
 31
0.0
  0
LINE
  5
3B75
330
47C4
100
AcDbEntity
  8
0
 62
     0
100
AcDbLine
 10
-10.74466748549928
 20
2.922689721491163
 30
0.0
 11
-10.69485775059469
 21
2.91833193435378
 31
0.0
  0
LINE
  5
3B76
330
47C4
100
AcDbEntity
  8
0
 62
     0
100
AcDbLine
 10
-11.34238430435433
 20
2.974983167139758
 30
0.0
 11
-11.29257456944974
 21
2.970625380002375
 31
0.0
  0
LINE
  5
3B77
330
47C4
100
AcDbEntity
  8
0
 62
     0
100
AcDbLine
 10
-7.871709502568215
 20
3.288049271331532
 30
0.0
 11
-7.866810173265744
 21
3.287620635558685
 31
0.0
  0
LINE
  5
3B78
330
47C4
100
AcDbEntity
  8
0
 62
     0
100
AcDbLine
 10
-7.756083392088493
 20
2.661222491940239
 30
0.0
 11
-7.744815957497631
 21
2.674650497593219
 31
0.0
  0
LINE
  5
3B79
330
47C4
100
AcDbEntity
  8
0
 62
     0
100
AcDbLine
 10
-7.871709503657551
 20
3.288049270098301
 30
0.0
 11
-7.869669723334025
 21
3.290480185626966
 31
0.0
  0
LINE
  5
3B7A
330
47C4
100
AcDbEntity
  8
0
 62
     0
100
AcDbLine
 10
-8.353800210922456
 20
2.713515937759068
 30
0.0
 11
-8.313625985317047
 21
2.761393715454004
 31
0.0
  0
LINE
  5
3B7B
330
47C4
100
AcDbEntity
  8
0
 62
     0
100
AcDbLine
 10
-8.951517029756416
 20
2.765809383577898
 30
0.0
 11
-8.911342804151008
 21
2.813687161272834
 31
0.0
  0
LINE
  5
3B7C
330
47C4
100
AcDbEntity
  8
0
 62
     0
100
AcDbLine
 10
-9.549233848590377
 20
2.818102829396727
 30
0.0
 11
-9.509059622984969
 21
2.865980607091663
 31
0.0
  0
LINE
  5
3B7D
330
47C4
100
AcDbEntity
  8
0
 62
     0
100
AcDbLine
 10
-10.14695066742434
 20
2.870396275215555
 30
0.0
 11
-10.10677644181893
 21
2.918274052910491
 31
0.0
  0
LINE
  5
3B7E
330
47C4
100
AcDbEntity
  8
0
 62
     0
100
AcDbLine
 10
-10.59847285464676
 20
2.33229308645724
 30
0.0
 11
-10.58886714908383
 21
2.343740720571258
 31
0.0
  0
LINE
  5
3B7F
330
47C4
100
AcDbEntity
  8
0
 62
     0
100
AcDbLine
 10
-10.7446674862583
 20
2.922689721034386
 30
0.0
 11
-10.70449326065289
 21
2.970567498729322
 31
0.0
  0
LINE
  5
3B80
330
47C4
100
AcDbEntity
  8
0
 62
     0
100
AcDbLine
 10
-11.2267581935232
 20
2.348156388695152
 30
0.0
 11
-11.18658396791779
 21
2.396034166390088
 31
0.0
  0
LINE
  5
3B81
330
47C4
100
AcDbEntity
  8
0
 62
     0
100
AcDbLine
 10
-11.34238430509226
 20
2.974983166853214
 30
0.0
 11
-11.30221007948685
 21
3.02286094454815
 31
0.0
  0
ENDBLK
  5
3B83
330
47C4
100
AcDbEntity
  8
0
100
AcDbBlockEnd
  0
BLOCK
  5
47F5
330
47EA
100
AcDbEntity
  8
0
100
AcDbBlockBegin
  2
TITLBLK
 70
     2
 10
0.0
 20
0.0
 30
0.0
  3
TITLBLK
  1

  0
LWPOLYLINE
  5
47EB
330
47EA
100
AcDbEntity
  8
TITLE
 62
     3
100
AcDbPolyline
 90
        2
 70
     0
 43
0.04
 39
0.03
 10
0.3424999999999994
 20
-0.0000000000000003
 10
7.654581983261419
 20
-0.0000000000000003
  0
ATTDEF
  5
47EC
330
47EA
100
AcDbEntity
  8
TITLE
100
AcDbText
 10
0.625
 20
0.0999999999999998
 30
0.0
 40
0.2
  1
TITLE
  7
L200
100
AcDbAttributeDefinition
  3
DETAIL TITLE TOP 2ND LINE
  2
TITLE2
 70
     0
  0
LWPOLYLINE
  5
47ED
330
47EA
100
AcDbEntity
  8
TITLE
 62
     3
100
AcDbPolyline
 90
        2
 70
     1
 43
0.03
 10
0.0
 20
-0.3425000000000002
 42
0.9999999999999998
 10
0.0
 20
0.3425000000000002
 42
0.9999999999999998
  0
ATTDEF
  5
47EE
330
47EA
100
AcDbEntity
  8
TITLE
100
AcDbText
 10
-0.0776944065484311
 20
-0.1000000000000003
 30
0.0
 40
0.2
  1
#
  7
L200
 72
     4
 11
0.0
 21
-0.0000000000000003
 31
0.0
100
AcDbAttributeDefinition
  3
#
  2
#
 70
     0
  0
ATTDEF
  5
47EF
330
47EA
100
AcDbEntity
  8
TITLE
 62
     7
100
AcDbText
 10
0.625
 20
-0.1836633170828782
 30
0.0
 40
0.1
  1
N.T.S.
  7
L100
100
AcDbAttributeDefinition
  3
SCALE
  2
SCALE
 70
     0
  0
ATTDEF
  5
47F0
330
47EA
100
AcDbEntity
  8
TITLE
100
AcDbText
 10
2.107203380653828
 20
-0.2914343300200487
 30
0.0
 40
0.2
  1
TITLE2
  7
L200
100
AcDbAttributeDefinition
  3
DETAIL TITLE BOTTOM 1
  2
TITLE3
 70
     0
  0
ATTDEF
  5
47F1
330
47EA
100
AcDbEntity
  8
TITLE
 62
     7
100
AcDbText
 10
7.570772459451895
 20
-0.1618486459795794
 30
0.0
 40
0.08
  1
-
  7
L80
 72
     2
 11
7.654581983261419
 21
-0.1618486459795794
 31
0.0
100
AcDbAttributeDefinition
  3
DWG-NAME
  2
DWG-NAME
 70
     0
  0
ATTDEF
  5
47F2
330
47EA
100
AcDbEntity
  8
TITLE
 62
     7
100
AcDbText
 10
7.570772459451895
 20
0.0853756950662722
 30
0.0
 40
0.08
  1
-
  7
L80
 72
     2
 11
7.654581983261419
 21
0.0853756950662722
 31
0.0
100
AcDbAttributeDefinition
  3
REVISION DATE
  2
REVISED
 70
     0
  0
ATTDEF
  5
47F3
330
47EA
100
AcDbEntity
  8
TITLE
100
AcDbText
 10
0.625
 20
0.459485206268383
 30
0.0
 40
0.2
  1
TITLE
  7
L200
100
AcDbAttributeDefinition
  3
DETAIL TITLE TOP LINE
  2
TITLE1
 70
     0
  0
ATTDEF
  5
47F4
330
47EA
100
AcDbEntity
  8
TITLE
100
AcDbText
 10
2.107203380653828
 20
-0.6149710156615936
 30
0.0
 40
0.2
  1
TITLE2
  7
L200
100
AcDbAttributeDefinition
  3
DETAIL TITLE BOTTOM 2
  2
TITLE4
 70
     0
  0
ENDBLK
  5
47F6
330
47EA
100
AcDbEntity
  8
0
100
AcDbBlockEnd
  0
ENDSEC
  0
SECTION
  2
ENTITIES
  0
TEXT
  5
C2
330
47BF
100
AcDbEntity
  8
TEXT_BUBBLES
100
AcDbText
 10
5.73545314889218
 20
7.411373466191943
 30
0.0
 40
0.1250000018625
  1

  7
ROMANS
100
AcDbText
  0
TEXT
  5
C3
330
47BF
100
AcDbEntity
  8
TEXT_BUBBLES
100
AcDbText
 10
5.73545314889218
 20
4.693796247183193
 30
0.0
 40
0.1250000018625
  1

  7
ROMANS
100
AcDbText
  0
TEXT
  5
C4
330
47BF
100
AcDbEntity
  8
TEXT_BUBBLES
100
AcDbText
 10
5.73545314889218
 20
7.023148149190693
 30
0.0
 40
0.1250000018625
  1

  7
ROMANS
100
AcDbText
  0
TEXT
  5
C5
330
47BF
100
AcDbEntity
  8
TEXT_BUBBLES
100
AcDbText
 10
21.12887382507374
 20
1.79238915443375
 30
0.0
 40
0.1250000018625
  1

  7
ROMANS
100
AcDbText
  0
TEXT
  5
C6
330
47BF
100
AcDbEntity
  8
TEXT_BUBBLES
100
AcDbText
 10
21.12887382507374
 20
1.210015416145
 30
0.0
 40
0.1250000018625
  1

  7
ROMANS
100
AcDbText
  0
TEXT
  5
C7
330
47BF
100
AcDbEntity
  8
TEXT_BUBBLES
100
AcDbText
 10
21.12887382507374
 20
1.404139995575
 30
0.0
 40
0.1250000018625
  1

  7
ROMANS
100
AcDbText
  0
TEXT
  5
C8
330
47BF
100
AcDbEntity
  8
TEXT_BUBBLES
100
AcDbText
 10
21.12887382507374
 20
2.18063831329375
 30
0.0
 40
0.1250000018625
  1

  7
ROMANS
100
AcDbText
  0
TEXT
  5
C9
330
47BF
100
AcDbEntity
  8
TEXT_BUBBLES
100
AcDbText
 10
21.12887382507374
 20
3.15126121044125
 30
0.0
 40
0.1250000018625
  1

  7
ROMANS
100
AcDbText
  0
TEXT
  5
CA
330
47BF
100
AcDbEntity
  8
TEXT_BUBBLES
100
AcDbText
 10
21.12887382507374
 20
3.73363494873
 30
0.0
 40
0.1250000018625
  1

  7
ROMANS
100
AcDbText
  0
TEXT
  5
CB
330
47BF
100
AcDbEntity
  8
TEXT_BUBBLES
100
AcDbText
 10
21.12887382507374
 20
3.539510369301249
 30
0.0
 40
0.1250000018625
  1

  7
ROMANS
100
AcDbText
  0
TEXT
  5
CC
330
47BF
100
AcDbEntity
  8
TEXT_BUBBLES
100
AcDbText
 10
5.73545314889218
 20
3.917345613179443
 30
0.0
 40
0.1250000018625
  1

  7
ROMANS
100
AcDbText
  0
TEXT
  5
CD
330
47BF
100
AcDbEntity
  8
TEXT_BUBBLES
100
AcDbText
 10
21.12887382507374
 20
2.7630120515825
 30
0.0
 40
0.1250000018625
  1

  7
ROMANS
100
AcDbText
  0
TEXT
  5
CE
330
47BF
100
AcDbEntity
  8
TEXT_BUBBLES
100
AcDbText
 10
21.12887382507374
 20
2.5688874721525
 30
0.0
 40
0.1250000018625
  1

  7
ROMANS
100
AcDbText
  0
TEXT
  5
CF
330
47BF
100
AcDbEntity
  8
TEXT_BUBBLES
100
AcDbText
 10
5.73545314889218
 20
6.052584856686943
 30
0.0
 40
0.1250000018625
  1

  7
ROMANS
100
AcDbText
  0
TEXT
  5
D0
330
47BF
100
AcDbEntity
  8
TEXT_BUBBLES
100
AcDbText
 10
5.73545314889218
 20
7.993711441694443
 30
0.0
 40
0.1250000018625
  1

  7
ROMANS
100
AcDbText
  0
TEXT
  5
D1
330
47BF
100
AcDbEntity
  8
TEXT_BUBBLES
100
AcDbText
 10
5.73545314889218
 20
6.440810173688193
 30
0.0
 40
0.1250000018625
  1

  7
ROMANS
100
AcDbText
  0
TEXT
  5
D2
330
47BF
100
AcDbEntity
  8
TEXT_BUBBLES
100
AcDbText
 10
5.73545314889218
 20
5.082021564184443
 30
0.0
 40
0.1250000018625
  1

  7
ROMANS
100
AcDbText
  0
TEXT
  5
D3
330
47BF
100
AcDbEntity
  8
TEXT_BUBBLES
100
AcDbText
 10
5.73545314889218
 20
4.305570930181944
 30
0.0
 40
0.1250000018625
  1

  7
ROMANS
100
AcDbText
  0
CIRCLE
  5
10DB
330
47BF
100
AcDbEntity
  8
TEXT_BUBBLES
100
AcDbCircle
 10
-6.966086461524451
 20
8.512969090576071
 30
0.0
 40
0.1562887347020049
  0
TEXT
  5
10DC
330
47BF
100
AcDbEntity
  8
TEXT_BUBBLES
100
AcDbText
 10
-7.0166942422851
 20
8.450453596695268
 30
0.0
 40
0.1250309877616039
  1
1
  7
ROMANS
 72
     4
 11
-6.966086461524451
 21
8.512969090576071
 31
0.0
100
AcDbText
  0
TEXT
  5
110B
330
47BF
100
AcDbEntity
  8
TEXT_BUBBLES
100
AcDbText
 10
5.73545314889218
 20
7.411373466191943
 30
0.0
 40
0.1250000018625
  1

  7
ROMANS
100
AcDbText
  0
TEXT
  5
110C
330
47BF
100
AcDbEntity
  8
TEXT_BUBBLES
100
AcDbText
 10
5.73545314889218
 20
4.693796247183193
 30
0.0
 40
0.1250000018625
  1

  7
ROMANS
100
AcDbText
  0
TEXT
  5
110D
330
47BF
100
AcDbEntity
  8
TEXT_BUBBLES
100
AcDbText
 10
5.73545314889218
 20
7.023148149190693
 30
0.0
 40
0.1250000018625
  1

  7
ROMANS
100
AcDbText
  0
TEXT
  5
110E
330
47BF
100
AcDbEntity
  8
TEXT_BUBBLES
100
AcDbText
 10
21.12887382507374
 20
1.79238915443375
 30
0.0
 40
0.1250000018625
  1

  7
ROMANS
100
AcDbText
  0
TEXT
  5
110F
330
47BF
100
AcDbEntity
  8
TEXT_BUBBLES
100
AcDbText
 10
21.12887382507374
 20
1.210015416145
 30
0.0
 40
0.1250000018625
  1

  7
ROMANS
100
AcDbText
  0
TEXT
  5
1110
330
47BF
100
AcDbEntity
  8
TEXT_BUBBLES
100
AcDbText
 10
21.12887382507374
 20
1.404139995575
 30
0.0
 40
0.1250000018625
  1

  7
ROMANS
100
AcDbText
  0
TEXT
  5
1111
330
47BF
100
AcDbEntity
  8
TEXT_BUBBLES
100
AcDbText
 10
21.12887382507374
 20
2.18063831329375
 30
0.0
 40
0.1250000018625
  1

  7
ROMANS
100
AcDbText
  0
TEXT
  5
1112
330
47BF
100
AcDbEntity
  8
TEXT_BUBBLES
100
AcDbText
 10
21.12887382507374
 20
3.15126121044125
 30
0.0
 40
0.1250000018625
  1

  7
ROMANS
100
AcDbText
  0
TEXT
  5
1113
330
47BF
100
AcDbEntity
  8
TEXT_BUBBLES
100
AcDbText
 10
21.12887382507374
 20
3.73363494873
 30
0.0
 40
0.1250000018625
  1

  7
ROMANS
100
AcDbText
  0
TEXT
  5
1114
330
47BF
100
AcDbEntity
  8
TEXT_BUBBLES
100
AcDbText
 10
21.12887382507374
 20
3.539510369301249
 30
0.0
 40
0.1250000018625
  1

  7
ROMANS
100
AcDbText
  0
TEXT
  5
1115
330
47BF
100
AcDbEntity
  8
TEXT_BUBBLES
100
AcDbText
 10
5.73545314889218
 20
3.917345613179443
 30
0.0
 40
0.1250000018625
  1

  7
ROMANS
100
AcDbText
  0
TEXT
  5
1116
330
47BF
100
AcDbEntity
  8
TEXT_BUBBLES
100
AcDbText
 10
21.12887382507374
 20
2.7630120515825
 30
0.0
 40
0.1250000018625
  1

  7
ROMANS
100
AcDbText
  0
TEXT
  5
1117
330
47BF
100
AcDbEntity
  8
TEXT_BUBBLES
100
AcDbText
 10
21.12887382507374
 20
2.5688874721525
 30
0.0
 40
0.1250000018625
  1

  7
ROMANS
100
AcDbText
  0
TEXT
  5
1118
330
47BF
100
AcDbEntity
  8
TEXT_BUBBLES
100
AcDbText
 10
5.73545314889218
 20
6.052584856686943
 30
0.0
 40
0.1250000018625
  1

  7
ROMANS
100
AcDbText
  0
TEXT
  5
1119
330
47BF
100
AcDbEntity
  8
TEXT_BUBBLES
100
AcDbText
 10
5.73545314889218
 20
7.993711441694443
 30
0.0
 40
0.1250000018625
  1

  7
ROMANS
100
AcDbText
  0
TEXT
  5
111A
330
47BF
100
AcDbEntity
  8
TEXT_BUBBLES
100
AcDbText
 10
5.73545314889218
 20
6.440810173688193
 30
0.0
 40
0.1250000018625
  1

  7
ROMANS
100
AcDbText
  0
TEXT
  5
111B
330
47BF
100
AcDbEntity
  8
TEXT_BUBBLES
100
AcDbText
 10
5.73545314889218
 20
5.082021564184443
 30
0.0
 40
0.1250000018625
  1

  7
ROMANS
100
AcDbText
  0
TEXT
  5
111C
330
47BF
100
AcDbEntity
  8
TEXT_BUBBLES
100
AcDbText
 10
5.73545314889218
 20
4.305570930181944
 30
0.0
 40
0.1250000018625
  1

  7
ROMANS
100
AcDbText
  0
TEXT
  5
111D
330
47BF
100
AcDbEntity
  8
TEXT_LEADERS
100
AcDbText
 10
6.05239987373375
 20
5.673787593841249
 30
0.0
 40
0.1250000018625
  1

  7
SIMPLEX
100
AcDbText
  0
TEXT
  5
111E
330
47BF
100
AcDbEntity
  8
TEXT_BUBBLES
100
AcDbText
 10
10.30274987220749
 20
0.13391179964
 30
0.0
 40
0.1250000018625
  1

  7
SIMPLEX
100
AcDbText
  0
TEXT
  5
111F
330
47BF
100
AcDbEntity
  8
TEXT_BUBBLES
100
AcDbText
 10
10.30274987220749
 20
1.175578609108749
 30
0.0
 40
0.1250000018625
  1

  7
SIMPLEX
100
AcDbText
  0
TEXT
  5
1120
330
47BF
100
AcDbEntity
  8
TEXT_BUBBLES
100
AcDbText
 10
10.30274987220749
 20
0.7589118927712501
 30
0.0
 40
0.1250000018625
  1

  7
SIMPLEX
100
AcDbText
  0
TEXT
  5
1121
330
47BF
100
AcDbEntity
  8
TEXT_BUBBLES
100
AcDbText
 10
10.30274987220749
 20
-1.949422061443749
 30
0.0
 40
0.1250000018625
  1

  7
SIMPLEX
100
AcDbText
  0
TEXT
  5
1122
330
47BF
100
AcDbEntity
  8
TEXT_BUBBLES
100
AcDbText
 10
10.30274987220749
 20
-1.532755196095
 30
0.0
 40
0.1250000018625
  1

  7
SIMPLEX
100
AcDbText
  0
TEXT
  5
1123
330
47BF
100
AcDbEntity
  8
TEXT_BUBBLES
100
AcDbText
 10
10.30274987220749
 20
1.800578832626249
 30
0.0
 40
0.1250000018625
  1

  7
SIMPLEX
100
AcDbText
  0
LWPOLYLINE
  5
1126
330
47BF
100
AcDbEntity
  8
INSTRUCT-CALLOUT
100
AcDbPolyline
 90
        4
 70
     1
 43
0.0
 10
-2.074703188608514
 20
10.42534573840297
 10
-2.074703188608514
 20
8.709257952471592
 10
3.80651786597245
 20
8.709257952471592
 10
3.80651786597245
 20
10.42534573840297
  0
TEXT
  5
112C
330
47BF
100
AcDbEntity
  8
INSTRUCT-CALLOUT
100
AcDbText
 10
-1.246850342085918
 20
10.47685798413195
 30
0.0
 40
0.1250000018625
  1
CHOOSING EQUIPMENT CALLOUT METHOD
  7
ROMANS
100
AcDbText
  0
TEXT
  5
112D
330
47BF
100
AcDbEntity
  8
INSTRUCT-CALLOUT
100
AcDbText
 10
-1.53778755339432
 20
10.23387670658169
 30
0.0
 40
0.1250000018625
  1
CHOOSE EITHER LEADERS OR BUBBLE CALLOUTS
  7
ROMANS
100
AcDbText
  0
TEXT
  5
112E
330
47BF
100
AcDbEntity
  8
INSTRUCT-CALLOUT
100
AcDbText
 10
-1.53778755339432
 20
10.03150165222294
 30
0.0
 40
0.1250000018625
  1
BY TURNING ON THE APPROPRIATE LAYER:
  7
ROMANS
100
AcDbText
  0
TEXT
  5
112F
330
47BF
100
AcDbEntity
  8
INSTRUCT-CALLOUT
100
AcDbText
 10
-0.9923578880657908
 20
9.610230034128973
 30
0.0
 40
0.1250000018625
  1
TEXT_LEADERS         TEXT_BUBBLES
  7
ROMANS
100
AcDbText
  0
LINE
  5
1130
330
47BF
100
AcDbEntity
  8
INSTRUCT-CALLOUT
100
AcDbLine
 10
-0.7601546962414546
 20
9.181240114378564
 30
0.0
 11
-0.5472350933373564
 21
9.18124011437856
 31
0.0
  0
LINE
  5
1131
330
47BF
100
AcDbEntity
  8
INSTRUCT-CALLOUT
100
AcDbLine
 10
-1.209795968863839
 20
8.99412808030625
 30
0.0
 11
-0.7601546962414546
 21
9.181240114378564
 31
0.0
  0
SOLID
  5
1132
330
47BF
100
AcDbEntity
  8
INSTRUCT-CALLOUT
100
AcDbTrace
 10
-1.076380347707075
 20
8.998875464465449
 30
0.0
 11
-1.112398917850409
 21
9.085430216529271
 31
0.0
 12
-1.354053888970209
 22
8.934097130067362
 32
0.0
 13
-1.354053888970209
 23
8.934097130067362
 33
0.0
  0
TEXT
  5
1133
330
47BF
100
AcDbEntity
  8
INSTRUCT-CALLOUT
100
AcDbText
 10
-0.5066495667480888
 20
9.080067287200595
 30
0.0
 40
0.156250002328125
  1
ITEM 1
  7
ROMANS
100
AcDbText
  0
SOLID
  5
1134
330
47BF
100
AcDbEntity
  8
INSTRUCT-CALLOUT
100
AcDbTrace
 10
2.271227977370148
 20
9.019853643452009
 30
0.0
 11
2.295919061205052
 21
8.929413536867276
 31
0.0
 12
2.0122531995334
 22
8.90056033865493
 32
0.0
 13
2.0122531995334
 23
8.90056033865493
 33
0.0
  0
LINE
  5
1135
330
47BF
100
AcDbEntity
  8
INSTRUCT-CALLOUT
100
AcDbLine
 10
2.162986710507955
 20
8.941712145046437
 30
0.0
 11
2.56280142445303
 21
9.050865694209903
 31
0.0
  0
TEXT
  5
1136
330
47BF
100
AcDbEntity
  8
INSTRUCT-CALLOUT
100
AcDbText
 10
2.687974265552172
 20
9.024180452199285
 30
0.0
 40
0.15625
  1
1
  7
ROMANS
 72
     4
 11
2.75121831317122
 21
9.102305452199285
 31
0.0
100
AcDbText
  0
CIRCLE
  5
1137
330
47BF
100
AcDbEntity
  8
INSTRUCT-CALLOUT
100
AcDbCircle
 10
2.75121831317122
 20
9.102305452199285
 30
0.0
 40
0.1953125
  0
TEXT
  5
1138
330
47BF
100
AcDbEntity
  8
INSTRUCT-CALLOUT
100
AcDbText
 10
-1.611306682992081
 20
8.209164954947819
 30
0.0
 40
0.1250000018625
  1
LAYER "INSTRUCT-CALLOUT".
  7
ROMANS
100
AcDbText
  0
TEXT
  5
1139
330
47BF
100
AcDbEntity
  8
INSTRUCT-CALLOUT
100
AcDbText
 10
-1.611306682992081
 20
8.41154000930782
 30
0.0
 40
0.1250000018625
  1
TO TURN OFF THIS INSTRUCTION BOX, TURN OFF
  7
ROMANS
100
AcDbText
  0
TEXT
  5
11AC
330
47BF
100
AcDbEntity
  8
TEXT_BUBBLES
100
AcDbText
 10
0.374157011509
 20
0.8800902366639999
 30
0.0
 40
0.125
  1

  7
ROMANS
100
AcDbText
  0
TEXT
  5
11AD
330
47BF
100
AcDbEntity
  8
TEXT_BUBBLES
100
AcDbText
 10
0.374157011509
 20
1.284850120543999
 30
0.0
 40
0.125
  1

  7
ROMANS
100
AcDbText
  0
TEXT
  5
11AE
330
47BF
100
AcDbEntity
  8
TEXT_BUBBLES
100
AcDbText
 10
0.374157011509
 20
1.082470178604
 30
0.0
 40
0.125
  1

  7
ROMANS
100
AcDbText
  0
TEXT
  5
11AF
330
47BF
100
AcDbEntity
  8
TEXT_BUBBLES
100
AcDbText
 10
0.144923001528
 20
1.415030121802999
 30
0.0
 40
0.125
  1

  7
ROMANS
100
AcDbText
  0
TEXT
  5
11B8
330
47BF
100
AcDbEntity
  8
TEXT_BUBBLES
100
AcDbText
 10
0.144923001528
 20
1.123830199241999
 30
0.0
 40
0.125
  1

  7
ROMANS
100
AcDbText
  0
TEXT
  5
11B9
330
47BF
100
AcDbEntity
  8
TEXT_BUBBLES
100
AcDbText
 10
0.144923001528
 20
0.9782302379609999
 30
0.0
 40
0.125
  1

  7
ROMANS
100
AcDbText
  0
TEXT
  5
11BA
330
47BF
100
AcDbEntity
  8
TEXT_BUBBLES
100
AcDbText
 10
0.144923001528
 20
0.8326302766799999
 30
0.0
 40
0.125
  1

  7
ROMANS
100
AcDbText
  0
TEXT
  5
11CA
330
47BF
100
AcDbEntity
  8
TEXT_BUBBLES
100
AcDbText
 10
0.144923001528
 20
1.706230044365
 30
0.0
 40
0.125
  1

  7
ROMANS
100
AcDbText
  0
TEXT
  5
11CE
330
47BF
100
AcDbEntity
  8
TEXT_BUBBLES
100
AcDbText
 10
0.144923001528
 20
0.687030315399
 30
0.0
 40
0.125
  1

  7
ROMANS
100
AcDbText
  0
TEXT
  5
11CF
330
47BF
100
AcDbEntity
  8
TEXT_BUBBLES
100
AcDbText
 10
0.144923001528
 20
0.395830392838
 30
0.0
 40
0.125
  1

  7
ROMANS
100
AcDbText
  0
TEXT
  5
29B5
330
47BF
100
AcDbEntity
  8
TEXT_BUBBLES
100
AcDbText
 10
-6.758030289614987
 20
7.896950357317889
 30
0.0
 40
0.1250000018625
  1
RAIN SENSOR: RAIN BIRD RSD-CEx
  7
ROMANS
100
AcDbText
  0
CIRCLE
  5
30C3
330
47BF
100
AcDbEntity
  8
TEXT_BUBBLES
100
AcDbCircle
 10
-6.966086461524451
 20
7.966152261925892
 30
0.0
 40
0.1562887347020049
  0
TEXT
  5
30C4
330
47BF
100
AcDbEntity
  8
TEXT_BUBBLES
100
AcDbText
 10
-6.758030289614987
 20
7.53274918541585
 30
0.0
 40
0.1250000018625
  1
3/4-INCH SCH 40 RISER 
  7
ROMANS
100
AcDbText
  0
TEXT
  5
30C5
330
47BF
100
AcDbEntity
  8
TEXT_BUBBLES
100
AcDbText
 10
-7.025625027125214
 20
7.90363676804509
 30
0.0
 40
0.1250309877616039
  1
2
  7
ROMANS
 72
     4
 11
-6.966086461524451
 21
7.966152261925892
 31
0.0
100
AcDbText
  0
TEXT
  5
30CF
330
47BF
100
AcDbEntity
  8
TEXT_BUBBLES
100
AcDbText
 10
-6.758030289614987
 20
6.620701043269393
 30
0.0
 40
0.1250000018625
  1
WIRE TO IRRIGATION CONTROLLER
  7
ROMANS
100
AcDbText
  0
CIRCLE
  5
30D0
330
47BF
100
AcDbEntity
  8
TEXT_BUBBLES
100
AcDbCircle
 10
-6.966086461524451
 20
6.689902947877396
 30
0.0
 40
0.1562887347020049
  0
TEXT
  5
30D1
330
47BF
100
AcDbEntity
  8
TEXT_BUBBLES
100
AcDbText
 10
-7.028601955405253
 20
6.627387453996593
 30
0.0
 40
0.1250309877616039
  1
4
  7
ROMANS
 72
     4
 11
-6.966086461524451
 21
6.689902947877396
 31
0.0
100
AcDbText
  0
TEXT
  5
30D6
330
47BF
100
AcDbEntity
  8
TEXT_BUBBLES
100
AcDbText
 10
-6.758030289614987
 20
8.443767185968068
 30
0.0
 40
0.1250000018625
  1
PEDESTAL MOUNTED IRRIGATION 
  7
ROMANS
100
AcDbText
  0
TEXT
  5
30D7
330
47BF
100
AcDbEntity
  8
TEXT_BUBBLES
100
AcDbText
 10
-7.025625027125214
 20
7.539435596143051
 30
0.0
 40
0.1250309877616039
  1
3
  7
ROMANS
 72
     4
 11
-6.966086461524451
 21
7.601951090023853
 31
0.0
100
AcDbText
  0
CIRCLE
  5
30D8
330
47BF
100
AcDbEntity
  8
TEXT_BUBBLES
100
AcDbCircle
 10
-6.966086461524451
 20
7.601951090023853
 30
0.0
 40
0.1562887347020049
  0
LWPOLYLINE
  5
37A9
330
47BF
100
AcDbEntity
  8
IMAGE
100
AcDbPolyline
 90
       10
 70
     0
 43
0.0
 10
-8.642096596799341
 20
8.075729973231547
 10
-8.642096596799341
 20
8.077760909065078
 42
-0.2539389008046782
 10
-8.629006919145636
 20
8.088653303947804
 10
-8.305186274453044
 20
8.088653303947804
 42
-0.2539389008046782
 10
-8.292096596799339
 20
8.077760909065078
 10
-8.292096596799339
 20
7.949545698830529
 42
-0.2539389008046782
 10
-8.305186274453044
 20
7.938653303947805
 10
-8.629006919145636
 20
7.938653303947805
 42
-0.2539389008046782
 10
-8.642096596799341
 20
7.949545698830526
 10
-8.642096596799341
 20
7.959442013247343
  0
CIRCLE
  5
37AA
330
47BF
100
AcDbEntity
  8
IMAGE
100
AcDbCircle
 10
-8.516371396621384
 20
8.04962020362074
 30
0.0
 40
0.0375
  0
CIRCLE
  5
37AB
330
47BF
100
AcDbEntity
  8
IMAGE
100
AcDbCircle
 10
-8.516371396621384
 20
8.04962020362074
 30
0.0
 40
0.0229166666666667
  0
CIRCLE
  5
37AC
330
47BF
100
AcDbEntity
  8
IMAGE
100
AcDbCircle
 10
-8.516371396621384
 20
8.04962020362074
 30
0.0
 40
0.0190061804248002
  0
LWPOLYLINE
  5
37AD
330
47BF
100
AcDbEntity
  8
IMAGE
100
AcDbPolyline
 90
       14
 70
     1
 43
0.0
 10
-8.525726890659941
 20
8.040942562533707
 10
-8.528432899488521
 20
8.045455245982676
 10
-8.519977688703811
 20
8.050525372281068
 10
-8.519977688703811
 20
8.050525372281068
 10
-8.525036358111805
 20
8.058987442590167
 10
-8.520520013623158
 20
8.061687336690091
 10
-8.515465001115442
 20
8.053231383591818
 10
-8.507015902582825
 20
8.058297844707773
 10
-8.504309893754246
 20
8.053785161258806
 10
-8.512765104538956
 20
8.048715034960414
 10
-8.512765104538956
 20
8.048715034960414
 10
-8.507706435130961
 20
8.040252964651315
 10
-8.512222779619607
 20
8.037553070551389
 10
-8.517277792127323
 20
8.046009023649663
  0
LWPOLYLINE
  5
37AE
330
47BF
100
AcDbEntity
  8
IMAGE
100
AcDbPolyline
 90
        2
 70
     0
 43
0.0
 10
-8.504179930132673
 20
8.161153303947806
 10
-8.272513263466006
 20
8.161153303947806
  0
LWPOLYLINE
  5
37AF
330
47BF
100
AcDbEntity
  8
IMAGE
100
AcDbPolyline
 90
        2
 70
     0
 43
0.0
 10
-8.504179930132673
 20
8.146986637281138
 10
-8.272513263466006
 20
8.146986637281138
  0
LWPOLYLINE
  5
37B0
330
47BF
100
AcDbEntity
  8
IMAGE
100
AcDbPolyline
 90
        8
 70
     1
 43
0.0
 10
-8.504179930132673
 20
8.146986637281138
 10
-8.487513263466006
 20
8.128653303947805
 10
-8.289179930132673
 20
8.128653303947805
 10
-8.272513263466006
 20
8.146986637281138
 10
-8.272513263466006
 20
8.161153303947806
 10
-8.289179930132673
 20
8.179486637281138
 10
-8.487513263466006
 20
8.179486637281138
 10
-8.504179930132673
 20
8.161153303947806
  0
LWPOLYLINE
  5
37B1
330
47BF
100
AcDbEntity
  8
IMAGE
100
AcDbPolyline
 90
        4
 70
     1
 43
0.0
 10
-8.48834659679934
 20
8.091986637281138
 10
-8.288346596799339
 20
8.091986637281138
 10
-8.288346596799339
 20
8.125319970614471
 10
-8.48834659679934
 20
8.125319970614471
  0
LWPOLYLINE
  5
37B2
330
47BF
100
AcDbEntity
  8
IMAGE
100
AcDbPolyline
 90
        2
 70
     0
 43
0.0
 10
-8.46459659679934
 20
8.088653303947804
 10
-8.46459659679934
 20
8.091986637281138
  0
LWPOLYLINE
  5
37B3
330
47BF
100
AcDbEntity
  8
IMAGE
100
AcDbPolyline
 90
        2
 70
     0
 43
0.0
 10
-8.31209659679934
 20
8.088653303947804
 10
-8.31209659679934
 20
8.091986637281138
  0
LWPOLYLINE
  5
37B4
330
47BF
100
AcDbEntity
  8
IMAGE
100
AcDbPolyline
 90
        2
 70
     0
 43
0.0
 10
-8.31209659679934
 20
8.125319970614471
 10
-8.31209659679934
 20
8.128653303947805
  0
LWPOLYLINE
  5
37B5
330
47BF
100
AcDbEntity
  8
IMAGE
100
AcDbPolyline
 90
        2
 70
     0
 43
0.0
 10
-8.46459659679934
 20
8.125319970614471
 10
-8.46459659679934
 20
8.128653303947805
  0
LWPOLYLINE
  5
37B6
330
47BF
100
AcDbEntity
  8
IMAGE
100
AcDbPolyline
 90
        4
 70
     0
 43
0.0
 10
-8.337846596799341
 20
8.358653303947804
 10
-8.337846596799341
 20
8.395319970614471
 10
-8.43884659679934
 20
8.395319970614471
 10
-8.43884659679934
 20
8.358653303947804
  0
LWPOLYLINE
  5
37B7
330
47BF
100
AcDbEntity
  8
IMAGE
100
AcDbPolyline
 90
        2
 70
     0
 43
0.0
 10
-8.485521820291879
 20
8.347798600810005
 10
-8.486679930132673
 20
8.179486637281138
  0
LWPOLYLINE
  5
37B8
330
47BF
100
AcDbEntity
  8
IMAGE
100
AcDbPolyline
 90
        2
 70
     0
 43
0.0
 10
-8.291171373306802
 20
8.347798600810005
 10
-8.290013263466008
 20
8.179486637281138
  0
LWPOLYLINE
  5
37B9
330
47BF
100
AcDbEntity
  8
IMAGE
100
AcDbPolyline
 90
        2
 70
     0
 43
0.0
 10
-8.43884659679934
 20
8.358653303947804
 10
-8.337846596799341
 20
8.358653303947804
  0
LWPOLYLINE
  5
37BA
330
47BF
100
AcDbEntity
  8
IMAGE
100
AcDbPolyline
 90
        2
 70
     0
 43
0.0
 10
-8.485521820291879
 20
8.347798600810005
 10
-8.291171373306802
 20
8.347798600810005
  0
LWPOLYLINE
  5
37BB
330
47BF
100
AcDbEntity
  8
IMAGE
100
AcDbPolyline
 90
        2
 70
     0
 43
0.0
 10
-8.485521820291879
 20
8.347798600810005
 42
-0.0859347361966609
 10
-8.43884659679934
 20
8.358653303947804
 42
-0.0285319259738663
  0
LWPOLYLINE
  5
37BC
330
47BF
100
AcDbEntity
  8
IMAGE
100
AcDbPolyline
 90
        2
 70
     0
 43
0.0
 10
-8.291171373306802
 20
8.347798600810005
 42
0.0859347361966609
 10
-8.337846596799341
 20
8.358653303947804
 42
0.0285319259738663
  0
LWPOLYLINE
  5
37BD
330
47BF
100
AcDbEntity
  8
IMAGE
100
AcDbPolyline
 90
        2
 70
     0
 43
0.0
 10
-8.38334659679934
 20
8.179486637281138
 10
-8.38334659679934
 20
8.347798600810005
  0
LWPOLYLINE
  5
37BE
330
47BF
100
AcDbEntity
  8
IMAGE
100
AcDbPolyline
 90
        2
 70
     0
 43
0.0
 10
-8.393346596799339
 20
8.179486637281138
 10
-8.393346596799339
 20
8.347798600810005
  0
LWPOLYLINE
  5
37BF
330
47BF
100
AcDbEntity
  8
IMAGE
100
AcDbPolyline
 90
        2
 70
     0
 43
0.0
 10
-8.423346596799341
 20
8.179486637281138
 10
-8.423346596799341
 20
8.347798600810005
  0
LWPOLYLINE
  5
37C0
330
47BF
100
AcDbEntity
  8
IMAGE
100
AcDbPolyline
 90
        2
 70
     0
 43
0.0
 10
-8.35334659679934
 20
8.179486637281138
 10
-8.35334659679934
 20
8.347798600810005
  0
LWPOLYLINE
  5
37C1
330
47BF
100
AcDbEntity
  8
IMAGE
100
AcDbPolyline
 90
        2
 70
     0
 43
0.0
 10
-8.34334659679934
 20
8.179486637281138
 10
-8.34334659679934
 20
8.347798600810005
  0
LWPOLYLINE
  5
37C2
330
47BF
100
AcDbEntity
  8
IMAGE
100
AcDbPolyline
 90
        2
 70
     0
 43
0.0
 10
-8.43334659679934
 20
8.179486637281138
 10
-8.43334659679934
 20
8.347798600810005
  0
LWPOLYLINE
  5
37C3
330
47BF
100
AcDbEntity
  8
IMAGE
100
AcDbPolyline
 90
        2
 70
     0
 43
0.0
 10
-8.458180708394465
 20
8.179486637281138
 10
-8.458180708394465
 20
8.347798600810005
  0
LWPOLYLINE
  5
37C4
330
47BF
100
AcDbEntity
  8
IMAGE
100
AcDbPolyline
 90
        2
 70
     0
 43
0.0
 10
-8.464389236293246
 20
8.179486637281138
 10
-8.464389236293246
 20
8.347798600810005
  0
LWPOLYLINE
  5
37C5
330
47BF
100
AcDbEntity
  8
IMAGE
100
AcDbPolyline
 90
        2
 70
     0
 43
0.0
 10
-8.318512485204216
 20
8.179486637281138
 10
-8.318512485204216
 20
8.347798600810005
  0
LWPOLYLINE
  5
37C6
330
47BF
100
AcDbEntity
  8
IMAGE
100
AcDbPolyline
 90
        2
 70
     0
 43
0.0
 10
-8.312303957305434
 20
8.179486637281138
 10
-8.312303957305434
 20
8.347798600810005
  0
LWPOLYLINE
  5
37C7
330
47BF
100
AcDbEntity
  8
IMAGE
100
AcDbPolyline
 90
        2
 70
     0
 43
0.0
 10
-8.385013263466007
 20
8.091986637281138
 10
-8.385013263466007
 20
8.125319970614471
  0
LWPOLYLINE
  5
37C8
330
47BF
100
AcDbEntity
  8
IMAGE
100
AcDbPolyline
 90
        2
 70
     0
 43
0.0
 10
-8.391679930132674
 20
8.091986637281138
 10
-8.391679930132674
 20
8.125319970614471
  0
LWPOLYLINE
  5
37C9
330
47BF
100
AcDbEntity
  8
IMAGE
100
AcDbPolyline
 90
        2
 70
     0
 43
0.0
 10
-8.401679930132672
 20
8.091986637281138
 10
-8.401679930132672
 20
8.125319970614471
  0
LWPOLYLINE
  5
37CA
330
47BF
100
AcDbEntity
  8
IMAGE
100
AcDbPolyline
 90
        2
 70
     0
 43
0.0
 10
-8.375013263466007
 20
8.091986637281138
 10
-8.375013263466007
 20
8.125319970614471
  0
LWPOLYLINE
  5
37CB
330
47BF
100
AcDbEntity
  8
IMAGE
100
AcDbPolyline
 90
        2
 70
     0
 43
0.0
 10
-8.368346596799341
 20
8.091986637281138
 10
-8.368346596799341
 20
8.125319970614471
  0
LWPOLYLINE
  5
37CC
330
47BF
100
AcDbEntity
  8
IMAGE
100
AcDbPolyline
 90
        2
 70
     0
 43
0.0
 10
-8.40834659679934
 20
8.091986637281138
 10
-8.40834659679934
 20
8.125319970614471
  0
LWPOLYLINE
  5
37CD
330
47BF
100
AcDbEntity
  8
IMAGE
100
AcDbPolyline
 90
        2
 70
     0
 43
0.0
 10
-8.41834659679934
 20
8.091986637281138
 10
-8.41834659679934
 20
8.125319970614471
  0
LWPOLYLINE
  5
37CE
330
47BF
100
AcDbEntity
  8
IMAGE
100
AcDbPolyline
 90
        2
 70
     0
 43
0.0
 10
-8.425013263466006
 20
8.091986637281138
 10
-8.425013263466006
 20
8.125319970614471
  0
LWPOLYLINE
  5
37CF
330
47BF
100
AcDbEntity
  8
IMAGE
100
AcDbPolyline
 90
        2
 70
     0
 43
0.0
 10
-8.435013263466007
 20
8.091986637281138
 10
-8.435013263466007
 20
8.125319970614471
  0
LWPOLYLINE
  5
37D0
330
47BF
100
AcDbEntity
  8
IMAGE
100
AcDbPolyline
 90
        2
 70
     0
 43
0.0
 10
-8.441679930132673
 20
8.091986637281138
 10
-8.441679930132673
 20
8.125319970614471
  0
LWPOLYLINE
  5
37D1
330
47BF
100
AcDbEntity
  8
IMAGE
100
AcDbPolyline
 90
        2
 70
     0
 43
0.0
 10
-8.450013263466006
 20
8.091986637281138
 10
-8.450013263466006
 20
8.125319970614471
  0
LWPOLYLINE
  5
37D2
330
47BF
100
AcDbEntity
  8
IMAGE
100
AcDbPolyline
 90
        2
 70
     0
 43
0.0
 10
-8.465013263466005
 20
8.091986637281138
 10
-8.465013263466005
 20
8.125319970614471
  0
LWPOLYLINE
  5
37D3
330
47BF
100
AcDbEntity
  8
IMAGE
100
AcDbPolyline
 90
        2
 70
     0
 43
0.0
 10
-8.335013263466008
 20
8.091986637281138
 10
-8.335013263466008
 20
8.125319970614471
  0
LWPOLYLINE
  5
37D4
330
47BF
100
AcDbEntity
  8
IMAGE
100
AcDbPolyline
 90
        2
 70
     0
 43
0.0
 10
-8.341679930132674
 20
8.091986637281138
 10
-8.341679930132674
 20
8.125319970614471
  0
LWPOLYLINE
  5
37D5
330
47BF
100
AcDbEntity
  8
IMAGE
100
AcDbPolyline
 90
        2
 70
     0
 43
0.0
 10
-8.351679930132673
 20
8.091986637281138
 10
-8.351679930132673
 20
8.125319970614471
  0
LWPOLYLINE
  5
37D6
330
47BF
100
AcDbEntity
  8
IMAGE
100
AcDbPolyline
 90
        2
 70
     0
 43
0.0
 10
-8.358346596799339
 20
8.091986637281138
 10
-8.358346596799339
 20
8.125319970614471
  0
LWPOLYLINE
  5
37D7
330
47BF
100
AcDbEntity
  8
IMAGE
100
AcDbPolyline
 90
        2
 70
     0
 43
0.0
 10
-8.455013263466007
 20
8.091986637281138
 10
-8.455013263466007
 20
8.125319970614471
  0
LWPOLYLINE
  5
37D8
330
47BF
100
AcDbEntity
  8
IMAGE
100
AcDbPolyline
 90
        2
 70
     0
 43
0.0
 10
-8.470013263466006
 20
8.091986637281138
 10
-8.470013263466006
 20
8.125319970614471
  0
LWPOLYLINE
  5
37D9
330
47BF
100
AcDbEntity
  8
IMAGE
100
AcDbPolyline
 90
        2
 70
     0
 43
0.0
 10
-8.478346596799338
 20
8.091986637281138
 10
-8.478346596799338
 20
8.125319970614471
  0
LWPOLYLINE
  5
37DA
330
47BF
100
AcDbEntity
  8
IMAGE
100
AcDbPolyline
 90
        2
 70
     0
 43
0.0
 10
-8.483346596799339
 20
8.091986637281138
 10
-8.483346596799339
 20
8.125319970614471
  0
LWPOLYLINE
  5
37DB
330
47BF
100
AcDbEntity
  8
IMAGE
100
AcDbPolyline
 90
        2
 70
     0
 43
0.0
 10
-8.326679930132673
 20
8.091986637281138
 10
-8.326679930132673
 20
8.125319970614471
  0
LWPOLYLINE
  5
37DC
330
47BF
100
AcDbEntity
  8
IMAGE
100
AcDbPolyline
 90
        2
 70
     0
 43
0.0
 10
-8.311679930132674
 20
8.091986637281138
 10
-8.311679930132674
 20
8.125319970614471
  0
LWPOLYLINE
  5
37DD
330
47BF
100
AcDbEntity
  8
IMAGE
100
AcDbPolyline
 90
        2
 70
     0
 43
0.0
 10
-8.321679930132674
 20
8.091986637281138
 10
-8.321679930132674
 20
8.125319970614471
  0
LWPOLYLINE
  5
37DE
330
47BF
100
AcDbEntity
  8
IMAGE
100
AcDbPolyline
 90
        2
 70
     0
 43
0.0
 10
-8.306679930132673
 20
8.091986637281138
 10
-8.306679930132673
 20
8.125319970614471
  0
LWPOLYLINE
  5
37DF
330
47BF
100
AcDbEntity
  8
IMAGE
100
AcDbPolyline
 90
        2
 70
     0
 43
0.0
 10
-8.298346596799341
 20
8.091986637281138
 10
-8.298346596799341
 20
8.125319970614471
  0
LWPOLYLINE
  5
37E0
330
47BF
100
AcDbEntity
  8
IMAGE
100
AcDbPolyline
 90
        2
 70
     0
 43
0.0
 10
-8.293346596799342
 20
8.091986637281138
 10
-8.293346596799342
 20
8.125319970614471
  0
LWPOLYLINE
  5
37E1
330
47BF
100
AcDbEntity
  8
IMAGE
100
AcDbPolyline
 90
        2
 70
     0
 43
0.0
 10
-8.642096596799341
 20
8.075729973231535
 42
-0.419279349704197
 10
-8.642096596799341
 20
7.959442013247331
 42
14.27302418867091
  0
LWPOLYLINE
  5
37E4
330
47BF
100
AcDbEntity
  8
IMAGE
100
AcDbPolyline
 90
        2
 70
     0
 43
0.0
 10
-8.650747330777114
 20
8.075969070628955
 10
-8.652185872138698
 20
8.075825594611433
  0
LWPOLYLINE
  5
37E5
330
47BF
100
AcDbEntity
  8
IMAGE
100
AcDbPolyline
 90
        2
 70
     0
 43
0.0
 10
-8.646327839362568
 20
7.962387873333392
 10
-8.649414282215802
 20
7.962658112735471
  0
LWPOLYLINE
  5
37F9
330
47BF
100
AcDbEntity
  8
IMAGE
100
AcDbPolyline
 90
        3
 70
     0
 43
0.0
 10
-8.646546053438221
 20
8.086359937890851
 10
-8.643662306524282
 20
8.014255695907014
 10
-8.642096596799341
 20
7.975107214347127
  0
LWPOLYLINE
  5
37FA
330
47BF
100
AcDbEntity
  8
IMAGE
100
AcDbPolyline
 90
        4
 70
     0
 43
0.0
 10
-8.648341043280673
 20
8.014255695907014
 10
-8.650747330777114
 20
8.075969070628955
 10
-8.646546053438221
 20
8.086359937890851
 10
-8.642096596799341
 20
8.075729973231535
  0
LWPOLYLINE
  5
3805
330
47BF
100
AcDbEntity
  8
IMAGE
100
AcDbPolyline
 90
        3
 70
     0
 43
0.0
 10
-8.651423996082026
 20
8.014255695907014
 10
-8.649414282215802
 20
7.962658112735471
 10
-8.652185872138698
 20
7.954159020470893
  0
LWPOLYLINE
  5
380D
330
47BF
100
AcDbEntity
  8
IMAGE
100
AcDbPolyline
 90
        3
 70
     0
 43
0.0
 10
-8.642096596799341
 20
7.953922657437439
 10
-8.646327839362568
 20
7.962387873333392
 10
-8.648350235536637
 20
8.014255695907014
  0
LWPOLYLINE
  5
380E
330
47BF
100
AcDbEntity
  8
IMAGE
100
AcDbPolyline
 90
        2
 70
     0
 43
0.0
 10
-8.642096596799341
 20
8.075729973231535
 10
-8.642096596799341
 20
7.959442013247331
  0
LWPOLYLINE
  5
385E
330
47BF
100
AcDbEntity
  8
IMAGE
100
AcDbPolyline
 90
        2
 70
     0
 43
0.0
 10
-8.292096596799339
 20
8.077760909065078
 10
-8.491585297753367
 20
8.077760909065078
  0
LWPOLYLINE
  5
385F
330
47BF
100
AcDbEntity
  8
IMAGE
100
AcDbPolyline
 90
        2
 70
     0
 43
0.0
 10
-8.541157495489397
 20
8.077760909065078
 10
-8.642096596799341
 20
8.077760909065078
  0
LWPOLYLINE
  5
3860
330
47BF
100
AcDbEntity
  8
IMAGE
100
AcDbPolyline
 90
        2
 70
     0
 43
0.0
 10
-8.642096596799341
 20
7.949545698830526
 10
-8.292096596799339
 20
7.949545698830529
  0
LWPOLYLINE
  5
38D1
330
47BF
100
AcDbEntity
  8
IMAGE
100
AcDbPolyline
 90
        2
 70
     0
 43
0.0
 10
-10.71325611019364
 20
8.165872488272952
 10
-8.775756110193647
 20
8.165872488272952
  0
LWPOLYLINE
  5
38D2
330
47BF
100
AcDbEntity
  8
IMAGE
100
AcDbPolyline
 90
       25
 70
     0
 43
0.0
 10
-9.605307619510472
 20
7.268344438434004
 10
-9.603655987391997
 20
7.269999837102353
 10
-9.580917325820193
 20
7.262971455042888
 10
-9.580503005334373
 20
7.262971455042888
 10
-9.580503005334373
 20
7.263383892253772
 10
-9.580090568123488
 20
7.263383892253772
 10
-9.579676247637667
 20
7.263798212739594
 10
-9.579263810426782
 20
7.263798212739594
 10
-9.579263810426782
 20
7.264212533225412
 10
-9.578849489940962
 20
7.264212533225412
 10
-9.578849489940962
 20
7.264624970436299
 10
-9.578437052730077
 20
7.265037407647183
 10
-9.578437052730077
 20
7.265864165343888
 10
-9.584224356607016
 20
7.273306867889173
 10
-9.566860561701265
 20
7.270826594799057
 10
-9.56644812449038
 20
7.270826594799057
 10
-9.56644812449038
 20
7.271239032009941
 10
-9.566033804004559
 20
7.271239032009941
 10
-9.566033804004559
 20
7.271653352495762
 10
-9.566033804004559
 20
7.272065789706648
 10
-9.566033804004559
 20
7.272480110192466
 10
-9.566033804004559
 20
7.272892547403352
 10
-9.566033804004559
 20
7.273306867889173
 10
-9.566033804004559
 20
7.273719305100059
 10
-9.566033804004559
 20
7.274546062796766
  0
LWPOLYLINE
  5
38D3
330
47BF
100
AcDbEntity
  8
IMAGE
100
AcDbPolyline
 90
       52
 70
     1
 43
0.0
 10
-9.098038099246
 20
7.284881475643051
 10
-9.085222413309598
 20
7.283229843524575
 10
-9.084395655612892
 20
7.281988765342047
 10
-9.083983218402007
 20
7.281162007645343
 10
-9.083156460705303
 20
7.279920929462819
 10
-9.082742140219481
 20
7.278681734555228
 10
-9.082742140219481
 20
7.277440656372701
 10
-9.082327819733661
 20
7.276201461465111
 10
-9.082327819733661
 20
7.274960383282583
 10
-9.082327819733661
 20
7.273306867889173
 10
-9.082327819733661
 20
7.272065789706648
 10
-9.082327819733661
 20
7.270414157588174
 10
-9.082327819733661
 20
7.269173079405647
 10
-9.082327819733661
 20
7.267932001223121
 10
-9.082742140219481
 20
7.266278485829709
 10
-9.082742140219481
 20
7.265037407647183
 10
-9.082742140219481
 20
7.262557134557066
 10
-9.083568897916187
 20
7.261317939649476
 10
-9.083983218402007
 20
7.26007686146695
 10
-9.084395655612892
 20
7.258837666559362
 10
-9.084809976098714
 20
7.258010908862653
 10
-9.085222413309598
 20
7.256769830680128
 10
-9.085636733795418
 20
7.255943072983424
 10
-9.086049171006305
 20
7.2547019948009
 10
-9.086463491492125
 20
7.253875237104191
 10
-9.08687592870301
 20
7.253048479407485
 10
-9.08729024918883
 20
7.25222172171078
 10
-9.087702686399715
 20
7.250982526803189
 10
-9.088117006885536
 20
7.250155769106485
 10
-9.088529444096421
 20
7.249327128134845
 10
-9.088943764582241
 20
7.248502253713072
 10
-9.089770522278946
 20
7.247261175530544
 10
-9.091424037672357
 20
7.245193339651319
 10
-9.092665115854883
 20
7.243127387047021
 10
-9.094318631248295
 20
7.241473871653608
 10
-9.095972146641706
 20
7.239820356260199
 10
-9.097625662035117
 20
7.238579278077672
 10
-9.099693497914348
 20
7.236925762684261
 10
-9.101347013307758
 20
7.235684684501735
 10
-9.103412965912053
 20
7.234857926805031
 10
-9.105480801791285
 20
7.23361873189744
 10
-9.107961074881401
 20
7.232791974200734
 10
-9.110027027485699
 20
7.232377653714912
 10
-9.11250918385075
 20
7.231965216504027
 10
-9.114989456940868
 20
7.231550896018206
 10
-9.117469730030983
 20
7.231550896018206
 10
-9.122430276211215
 20
7.232377653714912
 10
-9.099693497914348
 20
7.284469038432164
 10
-9.099279177428527
 20
7.284469038432164
 10
-9.098864856942707
 20
7.284469038432164
 10
-9.09845241973182
 20
7.284469038432164
 10
-9.098038099246
 20
7.284881475643051
  0
LWPOLYLINE
  5
38D4
330
47BF
100
AcDbEntity
  8
IMAGE
100
AcDbPolyline
 90
       76
 70
     1
 43
0.0
 10
-9.200154916076208
 20
7.287776069218988
 10
-9.199740595590387
 20
7.287363632008101
 10
-9.199328158379504
 20
7.287363632008101
 10
-9.198913837893684
 20
7.287363632008101
 10
-9.198501400682797
 20
7.287363632008101
 10
-9.198087080196977
 20
7.287363632008101
 10
-9.197260322500271
 20
7.287363632008101
 10
-9.196846002014451
 20
7.287363632008101
 10
-9.196433564803564
 20
7.286949311522279
 10
-9.196019244317746
 20
7.286949311522279
 10
-9.195606807106859
 20
7.286949311522279
 10
-9.194780049410153
 20
7.286536874311398
 10
-9.194365728924333
 20
7.286536874311398
 10
-9.19395329171345
 20
7.286122553825576
 10
-9.19353897122763
 20
7.285710116614692
 10
-9.192299776320039
 20
7.28529579612887
 10
-9.192299776320039
 20
7.28364228073546
 10
-9.192299776320039
 20
7.282401202552933
 10
-9.192299776320039
 20
7.281574444856229
 10
-9.192712213530924
 20
7.280335249948638
 10
-9.192712213530924
 20
7.279094171766111
 10
-9.193126534016744
 20
7.278269297344342
 10
-9.19395329171345
 20
7.277028219161817
 10
-9.194365728924333
 20
7.276201461465111
 10
-9.195192486621039
 20
7.274960383282583
 10
-9.195606807106859
 20
7.274133625585879
 10
-9.196433564803564
 20
7.273306867889173
 10
-9.197260322500271
 20
7.272480110192466
 10
-9.198087080196977
 20
7.271653352495762
 10
-9.198913837893684
 20
7.270826594799057
 10
-9.200154916076208
 20
7.269173079405647
 10
-9.201394110983798
 20
7.268344438434004
 10
-9.202220868680504
 20
7.267519564012234
 10
-9.203047626377209
 20
7.267105243526413
 10
-9.204288704559736
 20
7.266692806315528
 10
-9.20511546225644
 20
7.266278485829709
 10
-9.206356540438967
 20
7.265864165343888
 10
-9.207181414860736
 20
7.265451728133005
 10
-9.208010055832378
 20
7.265451728133005
 10
-9.209249250739969
 20
7.265037407647183
 10
-9.210076008436674
 20
7.265037407647183
 10
-9.2113170866192
 20
7.265037407647183
 10
-9.212143844315907
 20
7.265037407647183
 10
-9.21338492249843
 20
7.265037407647183
 10
-9.214209796920201
 20
7.265037407647183
 10
-9.215865195588547
 20
7.265037407647183
 10
-9.217104390496139
 20
7.265037407647183
 10
-9.217518710981959
 20
7.265451728133005
 10
-9.217931148192842
 20
7.265864165343888
 10
-9.218345468678665
 20
7.266278485829709
 10
-9.21875790588955
 20
7.267105243526413
 10
-9.21875790588955
 20
7.267519564012234
 10
-9.218345468678665
 20
7.268344438434004
 10
-9.218345468678665
 20
7.269173079405647
 10
-9.217931148192842
 20
7.269999837102353
 10
-9.217931148192842
 20
7.270826594799057
 10
-9.217518710981959
 20
7.271653352495762
 10
-9.217104390496139
 20
7.272480110192466
 10
-9.216690070010319
 20
7.273306867889173
 10
-9.216277632799432
 20
7.274133625585879
 10
-9.215450875102726
 20
7.275374703768403
 10
-9.215038437891841
 20
7.276201461465111
 10
-9.214624117406021
 20
7.277028219161817
 10
-9.214209796920201
 20
7.277854976858521
 10
-9.213797359709316
 20
7.278681734555228
 10
-9.21338492249843
 20
7.279094171766111
 10
-9.21297060201261
 20
7.279920929462819
 10
-9.21297060201261
 20
7.280749570434457
 10
-9.21255628152679
 20
7.281574444856229
 10
-9.212143844315907
 20
7.281988765342047
 10
-9.211729523830085
 20
7.282815523038754
 10
-9.2113170866192
 20
7.283229843524575
 10
-9.210902766133379
 20
7.284056601221281
 10
-9.210076008436674
 20
7.284469038432164
 10
-9.209663571225789
 20
7.284881475643051
 10
-9.208010055832378
 20
7.286122553825576
  0
LWPOLYLINE
  5
38D5
330
47BF
100
AcDbEntity
  8
IMAGE
100
AcDbPolyline
 90
       84
 70
     1
 43
0.0
 10
-9.121191081303624
 20
7.310929051276611
 10
-9.117055409545162
 20
7.310514730790792
 10
-9.11209486336493
 20
7.310514730790792
 10
-9.107548637670518
 20
7.310514730790792
 10
-9.102586208215349
 20
7.310929051276611
 10
-9.097625662035117
 20
7.310929051276611
 10
-9.092250795369062
 20
7.310929051276611
 10
-9.08729024918883
 20
7.310514730790792
 10
-9.082327819733661
 20
7.310100410304972
 10
-9.077367273553427
 20
7.309687973094086
 10
-9.072821047859015
 20
7.30886121539738
 10
-9.068272938889668
 20
7.307620137214852
 10
-9.064139150406141
 20
7.305968505096378
 10
-9.060003478647677
 20
7.303900669217147
 10
-9.056284010649971
 20
7.301418512852095
 10
-9.050082386287211
 20
7.29521877176427
 10
-9.050082386287211
 20
7.294804451278452
 10
-9.049668065801391
 20
7.294392014067566
 10
-9.049668065801391
 20
7.293977693581745
 10
-9.049668065801391
 20
7.293563373095924
 10
-9.049255628590508
 20
7.293563373095924
 10
-9.049255628590508
 20
7.293150935885042
 10
-9.048841308104686
 20
7.292736615399218
 10
-9.048841308104686
 20
7.292324178188334
 10
-9.0484288708938
 20
7.292324178188334
 10
-9.04760022992216
 20
7.29025822558404
 10
-9.046773472225455
 20
7.288602826915693
 10
-9.04636103501457
 20
7.286536874311398
 10
-9.045534277317866
 20
7.284469038432164
 10
-9.045119956832044
 20
7.282401202552933
 10
-9.044707519621159
 20
7.280335249948638
 10
-9.044707519621159
 20
7.278269297344342
 10
-9.044293199135339
 20
7.276201461465111
 10
-9.044293199135339
 20
7.274133625585879
 10
-9.044293199135339
 20
7.272065789706648
 10
-9.044293199135339
 20
7.269999837102353
 10
-9.044707519621159
 20
7.267932001223121
 10
-9.045119956832044
 20
7.265451728133005
 10
-9.045534277317866
 20
7.263383892253772
 10
-9.04636103501457
 20
7.259250103770245
 10
-9.047187792711275
 20
7.257596588376834
 10
-9.04760022992216
 20
7.255943072983424
 10
-9.04801455040798
 20
7.2547019948009
 10
-9.0484288708938
 20
7.253048479407485
 10
-9.048841308104686
 20
7.251394964014075
 10
-9.049668065801391
 20
7.249741448620664
 10
-9.050082386287211
 20
7.248502253713072
 10
-9.050494823498098
 20
7.246846855044728
 10
-9.051321581194804
 20
7.245607660137137
 10
-9.051735901680624
 20
7.243954144743725
 10
-9.052150222166444
 20
7.242714949836134
 10
-9.052975096588212
 20
7.241059551167787
 10
-9.05380185428492
 20
7.239820356260199
 10
-9.054628611981625
 20
7.238579278077672
 10
-9.055869690164151
 20
7.236513325473374
 10
-9.056284010649971
 20
7.236099004987556
 10
-9.056284010649971
 20
7.235684684501735
 10
-9.056696447860858
 20
7.235272247290851
 10
-9.056696447860858
 20
7.234857926805031
 10
-9.057110768346678
 20
7.234445489594145
 10
-9.057110768346678
 20
7.234031169108324
 10
-9.057110768346678
 20
7.23361873189744
 10
-9.06165699404109
 20
7.227002787048861
 10
-9.067031860707142
 20
7.221215483171922
 10
-9.072406727373195
 20
7.216667374202573
 10
-9.078608351735955
 20
7.212946022929931
 10
-9.085222413309598
 20
7.210465749839814
 10
-9.092250795369062
 20
7.207985476749701
 10
-9.099693497914348
 20
7.206746281842108
 10
-9.107134317184698
 20
7.205505203659582
 10
-9.114989456940868
 20
7.205090883173761
 10
-9.122844596697037
 20
7.204678445962876
 10
-9.131112173664091
 20
7.204678445962876
 10
-9.138967313420259
 20
7.204678445962876
 10
-9.14723677366225
 20
7.204678445962876
 10
-9.15509191341842
 20
7.205090883173761
 10
-9.170387872444939
 20
7.205090883173761
 10
-9.16253273268877
 20
7.229483060138978
 10
-9.12325703390792
 20
7.310514730790792
 10
-9.122844596697037
 20
7.310514730790792
 10
-9.122430276211215
 20
7.310514730790792
 10
-9.122017839000331
 20
7.310514730790792
 10
-9.121603518514509
 20
7.310514730790792
 10
-9.121191081303624
 20
7.310929051276611
  0
LWPOLYLINE
  5
38D6
330
47BF
100
AcDbEntity
  8
IMAGE
100
AcDbPolyline
 90
      111
 70
     1
 43
0.0
 10
-9.390329902342758
 20
7.347722593692407
 10
-9.386194230584294
 20
7.347310156481523
 10
-9.381646121614947
 20
7.347310156481523
 10
-9.37751233313142
 20
7.347310156481523
 10
-9.372964224162071
 20
7.347310156481523
 10
-9.368417998467659
 20
7.347310156481523
 10
-9.36386988949831
 20
7.347722593692407
 10
-9.359321780528963
 20
7.347722593692407
 10
-9.354775554834551
 20
7.347722593692407
 10
-9.350227445865204
 20
7.347722593692407
 10
-9.345679336895855
 20
7.347722593692407
 10
-9.341131227926506
 20
7.347310156481523
 10
-9.336585002232094
 20
7.346483398784819
 10
-9.332449330473632
 20
7.345656641088112
 10
-9.328315541990106
 20
7.344415562905586
 10
-9.32004796502305
 20
7.341108532118765
 10
-9.318392566354704
 20
7.338628259028649
 10
-9.316739050961292
 20
7.336147985938531
 10
-9.315499856053701
 20
7.333253392362593
 10
-9.314671215082061
 20
7.330773119272476
 10
-9.313846340660292
 20
7.327466088485655
 10
-9.313019582963587
 20
7.32457149490972
 10
-9.313019582963587
 20
7.321264464122898
 10
-9.312605262477765
 20
7.317957433336074
 10
-9.313019582963587
 20
7.314648519274318
 10
-9.313019582963587
 20
7.311341488487498
 10
-9.313846340660292
 20
7.308448778186495
 10
-9.314258777871177
 20
7.305139864124738
 10
-9.315499856053701
 20
7.301832833337915
 10
-9.316739050961292
 20
7.298938239761978
 10
-9.319221207326346
 20
7.293563373095924
 10
-9.320874722719755
 20
7.29149742049163
 10
-9.322113917627346
 20
7.289843905098219
 10
-9.323354995809872
 20
7.288190389704807
 10
-9.325008511203282
 20
7.286949311522279
 10
-9.326247706110873
 20
7.28529579612887
 10
-9.327901221504284
 20
7.284056601221281
 10
-9.329556620172631
 20
7.282815523038754
 10
-9.330795815080222
 20
7.281574444856229
 10
-9.332449330473632
 20
7.280335249948638
 10
-9.334102845867043
 20
7.279094171766111
 10
-9.335756361260454
 20
7.277854976858521
 10
-9.337824197139685
 20
7.277028219161817
 10
-9.339477712533097
 20
7.275787140979291
 10
-9.341131227926506
 20
7.274960383282583
 10
-9.34443825871333
 20
7.273306867889173
 10
-9.344025821502444
 20
7.271239032009941
 10
-9.343611501016624
 20
7.268758758919826
 10
-9.343199063805737
 20
7.266692806315528
 10
-9.342784743319917
 20
7.264212533225412
 10
-9.341957985623214
 20
7.26173037686036
 10
-9.341545548412328
 20
7.259250103770245
 10
-9.341131227926506
 20
7.256769830680128
 10
-9.340718790715623
 20
7.253875237104191
 10
-9.340718790715623
 20
7.251394964014075
 10
-9.340718790715623
 20
7.248502253713072
 10
-9.340718790715623
 20
7.245607660137137
 10
-9.340718790715623
 20
7.243127387047021
 10
-9.341131227926506
 20
7.240232793471084
 10
-9.341957985623214
 20
7.237338199895146
 10
-9.344025821502444
 20
7.232377653714912
 10
-9.34485257919915
 20
7.231550896018206
 10
-9.345265016410035
 20
7.230724138321503
 10
-9.345679336895855
 20
7.230309817835681
 10
-9.345679336895855
 20
7.229483060138978
 10
-9.34609177410674
 20
7.229070622928093
 10
-9.346506094592562
 20
7.228243865231387
 10
-9.346920415078381
 20
7.227829544745565
 10
-9.346920415078381
 20
7.22741710753468
 10
-9.347332852289266
 20
7.226588466563041
 10
-9.347747172775088
 20
7.226176029352155
 10
-9.348159609985971
 20
7.225763592141268
 10
-9.348573930471793
 20
7.224936834444564
 10
-9.348573930471793
 20
7.224522513958743
 10
-9.348986367682677
 20
7.223695756262039
 10
-9.349813125379382
 20
7.222868998565333
 10
-9.355187992045436
 20
7.217908452385099
 10
-9.360975295922376
 20
7.213774663901572
 10
-9.367176920285134
 20
7.210880070325636
 10
-9.373790981858777
 20
7.20839979723552
 10
-9.380406926707356
 20
7.207158719052992
 10
-9.387435308766821
 20
7.205919524145401
 10
-9.394876128037171
 20
7.205505203659582
 10
-9.402318830582455
 20
7.205505203659582
 10
-9.409759649852803
 20
7.205505203659582
 10
-9.417614789608974
 20
7.205919524145401
 10
-9.425469929365142
 20
7.206331961356289
 10
-9.432910748635492
 20
7.206746281842108
 10
-9.440767771666598
 20
7.207158719052992
 10
-9.448208590936946
 20
7.207158719052992
 10
-9.462677792266759
 20
7.206746281842108
 10
-9.45937076147994
 20
7.215428179294983
 10
-9.456063730693117
 20
7.224110076747859
 10
-9.451928058934655
 20
7.232791974200734
 10
-9.448208590936946
 20
7.241473871653608
 10
-9.443660481967599
 20
7.250155769106485
 10
-9.439526693484072
 20
7.259250103770245
 10
-9.434978584514723
 20
7.267932001223121
 10
-9.430018038334491
 20
7.277028219161817
 10
-9.425469929365142
 20
7.285710116614692
 10
-9.420921820395795
 20
7.294392014067566
 10
-9.415961274215565
 20
7.303486348731326
 10
-9.411000728035331
 20
7.3121682461842
 10
-9.40645261906598
 20
7.320850143637077
 10
-9.401492072885748
 20
7.329532041089951
 10
-9.392395854947054
 20
7.347310156481523
 10
-9.391983417736168
 20
7.347310156481523
 10
-9.391569097250348
 20
7.347310156481523
 10
-9.391154776764526
 20
7.347310156481523
 10
-9.390742339553643
 20
7.347310156481523
 10
-9.390329902342758
 20
7.347722593692407
  0
LWPOLYLINE
  5
38D7
330
47BF
100
AcDbEntity
  8
IMAGE
100
AcDbPolyline
 90
      103
 70
     1
 43
0.0
 10
-9.231161154615067
 20
7.310929051276611
 10
-9.22702736613154
 20
7.310514730790792
 10
-9.222893577648012
 20
7.310514730790792
 10
-9.218345468678665
 20
7.310514730790792
 10
-9.213797359709316
 20
7.310514730790792
 10
-9.208836813529083
 20
7.310929051276611
 10
-9.204288704559736
 20
7.311341488487498
 10
-9.199740595590387
 20
7.311341488487498
 10
-9.195192486621039
 20
7.311755808973317
 10
-9.190646260926627
 20
7.311341488487498
 10
-9.186098151957281
 20
7.310929051276611
 10
-9.181550042987932
 20
7.310514730790792
 10
-9.177416254504404
 20
7.309273652608265
 10
-9.173282466020875
 20
7.307620137214852
 10
-9.169561114748235
 20
7.305968505096378
 10
-9.16253273268877
 20
7.300179317944505
 10
-9.161291654506243
 20
7.297699044854386
 10
-9.160464896809539
 20
7.29563120897516
 10
-9.159638139112834
 20
7.293150935885042
 10
-9.158811381416128
 20
7.291083100005808
 10
-9.158398944205242
 20
7.288602826915693
 10
-9.158398944205242
 20
7.286122553825576
 10
-9.158398944205242
 20
7.28364228073546
 10
-9.158398944205242
 20
7.281574444856229
 10
-9.158811381416128
 20
7.279094171766111
 10
-9.159225701901947
 20
7.276613898675993
 10
-9.159638139112834
 20
7.274133625585879
 10
-9.160464896809539
 20
7.272065789706648
 10
-9.160879217295359
 20
7.26958551661653
 10
-9.162120295477883
 20
7.267519564012234
 10
-9.163773810871298
 20
7.263383892253772
 10
-9.164186248082181
 20
7.262971455042888
 10
-9.164186248082181
 20
7.262557134557066
 10
-9.164600568568001
 20
7.26214469734618
 10
-9.164600568568001
 20
7.26173037686036
 10
-9.165013005778886
 20
7.261317939649476
 10
-9.165013005778886
 20
7.260903619163654
 10
-9.165427326264707
 20
7.260903619163654
 10
-9.165427326264707
 20
7.260491181952771
 10
-9.165427326264707
 20
7.26007686146695
 10
-9.165839763475592
 20
7.26007686146695
 10
-9.165839763475592
 20
7.259664424256065
 10
-9.165839763475592
 20
7.259250103770245
 10
-9.174935981414288
 20
7.249741448620664
 10
-9.19767464298609
 20
7.241059551167787
 10
-9.198087080196977
 20
7.240645230681968
 10
-9.198501400682797
 20
7.240645230681968
 10
-9.198501400682797
 20
7.240232793471084
 10
-9.198501400682797
 20
7.239820356260199
 10
-9.198501400682797
 20
7.239406035774377
 10
-9.187339230139805
 20
7.205505203659582
 10
-9.216277632799432
 20
7.205090883173761
 10
-9.231573591825952
 20
7.240645230681968
 10
-9.233641427705181
 20
7.238993598563494
 10
-9.235294943098594
 20
7.237338199895146
 10
-9.23653602128112
 20
7.235684684501735
 10
-9.238189536674532
 20
7.23361873189744
 10
-9.239428731582121
 20
7.231550896018206
 10
-9.240669809764648
 20
7.229483060138978
 10
-9.241909004672237
 20
7.22741710753468
 10
-9.243150082854763
 20
7.224936834444564
 10
-9.24397684055147
 20
7.222868998565333
 10
-9.245217918733995
 20
7.220388725475217
 10
-9.246457113641586
 20
7.217908452385099
 10
-9.247283871338291
 20
7.215428179294983
 10
-9.248524949520817
 20
7.213360343415754
 10
-9.249766027703344
 20
7.210880070325636
 10
-9.252246300793458
 20
7.206746281842108
 10
-9.285320375211549
 20
7.205090883173761
 10
-9.283664976543203
 20
7.21005331262893
 10
-9.282011461149792
 20
7.215013858809162
 10
-9.279945508545496
 20
7.220388725475217
 10
-9.277465235455379
 20
7.225349271655449
 10
-9.275397399576148
 20
7.230724138321503
 10
-9.272917126486031
 20
7.235684684501735
 10
-9.270022532910095
 20
7.241059551167787
 10
-9.267542259819979
 20
7.246020097348019
 10
-9.264647666244043
 20
7.251394964014075
 10
-9.26175495594304
 20
7.256357393469242
 10
-9.259272799577988
 20
7.26173037686036
 10
-9.256380089276987
 20
7.266692806315528
 10
-9.253899816186869
 20
7.272065789706648
 10
-9.251005222610933
 20
7.277028219161817
 10
-9.246044676430701
 20
7.287776069218988
 10
-9.245217918733995
 20
7.289017147401513
 10
-9.244391161037288
 20
7.290670662794924
 10
-9.243564403340583
 20
7.29191174097745
 10
-9.242737645643879
 20
7.293563373095924
 10
-9.241909004672237
 20
7.294804451278452
 10
-9.241084130250467
 20
7.29645796667186
 10
-9.240255489278826
 20
7.297699044854386
 10
-9.239428731582121
 20
7.2993525602478
 10
-9.238601973885415
 20
7.300593638430324
 10
-9.237775216188712
 20
7.302247153823733
 10
-9.237362778977825
 20
7.303486348731326
 10
-9.23653602128112
 20
7.304727426913851
 10
-9.235709263584414
 20
7.306380942307264
 10
-9.234882505887707
 20
7.307620137214852
 10
-9.232814670008478
 20
7.310514730790792
 10
-9.232402232797593
 20
7.310514730790792
 10
-9.231987912311772
 20
7.310514730790792
 10
-9.231573591825952
 20
7.310514730790792
 10
-9.231161154615067
 20
7.310929051276611
  0
LWPOLYLINE
  5
38D8
330
47BF
100
AcDbEntity
  8
IMAGE
100
AcDbPolyline
 90
       12
 70
     1
 43
0.0
 10
-9.288627405998372
 20
7.310929051276611
 10
-9.255965768791167
 20
7.310929051276611
 10
-9.308471473994238
 20
7.206746281842108
 10
-9.340304470229803
 20
7.205919524145401
 10
-9.340718790715623
 20
7.205919524145401
 10
-9.340718790715623
 20
7.206331961356289
 10
-9.341131227926506
 20
7.206746281842108
 10
-9.341131227926506
 20
7.207158719052992
 10
-9.341131227926506
 20
7.207573039538814
 10
-9.289454163695076
 20
7.310514730790792
 10
-9.289039843209256
 20
7.310514730790792
 10
-9.288627405998372
 20
7.310929051276611
  0
LWPOLYLINE
  5
38D9
330
47BF
100
AcDbEntity
  8
IMAGE
100
AcDbPolyline
 90
       60
 70
     1
 43
0.0
 10
-9.878582112308068
 20
7.3121682461842
 10
-9.832278031467753
 20
7.3121682461842
 10
-9.851295341766915
 20
7.208812234446405
 10
-9.880648064912362
 20
7.207985476749701
 10
-9.881474822609067
 20
7.20839979723552
 10
-9.882301580305774
 20
7.208812234446405
 10
-9.882715900791593
 20
7.20963899214311
 10
-9.882715900791593
 20
7.210465749839814
 10
-9.882715900791593
 20
7.211294390811454
 10
-9.882715900791593
 20
7.212121148508163
 10
-9.882715900791593
 20
7.212946022929931
 10
-9.882301580305774
 20
7.214187101112458
 10
-9.882301580305774
 20
7.215013858809162
 10
-9.881889143094889
 20
7.215840616505868
 10
-9.881474822609067
 20
7.216667374202573
 10
-9.881062385398184
 20
7.217908452385099
 10
-9.880648064912362
 20
7.218735210081804
 10
-9.880233744426542
 20
7.219561967778513
 10
-9.879408870004773
 20
7.221627920382806
 10
-9.879821307215658
 20
7.221627920382806
 10
-9.879821307215658
 20
7.222042240868628
 10
-9.879821307215658
 20
7.222456561354448
 10
-9.880233744426542
 20
7.222456561354448
 10
-9.880233744426542
 20
7.222868998565333
 10
-9.880648064912362
 20
7.223283319051153
 10
-9.880648064912362
 20
7.223695756262039
 10
-9.880648064912362
 20
7.224110076747859
 10
-9.883542658488298
 20
7.223695756262039
 10
-9.886022931578416
 20
7.223695756262039
 10
-9.888503204668532
 20
7.224110076747859
 10
-9.890983477758648
 20
7.224110076747859
 10
-9.893878071334587
 20
7.224110076747859
 10
-9.896358344424703
 20
7.224522513958743
 10
-9.898838617514817
 20
7.224522513958743
 10
-9.901318890604937
 20
7.224522513958743
 10
-9.903799163695051
 20
7.224522513958743
 10
-9.906281320060104
 20
7.224110076747859
 10
-9.90876159315022
 20
7.223695756262039
 10
-9.911241866240336
 20
7.222868998565333
 10
-9.913309702119567
 20
7.222042240868628
 10
-9.915375654723863
 20
7.220803045961035
 10
-9.919097005996507
 20
7.21749413189928
 10
-9.91992376369321
 20
7.216667374202573
 10
-9.920338084179032
 20
7.215840616505868
 10
-9.920750521389916
 20
7.215013858809162
 10
-9.921162958600802
 20
7.214601421598278
 10
-9.921577279086623
 20
7.213774663901572
 10
-9.921989716297508
 20
7.213360343415754
 10
-9.922404036783328
 20
7.212533585719048
 10
-9.922818357269148
 20
7.212121148508163
 10
-9.923645114965854
 20
7.211294390811454
 10
-9.924057552176739
 20
7.210880070325636
 10
-9.924471872662559
 20
7.21005331262893
 10
-9.924884309873444
 20
7.20963899214311
 10
-9.92571106757015
 20
7.209226554932226
 10
-9.92612538805597
 20
7.208812234446405
 10
-9.92736458296356
 20
7.207985476749701
 10
-9.962918930471769
 20
7.207985476749701
 10
-9.878994549518951
 20
7.3121682461842
 10
-9.878582112308068
 20
7.3121682461842
  0
LWPOLYLINE
  5
38DA
330
47BF
100
AcDbEntity
  8
IMAGE
100
AcDbPolyline
 90
       71
 70
     1
 43
0.0
 10
-9.734296886396011
 20
7.3121682461842
 10
-9.701637132463741
 20
7.3121682461842
 10
-9.695847945311868
 20
7.265451728133005
 10
-9.695847945311868
 20
7.264624970436299
 10
-9.695435508100981
 20
7.263798212739594
 10
-9.695021187615163
 20
7.263798212739594
 10
-9.694608750404277
 20
7.263383892253772
 10
-9.694194429918455
 20
7.263383892253772
 10
-9.693781992707572
 20
7.263798212739594
 10
-9.69336767222175
 20
7.264212533225412
 10
-9.692955235010865
 20
7.264624970436299
 10
-9.692540914525046
 20
7.265037407647183
 10
-9.69212847731416
 20
7.265864165343888
 10
-9.691714156828339
 20
7.266278485829709
 10
-9.691299836342519
 20
7.267105243526413
 10
-9.690887399131634
 20
7.267519564012234
 10
-9.690474961920751
 20
7.267932001223121
 10
-9.689646320949108
 20
7.269173079405647
 10
-9.689646320949108
 20
7.269999837102353
 10
-9.689233883738225
 20
7.271239032009941
 10
-9.688819563252403
 20
7.272480110192466
 10
-9.688407126041518
 20
7.273306867889173
 10
-9.687992805555698
 20
7.274546062796766
 10
-9.687580368344812
 20
7.275374703768403
 10
-9.68716604785899
 20
7.276201461465111
 10
-9.686753610648105
 20
7.277028219161817
 10
-9.686339290162287
 20
7.277854976858521
 10
-9.6859268529514
 20
7.278681734555228
 10
-9.685512532465581
 20
7.279508492251932
 10
-9.684685774768874
 20
7.280335249948638
 10
-9.684273337557989
 20
7.281162007645343
 10
-9.683859017072169
 20
7.281988765342047
 10
-9.682617938889643
 20
7.284056601221281
 10
-9.681791181192938
 20
7.285710116614692
 10
-9.680551986285347
 20
7.287776069218988
 10
-9.67972522858864
 20
7.289429584612397
 10
-9.678484150406116
 20
7.29149742049163
 10
-9.677657392709409
 20
7.293563373095924
 10
-9.676830635012706
 20
7.29521877176427
 10
-9.676003877316
 20
7.296872287157684
 10
-9.675177119619295
 20
7.298938239761978
 10
-9.673937924711703
 20
7.300593638430324
 10
-9.673111167014997
 20
7.302247153823733
 10
-9.672282526043357
 20
7.303900669217147
 10
-9.671043331135766
 20
7.305554184610557
 10
-9.670216573439063
 20
7.307207700003969
 10
-9.668975495256535
 20
7.30886121539738
 10
-9.666082784955534
 20
7.3121682461842
 10
-9.63507466314174
 20
7.3121682461842
 10
-9.663188191379598
 20
7.255530635772537
 10
-9.688407126041518
 20
7.20839979723552
 10
-9.719413364580375
 20
7.207985476749701
 10
-9.72478823124643
 20
7.25842334607354
 10
-9.725202551732252
 20
7.25842334607354
 10
-9.725202551732252
 20
7.258837666559362
 10
-9.725614988943135
 20
7.258837666559362
 10
-9.725614988943135
 20
7.259250103770245
 10
-9.72602742615402
 20
7.259250103770245
 10
-9.72602742615402
 20
7.259664424256065
 10
-9.726441746639842
 20
7.259664424256065
 10
-9.726441746639842
 20
7.26007686146695
 10
-9.726854183850726
 20
7.26007686146695
 10
-9.727268504336546
 20
7.26007686146695
 10
-9.727682824822366
 20
7.260491181952771
 10
-9.754140954391877
 20
7.20839979723552
 10
-9.785561513416556
 20
7.207985476749701
 10
-9.73595040178942
 20
7.3121682461842
 10
-9.735537964578535
 20
7.3121682461842
 10
-9.735123644092716
 20
7.3121682461842
 10
-9.734709323606894
 20
7.3121682461842
 10
-9.734296886396011
 20
7.3121682461842
  0
LWPOLYLINE
  5
38DB
330
47BF
100
AcDbEntity
  8
IMAGE
100
AcDbPolyline
 90
       38
 70
     1
 43
0.0
 10
-9.790107739110968
 20
7.3121682461842
 10
-9.758689063361225
 20
7.3121682461842
 10
-9.809953690381769
 20
7.207985476749701
 10
-9.841786686617334
 20
7.207985476749701
 10
-9.841786686617334
 20
7.210880070325636
 10
-9.840959928920629
 20
7.213774663901572
 10
-9.840133171223923
 20
7.216667374202573
 10
-9.839306413527218
 20
7.219561967778513
 10
-9.837652898133807
 20
7.222456561354448
 10
-9.836411819951281
 20
7.224936834444564
 10
-9.834758304557871
 20
7.227829544745565
 10
-9.83310478916446
 20
7.230724138321503
 10
-9.831451273771047
 20
7.23361873189744
 10
-9.829797758377639
 20
7.236099004987556
 10
-9.828144242984226
 20
7.238993598563494
 10
-9.8269031648017
 20
7.241886308864494
 10
-9.825249649408288
 20
7.244780902440433
 10
-9.824008571225764
 20
7.248087933227253
 10
-9.821528298135648
 20
7.25428955759001
 10
-9.819874782742235
 20
7.257596588376834
 10
-9.81780883013794
 20
7.261317939649476
 10
-9.816155314744529
 20
7.265037407647183
 10
-9.814087478865298
 20
7.268758758919826
 10
-9.812433963471885
 20
7.272065789706648
 10
-9.810366127592654
 20
7.275787140979291
 10
-9.808712612199244
 20
7.279508492251932
 10
-9.806646659594949
 20
7.283229843524575
 10
-9.804991260926602
 20
7.286536874311398
 10
-9.803337745533189
 20
7.29025822558404
 10
-9.801271792928895
 20
7.293977693581745
 10
-9.799618277535484
 20
7.297284724368568
 10
-9.797550441656253
 20
7.301006075641211
 10
-9.795896926262839
 20
7.304727426913851
 10
-9.791763137779314
 20
7.3121682461842
 10
-9.791348817293494
 20
7.3121682461842
 10
-9.790936380082609
 20
7.3121682461842
 10
-9.790522059596787
 20
7.3121682461842
 10
-9.790107739110968
 20
7.3121682461842
  0
LWPOLYLINE
  5
38DC
330
47BF
100
AcDbEntity
  8
IMAGE
100
AcDbPolyline
 90
      126
 70
     0
 43
0.0
 10
-10.01004976900878
 20
7.350617187268346
 10
-10.00550166003943
 20
7.350204750057461
 10
-10.00095355107009
 20
7.34979042957164
 10
-9.995993004889857
 20
7.350204750057461
 10
-9.991032458709627
 20
7.350204750057461
 10
-9.985657592043571
 20
7.350617187268346
 10
-9.980697045863339
 20
7.350617187268346
 10
-9.975322179197283
 20
7.351029624479229
 10
-9.970361633017052
 20
7.351029624479229
 10
-9.965399203561883
 20
7.351029624479229
 10
-9.960438657381651
 20
7.350617187268346
 10
-9.955478111201419
 20
7.350204750057461
 10
-9.950517565021185
 20
7.349376109085818
 10
-9.945969456051837
 20
7.347722593692407
 10
-9.94142134708249
 20
7.346069078298997
 10
-9.933153770115435
 20
7.341108532118765
 10
-9.931912691932909
 20
7.339040696239532
 10
-9.930259176539498
 20
7.336560423149418
 10
-9.929018098356971
 20
7.334492587270187
 10
-9.927778903449382
 20
7.33242663466589
 10
-9.926952145752675
 20
7.329946361575772
 10
-9.92612538805597
 20
7.327466088485655
 10
-9.92571106757015
 20
7.324983932120606
 10
-9.925298630359266
 20
7.322505542305425
 10
-9.924884309873444
 20
7.320023385940371
 10
-9.924884309873444
 20
7.317543112850253
 10
-9.924884309873444
 20
7.315062839760138
 10
-9.924884309873444
 20
7.312580683395086
 10
-9.925298630359266
 20
7.310100410304972
 10
-9.92571106757015
 20
7.307620137214852
 10
-9.926537825266857
 20
7.303073911520439
 10
-9.92736458296356
 20
7.2993525602478
 10
-9.928605661146088
 20
7.29604364618604
 10
-9.929846739328613
 20
7.292736615399218
 10
-9.931085934236204
 20
7.289843905098219
 10
-9.932739449629615
 20
7.286949311522279
 10
-9.934392965023025
 20
7.284056601221281
 10
-9.936460800902256
 20
7.281574444856229
 10
-9.938114316295669
 20
7.279094171766111
 10
-9.940594589385785
 20
7.277028219161817
 10
-9.942662425265016
 20
7.274960383282583
 10
-9.945142698355132
 20
7.272892547403352
 10
-9.947622971445248
 20
7.271239032009941
 10
-9.950103244535364
 20
7.26958551661653
 10
-9.952997838111302
 20
7.267932001223121
 10
-9.958372704777355
 20
7.265451728133005
 10
-9.960026220170766
 20
7.264624970436299
 10
-9.961265415078356
 20
7.264212533225412
 10
-9.962918930471769
 20
7.263798212739594
 10
-9.964160008654292
 20
7.263383892253772
 10
-9.965399203561883
 20
7.262971455042888
 10
-9.966640281744409
 20
7.262557134557066
 10
-9.968293797137821
 20
7.26214469734618
 10
-9.969534875320345
 20
7.26173037686036
 10
-9.970774070227937
 20
7.261317939649476
 10
-9.972015148410463
 20
7.260903619163654
 10
-9.973254343318052
 20
7.260903619163654
 10
-9.974495421500579
 20
7.260491181952771
 10
-9.975736499683105
 20
7.260491181952771
 10
-9.976975694590697
 20
7.260491181952771
 10
-9.979043530469928
 20
7.260491181952771
 10
-9.980697045863339
 20
7.258837666559362
 10
-9.981523803560042
 20
7.257596588376834
 10
-9.981936240770929
 20
7.255943072983424
 10
-9.982350561256748
 20
7.25428955759001
 10
-9.982350561256748
 20
7.252636042196599
 10
-9.981936240770929
 20
7.250568206317371
 10
-9.981523803560042
 20
7.248914690923959
 10
-9.981109483074224
 20
7.246846855044728
 10
-9.980282725377517
 20
7.244780902440433
 10
-9.979455967680811
 20
7.242714949836134
 10
-9.979043530469928
 20
7.240645230681968
 10
-9.978216772773224
 20
7.238579278077672
 10
-9.977390015076517
 20
7.236513325473374
 10
-9.97656325737981
 20
7.234445489594145
 10
-9.975736499683105
 20
7.230724138321503
 10
-9.975736499683105
 20
7.229070622928093
 10
-9.975322179197283
 20
7.227829544745565
 10
-9.974909741986399
 20
7.226588466563041
 10
-9.974495421500579
 20
7.225349271655449
 10
-9.974081101014759
 20
7.224110076747859
 10
-9.973668663803874
 20
7.222456561354448
 10
-9.973668663803874
 20
7.221215483171922
 10
-9.973254343318052
 20
7.219561967778513
 10
-9.972841906107168
 20
7.218320889595986
 10
-9.972427585621348
 20
7.217081694688393
 10
-9.972015148410463
 20
7.215428179294983
 10
-9.972015148410463
 20
7.214187101112458
 10
-9.971600827924643
 20
7.212533585719048
 10
-9.971188390713757
 20
7.211294390811454
 10
-9.969947312531232
 20
7.208812234446405
 10
-10.00219462925261
 20
7.207985476749701
 10
-10.01831922925077
 20
7.255943072983424
 10
-10.0443649216094
 20
7.208812234446405
 10
-10.08239954220772
 20
7.207985476749701
 10
-10.08074414353937
 20
7.214187101112458
 10
-10.07826387044926
 20
7.220388725475217
 10
-10.07578359735914
 20
7.227002787048861
 10
-10.07330332426903
 20
7.23320441141162
 10
-10.0699962934822
 20
7.239820356260199
 10
-10.06710169990627
 20
7.246020097348019
 10
-10.06379466911945
 20
7.252636042196599
 10
-10.06048763833262
 20
7.259250103770245
 10
-10.05676628705998
 20
7.265451728133005
 10
-10.05345925627316
 20
7.272065789706648
 10
-10.04973790500052
 20
7.278681734555228
 10
-10.0464308742137
 20
7.28529579612887
 10
-10.04312384342687
 20
7.29149742049163
 10
-10.03981681264005
 20
7.29811336534021
 10
-10.03320086779147
 20
7.311341488487498
 10
-10.03196167288388
 20
7.313821761577611
 10
-10.03030815749047
 20
7.31630203466773
 10
-10.02906707930794
 20
7.318782307757846
 10
-10.02782788440035
 20
7.321676901333781
 10
-10.02658680621783
 20
7.324157174423899
 10
-10.0253457280353
 20
7.326637447514015
 10
-10.02410653312771
 20
7.329119603879068
 10
-10.02286545494518
 20
7.332012314180069
 10
-10.02162626003759
 20
7.334492587270187
 10
-10.02038518185507
 20
7.336974743635239
 10
-10.01914410367254
 20
7.339455016725353
 10
-10.01790490876495
 20
7.34152096932965
 10
-10.01625139337154
 20
7.344003125694702
 10
-10.01459787797813
 20
7.346069078298997
 10
-10.01087652670549
 20
7.350617187268346
 10
-10.0104640894946
 20
7.350617187268346
  0
LWPOLYLINE
  5
38DD
330
47BF
100
AcDbEntity
  8
IMAGE
100
AcDbPolyline
 90
      126
 70
     0
 43
0.0
 10
-9.566033804004559
 20
7.274546062796766
 10
-9.566033804004559
 20
7.274960383282583
 10
-9.566033804004559
 20
7.275374703768403
 10
-9.565207046307852
 20
7.276201461465111
 10
-9.556110828369156
 20
7.274133625585879
 10
-9.555698391158273
 20
7.274133625585879
 10
-9.555284070672453
 20
7.274133625585879
 10
-9.554871633461566
 20
7.274133625585879
 10
-9.554871633461566
 20
7.274546062796766
 10
-9.554457312975745
 20
7.274546062796766
 10
-9.55404487576486
 20
7.274960383282583
 10
-9.553630555279042
 20
7.275374703768403
 10
-9.556110828369156
 20
7.277854976858521
 10
-9.558178664248389
 20
7.280749570434457
 10
-9.56024650012762
 20
7.283229843524575
 10
-9.562312452731916
 20
7.286122553825576
 10
-9.564380288611147
 20
7.289017147401513
 10
-9.566860561701265
 20
7.29191174097745
 10
-9.568928397580496
 20
7.294804451278452
 10
-9.571408670670612
 20
7.297699044854386
 10
-9.573888943760728
 20
7.300593638430324
 10
-9.576783537336666
 20
7.303073911520439
 10
-9.579263810426782
 20
7.305968505096378
 10
-9.582156520727783
 20
7.308448778186495
 10
-9.58505111430372
 20
7.310929051276611
 10
-9.587945707879656
 20
7.312995003880907
 10
-9.594559769453301
 20
7.317543112850253
 10
-9.658227645199364
 20
7.346895835995703
 10
-9.627219523385571
 20
7.342347727026355
 10
-9.62887303877898
 20
7.346895835995703
 10
-9.616471673328399
 20
7.344003125694702
 10
-9.616057352842577
 20
7.344003125694702
 10
-9.615644915631694
 20
7.344415562905586
 10
-9.615644915631694
 20
7.344829883391406
 10
-9.615230595145874
 20
7.345242320602292
 10
-9.615230595145874
 20
7.345656641088112
 10
-9.615230595145874
 20
7.346069078298997
 10
-9.615230595145874
 20
7.346483398784819
 10
-9.615230595145874
 20
7.346895835995703
 10
-9.61481815793499
 20
7.347722593692407
 10
-9.609443291268934
 20
7.348135030903294
 10
-9.609028970783114
 20
7.348549351389113
 10
-9.609028970783114
 20
7.348963671874932
 10
-9.609028970783114
 20
7.349376109085818
 10
-9.609028970783114
 20
7.34979042957164
 10
-9.609028970783114
 20
7.350204750057461
 10
-9.609028970783114
 20
7.350617187268346
 10
-9.608616533572231
 20
7.350617187268346
 10
-9.608616533572231
 20
7.351029624479229
 10
-9.607789775875524
 20
7.351443944965052
 10
-9.607375455389703
 20
7.351443944965052
 10
-9.60696301817882
 20
7.351443944965052
 10
-9.606548697693
 20
7.351443944965052
 10
-9.606136260482113
 20
7.351443944965052
 10
-9.606136260482113
 20
7.351856382175935
 10
-9.605721939996293
 20
7.351856382175935
 10
-9.605307619510472
 20
7.352270702661758
 10
-9.604895182299586
 20
7.352685023147577
 10
-9.604895182299586
 20
7.35309746035846
 10
-9.604895182299586
 20
7.35351178084428
 10
-9.604895182299586
 20
7.353924218055166
 10
-9.604895182299586
 20
7.354336655266053
 10
-9.605307619510472
 20
7.354336655266053
 10
-9.605307619510472
 20
7.35475097575187
 10
-9.605721939996293
 20
7.355165296237691
 10
-9.605721939996293
 20
7.355577733448578
 10
-9.606136260482113
 20
7.355992053934398
 10
-9.606136260482113
 20
7.356404491145282
 10
-9.606548697693
 20
7.356818811631105
 10
-9.606548697693
 20
7.357231248841988
 10
-9.606548697693
 20
7.358472327024515
 10
-9.606548697693
 20
7.358884764235398
 10
-9.606136260482113
 20
7.359299084721222
 10
-9.605721939996293
 20
7.359299084721222
 10
-9.605307619510472
 20
7.359711521932107
 10
-9.604895182299586
 20
7.359711521932107
 10
-9.604482745088702
 20
7.359711521932107
 10
-9.603655987391997
 20
7.360125842417925
 10
-9.603655987391997
 20
7.36053827962881
 10
-9.603655987391997
 20
7.360952600114632
 10
-9.603241666906175
 20
7.360952600114632
 10
-9.603241666906175
 20
7.361366920600453
 10
-9.603241666906175
 20
7.361779357811337
 10
-9.602827346420355
 20
7.361779357811337
 10
-9.602414909209469
 20
7.362606115508041
 10
-9.609855728479818
 20
7.380384230899613
 10
-9.607789775875524
 20
7.377903957809499
 10
-9.605307619510472
 20
7.375421801444447
 10
-9.602827346420355
 20
7.372529091143444
 10
-9.600347073330238
 20
7.369634497567506
 10
-9.597866800240122
 20
7.366327466780687
 10
-9.595386527150006
 20
7.363432873204748
 10
-9.593318691270775
 20
7.360125842417925
 10
-9.590838418180659
 20
7.356818811631105
 10
-9.588358145090541
 20
7.35309746035846
 10
-9.586292192486247
 20
7.34979042957164
 10
-9.583810036121194
 20
7.346483398784819
 10
-9.581744083516898
 20
7.342762047512175
 10
-9.579263810426782
 20
7.339455016725353
 10
-9.577195974547549
 20
7.336147985938531
 10
-9.572647865578202
 20
7.329946361575772
 10
-9.534200807768995
 20
7.307207700003969
 10
-9.534200807768995
 20
7.307620137214852
 10
-9.534200807768995
 20
7.308034457700674
 10
-9.533786487283174
 20
7.308034457700674
 10
-9.533786487283174
 20
7.308448778186495
 10
-9.533786487283174
 20
7.30886121539738
 10
-9.533372166797352
 20
7.30886121539738
 10
-9.532959729586469
 20
7.309687973094086
 10
-9.535854323162407
 20
7.314648519274318
 10
-9.535854323162407
 20
7.315062839760138
 10
-9.535440002676585
 20
7.315062839760138
 10
-9.535440002676585
 20
7.315475276971024
 10
-9.5350275654657
 20
7.315475276971024
 10
-9.53461324497988
 20
7.315889597456846
 10
-9.534200807768995
 20
7.315889597456846
 10
-9.533786487283174
 20
7.315889597456846
 10
-9.533372166797352
 20
7.315889597456846
 10
-9.532959729586469
 20
7.315889597456846
 10
-9.532547292375582
 20
7.315889597456846
 10
-9.532132971889764
 20
7.315889597456846
 10
-9.531720534678877
 20
7.315889597456846
 10
-9.531306214193056
 20
7.31630203466773
 10
-9.530479456496351
 20
7.316716355153549
 10
-9.530479456496351
 20
7.317128792364436
 10
-9.530479456496351
 20
7.317543112850253
  0
LWPOLYLINE
  5
38DE
330
47BF
100
AcDbEntity
  8
IMAGE
100
AcDbPolyline
 90
      126
 70
     0
 43
0.0
 10
-9.532132971889764
 20
7.397333705319542
 10
-9.529238378313825
 20
7.392373159139308
 10
-9.525931347527004
 20
7.388239370655782
 10
-9.521797559043477
 20
7.384103698897318
 10
-9.517663770559948
 20
7.379969910413792
 10
-9.513528098801486
 20
7.376248559141149
 10
-9.509394310317958
 20
7.372529091143444
 10
-9.504846201348611
 20
7.368807739870799
 10
-9.500712412865084
 20
7.365086388598159
 10
-9.496578624381557
 20
7.361366920600453
 10
-9.49244483589803
 20
7.357231248841988
 10
-9.488723484625387
 20
7.35309746035846
 10
-9.485416453838563
 20
7.348963671874932
 10
-9.482521860262627
 20
7.344003125694702
 10
-9.480041587172511
 20
7.339040696239532
 10
-9.476734556385689
 20
7.32787852569654
 10
-9.47797375129328
 20
7.325812573092246
 10
-9.478800508989985
 20
7.323744737213015
 10
-9.479627266686691
 20
7.322091221819602
 10
-9.480455907658331
 20
7.320435823151257
 10
-9.481695102565922
 20
7.318782307757846
 10
-9.482521860262627
 20
7.317128792364436
 10
-9.483762938445153
 20
7.315889597456846
 10
-9.48458969614186
 20
7.314236082063434
 10
-9.48582889104945
 20
7.312995003880907
 10
-9.487069969231976
 20
7.311341488487498
 10
-9.488311047414502
 20
7.310100410304972
 10
-9.489137805111207
 20
7.308448778186495
 10
-9.490377000018797
 20
7.306793379518148
 10
-9.491616194926388
 20
7.305139864124738
 10
-9.493684030805621
 20
7.301832833337915
 10
-9.494098351291439
 20
7.301418512852095
 10
-9.494510788502326
 20
7.301006075641211
 10
-9.494925108988146
 20
7.300593638430324
 10
-9.495337546199031
 20
7.300179317944505
 10
-9.495751866684852
 20
7.299766880733622
 10
-9.504846201348611
 20
7.279920929462819
 10
-9.504433764137727
 20
7.278681734555228
 10
-9.504021326926842
 20
7.277440656372701
 10
-9.503192685955202
 20
7.276201461465111
 10
-9.502365928258495
 20
7.275374703768403
 10
-9.501539170561789
 20
7.274546062796766
 10
-9.500712412865084
 20
7.273306867889173
 10
-9.499885655168379
 20
7.272892547403352
 10
-9.498644576985853
 20
7.272065789706648
 10
-9.497817819289146
 20
7.271239032009941
 10
-9.496578624381557
 20
7.270826594799057
 10
-9.495337546199031
 20
7.269999837102353
 10
-9.494098351291439
 20
7.26958551661653
 10
-9.492857273108914
 20
7.269173079405647
 10
-9.491616194926388
 20
7.269173079405647
 10
-9.488723484625387
 20
7.268758758919826
 10
-9.488311047414502
 20
7.268344438434004
 10
-9.487896726928681
 20
7.268344438434004
 10
-9.487069969231976
 20
7.268344438434004
 10
-9.486655648746156
 20
7.268344438434004
 10
-9.486243211535271
 20
7.268344438434004
 10
-9.485416453838563
 20
7.268344438434004
 10
-9.485002133352743
 20
7.267932001223121
 10
-9.48458969614186
 20
7.267932001223121
 10
-9.48417537565604
 20
7.267932001223121
 10
-9.483762938445153
 20
7.267519564012234
 10
-9.483348617959332
 20
7.267519564012234
 10
-9.482936180748447
 20
7.267519564012234
 10
-9.482521860262627
 20
7.267105243526413
 10
-9.482109423051742
 20
7.267105243526413
 10
-9.481282665355038
 20
7.266692806315528
 10
-9.479627266686691
 20
7.265451728133005
 10
-9.47797375129328
 20
7.264212533225412
 10
-9.476734556385689
 20
7.262557134557066
 10
-9.475907798688982
 20
7.260903619163654
 10
-9.475081040992277
 20
7.259250103770245
 10
-9.474254283295572
 20
7.257182267891012
 10
-9.473839962809751
 20
7.255116315286716
 10
-9.473013205113046
 20
7.253048479407485
 10
-9.472600767902163
 20
7.250982526803189
 10
-9.471774010205457
 20
7.248914690923959
 10
-9.471359689719637
 20
7.247261175530544
 10
-9.47011861153711
 20
7.245193339651319
 10
-9.469293737115339
 20
7.243539824257906
 10
-9.468052658932814
 20
7.241886308864494
 10
-9.463916987174352
 20
7.239820356260199
 10
-9.464331307660174
 20
7.239406035774377
 10
-9.464745628145994
 20
7.238993598563494
 10
-9.465158065356877
 20
7.238579278077672
 10
-9.465572385842698
 20
7.238579278077672
 10
-9.466399143539403
 20
7.238579278077672
 10
-9.466811580750288
 20
7.238579278077672
 10
-9.467225901236108
 20
7.238579278077672
 10
-9.468052658932814
 20
7.238579278077672
 10
-9.468465096143699
 20
7.238579278077672
 10
-9.469293737115339
 20
7.238579278077672
 10
-9.469706174326224
 20
7.238579278077672
 10
-9.470532932022932
 20
7.238579278077672
 10
-9.470945369233817
 20
7.238579278077672
 10
-9.471774010205457
 20
7.238579278077672
 10
-9.472600767902163
 20
7.238993598563494
 10
-9.473427525598868
 20
7.238579278077672
 10
-9.473839962809751
 20
7.238579278077672
 10
-9.474254283295572
 20
7.238164957591853
 10
-9.474666720506458
 20
7.237752520380966
 10
-9.474666720506458
 20
7.237338199895146
 10
-9.475081040992277
 20
7.236925762684261
 10
-9.475081040992277
 20
7.236513325473374
 10
-9.475081040992277
 20
7.236099004987556
 10
-9.475081040992277
 20
7.235272247290851
 10
-9.475081040992277
 20
7.234857926805031
 10
-9.475081040992277
 20
7.234445489594145
 10
-9.475081040992277
 20
7.234031169108324
 10
-9.475081040992277
 20
7.23320441141162
 10
-9.477561314082395
 20
7.235272247290851
 10
-9.479627266686691
 20
7.237338199895146
 10
-9.481695102565922
 20
7.239406035774377
 10
-9.483762938445153
 20
7.241473871653608
 10
-9.486243211535271
 20
7.243127387047021
 10
-9.488311047414502
 20
7.245193339651319
 10
-9.490791320504616
 20
7.246846855044728
 10
-9.493271593594734
 20
7.248087933227253
 10
-9.495751866684852
 20
7.249327128134845
 10
-9.498232139774966
 20
7.250568206317371
 10
-9.501126733350904
 20
7.251809284499896
 10
-9.504021326926842
 20
7.252636042196599
 10
-9.506914037227844
 20
7.253048479407485
 10
-9.50980863080378
 20
7.253462799893307
 10
-9.516422692377423
 20
7.253875237104191
 10
-9.517249450074128
 20
7.253462799893307
  0
LWPOLYLINE
  5
38DF
330
47BF
100
AcDbEntity
  8
IMAGE
100
AcDbPolyline
 90
       91
 70
     0
 43
0.0
 10
-9.517249450074128
 20
7.253462799893307
 10
-9.517663770559948
 20
7.253048479407485
 10
-9.518490528256656
 20
7.253048479407485
 10
-9.518902965467541
 20
7.253048479407485
 10
-9.519317285953359
 20
7.252636042196599
 10
-9.520144043650066
 20
7.252636042196599
 10
-9.52055648086095
 20
7.252636042196599
 10
-9.520970801346772
 20
7.252636042196599
 10
-9.521383238557655
 20
7.252636042196599
 10
-9.521797559043477
 20
7.25222172171078
 10
-9.52220999625436
 20
7.25222172171078
 10
-9.523036753951068
 20
7.25222172171078
 10
-9.523451074436886
 20
7.251809284499896
 10
-9.523865394922708
 20
7.251394964014075
 10
-9.524277832133591
 20
7.250982526803189
 10
-9.527999183406237
 20
7.248502253713072
 10
-9.530891893707238
 20
7.246020097348019
 10
-9.533786487283174
 20
7.242714949836134
 10
-9.536266760373289
 20
7.239406035774377
 10
-9.538747033463407
 20
7.235684684501735
 10
-9.54122918982846
 20
7.231965216504027
 10
-9.543709462918576
 20
7.228243865231387
 10
-9.546189736008692
 20
7.224522513958743
 10
-9.549082446309693
 20
7.221215483171922
 10
-9.551977039885631
 20
7.217908452385099
 10
-9.554871633461566
 20
7.215428179294983
 10
-9.558178664248389
 20
7.212946022929931
 10
-9.561900015521029
 20
7.211294390811454
 10
-9.566033804004559
 20
7.210465749839814
 10
-9.575128138668318
 20
7.210880070325636
 10
-9.580917325820193
 20
7.213360343415754
 10
-9.585877872000425
 20
7.215840616505868
 10
-9.590838418180659
 20
7.218735210081804
 10
-9.595798964360891
 20
7.221627920382806
 10
-9.60076139381606
 20
7.224522513958743
 10
-9.605307619510472
 20
7.227829544745565
 10
-9.609855728479818
 20
7.230724138321503
 10
-9.614403837449168
 20
7.23361873189744
 10
-9.618951946418516
 20
7.236925762684261
 10
-9.623500055387864
 20
7.239820356260199
 10
-9.628046281082276
 20
7.243127387047021
 10
-9.632594390051622
 20
7.246020097348019
 10
-9.637142499020971
 20
7.248914690923959
 10
-9.641690607990319
 20
7.25222172171078
 10
-9.65078494265408
 20
7.258010908862653
 10
-9.64913142726067
 20
7.25842334607354
 10
-9.647063591381437
 20
7.259250103770245
 10
-9.644583318291321
 20
7.259250103770245
 10
-9.642517365687027
 20
7.259250103770245
 10
-9.640449529807792
 20
7.258837666559362
 10
-9.638383577203498
 20
7.25842334607354
 10
-9.635901420838445
 20
7.258010908862653
 10
-9.633835468234149
 20
7.257596588376834
 10
-9.631767632354918
 20
7.256769830680128
 10
-9.629287359264802
 20
7.255943072983424
 10
-9.627219523385571
 20
7.255116315286716
 10
-9.625153570781273
 20
7.25428955759001
 10
-9.623085734902042
 20
7.253462799893307
 10
-9.620605461811926
 20
7.253048479407485
 10
-9.616471673328399
 20
7.25222172171078
 10
-9.62391249259875
 20
7.26214469734618
 10
-9.622673297691159
 20
7.262557134557066
 10
-9.621432219508633
 20
7.262971455042888
 10
-9.619778704115221
 20
7.262971455042888
 10
-9.618125188721808
 20
7.262971455042888
 10
-9.616471673328399
 20
7.262557134557066
 10
-9.615230595145874
 20
7.26214469734618
 10
-9.613577079752463
 20
7.261317939649476
 10
-9.611923564359052
 20
7.260903619163654
 10
-9.61027004896564
 20
7.26007686146695
 10
-9.608616533572231
 20
7.259250103770245
 10
-9.60696301817882
 20
7.25842334607354
 10
-9.605307619510472
 20
7.257596588376834
 10
-9.604068424602882
 20
7.257182267891012
 10
-9.602414909209469
 20
7.256769830680128
 10
-9.599107878422648
 20
7.256357393469242
 10
-9.599520315633535
 20
7.257182267891012
 10
-9.599520315633535
 20
7.258010908862653
 10
-9.599934636119353
 20
7.258837666559362
 10
-9.600347073330238
 20
7.259250103770245
 10
-9.60076139381606
 20
7.26007686146695
 10
-9.601173831026944
 20
7.260903619163654
 10
-9.601588151512766
 20
7.261317939649476
 10
-9.602414909209469
 20
7.26214469734618
 10
-9.602827346420355
 20
7.262557134557066
 10
-9.603241666906175
 20
7.263383892253772
 10
-9.604068424602882
 20
7.264212533225412
 10
-9.604482745088702
 20
7.265037407647183
 10
-9.604895182299586
 20
7.265864165343888
 10
-9.605307619510472
 20
7.266692806315528
 10
-9.605307619510472
 20
7.268344438434004
  0
LWPOLYLINE
  5
38E0
330
47BF
100
AcDbEntity
  8
IMAGE
100
AcDbPolyline
 90
       17
 70
     1
 43
0.0
 10
-9.86990021485519
 20
7.274133625585879
 10
-9.874446440549606
 20
7.251394964014075
 10
-9.87527319824631
 20
7.250568206317371
 10
-9.876099955943015
 20
7.250155769106485
 10
-9.876514276428837
 20
7.250155769106485
 10
-9.87734103412554
 20
7.249741448620664
 10
-9.878167791822246
 20
7.249741448620664
 10
-9.878994549518951
 20
7.249741448620664
 10
-9.879821307215658
 20
7.249741448620664
 10
-9.880648064912362
 20
7.249741448620664
 10
-9.881474822609067
 20
7.249741448620664
 10
-9.882301580305774
 20
7.249741448620664
 10
-9.88312833800248
 20
7.249741448620664
 10
-9.884369416185005
 20
7.249741448620664
 10
-9.885196173881711
 20
7.249741448620664
 10
-9.886022931578416
 20
7.249741448620664
 10
-9.887676446971827
 20
7.249741448620664
  0
LWPOLYLINE
  5
38E1
330
47BF
100
AcDbEntity
  8
IMAGE
100
AcDbPolyline
 90
       32
 70
     1
 43
0.0
 10
-9.396117206219695
 20
7.262971455042888
 10
-9.37751233313142
 20
7.262557134557066
 10
-9.376685575434715
 20
7.261317939649476
 10
-9.375858817738007
 20
7.260491181952771
 10
-9.375446380527124
 20
7.259664424256065
 10
-9.374619622830419
 20
7.25842334607354
 10
-9.374205302344599
 20
7.257596588376834
 10
-9.374205302344599
 20
7.256357393469242
 10
-9.373790981858777
 20
7.255116315286716
 10
-9.373790981858777
 20
7.25428955759001
 10
-9.373790981858777
 20
7.253048479407485
 10
-9.374205302344599
 20
7.251809284499896
 10
-9.374205302344599
 20
7.250568206317371
 10
-9.374619622830419
 20
7.249327128134845
 10
-9.375032060041302
 20
7.248087933227253
 10
-9.375446380527124
 20
7.246846855044728
 10
-9.376685575434715
 20
7.244780902440433
 10
-9.378339090828124
 20
7.242300629350315
 10
-9.379992606221536
 20
7.240645230681968
 10
-9.381646121614947
 20
7.238993598563494
 10
-9.383301520283293
 20
7.237338199895146
 10
-9.38536747288759
 20
7.236513325473374
 10
-9.387435308766821
 20
7.235272247290851
 10
-9.389915581856937
 20
7.234445489594145
 10
-9.391983417736168
 20
7.234031169108324
 10
-9.394463690826285
 20
7.23320441141162
 10
-9.396943963916402
 20
7.232791974200734
 10
-9.399011799795633
 20
7.232791974200734
 10
-9.401492072885748
 20
7.232791974200734
 10
-9.403972345975866
 20
7.232377653714912
 10
-9.40645261906598
 20
7.232791974200734
 10
-9.411000728035331
 20
7.23320441141162
  0
CIRCLE
  5
38E2
330
47BF
100
AcDbEntity
  8
IMAGE
100
AcDbCircle
 10
-9.036463726091124
 20
7.210582416747705
 30
0.0
 40
0.0199367797822392
  0
TEXT
  5
38E3
330
47BF
100
AcDbEntity
  8
IMAGE
100
AcDbText
 10
-9.046639128592302
 20
7.200199050268066
 30
0.0
 40
0.0218262721224269
  1
R
  7
ROMANS
100
AcDbText
  0
LWPOLYLINE
  5
38E4
330
47BF
100
AcDbEntity
  8
IMAGE
100
AcDbPolyline
 90
       35
 70
     1
 43
0.0
 10
-9.364696647195017
 20
7.318782307757846
 10
-9.348986367682677
 20
7.317957433336074
 10
-9.348573930471793
 20
7.31630203466773
 10
-9.348159609985971
 20
7.315062839760138
 10
-9.347747172775088
 20
7.313821761577611
 10
-9.347747172775088
 20
7.3121682461842
 10
-9.347747172775088
 20
7.310929051276611
 10
-9.348159609985971
 20
7.309687973094086
 10
-9.348573930471793
 20
7.308448778186495
 10
-9.348986367682677
 20
7.306793379518148
 10
-9.349398804893562
 20
7.305554184610557
 10
-9.350227445865204
 20
7.304313106428031
 10
-9.351054203561908
 20
7.303073911520439
 10
-9.351466640772795
 20
7.301832833337915
 10
-9.3522933984695
 20
7.300593638430324
 10
-9.353120156166205
 20
7.2993525602478
 10
-9.353946913862911
 20
7.297284724368568
 10
-9.355602312531257
 20
7.29604364618604
 10
-9.356841507438847
 20
7.29521877176427
 10
-9.358495022832258
 20
7.294392014067566
 10
-9.360148538225669
 20
7.293563373095924
 10
-9.361802053619079
 20
7.292736615399218
 10
-9.36345556901249
 20
7.292324178188334
 10
-9.365523404891721
 20
7.29191174097745
 10
-9.367176920285134
 20
7.29149742049163
 10
-9.369244756164365
 20
7.291083100005808
 10
-9.371312592043596
 20
7.290670662794924
 10
-9.372964224162071
 20
7.290670662794924
 10
-9.375032060041302
 20
7.290670662794924
 10
-9.377099895920533
 20
7.29025822558404
 10
-9.378753411313946
 20
7.29025822558404
 10
-9.382474762586587
 20
7.290670662794924
 10
-9.365523404891721
 20
7.318782307757846
 10
-9.365110967680838
 20
7.318782307757846
 10
-9.364696647195017
 20
7.318782307757846
  0
LWPOLYLINE
  5
38E5
330
47BF
100
AcDbEntity
  8
IMAGE
100
AcDbPolyline
 90
       58
 70
     1
 43
0.0
 10
-9.983177318953455
 20
7.320435823151257
 10
-9.981936240770929
 20
7.320435823151257
 10
-9.980697045863339
 20
7.320435823151257
 10
-9.979455967680811
 20
7.320435823151257
 10
-9.978216772773224
 20
7.320435823151257
 10
-9.97656325737981
 20
7.320435823151257
 10
-9.975322179197283
 20
7.320023385940371
 10
-9.974081101014759
 20
7.320023385940371
 10
-9.972427585621348
 20
7.320023385940371
 10
-9.971188390713757
 20
7.319610948729488
 10
-9.969947312531232
 20
7.319196628243664
 10
-9.96870811762364
 20
7.318782307757846
 10
-9.967467039441114
 20
7.318369870546961
 10
-9.966225961258588
 20
7.317543112850253
 10
-9.965399203561883
 20
7.316716355153549
 10
-9.963333250957587
 20
7.315062839760138
 10
-9.963745688168474
 20
7.302659591034623
 10
-9.965399203561883
 20
7.300593638430324
 10
-9.967054602230231
 20
7.298938239761978
 10
-9.96870811762364
 20
7.297284724368568
 10
-9.970361633017052
 20
7.29563120897516
 10
-9.972015148410463
 20
7.294392014067566
 10
-9.974081101014759
 20
7.293150935885042
 10
-9.976148936893993
 20
7.29191174097745
 10
-9.978629209984108
 20
7.291083100005808
 10
-9.980697045863339
 20
7.29025822558404
 10
-9.983177318953455
 20
7.289843905098219
 10
-9.985657592043571
 20
7.289017147401513
 10
-9.988137865133689
 20
7.288602826915693
 10
-9.990620021498738
 20
7.288602826915693
 10
-9.993100294588858
 20
7.288602826915693
 10
-9.998060840769088
 20
7.289017147401513
 10
-9.998887598465795
 20
7.29025822558404
 10
-9.998887598465795
 20
7.29191174097745
 10
-9.998887598465795
 20
7.293150935885042
 10
-9.998473277979973
 20
7.294804451278452
 10
-9.998060840769088
 20
7.296872287157684
 10
-9.997234083072383
 20
7.298525802551093
 10
-9.996407325375679
 20
7.300179317944505
 10
-9.995166247193152
 20
7.302247153823733
 10
-9.994339489496447
 20
7.303900669217147
 10
-9.993100294588858
 20
7.305554184610557
 10
-9.991859216406329
 20
7.307620137214852
 10
-9.991032458709627
 20
7.309273652608265
 10
-9.989791380527098
 20
7.311341488487498
 10
-9.988964622830392
 20
7.312995003880907
 10
-9.986898670226098
 20
7.316716355153549
 10
-9.986484349740276
 20
7.317128792364436
 10
-9.986484349740276
 20
7.317543112850253
 10
-9.986071912529393
 20
7.317957433336074
 10
-9.986071912529393
 20
7.318369870546961
 10
-9.985657592043571
 20
7.318782307757846
 10
-9.985657592043571
 20
7.319196628243664
 10
-9.985245154832686
 20
7.319610948729488
 10
-9.985245154832686
 20
7.320023385940371
 10
-9.984830834346865
 20
7.320023385940371
 10
-9.984416513861045
 20
7.320023385940371
 10
-9.983177318953455
 20
7.320435823151257
  0
LWPOLYLINE
  5
38E6
330
47BF
100
AcDbEntity
  8
IMAGE
100
AcDbPolyline
 90
        3
 70
     0
 43
0.0
 10
-10.0104640894946
 20
7.350617187268346
 10
-10.01004976900878
 20
7.350617187268346
 10
-10.01004976900878
 20
7.350617187268346
  0
LWPOLYLINE
  5
38E7
330
47BF
100
AcDbEntity
  8
IMAGE
100
AcDbPolyline
 90
       39
 70
     0
 43
0.0
 10
-9.527263386721255
 20
7.331094595471641
 10
-9.527172425709531
 20
7.331185556483365
 10
-9.525518910316119
 20
7.332839071876774
 10
-9.532959729586469
 20
7.352685023147577
 10
-9.532547292375582
 20
7.352685023147577
 10
-9.532132971889764
 20
7.352685023147577
 10
-9.531720534678877
 20
7.35309746035846
 10
-9.531306214193056
 20
7.352685023147577
 10
-9.530891893707238
 20
7.352685023147577
 10
-9.530479456496351
 20
7.352685023147577
 10
-9.530065136010531
 20
7.352270702661758
 10
-9.529652698799646
 20
7.352270702661758
 10
-9.529238378313825
 20
7.351856382175935
 10
-9.52882594110294
 20
7.351856382175935
 10
-9.52841162061712
 20
7.351443944965052
 10
-9.527999183406237
 20
7.351443944965052
 10
-9.527584862920416
 20
7.351029624479229
 10
-9.527172425709531
 20
7.351029624479229
 10
-9.525931347527004
 20
7.351443944965052
 10
-9.532547292375582
 20
7.370461255264211
 10
-9.532132971889764
 20
7.370461255264211
 10
-9.531306214193056
 20
7.370461255264211
 10
-9.530891893707238
 20
7.370046934778391
 10
-9.530479456496351
 20
7.370046934778391
 10
-9.529652698799646
 20
7.369634497567506
 10
-9.529238378313825
 20
7.369222060356621
 10
-9.52882594110294
 20
7.368807739870799
 10
-9.527999183406237
 20
7.368807739870799
 10
-9.527584862920416
 20
7.36839341938498
 10
-9.527172425709531
 20
7.367980982174096
 10
-9.526343784737889
 20
7.367566661688275
 10
-9.525931347527004
 20
7.367566661688275
 10
-9.525518910316119
 20
7.367566661688275
 10
-9.524692152619412
 20
7.367566661688275
 10
-9.523036753951068
 20
7.36839341938498
 10
-9.532959729586469
 20
7.397333705319542
 10
-9.532547292375582
 20
7.397333705319542
 10
-9.532132971889764
 20
7.397333705319542
 10
-9.532132971889764
 20
7.397333705319542
  0
LWPOLYLINE
  5
38E8
330
47BF
100
AcDbEntity
  8
IMAGE
100
AcDbPolyline
 90
       10
 70
     0
 43
0.0
 10
-9.530479456496351
 20
7.317543112850253
 10
-9.530065136010531
 20
7.317543112850253
 10
-9.530065136010531
 20
7.317957433336074
 10
-9.529652698799646
 20
7.318782307757846
 10
-9.537093518069998
 20
7.335319344966891
 10
-9.536681080859111
 20
7.335733665452711
 10
-9.536681080859111
 20
7.336147985938531
 10
-9.536266760373289
 20
7.336147985938531
 10
-9.535854323162407
 20
7.336560423149418
 10
-9.527263386721255
 20
7.331094595471641
  0
LINE
  5
38E9
330
47BF
100
AcDbEntity
  8
IMAGE
100
AcDbLine
 10
-10.71356595749763
 20
3.332293086457239
 30
0.0
 11
-10.71356595749763
 21
8.165872488272951
 31
0.0
  0
LINE
  5
38EA
330
47BF
100
AcDbEntity
  8
IMAGE
100
AcDbLine
 10
-10.71325611019364
 20
8.165872488272951
 30
0.0
 11
-10.75124630224135
 21
8.165872488272951
 31
0.0
  0
LINE
  5
38EB
330
47BF
100
AcDbEntity
  8
IMAGE
100
AcDbLine
 10
-10.75124630224135
 20
8.165872488272951
 30
0.0
 11
-10.75124630224135
 21
8.325369767556605
 31
0.0
  0
LINE
  5
38EC
330
47BF
100
AcDbEntity
  8
IMAGE
100
AcDbLine
 10
-8.722569835453514
 20
8.325369767556605
 30
0.0
 11
-8.722569835453514
 21
8.165872488272951
 31
0.0
  0
LINE
  5
38ED
330
47BF
100
AcDbEntity
  8
IMAGE
100
AcDbLine
 10
-8.722569835453514
 20
8.165872488272951
 30
0.0
 11
-8.775756110193647
 21
8.165872488272951
 31
0.0
  0
LINE
  5
38EE
330
47BF
100
AcDbEntity
  8
IMAGE
100
AcDbLine
 10
-8.776065957497632
 20
8.165872488272952
 30
0.0
 11
-8.776065957497632
 21
3.332293086457239
 31
0.0
  0
LINE
  5
38EF
330
47BF
100
AcDbEntity
  8
IMAGE
100
AcDbLine
 10
-11.74481595749763
 20
3.165626419790573
 30
0.0
 11
-7.744815957497632
 21
3.165626419790573
 31
0.0
  0
LINE
  5
38F0
330
47BF
100
AcDbEntity
  8
IMAGE
100
AcDbLine
 10
-11.57814929083096
 20
3.332293086457239
 30
0.0
 11
-7.911482624164299
 21
3.332293086457239
 31
0.0
  0
LINE
  5
38F1
330
47BF
100
AcDbEntity
  8
IMAGE
100
AcDbLine
 10
-7.911482624164299
 20
3.332293086457239
 30
0.0
 11
-7.744815957497632
 21
3.165626419790573
 31
0.0
  0
LINE
  5
38F2
330
47BF
100
AcDbEntity
  8
IMAGE
100
AcDbLine
 10
-11.57814929083096
 20
3.332293086457239
 30
0.0
 11
-11.74481595749763
 21
3.165626419790573
 31
0.0
  0
LINE
  5
38F3
330
47BF
100
AcDbEntity
  8
IMAGE
100
AcDbLine
 10
-11.74481595749763
 20
2.332293086457241
 30
0.0
 11
-7.744815957497632
 21
2.332293086457239
 31
0.0
  0
LINE
  5
38F4
330
47BF
100
AcDbEntity
  8
IMAGE
100
AcDbLine
 10
-11.74481595749763
 20
3.165626419790573
 30
0.0
 11
-11.74481595749763
 21
2.332293086457241
 31
0.0
  0
LINE
  5
38F5
330
47BF
100
AcDbEntity
  8
IMAGE
100
AcDbLine
 10
-7.744815957497632
 20
3.165626419790573
 30
0.0
 11
-7.744815957497632
 21
2.332293086457239
 31
0.0
  0
INSERT
  5
38F6
330
47BF
100
AcDbEntity
  8
IMAGE
  6
Continuous
100
AcDbBlockReference
  2
*X0
 10
0.0
 20
0.0
 30
0.0
1001
ACAD
1000
HATCH
1002
{
1070
    19
1000
AR-CONC
1040
0.0833333333333333
1040
0.0
1000
R14_HATCH_DATA
1000
38F6
1011
1.0
1021
0.0
1031
0.0
1011
0.0
1021
1.0
1031
0.0
1011
0.0
1021
0.0
1031
1.0
1040
0.0
1010
0.0
1020
0.0
1030
1.0
1000
AR-CONC
1070
     0
1070
     1
1071
        2
1071
        7
1070
     0
1070
     1
1071
        4
1040
-7.744815957497632
1040
3.165626419790573
1040
-7.911482624164299
1040
3.332293086457239
1040
-11.57814929083096
1040
3.332293086457239
1040
-11.74481595749763
1040
3.165626419790573
1071
        4
1005
38F0
1005
38F2
1005
38EF
1005
38F1
1071
        7
1070
     0
1070
     1
1071
        4
1040
-11.74481595749763
1040
3.165626419790573
1040
-11.74481595749763
1040
2.332293086457241
1040
-7.744815957497632
1040
2.332293086457239
1040
-7.744815957497632
1040
3.165626419790573
1071
        4
1005
38EF
1005
38F4
1005
38F3
1005
38F5
1070
     0
1070
     1
1040
0.0
1040
0.0833333333333333
1070
     0
1070
    13
1040
0.8726646259971646
1040
-12.78865642688697
1040
1.251383169835514
1040
0.5977168188339613
1040
-0.0522934458188293
1070
     2
1040
0.0625
1040
-0.6875
1040
6.195918844579869
1040
-12.78865642688697
1040
1.251383169835514
1040
-0.1156261113441667
1040
0.6268267780833432
1070
     2
1040
0.05
1040
-0.55
1040
1.753207668237831
1040
-12.73884669355364
1040
1.247025386502181
1040
0.4820911514283514
1040
0.5745329517174614
1070
     2
1040
0.053116825
1040
-0.584285093333333
1040
0.8060663523995652
1040
-12.78865642688697
1040
1.418049836502181
1040
0.8893675405213702
1040
-0.1379325119408484
1070
     2
1040
0.09375
1040
-1.03125
1040
1.686609394640232
1040
-12.7145424727203
1040
1.40655541400218
1040
0.7788855879572527
1040
0.8117648924170348
1070
     2
1040
0.07967524
1040
-0.8764274999999994
1040
6.12932057098227
1040
-12.78865642688697
1040
1.418049836502181
1040
0.7788849542780226
1040
0.8117655007711038
1070
     2
1040
0.075
1040
-0.825
1040
0.3665191429188092
1040
-12.70532309355364
1040
1.376383169835514
1040
0.4974225434320515
1040
-0.3355157422211157
1070
     2
1040
0.0625
1040
-0.6875
1040
5.689773361501514
1040
-12.70532309355364
1040
1.376383169835514
1040
0.2027627766013181
1040
0.6042917042057108
1070
     2
1040
0.05
1040
-0.55
1040
1.247062185159476
1040
-12.6638712327203
1040
1.348423498168847
1040
0.7001855238179083
1040
0.2687754139249603
1070
     2
1040
0.053116825
1040
-0.5842850933333333
1040
0.6544984694978737
1040
-12.78865642688697
1040
1.251383169835514
1040
0.0101332127644089
1040
0.2774115448594262
1070
     6
1040
0.0
1040
-0.5433333333333332
1040
0.0
1040
-0.5583333333333334
1040
0.0
1040
-0.5520833333333333
1040
0.1308996938995747
1040
-12.78865642688697
1040
1.251383169835514
1040
0.2192246145351238
1040
0.3286764265686335
1070
     6
1040
0.0
1040
-0.3183333333333333
1040
0.0
1040
-0.5308333333333333
1040
0.0
1040
-0.2104166666666666
1040
5.715953300281428
1040
-12.9744897602203
1040
1.251383169835514
1040
0.4448520301436743
1040
-0.0187957264453165
1070
     6
1040
0.0
1040
-0.2083333333333333
1040
0.0
1040
-0.65
1040
0.0
1040
-0.8625
1040
5.541420375081996
1040
-13.05782309355364
1040
1.251383169835514
1040
0.4859884744519885
1040
0.0834208186102647
1070
     6
1040
0.0
1040
-0.2708333333333333
1040
0.0
1040
-0.4316666666666667
1040
0.0
1040
-0.6125
1040
0.0174443534013208
1071
        2
1040
-9.986213634757879
1040
3.23778204753328
1040
0.0
1040
-9.99784724318218
1040
2.792951037985047
1040
0.0
1002
}
  0
LINE
  5
38F7
330
47BF
100
AcDbEntity
  8
IMAGE
100
AcDbLine
 10
-8.776065957497632
 20
8.165872488272952
 30
0.0
 11
-8.776065957497632
 21
3.332293086457239
 31
0.0
  0
LINE
  5
38F8
330
47BF
100
AcDbEntity
  8
IMAGE
100
AcDbLine
 10
-10.58856595749763
 20
7.103372488272949
 30
0.0
 11
-8.901065957497632
 21
7.103372488272951
 31
0.0
  0
LINE
  5
38F9
330
47BF
100
AcDbEntity
  8
IMAGE
100
AcDbLine
 10
-10.58856595749763
 20
7.103372488272949
 30
0.0
 11
-10.71356595749763
 21
7.103372488272949
 31
0.0
  0
LINE
  5
38FA
330
47BF
100
AcDbEntity
  8
IMAGE
100
AcDbLine
 10
-8.901065957497632
 20
7.103372488272951
 30
0.0
 11
-8.776065957497632
 21
7.103372488272951
 31
0.0
  0
LINE
  5
38FB
330
47BF
100
AcDbEntity
  8
IMAGE
100
AcDbLine
 10
-10.75124630224135
 20
8.325369767556605
 30
0.0
 11
-8.722569835453514
 21
8.325369767556605
 31
0.0
  0
LWPOLYLINE
  5
38FC
330
47BF
100
AcDbEntity
  8
IMAGE
100
AcDbPolyline
 90
        2
 70
     0
 43
0.0
 10
-8.776065957497632
 20
8.075729973231535
 10
-8.776065957497632
 20
7.959442013247331
  0
LWPOLYLINE
  5
38FD
330
47BF
100
AcDbEntity
  8
IMAGE
100
AcDbPolyline
 90
        9
 70
     0
 43
0.0
 10
-8.864296066116095
 20
8.014255695907014
 10
-8.866684341902715
 20
8.075507129402353
 10
-8.862483064563821
 20
8.085897996664249
 10
-8.858033607924941
 20
8.075268032004935
 10
-8.855657191621506
 20
8.014255695907014
 10
-8.853641628994644
 20
7.962262163112669
 10
-8.857112661145038
 20
7.951618228288186
 10
-8.862264850488168
 20
7.96192593210679
 10
-8.864305258372061
 20
8.014255695907014
  0
LWPOLYLINE
  5
38FE
330
47BF
100
AcDbEntity
  8
IMAGE
100
AcDbPolyline
 90
        9
 70
     0
 43
0.0
 10
-8.843954530302221
 20
8.014255695907014
 10
-8.841931964647885
 20
7.96232815471647
 10
-8.845402996798277
 20
7.951684219891985
 10
-8.850555186141409
 20
7.961991923710591
 10
-8.852583828667933
 20
8.014255695907014
 10
-8.854974677555956
 20
8.075573121006154
 10
-8.850773400217061
 20
8.085963988268048
 10
-8.84632394357818
 20
8.075334023608734
 10
-8.843944956917125
 20
8.014255695907014
  0
LWPOLYLINE
  5
38FF
330
47BF
100
AcDbEntity
  8
IMAGE
100
AcDbPolyline
 90
        8
 70
     1
 43
0.0
 10
-8.82053006089346
 20
8.014255695907014
 10
-8.81851263595437
 20
7.96246013792407
 10
-8.821983668104762
 20
7.951816203099586
 10
-8.827135857447892
 20
7.96212390691819
 10
-8.829168546027576
 20
8.014255695907014
 10
-8.831555348862439
 20
8.075705104213755
 10
-8.827354071523545
 20
8.08609597147565
 10
-8.822904614884665
 20
8.075466006816334
  0
LWPOLYLINE
  5
3903
330
47BF
100
AcDbEntity
  8
IMAGE
100
AcDbPolyline
 90
        4
 70
     0
 43
0.0
 10
-8.815644407176787
 20
8.086161963079449
 10
-8.812768578094528
 20
8.014255695907014
 10
-8.812768578094528
 20
8.014255695907014
 10
-8.810683240240944
 20
7.962114606657423
  0
LWPOLYLINE
  5
3904
330
47BF
100
AcDbEntity
  8
IMAGE
100
AcDbPolyline
 90
        4
 70
     0
 43
0.0
 10
-8.827354071523545
 20
8.08609597147565
 10
-8.824480881718514
 20
8.014255695907014
 10
-8.824480881718514
 20
8.014255695907014
 10
-8.821983668104762
 20
7.951816203099586
  0
LWPOLYLINE
  5
3905
330
47BF
100
AcDbEntity
  8
IMAGE
100
AcDbPolyline
 90
        4
 70
     0
 43
0.0
 10
-8.839063735870304
 20
8.086029979871849
 10
-8.836193185342498
 20
8.014255695907014
 10
-8.836193185342498
 20
8.014255695907014
 10
-8.83369333245152
 20
7.951750211495786
  0
LWPOLYLINE
  5
3906
330
47BF
100
AcDbEntity
  8
IMAGE
100
AcDbPolyline
 90
        4
 70
     0
 43
0.0
 10
-8.850773400217061
 20
8.085963988268048
 10
-8.847905488966484
 20
8.014255695907014
 10
-8.847905488966484
 20
8.014255695907014
 10
-8.845402996798277
 20
7.951684219891985
  0
LWPOLYLINE
  5
3907
330
47BF
100
AcDbEntity
  8
IMAGE
100
AcDbPolyline
 90
        4
 70
     0
 43
0.0
 10
-8.862483064563821
 20
8.085897996664249
 10
-8.859617792590467
 20
8.014255695907014
 10
-8.859617792590467
 20
8.014255695907014
 10
-8.857112661145038
 20
7.951618228288186
  0
LWPOLYLINE
  5
3908
330
47BF
100
AcDbEntity
  8
IMAGE
100
AcDbPolyline
 90
        6
 70
     0
 43
0.0
 10
-8.873983892213278
 20
7.962100439472866
 10
-8.876017495820223
 20
8.014255695907014
 10
-8.876806697045561
 20
8.034731867669584
 10
-8.872605419706667
 20
8.045122734931482
 10
-8.868155963067787
 20
8.034492770272166
 10
-8.867367733727117
 20
8.014255695907014
  0
LWPOLYLINE
  5
390B
330
47BF
100
AcDbEntity
  8
IMAGE
100
AcDbPolyline
 90
        2
 70
     0
 43
0.0
 10
-8.872605419706667
 20
8.045122734931482
 10
-8.871358145548338
 20
8.014255695907014
  0
LWPOLYLINE
  5
390C
330
47BF
100
AcDbEntity
  8
IMAGE
100
AcDbPolyline
 90
        5
 70
     0
 43
0.0
 10
-8.840871591219771
 20
8.014255695907014
 10
-8.843265013209197
 20
8.075639112609954
 10
-8.839063735870304
 20
8.086029979871849
 10
-8.834614279231423
 20
8.075400015212535
 10
-8.832232722212744
 20
8.014255695907014
  0
LWPOLYLINE
  5
390D
330
47BF
100
AcDbEntity
  8
IMAGE
100
AcDbPolyline
 90
        5
 70
     0
 43
0.0
 10
-8.817447116323448
 20
8.014255695907014
 10
-8.81984568451568
 20
8.075771095817554
 10
-8.815644407176787
 20
8.086161963079449
 10
-8.811194950537906
 20
8.075531998420135
 10
-8.810683240240944
 20
8.062394300038789
  0
LWPOLYLINE
  5
390F
330
47BF
100
AcDbEntity
  8
IMAGE
100
AcDbPolyline
 90
        2
 70
     0
 43
0.0
 10
-8.878351008569381
 20
8.075507129402353
 10
-8.878351008569381
 20
8.014255695907014
  0
LWPOLYLINE
  5
3911
330
47BF
100
AcDbEntity
  8
IMAGE
100
AcDbPolyline
 90
        2
 70
     0
 43
0.0
 10
-8.867377307112214
 20
8.014255695907014
 10
-8.865349594950574
 20
7.962196022803015
  0
LWPOLYLINE
  5
3912
330
47BF
100
AcDbEntity
  8
IMAGE
100
AcDbPolyline
 90
        5
 70
     0
 43
0.0
 10
-8.83224229559784
 20
8.014255695907014
 10
-8.830222300301127
 20
7.962394146320269
 10
-8.83369333245152
 20
7.951750211495786
 10
-8.838845521794652
 20
7.962057915314391
 10
-8.840880783475737
 20
8.014255695907014
  0
LWPOLYLINE
  5
3913
330
47BF
100
AcDbEntity
  8
IMAGE
100
AcDbPolyline
 90
        3
 70
     0
 43
0.0
 10
-8.810683240240944
 20
7.952700931783294
 10
-8.815426193101135
 20
7.962189898521991
 10
-8.817456308579414
 20
8.014255695907014
  0
LWPOLYLINE
  5
3915
330
47BF
100
AcDbEntity
  8
IMAGE
100
AcDbPolyline
 90
        2
 70
     0
 43
0.0
 10
-8.878351008569381
 20
8.014255695907014
 10
-8.878351008569381
 20
7.962165469873006
  0
LWPOLYLINE
  5
3916
330
47BF
100
AcDbEntity
  8
IMAGE
100
AcDbPolyline
 90
        2
 70
     0
 43
0.0
 10
-8.871354352144729
 20
8.014255695907014
 10
-8.868820627100966
 20
7.95155208797853
  0
LWPOLYLINE
  5
3917
330
47BF
100
AcDbEntity
  8
IMAGE
100
AcDbPolyline
 90
        2
 70
     0
 43
0.0
 10
-8.862264850488168
 20
7.96192593210679
 10
-8.865351293341403
 20
7.962196171508868
  0
LWPOLYLINE
  5
3918
330
47BF
100
AcDbEntity
  8
IMAGE
100
AcDbPolyline
 90
        2
 70
     0
 43
0.0
 10
-8.873983892213278
 20
7.962100439472866
 10
-8.878351008569381
 20
7.962165469873006
  0
LWPOLYLINE
  5
3919
330
47BF
100
AcDbEntity
  8
IMAGE
100
AcDbPolyline
 90
        3
 70
     0
 43
0.0
 10
-8.865349594950574
 20
7.962196022803015
 10
-8.868820627100966
 20
7.95155208797853
 10
-8.873983892213278
 20
7.962100439472866
  0
LWPOLYLINE
  5
391A
330
47BF
100
AcDbEntity
  8
IMAGE
100
AcDbPolyline
 90
        2
 70
     0
 43
0.0
 10
-8.838845521794652
 20
7.962057915314391
 10
-8.841931964647885
 20
7.96232815471647
  0
LWPOLYLINE
  5
391B
330
47BF
100
AcDbEntity
  8
IMAGE
100
AcDbPolyline
 90
        2
 70
     0
 43
0.0
 10
-8.850555186141409
 20
7.961991923710591
 10
-8.853641628994644
 20
7.962262163112669
  0
LWPOLYLINE
  5
391C
330
47BF
100
AcDbEntity
  8
IMAGE
100
AcDbPolyline
 90
        2
 70
     0
 43
0.0
 10
-8.815426193101135
 20
7.962189898521991
 10
-8.81851263595437
 20
7.96246013792407
  0
LWPOLYLINE
  5
391D
330
47BF
100
AcDbEntity
  8
IMAGE
100
AcDbPolyline
 90
        2
 70
     0
 43
0.0
 10
-8.827135857447892
 20
7.96212390691819
 10
-8.830222300301127
 20
7.962394146320269
  0
LWPOLYLINE
  5
3921
330
47BF
100
AcDbEntity
  8
IMAGE
100
AcDbPolyline
 90
        2
 70
     0
 43
0.0
 10
-8.843265013209197
 20
8.075639112609954
 10
-8.84632394357818
 20
8.075334023608734
  0
LWPOLYLINE
  5
3922
330
47BF
100
AcDbEntity
  8
IMAGE
100
AcDbPolyline
 90
        2
 70
     0
 43
0.0
 10
-8.854974677555956
 20
8.075573121006154
 10
-8.858033607924941
 20
8.075268032004935
  0
LWPOLYLINE
  5
3923
330
47BF
100
AcDbEntity
  8
IMAGE
100
AcDbPolyline
 90
        2
 70
     0
 43
0.0
 10
-8.81984568451568
 20
8.075771095817554
 10
-8.822904614884665
 20
8.075466006816334
  0
LWPOLYLINE
  5
3924
330
47BF
100
AcDbEntity
  8
IMAGE
100
AcDbPolyline
 90
        2
 70
     0
 43
0.0
 10
-8.831555348862439
 20
8.075705104213755
 10
-8.834614279231423
 20
8.075400015212535
  0
LWPOLYLINE
  5
3926
330
47BF
100
AcDbEntity
  8
IMAGE
100
AcDbPolyline
 90
        2
 70
     0
 43
0.0
 10
-8.810683240240944
 20
8.075583034947477
 10
-8.811194950537906
 20
8.075531998420135
  0
LWPOLYLINE
  5
3928
330
47BF
100
AcDbEntity
  8
IMAGE
100
AcDbPolyline
 90
        2
 70
     0
 43
0.0
 10
-8.866684341902715
 20
8.075507129402353
 10
-8.878351008569381
 20
8.075507129402353
  0
LWPOLYLINE
  5
3929
330
47BF
100
AcDbEntity
  8
IMAGE
100
AcDbPolyline
 90
        4
 70
     1
 43
0.0
 10
-8.776065957497632
 20
8.097619992770685
 10
-8.652185872138698
 20
8.097619992770685
 10
-8.652185872138698
 20
7.940052606504675
 10
-8.776065957497632
 20
7.940052606504675
  0
LWPOLYLINE
  5
392B
330
47BF
100
AcDbEntity
  8
IMAGE
100
AcDbPolyline
 90
        2
 70
     0
 43
0.0
 10
-8.652185872138698
 20
8.03406196156669
 10
-8.651414422696928
 20
8.014255695907014
  0
TEXT
  5
392C
330
47BF
100
AcDbEntity
  8
TEXT_BUBBLES
100
AcDbText
 10
-6.758030289614987
 20
8.261151529219928
 30
0.0
 40
0.1250000018625
  1
 CONTROLLER ENCLOSURE
  7
ROMANS
100
AcDbText
  0
LWPOLYLINE
  5
392F
330
47BF
100
AcDbEntity
  8
IMAGE
100
AcDbPolyline
 90
        4
 70
     1
 43
0.0
 10
-8.810683240240944
 20
8.109169458103277
 10
-8.776065957497632
 20
8.109169458103277
 10
-8.776065957497632
 20
7.928503141172082
 10
-8.810683240240944
 20
7.928503141172082
  0
LWPOLYLINE
  5
3930
330
47BF
100
AcDbEntity
  8
IMAGE
100
AcDbPolyline
 90
        2
 70
     0
 43
0.0
 10
-8.810683240240944
 20
8.048491660454573
 10
-8.776065957497632
 20
8.048491660454573
  0
LWPOLYLINE
  5
3932
330
47BF
100
AcDbEntity
  8
IMAGE
100
AcDbPolyline
 90
        2
 70
     0
 43
0.0
 10
-8.810683240240944
 20
7.934939414214184
 10
-8.776065957497632
 20
7.934939414214184
  0
LWPOLYLINE
  5
3933
330
47BF
100
AcDbEntity
  8
IMAGE
100
AcDbPolyline
 90
        2
 70
     0
 43
0.0
 10
-8.810683240240944
 20
8.10023257226468
 10
-8.776065957497632
 20
8.10023257226468
  0
LWPOLYLINE
  5
3934
330
47BF
100
AcDbEntity
  8
IMAGE
100
AcDbPolyline
 90
        2
 70
     0
 43
0.0
 10
-8.810683240240944
 20
7.989180938820787
 10
-8.776065957497632
 20
7.989180938820787
  0
LWPOLYLINE
  5
3939
330
47BF
100
AcDbEntity
  8
IMAGE
100
AcDbPolyline
 90
        7
 70
     0
 43
0.0
 10
-9.390194239764298
 20
8.165872488272952
 10
-9.311850344644454
 20
8.066135659355978
 10
-9.4032515556176
 20
7.857348489204781
 10
-9.285735712937849
 20
7.831250032285481
 10
-9.06376134343165
 20
7.713807288064984
 10
-9.037646592884982
 20
7.557216893122898
 10
-8.776065957497632
 20
7.426724885785375
  0
LWPOLYLINE
  5
393A
330
47BF
100
AcDbEntity
  8
IMAGE
100
AcDbPolyline
 90
        4
 70
     0
 43
0.0
 10
-8.878351008569381
 20
7.999217957336384
 42
0.3780660693043493
 10
-9.01037041825927
 20
7.872850731815418
 42
-0.1920804783045888
 10
-9.066338152835669
 20
7.760984705364819
 42
0.0190856162751869
 10
-9.097083526757137
 20
7.731437470603037
 42
0.0190856162751869
  0
LWPOLYLINE
  5
393B
330
47BF
100
AcDbEntity
  8
IMAGE
100
AcDbPolyline
 90
        4
 70
     0
 43
0.0
 10
-8.878098667301458
 20
7.993008322431091
 42
0.3780660693043497
 10
-9.004177757881375
 20
7.872327091465013
 42
-0.1920804783045888
 10
-9.062205948810293
 20
7.756342708847673
 42
0.0182749910761189
 10
-9.091364221461063
 20
7.728411486519831
 42
0.0182749910761189
  0
LWPOLYLINE
  5
393C
330
47BF
100
AcDbEntity
  8
IMAGE
100
AcDbPolyline
 90
        4
 70
     0
 43
0.0
 10
-8.878351008569381
 20
7.979447373681395
 42
0.3507021882640541
 10
-8.991740430713246
 20
7.859897571478686
 42
-0.1920804783045888
 10
-9.049768621642163
 20
7.743913188861346
 42
0.0158341516639658
 10
-9.075152381805287
 20
7.71983408660527
 42
0.0158341516639658
  0
LWPOLYLINE
  5
393D
330
47BF
100
AcDbEntity
  8
IMAGE
100
AcDbPolyline
 90
        4
 70
     0
 43
0.0
 10
-8.878351008569381
 20
7.985718431740615
 42
0.3524470239570262
 10
-8.997933091091141
 20
7.860421211829091
 42
-0.1920804783045888
 10
-9.05390082566754
 20
7.748555185378492
 42
0.0166742049649931
 10
-9.080888082573423
 20
7.722868745245076
 42
0.0166742049649931
  0
CIRCLE
  5
3947
330
47BF
100
AcDbEntity
  8
TEXT_BUBBLES
100
AcDbCircle
 10
-7.708759107230001
 20
8.958866021924672
 30
0.0
 40
0.1562887347020049
  0
TEXT
  5
3948
330
47BF
100
AcDbEntity
  8
TEXT_BUBBLES
100
AcDbText
 10
-7.75936688799065
 20
8.896350528043869
 30
0.0
 40
0.1250309877616039
  1
1
  7
ROMANS
 72
     4
 11
-7.708759107230001
 21
8.958866021924672
 31
0.0
100
AcDbText
  0
CIRCLE
  5
394A
330
47BF
100
AcDbEntity
  8
TEXT_BUBBLES
100
AcDbCircle
 10
-7.708759107230001
 20
8.559286040377672
 30
0.0
 40
0.1562887347020049
  0
TEXT
  5
394B
330
47BF
100
AcDbEntity
  8
TEXT_BUBBLES
100
AcDbText
 10
-7.768297672830764
 20
8.49677054649687
 30
0.0
 40
0.1250309877616039
  1
2
  7
ROMANS
 72
     4
 11
-7.708759107230001
 21
8.559286040377672
 31
0.0
100
AcDbText
  0
CIRCLE
  5
394F
330
47BF
100
AcDbEntity
  8
TEXT_BUBBLES
100
AcDbCircle
 10
-7.708759107230001
 20
6.904993536920465
 30
0.0
 40
0.1562887347020049
  0
TEXT
  5
3950
330
47BF
100
AcDbEntity
  8
TEXT_BUBBLES
100
AcDbText
 10
-7.771274601110803
 20
6.842478043039663
 30
0.0
 40
0.1250309877616039
  1
4
  7
ROMANS
 72
     4
 11
-7.708759107230001
 21
6.904993536920465
 31
0.0
100
AcDbText
  0
CIRCLE
  5
3952
330
47BF
100
AcDbEntity
  8
TEXT_BUBBLES
100
AcDbCircle
 10
-7.708759107230001
 20
7.426809865539272
 30
0.0
 40
0.1562887347020049
  0
TEXT
  5
3953
330
47BF
100
AcDbEntity
  8
TEXT_BUBBLES
100
AcDbText
 10
-7.768297672830764
 20
7.36429437165847
 30
0.0
 40
0.1250309877616039
  1
3
  7
ROMANS
 72
     4
 11
-7.708759107230001
 21
7.426809865539272
 31
0.0
100
AcDbText
  0
TEXT
  5
3956
330
47BF
100
AcDbEntity
  8
TEXT_BUBBLES
100
AcDbText
 10
-6.758030289614987
 20
7.350133528667711
 30
0.0
 40
0.1250000018625
  1
 EXTENSION (FIPT X MIPT) 
  7
ROMANS
100
AcDbText
  0
LWPOLYLINE
  5
3957
330
47BF
100
AcDbEntity
  8
IMAGE
100
AcDbPolyline
 90
        2
 70
     0
 43
0.0
 10
-8.776065957497632
 20
8.064713503605723
 10
-8.652185872138698
 20
8.064713503605723
  0
LWPOLYLINE
  5
3958
330
47BF
100
AcDbEntity
  8
IMAGE
100
AcDbPolyline
 90
        2
 70
     0
 43
0.0
 10
-8.776065957497632
 20
8.057385822186944
 10
-8.652185872138698
 20
8.057385822186944
  0
LWPOLYLINE
  5
3959
330
47BF
100
AcDbEntity
  8
IMAGE
100
AcDbPolyline
 90
        2
 70
     0
 43
0.0
 10
-8.776065957497632
 20
8.00853459441507
 10
-8.652185872138698
 20
8.00853459441507
  0
LWPOLYLINE
  5
395A
330
47BF
100
AcDbEntity
  8
IMAGE
100
AcDbPolyline
 90
        2
 70
     0
 43
0.0
 10
-8.776065957497632
 20
8.01586227583385
 10
-8.652185872138698
 20
8.01586227583385
  0
LWPOLYLINE
  5
395B
330
47BF
100
AcDbEntity
  8
IMAGE
100
AcDbPolyline
 90
        2
 70
     0
 43
0.0
 10
-8.776065957497632
 20
7.96701106637532
 10
-8.652185872138698
 20
7.96701106637532
  0
LWPOLYLINE
  5
395C
330
47BF
100
AcDbEntity
  8
IMAGE
100
AcDbPolyline
 90
        2
 70
     0
 43
0.0
 10
-8.776065957497632
 20
7.959683384956541
 10
-8.652185872138698
 20
7.959683384956541
  0
TEXT
  5
396D
330
47BF
100
AcDbEntity
  8
TEXT_BUBBLES
100
AcDbText
 10
-6.758030289614987
 20
7.167517871919571
 30
0.0
 40
0.1250000018625
  1
 SECURED TO ENCLOSURE
  7
ROMANS
100
AcDbText
  0
TEXT
  5
396E
330
47BF
100
AcDbEntity
  8
TEXT_BUBBLES
100
AcDbText
 10
-6.758030289614987
 20
6.984902215171432
 30
0.0
 40
0.1250000018625
  1
 WITH SCH 40 NUT
  7
ROMANS
100
AcDbText
  0
TEXT
  5
3987
330
47BF
100
AcDbEntity
  8
TEXT_LEADERS
100
AcDbText
 10
-6.82646047899732
 20
6.633102929855112
 30
0.0
 40
0.1250000018625
  1
WIRE TO IRRIGATION CONTROLLER
  7
ROMANS
100
AcDbText
  0
TEXT
  5
3988
330
47BF
100
AcDbEntity
  8
TEXT_LEADERS
100
AcDbText
 10
-6.82646047899732
 20
7.00598608624622
 30
0.0
 40
0.1250000018625
  1
 WITH SCH 40 NUT
  7
ROMANS
100
AcDbText
  0
TEXT
  5
3989
330
47BF
100
AcDbEntity
  8
TEXT_LEADERS
100
AcDbText
 10
-6.82646047899732
 20
7.188601742994359
 30
0.0
 40
0.1250000018625
  1
 SECURED TO ENCLOSURE
  7
ROMANS
100
AcDbText
  0
TEXT
  5
398A
330
47BF
100
AcDbEntity
  8
TEXT_LEADERS
100
AcDbText
 10
-6.82646047899732
 20
7.3712173997425
 30
0.0
 40
0.1250000018625
  1
 EXTENSION (FIPT X MIPT) 
  7
ROMANS
100
AcDbText
  0
TEXT
  5
398B
330
47BF
100
AcDbEntity
  8
TEXT_LEADERS
100
AcDbText
 10
-6.82646047899732
 20
7.553833056490638
 30
0.0
 40
0.1250000018625
  1
3/4-INCH SCH 40 RISER 
  7
ROMANS
100
AcDbText
  0
TEXT
  5
398C
330
47BF
100
AcDbEntity
  8
TEXT_LEADERS
100
AcDbText
 10
-6.82646047899732
 20
8.448445723752053
 30
0.0
 40
0.1250000018625
  1
 CONTROLLER ENCLOSURE
  7
ROMANS
100
AcDbText
  0
TEXT
  5
398D
330
47BF
100
AcDbEntity
  8
TEXT_LEADERS
100
AcDbText
 10
-6.82646047899732
 20
8.631061380500192
 30
0.0
 40
0.1250000018625
  1
PEDESTAL MOUNTED IRRIGATION 
  7
ROMANS
100
AcDbText
  0
TEXT
  5
398E
330
47BF
100
AcDbEntity
  8
TEXT_LEADERS
100
AcDbText
 10
-6.82646047899732
 20
8.187560450004133
 30
0.0
 40
0.1250000018625
  1
RAIN SENSOR: RAIN BIRD RSD-CEx
  7
ROMANS
100
AcDbText
  0
LEADER
  5
4810
330
47BF
100
AcDbEntity
  8
TEXT_LEADERS
100
AcDbLeader
  3
STANDARD
 76
     3
 10
-9.278514750935581
 20
8.325369767556605
 30
0.0
 10
-8.548927782369096
 20
8.69111457655647
 30
0.0
 10
-6.855243661386933
 20
8.69111457655647
 30
0.0
1001
ACAD
1000
DSTYLE
1002
{
1070
   147
1040
0.09
1070
    77
1070
     0
1002
}
  0
LEADER
  5
4811
330
47BF
100
AcDbEntity
  8
TEXT_LEADERS
100
AcDbLeader
  3
STANDARD
 76
     3
 10
-8.290545797878172
 20
8.256881638515794
 30
0.0
 10
-7.428490584551703
 20
8.256881638515794
 30
0.0
 10
-6.855243661386933
 20
8.256881638515794
 30
0.0
1001
ACAD
1000
DSTYLE
1002
{
1070
   147
1040
0.09
1070
    77
1070
     0
1002
}
  0
LEADER
  5
4813
330
47BF
100
AcDbEntity
  8
TEXT_LEADERS
100
AcDbLeader
  3
STANDARD
 76
     3
 10
-8.722638965361117
 20
7.940052606504675
 30
0.0
 10
-8.392587698385174
 20
7.614550575672619
 30
0.0
 10
-6.855243661386933
 20
7.614550575672619
 30
0.0
1001
ACAD
1000
DSTYLE
1002
{
1070
   147
1040
0.09
1070
    77
1070
     0
1002
}
  0
LEADER
  5
4814
330
47BF
100
AcDbEntity
  8
TEXT_LEADERS
100
AcDbLeader
  3
STANDARD
 76
     3
 10
-9.008043924311012
 20
7.799555346148668
 30
0.0
 10
-7.784598538622001
 20
6.702943972560974
 30
0.0
 10
-6.846558111882884
 20
6.702943972560974
 30
0.0
1001
ACAD
1000
DSTYLE
1002
{
1070
   147
1040
0.09
1070
    77
1070
     0
1002
}
  0
LEADER
  5
4817
330
47BF
100
AcDbEntity
  8
TEXT_BUBBLES
100
AcDbLeader
  3
STANDARD
 76
     2
 10
-8.722569835453514
 20
8.325369767556605
 30
0.0
 10
-7.865047841932006
 20
8.958866021924672
 30
0.0
1001
ACAD
1000
DSTYLE
1002
{
1070
   147
1040
0.09
1070
    77
1070
     0
1002
}
  0
LEADER
  5
4818
330
47BF
100
AcDbEntity
  8
TEXT_BUBBLES
100
AcDbLeader
  3
STANDARD
 76
     2
 10
-8.290546620267054
 20
8.257001159033237
 30
0.0
 10
-7.865047841932006
 20
8.559286040377672
 30
0.0
1001
ACAD
1000
DSTYLE
1002
{
1070
   147
1040
0.09
1070
    77
1070
     0
1002
}
  0
LEADER
  5
4819
330
47BF
100
AcDbEntity
  8
TEXT_BUBBLES
100
AcDbLeader
  3
STANDARD
 76
     2
 10
-8.722638965361117
 20
7.940052606504675
 30
0.0
 10
-7.865047841932006
 20
7.426809865539272
 30
0.0
1001
ACAD
1000
DSTYLE
1002
{
1070
   147
1040
0.09
1070
    77
1070
     0
1002
}
  0
LEADER
  5
481A
330
47BF
100
AcDbEntity
  8
TEXT_BUBBLES
100
AcDbLeader
  3
STANDARD
 76
     2
 10
-9.001493446377725
 20
7.815279266930689
 30
0.0
 10
-7.865047841932006
 20
6.904993536920465
 30
0.0
1001
ACAD
1000
DSTYLE
1002
{
1070
   147
1040
0.09
1070
    77
1070
     0
1002
}
  0
INSERT
  5
481C
330
47BF
100
AcDbEntity
  8
TITLE
 62
    42
100
AcDbBlockReference
 66
     1
  2
TITLBLK
 10
-11.76154271719402
 20
1.29114062835129
 30
0.0
  0
ATTRIB
  5
481D
330
481C
100
AcDbEntity
  8
TITLE
100
AcDbText
 10
-11.13654271719402
 20
1.39114062835129
 30
0.0
 40
0.2
  1
RAIN SENSOR
  7
L200
100
AcDbAttribute
  2
TITLE2
 70
     0
  0
ATTRIB
  5
481E
330
481C
100
AcDbEntity
  8
TITLE
100
AcDbText
 10
-11.86242948390616
 20
1.191140628351289
 30
0.0
 40
0.2
  1
D
  7
L200
 72
     4
 11
-11.76154271719402
 21
1.29114062835129
 31
0.0
100
AcDbAttribute
  2
#
 70
     0
  0
ATTRIB
  5
481F
330
481C
100
AcDbEntity
  8
TITLE
 62
     7
100
AcDbText
 10
-11.13654271719402
 20
1.107477311268412
 30
0.0
 40
0.1
  1
N.T.S.
  7
L100
100
AcDbAttribute
  2
SCALE
 70
     0
  0
ATTRIB
  5
4820
330
481C
100
AcDbEntity
  8
TITLE
100
AcDbText
 10
-9.654339336540195
 20
0.9997062983312417
 30
0.0
 40
0.2
  1
RSD-CEx  PEDESTAL MOUNT
  7
L200
100
AcDbAttribute
  2
TITLE3
 70
     0
  0
ATTRIB
  5
4821
330
481C
100
AcDbEntity
  8
TITLE
 62
     7
100
AcDbText
 10
-12.11839937771974
 20
0.4916251798936442
 30
0.0
 40
0.08
  1
C-RSD-CEx PEDESTAL MOUNT.DWG
  7
L80
 72
     2
 11
-9.969827949148314
 21
0.4916251798936442
 31
0.0
100
AcDbAttribute
  2
DWG-NAME
 70
     0
  0
ATTRIB
  5
4822
330
481C
100
AcDbEntity
  8
TITLE
 62
     7
100
AcDbText
 10
-4.678389305361175
 20
1.376516323417562
 30
0.0
 40
0.08
  1
1-07-04
  7
L80
 72
     2
 11
-4.106960733932604
 21
1.376516323417562
 31
0.0
100
AcDbAttribute
  2
REVISED
 70
     0
  0
ATTRIB
  5
4823
330
481C
100
AcDbEntity
  8
TITLE
100
AcDbText
 10
-11.13654271719402
 20
1.750625834619673
 30
0.0
 40
0.2
  1

  7
L200
100
AcDbAttribute
  2
TITLE1
 70
     0
  0
ATTRIB
  5
4824
330
481C
100
AcDbEntity
  8
TITLE
100
AcDbText
 10
-9.654339336540195
 20
0.676169612689697
 30
0.0
 40
0.2
  1

  7
L200
100
AcDbAttribute
  2
TITLE4
 70
     0
  0
SEQEND
  5
4825
330
481C
100
AcDbEntity
  8
TEXT_BUBBLES
 62
    40
  0
LWPOLYLINE
  5
4826
330
47BF
100
AcDbEntity
  8
IMAGE
100
AcDbPolyline
 90
        4
 70
     1
 43
0.0
 10
-12.3679850877085
 20
0.4069135318729228
 10
4.122014912291488
 20
0.406913531872923
 10
4.122014912291488
 20
10.84691353187292
 10
-12.3679850877085
 20
10.84691353187292
  0
LWPOLYLINE
  5
4828
330
47BF
100
AcDbEntity
  8
IMAGE
  6
0
100
AcDbPolyline
 90
       25
 70
     0
 43
0.0
 10
-8.475010768947758
 20
7.966888272623599
 10
-8.474771484038448
 20
7.967128103222553
 10
-8.471477155651911
 20
7.966109846345084
 10
-8.471417129790967
 20
7.966109846345084
 10
-8.471417129790967
 20
7.966169599361205
 10
-8.471357376774845
 20
7.966169599361205
 10
-8.471297350913902
 20
7.966229625222149
 10
-8.471237597897779
 20
7.966229625222149
 10
-8.471237597897779
 20
7.966289651083093
 10
-8.471177572036836
 20
7.966289651083093
 10
-8.471177572036836
 20
7.966349404099215
 10
-8.471117819020713
 20
7.966409157115337
 10
-8.471117819020713
 20
7.966528935992402
 10
-8.471956271160173
 20
7.967607218730815
 10
-8.469440641896973
 20
7.967247882099618
 10
-8.469380888880852
 20
7.967247882099618
 10
-8.469380888880852
 20
7.96730763511574
 10
-8.469320863019907
 20
7.96730763511574
 10
-8.469320863019907
 20
7.967367660976684
 10
-8.469320863019907
 20
7.967427413992806
 10
-8.469320863019907
 20
7.96748743985375
 10
-8.469320863019907
 20
7.967547192869871
 10
-8.469320863019907
 20
7.967607218730815
 10
-8.469320863019907
 20
7.967666971746937
 10
-8.469320863019907
 20
7.967786750624003
  0
LWPOLYLINE
  5
4829
330
47BF
100
AcDbEntity
  8
IMAGE
  6
0
100
AcDbPolyline
 90
       52
 70
     1
 43
0.0
 10
-8.401518651790565
 20
7.969284123009734
 10
-8.399661942773636
 20
7.969044838100425
 10
-8.399542163896571
 20
7.968865033362416
 10
-8.39948241088045
 20
7.96874525448535
 10
-8.399362632003384
 20
7.96856544974734
 10
-8.399302606142439
 20
7.968385917854154
 10
-8.399302606142439
 20
7.968206113116144
 10
-8.399242580281496
 20
7.968026581222956
 10
-8.399242580281496
 20
7.967846776484947
 10
-8.399242580281496
 20
7.967607218730815
 10
-8.399242580281496
 20
7.967427413992806
 10
-8.399242580281496
 20
7.967188129083497
 10
-8.399242580281496
 20
7.967008324345488
 10
-8.399242580281496
 20
7.966828519607478
 10
-8.399302606142439
 20
7.966588961853346
 10
-8.399302606142439
 20
7.966409157115337
 10
-8.399302606142439
 20
7.96604982048414
 10
-8.399422385019505
 20
7.965870288590953
 10
-8.39948241088045
 20
7.965690483852943
 10
-8.399542163896571
 20
7.965510951959756
 10
-8.399602189757516
 20
7.96539117308269
 10
-8.399661942773636
 20
7.965211368344681
 10
-8.399721968634581
 20
7.965091589467616
 10
-8.399781721650702
 20
7.964911784729606
 10
-8.399841747511647
 20
7.964792005852539
 10
-8.399901500527768
 20
7.964672226975474
 10
-8.399961526388713
 20
7.964552448098409
 10
-8.400021279404834
 20
7.964372916205221
 10
-8.400081305265777
 20
7.964253137328156
 10
-8.400141058281899
 20
7.964133085606268
 10
-8.400201084142842
 20
7.964013579574024
 10
-8.400320863019908
 20
7.963833774836015
 10
-8.40056042077404
 20
7.96353419122094
 10
-8.40074022551205
 20
7.963234880450687
 10
-8.400979783266182
 20
7.962995322696555
 10
-8.401219341020313
 20
7.962755764942425
 10
-8.401458898774443
 20
7.962575960204414
 10
-8.401758482389519
 20
7.962336402450284
 10
-8.40199804014365
 20
7.962156597712274
 10
-8.402297350913903
 20
7.962036818835208
 10
-8.402596934528977
 20
7.961857286942021
 10
-8.402956271160174
 20
7.961737508064955
 10
-8.403255581930428
 20
7.961677482204011
 10
-8.403615191406446
 20
7.96161772918789
 10
-8.403974528037643
 20
7.961557703326946
 10
-8.40433386466884
 20
7.961557703326946
 10
-8.405052537931235
 20
7.961677482204011
 10
-8.401758482389519
 20
7.969224369993613
 10
-8.401698456528574
 20
7.969224369993613
 10
-8.401638430667631
 20
7.969224369993613
 10
-8.401578677651508
 20
7.969224369993613
 10
-8.401518651790565
 20
7.969284123009734
  0
LWPOLYLINE
  5
482A
330
47BF
100
AcDbEntity
  8
IMAGE
  6
0
100
AcDbPolyline
 90
       76
 70
     1
 43
0.0
 10
-8.416313116599514
 20
7.969703485501875
 10
-8.416253090738569
 20
7.969643732485753
 10
-8.416193337722448
 20
7.969643732485753
 10
-8.416133311861504
 20
7.969643732485753
 10
-8.416073558845383
 20
7.969643732485753
 10
-8.416013532984438
 20
7.969643732485753
 10
-8.415893754107374
 20
7.969643732485753
 10
-8.415833728246429
 20
7.969643732485753
 10
-8.415773975230306
 20
7.969583706624809
 10
-8.415713949369363
 20
7.969583706624809
 10
-8.415654196353242
 20
7.969583706624809
 10
-8.415534417476177
 20
7.969523953608688
 10
-8.415474391615232
 20
7.969523953608688
 10
-8.415414638599111
 20
7.969463927747743
 10
-8.415354612738166
 20
7.969404174731622
 10
-8.41517508084498
 20
7.969344148870677
 10
-8.41517508084498
 20
7.969104591116547
 10
-8.41517508084498
 20
7.968924786378537
 10
-8.41517508084498
 20
7.968805007501472
 10
-8.4152348338611
 20
7.968625475608284
 10
-8.4152348338611
 20
7.968445670870274
 10
-8.415294859722045
 20
7.968326164838032
 10
-8.415414638599111
 20
7.968146360100022
 10
-8.415474391615232
 20
7.968026581222956
 10
-8.415594170492298
 20
7.967846776484947
 10
-8.415654196353242
 20
7.967726997607881
 10
-8.415773975230306
 20
7.967607218730815
 10
-8.415893754107374
 20
7.96748743985375
 10
-8.416013532984438
 20
7.967367660976684
 10
-8.416133311861504
 20
7.967247882099618
 10
-8.416313116599514
 20
7.967008324345488
 10
-8.416492648492701
 20
7.966888272623599
 10
-8.416612427369766
 20
7.966768766591356
 10
-8.416732206246832
 20
7.966708740730412
 10
-8.416912010984843
 20
7.96664898771429
 10
-8.417031789861907
 20
7.966588961853346
 10
-8.417211594599917
 20
7.966528935992402
 10
-8.417331100632161
 20
7.966469182976281
 10
-8.417451152354049
 20
7.966469182976281
 10
-8.417630684247235
 20
7.966409157115337
 10
-8.417750463124301
 20
7.966409157115337
 10
-8.417930267862312
 20
7.966409157115337
 10
-8.418050046739377
 20
7.966409157115337
 10
-8.418229851477386
 20
7.966409157115337
 10
-8.418349357509629
 20
7.966409157115337
 10
-8.418589188108583
 20
7.966409157115337
 10
-8.41876872000177
 20
7.966409157115337
 10
-8.418828745862715
 20
7.966469182976281
 10
-8.418888498878835
 20
7.966528935992402
 10
-8.41894852473978
 20
7.966588961853346
 10
-8.419008277755901
 20
7.966708740730412
 10
-8.419008277755901
 20
7.966768766591356
 10
-8.41894852473978
 20
7.966888272623599
 10
-8.41894852473978
 20
7.967008324345488
 10
-8.418888498878835
 20
7.967128103222553
 10
-8.418888498878835
 20
7.967247882099618
 10
-8.418828745862715
 20
7.967367660976684
 10
-8.41876872000177
 20
7.96748743985375
 10
-8.418708694140827
 20
7.967607218730815
 10
-8.418648941124704
 20
7.967726997607881
 10
-8.418529162247638
 20
7.967906802345891
 10
-8.418469409231517
 20
7.968026581222956
 10
-8.418409383370573
 20
7.968146360100022
 10
-8.418349357509629
 20
7.968266138977088
 10
-8.418289604493507
 20
7.968385917854154
 10
-8.418229851477386
 20
7.968445670870274
 10
-8.418169825616441
 20
7.96856544974734
 10
-8.418169825616441
 20
7.968685501469228
 10
-8.418109799755498
 20
7.968805007501472
 10
-8.418050046739377
 20
7.968865033362416
 10
-8.417990020878432
 20
7.968984812239481
 10
-8.417930267862312
 20
7.969044838100425
 10
-8.417870242001367
 20
7.969164616977491
 10
-8.417750463124301
 20
7.969224369993613
 10
-8.41769071010818
 20
7.969284123009734
 10
-8.417451152354049
 20
7.969463927747743
  0
LWPOLYLINE
  5
482B
330
47BF
100
AcDbEntity
  8
IMAGE
  6
0
100
AcDbPolyline
 90
       84
 70
     1
 43
0.0
 10
-8.404873006038046
 20
7.973057839749357
 10
-8.404273838807897
 20
7.972997813888413
 10
-8.403555165545503
 20
7.972997813888413
 10
-8.402896518144054
 20
7.972997813888413
 10
-8.402177572036837
 20
7.973057839749357
 10
-8.401458898774443
 20
7.973057839749357
 10
-8.400680199651105
 20
7.973057839749357
 10
-8.399961526388713
 20
7.972997813888413
 10
-8.399242580281496
 20
7.972937788027469
 10
-8.398523907019102
 20
7.972878035011348
 10
-8.397865259617653
 20
7.972758256134282
 10
-8.397206339371381
 20
7.972578451396271
 10
-8.396607444986052
 20
7.972339166486963
 10
-8.396008277755901
 20
7.972039582871888
 10
-8.395469409231518
 20
7.971679973395868
 10
-8.394570931231115
 20
7.970781768240287
 10
-8.394570931231115
 20
7.970721742379343
 10
-8.39451090537017
 20
7.970661989363223
 10
-8.39451090537017
 20
7.970601963502278
 10
-8.39451090537017
 20
7.970541937641334
 10
-8.394451152354049
 20
7.970541937641334
 10
-8.394451152354049
 20
7.970482184625213
 10
-8.394391126493104
 20
7.970422158764268
 10
-8.394391126493104
 20
7.970362405748146
 10
-8.394331373476983
 20
7.970362405748146
 10
-8.394211321755095
 20
7.970063094977894
 10
-8.39409154287803
 20
7.96982326437894
 10
-8.394031789861909
 20
7.969523953608688
 10
-8.393912010984843
 20
7.969224369993613
 10
-8.393851985123898
 20
7.968924786378537
 10
-8.393792232107777
 20
7.968625475608284
 10
-8.393792232107777
 20
7.968326164838032
 10
-8.393732206246832
 20
7.968026581222956
 10
-8.393732206246832
 20
7.967726997607881
 10
-8.393732206246832
 20
7.967427413992806
 10
-8.393732206246832
 20
7.967128103222553
 10
-8.393792232107777
 20
7.966828519607478
 10
-8.393851985123898
 20
7.966469182976281
 10
-8.393912010984843
 20
7.966169599361205
 10
-8.394031789861909
 20
7.965570704975878
 10
-8.394151568738973
 20
7.965331147221746
 10
-8.394211321755095
 20
7.965091589467616
 10
-8.394271347616038
 20
7.964911784729606
 10
-8.394331373476983
 20
7.964672226975474
 10
-8.394391126493104
 20
7.964432669221343
 10
-8.39451090537017
 20
7.964193111467212
 10
-8.394570931231115
 20
7.964013579574024
 10
-8.394630684247236
 20
7.963773748975071
 10
-8.394750463124301
 20
7.963594217081884
 10
-8.394810488985246
 20
7.963354659327753
 10
-8.394870514846189
 20
7.963175127434565
 10
-8.394990020878433
 20
7.962935296835611
 10
-8.395109799755498
 20
7.962755764942425
 10
-8.395229578632564
 20
7.962575960204414
 10
-8.395409383370575
 20
7.962276649434162
 10
-8.395469409231518
 20
7.962216623573218
 10
-8.395469409231518
 20
7.962156597712274
 10
-8.39552916224764
 20
7.962096844696152
 10
-8.39552916224764
 20
7.962036818835208
 10
-8.395589188108584
 20
7.961977065819087
 10
-8.395589188108584
 20
7.961917039958143
 10
-8.395589188108584
 20
7.961857286942021
 10
-8.396247835510033
 20
7.960898783080674
 10
-8.39702653463337
 20
7.960060330941215
 10
-8.397805233756708
 20
7.959401410694942
 10
-8.398703711757113
 20
7.958862269325736
 10
-8.399661942773636
 20
7.958502932694539
 10
-8.400680199651105
 20
7.958143596063343
 10
-8.401758482389519
 20
7.957964064170155
 10
-8.402836492283109
 20
7.957784259432146
 10
-8.403974528037643
 20
7.957724233571202
 10
-8.405112563792178
 20
7.95766448055508
 10
-8.406310352562835
 20
7.95766448055508
 10
-8.407448388317369
 20
7.95766448055508
 10
-8.408646449932847
 20
7.95766448055508
 10
-8.409784485687382
 20
7.957724233571202
 10
-8.412000531335507
 20
7.957724233571202
 10
-8.410862495580973
 20
7.961258119711871
 10
-8.4051723168083
 20
7.972997813888413
 10
-8.405112563792178
 20
7.972997813888413
 10
-8.405052537931235
 20
7.972997813888413
 10
-8.404992784915112
 20
7.972997813888413
 10
-8.404932759054169
 20
7.972997813888413
 10
-8.404873006038046
 20
7.973057839749357
  0
LWPOLYLINE
  5
482C
330
47BF
100
AcDbEntity
  8
IMAGE
  6
0
100
AcDbPolyline
 90
      111
 70
     1
 43
0.0
 10
-8.443865259617652
 20
7.97838840904601
 10
-8.443266092387501
 20
7.978328656029889
 10
-8.442607172141229
 20
7.978328656029889
 10
-8.442008277755901
 20
7.978328656029889
 10
-8.441349357509629
 20
7.978328656029889
 10
-8.44069071010818
 20
7.978328656029889
 10
-8.440031789861906
 20
7.97838840904601
 10
-8.439372869615635
 20
7.97838840904601
 10
-8.438714222214185
 20
7.97838840904601
 10
-8.438055301967914
 20
7.97838840904601
 10
-8.43739638172164
 20
7.97838840904601
 10
-8.436737461475368
 20
7.978328656029889
 10
-8.436078814073919
 20
7.978208877152823
 10
-8.435479646843768
 20
7.978089098275757
 10
-8.434880752458441
 20
7.977909293537748
 10
-8.433682963687784
 20
7.977430178029486
 10
-8.433443133088831
 20
7.977070841398289
 10
-8.433203575334699
 20
7.976711504767092
 10
-8.433024043441513
 20
7.97629214227495
 10
-8.432903991719625
 20
7.975932805643754
 10
-8.432784485687381
 20
7.975453690135491
 10
-8.432664706810315
 20
7.975034327643351
 10
-8.432664706810315
 20
7.974555212135088
 10
-8.432604680949372
 20
7.974076096626825
 10
-8.432664706810315
 20
7.973596708273741
 10
-8.432664706810315
 20
7.973117592765479
 10
-8.432784485687381
 20
7.97269850311816
 10
-8.432844238703504
 20
7.972219114765075
 10
-8.433024043441513
 20
7.971739999256812
 10
-8.433203575334699
 20
7.971320636764672
 10
-8.433563184810719
 20
7.970541937641334
 10
-8.43380274256485
 20
7.970242626871081
 10
-8.433982274458037
 20
7.97000306911695
 10
-8.434162079196047
 20
7.969763511362819
 10
-8.434401636950179
 20
7.969583706624809
 10
-8.434581168843365
 20
7.969344148870677
 10
-8.434820726597497
 20
7.969164616977491
 10
-8.43506055719645
 20
7.968984812239481
 10
-8.435240089089637
 20
7.968805007501472
 10
-8.435479646843768
 20
7.968625475608284
 10
-8.4357192045979
 20
7.968445670870274
 10
-8.435958762352031
 20
7.968266138977088
 10
-8.436258345967107
 20
7.968146360100022
 10
-8.436497903721237
 20
7.967966555362012
 10
-8.436737461475368
 20
7.967846776484947
 10
-8.437216576983631
 20
7.967607218730815
 10
-8.43715682396751
 20
7.96730763511574
 10
-8.437096798106566
 20
7.966948298484544
 10
-8.437037045090445
 20
7.96664898771429
 10
-8.4369770192295
 20
7.966289651083093
 10
-8.436857240352434
 20
7.965930041607074
 10
-8.436797487336313
 20
7.965570704975878
 10
-8.436737461475368
 20
7.965211368344681
 10
-8.436677708459248
 20
7.964792005852539
 10
-8.436677708459248
 20
7.964432669221343
 10
-8.436677708459248
 20
7.964013579574024
 10
-8.436677708459248
 20
7.963594217081884
 10
-8.436677708459248
 20
7.963234880450687
 10
-8.436737461475368
 20
7.962815517958546
 10
-8.436857240352434
 20
7.962396155466406
 10
-8.43715682396751
 20
7.961677482204011
 10
-8.437276602844576
 20
7.961557703326946
 10
-8.437336355860697
 20
7.96143792444988
 10
-8.43739638172164
 20
7.961377898588936
 10
-8.43739638172164
 20
7.961258119711871
 10
-8.437456134737763
 20
7.961198366695749
 10
-8.437516160598708
 20
7.961078587818684
 10
-8.437576186459651
 20
7.96101856195774
 10
-8.437576186459651
 20
7.960958808941618
 10
-8.437635939475772
 20
7.96083875721973
 10
-8.437695965336716
 20
7.960779004203608
 10
-8.437755718352837
 20
7.960719251187486
 10
-8.437815744213782
 20
7.960599472310421
 10
-8.437815744213782
 20
7.960539446449477
 10
-8.437875497229903
 20
7.960419667572412
 10
-8.437995276106969
 20
7.960299888695346
 10
-8.438773975230306
 20
7.959581215432952
 10
-8.439612427369766
 20
7.958982321047624
 10
-8.440510905370169
 20
7.958562958555483
 10
-8.441469136386695
 20
7.958203621924287
 10
-8.442427640248041
 20
7.958023817186276
 10
-8.44344589712551
 20
7.957844285293089
 10
-8.444523907019101
 20
7.957784259432146
 10
-8.445602189757515
 20
7.957784259432146
 10
-8.446680199651105
 20
7.957784259432146
 10
-8.447818235405639
 20
7.957844285293089
 10
-8.448956271160174
 20
7.957904038309211
 10
-8.450034281053763
 20
7.957964064170155
 10
-8.451172589653122
 20
7.958023817186276
 10
-8.452250599546712
 20
7.958023817186276
 10
-8.454346866317772
 20
7.957964064170155
 10
-8.453867750809509
 20
7.959221878801755
 10
-8.453388635301246
 20
7.960479693433355
 10
-8.452789468071095
 20
7.961737508064955
 10
-8.452250599546712
 20
7.962995322696555
 10
-8.45159167930044
 20
7.964253137328156
 10
-8.450992784915111
 20
7.965570704975878
 10
-8.45033386466884
 20
7.966828519607478
 10
-8.449615191406445
 20
7.968146360100022
 10
-8.448956271160174
 20
7.969404174731622
 10
-8.448297350913902
 20
7.970661989363223
 10
-8.447578677651508
 20
7.971979557010944
 10
-8.446860004389113
 20
7.973237371642544
 10
-8.446201084142842
 20
7.974495186274144
 10
-8.445482410880448
 20
7.975753000905744
 10
-8.444164570387904
 20
7.978328656029889
 10
-8.444104817371783
 20
7.978328656029889
 10
-8.444044791510838
 20
7.978328656029889
 10
-8.443984765649895
 20
7.978328656029889
 10
-8.443925012633773
 20
7.978328656029889
 10
-8.443865259617652
 20
7.97838840904601
  0
LWPOLYLINE
  5
482D
330
47BF
100
AcDbEntity
  8
IMAGE
  6
0
100
AcDbPolyline
 90
      103
 70
     1
 43
0.0
 10
-8.420805233756707
 20
7.973057839749357
 10
-8.420206339371381
 20
7.972997813888413
 10
-8.419607444986052
 20
7.972997813888413
 10
-8.41894852473978
 20
7.972997813888413
 10
-8.418289604493507
 20
7.972997813888413
 10
-8.417570931231114
 20
7.973057839749357
 10
-8.416912010984843
 20
7.973117592765479
 10
-8.416253090738569
 20
7.973117592765479
 10
-8.415594170492298
 20
7.973177618626422
 10
-8.414935523090848
 20
7.973117592765479
 10
-8.414276602844577
 20
7.973057839749357
 10
-8.413617682598305
 20
7.972997813888413
 10
-8.413018788212976
 20
7.972818009150403
 10
-8.412419893827648
 20
7.972578451396271
 10
-8.411880752458442
 20
7.972339166486963
 10
-8.410862495580973
 20
7.971500441502682
 10
-8.410682690842962
 20
7.971141104871485
 10
-8.410562911965897
 20
7.97084152125641
 10
-8.410443133088831
 20
7.970482184625213
 10
-8.410323354211765
 20
7.970182601010137
 10
-8.410263601195644
 20
7.96982326437894
 10
-8.410263601195644
 20
7.969463927747743
 10
-8.410263601195644
 20
7.969104591116547
 10
-8.410263601195644
 20
7.968805007501472
 10
-8.410323354211765
 20
7.968445670870274
 10
-8.41038338007271
 20
7.968086334239077
 10
-8.410443133088831
 20
7.967726997607881
 10
-8.410562911965897
 20
7.967427413992806
 10
-8.410622937826842
 20
7.967068077361608
 10
-8.41080274256485
 20
7.966768766591356
 10
-8.411042300318982
 20
7.966169599361205
 10
-8.411102053335104
 20
7.966109846345084
 10
-8.411102053335104
 20
7.96604982048414
 10
-8.411162079196047
 20
7.965990067468018
 10
-8.411162079196047
 20
7.965930041607074
 10
-8.41122183221217
 20
7.965870288590953
 10
-8.41122183221217
 20
7.965810262730008
 10
-8.411281858073113
 20
7.965810262730008
 10
-8.411281858073113
 20
7.965750509713887
 10
-8.411281858073113
 20
7.965690483852943
 10
-8.411341611089234
 20
7.965690483852943
 10
-8.411341611089234
 20
7.965630730836822
 10
-8.411341611089234
 20
7.965570704975878
 10
-8.412659451581779
 20
7.964193111467212
 10
-8.415953779968317
 20
7.962935296835611
 10
-8.416013532984438
 20
7.962875270974667
 10
-8.416073558845383
 20
7.962875270974667
 10
-8.416073558845383
 20
7.962815517958546
 10
-8.416073558845383
 20
7.962755764942425
 10
-8.416073558845383
 20
7.96269573908148
 10
-8.414456407582585
 20
7.957784259432146
 10
-8.418648941124704
 20
7.957724233571202
 10
-8.42086498677283
 20
7.962875270974667
 10
-8.421164570387905
 20
7.962635986065359
 10
-8.421404128142036
 20
7.962396155466406
 10
-8.421583932880045
 20
7.962156597712274
 10
-8.421823490634176
 20
7.961857286942021
 10
-8.422003022527364
 20
7.961557703326946
 10
-8.422182827265373
 20
7.961258119711871
 10
-8.422362359158562
 20
7.960958808941618
 10
-8.42254216389657
 20
7.960599472310421
 10
-8.422661942773636
 20
7.960299888695346
 10
-8.422841747511645
 20
7.959940552064149
 10
-8.423021279404833
 20
7.959581215432952
 10
-8.423141058281899
 20
7.959221878801755
 10
-8.423320863019908
 20
7.95892229518668
 10
-8.423500667757918
 20
7.958562958555483
 10
-8.423860004389114
 20
7.957964064170155
 10
-8.428651705161383
 20
7.957724233571202
 10
-8.42841187456243
 20
7.958443179678417
 10
-8.4281723168083
 20
7.959161852940811
 10
-8.427873006038046
 20
7.959940552064149
 10
-8.427513669406849
 20
7.960659225326542
 10
-8.427214085791774
 20
7.96143792444988
 10
-8.426854749160577
 20
7.962156597712274
 10
-8.426435386668437
 20
7.962935296835611
 10
-8.42607605003724
 20
7.963653970098005
 10
-8.425656687545099
 20
7.964432669221343
 10
-8.42523759789778
 20
7.965151615328559
 10
-8.424877988421762
 20
7.965930041607074
 10
-8.424458898774442
 20
7.96664898771429
 10
-8.424099562143245
 20
7.967427413992806
 10
-8.423680199651105
 20
7.968146360100022
 10
-8.422961526388711
 20
7.969703485501875
 10
-8.422841747511645
 20
7.969883290239884
 10
-8.422721968634579
 20
7.970122847994016
 10
-8.422602189757514
 20
7.970302652732025
 10
-8.42248241088045
 20
7.970541937641334
 10
-8.422362359158562
 20
7.970721742379343
 10
-8.422242853126318
 20
7.970961300133475
 10
-8.42212280140443
 20
7.971141104871485
 10
-8.422003022527364
 20
7.971380662625616
 10
-8.421883243650299
 20
7.971560467363626
 10
-8.421763464773233
 20
7.971800025117756
 10
-8.42170371175711
 20
7.971979557010944
 10
-8.421583932880045
 20
7.972159361748953
 10
-8.421464154002981
 20
7.972398919503085
 10
-8.421344375125915
 20
7.972578451396271
 10
-8.421044791510839
 20
7.972997813888413
 10
-8.420985038494718
 20
7.972997813888413
 10
-8.420925012633773
 20
7.972997813888413
 10
-8.42086498677283
 20
7.972997813888413
 10
-8.420805233756707
 20
7.973057839749357
  0
LWPOLYLINE
  5
482E
330
47BF
100
AcDbEntity
  8
IMAGE
  6
0
100
AcDbPolyline
 90
       12
 70
     1
 43
0.0
 10
-8.429130820669646
 20
7.973057839749357
 10
-8.424398872913499
 20
7.973057839749357
 10
-8.432005786564044
 20
7.957964064170155
 10
-8.436617682598303
 20
7.957844285293089
 10
-8.436677708459248
 20
7.957844285293089
 10
-8.436677708459248
 20
7.957904038309211
 10
-8.436737461475368
 20
7.957964064170155
 10
-8.436737461475368
 20
7.958023817186276
 10
-8.436737461475368
 20
7.958083843047221
 10
-8.429250599546712
 20
7.972997813888413
 10
-8.429190573685769
 20
7.972997813888413
 10
-8.429130820669646
 20
7.973057839749357
  0
LWPOLYLINE
  5
482F
330
47BF
100
AcDbEntity
  8
IMAGE
  6
0
100
AcDbPolyline
 90
       60
 70
     1
 43
0.0
 10
-8.514602189757512
 20
7.973237371642544
 10
-8.507893754107371
 20
7.973237371642544
 10
-8.510648941124703
 20
7.958263374940408
 10
-8.514901500527766
 20
7.958143596063343
 10
-8.51502127940483
 20
7.958203621924287
 10
-8.515141058281896
 20
7.958263374940408
 10
-8.515201084142841
 20
7.958383153817473
 10
-8.515201084142841
 20
7.958502932694539
 10
-8.515201084142841
 20
7.958622984416427
 10
-8.515201084142841
 20
7.958742763293493
 10
-8.515201084142841
 20
7.958862269325736
 10
-8.515141058281896
 20
7.959042074063746
 10
-8.515141058281896
 20
7.959161852940811
 10
-8.515081305265775
 20
7.959281631817876
 10
-8.51502127940483
 20
7.959401410694942
 10
-8.514961526388709
 20
7.959581215432952
 10
-8.514901500527766
 20
7.959700994310018
 10
-8.514841474666821
 20
7.959820773187083
 10
-8.514721968634578
 20
7.960120083957336
 10
-8.514781721650701
 20
7.960120083957336
 10
-8.514781721650701
 20
7.96018010981828
 10
-8.514781721650701
 20
7.960240135679224
 10
-8.514841474666821
 20
7.960240135679224
 10
-8.514841474666821
 20
7.960299888695346
 10
-8.514901500527766
 20
7.96035991455629
 10
-8.514901500527766
 20
7.960419667572412
 10
-8.514901500527766
 20
7.960479693433355
 10
-8.515320863019907
 20
7.960419667572412
 10
-8.515680199651104
 20
7.960419667572412
 10
-8.516039536282301
 20
7.960479693433355
 10
-8.516398872913496
 20
7.960479693433355
 10
-8.516818235405638
 20
7.960479693433355
 10
-8.517177572036835
 20
7.960539446449477
 10
-8.517536908668031
 20
7.960539446449477
 10
-8.517896245299228
 20
7.960539446449477
 10
-8.518255581930425
 20
7.960539446449477
 10
-8.518615191406444
 20
7.960479693433355
 10
-8.518974528037642
 20
7.960419667572412
 10
-8.519333864668839
 20
7.960299888695346
 10
-8.519633448283913
 20
7.96018010981828
 10
-8.519932759054166
 20
7.960000577925093
 10
-8.520471900423373
 20
7.959521189572008
 10
-8.520591679300439
 20
7.959401410694942
 10
-8.520651705161382
 20
7.959281631817876
 10
-8.520711458177503
 20
7.959161852940811
 10
-8.520771211193626
 20
7.95910209992469
 10
-8.52083123705457
 20
7.958982321047624
 10
-8.520890990070691
 20
7.95892229518668
 10
-8.520951015931634
 20
7.958802516309614
 10
-8.521011041792579
 20
7.958742763293493
 10
-8.521130820669645
 20
7.958622984416427
 10
-8.521190573685766
 20
7.958562958555483
 10
-8.521250599546711
 20
7.958443179678417
 10
-8.521310352562831
 20
7.958383153817473
 10
-8.521430131439897
 20
7.958323400801352
 10
-8.521490157300842
 20
7.958263374940408
 10
-8.521669689194029
 20
7.958143596063343
 10
-8.526820726597495
 20
7.958143596063343
 10
-8.514661942773635
 20
7.973237371642544
 10
-8.514602189757512
 20
7.973237371642544
  0
LWPOLYLINE
  5
4830
330
47BF
100
AcDbEntity
  8
IMAGE
  6
0
100
AcDbPolyline
 90
       71
 70
     1
 43
0.0
 10
-8.493698456528573
 20
7.973237371642544
 10
-8.488966781617246
 20
7.973237371642544
 10
-8.488128056632966
 20
7.966469182976281
 10
-8.488128056632966
 20
7.966349404099215
 10
-8.488068303616843
 20
7.966229625222149
 10
-8.4880082777559
 20
7.966229625222149
 10
-8.487948524739778
 20
7.966169599361205
 10
-8.487888498878835
 20
7.966169599361205
 10
-8.487828745862714
 20
7.966229625222149
 10
-8.487768720001769
 20
7.966289651083093
 10
-8.487708966985646
 20
7.966349404099215
 10
-8.487648941124703
 20
7.966409157115337
 10
-8.487589188108582
 20
7.966528935992402
 10
-8.487529162247637
 20
7.966588961853346
 10
-8.487469136386694
 20
7.966708740730412
 10
-8.487409383370572
 20
7.966768766591356
 10
-8.487349630354451
 20
7.966828519607478
 10
-8.487229578632563
 20
7.967008324345488
 10
-8.487229578632563
 20
7.967128103222553
 10
-8.48716982561644
 20
7.96730763511574
 10
-8.487109799755497
 20
7.96748743985375
 10
-8.487050046739375
 20
7.967607218730815
 10
-8.486990020878431
 20
7.967786750624003
 10
-8.486930267862309
 20
7.967906802345891
 10
-8.486870242001366
 20
7.968026581222956
 10
-8.486810488985243
 20
7.968146360100022
 10
-8.4867504631243
 20
7.968266138977088
 10
-8.486690710108177
 20
7.968385917854154
 10
-8.486630684247234
 20
7.968505696731218
 10
-8.486510905370169
 20
7.968625475608284
 10
-8.486451152354048
 20
7.96874525448535
 10
-8.486391126493103
 20
7.968865033362416
 10
-8.486211321755094
 20
7.969164616977491
 10
-8.486091542878028
 20
7.969404174731622
 10
-8.48591201098484
 20
7.969703485501875
 10
-8.485792232107774
 20
7.969943043256006
 10
-8.485612427369765
 20
7.970242626871081
 10
-8.4854926484927
 20
7.970541937641334
 10
-8.485372869615634
 20
7.970781768240287
 10
-8.485253090738568
 20
7.971021325994419
 10
-8.485133311861503
 20
7.971320636764672
 10
-8.484953779968316
 20
7.971560467363626
 10
-8.48483400109125
 20
7.971800025117756
 10
-8.484713949369362
 20
7.972039582871888
 10
-8.484534417476174
 20
7.972279140626019
 10
-8.484414638599108
 20
7.972518698380151
 10
-8.4842348338611
 20
7.972758256134282
 10
-8.483815744213782
 20
7.973237371642544
 10
-8.479323354211764
 20
7.973237371642544
 10
-8.48339638172164
 20
7.965031836451493
 10
-8.487050046739375
 20
7.958203621924287
 10
-8.49154216389657
 20
7.958143596063343
 10
-8.492320863019907
 20
7.965450926098812
 10
-8.492380888880852
 20
7.965450926098812
 10
-8.492380888880852
 20
7.965510951959756
 10
-8.492440641896973
 20
7.965510951959756
 10
-8.492440641896973
 20
7.965570704975878
 10
-8.492500394913093
 20
7.965570704975878
 10
-8.492500394913093
 20
7.965630730836822
 10
-8.492560420774038
 20
7.965630730836822
 10
-8.492560420774038
 20
7.965690483852943
 10
-8.492620173790159
 20
7.965690483852943
 10
-8.492680199651104
 20
7.965690483852943
 10
-8.492740225512047
 20
7.965750509713887
 10
-8.49657342242297
 20
7.958203621924287
 10
-8.501125565441109
 20
7.958143596063343
 10
-8.493938014282704
 20
7.973237371642544
 10
-8.493878261266582
 20
7.973237371642544
 10
-8.493818235405639
 20
7.973237371642544
 10
-8.493758209544694
 20
7.973237371642544
 10
-8.493698456528573
 20
7.973237371642544
  0
LWPOLYLINE
  5
4831
330
47BF
100
AcDbEntity
  8
IMAGE
  6
0
100
AcDbPolyline
 90
       38
 70
     1
 43
0.0
 10
-8.501784212842558
 20
7.973237371642544
 10
-8.497232342669242
 20
7.973237371642544
 10
-8.504659451581778
 20
7.958143596063343
 10
-8.509271347616037
 20
7.958143596063343
 10
-8.509271347616037
 20
7.958562958555483
 10
-8.509151568738971
 20
7.958982321047624
 10
-8.509031789861905
 20
7.959401410694942
 10
-8.50891201098484
 20
7.959820773187083
 10
-8.508672453230708
 20
7.960240135679224
 10
-8.508492648492699
 20
7.960599472310421
 10
-8.508253090738568
 20
7.96101856195774
 10
-8.508013532984437
 20
7.96143792444988
 10
-8.507773975230305
 20
7.961857286942021
 10
-8.507534417476174
 20
7.962216623573218
 10
-8.507294859722042
 20
7.962635986065359
 10
-8.507115054984033
 20
7.963055075712677
 10
-8.506875497229902
 20
7.963474438204818
 10
-8.506695692491893
 20
7.96395355371308
 10
-8.506336355860696
 20
7.964852031713483
 10
-8.506096798106565
 20
7.965331147221746
 10
-8.505797487336312
 20
7.965870288590953
 10
-8.505557929582181
 20
7.966409157115337
 10
-8.505258345967105
 20
7.966948298484544
 10
-8.505018788212973
 20
7.967427413992806
 10
-8.504719204597899
 20
7.967966555362012
 10
-8.504479646843767
 20
7.968505696731218
 10
-8.504180336073515
 20
7.969044838100425
 10
-8.503940505474561
 20
7.969523953608688
 10
-8.50370094772043
 20
7.970063094977894
 10
-8.503401636950178
 20
7.970601963502278
 10
-8.503162079196046
 20
7.971081079010541
 10
-8.50286249558097
 20
7.971620220379747
 10
-8.502622937826838
 20
7.972159361748953
 10
-8.502024043441512
 20
7.973237371642544
 10
-8.501964017580567
 20
7.973237371642544
 10
-8.501904264564446
 20
7.973237371642544
 10
-8.501844238703501
 20
7.973237371642544
 10
-8.501784212842558
 20
7.973237371642544
  0
LWPOLYLINE
  5
4832
330
47BF
100
AcDbEntity
  8
IMAGE
  6
0
100
AcDbPolyline
 90
      126
 70
     0
 43
0.0
 10
-8.533648941124702
 20
7.978807771538151
 10
-8.532990020878431
 20
7.97874801852203
 10
-8.532331100632157
 20
7.978687992661086
 10
-8.531612427369765
 20
7.97874801852203
 10
-8.530893754107371
 20
7.97874801852203
 10
-8.530115054984033
 20
7.978807771538151
 10
-8.529396381721639
 20
7.978807771538151
 10
-8.528617682598301
 20
7.978867524554273
 10
-8.527899009335907
 20
7.978867524554273
 10
-8.527180063228692
 20
7.978867524554273
 10
-8.526461389966298
 20
7.978807771538151
 10
-8.525742716703904
 20
7.97874801852203
 10
-8.525024043441511
 20
7.978627966800141
 10
-8.524365123195238
 20
7.97838840904601
 10
-8.523706202948966
 20
7.978148851291879
 10
-8.522508414178311
 20
7.977430178029486
 10
-8.5223286094403
 20
7.97713059441441
 10
-8.522089051686169
 20
7.976771257783213
 10
-8.52190924694816
 20
7.976471674168138
 10
-8.521729715054974
 20
7.976172363397886
 10
-8.521609936177908
 20
7.975813026766688
 10
-8.521490157300842
 20
7.975453690135491
 10
-8.521430131439897
 20
7.975094080659473
 10
-8.521370378423776
 20
7.974735016873098
 10
-8.521310352562831
 20
7.974375407397078
 10
-8.521310352562831
 20
7.974016070765881
 10
-8.521310352562831
 20
7.973656734134685
 10
-8.521310352562831
 20
7.973297124658666
 10
-8.521370378423776
 20
7.972937788027469
 10
-8.521430131439897
 20
7.972578451396271
 10
-8.521549910316963
 20
7.971919803994822
 10
-8.521669689194029
 20
7.971380662625616
 10
-8.521849493932039
 20
7.970901274272531
 10
-8.522029298670048
 20
7.970422158764268
 10
-8.522208830563235
 20
7.97000306911695
 10
-8.522448388317366
 20
7.969583706624809
 10
-8.522687946071497
 20
7.969164616977491
 10
-8.522987529686574
 20
7.968805007501472
 10
-8.523227087440703
 20
7.968445670870274
 10
-8.523586424071901
 20
7.968146360100022
 10
-8.523886007686977
 20
7.967846776484947
 10
-8.524245344318174
 20
7.967547192869871
 10
-8.524604680949369
 20
7.96730763511574
 10
-8.524964017580566
 20
7.967068077361608
 10
-8.525383380072709
 20
7.966828519607478
 10
-8.526162079196046
 20
7.966469182976281
 10
-8.526401636950177
 20
7.966349404099215
 10
-8.526581168843364
 20
7.966289651083093
 10
-8.526820726597495
 20
7.966229625222149
 10
-8.527000531335504
 20
7.966169599361205
 10
-8.527180063228692
 20
7.966109846345084
 10
-8.527359867966701
 20
7.96604982048414
 10
-8.527599425720833
 20
7.965990067468018
 10
-8.527779230458842
 20
7.965930041607074
 10
-8.52795876235203
 20
7.965870288590953
 10
-8.528138567090039
 20
7.965810262730008
 10
-8.528318098983227
 20
7.965810262730008
 10
-8.528497903721236
 20
7.965750509713887
 10
-8.528677708459246
 20
7.965750509713887
 10
-8.528857240352433
 20
7.965750509713887
 10
-8.529156823967507
 20
7.965750509713887
 10
-8.529396381721639
 20
7.965510951959756
 10
-8.529516160598705
 20
7.965331147221746
 10
-8.529575913614827
 20
7.965091589467616
 10
-8.52963593947577
 20
7.964852031713483
 10
-8.52963593947577
 20
7.964612473959352
 10
-8.529575913614827
 20
7.964312890344277
 10
-8.529516160598705
 20
7.964073332590146
 10
-8.529456134737761
 20
7.963773748975071
 10
-8.529336355860696
 20
7.963474438204818
 10
-8.52921657698363
 20
7.963175127434565
 10
-8.529156823967507
 20
7.962875270974667
 10
-8.529037045090442
 20
7.962575960204414
 10
-8.528917266213376
 20
7.962276649434162
 10
-8.52879748733631
 20
7.961977065819087
 10
-8.528677708459246
 20
7.96143792444988
 10
-8.528677708459246
 20
7.961198366695749
 10
-8.528617682598301
 20
7.96101856195774
 10
-8.528557929582181
 20
7.96083875721973
 10
-8.528497903721236
 20
7.960659225326542
 10
-8.528437877860293
 20
7.960479693433355
 10
-8.52837812484417
 20
7.960240135679224
 10
-8.52837812484417
 20
7.960060330941215
 10
-8.528318098983227
 20
7.959820773187083
 10
-8.528258345967104
 20
7.959640968449074
 10
-8.528198320106161
 20
7.959461436555886
 10
-8.528138567090039
 20
7.959221878801755
 10
-8.528138567090039
 20
7.959042074063746
 10
-8.528078541229096
 20
7.958802516309614
 10
-8.528018788212973
 20
7.958622984416427
 10
-8.527838983474964
 20
7.958263374940408
 10
-8.532510905370168
 20
7.958143596063343
 10
-8.53484700274018
 20
7.965091589467616
 10
-8.538620446634981
 20
7.958263374940408
 10
-8.544130820669645
 20
7.958143596063343
 10
-8.543890990070691
 20
7.959042074063746
 10
-8.543531653439494
 20
7.959940552064149
 10
-8.543172316808297
 20
7.960898783080674
 10
-8.5428129801771
 20
7.961797261081077
 10
-8.542333864668838
 20
7.962755764942425
 10
-8.541914502176696
 20
7.963653970098005
 10
-8.541435386668434
 20
7.964612473959352
 10
-8.540956271160172
 20
7.965570704975878
 10
-8.540417129790965
 20
7.966469182976281
 10
-8.539938014282704
 20
7.967427413992806
 10
-8.539398872913496
 20
7.968385917854154
 10
-8.538919757405235
 20
7.969344148870677
 10
-8.538440641896972
 20
7.970242626871081
 10
-8.537961526388709
 20
7.971201130732429
 10
-8.537003022527361
 20
7.973117592765479
 10
-8.536823490634175
 20
7.973476929396675
 10
-8.536583932880043
 20
7.973836266027872
 10
-8.536404128142034
 20
7.974195602659069
 10
-8.536224596248846
 20
7.97461496515121
 10
-8.536044791510837
 20
7.974974301782407
 10
-8.535864986772827
 20
7.975333638413603
 10
-8.53568545487964
 20
7.975693247889623
 10
-8.535505650141631
 20
7.976112337536942
 10
-8.535326118248443
 20
7.976471674168138
 10
-8.535146313510434
 20
7.976831283644157
 10
-8.534966508772424
 20
7.977190620275354
 10
-8.534786976879237
 20
7.977489931045607
 10
-8.534547419125106
 20
7.977849540521626
 10
-8.534307861370974
 20
7.978148851291879
 10
-8.533768720001768
 20
7.978807771538151
 10
-8.533708966985646
 20
7.978807771538151
  0
LWPOLYLINE
  5
4833
330
47BF
100
AcDbEntity
  8
IMAGE
  6
0
100
AcDbPolyline
 90
      126
 70
     0
 43
0.0
 10
-8.469320863019907
 20
7.967786750624003
 10
-8.469320863019907
 20
7.967846776484947
 10
-8.469320863019907
 20
7.967906802345891
 10
-8.469201084142842
 20
7.968026581222956
 10
-8.467883243650298
 20
7.967726997607881
 10
-8.467823490634176
 20
7.967726997607881
 10
-8.467763464773232
 20
7.967726997607881
 10
-8.46770371175711
 20
7.967726997607881
 10
-8.46770371175711
 20
7.967786750624003
 10
-8.467643685896167
 20
7.967786750624003
 10
-8.467583932880044
 20
7.967846776484947
 10
-8.467523907019101
 20
7.967906802345891
 10
-8.467883243650298
 20
7.968266138977088
 10
-8.468182827265373
 20
7.968685501469228
 10
-8.468482410880447
 20
7.969044838100425
 10
-8.468781721650701
 20
7.969463927747743
 10
-8.469081305265776
 20
7.969883290239884
 10
-8.469440641896973
 20
7.970302652732025
 10
-8.469740225512047
 20
7.970721742379343
 10
-8.470099562143245
 20
7.971141104871485
 10
-8.470458898774442
 20
7.971560467363626
 10
-8.470878261266582
 20
7.971919803994822
 10
-8.471237597897779
 20
7.972339166486963
 10
-8.471656687545099
 20
7.97269850311816
 10
-8.472076050037239
 20
7.973057839749357
 10
-8.472495412529379
 20
7.97335715051961
 10
-8.473453643545905
 20
7.974016070765881
 10
-8.482677708459247
 20
7.978268630168945
 10
-8.47818531845723
 20
7.977609709922672
 10
-8.478424876211361
 20
7.978268630168945
 10
-8.476628193055377
 20
7.977849540521626
 10
-8.476568167194432
 20
7.977849540521626
 10
-8.476508414178312
 20
7.977909293537748
 10
-8.476508414178312
 20
7.977969319398692
 10
-8.476448388317367
 20
7.978029072414813
 10
-8.476448388317367
 20
7.978089098275757
 10
-8.476448388317367
 20
7.978148851291879
 10
-8.476448388317367
 20
7.978208877152823
 10
-8.476448388317367
 20
7.978268630168945
 10
-8.476388635301246
 20
7.97838840904601
 10
-8.475609936177908
 20
7.978448162062132
 10
-8.475549910316964
 20
7.978508187923075
 10
-8.475549910316964
 20
7.978568213784019
 10
-8.475549910316964
 20
7.978627966800141
 10
-8.475549910316964
 20
7.978687992661086
 10
-8.475549910316964
 20
7.97874801852203
 10
-8.475549910316964
 20
7.978807771538151
 10
-8.475490157300843
 20
7.978807771538151
 10
-8.475490157300843
 20
7.978867524554273
 10
-8.475370378423777
 20
7.978927550415217
 10
-8.475310352562832
 20
7.978927550415217
 10
-8.475250599546711
 20
7.978927550415217
 10
-8.475190573685768
 20
7.978927550415217
 10
-8.475130820669646
 20
7.978927550415217
 10
-8.475130820669646
 20
7.978987303431338
 10
-8.475070794808701
 20
7.978987303431338
 10
-8.475010768947758
 20
7.979047329292282
 10
-8.474951015931637
 20
7.979107355153226
 10
-8.474951015931637
 20
7.979167108169348
 10
-8.474951015931637
 20
7.979227134030292
 10
-8.474951015931637
 20
7.979286887046414
 10
-8.474951015931637
 20
7.979346640062535
 10
-8.475010768947758
 20
7.979346640062535
 10
-8.475010768947758
 20
7.979406665923479
 10
-8.475070794808701
 20
7.979466691784423
 10
-8.475070794808701
 20
7.979526444800545
 10
-8.475130820669646
 20
7.979586470661489
 10
-8.475130820669646
 20
7.97964622367761
 10
-8.475190573685768
 20
7.979706249538555
 10
-8.475190573685768
 20
7.979766002554676
 10
-8.475190573685768
 20
7.979945807292685
 10
-8.475190573685768
 20
7.980005560308807
 10
-8.475130820669646
 20
7.980065586169751
 10
-8.475070794808701
 20
7.980065586169751
 10
-8.475010768947758
 20
7.980125339185873
 10
-8.474951015931637
 20
7.980125339185873
 10
-8.474891262915514
 20
7.980125339185873
 10
-8.474771484038448
 20
7.980185365046817
 10
-8.474771484038448
 20
7.980245118062939
 10
-8.474771484038448
 20
7.980305143923883
 10
-8.474711458177505
 20
7.980305143923883
 10
-8.474711458177505
 20
7.980365169784827
 10
-8.474711458177505
 20
7.980424922800948
 10
-8.47465143231656
 20
7.980424922800948
 10
-8.47459167930044
 20
7.980544701678014
 10
-8.475669689194029
 20
7.983120356802158
 10
-8.475370378423777
 20
7.982761020170961
 10
-8.475010768947758
 20
7.982401410694942
 10
-8.47465143231656
 20
7.981982321047624
 10
-8.474292095685363
 20
7.981562958555483
 10
-8.473932759054166
 20
7.981083843047221
 10
-8.473573422422971
 20
7.98066448055508
 10
-8.473273838807894
 20
7.980185365046817
 10
-8.472914502176697
 20
7.979706249538555
 10
-8.472555165545502
 20
7.979167108169348
 10
-8.472255854775248
 20
7.978687992661086
 10
-8.471896245299229
 20
7.978208877152823
 10
-8.471596934528976
 20
7.977669735783616
 10
-8.471237597897779
 20
7.977190620275354
 10
-8.470938014282705
 20
7.976711504767092
 10
-8.470279094036433
 20
7.975813026766688
 10
-8.464708966985648
 20
7.972518698380151
 10
-8.464708966985648
 20
7.972578451396271
 10
-8.464708966985648
 20
7.972638477257216
 10
-8.464648941124703
 20
7.972638477257216
 10
-8.464648941124703
 20
7.97269850311816
 10
-8.464648941124703
 20
7.972758256134282
 10
-8.46458891526376
 20
7.972758256134282
 10
-8.464529162247638
 20
7.972878035011348
 10
-8.46494852473978
 20
7.973596708273741
 10
-8.46494852473978
 20
7.973656734134685
 10
-8.464888498878835
 20
7.973656734134685
 10
-8.464888498878835
 20
7.973716487150807
 10
-8.464828745862714
 20
7.973716487150807
 10
-8.464768720001769
 20
7.973776513011751
 10
-8.464708966985648
 20
7.973776513011751
 10
-8.464648941124703
 20
7.973776513011751
 10
-8.46458891526376
 20
7.973776513011751
 10
-8.464529162247638
 20
7.973776513011751
 10
-8.464469409231517
 20
7.973776513011751
 10
-8.464409383370572
 20
7.973776513011751
 10
-8.464349630354451
 20
7.973776513011751
 10
-8.464289604493506
 20
7.973836266027872
 10
-8.464169825616441
 20
7.973896291888816
 10
-8.464169825616441
 20
7.973956044904938
 10
-8.464169825616441
 20
7.974016070765881
  0
LWPOLYLINE
  5
4834
330
47BF
100
AcDbEntity
  8
IMAGE
  6
0
100
AcDbPolyline
 90
      126
 70
     0
 43
0.0
 10
-8.464409383370572
 20
7.985575960204414
 10
-8.463990020878432
 20
7.984857286942021
 10
-8.463510905370169
 20
7.984258392556693
 10
-8.46291201098484
 20
7.983659225326542
 10
-8.462313116599514
 20
7.983060330941214
 10
-8.461713949369363
 20
7.982521189572008
 10
-8.461115054984034
 20
7.981982321047624
 10
-8.460456134737762
 20
7.981443179678417
 10
-8.459857240352434
 20
7.980904038309211
 10
-8.459258345967105
 20
7.980365169784827
 10
-8.458659451581779
 20
7.979766002554676
 10
-8.458120310212571
 20
7.979167108169348
 10
-8.45764119470431
 20
7.978568213784019
 10
-8.457221832212168
 20
7.977849540521626
 10
-8.456862495580971
 20
7.97713059441441
 10
-8.456383380072709
 20
7.975513443151613
 10
-8.456562911965896
 20
7.975214132381361
 10
-8.456682690842962
 20
7.974914548766285
 10
-8.456802469720027
 20
7.974674991012154
 10
-8.456922521441915
 20
7.9744351604132
 10
-8.457102053335102
 20
7.974195602659069
 10
-8.457221832212168
 20
7.973956044904938
 10
-8.457401636950178
 20
7.973776513011751
 10
-8.457521415827244
 20
7.973536955257619
 10
-8.457700947720431
 20
7.97335715051961
 10
-8.457880752458441
 20
7.973117592765479
 10
-8.45806055719645
 20
7.972937788027469
 10
-8.458180336073516
 20
7.97269850311816
 10
-8.458359867966702
 20
7.972458672519207
 10
-8.458539399859891
 20
7.972219114765075
 10
-8.458838983474965
 20
7.971739999256812
 10
-8.45889900933591
 20
7.971679973395868
 10
-8.458958762352031
 20
7.971620220379747
 10
-8.459018788212976
 20
7.971560467363626
 10
-8.459078541229096
 20
7.971500441502682
 10
-8.459138567090041
 20
7.97144068848656
 10
-8.460456134737762
 20
7.96856544974734
 10
-8.460396381721642
 20
7.968385917854154
 10
-8.460336628705519
 20
7.968206113116144
 10
-8.460216576983631
 20
7.968026581222956
 10
-8.460096798106565
 20
7.967906802345891
 10
-8.4599770192295
 20
7.967786750624003
 10
-8.459857240352434
 20
7.967607218730815
 10
-8.459737461475368
 20
7.967547192869871
 10
-8.459557656737359
 20
7.967427413992806
 10
-8.459437877860294
 20
7.96730763511574
 10
-8.459258345967105
 20
7.967247882099618
 10
-8.459078541229096
 20
7.967128103222553
 10
-8.45889900933591
 20
7.967068077361608
 10
-8.458719204597899
 20
7.967008324345488
 10
-8.458539399859891
 20
7.967008324345488
 10
-8.458120310212571
 20
7.966948298484544
 10
-8.45806055719645
 20
7.966888272623599
 10
-8.458000531335505
 20
7.966888272623599
 10
-8.457880752458441
 20
7.966888272623599
 10
-8.457820726597496
 20
7.966888272623599
 10
-8.457760973581375
 20
7.966888272623599
 10
-8.45764119470431
 20
7.966888272623599
 10
-8.457581168843365
 20
7.966828519607478
 10
-8.457521415827244
 20
7.966828519607478
 10
-8.457461389966299
 20
7.966828519607478
 10
-8.457401636950178
 20
7.966768766591356
 10
-8.457341611089233
 20
7.966768766591356
 10
-8.457281858073113
 20
7.966768766591356
 10
-8.457221832212168
 20
7.966708740730412
 10
-8.457162079196047
 20
7.966708740730412
 10
-8.457042300318981
 20
7.96664898771429
 10
-8.456802469720027
 20
7.966469182976281
 10
-8.456562911965896
 20
7.966289651083093
 10
-8.456383380072709
 20
7.96604982048414
 10
-8.456263601195644
 20
7.965810262730008
 10
-8.456143822318578
 20
7.965570704975878
 10
-8.456024043441512
 20
7.965271121360802
 10
-8.455964017580567
 20
7.964971810590549
 10
-8.455844238703502
 20
7.964672226975474
 10
-8.455784485687381
 20
7.964372916205221
 10
-8.455664706810315
 20
7.964073332590146
 10
-8.455604680949372
 20
7.963833774836015
 10
-8.455424876211361
 20
7.96353419122094
 10
-8.455305370179118
 20
7.963294633466809
 10
-8.455125565441109
 20
7.963055075712677
 10
-8.454526398210958
 20
7.962755764942425
 10
-8.454586424071903
 20
7.96269573908148
 10
-8.454646449932846
 20
7.962635986065359
 10
-8.454706202948967
 20
7.962575960204414
 10
-8.454766228809912
 20
7.962575960204414
 10
-8.454886007686978
 20
7.962575960204414
 10
-8.454945760703099
 20
7.962575960204414
 10
-8.455005786564044
 20
7.962575960204414
 10
-8.455125565441109
 20
7.962575960204414
 10
-8.45518531845723
 20
7.962575960204414
 10
-8.455305370179118
 20
7.962575960204414
 10
-8.455365123195241
 20
7.962575960204414
 10
-8.455484902072306
 20
7.962575960204414
 10
-8.455544655088427
 20
7.962575960204414
 10
-8.455664706810315
 20
7.962575960204414
 10
-8.455784485687381
 20
7.962635986065359
 10
-8.455904264564447
 20
7.962575960204414
 10
-8.455964017580567
 20
7.962575960204414
 10
-8.456024043441512
 20
7.962515934343471
 10
-8.456083796457633
 20
7.962456181327349
 10
-8.456083796457633
 20
7.962396155466406
 10
-8.456143822318578
 20
7.962336402450284
 10
-8.456143822318578
 20
7.962276649434162
 10
-8.456143822318578
 20
7.962216623573218
 10
-8.456143822318578
 20
7.962096844696152
 10
-8.456143822318578
 20
7.962036818835208
 10
-8.456143822318578
 20
7.961977065819087
 10
-8.456143822318578
 20
7.961917039958143
 10
-8.456143822318578
 20
7.961797261081077
 10
-8.456503158949775
 20
7.962096844696152
 10
-8.456802469720027
 20
7.962396155466406
 10
-8.457102053335102
 20
7.96269573908148
 10
-8.457401636950178
 20
7.962995322696555
 10
-8.457760973581375
 20
7.963234880450687
 10
-8.45806055719645
 20
7.96353419122094
 10
-8.458419893827647
 20
7.963773748975071
 10
-8.458779230458844
 20
7.96395355371308
 10
-8.459138567090041
 20
7.964133085606268
 10
-8.459497903721237
 20
7.964312890344277
 10
-8.459917266213379
 20
7.964492695082287
 10
-8.460336628705519
 20
7.964612473959352
 10
-8.460755718352837
 20
7.964672226975474
 10
-8.461175080844979
 20
7.964732252836419
 10
-8.462133311861503
 20
7.964792005852539
 10
-8.462253090738569
 20
7.964732252836419
  0
LWPOLYLINE
  5
4835
330
47BF
100
AcDbEntity
  8
IMAGE
  6
0
100
AcDbPolyline
 90
       91
 70
     0
 43
0.0
 10
-8.462253090738569
 20
7.964732252836419
 10
-8.462313116599514
 20
7.964672226975474
 10
-8.462432895476579
 20
7.964672226975474
 10
-8.4624926484927
 20
7.964672226975474
 10
-8.462552674353643
 20
7.964612473959352
 10
-8.462672453230711
 20
7.964612473959352
 10
-8.462732206246831
 20
7.964612473959352
 10
-8.462792232107775
 20
7.964612473959352
 10
-8.462851985123897
 20
7.964612473959352
 10
-8.46291201098484
 20
7.964552448098409
 10
-8.462971764000963
 20
7.964552448098409
 10
-8.463091542878029
 20
7.964552448098409
 10
-8.463151568738972
 20
7.964492695082287
 10
-8.463211594599917
 20
7.964432669221343
 10
-8.463271347616037
 20
7.964372916205221
 10
-8.463810488985245
 20
7.964013579574024
 10
-8.464229578632563
 20
7.963653970098005
 10
-8.464648941124703
 20
7.963175127434565
 10
-8.465008277755901
 20
7.96269573908148
 10
-8.465367614387098
 20
7.962156597712274
 10
-8.465727223863117
 20
7.96161772918789
 10
-8.466086560494314
 20
7.961078587818684
 10
-8.46644589712551
 20
7.960539446449477
 10
-8.466864986772829
 20
7.960060330941215
 10
-8.46728434926497
 20
7.959581215432952
 10
-8.46770371175711
 20
7.959221878801755
 10
-8.468182827265373
 20
7.958862269325736
 10
-8.468721968634579
 20
7.958622984416427
 10
-8.469320863019907
 20
7.958502932694539
 10
-8.470638430667628
 20
7.958562958555483
 10
-8.471477155651911
 20
7.95892229518668
 10
-8.472195828914305
 20
7.959281631817876
 10
-8.472914502176697
 20
7.959700994310018
 10
-8.473633175439092
 20
7.960120083957336
 10
-8.474352121546308
 20
7.960539446449477
 10
-8.475010768947758
 20
7.96101856195774
 10
-8.475669689194029
 20
7.96143792444988
 10
-8.476328609440301
 20
7.961857286942021
 10
-8.476987529686574
 20
7.962336402450284
 10
-8.477646449932846
 20
7.962755764942425
 10
-8.478305097334295
 20
7.963234880450687
 10
-8.478964017580567
 20
7.963653970098005
 10
-8.479622937826841
 20
7.964073332590146
 10
-8.480281858073112
 20
7.964552448098409
 10
-8.481599425720833
 20
7.96539117308269
 10
-8.481359867966702
 20
7.965450926098812
 10
-8.481060284351627
 20
7.965570704975878
 10
-8.48070094772043
 20
7.965570704975878
 10
-8.480401636950178
 20
7.965570704975878
 10
-8.480102053335102
 20
7.965510951959756
 10
-8.479802742564849
 20
7.965450926098812
 10
-8.47944313308883
 20
7.96539117308269
 10
-8.479143822318578
 20
7.965331147221746
 10
-8.478844238703501
 20
7.965211368344681
 10
-8.478484902072306
 20
7.965091589467616
 10
-8.47818531845723
 20
7.964971810590549
 10
-8.477886007686977
 20
7.964852031713483
 10
-8.477586424071901
 20
7.964732252836419
 10
-8.477227087440706
 20
7.964672226975474
 10
-8.476628193055377
 20
7.964552448098409
 10
-8.477706202948967
 20
7.965990067468018
 10
-8.47752667105578
 20
7.96604982048414
 10
-8.477346866317772
 20
7.966109846345084
 10
-8.47710730856364
 20
7.966109846345084
 10
-8.476867750809509
 20
7.966109846345084
 10
-8.476628193055377
 20
7.96604982048414
 10
-8.476448388317367
 20
7.965990067468018
 10
-8.476208830563237
 20
7.965870288590953
 10
-8.475969272809106
 20
7.965810262730008
 10
-8.475729715054974
 20
7.965690483852943
 10
-8.475490157300843
 20
7.965570704975878
 10
-8.475250599546711
 20
7.965450926098812
 10
-8.475010768947758
 20
7.965331147221746
 10
-8.474831237054571
 20
7.965271121360802
 10
-8.47459167930044
 20
7.965211368344681
 10
-8.474112563792177
 20
7.965151615328559
 10
-8.474172316808298
 20
7.965271121360802
 10
-8.474172316808298
 20
7.96539117308269
 10
-8.474232342669242
 20
7.965510951959756
 10
-8.474292095685363
 20
7.965570704975878
 10
-8.474352121546308
 20
7.965690483852943
 10
-8.474411874562429
 20
7.965810262730008
 10
-8.474471900423374
 20
7.965870288590953
 10
-8.47459167930044
 20
7.965990067468018
 10
-8.47465143231656
 20
7.96604982048414
 10
-8.474711458177505
 20
7.966169599361205
 10
-8.474831237054571
 20
7.966289651083093
 10
-8.474891262915514
 20
7.966409157115337
 10
-8.474951015931637
 20
7.966528935992402
 10
-8.475010768947758
 20
7.96664898771429
 10
-8.475010768947758
 20
7.966888272623599
  0
LWPOLYLINE
  5
4836
330
47BF
100
AcDbEntity
  8
IMAGE
  6
0
100
AcDbPolyline
 90
       17
 70
     1
 43
0.0
 10
-8.513344375125912
 20
7.967726997607881
 10
-8.514003022527361
 20
7.964432669221343
 10
-8.514122801404427
 20
7.964312890344277
 10
-8.514242580281493
 20
7.964253137328156
 10
-8.514302606142438
 20
7.964253137328156
 10
-8.514422385019503
 20
7.964193111467212
 10
-8.514542163896569
 20
7.964193111467212
 10
-8.514661942773635
 20
7.964193111467212
 10
-8.514781721650701
 20
7.964193111467212
 10
-8.514901500527766
 20
7.964193111467212
 10
-8.51502127940483
 20
7.964193111467212
 10
-8.515141058281896
 20
7.964193111467212
 10
-8.515260837158962
 20
7.964193111467212
 10
-8.515440641896972
 20
7.964193111467212
 10
-8.515560420774038
 20
7.964193111467212
 10
-8.515680199651104
 20
7.964193111467212
 10
-8.515919757405235
 20
7.964193111467212
  0
LWPOLYLINE
  5
4837
330
47BF
100
AcDbEntity
  8
IMAGE
  6
0
100
AcDbPolyline
 90
       32
 70
     1
 43
0.0
 10
-8.44470371175711
 20
7.966109846345084
 10
-8.442008277755901
 20
7.96604982048414
 10
-8.441888498878835
 20
7.965870288590953
 10
-8.441768720001769
 20
7.965750509713887
 10
-8.441708966985649
 20
7.965630730836822
 10
-8.441589188108583
 20
7.965450926098812
 10
-8.441529162247638
 20
7.965331147221746
 10
-8.441529162247638
 20
7.965151615328559
 10
-8.441469136386695
 20
7.964971810590549
 10
-8.441469136386695
 20
7.964852031713483
 10
-8.441469136386695
 20
7.964672226975474
 10
-8.441529162247638
 20
7.964492695082287
 10
-8.441529162247638
 20
7.964312890344277
 10
-8.441589188108583
 20
7.964133085606268
 10
-8.441648941124704
 20
7.96395355371308
 10
-8.441708966985649
 20
7.963773748975071
 10
-8.441888498878835
 20
7.963474438204818
 10
-8.442128056632967
 20
7.963115101573621
 10
-8.442367614387098
 20
7.962875270974667
 10
-8.442607172141229
 20
7.962635986065359
 10
-8.442847002740183
 20
7.962396155466406
 10
-8.443146313510435
 20
7.962276649434162
 10
-8.44344589712551
 20
7.962096844696152
 10
-8.443805233756707
 20
7.961977065819087
 10
-8.444104817371783
 20
7.961917039958143
 10
-8.444464154002979
 20
7.961797261081077
 10
-8.444823490634176
 20
7.961737508064955
 10
-8.445123074249252
 20
7.961737508064955
 10
-8.445482410880448
 20
7.961737508064955
 10
-8.445841747511645
 20
7.961677482204011
 10
-8.446201084142842
 20
7.961737508064955
 10
-8.446860004389113
 20
7.961797261081077
  0
CIRCLE
  5
4838
330
47BF
100
AcDbEntity
  8
IMAGE
100
AcDbCircle
 10
-8.392597889030326
 20
7.958519835145249
 30
0.0
 40
0.0028883977786199
  0
TEXT
  5
4839
330
47BF
100
AcDbEntity
  8
IMAGE
100
AcDbText
 10
-8.394072079461379
 20
7.957015515340247
 30
0.0
 40
0.0031621433653058
  1
R
  7
ROMANS
100
AcDbText
  0
LWPOLYLINE
  5
483A
330
47BF
100
AcDbEntity
  8
IMAGE
  6
0
100
AcDbPolyline
 90
       35
 70
     1
 43
0.0
 10
-8.440151568738972
 20
7.974195602659069
 10
-8.437875497229903
 20
7.974076096626825
 10
-8.437815744213782
 20
7.973836266027872
 10
-8.437755718352837
 20
7.973656734134685
 10
-8.437695965336716
 20
7.973476929396675
 10
-8.437695965336716
 20
7.973237371642544
 10
-8.437695965336716
 20
7.973057839749357
 10
-8.437755718352837
 20
7.972878035011348
 10
-8.437815744213782
 20
7.97269850311816
 10
-8.437875497229903
 20
7.972458672519207
 10
-8.437935250246026
 20
7.972279140626019
 10
-8.438055301967914
 20
7.972099335888009
 10
-8.438175080844979
 20
7.971919803994822
 10
-8.4382348338611
 20
7.971739999256812
 10
-8.438354612738166
 20
7.971560467363626
 10
-8.438474391615232
 20
7.971380662625616
 10
-8.438594170492297
 20
7.971081079010541
 10
-8.438834001091251
 20
7.970901274272531
 10
-8.439013532984438
 20
7.970781768240287
 10
-8.439253090738569
 20
7.970661989363223
 10
-8.4394926484927
 20
7.970541937641334
 10
-8.439732206246832
 20
7.970422158764268
 10
-8.439971764000963
 20
7.970362405748146
 10
-8.440271347616038
 20
7.970302652732025
 10
-8.440510905370169
 20
7.970242626871081
 10
-8.440810488985245
 20
7.970182601010137
 10
-8.44111007260032
 20
7.970122847994016
 10
-8.441349357509629
 20
7.970122847994016
 10
-8.441648941124704
 20
7.970122847994016
 10
-8.44194852473978
 20
7.970063094977894
 10
-8.44218808249391
 20
7.970063094977894
 10
-8.442727223863117
 20
7.970122847994016
 10
-8.440271347616038
 20
7.974195602659069
 10
-8.440211594599917
 20
7.974195602659069
 10
-8.440151568738972
 20
7.974195602659069
  0
LWPOLYLINE
  5
483B
330
47BF
100
AcDbEntity
  8
IMAGE
  6
0
100
AcDbPolyline
 90
       58
 70
     1
 43
0.0
 10
-8.529755718352836
 20
7.9744351604132
 10
-8.529575913614827
 20
7.9744351604132
 10
-8.529396381721639
 20
7.9744351604132
 10
-8.52921657698363
 20
7.9744351604132
 10
-8.529037045090442
 20
7.9744351604132
 10
-8.52879748733631
 20
7.9744351604132
 10
-8.528617682598301
 20
7.974375407397078
 10
-8.528437877860293
 20
7.974375407397078
 10
-8.528198320106161
 20
7.974375407397078
 10
-8.528018788212973
 20
7.974315654380958
 10
-8.527838983474964
 20
7.974255628520013
 10
-8.527659451581776
 20
7.974195602659069
 10
-8.527479646843767
 20
7.974135849642947
 10
-8.527299842105758
 20
7.974016070765881
 10
-8.527180063228692
 20
7.973896291888816
 10
-8.526880752458438
 20
7.973656734134685
 10
-8.526940505474561
 20
7.971859778133879
 10
-8.527180063228692
 20
7.971560467363626
 10
-8.527419893827646
 20
7.971320636764672
 10
-8.527659451581776
 20
7.971081079010541
 10
-8.527899009335907
 20
7.97084152125641
 10
-8.528138567090039
 20
7.970661989363223
 10
-8.528437877860293
 20
7.970482184625213
 10
-8.528737461475367
 20
7.970302652732025
 10
-8.529096798106564
 20
7.970182601010137
 10
-8.529396381721639
 20
7.970063094977894
 10
-8.529755718352836
 20
7.97000306911695
 10
-8.530115054984033
 20
7.969883290239884
 10
-8.53047439161523
 20
7.96982326437894
 10
-8.53083400109125
 20
7.96982326437894
 10
-8.531193337722447
 20
7.96982326437894
 10
-8.531912010984839
 20
7.969883290239884
 10
-8.532031789861905
 20
7.970063094977894
 10
-8.532031789861905
 20
7.970302652732025
 10
-8.532031789861905
 20
7.970482184625213
 10
-8.531971764000962
 20
7.970721742379343
 10
-8.531912010984839
 20
7.971021325994419
 10
-8.531792232107774
 20
7.97126088374855
 10
-8.531672453230708
 20
7.971500441502682
 10
-8.531492648492699
 20
7.971800025117756
 10
-8.531372869615633
 20
7.972039582871888
 10
-8.531193337722447
 20
7.972279140626019
 10
-8.531013532984436
 20
7.972578451396271
 10
-8.530893754107371
 20
7.972818009150403
 10
-8.530713949369362
 20
7.973117592765479
 10
-8.530594170492296
 20
7.97335715051961
 10
-8.530294859722042
 20
7.973896291888816
 10
-8.530234833861099
 20
7.973956044904938
 10
-8.530234833861099
 20
7.974016070765881
 10
-8.530175080844976
 20
7.974076096626825
 10
-8.530175080844976
 20
7.974135849642947
 10
-8.530115054984033
 20
7.974195602659069
 10
-8.530115054984033
 20
7.974255628520013
 10
-8.530055301967911
 20
7.974315654380958
 10
-8.530055301967911
 20
7.974375407397078
 10
-8.529995276106967
 20
7.974375407397078
 10
-8.529935250246023
 20
7.974375407397078
 10
-8.529755718352836
 20
7.9744351604132
  0
LWPOLYLINE
  5
483C
330
47BF
100
AcDbEntity
  8
IMAGE
  6
0
100
AcDbPolyline
 90
        3
 70
     0
 43
0.0
 10
-8.533708966985646
 20
7.978807771538151
 10
-8.533648941124702
 20
7.978807771538151
 10
-8.533648941124702
 20
7.978807771538151
  0
LWPOLYLINE
  5
483D
330
47BF
100
AcDbEntity
  8
IMAGE
  6
0
100
AcDbPolyline
 90
       39
 70
     0
 43
0.0
 10
-8.463703888343935
 20
7.975979380424119
 10
-8.463690710108179
 20
7.975992558659876
 10
-8.463451152354048
 20
7.976232116414007
 10
-8.464529162247638
 20
7.979107355153226
 10
-8.464469409231517
 20
7.979107355153226
 10
-8.464409383370572
 20
7.979107355153226
 10
-8.464349630354451
 20
7.979167108169348
 10
-8.464289604493506
 20
7.979107355153226
 10
-8.464229578632563
 20
7.979107355153226
 10
-8.464169825616441
 20
7.979107355153226
 10
-8.464109799755497
 20
7.979047329292282
 10
-8.464050046739375
 20
7.979047329292282
 10
-8.463990020878432
 20
7.978987303431338
 10
-8.463930267862309
 20
7.978987303431338
 10
-8.463870242001366
 20
7.978927550415217
 10
-8.463810488985245
 20
7.978927550415217
 10
-8.4637504631243
 20
7.978867524554273
 10
-8.463690710108179
 20
7.978867524554273
 10
-8.463510905370169
 20
7.978927550415217
 10
-8.464469409231517
 20
7.981682737432548
 10
-8.464409383370572
 20
7.981682737432548
 10
-8.464289604493506
 20
7.981682737432548
 10
-8.464229578632563
 20
7.981622711571604
 10
-8.464169825616441
 20
7.981622711571604
 10
-8.464050046739375
 20
7.981562958555483
 10
-8.463990020878432
 20
7.981503205539361
 10
-8.463930267862309
 20
7.981443179678417
 10
-8.463810488985245
 20
7.981443179678417
 10
-8.4637504631243
 20
7.981383153817473
 10
-8.463690710108179
 20
7.981323400801351
 10
-8.463570658386291
 20
7.981263374940407
 10
-8.463510905370169
 20
7.981263374940407
 10
-8.463451152354048
 20
7.981263374940407
 10
-8.463331373476982
 20
7.981263374940407
 10
-8.463091542878029
 20
7.981383153817473
 10
-8.464529162247638
 20
7.985575960204414
 10
-8.464469409231517
 20
7.985575960204414
 10
-8.464409383370572
 20
7.985575960204414
 10
-8.464409383370572
 20
7.985575960204414
  0
LWPOLYLINE
  5
483E
330
47BF
100
AcDbEntity
  8
IMAGE
  6
0
100
AcDbPolyline
 90
       10
 70
     0
 43
0.0
 10
-8.464169825616441
 20
7.974016070765881
 10
-8.464109799755497
 20
7.974016070765881
 10
-8.464109799755497
 20
7.974076096626825
 10
-8.464050046739375
 20
7.974195602659069
 10
-8.465128056632966
 20
7.976591453045204
 10
-8.465068303616844
 20
7.976651478906148
 10
-8.465068303616844
 20
7.976711504767092
 10
-8.465008277755901
 20
7.976711504767092
 10
-8.46494852473978
 20
7.976771257783213
 10
-8.463703888343935
 20
7.975979380424119
  0
VIEWPORT
  5
D4
330
47BB
100
AcDbEntity
 67
     1
  8
0
100
AcDbViewport
 10
6.172388059701492
 20
4.5
 30
0.0
 40
12.34477611940298
 41
9.0
 68
     1
 69
     1
 12
6.172388059701492
 22
4.5
 13
0.0
 23
0.0
 14
0.14
 24
0.14
 15
0.14
 25
0.14
 16
0.0
 26
0.0
 36
1.0
 17
0.0
 27
0.0
 37
0.0
 42
50.0
 43
0.0
 44
0.0
 45
9.0
 50
0.0
 51
0.0
 72
   100
 90
    32800
  1

281
     0
 71
     0
 74
     0
110
0.0
120
0.0
130
0.0
111
0.0
121
0.0
131
0.0
112
0.0
122
0.0
132
0.0
 79
     0
146
0.0
  0
ENDSEC
  0
SECTION
  2
OBJECTS
  0
DICTIONARY
  5
47AD
330
0
100
AcDbDictionary
281
     1
  3
ACAD_GROUP
350
47AE
  3
ACAD_LAYOUT
350
47BA
  3
ACAD_MLINESTYLE
350
47B7
  3
ACAD_PLOTSETTINGS
350
47B9
  3
ACAD_PLOTSTYLENAME
350
47AF
  3
AcadDim
350
4816
  3
AcDbVariableDictionary
350
47E1
  0
DICTIONARY
  5
47AE
102
{ACAD_REACTORS
330
47AD
102
}
330
47AD
100
AcDbDictionary
281
     1
  0
DICTIONARY
  5
47BA
102
{ACAD_REACTORS
330
47AD
102
}
330
47AD
100
AcDbDictionary
281
     1
  3
Layout1
350
47BE
  3
Model
350
47C2
  0
DICTIONARY
  5
47B7
102
{ACAD_REACTORS
330
47AD
102
}
330
47AD
100
AcDbDictionary
281
     1
  3
Standard
350
47B8
  0
DICTIONARY
  5
47B9
102
{ACAD_REACTORS
330
47AD
102
}
330
47AD
100
AcDbDictionary
281
     1
  0
ACDBDICTIONARYWDFLT
  5
47AF
102
{ACAD_REACTORS
330
47AD
102
}
330
47AD
100
AcDbDictionary
281
     1
  3
Normal
350
47B0
100
AcDbDictionaryWithDefault
340
47B0
  0
XRECORD
  5
4816
102
{ACAD_REACTORS
330
47AD
102
}
330
47AD
100
AcDbXrecord
280
     1
 90
   990106
  3

 60
     4
 61
     0
 62
     1
 63
     3
 64
     0
 65
     0
 66
     0
 67
     2
 68
     1
 69
     0
 70
     0
 71
     1
 72
     0
 40
0.0
170
     1
  0
DICTIONARY
  5
47E1
102
{ACAD_REACTORS
330
47AD
102
}
330
47AD
100
AcDbDictionary
281
     1
  3
DIMASSOC
350
47E4
  3
HIDETEXT
350
47E3
  3
SORTENTS
350
47E2
  0
LAYOUT
  5
47BE
102
{ACAD_REACTORS
330
47BA
102
}
330
47BA
100
AcDbPlotSettings
  1

  2
S:\AutoCAD 2002\Plotters\1055B&WDraftShaded.pc3
  4

  6

 40
0.0
 41
0.0
 42
0.0
 43
0.0
 44
0.0
 45
0.0
 46
0.0
 47
0.0
 48
0.0
 49
0.0
140
0.0
141
0.0
142
1.0
143
1.0
 70
   688
 72
     0
 73
     0
 74
     5
  7
TRexLJ5Shaded2.ctb
 75
    16
147
1.0
148
0.0
149
0.0
100
AcDbLayout
  1
Layout1
 70
     1
 71
     1
 10
0.0
 20
0.0
 11
12.0
 21
9.0
 12
0.0
 22
0.0
 32
0.0
 14
1.000000000000000E+20
 24
1.000000000000000E+20
 34
1.000000000000000E+20
 15
-1.000000000000000E+20
 25
-1.000000000000000E+20
 35
-1.000000000000000E+20
146
0.0
 13
0.0
 23
0.0
 33
0.0
 16
1.0
 26
0.0
 36
0.0
 17
0.0
 27
1.0
 37
0.0
 76
     0
330
47BB
331
D4
  0
LAYOUT
  5
47C2
102
{ACAD_REACTORS
330
47BA
102
}
330
47BA
100
AcDbPlotSettings
  1

  2
OKI DOKI Color Laser.pc3
  4
Tabloid
  6

 40
3.174999952316284
 41
3.174999952316284
 42
3.17498779296875
 43
3.17498779296875
 44
279.3999938964843
 45
431.8000183105469
 46
0.0
 47
7.112
 48
0.0
 49
0.0
140
0.0
141
0.0
142
1.0
143
1.024012534206247
 70
 28340
 72
     0
 73
     1
 74
     0
  7
OKIColorShaded.ctb
 75
     0
147
0.9765505465957396
148
315.1936926633796
149
-3.123375458009404
100
AcDbLayout
  1
Model
 70
     1
 71
     0
 10
0.0
 20
0.0
 11
12.0
 21
9.0
 12
0.0
 22
0.0
 32
0.0
 14
0.0
 24
0.0
 34
0.0
 15
0.0
 25
0.0
 35
0.0
146
0.0
 13
0.0
 23
0.0
 33
0.0
 16
1.0
 26
0.0
 36
0.0
 17
0.0
 27
1.0
 37
0.0
 76
     0
330
47BF
  0
MLINESTYLE
  5
47B8
102
{ACAD_REACTORS
330
47B7
102
}
330
47B7
100
AcDbMlineStyle
  2
STANDARD
 70
     0
  3

 62
   256
 51
90.0
 52
90.0
 71
     2
 49
0.5
 62
   256
  6
BYLAYER
 49
-0.5
 62
   256
  6
BYLAYER
  0
ACDBPLACEHOLDER
  5
47B0
102
{ACAD_REACTORS
330
47AF
102
}
330
47AF
  0
DICTIONARYVAR
  5
47E4
102
{ACAD_REACTORS
330
47E1
102
}
330
47E1
100
DictionaryVariables
280
     0
  1
1
  0
DICTIONARYVAR
  5
47E3
102
{ACAD_REACTORS
330
47E1
102
}
330
47E1
100
DictionaryVariables
280
     0
  1
1
  0
DICTIONARYVAR
  5
47E2
102
{ACAD_REACTORS
330
47E1
102
}
330
47E1
100
DictionaryVariables
280
     0
  1
1
  0
ENDSEC
  0
EOF
