  0
SECTION
  2
HEADER
  9
$ACADVER
  1
AC1015
  9
$ACADMAINTVER
 70
    13
  9
$DWGCODEPAGE
  3
ANSI_1252
  9
$INSBASE
 10
0.0
 20
0.0
 30
0.0
  9
$EXTMIN
 10
-11.90073611156813
 20
1.095393196097453
 30
0.0
  9
$EXTMAX
 10
4.58926388843186
 20
11.53539319609745
 30
0.03
  9
$LIMMIN
 10
0.0
 20
0.0
  9
$LIMMAX
 10
12.0
 20
9.0
  9
$ORTHOMODE
 70
     1
  9
$REGENMODE
 70
     1
  9
$FILLMODE
 70
     1
  9
$QTEXTMODE
 70
     0
  9
$MIRRTEXT
 70
     0
  9
$LTSCALE
 40
1.0
  9
$ATTMODE
 70
     1
  9
$TEXTSIZE
 40
0.1103
  9
$TRACEWID
 40
0.05
  9
$TEXTSTYLE
  7
ROMANS
  9
$CLAYER
  8
IMAGE
  9
$CELTYPE
  6
ByLayer
  9
$CECOLOR
 62
   256
  9
$CELTSCALE
 40
1.0
  9
$DISPSILH
 70
     0
  9
$DIMSCALE
 40
1.0
  9
$DIMASZ
 40
0.18
  9
$DIMEXO
 40
0.0625
  9
$DIMDLI
 40
0.38
  9
$DIMRND
 40
0.0
  9
$DIMDLE
 40
0.0
  9
$DIMEXE
 40
0.18
  9
$DIMTP
 40
0.0
  9
$DIMTM
 40
0.0
  9
$DIMTXT
 40
0.18
  9
$DIMCEN
 40
0.09
  9
$DIMTSZ
 40
0.0
  9
$DIMTOL
 70
     0
  9
$DIMLIM
 70
     0
  9
$DIMTIH
 70
     1
  9
$DIMTOH
 70
     1
  9
$DIMSE1
 70
     0
  9
$DIMSE2
 70
     0
  9
$DIMTAD
 70
     0
  9
$DIMZIN
 70
     0
  9
$DIMBLK
  1

  9
$DIMASO
 70
     1
  9
$DIMSHO
 70
     1
  9
$DIMPOST
  1

  9
$DIMAPOST
  1

  9
$DIMALT
 70
     0
  9
$DIMALTD
 70
     2
  9
$DIMALTF
 40
25.4
  9
$DIMLFAC
 40
1.0
  9
$DIMTOFL
 70
     0
  9
$DIMTVP
 40
0.0
  9
$DIMTIX
 70
     0
  9
$DIMSOXD
 70
     0
  9
$DIMSAH
 70
     0
  9
$DIMBLK1
  1

  9
$DIMBLK2
  1

  9
$DIMSTYLE
  2
STANDARD
  9
$DIMCLRD
 70
     0
  9
$DIMCLRE
 70
     0
  9
$DIMCLRT
 70
     0
  9
$DIMTFAC
 40
1.0
  9
$DIMGAP
 40
0.09
  9
$DIMJUST
 70
     0
  9
$DIMSD1
 70
     0
  9
$DIMSD2
 70
     0
  9
$DIMTOLJ
 70
     1
  9
$DIMTZIN
 70
     0
  9
$DIMALTZ
 70
     0
  9
$DIMALTTZ
 70
     0
  9
$DIMUPT
 70
     0
  9
$DIMDEC
 70
     4
  9
$DIMTDEC
 70
     4
  9
$DIMALTU
 70
     2
  9
$DIMALTTD
 70
     2
  9
$DIMTXSTY
  7
STANDARD
  9
$DIMAUNIT
 70
     0
  9
$DIMADEC
 70
     0
  9
$DIMALTRND
 40
0.0
  9
$DIMAZIN
 70
     0
  9
$DIMDSEP
 70
    46
  9
$DIMATFIT
 70
     3
  9
$DIMFRAC
 70
     0
  9
$DIMLDRBLK
  1

  9
$DIMLUNIT
 70
     2
  9
$DIMLWD
 70
    -2
  9
$DIMLWE
 70
    -2
  9
$DIMTMOVE
 70
     2
  9
$LUNITS
 70
     2
  9
$LUPREC
 70
     4
  9
$SKETCHINC
 40
0.1
  9
$FILLETRAD
 40
0.0
  9
$AUNITS
 70
     0
  9
$AUPREC
 70
     0
  9
$MENU
  1
c:\acad13nt\win\SUPPORT\ACAD
  9
$ELEVATION
 40
0.0
  9
$PELEVATION
 40
0.0
  9
$THICKNESS
 40
0.0
  9
$LIMCHECK
 70
     0
  9
$CHAMFERA
 40
0.0
  9
$CHAMFERB
 40
0.0
  9
$CHAMFERC
 40
0.0
  9
$CHAMFERD
 40
0.0
  9
$SKPOLY
 70
     0
  9
$TDCREATE
 40
2449623.385097569
  9
$TDUCREATE
 40
2449623.676764236
  9
$TDUPDATE
 40
2453013.680077314
  9
$TDUUPDATE
 40
2453013.971743981
  9
$TDINDWG
 40
1.2341508565
  9
$TDUSRTIMER
 40
1.2341508565
  9
$USRTIMER
 70
     1
  9
$ANGBASE
 50
0.0
  9
$ANGDIR
 70
     0
  9
$PDMODE
 70
     0
  9
$PDSIZE
 40
0.0
  9
$PLINEWID
 40
0.0
  9
$SPLFRAME
 70
     0
  9
$SPLINETYPE
 70
     6
  9
$SPLINESEGS
 70
     8
  9
$HANDSEED
  5
39DA
  9
$SURFTAB1
 70
     6
  9
$SURFTAB2
 70
     6
  9
$SURFTYPE
 70
     6
  9
$SURFU
 70
     6
  9
$SURFV
 70
     6
  9
$UCSBASE
  2

  9
$UCSNAME
  2

  9
$UCSORG
 10
0.0
 20
0.0
 30
0.0
  9
$UCSXDIR
 10
1.0
 20
0.0
 30
0.0
  9
$UCSYDIR
 10
0.0
 20
1.0
 30
0.0
  9
$UCSORTHOREF
  2

  9
$UCSORTHOVIEW
 70
     0
  9
$UCSORGTOP
 10
0.0
 20
0.0
 30
0.0
  9
$UCSORGBOTTOM
 10
0.0
 20
0.0
 30
0.0
  9
$UCSORGLEFT
 10
0.0
 20
0.0
 30
0.0
  9
$UCSORGRIGHT
 10
0.0
 20
0.0
 30
0.0
  9
$UCSORGFRONT
 10
0.0
 20
0.0
 30
0.0
  9
$UCSORGBACK
 10
0.0
 20
0.0
 30
0.0
  9
$PUCSBASE
  2

  9
$PUCSNAME
  2

  9
$PUCSORG
 10
0.0
 20
0.0
 30
0.0
  9
$PUCSXDIR
 10
1.0
 20
0.0
 30
0.0
  9
$PUCSYDIR
 10
0.0
 20
1.0
 30
0.0
  9
$PUCSORTHOREF
  2

  9
$PUCSORTHOVIEW
 70
     0
  9
$PUCSORGTOP
 10
0.0
 20
0.0
 30
0.0
  9
$PUCSORGBOTTOM
 10
0.0
 20
0.0
 30
0.0
  9
$PUCSORGLEFT
 10
0.0
 20
0.0
 30
0.0
  9
$PUCSORGRIGHT
 10
0.0
 20
0.0
 30
0.0
  9
$PUCSORGFRONT
 10
0.0
 20
0.0
 30
0.0
  9
$PUCSORGBACK
 10
0.0
 20
0.0
 30
0.0
  9
$USERI1
 70
     0
  9
$USERI2
 70
     0
  9
$USERI3
 70
     0
  9
$USERI4
 70
     0
  9
$USERI5
 70
     0
  9
$USERR1
 40
0.0
  9
$USERR2
 40
0.0
  9
$USERR3
 40
0.0
  9
$USERR4
 40
0.0
  9
$USERR5
 40
0.0
  9
$WORLDVIEW
 70
     1
  9
$SHADEDGE
 70
     3
  9
$SHADEDIF
 70
    70
  9
$TILEMODE
 70
     1
  9
$MAXACTVP
 70
    16
  9
$PINSBASE
 10
0.0
 20
0.0
 30
0.0
  9
$PLIMCHECK
 70
     0
  9
$PEXTMIN
 10
1.000000000000000E+20
 20
1.000000000000000E+20
 30
1.000000000000000E+20
  9
$PEXTMAX
 10
-1.000000000000000E+20
 20
-1.000000000000000E+20
 30
-1.000000000000000E+20
  9
$PLIMMIN
 10
0.0
 20
0.0
  9
$PLIMMAX
 10
12.0
 20
9.0
  9
$UNITMODE
 70
     0
  9
$VISRETAIN
 70
     0
  9
$PLINEGEN
 70
     1
  9
$PSLTSCALE
 70
     1
  9
$TREEDEPTH
 70
  3020
  9
$CMLSTYLE
  2
Standard
  9
$CMLJUST
 70
     0
  9
$CMLSCALE
 40
1.0
  9
$PROXYGRAPHICS
 70
     1
  9
$MEASUREMENT
 70
     0
  9
$CELWEIGHT
370
    -1
  9
$ENDCAPS
280
     0
  9
$JOINSTYLE
280
     0
  9
$LWDISPLAY
290
     0
  9
$INSUNITS
 70
     0
  9
$HYPERLINKBASE
  1

  9
$STYLESHEET
  1
OKIColorShaded.ctb
  9
$XEDIT
290
     1
  9
$CEPSNTYPE
380
     0
  9
$PSTYLEMODE
290
     1
  9
$FINGERPRINTGUID
  2
{5B365D9C-E8E0-495D-8DEE-BCB5FF41812B}
  9
$VERSIONGUID
  2
{5253D56C-8335-44C4-8E0E-9DB1957644B7}
  9
$EXTNAMES
290
     1
  9
$PSVPSCALE
 40
0.0
  9
$OLESTARTUP
290
     0
  0
ENDSEC
  0
SECTION
  2
CLASSES
  0
CLASS
  1
ACDBDICTIONARYWDFLT
  2
AcDbDictionaryWithDefault
  3
AutoCAD 2000
 90
        0
280
     0
281
     0
  0
CLASS
  1
ACDBPLACEHOLDER
  2
AcDbPlaceHolder
  3
AutoCAD 2000
 90
        0
280
     0
281
     0
  0
CLASS
  1
LAYOUT
  2
AcDbLayout
  3
AutoCAD 2000
 90
        0
280
     0
281
     0
  0
CLASS
  1
DICTIONARYVAR
  2
AcDbDictionaryVar
  3
AutoCAD 2000
 90
        0
280
     0
281
     0
  0
ENDSEC
  0
SECTION
  2
TABLES
  0
TABLE
  2
VPORT
  5
3946
330
0
100
AcDbSymbolTable
 70
     2
  0
VPORT
  5
39D9
330
3946
100
AcDbSymbolTableRecord
100
AcDbViewportTableRecord
  2
*Active
 70
     0
 10
0.0
 20
0.0
 11
1.0
 21
1.0
 12
-3.65628184250617
 22
6.315387878287292
 13
0.0
 23
0.0
 14
0.14
 24
0.14
 15
0.14
 25
0.14
 16
0.0
 26
0.0
 36
1.0
 17
0.0
 27
0.0
 37
0.0
 40
11.0080402377997
 41
1.505548705302096
 42
50.0
 43
0.0
 44
0.0
 50
0.0
 51
0.0
 71
     0
 72
 20000
 73
     1
 74
     1
 75
     0
 76
     0
 77
     0
 78
     0
281
     0
 65
     1
110
0.0
120
0.0
130
0.0
111
1.0
121
0.0
131
0.0
112
0.0
122
1.0
132
0.0
 79
     0
146
0.0
  0
ENDTAB
  0
TABLE
  2
LTYPE
  5
3943
330
0
100
AcDbSymbolTable
 70
     2
  0
LTYPE
  5
3951
330
3943
100
AcDbSymbolTableRecord
100
AcDbLinetypeTableRecord
  2
ByBlock
 70
     0
  3

 72
    65
 73
     0
 40
0.0
  0
LTYPE
  5
3952
330
3943
100
AcDbSymbolTableRecord
100
AcDbLinetypeTableRecord
  2
ByLayer
 70
     0
  3

 72
    65
 73
     0
 40
0.0
  0
LTYPE
  5
3953
330
3943
100
AcDbSymbolTableRecord
100
AcDbLinetypeTableRecord
  2
CONTINUOUS
 70
     0
  3
Solid line
 72
    65
 73
     0
 40
0.0
  0
LTYPE
  5
3964
330
3943
100
AcDbSymbolTableRecord
100
AcDbLinetypeTableRecord
  2
0
 70
     0
  3
Solid Line
 72
    65
 73
     0
 40
0.0
  0
ENDTAB
  0
TABLE
  2
LAYER
  5
3940
330
0
100
AcDbSymbolTable
 70
     6
  0
LAYER
  5
394E
330
3940
100
AcDbSymbolTableRecord
100
AcDbLayerTableRecord
  2
0
 70
     0
 62
     7
  6
CONTINUOUS
370
    -3
390
394D
  0
LAYER
  5
396B
330
3940
100
AcDbSymbolTableRecord
100
AcDbLayerTableRecord
  2
TEXT_BUBBLES
 70
     0
 62
     6
  6
CONTINUOUS
370
    -3
390
394D
  0
LAYER
  5
396C
330
3940
100
AcDbSymbolTableRecord
100
AcDbLayerTableRecord
  2
IMAGE
 70
     0
 62
     7
  6
CONTINUOUS
370
    -3
390
394D
  0
LAYER
  5
396F
330
3940
100
AcDbSymbolTableRecord
100
AcDbLayerTableRecord
  2
TEXT_LEADERS
 70
     0
 62
    -5
  6
CONTINUOUS
370
    -3
390
394D
  0
LAYER
  5
3971
330
3940
100
AcDbSymbolTableRecord
100
AcDbLayerTableRecord
  2
INSTRUCT-CALLOUT
 70
     0
 62
     4
  6
CONTINUOUS
370
    -3
390
394D
  0
LAYER
  5
3993
330
3940
100
AcDbSymbolTableRecord
100
AcDbLayerTableRecord
  2
TITLE
 70
     0
 62
     4
  6
CONTINUOUS
370
    -3
390
394D
  0
ENDTAB
  0
TABLE
  2
STYLE
  5
3941
330
0
100
AcDbSymbolTable
 70
     6
  0
STYLE
  5
394F
330
3941
100
AcDbSymbolTableRecord
100
AcDbTextStyleTableRecord
  2
STANDARD
 70
     0
 40
0.0
 41
1.0
 50
0.0
 71
     0
 42
0.2
  3
txt
  4

  0
STYLE
  5
3962
330
3941
100
AcDbSymbolTableRecord
100
AcDbTextStyleTableRecord
  2
ROMANS
 70
     0
 40
0.0
 41
1.0
 50
0.0
 71
     0
 42
0.1103
  3
romans.shx
  4

  0
STYLE
  5
3963
330
3941
100
AcDbSymbolTableRecord
100
AcDbTextStyleTableRecord
  2
SIMPLEX
 70
     0
 40
0.0
 41
1.0
 50
0.0
 71
     0
 42
0.2
  3
SIMPLEX
  4

  0
STYLE
  5
3994
330
3941
100
AcDbSymbolTableRecord
100
AcDbTextStyleTableRecord
  2
L100
 70
     0
 40
0.1
 41
1.0
 50
0.0
 71
     0
 42
0.1
  3
romans.shx
  4

  0
STYLE
  5
3995
330
3941
100
AcDbSymbolTableRecord
100
AcDbTextStyleTableRecord
  2
L200
 70
     0
 40
0.2
 41
1.0
 50
0.0
 71
     0
 42
0.081
  3
ARIAL.TTF
  4

1001
ACAD
1000
Arial
1071
       34
  0
STYLE
  5
3996
330
3941
100
AcDbSymbolTableRecord
100
AcDbTextStyleTableRecord
  2
L80
 70
     0
 40
0.08
 41
1.0
 50
0.0
 71
     0
 42
0.08
  3
ROMANS
  4

  0
ENDTAB
  0
TABLE
  2
VIEW
  5
3944
330
0
100
AcDbSymbolTable
 70
     0
  0
ENDTAB
  0
TABLE
  2
UCS
  5
3945
330
0
100
AcDbSymbolTable
 70
     0
  0
ENDTAB
  0
TABLE
  2
APPID
  5
3947
330
0
100
AcDbSymbolTable
 70
     3
  0
APPID
  5
3950
330
3947
100
AcDbSymbolTableRecord
100
AcDbRegAppTableRecord
  2
ACAD
 70
     0
  0
APPID
  5
3966
330
3947
100
AcDbSymbolTableRecord
100
AcDbRegAppTableRecord
  2
RAK
 70
     0
  0
APPID
  5
3967
330
3947
100
AcDbSymbolTableRecord
100
AcDbRegAppTableRecord
  2
ABNSLEADERTOOLS
 70
     0
  0
ENDTAB
  0
TABLE
  2
DIMSTYLE
  5
3948
330
0
100
AcDbSymbolTable
 70
     1
100
AcDbDimStyleTable
 71
     0
  0
DIMSTYLE
105
3968
330
3948
100
AcDbSymbolTableRecord
100
AcDbDimStyleTableRecord
  2
STANDARD
 70
     0
279
     2
340
394F
  0
ENDTAB
  0
TABLE
  2
BLOCK_RECORD
  5
393F
330
0
100
AcDbSymbolTable
 70
     1
  0
BLOCK_RECORD
  5
395C
330
393F
100
AcDbSymbolTableRecord
100
AcDbBlockTableRecord
  2
*Model_Space
340
395F
  0
BLOCK_RECORD
  5
3958
330
393F
100
AcDbSymbolTableRecord
100
AcDbBlockTableRecord
  2
*Paper_Space
340
395B
  0
BLOCK_RECORD
  5
3986
330
393F
100
AcDbSymbolTableRecord
100
AcDbBlockTableRecord
  2
TITLBLK
340
0
102
{BLKREFS
331
3997
102
}
  0
ENDTAB
  0
ENDSEC
  0
SECTION
  2
BLOCKS
  0
BLOCK
  5
3976
330
395C
100
AcDbEntity
  8
0
100
AcDbBlockBegin
  2
*Model_Space
 70
     0
 10
0.0
 20
0.0
 30
0.0
  3
*Model_Space
  1

  0
ENDBLK
  5
3977
330
395C
100
AcDbEntity
  8
0
100
AcDbBlockEnd
  0
BLOCK
  5
3974
330
3958
100
AcDbEntity
 67
     1
  8
0
100
AcDbBlockBegin
  2
*Paper_Space
 70
     0
 10
0.0
 20
0.0
 30
0.0
  3
*Paper_Space
  1

  0
ENDBLK
  5
3975
330
3958
100
AcDbEntity
 67
     1
  8
0
100
AcDbBlockEnd
  0
BLOCK
  5
3991
330
3986
100
AcDbEntity
  8
0
100
AcDbBlockBegin
  2
TITLBLK
 70
     2
 10
0.0
 20
0.0
 30
0.0
  3
TITLBLK
  1

  0
LWPOLYLINE
  5
3987
330
3986
100
AcDbEntity
  8
TITLE
 62
     3
100
AcDbPolyline
 90
        2
 70
     0
 43
0.04
 39
0.03
 10
0.3424999999999994
 20
-0.0000000000000003
 10
7.654581983261419
 20
-0.0000000000000003
  0
ATTDEF
  5
3988
330
3986
100
AcDbEntity
  8
TITLE
100
AcDbText
 10
0.625
 20
0.0999999999999998
 30
0.0
 40
0.2
  1
TITLE
  7
L200
100
AcDbAttributeDefinition
  3
DETAIL TITLE TOP 2ND LINE
  2
TITLE2
 70
     0
  0
LWPOLYLINE
  5
3989
330
3986
100
AcDbEntity
  8
TITLE
 62
     3
100
AcDbPolyline
 90
        2
 70
     1
 43
0.03
 10
0.0
 20
-0.3425000000000002
 42
0.9999999999999998
 10
0.0
 20
0.3425000000000002
 42
0.9999999999999998
  0
ATTDEF
  5
398A
330
3986
100
AcDbEntity
  8
TITLE
100
AcDbText
 10
-0.0776944065484311
 20
-0.1000000000000003
 30
0.0
 40
0.2
  1
#
  7
L200
 72
     4
 11
0.0
 21
-0.0000000000000003
 31
0.0
100
AcDbAttributeDefinition
  3
#
  2
#
 70
     0
  0
ATTDEF
  5
398B
330
3986
100
AcDbEntity
  8
TITLE
 62
     7
100
AcDbText
 10
0.625
 20
-0.1836633170828782
 30
0.0
 40
0.1
  1
N.T.S.
  7
L100
100
AcDbAttributeDefinition
  3
SCALE
  2
SCALE
 70
     0
  0
ATTDEF
  5
398C
330
3986
100
AcDbEntity
  8
TITLE
100
AcDbText
 10
2.107203380653828
 20
-0.2914343300200487
 30
0.0
 40
0.2
  1
TITLE2
  7
L200
100
AcDbAttributeDefinition
  3
DETAIL TITLE BOTTOM 1
  2
TITLE3
 70
     0
  0
ATTDEF
  5
398D
330
3986
100
AcDbEntity
  8
TITLE
 62
     7
100
AcDbText
 10
7.570772459451895
 20
-0.1618486459795794
 30
0.0
 40
0.08
  1
-
  7
L80
 72
     2
 11
7.654581983261419
 21
-0.1618486459795794
 31
0.0
100
AcDbAttributeDefinition
  3
DWG-NAME
  2
DWG-NAME
 70
     0
  0
ATTDEF
  5
398E
330
3986
100
AcDbEntity
  8
TITLE
 62
     7
100
AcDbText
 10
7.570772459451895
 20
0.0853756950662722
 30
0.0
 40
0.08
  1
-
  7
L80
 72
     2
 11
7.654581983261419
 21
0.0853756950662722
 31
0.0
100
AcDbAttributeDefinition
  3
REVISION DATE
  2
REVISED
 70
     0
  0
ATTDEF
  5
398F
330
3986
100
AcDbEntity
  8
TITLE
100
AcDbText
 10
0.625
 20
0.459485206268383
 30
0.0
 40
0.2
  1
TITLE
  7
L200
100
AcDbAttributeDefinition
  3
DETAIL TITLE TOP LINE
  2
TITLE1
 70
     0
  0
ATTDEF
  5
3990
330
3986
100
AcDbEntity
  8
TITLE
100
AcDbText
 10
2.107203380653828
 20
-0.6149710156615936
 30
0.0
 40
0.2
  1
TITLE2
  7
L200
100
AcDbAttributeDefinition
  3
DETAIL TITLE BOTTOM 2
  2
TITLE4
 70
     0
  0
ENDBLK
  5
3992
330
3986
100
AcDbEntity
  8
0
100
AcDbBlockEnd
  0
ENDSEC
  0
SECTION
  2
ENTITIES
  0
TEXT
  5
C2
330
395C
100
AcDbEntity
  8
TEXT_BUBBLES
100
AcDbText
 10
5.73545314889218
 20
7.411373466191943
 30
0.0
 40
0.1250000018625
  1

  7
ROMANS
100
AcDbText
  0
TEXT
  5
C3
330
395C
100
AcDbEntity
  8
TEXT_BUBBLES
100
AcDbText
 10
5.73545314889218
 20
4.693796247183193
 30
0.0
 40
0.1250000018625
  1

  7
ROMANS
100
AcDbText
  0
TEXT
  5
C4
330
395C
100
AcDbEntity
  8
TEXT_BUBBLES
100
AcDbText
 10
5.73545314889218
 20
7.023148149190693
 30
0.0
 40
0.1250000018625
  1

  7
ROMANS
100
AcDbText
  0
TEXT
  5
C5
330
395C
100
AcDbEntity
  8
TEXT_BUBBLES
100
AcDbText
 10
21.12887382507374
 20
1.79238915443375
 30
0.0
 40
0.1250000018625
  1

  7
ROMANS
100
AcDbText
  0
TEXT
  5
C6
330
395C
100
AcDbEntity
  8
TEXT_BUBBLES
100
AcDbText
 10
21.12887382507374
 20
1.210015416145
 30
0.0
 40
0.1250000018625
  1

  7
ROMANS
100
AcDbText
  0
TEXT
  5
C7
330
395C
100
AcDbEntity
  8
TEXT_BUBBLES
100
AcDbText
 10
21.12887382507374
 20
1.404139995575
 30
0.0
 40
0.1250000018625
  1

  7
ROMANS
100
AcDbText
  0
TEXT
  5
C8
330
395C
100
AcDbEntity
  8
TEXT_BUBBLES
100
AcDbText
 10
21.12887382507374
 20
2.18063831329375
 30
0.0
 40
0.1250000018625
  1

  7
ROMANS
100
AcDbText
  0
TEXT
  5
C9
330
395C
100
AcDbEntity
  8
TEXT_BUBBLES
100
AcDbText
 10
21.12887382507374
 20
3.15126121044125
 30
0.0
 40
0.1250000018625
  1

  7
ROMANS
100
AcDbText
  0
TEXT
  5
CA
330
395C
100
AcDbEntity
  8
TEXT_BUBBLES
100
AcDbText
 10
21.12887382507374
 20
3.73363494873
 30
0.0
 40
0.1250000018625
  1

  7
ROMANS
100
AcDbText
  0
TEXT
  5
CB
330
395C
100
AcDbEntity
  8
TEXT_BUBBLES
100
AcDbText
 10
21.12887382507374
 20
3.539510369301249
 30
0.0
 40
0.1250000018625
  1

  7
ROMANS
100
AcDbText
  0
TEXT
  5
CC
330
395C
100
AcDbEntity
  8
TEXT_BUBBLES
100
AcDbText
 10
5.73545314889218
 20
3.917345613179443
 30
0.0
 40
0.1250000018625
  1

  7
ROMANS
100
AcDbText
  0
TEXT
  5
CD
330
395C
100
AcDbEntity
  8
TEXT_BUBBLES
100
AcDbText
 10
21.12887382507374
 20
2.7630120515825
 30
0.0
 40
0.1250000018625
  1

  7
ROMANS
100
AcDbText
  0
TEXT
  5
CE
330
395C
100
AcDbEntity
  8
TEXT_BUBBLES
100
AcDbText
 10
21.12887382507374
 20
2.5688874721525
 30
0.0
 40
0.1250000018625
  1

  7
ROMANS
100
AcDbText
  0
TEXT
  5
CF
330
395C
100
AcDbEntity
  8
TEXT_BUBBLES
100
AcDbText
 10
5.73545314889218
 20
6.052584856686943
 30
0.0
 40
0.1250000018625
  1

  7
ROMANS
100
AcDbText
  0
TEXT
  5
D0
330
395C
100
AcDbEntity
  8
TEXT_BUBBLES
100
AcDbText
 10
5.73545314889218
 20
7.993711441694443
 30
0.0
 40
0.1250000018625
  1

  7
ROMANS
100
AcDbText
  0
TEXT
  5
D1
330
395C
100
AcDbEntity
  8
TEXT_BUBBLES
100
AcDbText
 10
5.73545314889218
 20
6.440810173688193
 30
0.0
 40
0.1250000018625
  1

  7
ROMANS
100
AcDbText
  0
TEXT
  5
D2
330
395C
100
AcDbEntity
  8
TEXT_BUBBLES
100
AcDbText
 10
5.73545314889218
 20
5.082021564184443
 30
0.0
 40
0.1250000018625
  1

  7
ROMANS
100
AcDbText
  0
TEXT
  5
D3
330
395C
100
AcDbEntity
  8
TEXT_BUBBLES
100
AcDbText
 10
5.73545314889218
 20
4.305570930181944
 30
0.0
 40
0.1250000018625
  1

  7
ROMANS
100
AcDbText
  0
CIRCLE
  5
10DB
330
395C
100
AcDbEntity
  8
TEXT_BUBBLES
100
AcDbCircle
 10
-5.031421163929497
 20
7.811449803653788
 30
0.0
 40
0.1562887347020049
  0
TEXT
  5
10DC
330
395C
100
AcDbEntity
  8
TEXT_BUBBLES
100
AcDbText
 10
-5.082028944690146
 20
7.748934309772986
 30
0.0
 40
0.1250309877616039
  1
1
  7
ROMANS
 72
     4
 11
-5.031421163929497
 21
7.811449803653788
 31
0.0
100
AcDbText
  0
TEXT
  5
110B
330
395C
100
AcDbEntity
  8
TEXT_BUBBLES
100
AcDbText
 10
5.73545314889218
 20
7.411373466191943
 30
0.0
 40
0.1250000018625
  1

  7
ROMANS
100
AcDbText
  0
TEXT
  5
110C
330
395C
100
AcDbEntity
  8
TEXT_BUBBLES
100
AcDbText
 10
5.73545314889218
 20
4.693796247183193
 30
0.0
 40
0.1250000018625
  1

  7
ROMANS
100
AcDbText
  0
TEXT
  5
110D
330
395C
100
AcDbEntity
  8
TEXT_BUBBLES
100
AcDbText
 10
5.73545314889218
 20
7.023148149190693
 30
0.0
 40
0.1250000018625
  1

  7
ROMANS
100
AcDbText
  0
TEXT
  5
110E
330
395C
100
AcDbEntity
  8
TEXT_BUBBLES
100
AcDbText
 10
21.12887382507374
 20
1.79238915443375
 30
0.0
 40
0.1250000018625
  1

  7
ROMANS
100
AcDbText
  0
TEXT
  5
110F
330
395C
100
AcDbEntity
  8
TEXT_BUBBLES
100
AcDbText
 10
21.12887382507374
 20
1.210015416145
 30
0.0
 40
0.1250000018625
  1

  7
ROMANS
100
AcDbText
  0
TEXT
  5
1110
330
395C
100
AcDbEntity
  8
TEXT_BUBBLES
100
AcDbText
 10
21.12887382507374
 20
1.404139995575
 30
0.0
 40
0.1250000018625
  1

  7
ROMANS
100
AcDbText
  0
TEXT
  5
1111
330
395C
100
AcDbEntity
  8
TEXT_BUBBLES
100
AcDbText
 10
21.12887382507374
 20
2.18063831329375
 30
0.0
 40
0.1250000018625
  1

  7
ROMANS
100
AcDbText
  0
TEXT
  5
1112
330
395C
100
AcDbEntity
  8
TEXT_BUBBLES
100
AcDbText
 10
21.12887382507374
 20
3.15126121044125
 30
0.0
 40
0.1250000018625
  1

  7
ROMANS
100
AcDbText
  0
TEXT
  5
1113
330
395C
100
AcDbEntity
  8
TEXT_BUBBLES
100
AcDbText
 10
21.12887382507374
 20
3.73363494873
 30
0.0
 40
0.1250000018625
  1

  7
ROMANS
100
AcDbText
  0
TEXT
  5
1114
330
395C
100
AcDbEntity
  8
TEXT_BUBBLES
100
AcDbText
 10
21.12887382507374
 20
3.539510369301249
 30
0.0
 40
0.1250000018625
  1

  7
ROMANS
100
AcDbText
  0
TEXT
  5
1115
330
395C
100
AcDbEntity
  8
TEXT_BUBBLES
100
AcDbText
 10
5.73545314889218
 20
3.917345613179443
 30
0.0
 40
0.1250000018625
  1

  7
ROMANS
100
AcDbText
  0
TEXT
  5
1116
330
395C
100
AcDbEntity
  8
TEXT_BUBBLES
100
AcDbText
 10
21.12887382507374
 20
2.7630120515825
 30
0.0
 40
0.1250000018625
  1

  7
ROMANS
100
AcDbText
  0
TEXT
  5
1117
330
395C
100
AcDbEntity
  8
TEXT_BUBBLES
100
AcDbText
 10
21.12887382507374
 20
2.5688874721525
 30
0.0
 40
0.1250000018625
  1

  7
ROMANS
100
AcDbText
  0
TEXT
  5
1118
330
395C
100
AcDbEntity
  8
TEXT_BUBBLES
100
AcDbText
 10
5.73545314889218
 20
6.052584856686943
 30
0.0
 40
0.1250000018625
  1

  7
ROMANS
100
AcDbText
  0
TEXT
  5
1119
330
395C
100
AcDbEntity
  8
TEXT_BUBBLES
100
AcDbText
 10
5.73545314889218
 20
7.993711441694443
 30
0.0
 40
0.1250000018625
  1

  7
ROMANS
100
AcDbText
  0
TEXT
  5
111A
330
395C
100
AcDbEntity
  8
TEXT_BUBBLES
100
AcDbText
 10
5.73545314889218
 20
6.440810173688193
 30
0.0
 40
0.1250000018625
  1

  7
ROMANS
100
AcDbText
  0
TEXT
  5
111B
330
395C
100
AcDbEntity
  8
TEXT_BUBBLES
100
AcDbText
 10
5.73545314889218
 20
5.082021564184443
 30
0.0
 40
0.1250000018625
  1

  7
ROMANS
100
AcDbText
  0
TEXT
  5
111C
330
395C
100
AcDbEntity
  8
TEXT_BUBBLES
100
AcDbText
 10
5.73545314889218
 20
4.305570930181944
 30
0.0
 40
0.1250000018625
  1

  7
ROMANS
100
AcDbText
  0
TEXT
  5
111D
330
395C
100
AcDbEntity
  8
TEXT_LEADERS
100
AcDbText
 10
6.05239987373375
 20
5.673787593841249
 30
0.0
 40
0.1250000018625
  1

  7
SIMPLEX
100
AcDbText
  0
TEXT
  5
111E
330
395C
100
AcDbEntity
  8
TEXT_BUBBLES
100
AcDbText
 10
10.30274987220749
 20
0.13391179964
 30
0.0
 40
0.1250000018625
  1

  7
SIMPLEX
100
AcDbText
  0
TEXT
  5
111F
330
395C
100
AcDbEntity
  8
TEXT_BUBBLES
100
AcDbText
 10
10.30274987220749
 20
1.175578609108749
 30
0.0
 40
0.1250000018625
  1

  7
SIMPLEX
100
AcDbText
  0
TEXT
  5
1120
330
395C
100
AcDbEntity
  8
TEXT_BUBBLES
100
AcDbText
 10
10.30274987220749
 20
0.7589118927712501
 30
0.0
 40
0.1250000018625
  1

  7
SIMPLEX
100
AcDbText
  0
TEXT
  5
1121
330
395C
100
AcDbEntity
  8
TEXT_BUBBLES
100
AcDbText
 10
10.30274987220749
 20
-1.949422061443749
 30
0.0
 40
0.1250000018625
  1

  7
SIMPLEX
100
AcDbText
  0
TEXT
  5
1122
330
395C
100
AcDbEntity
  8
TEXT_BUBBLES
100
AcDbText
 10
10.30274987220749
 20
-1.532755196095
 30
0.0
 40
0.1250000018625
  1

  7
SIMPLEX
100
AcDbText
  0
TEXT
  5
1123
330
395C
100
AcDbEntity
  8
TEXT_BUBBLES
100
AcDbText
 10
10.30274987220749
 20
1.800578832626249
 30
0.0
 40
0.1250000018625
  1

  7
SIMPLEX
100
AcDbText
  0
LWPOLYLINE
  5
1126
330
395C
100
AcDbEntity
  8
INSTRUCT-CALLOUT
100
AcDbPolyline
 90
        4
 70
     1
 43
0.0
 10
-1.555336654449935
 20
11.0939223905816
 10
-1.555336654449935
 20
9.377834604650219
 10
4.256867191999742
 20
9.377834604650219
 10
4.256867191999742
 20
11.0939223905816
  0
TEXT
  5
112C
330
395C
100
AcDbEntity
  8
INSTRUCT-CALLOUT
100
AcDbText
 10
-0.7274838079273396
 20
11.14543463631058
 30
0.0
 40
0.1250000018625
  1
CHOOSING EQUIPMENT CALLOUT METHOD
  7
ROMANS
100
AcDbText
  0
TEXT
  5
112D
330
395C
100
AcDbEntity
  8
INSTRUCT-CALLOUT
100
AcDbText
 10
-1.018421019235741
 20
10.90245335876032
 30
0.0
 40
0.1250000018625
  1
CHOOSE EITHER LEADERS OR BUBBLE CALLOUTS
  7
ROMANS
100
AcDbText
  0
TEXT
  5
112E
330
395C
100
AcDbEntity
  8
INSTRUCT-CALLOUT
100
AcDbText
 10
-1.018421019235741
 20
10.70007830440157
 30
0.0
 40
0.1250000018625
  1
BY TURNING ON THE APPROPRIATE LAYER:
  7
ROMANS
100
AcDbText
  0
TEXT
  5
112F
330
395C
100
AcDbEntity
  8
INSTRUCT-CALLOUT
100
AcDbText
 10
-0.4729913539072106
 20
10.27880668630759
 30
0.0
 40
0.1250000018625
  1
TEXT_LEADERS         TEXT_BUBBLES
  7
ROMANS
100
AcDbText
  0
LINE
  5
1130
330
395C
100
AcDbEntity
  8
INSTRUCT-CALLOUT
100
AcDbLine
 10
-0.2407881620828749
 20
9.849816766557191
 30
0.0
 11
-0.0278685591787769
 21
9.849816766557189
 31
0.0
  0
LINE
  5
1131
330
395C
100
AcDbEntity
  8
INSTRUCT-CALLOUT
100
AcDbLine
 10
-0.6904294347052602
 20
9.662704732484877
 30
0.0
 11
-0.2407881620828749
 21
9.849816766557191
 31
0.0
  0
SOLID
  5
1132
330
395C
100
AcDbEntity
  8
INSTRUCT-CALLOUT
100
AcDbTrace
 10
-0.5570138135484948
 20
9.667452116644076
 30
0.0
 11
-0.5930323836918304
 21
9.754006868707898
 31
0.0
 12
-0.8346873548116304
 22
9.602673782245989
 32
0.0
 13
-0.8346873548116304
 23
9.602673782245989
 33
0.0
  0
TEXT
  5
1133
330
395C
100
AcDbEntity
  8
INSTRUCT-CALLOUT
100
AcDbText
 10
0.0127169674104897
 20
9.748643939379222
 30
0.0
 40
0.156250002328125
  1
ITEM 1
  7
ROMANS
100
AcDbText
  0
SOLID
  5
1134
330
395C
100
AcDbEntity
  8
INSTRUCT-CALLOUT
100
AcDbTrace
 10
2.790594511528726
 20
9.688430295630634
 30
0.0
 11
2.815285595363632
 21
9.597990189045905
 31
0.0
 12
2.53161973369198
 22
9.569136990833559
 32
0.0
 13
2.53161973369198
 23
9.569136990833559
 33
0.0
  0
LINE
  5
1135
330
395C
100
AcDbEntity
  8
INSTRUCT-CALLOUT
100
AcDbLine
 10
2.682353244666535
 20
9.610288797225065
 30
0.0
 11
3.082167958611609
 21
9.719442346388532
 31
0.0
  0
TEXT
  5
1136
330
395C
100
AcDbEntity
  8
INSTRUCT-CALLOUT
100
AcDbText
 10
3.207340799710752
 20
9.692757104377914
 30
0.0
 40
0.15625
  1
1
  7
ROMANS
 72
     4
 11
3.270584847329799
 21
9.770882104377914
 31
0.0
100
AcDbText
  0
CIRCLE
  5
1137
330
395C
100
AcDbEntity
  8
INSTRUCT-CALLOUT
100
AcDbCircle
 10
3.270584847329799
 20
9.770882104377914
 30
0.0
 40
0.1953125
  0
TEXT
  5
1138
330
395C
100
AcDbEntity
  8
INSTRUCT-CALLOUT
100
AcDbText
 10
-1.091940148833502
 20
8.877741607126448
 30
0.0
 40
0.1250000018625
  1
LAYER "INSTRUCT-CALLOUT".
  7
ROMANS
100
AcDbText
  0
TEXT
  5
1139
330
395C
100
AcDbEntity
  8
INSTRUCT-CALLOUT
100
AcDbText
 10
-1.091940148833502
 20
9.080116661486448
 30
0.0
 40
0.1250000018625
  1
TO TURN OFF THIS INSTRUCTION BOX, TURN OFF
  7
ROMANS
100
AcDbText
  0
TEXT
  5
11AC
330
395C
100
AcDbEntity
  8
TEXT_BUBBLES
100
AcDbText
 10
0.374157011509
 20
0.8800902366639999
 30
0.0
 40
0.125
  1

  7
ROMANS
100
AcDbText
  0
TEXT
  5
11AD
330
395C
100
AcDbEntity
  8
TEXT_BUBBLES
100
AcDbText
 10
0.374157011509
 20
1.284850120543999
 30
0.0
 40
0.125
  1

  7
ROMANS
100
AcDbText
  0
TEXT
  5
11AE
330
395C
100
AcDbEntity
  8
TEXT_BUBBLES
100
AcDbText
 10
0.374157011509
 20
1.082470178604
 30
0.0
 40
0.125
  1

  7
ROMANS
100
AcDbText
  0
TEXT
  5
11AF
330
395C
100
AcDbEntity
  8
TEXT_BUBBLES
100
AcDbText
 10
0.144923001528
 20
1.415030121802999
 30
0.0
 40
0.125
  1

  7
ROMANS
100
AcDbText
  0
TEXT
  5
11B8
330
395C
100
AcDbEntity
  8
TEXT_BUBBLES
100
AcDbText
 10
0.144923001528
 20
1.123830199241999
 30
0.0
 40
0.125
  1

  7
ROMANS
100
AcDbText
  0
TEXT
  5
11B9
330
395C
100
AcDbEntity
  8
TEXT_BUBBLES
100
AcDbText
 10
0.144923001528
 20
0.9782302379609999
 30
0.0
 40
0.125
  1

  7
ROMANS
100
AcDbText
  0
TEXT
  5
11BA
330
395C
100
AcDbEntity
  8
TEXT_BUBBLES
100
AcDbText
 10
0.144923001528
 20
0.8326302766799999
 30
0.0
 40
0.125
  1

  7
ROMANS
100
AcDbText
  0
TEXT
  5
11CA
330
395C
100
AcDbEntity
  8
TEXT_BUBBLES
100
AcDbText
 10
0.144923001528
 20
1.706230044365
 30
0.0
 40
0.125
  1

  7
ROMANS
100
AcDbText
  0
TEXT
  5
11CE
330
395C
100
AcDbEntity
  8
TEXT_BUBBLES
100
AcDbText
 10
0.144923001528
 20
0.687030315399
 30
0.0
 40
0.125
  1

  7
ROMANS
100
AcDbText
  0
TEXT
  5
11CF
330
395C
100
AcDbEntity
  8
TEXT_BUBBLES
100
AcDbText
 10
0.144923001528
 20
0.395830392838
 30
0.0
 40
0.125
  1

  7
ROMANS
100
AcDbText
  0
TEXT
  5
29B5
330
395C
100
AcDbEntity
  8
TEXT_BUBBLES
100
AcDbText
 10
-4.823364992020034
 20
7.378046727143747
 30
0.0
 40
0.1250000018625
  1
RAIN SENSOR: RAIN BIRD RSD-BEx
  7
ROMANS
100
AcDbText
  0
LWPOLYLINE
  5
2DAF
330
395C
100
AcDbEntity
  8
IMAGE
100
AcDbPolyline
 90
        2
 70
     0
 43
0.0
 10
-7.779651685084902
 20
7.350026732294121
 10
-11.51581110234892
 20
9.507099377586857
  0
LWPOLYLINE
  5
2DB0
330
395C
100
AcDbEntity
  8
IMAGE
100
AcDbPolyline
 90
        2
 70
     0
 43
0.0
 10
-7.857776685084902
 20
7.214710262952804
 10
-11.51581110234892
 20
9.326677418465099
  0
LWPOLYLINE
  5
2DB1
330
395C
100
AcDbEntity
  8
IMAGE
100
AcDbPolyline
 90
        2
 70
     0
 43
0.0
 10
-8.888726093108857
 20
6.366553508222255
 10
-11.51581110234892
 20
7.883301745491033
  0
LWPOLYLINE
  5
2DB2
330
395C
100
AcDbEntity
  8
IMAGE
100
AcDbPolyline
 90
        3
 70
     0
 43
0.0
 10
-7.857776685084902
 20
7.214710262952804
 10
-7.857776685084902
 20
7.214710262952804
 10
-7.779651685084902
 20
7.350026732294121
  0
LWPOLYLINE
  5
2DB3
330
395C
100
AcDbEntity
  8
IMAGE
100
AcDbPolyline
 90
        2
 70
     0
 43
0.0
 10
-8.84200138909688
 20
5.978733069539617
 10
-8.342396030770347
 20
6.844074933894827
  0
LWPOLYLINE
  5
2DB4
330
395C
100
AcDbEntity
  8
IMAGE
100
AcDbPolyline
 90
        2
 70
     0
 43
0.0
 10
-9.044976093108857
 20
6.095920569539617
 10
-8.263726093108857
 20
7.449085262952802
  0
LWPOLYLINE
  5
2DB5
330
395C
100
AcDbEntity
  8
IMAGE
100
AcDbPolyline
 90
        2
 70
     0
 43
0.0
 10
-8.84200138909688
 20
5.978733069539617
 10
-9.044976093108857
 20
6.095920569539617
  0
LWPOLYLINE
  5
2DB6
330
395C
100
AcDbEntity
  8
IMAGE
100
AcDbPolyline
 90
        2
 70
     0
 43
0.0
 10
-10.3095490211927
 20
7.186866008222253
 10
-10.3095490211927
 20
3.200484530960503
  0
LWPOLYLINE
  5
2DE1
330
395C
100
AcDbEntity
  8
IMAGE
100
AcDbPolyline
 90
        2
 70
     0
 43
0.0
 10
-6.479700665706089
 20
7.145103320296493
 10
-7.358696141538834
 20
7.145103320296493
  0
ARC
  5
2DE2
330
395C
100
AcDbEntity
  8
IMAGE
100
AcDbCircle
 10
-6.531522928055393
 20
7.066978320296493
 30
0.0
 40
0.09375
100
AcDbArc
 50
303.5573097619207
 51
56.4426902380793
  0
CIRCLE
  5
2DE3
330
395C
100
AcDbEntity
  8
IMAGE
100
AcDbCircle
 10
-6.531522928055393
 20
7.066978320296493
 30
0.0
 40
0.0375
  0
LWPOLYLINE
  5
2DE4
330
395C
100
AcDbEntity
  8
IMAGE
100
AcDbPolyline
 90
       14
 70
     1
 43
0.0
 10
-6.55544189421418
 20
7.06641196542265
 10
-6.553636845544328
 20
7.076111356661299
 10
-6.535463535066517
 20
7.072729318644928
 10
-6.535463535066517
 20
7.072729318644928
 10
-6.532056885141339
 20
7.090898031619556
 10
-6.522359947664879
 20
7.089079847173867
 10
-6.525764134930795
 20
7.070924268319339
 10
-6.507603961896606
 20
7.067544675170337
 10
-6.50940901056646
 20
7.057845283931688
 10
-6.527582321044269
 20
7.061227321948059
 10
-6.527582321044269
 20
7.061227321948059
 10
-6.530988970969446
 20
7.04305860897343
 10
-6.540685908445906
 20
7.04487679341912
 10
-6.53728172117999
 20
7.063032372273648
  0
LWPOLYLINE
  5
2DE5
330
395C
100
AcDbEntity
  8
IMAGE
100
AcDbPolyline
 90
        2
 70
     0
 43
0.0
 10
-6.79264020101592
 20
7.145103320296493
 10
-6.79264020101592
 20
6.988853320296493
  0
LWPOLYLINE
  5
2DE6
330
395C
100
AcDbEntity
  8
IMAGE
100
AcDbPolyline
 90
        2
 70
     0
 43
0.0
 10
-6.847968404119322
 20
7.145103320296493
 10
-6.847968404119322
 20
6.988853320296493
  0
LWPOLYLINE
  5
2DE7
330
395C
100
AcDbEntity
  8
IMAGE
100
AcDbPolyline
 90
        2
 70
     0
 43
0.0
 10
-6.908829402177405
 20
7.145103320296493
 10
-6.908829402177405
 20
6.988853320296493
  0
LWPOLYLINE
  5
2DE8
330
395C
100
AcDbEntity
  8
IMAGE
100
AcDbPolyline
 90
        2
 70
     0
 43
0.0
 10
-6.95862477863155
 20
7.145103320296493
 10
-6.95862477863155
 20
6.988853320296493
  0
LWPOLYLINE
  5
2DE9
330
395C
100
AcDbEntity
  8
IMAGE
100
AcDbPolyline
 90
        2
 70
     0
 43
0.0
 10
-6.980756053533994
 20
7.145103320296493
 10
-6.980756053533994
 20
6.988853320296493
  0
LWPOLYLINE
  5
2DEA
330
395C
100
AcDbEntity
  8
IMAGE
100
AcDbPolyline
 90
        2
 70
     0
 43
0.0
 10
-6.991821675137927
 20
7.145103320296493
 10
-6.991821675137927
 20
6.988853320296493
  0
LWPOLYLINE
  5
2DEB
330
395C
100
AcDbEntity
  8
IMAGE
100
AcDbPolyline
 90
        2
 70
     0
 43
0.0
 10
-7.002887328436438
 20
7.145103320296493
 10
-7.002887328436438
 20
6.988853320296493
  0
LWPOLYLINE
  5
2DEC
330
395C
100
AcDbEntity
  8
IMAGE
100
AcDbPolyline
 90
        2
 70
     0
 43
0.0
 10
-7.013952950040376
 20
7.145103320296493
 10
-7.013952950040376
 20
6.988853320296493
  0
LWPOLYLINE
  5
2DED
330
395C
100
AcDbEntity
  8
IMAGE
100
AcDbPolyline
 90
        2
 70
     0
 43
0.0
 10
-7.025018571644315
 20
7.145103320296493
 10
-7.025018571644315
 20
6.988853320296493
  0
LWPOLYLINE
  5
2DEE
330
395C
100
AcDbEntity
  8
IMAGE
100
AcDbPolyline
 90
        2
 70
     0
 43
0.0
 10
-7.036084193248253
 20
7.145103320296493
 10
-7.036084193248253
 20
6.988853320296493
  0
LWPOLYLINE
  5
2DEF
330
395C
100
AcDbEntity
  8
IMAGE
100
AcDbPolyline
 90
        2
 70
     0
 43
0.0
 10
-6.713785242624091
 20
7.145103320296493
 10
-6.713785242624091
 20
6.988853320296493
  0
LWPOLYLINE
  5
2DF0
330
395C
100
AcDbEntity
  8
IMAGE
100
AcDbPolyline
 90
        2
 70
     0
 43
0.0
 10
-6.724850864228024
 20
7.145103320296493
 10
-6.724850864228024
 20
6.988853320296493
  0
LWPOLYLINE
  5
2DF1
330
395C
100
AcDbEntity
  8
IMAGE
100
AcDbPolyline
 90
        2
 70
     0
 43
0.0
 10
-6.735916517526534
 20
7.145103320296493
 10
-6.735916517526534
 20
6.988853320296493
  0
LWPOLYLINE
  5
2DF2
330
395C
100
AcDbEntity
  8
IMAGE
100
AcDbPolyline
 90
        2
 70
     0
 43
0.0
 10
-6.746982139130473
 20
7.145103320296493
 10
-6.746982139130473
 20
6.988853320296493
  0
LWPOLYLINE
  5
2DF3
330
395C
100
AcDbEntity
  8
IMAGE
100
AcDbPolyline
 90
        2
 70
     0
 43
0.0
 10
-6.758047760734411
 20
7.145103320296493
 10
-6.758047760734411
 20
6.988853320296493
  0
LWPOLYLINE
  5
2DF4
330
395C
100
AcDbEntity
  8
IMAGE
100
AcDbPolyline
 90
        2
 70
     0
 43
0.0
 10
-6.76911338233835
 20
7.145103320296493
 10
-6.76911338233835
 20
6.988853320296493
  0
ARC
  5
2DF5
330
395C
100
AcDbEntity
  8
IMAGE
100
AcDbCircle
 10
-8.031522928055391
 20
7.066978320296493
 30
0.0
 40
0.09375
100
AcDbArc
 50
123.5573097619206
 51
236.4426902380792
  0
CIRCLE
  5
2DF6
330
395C
100
AcDbEntity
  8
IMAGE
100
AcDbCircle
 10
-8.031522928055391
 20
7.066978320296493
 30
0.0
 40
0.0546875
  0
LWPOLYLINE
  5
2DF7
330
395C
100
AcDbEntity
  8
IMAGE
100
AcDbPolyline
 90
       14
 70
     1
 43
0.0
 10
-7.996870626262455
 20
7.066157820786608
 10
-7.999485667850936
 20
7.080209692016251
 10
-8.025814023143272
 20
7.075310006919473
 10
-8.025814023143272
 20
7.075310006919473
 10
-8.030749364433793
 20
7.10163170163682
 10
-8.044797680806286
 20
7.098997629758089
 10
-8.039865907262434
 20
7.072694962932267
 10
-8.066175229848333
 20
7.067798819806379
 10
-8.063560188259852
 20
7.053746948576736
 10
-8.037231832967517
 20
7.058646633673514
 10
-8.037231832967517
 20
7.058646633673514
 10
-8.032296491676994
 20
7.032324938956167
 10
-8.018248175304499
 20
7.034959010834898
 10
-8.023179948848353
 20
7.06126167766072
  0
LWPOLYLINE
  5
2DF8
330
395C
100
AcDbEntity
  8
IMAGE
100
AcDbPolyline
 90
        2
 70
     0
 43
0.0
 10
-8.083345190404696
 20
6.988853320296493
 10
-7.39435798642666
 20
6.988853320296493
  0
LWPOLYLINE
  5
2DF9
330
395C
100
AcDbEntity
  8
IMAGE
100
AcDbPolyline
 90
        2
 70
     0
 43
0.0
 10
-7.963242243145209
 20
6.988853320296493
 42
-0.0385285285406854
 10
-7.995223762207563
 20
6.947967788770208
 42
-0.0385285285406854
  0
LWPOLYLINE
  5
2DFA
330
395C
100
AcDbEntity
  8
IMAGE
100
AcDbPolyline
 90
        4
 70
     0
 43
0.0
 10
-8.330225221142528
 20
6.787030394539453
 10
-8.287996298416331
 20
6.859971095395197
 42
0.0740283381393694
 10
-8.254541492802815
 20
6.935033605794976
 42
-0.0896864613390459
 10
-8.144966581205457
 20
7.128538774773959
  0
LWPOLYLINE
  5
2DFB
330
395C
100
AcDbEntity
  8
IMAGE
100
AcDbPolyline
 90
        3
 70
     0
 43
0.0
 10
-8.64807720028374
 20
6.314619617380553
 10
-8.614248082948412
 20
6.295088367380553
 10
-8.330225221142528
 20
6.787030394539453
  0
LWPOLYLINE
  5
2DFC
330
395C
100
AcDbEntity
  8
IMAGE
100
AcDbPolyline
 90
        7
 70
     0
 43
0.0
 10
-8.614248082948412
 20
6.295088367380553
 10
-8.64807720028374
 20
6.314619617380553
 10
-8.342396030770036
 20
6.844074933895363
 42
-0.0129249173387714
 10
-8.271641526151917
 20
6.982863803897397
 42
-0.0917657975167063
 10
-8.139480661059423
 20
7.132903169866034
 10
-8.104031092297505
 20
7.158432199275928
 42
-0.3322724166626232
 10
-8.037339823731471
 20
7.160547686141805
  0
LWPOLYLINE
  5
2DFD
330
395C
100
AcDbEntity
  8
IMAGE
100
AcDbPolyline
 90
        2
 70
     0
 43
0.0
 10
-8.268379660481052
 20
6.835068554129569
 42
-0.002676637208122
 10
-8.267021527969461
 20
6.835583235948031
  0
LWPOLYLINE
  5
2DFE
330
395C
100
AcDbEntity
  8
IMAGE
100
AcDbPolyline
 90
        2
 70
     0
 43
0.0
 10
-8.625188316121871
 20
6.354264327677464
 10
-8.591359198786543
 20
6.334733077677464
  0
LWPOLYLINE
  5
2DFF
330
395C
100
AcDbEntity
  8
IMAGE
100
AcDbPolyline
 90
        2
 70
     0
 43
0.0
 10
-8.646925405861942
 20
6.316614583838982
 10
-8.613096288526612
 20
6.297083333838982
  0
LWPOLYLINE
  5
2E00
330
395C
100
AcDbEntity
  8
IMAGE
100
AcDbPolyline
 90
        2
 70
     0
 43
0.0
 10
-8.645799139261445
 20
6.318565334813911
 10
-8.611970021926115
 20
6.299034084813911
  0
LWPOLYLINE
  5
2E01
330
395C
100
AcDbEntity
  8
IMAGE
100
AcDbPolyline
 90
        2
 70
     0
 43
0.0
 10
-8.643922028260613
 20
6.3218165864388
 10
-8.610092910925285
 20
6.3022853364388
  0
LWPOLYLINE
  5
2E02
330
395C
100
AcDbEntity
  8
IMAGE
100
AcDbPolyline
 90
        2
 70
     0
 43
0.0
 10
-8.641294072859452
 20
6.326368338713638
 10
-8.607464955524122
 20
6.306837088713638
  0
LWPOLYLINE
  5
2E03
330
395C
100
AcDbEntity
  8
IMAGE
100
AcDbPolyline
 90
        2
 70
     0
 43
0.0
 10
-8.637164439761505
 20
6.3335210730559
 10
-8.603335322426172
 20
6.3139898230559
  0
LWPOLYLINE
  5
2E04
330
395C
100
AcDbEntity
  8
IMAGE
100
AcDbPolyline
 90
        2
 70
     0
 43
0.0
 10
-8.632283951159344
 20
6.341974327280604
 10
-8.59845483382401
 20
6.322443077280604
  0
LWPOLYLINE
  5
2E05
330
395C
100
AcDbEntity
  8
IMAGE
100
AcDbPolyline
 90
        2
 70
     0
 43
0.0
 10
-8.037339823731471
 20
7.160547686141805
 10
-8.018579341572422
 20
7.145103320296493
  0
LWPOLYLINE
  5
2E06
330
395C
100
AcDbEntity
  8
IMAGE
100
AcDbPolyline
 90
        2
 70
     0
 43
0.0
 10
-8.221632685606131
 20
7.053243183411229
 10
-8.06075138909688
 20
7.331897762952804
  0
LWPOLYLINE
  5
2E08
330
395C
100
AcDbEntity
  8
IMAGE
100
AcDbPolyline
 90
        2
 70
     0
 43
0.0
 10
-6.767257678389064
 20
6.879338623814842
 10
-6.767257678389064
 20
6.988853320296493
  0
CIRCLE
  5
2E09
330
395C
100
AcDbEntity
  8
IMAGE
100
AcDbCircle
 10
-6.531522928055393
 20
7.066978320296493
 30
0.0
 40
0.0703125
  0
CIRCLE
  5
2E0A
330
395C
100
AcDbEntity
  8
IMAGE
100
AcDbCircle
 10
-6.531522928055393
 20
7.066978320296493
 30
0.0
 40
0.04296875
  0
LWPOLYLINE
  5
2E0B
330
395C
100
AcDbEntity
  8
IMAGE
100
AcDbPolyline
 90
        2
 70
     0
 43
0.0
 10
-6.508663928389064
 20
7.276102883409739
 10
-6.074288928389064
 20
7.276102883409739
  0
LWPOLYLINE
  5
2E0C
330
395C
100
AcDbEntity
  8
IMAGE
100
AcDbPolyline
 90
        2
 70
     0
 43
0.0
 10
-6.508663928389064
 20
7.249540383409739
 10
-6.074288928389064
 20
7.249540383409739
  0
LWPOLYLINE
  5
2E0D
330
395C
100
AcDbEntity
  8
IMAGE
100
AcDbPolyline
 90
        8
 70
     1
 43
0.0
 10
-6.508663928389064
 20
7.249540383409739
 10
-6.477413928389063
 20
7.215165383409739
 10
-6.105538928389064
 20
7.215165383409739
 10
-6.074288928389064
 20
7.249540383409739
 10
-6.074288928389064
 20
7.276102883409739
 10
-6.105538928389064
 20
7.310477883409738
 10
-6.477413928389063
 20
7.310477883409738
 10
-6.508663928389064
 20
7.276102883409739
  0
LWPOLYLINE
  5
2E0E
330
395C
100
AcDbEntity
  8
IMAGE
100
AcDbPolyline
 90
        4
 70
     1
 43
0.0
 10
-6.478976428389062
 20
7.146415383409739
 10
-6.103976428389064
 20
7.146415383409739
 10
-6.103976428389064
 20
7.208915383409738
 10
-6.478976428389062
 20
7.208915383409738
  0
LWPOLYLINE
  5
2E0F
330
395C
100
AcDbEntity
  8
IMAGE
100
AcDbPolyline
 90
        2
 70
     0
 43
0.0
 10
-6.434445178389063
 20
7.140165383409739
 10
-6.434445178389063
 20
7.146415383409739
  0
LWPOLYLINE
  5
2E10
330
395C
100
AcDbEntity
  8
IMAGE
100
AcDbPolyline
 90
        2
 70
     0
 43
0.0
 10
-6.148507678389063
 20
7.140165383409739
 10
-6.148507678389063
 20
7.146415383409739
  0
LWPOLYLINE
  5
2E11
330
395C
100
AcDbEntity
  8
IMAGE
100
AcDbPolyline
 90
        2
 70
     0
 43
0.0
 10
-6.148507678389063
 20
7.208915383409738
 10
-6.148507678389063
 20
7.215165383409739
  0
LWPOLYLINE
  5
2E12
330
395C
100
AcDbEntity
  8
IMAGE
100
AcDbPolyline
 90
        2
 70
     0
 43
0.0
 10
-6.434445178389063
 20
7.208915383409738
 10
-6.434445178389063
 20
7.215165383409739
  0
LWPOLYLINE
  5
2E13
330
395C
100
AcDbEntity
  8
IMAGE
100
AcDbPolyline
 90
        4
 70
     0
 43
0.0
 10
-6.196788928389063
 20
7.646415383409737
 10
-6.196788928389063
 20
7.715165383409737
 10
-6.386163928389063
 20
7.715165383409737
 10
-6.386163928389063
 20
7.646415383409737
  0
LWPOLYLINE
  5
2E14
330
395C
100
AcDbEntity
  8
IMAGE
100
AcDbPolyline
 90
        2
 70
     0
 43
0.0
 10
-6.473679972437573
 20
7.626062815026362
 10
-6.475851428389063
 20
7.310477883409738
  0
LWPOLYLINE
  5
2E15
330
395C
100
AcDbEntity
  8
IMAGE
100
AcDbPolyline
 90
        2
 70
     0
 43
0.0
 10
-6.109272884340555
 20
7.626062815026362
 10
-6.107101428389063
 20
7.310477883409738
  0
LWPOLYLINE
  5
2E16
330
395C
100
AcDbEntity
  8
IMAGE
100
AcDbPolyline
 90
        2
 70
     0
 43
0.0
 10
-6.386163928389063
 20
7.646415383409737
 10
-6.196788928389063
 20
7.646415383409737
  0
LWPOLYLINE
  5
2E17
330
395C
100
AcDbEntity
  8
IMAGE
100
AcDbPolyline
 90
        2
 70
     0
 43
0.0
 10
-6.473679972437573
 20
7.626062815026362
 10
-6.109272884340555
 20
7.626062815026362
  0
LWPOLYLINE
  5
2E18
330
395C
100
AcDbEntity
  8
IMAGE
100
AcDbPolyline
 90
        2
 70
     0
 43
0.0
 10
-6.473679972437573
 20
7.626062815026362
 42
-0.0859347361966609
 10
-6.386163928389063
 20
7.646415383409737
 42
-0.0285319259738663
  0
LWPOLYLINE
  5
2E19
330
395C
100
AcDbEntity
  8
IMAGE
100
AcDbPolyline
 90
        2
 70
     0
 43
0.0
 10
-6.109272884340555
 20
7.626062815026362
 42
0.0859347361966609
 10
-6.196788928389063
 20
7.646415383409737
 42
0.0285319259738663
  0
LWPOLYLINE
  5
2E1A
330
395C
100
AcDbEntity
  8
IMAGE
100
AcDbPolyline
 90
        2
 70
     0
 43
0.0
 10
-6.282101428389063
 20
7.310477883409738
 10
-6.282101428389063
 20
7.626062815026362
  0
LWPOLYLINE
  5
2E1B
330
395C
100
AcDbEntity
  8
IMAGE
100
AcDbPolyline
 90
        2
 70
     0
 43
0.0
 10
-6.300851428389064
 20
7.310477883409738
 10
-6.300851428389064
 20
7.626062815026362
  0
LWPOLYLINE
  5
2E1C
330
395C
100
AcDbEntity
  8
IMAGE
100
AcDbPolyline
 90
        2
 70
     0
 43
0.0
 10
-6.357101428389064
 20
7.310477883409738
 10
-6.357101428389064
 20
7.626062815026362
  0
LWPOLYLINE
  5
2E1D
330
395C
100
AcDbEntity
  8
IMAGE
100
AcDbPolyline
 90
        2
 70
     0
 43
0.0
 10
-6.225851428389064
 20
7.310477883409738
 10
-6.225851428389064
 20
7.626062815026362
  0
LWPOLYLINE
  5
2E1E
330
395C
100
AcDbEntity
  8
IMAGE
100
AcDbPolyline
 90
        2
 70
     0
 43
0.0
 10
-6.207101428389063
 20
7.310477883409738
 10
-6.207101428389063
 20
7.626062815026362
  0
LWPOLYLINE
  5
2E1F
330
395C
100
AcDbEntity
  8
IMAGE
100
AcDbPolyline
 90
        2
 70
     0
 43
0.0
 10
-6.375851428389063
 20
7.310477883409738
 10
-6.375851428389063
 20
7.626062815026362
  0
LWPOLYLINE
  5
2E20
330
395C
100
AcDbEntity
  8
IMAGE
100
AcDbPolyline
 90
        2
 70
     0
 43
0.0
 10
-6.422415387629922
 20
7.310477883409738
 10
-6.422415387629922
 20
7.626062815026362
  0
LWPOLYLINE
  5
2E21
330
395C
100
AcDbEntity
  8
IMAGE
100
AcDbPolyline
 90
        2
 70
     0
 43
0.0
 10
-6.434056377440137
 20
7.310477883409738
 10
-6.434056377440137
 20
7.626062815026362
  0
LWPOLYLINE
  5
2E22
330
395C
100
AcDbEntity
  8
IMAGE
100
AcDbPolyline
 90
        2
 70
     0
 43
0.0
 10
-6.160537469148204
 20
7.310477883409738
 10
-6.160537469148204
 20
7.626062815026362
  0
LWPOLYLINE
  5
2E23
330
395C
100
AcDbEntity
  8
IMAGE
100
AcDbPolyline
 90
        2
 70
     0
 43
0.0
 10
-6.14889647933799
 20
7.310477883409738
 10
-6.14889647933799
 20
7.626062815026362
  0
LWPOLYLINE
  5
2E24
330
395C
100
AcDbEntity
  8
IMAGE
100
AcDbPolyline
 90
        2
 70
     0
 43
0.0
 10
-6.285226428389063
 20
7.146415383409739
 10
-6.285226428389063
 20
7.208915383409738
  0
LWPOLYLINE
  5
2E25
330
395C
100
AcDbEntity
  8
IMAGE
100
AcDbPolyline
 90
        2
 70
     0
 43
0.0
 10
-6.297726428389063
 20
7.146415383409739
 10
-6.297726428389063
 20
7.208915383409738
  0
LWPOLYLINE
  5
2E26
330
395C
100
AcDbEntity
  8
IMAGE
100
AcDbPolyline
 90
        2
 70
     0
 43
0.0
 10
-6.316476428389064
 20
7.146415383409739
 10
-6.316476428389064
 20
7.208915383409738
  0
LWPOLYLINE
  5
2E27
330
395C
100
AcDbEntity
  8
IMAGE
100
AcDbPolyline
 90
        2
 70
     0
 43
0.0
 10
-6.266476428389065
 20
7.146415383409739
 10
-6.266476428389065
 20
7.208915383409738
  0
LWPOLYLINE
  5
2E28
330
395C
100
AcDbEntity
  8
IMAGE
100
AcDbPolyline
 90
        2
 70
     0
 43
0.0
 10
-6.253976428389065
 20
7.146415383409739
 10
-6.253976428389065
 20
7.208915383409738
  0
LWPOLYLINE
  5
2E29
330
395C
100
AcDbEntity
  8
IMAGE
100
AcDbPolyline
 90
        2
 70
     0
 43
0.0
 10
-6.328976428389063
 20
7.146415383409739
 10
-6.328976428389063
 20
7.208915383409738
  0
LWPOLYLINE
  5
2E2A
330
395C
100
AcDbEntity
  8
IMAGE
100
AcDbPolyline
 90
        2
 70
     0
 43
0.0
 10
-6.347726428389062
 20
7.146415383409739
 10
-6.347726428389062
 20
7.208915383409738
  0
LWPOLYLINE
  5
2E2B
330
395C
100
AcDbEntity
  8
IMAGE
100
AcDbPolyline
 90
        2
 70
     0
 43
0.0
 10
-6.360226428389061
 20
7.146415383409739
 10
-6.360226428389061
 20
7.208915383409738
  0
LWPOLYLINE
  5
2E2C
330
395C
100
AcDbEntity
  8
IMAGE
100
AcDbPolyline
 90
        2
 70
     0
 43
0.0
 10
-6.378976428389062
 20
7.146415383409739
 10
-6.378976428389062
 20
7.208915383409738
  0
LWPOLYLINE
  5
2E2D
330
395C
100
AcDbEntity
  8
IMAGE
100
AcDbPolyline
 90
        2
 70
     0
 43
0.0
 10
-6.391476428389061
 20
7.146415383409739
 10
-6.391476428389061
 20
7.208915383409738
  0
LWPOLYLINE
  5
2E2E
330
395C
100
AcDbEntity
  8
IMAGE
100
AcDbPolyline
 90
        2
 70
     0
 43
0.0
 10
-6.407101428389061
 20
7.146415383409739
 10
-6.407101428389061
 20
7.208915383409738
  0
LWPOLYLINE
  5
2E2F
330
395C
100
AcDbEntity
  8
IMAGE
100
AcDbPolyline
 90
        2
 70
     0
 43
0.0
 10
-6.435226428389063
 20
7.146415383409739
 10
-6.435226428389063
 20
7.208915383409738
  0
LWPOLYLINE
  5
2E30
330
395C
100
AcDbEntity
  8
IMAGE
100
AcDbPolyline
 90
        2
 70
     0
 43
0.0
 10
-6.191476428389064
 20
7.146415383409739
 10
-6.191476428389064
 20
7.208915383409738
  0
LWPOLYLINE
  5
2E31
330
395C
100
AcDbEntity
  8
IMAGE
100
AcDbPolyline
 90
        2
 70
     0
 43
0.0
 10
-6.203976428389063
 20
7.146415383409739
 10
-6.203976428389063
 20
7.208915383409738
  0
LWPOLYLINE
  5
2E32
330
395C
100
AcDbEntity
  8
IMAGE
100
AcDbPolyline
 90
        2
 70
     0
 43
0.0
 10
-6.222726428389064
 20
7.146415383409739
 10
-6.222726428389064
 20
7.208915383409738
  0
LWPOLYLINE
  5
2E33
330
395C
100
AcDbEntity
  8
IMAGE
100
AcDbPolyline
 90
        2
 70
     0
 43
0.0
 10
-6.235226428389064
 20
7.146415383409739
 10
-6.235226428389064
 20
7.208915383409738
  0
LWPOLYLINE
  5
2E34
330
395C
100
AcDbEntity
  8
IMAGE
100
AcDbPolyline
 90
        2
 70
     0
 43
0.0
 10
-6.416476428389062
 20
7.146415383409739
 10
-6.416476428389062
 20
7.208915383409738
  0
LWPOLYLINE
  5
2E35
330
395C
100
AcDbEntity
  8
IMAGE
100
AcDbPolyline
 90
        2
 70
     0
 43
0.0
 10
-6.444601428389063
 20
7.146415383409739
 10
-6.444601428389063
 20
7.208915383409738
  0
LWPOLYLINE
  5
2E36
330
395C
100
AcDbEntity
  8
IMAGE
100
AcDbPolyline
 90
        2
 70
     0
 43
0.0
 10
-6.460226428389061
 20
7.146415383409739
 10
-6.460226428389061
 20
7.208915383409738
  0
LWPOLYLINE
  5
2E37
330
395C
100
AcDbEntity
  8
IMAGE
100
AcDbPolyline
 90
        2
 70
     0
 43
0.0
 10
-6.469601428389061
 20
7.146415383409739
 10
-6.469601428389061
 20
7.208915383409738
  0
LWPOLYLINE
  5
2E38
330
395C
100
AcDbEntity
  8
IMAGE
100
AcDbPolyline
 90
        2
 70
     0
 43
0.0
 10
-6.175851428389065
 20
7.146415383409739
 10
-6.175851428389065
 20
7.208915383409738
  0
LWPOLYLINE
  5
2E39
330
395C
100
AcDbEntity
  8
IMAGE
100
AcDbPolyline
 90
        2
 70
     0
 43
0.0
 10
-6.147726428389066
 20
7.146415383409739
 10
-6.147726428389066
 20
7.208915383409738
  0
LWPOLYLINE
  5
2E3A
330
395C
100
AcDbEntity
  8
IMAGE
100
AcDbPolyline
 90
        2
 70
     0
 43
0.0
 10
-6.166476428389064
 20
7.146415383409739
 10
-6.166476428389064
 20
7.208915383409738
  0
LWPOLYLINE
  5
2E3B
330
395C
100
AcDbEntity
  8
IMAGE
100
AcDbPolyline
 90
        2
 70
     0
 43
0.0
 10
-6.138351428389066
 20
7.146415383409739
 10
-6.138351428389066
 20
7.208915383409738
  0
LWPOLYLINE
  5
2E3C
330
395C
100
AcDbEntity
  8
IMAGE
100
AcDbPolyline
 90
        2
 70
     0
 43
0.0
 10
-6.122726428389064
 20
7.146415383409739
 10
-6.122726428389064
 20
7.208915383409738
  0
LWPOLYLINE
  5
2E3D
330
395C
100
AcDbEntity
  8
IMAGE
100
AcDbPolyline
 90
        2
 70
     0
 43
0.0
 10
-6.113351428389066
 20
7.146415383409739
 10
-6.113351428389066
 20
7.208915383409738
  0
LWPOLYLINE
  5
2E3E
330
395C
100
AcDbEntity
  8
IMAGE
100
AcDbPolyline
 90
        2
 70
     0
 43
0.0
 10
-6.111007678389064
 20
7.119742143004629
 10
-6.45403072513649
 20
7.119742143004629
  0
LWPOLYLINE
  5
2E3F
330
395C
100
AcDbEntity
  8
IMAGE
100
AcDbPolyline
 90
        2
 70
     0
 43
0.0
 10
-6.767257678389064
 20
6.879338623814842
 10
-6.111007678389064
 20
6.879338623814849
  0
LWPOLYLINE
  5
2E40
330
395C
100
AcDbEntity
  8
IMAGE
100
AcDbPolyline
 90
        8
 70
     0
 43
0.0
 10
-6.472933540852096
 20
7.140165383409739
 10
-6.135550823989756
 20
7.140165383409739
 42
-0.2539389008046782
 10
-6.111007678389064
 20
7.119742143004629
 10
-6.111007678389064
 20
6.879338623814849
 42
-0.2539389008046782
 10
-6.135550823989756
 20
6.858915383409739
 10
-6.742714532788369
 20
6.858915383409739
 42
-0.2539389008046782
 10
-6.767257678389064
 20
6.879338623814842
 10
-6.767257678389064
 20
6.879338623814842
  0
LWPOLYLINE
  5
2FB1
330
395C
100
AcDbEntity
  8
IMAGE
100
AcDbPolyline
 90
        6
 70
     0
 43
0.0
 10
-11.51581110234892
 20
10.07058847022346
 10
-11.51581110234892
 20
8.797086862027599
 10
-11.64748546516634
 20
8.732751285654419
 10
-11.38131576746132
 20
8.697282981189058
 10
-11.51581110234892
 20
8.638661768748999
 10
-11.51581110234892
 20
7.336555591622678
  0
LWPOLYLINE
  5
2FB7
330
395C
100
AcDbEntity
  8
IMAGE
100
AcDbPolyline
 90
        6
 70
     0
 43
0.0
 10
-10.1599421925798
 20
3.200484530960502
 10
-10.88663183237333
 20
3.200484530960504
 10
-10.9509674087465
 20
3.332158893777928
 10
-10.98643571321186
 20
3.065989196072909
 10
-11.04505692565192
 20
3.200484530960504
 10
-11.77580381776377
 20
3.200484530960504
  0
LWPOLYLINE
  5
305F
330
395C
100
AcDbEntity
  8
IMAGE
100
AcDbPolyline
 90
        4
 70
     1
 43
0.0
 10
-7.39435798642666
 20
7.16202044384833
 10
-7.358696141538834
 20
7.16202044384833
 10
-7.358696141538834
 20
6.971936196744657
 10
-7.39435798642666
 20
6.971936196744657
  0
LWPOLYLINE
  5
3060
330
395C
100
AcDbEntity
  8
IMAGE
100
AcDbPolyline
 90
        2
 70
     0
 43
0.0
 10
-7.39435798642666
 20
7.145103320296493
 10
-8.083345190404696
 20
7.145103320296493
  0
LWPOLYLINE
  5
3061
330
395C
100
AcDbEntity
  8
IMAGE
100
AcDbPolyline
 90
        2
 70
     0
 43
0.0
 10
-7.358696141538834
 20
6.988853320296493
 10
-6.479700665706089
 20
6.988853320296493
  0
LWPOLYLINE
  5
3062
330
395C
100
AcDbEntity
  8
IMAGE
100
AcDbPolyline
 90
        5
 70
     0
 43
0.0
 10
-7.795106781785823
 20
6.988853320296493
 42
0.1735539790913948
 10
-8.342890329470669
 20
6.737091895426106
 42
0.104390479299779
 10
-8.410657367750054
 20
6.635501435861091
 42
-0.0708390959788735
 10
-8.56313321561879
 20
6.370237494338534
 42
-0.0090092603305126
 10
-8.710054279373444
 20
6.151127611121507
 42
-0.0090092603305126
  0
LWPOLYLINE
  5
3064
330
395C
100
AcDbEntity
  8
IMAGE
100
AcDbPolyline
 90
        5
 70
     0
 43
0.0
 10
-7.793572486557782
 20
6.978211916371487
 42
0.1655239618012215
 10
-8.33196292396428
 20
6.72592352786863
 42
0.1043904792997781
 10
-8.39614842113338
 20
6.62970220375033
 42
-0.0708390959788727
 10
-8.550819651163843
 20
6.360618931274651
 42
-0.0094065962502452
 10
-8.696662214980243
 20
6.143395699139089
 42
-0.0094065962502452
  0
LWPOLYLINE
  5
3067
330
395C
100
AcDbEntity
  8
IMAGE
100
AcDbPolyline
 90
        5
 70
     0
 43
0.0
 10
-7.77975209775607
 20
6.945313956403351
 42
0.1735539790913951
 10
-8.317967833511579
 20
6.697949899753318
 42
0.1043904792997781
 10
-8.382153330680679
 20
6.601728575635018
 42
-0.0708390959788727
 10
-8.536824560711142
 20
6.332645303159339
 42
-0.0087981278303509
 10
-8.672777299101301
 20
6.129605736526807
 42
-0.0087981278303509
  0
LWPOLYLINE
  5
3068
330
395C
100
AcDbEntity
  8
IMAGE
100
AcDbPolyline
 90
        3
 70
     0
 43
0.0
 10
-7.781111691333122
 20
6.960879692181181
 42
0.1735539790913948
 10
-8.328895239017967
 20
6.709118267310794
 42
0.003363021228821
 10
-8.331719114807823
 20
6.706317894810092
 42
0.003363021228821
  0
LWPOLYLINE
  5
3069
330
395C
100
AcDbEntity
  8
IMAGE
100
AcDbPolyline
 90
        2
 70
     0
 43
0.0
 10
-7.77975209775607
 20
6.945313956403351
 10
-7.39435798642666
 20
6.980857681965972
  0
LWPOLYLINE
  5
306A
330
395C
100
AcDbEntity
  8
IMAGE
100
AcDbPolyline
 90
        2
 70
     0
 43
0.0
 10
-7.781111691333122
 20
6.960879692181181
 10
-7.463019360300928
 20
6.988853320296493
  0
LWPOLYLINE
  5
306B
330
395C
100
AcDbEntity
  8
IMAGE
100
AcDbPolyline
 90
        2
 70
     0
 43
0.0
 10
-7.793572486557782
 20
6.978211916371487
 10
-7.647935007110778
 20
6.988853320296493
  0
LWPOLYLINE
  5
306C
330
395C
100
AcDbEntity
  8
IMAGE
100
AcDbPolyline
 90
        2
 70
     0
 43
0.0
 10
-7.358696141538834
 20
6.984146665348143
 10
-7.307662743310565
 20
6.988853320296493
  0
LWPOLYLINE
  5
306D
330
395C
100
AcDbEntity
  8
IMAGE
100
AcDbPolyline
 90
        2
 70
     0
 43
0.0
 10
-10.3095490211927
 20
4.287887699517956
 10
-10.21087909594189
 20
4.287887699517956
  0
LWPOLYLINE
  5
306E
330
395C
100
AcDbEntity
  8
IMAGE
100
AcDbPolyline
 90
        2
 70
     0
 43
0.0
 10
-10.21087909594189
 20
4.387897783035344
 10
-10.3095490211927
 20
4.387897783035344
  0
LWPOLYLINE
  5
306F
330
395C
100
AcDbEntity
  8
IMAGE
100
AcDbPolyline
 90
        2
 70
     0
 43
0.0
 10
-10.28542503778539
 20
4.387897783035344
 10
-10.28542503778539
 20
4.287887699517956
  0
LWPOLYLINE
  5
3070
330
395C
100
AcDbEntity
  8
IMAGE
100
AcDbPolyline
 90
        2
 70
     0
 43
0.0
 10
-10.26117251446431
 20
4.387897783035344
 10
-10.26117251446431
 20
4.287887699517956
  0
ARC
  5
3071
330
395C
100
AcDbEntity
  8
IMAGE
100
AcDbCircle
 10
-10.27001673123199
 20
4.337356131621973
 30
0.0
 40
0.0429448360417005
100
AcDbArc
 50
281.8847456550813
 51
348.170817723828
  0
LWPOLYLINE
  5
3072
330
395C
100
AcDbEntity
  8
IMAGE
100
AcDbPolyline
 90
        2
 70
     0
 43
0.0
 10
-10.23872307610625
 20
4.345813202477613
 10
-10.22790767930474
 20
4.345787423838313
  0
LWPOLYLINE
  5
3073
330
395C
100
AcDbEntity
  8
IMAGE
100
AcDbPolyline
 90
        2
 70
     0
 43
0.0
 10
-10.23876415556021
 20
4.328578367476747
 10
-10.22798391010053
 20
4.328552672621125
  0
LINE
  5
3074
330
395C
100
AcDbEntity
  8
IMAGE
100
AcDbLine
 10
-10.23872307610625
 20
4.345813202477613
 30
0.0
 11
-10.23876415556021
 21
4.328578367476747
 31
0.0
  0
ARC
  5
3075
330
395C
100
AcDbEntity
  8
IMAGE
100
AcDbCircle
 10
-10.27001673123199
 20
4.337356131621973
 30
0.0
 40
0.0429448360417005
100
AcDbArc
 50
11.32233720135347
 51
78.11525434491864
  0
LWPOLYLINE
  5
3076
330
395C
100
AcDbEntity
  8
IMAGE
100
AcDbPolyline
 90
        2
 70
     0
 43
0.0
 10
-10.21087909594189
 20
4.387897783035344
 10
-10.21087909594189
 20
4.287887699517956
  0
LWPOLYLINE
  5
3077
330
395C
100
AcDbEntity
  8
IMAGE
100
AcDbPolyline
 90
        2
 70
     0
 43
0.0
 10
-10.27095088225452
 20
4.019515474929704
 10
-10.27095088225451
 20
3.200484530960502
  0
LWPOLYLINE
  5
3078
330
395C
100
AcDbEntity
  8
IMAGE
100
AcDbPolyline
 90
        2
 70
     0
 43
0.0
 10
-10.30057097270722
 20
4.019515474929705
 10
-10.30057097270722
 20
3.200484530960502
  0
LWPOLYLINE
  5
3079
330
395C
100
AcDbEntity
  8
IMAGE
100
AcDbPolyline
 90
        2
 70
     0
 43
0.0
 10
-10.28657588225451
 20
4.019515474929705
 10
-10.28657588225451
 20
3.200484530960502
  0
LWPOLYLINE
  5
307A
330
395C
100
AcDbEntity
  8
IMAGE
100
AcDbPolyline
 90
        2
 70
     0
 43
0.0
 10
-10.28494597270722
 20
4.019515474929706
 10
-10.28494597270722
 20
3.200484530960502
  0
LWPOLYLINE
  5
307E
330
395C
100
AcDbEntity
  8
IMAGE
100
AcDbPolyline
 90
        5
 70
     0
 43
0.0
 10
-8.312614294147813
 20
6.765372533066361
 42
0.0485527285742504
 10
-8.316060283323356
 20
6.772502286528318
 10
-8.332974841991021
 20
6.782267911528317
 10
-8.387662341991021
 20
6.687546382989394
 10
-8.384697561070648
 20
6.685834665926929
  0
LWPOLYLINE
  5
308A
330
395C
100
AcDbEntity
  8
IMAGE
100
AcDbPolyline
 90
        4
 70
     0
 43
0.0
 10
-8.516898037175907
 20
6.434077562217527
 10
-8.529726484715103
 20
6.441484069857566
 10
-8.584413984715101
 20
6.346762541318643
 10
-8.579992200432041
 20
6.344209622972518
  0
LWPOLYLINE
  5
308B
330
395C
100
AcDbEntity
  8
IMAGE
100
AcDbPolyline
 90
        3
 70
     0
 43
0.0
 10
-8.354332550338163
 20
6.680801562201976
 42
0.071927460663067
 10
-8.396662277297352
 20
6.607527807745779
 42
-0.0581233411873143
 10
-8.516412137523911
 20
6.386420195662278
 42
-0.0581233411873143
  0
LWPOLYLINE
  5
308C
330
395C
100
AcDbEntity
  8
IMAGE
100
AcDbPolyline
 90
        5
 70
     0
 43
0.0
 10
-8.371149090793213
 20
6.678012452965142
 10
-8.370747783323357
 20
6.677780757989394
 42
0.1968421954636169
 10
-8.341809466675492
 20
6.688840892709011
 10
-8.311169482635884
 20
6.741910901808708
 42
0.0254252214524253
 10
-8.310428503129983
 20
6.745998171715323
  0
LWPOLYLINE
  5
308E
330
395C
100
AcDbEntity
  8
IMAGE
100
AcDbPolyline
 90
        4
 70
     0
 43
0.0
 10
-8.566115470439186
 20
6.336987619702517
 42
0.1880625203263738
 10
-8.538561109399573
 20
6.34805705103826
 10
-8.507921125359967
 20
6.401127060137957
 42
0.1140438776945874
 10
-8.50786453609248
 20
6.419531775477342
  0
LWPOLYLINE
  5
308F
330
395C
100
AcDbEntity
  8
IMAGE
100
AcDbPolyline
 90
        2
 70
     0
 43
0.0
 10
-8.550791563685471
 20
6.340138520399004
 42
-0.0092437855071662
 10
-8.685921917540342
 20
6.137194785520984
 42
-0.0092437855071662
  0
LWPOLYLINE
  5
309C
330
395C
100
AcDbEntity
  8
IMAGE
100
AcDbPolyline
 90
        2
 70
     0
 43
0.0
 10
-8.019893738979273
 20
6.923631806469654
 42
-0.0535109148908617
 10
-8.078476722921312
 20
6.881784631783467
 42
-0.0535109148908617
  0
LWPOLYLINE
  5
309D
330
395C
100
AcDbEntity
  8
IMAGE
100
AcDbPolyline
 90
        3
 70
     0
 43
0.0
 10
-8.21742155141254
 20
6.839364644337047
 42
-0.021820744991748
 10
-8.246830763536866
 20
6.838316146060481
 42
0.0889152402693802
 10
-8.310727859438076
 20
6.820707579173822
  0
LWPOLYLINE
  5
309E
330
395C
100
AcDbEntity
  8
IMAGE
100
AcDbPolyline
 90
        2
 70
     0
 43
0.0
 10
-8.113908106148672
 20
6.864456577844269
 42
-0.0509955450129673
 10
-8.17958225448384
 20
6.84453938839047
  0
LWPOLYLINE
  5
309F
330
395C
100
AcDbEntity
  8
IMAGE
100
AcDbPolyline
 90
        2
 70
     0
 43
0.0
 10
-8.78437062718287
 20
6.078552477253589
 10
-8.702584846061418
 20
6.031333434507232
  0
LWPOLYLINE
  5
30A0
330
395C
100
AcDbEntity
  8
IMAGE
100
AcDbPolyline
 90
        2
 70
     0
 43
0.0
 10
-8.652579804302725
 20
6.117944707467894
 10
-8.734365585424175
 20
6.165163750214251
  0
LWPOLYLINE
  5
30A2
330
395C
100
AcDbEntity
  8
IMAGE
100
AcDbPolyline
 90
        2
 70
     0
 43
0.0
 10
-8.702723801362264
 20
6.078399196586612
 10
-8.693400682362968
 20
6.072986821459059
  0
LWPOLYLINE
  5
30A3
330
395C
100
AcDbEntity
  8
IMAGE
100
AcDbPolyline
 90
        2
 70
     0
 43
0.0
 10
-8.694070808011137
 20
6.093304461800419
 10
-8.684717288948666
 20
6.087874438443153
  0
LWPOLYLINE
  5
30A4
330
395C
100
AcDbEntity
  8
IMAGE
100
AcDbPolyline
 90
        2
 70
     0
 43
0.0
 10
-8.692470301651042
 20
6.140975496850058
 10
-8.742475343409736
 20
6.054364223889397
  0
LWPOLYLINE
  5
30A5
330
395C
100
AcDbEntity
  8
IMAGE
100
AcDbPolyline
 90
        2
 70
     0
 43
0.0
 10
-8.713473602952973
 20
6.153101758510597
 10
-8.763478644711666
 20
6.066490485549936
  0
ARC
  5
30A6
330
395C
100
AcDbEntity
  8
IMAGE
100
AcDbCircle
 10
-8.725400443755111
 20
6.101627251160696
 30
0.0
 40
0.0429448360417005
100
AcDbArc
 50
341.3223372013535
 51
48.11525434491871
  0
ARC
  5
30A7
330
395C
100
AcDbEntity
  8
IMAGE
100
AcDbCircle
 10
-8.725400443755111
 20
6.101627251160696
 30
0.0
 40
0.0429448360417005
100
AcDbArc
 50
251.8847456550814
 51
318.1708177238281
  0
LINE
  5
30A8
330
395C
100
AcDbEntity
  8
IMAGE
100
AcDbLine
 10
-8.694070808011137
 20
6.093304461800419
 30
0.0
 11
-8.702723801362264
 21
6.078399196586612
 31
0.0
  0
LWPOLYLINE
  5
30AB
330
395C
100
AcDbEntity
  8
IMAGE
100
AcDbPolyline
 90
        2
 70
     0
 43
0.0
 10
-8.652579804302725
 20
6.117944707467894
 10
-8.702584846061418
 20
6.031333434507232
  0
LWPOLYLINE
  5
30AC
330
395C
100
AcDbEntity
  8
IMAGE
100
AcDbPolyline
 90
        5
 70
     0
 43
0.0
 10
-8.809276874681696
 20
5.96512739028879
 42
-0.0007359453435663
 10
-8.820862552029083
 20
5.949550447127839
 42
-0.1175769732070758
 10
-9.705063996581454
 20
5.200149246346091
 42
0.1989933455856495
 10
-10.28657588225451
 20
4.480193093896321
 10
-10.28657588225451
 20
4.387897783035344
  0
LWPOLYLINE
  5
30AD
330
395C
100
AcDbEntity
  8
IMAGE
100
AcDbPolyline
 90
        5
 70
     0
 43
0.0
 10
-8.796295637760188
 20
5.957632669657739
 42
-0.000591096500394
 10
-8.806091049394119
 20
5.944456987114714
 42
-0.1192052148431728
 10
-9.700334859687307
 20
5.185257104484143
 42
0.1971902472454193
 10
-10.27095088225452
 20
4.478541188717768
 10
-10.27095088225452
 20
4.387897783035344
  0
LWPOLYLINE
  5
30AE
330
395C
100
AcDbEntity
  8
IMAGE
100
AcDbPolyline
 90
        4
 70
     0
 43
0.0
 10
-8.820631149858716
 20
5.971682784118698
 42
-0.1191111814559808
 10
-9.714329950140008
 20
5.213230732599455
 42
0.1971902472454193
 10
-10.28494597270722
 20
4.50651481683308
 10
-10.28494597270722
 20
4.387897783035344
  0
LWPOLYLINE
  5
30AF
330
395C
100
AcDbEntity
  8
IMAGE
100
AcDbPolyline
 90
        5
 70
     0
 43
0.0
 10
-8.833626362239346
 20
5.979185573484826
 42
-0.0000706180574507
 10
-8.834857642481782
 20
5.977524075243151
 42
-0.1175769732070758
 10
-9.719059087034157
 20
5.228122874461403
 42
0.1989933455856495
 10
-10.30057097270722
 20
4.508166722011633
 10
-10.30057097270722
 20
4.387897783035344
  0
TEXT
  5
30BF
330
395C
100
AcDbEntity
  8
TEXT_BUBBLES
100
AcDbText
 10
-6.951562043694049
 20
6.278131531062136
 30
0.0
 40
0.1250309877616039
  1
4
  7
ROMANS
 72
     4
 11
-6.889046549813246
 21
6.340647024942938
 31
0.0
100
AcDbText
  0
CIRCLE
  5
30C0
330
395C
100
AcDbEntity
  8
TEXT_BUBBLES
100
AcDbCircle
 10
-6.889046549813246
 20
6.340647024942938
 30
0.0
 40
0.1562887347020049
  0
CIRCLE
  5
30C1
330
395C
100
AcDbEntity
  8
TEXT_BUBBLES
100
AcDbCircle
 10
-7.60189447329902
 20
6.340647024942938
 30
0.0
 40
0.1562887347020049
  0
TEXT
  5
30C2
330
395C
100
AcDbEntity
  8
TEXT_BUBBLES
100
AcDbText
 10
-7.661433038899783
 20
6.278131531062136
 30
0.0
 40
0.1250309877616039
  1
3
  7
ROMANS
 72
     4
 11
-7.60189447329902
 21
6.340647024942938
 31
0.0
100
AcDbText
  0
CIRCLE
  5
30C3
330
395C
100
AcDbEntity
  8
TEXT_BUBBLES
100
AcDbCircle
 10
-5.031421163929497
 20
7.447248631751749
 30
0.0
 40
0.1562887347020049
  0
TEXT
  5
30C4
330
395C
100
AcDbEntity
  8
TEXT_BUBBLES
100
AcDbText
 10
-4.823364992020034
 20
6.649644383339669
 30
0.0
 40
0.1250000018625
  1
PLASTIC TIE DOWN STRAP
  7
ROMANS
100
AcDbText
  0
TEXT
  5
30C5
330
395C
100
AcDbEntity
  8
TEXT_BUBBLES
100
AcDbText
 10
-5.09095972953026
 20
7.384733137870947
 30
0.0
 40
0.1250309877616039
  1
2
  7
ROMANS
 72
     4
 11
-5.031421163929497
 21
7.447248631751749
 31
0.0
100
AcDbText
  0
LWPOLYLINE
  5
30CA
330
395C
100
AcDbEntity
  8
IMAGE
100
AcDbPolyline
 90
        2
 70
     0
 43
0.0
 10
-8.730707667927193
 20
6.047570153281812
 42
-0.0040076665629731
 10
-8.796295637760188
 20
5.957632669657739
  0
LWPOLYLINE
  5
30CB
330
395C
100
AcDbEntity
  8
IMAGE
100
AcDbPolyline
 90
        2
 70
     0
 43
0.0
 10
-8.743737826745782
 20
6.055093118983305
 42
-0.0042196790907855
 10
-8.809276874681696
 20
5.96512739028879
  0
LWPOLYLINE
  5
30CC
330
395C
100
AcDbEntity
  8
IMAGE
100
AcDbPolyline
 90
        2
 70
     0
 43
0.0
 10
-8.754807003726812
 20
6.061483911293012
 42
-0.004002715134196
 10
-8.820631149858716
 20
5.971682784118698
  0
LWPOLYLINE
  5
30CD
330
395C
100
AcDbEntity
  8
IMAGE
100
AcDbPolyline
 90
        2
 70
     0
 43
0.0
 10
-8.768046199377565
 20
6.069127564465826
 42
-0.0038011287767832
 10
-8.833626362239346
 20
5.979185573484826
  0
TEXT
  5
30CF
330
395C
100
AcDbEntity
  8
TEXT_BUBBLES
100
AcDbText
 10
-4.823364992020034
 20
7.013845555241708
 30
0.0
 40
0.1250000018625
  1
WIRE TO IRRIGATION CONTROLLER
  7
ROMANS
100
AcDbText
  0
CIRCLE
  5
30D0
330
395C
100
AcDbEntity
  8
TEXT_BUBBLES
100
AcDbCircle
 10
-5.031421163929497
 20
7.08304745984971
 30
0.0
 40
0.1562887347020049
  0
TEXT
  5
30D1
330
395C
100
AcDbEntity
  8
TEXT_BUBBLES
100
AcDbText
 10
-5.09095972953026
 20
7.020531965968908
 30
0.0
 40
0.1250309877616039
  1
3
  7
ROMANS
 72
     4
 11
-5.031421163929497
 21
7.08304745984971
 31
0.0
100
AcDbText
  0
TEXT
  5
30D6
330
395C
100
AcDbEntity
  8
TEXT_BUBBLES
100
AcDbText
 10
-4.823364992020034
 20
7.742247899045786
 30
0.0
 40
0.1250000018625
  1
EAVE OF BUILDING
  7
ROMANS
100
AcDbText
  0
TEXT
  5
30D7
330
395C
100
AcDbEntity
  8
TEXT_BUBBLES
100
AcDbText
 10
-5.093936657810299
 20
6.656330794066869
 30
0.0
 40
0.1250309877616039
  1
4
  7
ROMANS
 72
     4
 11
-5.031421163929497
 21
6.718846287947672
 31
0.0
100
AcDbText
  0
CIRCLE
  5
30D8
330
395C
100
AcDbEntity
  8
TEXT_BUBBLES
100
AcDbCircle
 10
-5.031421163929497
 20
6.718846287947672
 30
0.0
 40
0.1562887347020049
  0
TEXT
  5
30DA
330
395C
100
AcDbEntity
  8
TEXT_BUBBLES
100
AcDbText
 10
-4.823364992020034
 20
5.921242039535592
 30
0.0
 40
0.1250000018625
  1
SECURE WIRE WITH CABLE
  7
ROMANS
100
AcDbText
  0
CIRCLE
  5
30DB
330
395C
100
AcDbEntity
  8
TEXT_BUBBLES
100
AcDbCircle
 10
-5.031421163929497
 20
5.990443944143594
 30
0.0
 40
0.1562887347020049
  0
TEXT
  5
30DC
330
395C
100
AcDbEntity
  8
TEXT_BUBBLES
100
AcDbText
 10
-5.093936657810299
 20
5.927928450262792
 30
0.0
 40
0.1250309877616039
  1
6
  7
ROMANS
 72
     4
 11
-5.031421163929497
 21
5.990443944143594
 31
0.0
100
AcDbText
  0
TEXT
  5
30E9
330
395C
100
AcDbEntity
  8
TEXT_BUBBLES
100
AcDbText
 10
-7.652502254059669
 20
8.113409066525502
 30
0.0
 40
0.1250309877616039
  1
1
  7
ROMANS
 72
     4
 11
-7.60189447329902
 21
8.175924560406304
 31
0.0
100
AcDbText
  0
CIRCLE
  5
30EA
330
395C
100
AcDbEntity
  8
TEXT_BUBBLES
100
AcDbCircle
 10
-7.60189447329902
 20
8.175924560406304
 30
0.0
 40
0.1562887347020049
  0
TEXT
  5
30EB
330
395C
100
AcDbEntity
  8
TEXT_BUBBLES
100
AcDbText
 10
-6.94858511541401
 20
8.113409066525502
 30
0.0
 40
0.1250309877616039
  1
2
  7
ROMANS
 72
     4
 11
-6.889046549813246
 21
8.175924560406304
 31
0.0
100
AcDbText
  0
CIRCLE
  5
30EC
330
395C
100
AcDbEntity
  8
TEXT_BUBBLES
100
AcDbCircle
 10
-6.889046549813246
 20
8.175924560406304
 30
0.0
 40
0.1562887347020049
  0
TEXT
  5
30FD
330
395C
100
AcDbEntity
  8
TEXT_BUBBLES
100
AcDbText
 10
-7.664409967179822
 20
5.60221607960766
 30
0.0
 40
0.1250309877616039
  1
6
  7
ROMANS
 72
     4
 11
-7.60189447329902
 21
5.664731573488462
 31
0.0
100
AcDbText
  0
CIRCLE
  5
30FE
330
395C
100
AcDbEntity
  8
TEXT_BUBBLES
100
AcDbCircle
 10
-7.60189447329902
 20
5.664731573488462
 30
0.0
 40
0.1562887347020049
  0
TEXT
  5
3100
330
395C
100
AcDbEntity
  8
TEXT_BUBBLES
100
AcDbText
 10
-4.823364992020034
 20
5.738626382787453
 30
0.0
 40
0.1250000018625
  1
 TIE BRACKET (1 OF 2)
  7
ROMANS
100
AcDbText
  0
LWPOLYLINE
  5
3101
330
395C
100
AcDbEntity
  8
IMAGE
100
AcDbPolyline
 90
        2
 70
     0
 43
0.0
 10
-10.27095088225452
 20
4.287887699517956
 10
-10.27095088225452
 20
4.019515474929704
  0
LWPOLYLINE
  5
3102
330
395C
100
AcDbEntity
  8
IMAGE
100
AcDbPolyline
 90
        2
 70
     0
 43
0.0
 10
-10.28494597270722
 20
4.287887699517956
 10
-10.28494597270722
 20
4.019515474929706
  0
LWPOLYLINE
  5
3103
330
395C
100
AcDbEntity
  8
IMAGE
100
AcDbPolyline
 90
        2
 70
     0
 43
0.0
 10
-10.28657588225451
 20
4.287887699517956
 10
-10.28657588225451
 20
4.019515474929705
  0
LWPOLYLINE
  5
3104
330
395C
100
AcDbEntity
  8
IMAGE
100
AcDbPolyline
 90
        2
 70
     0
 43
0.0
 10
-10.30057097270722
 20
4.287887699517956
 10
-10.30057097270722
 20
4.019515474929705
  0
CIRCLE
  5
3109
330
395C
100
AcDbEntity
  8
TEXT_BUBBLES
100
AcDbCircle
 10
-6.400295706043519
 20
6.340647024942938
 30
0.0
 40
0.1562887347020049
  0
TEXT
  5
310A
330
395C
100
AcDbEntity
  8
TEXT_BUBBLES
100
AcDbText
 10
-6.459834271644282
 20
6.278131531062136
 30
0.0
 40
0.1250309877616039
  1
5
  7
ROMANS
 72
     4
 11
-6.400295706043519
 21
6.340647024942938
 31
0.0
100
AcDbText
  0
TEXT
  5
3117
330
395C
100
AcDbEntity
  8
TEXT_BUBBLES
100
AcDbText
 10
-4.823364992020034
 20
6.28544321143763
 30
0.0
 40
0.1250000018625
  1
MOUNTING BRACKET
  7
ROMANS
100
AcDbText
  0
CIRCLE
  5
3118
330
395C
100
AcDbEntity
  8
TEXT_BUBBLES
100
AcDbCircle
 10
-5.031421163929497
 20
6.354645116045633
 30
0.0
 40
0.1562887347020049
  0
TEXT
  5
3119
330
395C
100
AcDbEntity
  8
TEXT_BUBBLES
100
AcDbText
 10
-5.09095972953026
 20
6.29212962216483
 30
0.0
 40
0.1250309877616039
  1
5
  7
ROMANS
 72
     4
 11
-5.031421163929497
 21
6.354645116045633
 31
0.0
100
AcDbText
  0
TEXT
  5
313E
330
395C
100
AcDbEntity
  8
TEXT_LEADERS
100
AcDbText
 10
-5.603470035685276
 20
5.154289348648083
 30
0.0
 40
0.1250000018625
  1
SECURE WIRE WITH CABLE
  7
ROMANS
100
AcDbText
  0
TEXT
  5
313F
330
395C
100
AcDbEntity
  8
TEXT_LEADERS
100
AcDbText
 10
-5.603470035685276
 20
4.971673691899943
 30
0.0
 40
0.1250000018625
  1
 TIE BRACKET (1 OF 2)
  7
ROMANS
100
AcDbText
  0
TEXT
  5
3140
330
395C
100
AcDbEntity
  8
TEXT_LEADERS
100
AcDbText
 10
-5.603470035685276
 20
7.979842577370112
 30
0.0
 40
0.1250000018625
  1
RAIN SENSOR:  RAIN BIRD RSD-BEx
  7
ROMANS
100
AcDbText
  0
TEXT
  5
3141
330
395C
100
AcDbEntity
  8
TEXT_LEADERS
100
AcDbText
 10
-5.603470035685276
 20
8.386826411110334
 30
0.0
 40
0.1250000018625
  1
PLASTIC TIE DOWN STRAP
  7
ROMANS
100
AcDbText
  0
TEXT
  5
3142
330
395C
100
AcDbEntity
  8
TEXT_LEADERS
100
AcDbText
 10
-5.603470035685276
 20
5.504023497133799
 30
0.0
 40
0.1250000018625
  1
WIRE TO IRRIGATION CONTROLLER
  7
ROMANS
100
AcDbText
  0
TEXT
  5
3143
330
395C
100
AcDbEntity
  8
TEXT_LEADERS
100
AcDbText
 10
-5.603470035685276
 20
8.776571825986069
 30
0.0
 40
0.1250000018625
  1
EAVE OF BUILDING
  7
ROMANS
100
AcDbText
  0
TEXT
  5
3144
330
395C
100
AcDbEntity
  8
TEXT_LEADERS
100
AcDbText
 10
-5.603470035685276
 20
5.863647939394949
 30
0.0
 40
0.1250000018625
  1
MOUNTING BRACKET
  7
ROMANS
100
AcDbText
  0
INSERT
  5
3997
330
395C
100
AcDbEntity
  8
TITLE
 62
    42
100
AcDbBlockReference
 66
     1
  2
TITLBLK
 10
-11.29429374105365
 20
1.979620292575821
 30
0.0
  0
ATTRIB
  5
3998
330
3997
100
AcDbEntity
  8
TITLE
100
AcDbText
 10
-10.66929374105365
 20
2.07962029257582
 30
0.0
 40
0.2
  1
RAIN SENSOR
  7
L200
100
AcDbAttribute
  2
TITLE2
 70
     0
  0
ATTRIB
  5
3999
330
3997
100
AcDbEntity
  8
TITLE
100
AcDbText
 10
-11.39518050776579
 20
1.87962029257582
 30
0.0
 40
0.2
  1
D
  7
L200
 72
     4
 11
-11.29429374105365
 21
1.97962029257582
 31
0.0
100
AcDbAttribute
  2
#
 70
     0
  0
ATTRIB
  5
399A
330
3997
100
AcDbEntity
  8
TITLE
 62
     7
100
AcDbText
 10
-10.66929374105365
 20
1.795956975492942
 30
0.0
 40
0.1
  1
N.T.S.
  7
L100
100
AcDbAttribute
  2
SCALE
 70
     0
  0
ATTRIB
  5
399B
330
3997
100
AcDbEntity
  8
TITLE
100
AcDbText
 10
-9.187090360399823
 20
1.688185962555772
 30
0.0
 40
0.2
  1
RSD-BEx ROOF BRACKET
  7
L200
100
AcDbAttribute
  2
TITLE3
 70
     0
  0
ATTRIB
  5
399C
330
3997
100
AcDbEntity
  8
TITLE
 62
     7
100
AcDbText
 10
-11.62530607512539
 20
1.180104844118174
 30
0.0
 40
0.08
  1
C-RSD-BEx ROOF.DWG
  7
L80
 72
     2
 11
-10.2195917894111
 21
1.180104844118174
 31
0.0
100
AcDbAttribute
  2
DWG-NAME
 70
     0
  0
ATTRIB
  5
399D
330
3997
100
AcDbEntity
  8
TITLE
 62
     7
100
AcDbText
 10
-4.211140329220803
 20
2.064995987642093
 30
0.0
 40
0.08
  1
1-07-04
  7
L80
 72
     2
 11
-3.639711757792232
 21
2.064995987642093
 31
0.0
100
AcDbAttribute
  2
REVISED
 70
     0
  0
ATTRIB
  5
399E
330
3997
100
AcDbEntity
  8
TITLE
100
AcDbText
 10
-10.66929374105365
 20
2.439105498844203
 30
0.0
 40
0.2
  1

  7
L200
100
AcDbAttribute
  2
TITLE1
 70
     0
  0
ATTRIB
  5
399F
330
3997
100
AcDbEntity
  8
TITLE
100
AcDbText
 10
-9.187090360399823
 20
1.364649276914227
 30
0.0
 40
0.2
  1

  7
L200
100
AcDbAttribute
  2
TITLE4
 70
     0
  0
SEQEND
  5
39A0
330
3997
100
AcDbEntity
  8
TEXT_BUBBLES
 62
    40
  0
LWPOLYLINE
  5
39A1
330
395C
100
AcDbEntity
  8
IMAGE
100
AcDbPolyline
 90
        4
 70
     1
 43
0.0
 10
-11.90073611156813
 20
1.095393196097453
 10
4.58926388843186
 20
1.095393196097453
 10
4.58926388843186
 20
11.53539319609745
 10
-11.90073611156813
 20
11.53539319609745
  0
LEADER
  5
39A5
330
395C
100
AcDbEntity
  8
TEXT_LEADERS
100
AcDbLeader
  3
STANDARD
 76
     3
 10
-8.569284366493763
 20
7.805921373466453
 30
0.0
 10
-6.883521590990503
 20
8.838980323800672
 30
0.0
 10
-5.653404379280302
 20
8.838980323800672
 30
0.0
1001
ACAD
1000
DSTYLE
1002
{
1070
   147
1040
0.09
1070
    77
1070
     0
1002
}
  0
LEADER
  5
39A6
330
395C
100
AcDbEntity
  8
TEXT_LEADERS
100
AcDbLeader
  3
STANDARD
 76
     3
 10
-7.358696141538834
 20
7.16202044384833
 30
0.0
 10
-6.515181420367061
 20
8.44995162359158
 30
0.0
 10
-5.646454545085278
 20
8.44995162359158
 30
0.0
1001
ACAD
1000
DSTYLE
1002
{
1070
   147
1040
0.09
1070
    77
1070
     0
1002
}
  0
LEADER
  5
39A7
330
395C
100
AcDbEntity
  8
TEXT_LEADERS
100
AcDbLeader
  3
STANDARD
 76
     3
 10
-6.306686962723341
 20
7.715165383409737
 30
0.0
 10
-6.007844913080751
 20
8.040082128986824
 30
0.0
 10
-5.646454545085278
 20
8.040082128986824
 30
0.0
1001
ACAD
1000
DSTYLE
1002
{
1070
   147
1040
0.09
1070
    77
1070
     0
1002
}
  0
LEADER
  5
39A8
330
395C
100
AcDbEntity
  8
TEXT_LEADERS
100
AcDbLeader
  3
STANDARD
 76
     3
 10
-7.175413806438069
 20
6.988853320296493
 30
0.0
 10
-6.160740854999557
 20
5.928212105038901
 30
0.0
 10
-5.63950474245731
 20
5.928212105038901
 30
0.0
1001
ACAD
1000
DSTYLE
1002
{
1070
   147
1040
0.09
1070
    77
1070
     0
1002
}
  0
LEADER
  5
39A9
330
395C
100
AcDbEntity
  8
TEXT_LEADERS
100
AcDbLeader
  3
STANDARD
 76
     3
 10
-8.536824560711142
 20
6.332645303159339
 30
0.0
 10
-7.321359914161852
 20
5.56697117961403
 30
0.0
 10
-5.632554908262286
 20
5.56697117961403
 30
0.0
1001
ACAD
1000
DSTYLE
1002
{
1070
   147
1040
0.09
1070
    77
1070
     0
1002
}
  0
LEADER
  5
39AA
330
395C
100
AcDbEntity
  8
TEXT_LEADERS
100
AcDbLeader
  3
STANDARD
 76
     3
 10
-8.693400682362968
 20
6.072986821459059
 30
0.0
 10
-7.328309748356875
 20
5.219624152064842
 30
0.0
 10
-5.632554908262286
 20
5.219624152064842
 30
0.0
1001
ACAD
1000
DSTYLE
1002
{
1070
   147
1040
0.09
1070
    77
1070
     0
1002
}
  0
LEADER
  5
39AD
330
395C
100
AcDbEntity
  8
TEXT_BUBBLES
100
AcDbLeader
  3
STANDARD
 76
     2
 10
-8.348567162520572
 20
7.678490236337749
 30
0.0
 10
-7.758183208001025
 20
8.175924560406304
 30
0.0
1001
ACAD
1000
DSTYLE
1002
{
1070
   147
1040
0.09
1070
    77
1070
     0
1002
}
  0
LEADER
  5
39AE
330
395C
100
AcDbEntity
  8
TEXT_BUBBLES
100
AcDbLeader
  3
STANDARD
 76
     2
 10
-6.386163928389063
 20
7.715165383409737
 30
0.0
 10
-6.732757815111241
 20
8.175924560406304
 30
0.0
1001
ACAD
1000
DSTYLE
1002
{
1070
   147
1040
0.09
1070
    77
1070
     0
1002
}
  0
LEADER
  5
39AF
330
395C
100
AcDbEntity
  8
TEXT_BUBBLES
100
AcDbLeader
  3
STANDARD
 76
     2
 10
-6.908829402177405
 20
6.988853320296493
 30
0.0
 10
-6.556584440745524
 20
6.340647024942938
 30
0.0
1001
ACAD
1000
DSTYLE
1002
{
1070
   147
1040
0.09
1070
    77
1070
     0
1002
}
  0
LEADER
  5
39B0
330
395C
100
AcDbEntity
  8
TEXT_BUBBLES
100
AcDbLeader
  3
STANDARD
 76
     2
 10
-7.358696141538834
 20
6.971936196744657
 30
0.0
 10
-7.045335284515251
 20
6.340647024942938
 30
0.0
1001
ACAD
1000
DSTYLE
1002
{
1070
   147
1040
0.09
1070
    77
1070
     0
1002
}
  0
LEADER
  5
39B1
330
395C
100
AcDbEntity
  8
TEXT_BUBBLES
100
AcDbLeader
  3
STANDARD
 76
     2
 10
-7.967166833755858
 20
6.908096291325835
 30
0.0
 10
-7.758183208001025
 20
6.340647024942938
 30
0.0
1001
ACAD
1000
DSTYLE
1002
{
1070
   147
1040
0.09
1070
    77
1070
     0
1002
}
  0
LEADER
  5
39B2
330
395C
100
AcDbEntity
  8
TEXT_BUBBLES
100
AcDbLeader
  3
STANDARD
 76
     2
 10
-8.684717288948666
 20
6.087874438443153
 30
0.0
 10
-7.758183208001025
 20
5.664731573488462
 30
0.0
1001
ACAD
1000
DSTYLE
1002
{
1070
   147
1040
0.09
1070
    77
1070
     0
1002
}
  0
LWPOLYLINE
  5
39B4
330
395C
100
AcDbEntity
  8
IMAGE
  6
0
100
AcDbPolyline
 90
       25
 70
     0
 43
0.0
 10
-6.453971751167345
 20
6.911855949676851
 10
-6.453523091962392
 20
6.91230563204989
 10
-6.447346226237632
 20
6.910396400404636
 10
-6.447233677748362
 20
6.910396400404636
 10
-6.447233677748362
 20
6.910508437309863
 10
-6.447121640843135
 20
6.910508437309863
 10
-6.447009092353864
 20
6.910620985799134
 10
-6.446897055448636
 20
6.910620985799134
 10
-6.446897055448636
 20
6.910733534288404
 10
-6.446784506959367
 20
6.910733534288404
 10
-6.446784506959367
 20
6.910845571193632
 10
-6.446672470054139
 20
6.910957608098859
 10
-6.446672470054139
 20
6.911182193493357
 10
-6.448244567815624
 20
6.913203973627882
 10
-6.443527762947124
 20
6.912530217444388
 10
-6.443415726041896
 20
6.912530217444388
 10
-6.443415726041896
 20
6.912642254349615
 10
-6.443303177552626
 20
6.912642254349615
 10
-6.443303177552626
 20
6.912754802838886
 10
-6.443303177552626
 20
6.912866839744114
 10
-6.443303177552626
 20
6.912979388233384
 10
-6.443303177552626
 20
6.913091425138611
 10
-6.443303177552626
 20
6.913203973627882
 10
-6.443303177552626
 20
6.91331601053311
 10
-6.443303177552626
 20
6.913540595927608
  0
LWPOLYLINE
  5
39B5
330
395C
100
AcDbEntity
  8
IMAGE
  6
0
100
AcDbPolyline
 90
       52
 70
     1
 43
0.0
 10
-6.316174031497609
 20
6.916348169150855
 10
-6.312692702090869
 20
6.915899509945901
 10
-6.31246811669637
 20
6.915562376062132
 10
-6.312356079791142
 20
6.915337790667634
 10
-6.312131494396645
 20
6.915000656783866
 10
-6.312018945907374
 20
6.914664034484141
 10
-6.312018945907374
 20
6.914326900600372
 10
-6.311906397418104
 20
6.913990278300646
 10
-6.311906397418104
 20
6.913653144416877
 10
-6.311906397418104
 20
6.913203973627882
 10
-6.311906397418104
 20
6.912866839744114
 10
-6.311906397418104
 20
6.91241818053916
 10
-6.311906397418104
 20
6.912081046655392
 10
-6.311906397418104
 20
6.911743912771624
 10
-6.312018945907374
 20
6.911294741982628
 10
-6.312018945907374
 20
6.910957608098859
 10
-6.312018945907374
 20
6.910283851915365
 10
-6.312243531301872
 20
6.90994722961564
 10
-6.312356079791142
 20
6.909610095731872
 10
-6.31246811669637
 20
6.909273473432146
 10
-6.31258066518564
 20
6.909048888037647
 10
-6.312692702090869
 20
6.908711754153879
 10
-6.312805250580138
 20
6.908487168759382
 10
-6.312917287485366
 20
6.908150034875614
 10
-6.313029835974636
 20
6.907925449481115
 10
-6.313141872879865
 20
6.907700864086617
 10
-6.313254421369134
 20
6.907476278692119
 10
-6.313366458274362
 20
6.907139656392393
 10
-6.313479006763633
 20
6.906915070997895
 10
-6.313591043668861
 20
6.906689974019355
 10
-6.31370359215813
 20
6.906465900208899
 10
-6.313928177552629
 20
6.90612876632513
 10
-6.314377348341625
 20
6.905567047046865
 10
-6.314714482225393
 20
6.905005839352641
 10
-6.315163653014389
 20
6.904556668563644
 10
-6.315612823803385
 20
6.904107497774649
 10
-6.316061994592381
 20
6.90377036389088
 10
-6.316623713870647
 20
6.903321193101884
 10
-6.317072884659642
 20
6.902984059218116
 10
-6.317634092353866
 20
6.902759473823619
 10
-6.318195811632133
 20
6.902422851523892
 10
-6.318869567815627
 20
6.902198266129395
 10
-6.319430775509851
 20
6.902085717640124
 10
-6.320105043277387
 20
6.901973680734896
 10
-6.320778799460882
 20
6.901861132245626
 10
-6.321452555644375
 20
6.901861132245626
 10
-6.322800068011363
 20
6.902085717640124
 10
-6.316623713870647
 20
6.916236132245626
 10
-6.316511165381377
 20
6.916236132245626
 10
-6.316398616892107
 20
6.916236132245626
 10
-6.316286579986878
 20
6.916236132245626
 10
-6.316174031497609
 20
6.916348169150855
  0
LWPOLYLINE
  5
39B6
330
395C
100
AcDbEntity
  8
IMAGE
  6
0
100
AcDbPolyline
 90
       76
 70
     1
 43
0.0
 10
-6.343913653014388
 20
6.917134473823619
 10
-6.343801104525118
 20
6.91702243691839
 10
-6.34368906761989
 20
6.91702243691839
 10
-6.34357651913062
 20
6.91702243691839
 10
-6.343464482225392
 20
6.91702243691839
 10
-6.343351933736122
 20
6.91702243691839
 10
-6.343127348341624
 20
6.91702243691839
 10
-6.343014799852354
 20
6.91702243691839
 10
-6.342902762947126
 20
6.91690988842912
 10
-6.342790214457856
 20
6.91690988842912
 10
-6.342678177552627
 20
6.91690988842912
 10
-6.34245359215813
 20
6.916797851523893
 10
-6.342341043668859
 20
6.916797851523893
 10
-6.342229006763632
 20
6.916685303034622
 10
-6.342116458274362
 20
6.916573266129394
 10
-6.341779835974636
 20
6.916460717640124
 10
-6.341779835974636
 20
6.916011546851128
 10
-6.341779835974636
 20
6.915674412967359
 10
-6.341779835974636
 20
6.915449827572862
 10
-6.341891872879864
 20
6.915113205273136
 10
-6.341891872879864
 20
6.914776071389368
 10
-6.342004421369134
 20
6.914551997578913
 10
-6.342229006763632
 20
6.914214863695144
 10
-6.342341043668859
 20
6.913990278300646
 10
-6.342565629063358
 20
6.913653144416877
 10
-6.342678177552627
 20
6.91342855902238
 10
-6.342902762947126
 20
6.913203973627882
 10
-6.343127348341624
 20
6.912979388233384
 10
-6.343351933736122
 20
6.912754802838886
 10
-6.34357651913062
 20
6.912530217444388
 10
-6.343913653014388
 20
6.912081046655392
 10
-6.344250275314114
 20
6.911855949676851
 10
-6.344474860708612
 20
6.911631875866396
 10
-6.34469944610311
 20
6.911519327377125
 10
-6.345036579986878
 20
6.911407290471897
 10
-6.345261165381376
 20
6.911294741982628
 10
-6.345598299265144
 20
6.911182193493357
 10
-6.3458223730756
 20
6.91107015658813
 10
-6.34604747005414
 20
6.91107015658813
 10
-6.346384092353866
 20
6.910957608098859
 10
-6.346608677748364
 20
6.910957608098859
 10
-6.346945811632132
 20
6.910957608098859
 10
-6.347170397026631
 20
6.910957608098859
 10
-6.347507530910399
 20
6.910957608098859
 10
-6.347731604720855
 20
6.910957608098859
 10
-6.348181287093892
 20
6.910957608098859
 10
-6.348517909393619
 20
6.910957608098859
 10
-6.348630457882889
 20
6.91107015658813
 10
-6.348742494788116
 20
6.911182193493357
 10
-6.348855043277387
 20
6.911294741982628
 10
-6.348967080182615
 20
6.911519327377125
 10
-6.348967080182615
 20
6.911631875866396
 10
-6.348855043277387
 20
6.911855949676851
 10
-6.348855043277387
 20
6.912081046655392
 10
-6.348742494788116
 20
6.91230563204989
 10
-6.348742494788116
 20
6.912530217444388
 10
-6.348630457882889
 20
6.912754802838886
 10
-6.348517909393619
 20
6.912979388233384
 10
-6.348405360904348
 20
6.913203973627882
 10
-6.34829332399912
 20
6.91342855902238
 10
-6.348068738604622
 20
6.913765692906148
 10
-6.347956701699395
 20
6.913990278300646
 10
-6.347844153210124
 20
6.914214863695144
 10
-6.347731604720855
 20
6.914439449089642
 10
-6.347619567815626
 20
6.914664034484141
 10
-6.347507530910399
 20
6.914776071389368
 10
-6.347394982421128
 20
6.915000656783866
 10
-6.347394982421128
 20
6.915225753762406
 10
-6.347282433931858
 20
6.915449827572862
 10
-6.347170397026631
 20
6.915562376062132
 10
-6.34705784853736
 20
6.91578696145663
 10
-6.346945811632132
 20
6.915899509945901
 10
-6.346833263142862
 20
6.916124095340398
 10
-6.346608677748364
 20
6.916236132245626
 10
-6.346496640843136
 20
6.916348169150855
 10
-6.34604747005414
 20
6.916685303034622
  0
LWPOLYLINE
  5
39B7
330
395C
100
AcDbEntity
  8
IMAGE
  6
0
100
AcDbPolyline
 90
       84
 70
     1
 43
0.0
 10
-6.322463445711638
 20
6.923423888037647
 10
-6.321340007155106
 20
6.923311339548377
 10
-6.319992494788118
 20
6.923311339548377
 10
-6.318757530910399
 20
6.923311339548377
 10
-6.317409506959369
 20
6.923423888037647
 10
-6.316061994592381
 20
6.923423888037647
 10
-6.314601933736122
 20
6.923423888037647
 10
-6.313254421369134
 20
6.923311339548377
 10
-6.311906397418104
 20
6.923198791059108
 10
-6.310558885051116
 20
6.923086754153879
 10
-6.309323921173398
 20
6.922862168759381
 10
-6.308088445711637
 20
6.922525034875612
 10
-6.306965518739148
 20
6.922076375670659
 10
-6.305842080182616
 20
6.921514656392393
 10
-6.304831701699395
 20
6.920840388624856
 10
-6.303147055448639
 20
6.919156253958142
 10
-6.303147055448639
 20
6.919043705468872
 10
-6.303034506959369
 20
6.918931668563645
 10
-6.303034506959369
 20
6.918819120074374
 10
-6.303034506959369
 20
6.918706571585104
 10
-6.302922470054141
 20
6.918706571585104
 10
-6.302922470054141
 20
6.918594534679876
 10
-6.302809921564871
 20
6.918481986190606
 10
-6.302809921564871
 20
6.918369949285378
 10
-6.302697884659643
 20
6.918369949285378
 10
-6.302472787681103
 20
6.917808741591155
 10
-6.302248202286605
 20
6.917359059218116
 10
-6.302136165381377
 20
6.916797851523893
 10
-6.301911579986879
 20
6.916236132245626
 10
-6.301799031497609
 20
6.915674412967359
 10
-6.301686994592381
 20
6.915113205273136
 10
-6.301686994592381
 20
6.914551997578913
 10
-6.301574446103111
 20
6.913990278300646
 10
-6.301574446103111
 20
6.91342855902238
 10
-6.301574446103111
 20
6.912866839744114
 10
-6.301574446103111
 20
6.91230563204989
 10
-6.301686994592381
 20
6.911743912771624
 10
-6.301799031497609
 20
6.91107015658813
 10
-6.301911579986879
 20
6.910508437309863
 10
-6.302136165381377
 20
6.909385510337373
 10
-6.302360750775875
 20
6.908936339548377
 10
-6.302472787681103
 20
6.908487168759382
 10
-6.302585336170373
 20
6.908150034875614
 10
-6.302697884659643
 20
6.907700864086617
 10
-6.302809921564871
 20
6.907251693297621
 10
-6.303034506959369
 20
6.906802522508625
 10
-6.303147055448639
 20
6.906465900208899
 10
-6.303259092353867
 20
6.906016217835861
 10
-6.303483677748365
 20
6.905679595536135
 10
-6.303596226237636
 20
6.905230424747139
 10
-6.303708774726906
 20
6.904893802447412
 10
-6.303932848537361
 20
6.904444120074375
 10
-6.30415743393186
 20
6.904107497774649
 10
-6.304382019326357
 20
6.90377036389088
 10
-6.304719153210125
 20
6.903209156196656
 10
-6.304831701699395
 20
6.903096607707387
 10
-6.304831701699395
 20
6.902984059218116
 10
-6.304943738604624
 20
6.902872022312889
 10
-6.304943738604624
 20
6.902759473823619
 10
-6.305056287093893
 20
6.902647436918391
 10
-6.305056287093893
 20
6.90253488842912
 10
-6.305056287093893
 20
6.902422851523892
 10
-6.306291250971612
 20
6.900625656783867
 10
-6.30775131182787
 20
6.89905355902238
 10
-6.309211372684128
 20
6.89781808356062
 10
-6.310896018934884
 20
6.896807193493358
 10
-6.312692702090869
 20
6.896133437309863
 10
-6.314601933736122
 20
6.895459681126371
 10
-6.316623713870647
 20
6.895123058826643
 10
-6.31864498242113
 20
6.894785924942875
 10
-6.320778799460882
 20
6.894673376453606
 10
-6.322912616500634
 20
6.894561339548377
 10
-6.325158470445614
 20
6.894561339548377
 10
-6.327292287485366
 20
6.894561339548377
 10
-6.329538653014388
 20
6.894561339548377
 10
-6.33167247005414
 20
6.894673376453606
 10
-6.335827555644375
 20
6.894673376453606
 10
-6.333693738604623
 20
6.90129941296736
 10
-6.323024653405862
 20
6.923311339548377
 10
-6.322912616500634
 20
6.923311339548377
 10
-6.322800068011363
 20
6.923311339548377
 10
-6.322688031106135
 20
6.923311339548377
 10
-6.322575482616866
 20
6.923311339548377
 10
-6.322463445711638
 20
6.923423888037647
  0
LWPOLYLINE
  5
39B8
330
395C
100
AcDbEntity
  8
IMAGE
  6
0
100
AcDbPolyline
 90
      111
 70
     1
 43
0.0
 10
-6.395573921173396
 20
6.933418705468872
 10
-6.394450482616864
 20
6.933306668563644
 10
-6.393215007155104
 20
6.933306668563644
 10
-6.392092080182614
 20
6.933306668563644
 10
-6.390856604720854
 20
6.933306668563644
 10
-6.389621640843135
 20
6.933306668563644
 10
-6.388386165381375
 20
6.933418705468872
 10
-6.387150689919615
 20
6.933418705468872
 10
-6.385915726041897
 20
6.933418705468872
 10
-6.384680250580137
 20
6.933418705468872
 10
-6.383444775118377
 20
6.933418705468872
 10
-6.382209299656617
 20
6.933306668563644
 10
-6.380974335778899
 20
6.933082083169146
 10
-6.379850897222366
 20
6.932857497774648
 10
-6.378727970249876
 20
6.93252036389088
 10
-6.376482116304896
 20
6.931622022312888
 10
-6.376032433931858
 20
6.930948266129394
 10
-6.375583263142861
 20
6.9302745099459
 10
-6.375246640843135
 20
6.929488205273135
 10
-6.375021543864596
 20
6.928814449089641
 10
-6.37479747005414
 20
6.927916107511649
 10
-6.374572884659642
 20
6.927129802838885
 10
-6.374572884659642
 20
6.926231461260893
 10
-6.374460336170372
 20
6.925333119682901
 10
-6.374572884659642
 20
6.924434266520867
 10
-6.374572884659642
 20
6.923535924942876
 10
-6.37479747005414
 20
6.922750131854153
 10
-6.374909506959368
 20
6.921851278692119
 10
-6.375246640843135
 20
6.920952937114126
 10
-6.375583263142861
 20
6.920166632441363
 10
-6.376257530910399
 20
6.918706571585104
 10
-6.376706701699394
 20
6.91814536389088
 10
-6.37704332399912
 20
6.917696193101884
 10
-6.377380457882888
 20
6.917247022312889
 10
-6.377829628671884
 20
6.91690988842912
 10
-6.37816625097161
 20
6.916460717640124
 10
-6.378615421760606
 20
6.916124095340398
 10
-6.379065104133645
 20
6.91578696145663
 10
-6.37940172643337
 20
6.915449827572862
 10
-6.379850897222366
 20
6.915113205273136
 10
-6.380300068011362
 20
6.914776071389368
 10
-6.380749238800358
 20
6.914439449089642
 10
-6.381310958078624
 20
6.914214863695144
 10
-6.381760128867621
 20
6.913877729811376
 10
-6.382209299656617
 20
6.913653144416877
 10
-6.383107641234609
 20
6.913203973627882
 10
-6.382995604329381
 20
6.912642254349615
 10
-6.38288305584011
 20
6.911968498166122
 10
-6.382771018934882
 20
6.911407290471897
 10
-6.382658470445613
 20
6.910733534288404
 10
-6.382433885051114
 20
6.910059266520867
 10
-6.382321848145886
 20
6.909385510337373
 10
-6.382209299656617
 20
6.908711754153879
 10
-6.382097262751388
 20
6.907925449481115
 10
-6.382097262751388
 20
6.907251693297621
 10
-6.382097262751388
 20
6.906465900208899
 10
-6.382097262751388
 20
6.905679595536135
 10
-6.382097262751388
 20
6.905005839352641
 10
-6.382209299656617
 20
6.904219534679877
 10
-6.382433885051114
 20
6.903433230007113
 10
-6.382995604329381
 20
6.902085717640124
 10
-6.383220189723878
 20
6.901861132245626
 10
-6.383332226629106
 20
6.901636546851128
 10
-6.383444775118377
 20
6.901523998361858
 10
-6.383444775118377
 20
6.90129941296736
 10
-6.383556812023605
 20
6.901187376062133
 10
-6.383669360512875
 20
6.900962790667635
 10
-6.383781909002145
 20
6.900850242178364
 10
-6.383781909002145
 20
6.900738205273136
 10
-6.383893945907373
 20
6.900513108294596
 10
-6.384006494396643
 20
6.900401071389368
 10
-6.38411853130187
 20
6.900289034484139
 10
-6.384231079791141
 20
6.900064449089642
 10
-6.384231079791141
 20
6.899951900600372
 10
-6.384343116696369
 20
6.899727315205875
 10
-6.384567702090866
 20
6.899502729811376
 10
-6.386027762947125
 20
6.898155217444387
 10
-6.387599860708611
 20
6.897032290471898
 10
-6.389284506959367
 20
6.896245985799134
 10
-6.391081190115351
 20
6.89557222961564
 10
-6.392878384855378
 20
6.895235095731871
 10
-6.394787616500632
 20
6.894898473432145
 10
-6.396808885051115
 20
6.894785924942875
 10
-6.398830665185639
 20
6.894785924942875
 10
-6.400851933736121
 20
6.894785924942875
 10
-6.402985750775873
 20
6.894898473432145
 10
-6.405119567815625
 20
6.895010510337374
 10
-6.407140836366107
 20
6.895123058826643
 10
-6.409275164989902
 20
6.895235095731871
 10
-6.411296433540384
 20
6.895235095731871
 10
-6.41522693373612
 20
6.895123058826643
 10
-6.414328592158129
 20
6.897481461260894
 10
-6.413430250580137
 20
6.899839863695144
 10
-6.412306812023604
 20
6.902198266129395
 10
-6.411296433540384
 20
6.904556668563644
 10
-6.410060958078624
 20
6.906915070997895
 10
-6.408938031106134
 20
6.909385510337373
 10
-6.407702555644373
 20
6.911743912771624
 10
-6.406355043277386
 20
6.914214863695144
 10
-6.405119567815625
 20
6.916573266129394
 10
-6.403884092353865
 20
6.918931668563645
 10
-6.402536579986877
 20
6.921402107903123
 10
-6.401189067619889
 20
6.923760510337372
 10
-6.399953592158128
 20
6.926118912771623
 10
-6.39860607979114
 20
6.928477315205873
 10
-6.39613512886762
 20
6.933306668563644
 10
-6.396023091962392
 20
6.933306668563644
 10
-6.395910543473123
 20
6.933306668563644
 10
-6.395797994983852
 20
6.933306668563644
 10
-6.395685958078624
 20
6.933306668563644
 10
-6.395573921173396
 20
6.933418705468872
  0
LWPOLYLINE
  5
39B9
330
395C
100
AcDbEntity
  8
IMAGE
  6
0
100
AcDbPolyline
 90
      103
 70
     1
 43
0.0
 10
-6.352336372684127
 20
6.923423888037647
 10
-6.351213445711637
 20
6.923311339548377
 10
-6.350090518739147
 20
6.923311339548377
 10
-6.348855043277387
 20
6.923311339548377
 10
-6.347619567815626
 20
6.923311339548377
 10
-6.346272055448638
 20
6.923423888037647
 10
-6.345036579986878
 20
6.923535924942876
 10
-6.343801104525118
 20
6.923535924942876
 10
-6.342565629063358
 20
6.923648473432145
 10
-6.34133066518564
 20
6.923535924942876
 10
-6.340095189723879
 20
6.923423888037647
 10
-6.338859714262119
 20
6.923311339548377
 10
-6.337736787289629
 20
6.922974205664608
 10
-6.336613860317139
 20
6.922525034875612
 10
-6.335602970249877
 20
6.922076375670659
 10
-6.333693738604623
 20
6.920503766325131
 10
-6.333356604720854
 20
6.919830010141636
 10
-6.333132019326357
 20
6.919268290863371
 10
-6.332907433931858
 20
6.918594534679876
 10
-6.332682848537361
 20
6.91803281540161
 10
-6.332570811632133
 20
6.917359059218116
 10
-6.332570811632133
 20
6.916685303034622
 10
-6.332570811632133
 20
6.916011546851128
 10
-6.332570811632133
 20
6.915449827572862
 10
-6.332682848537361
 20
6.914776071389368
 10
-6.332795397026631
 20
6.914102315205873
 10
-6.332907433931858
 20
6.91342855902238
 10
-6.333132019326357
 20
6.912866839744114
 10
-6.333244567815627
 20
6.91219308356062
 10
-6.333581701699395
 20
6.911631875866396
 10
-6.334030872488392
 20
6.910508437309863
 10
-6.334142909393619
 20
6.910396400404636
 10
-6.334142909393619
 20
6.910283851915365
 10
-6.334255457882889
 20
6.910171815010137
 10
-6.334255457882889
 20
6.910059266520867
 10
-6.334367494788117
 20
6.90994722961564
 10
-6.334367494788117
 20
6.909834681126369
 10
-6.334480043277387
 20
6.909834681126369
 10
-6.334480043277387
 20
6.909722644221141
 10
-6.334480043277387
 20
6.909610095731872
 10
-6.334592080182614
 20
6.909610095731872
 10
-6.334592080182614
 20
6.909498058826644
 10
-6.334592080182614
 20
6.909385510337373
 10
-6.337063031106136
 20
6.906802522508625
 10
-6.343239896830894
 20
6.904444120074375
 10
-6.343351933736122
 20
6.904331571585105
 10
-6.343464482225392
 20
6.904331571585105
 10
-6.343464482225392
 20
6.904219534679877
 10
-6.343464482225392
 20
6.904107497774649
 10
-6.343464482225392
 20
6.903994949285379
 10
-6.340432323607648
 20
6.894785924942875
 10
-6.34829332399912
 20
6.894673376453606
 10
-6.352448409589355
 20
6.904331571585105
 10
-6.353010128867621
 20
6.903882912380151
 10
-6.353459299656617
 20
6.903433230007113
 10
-6.353796433540385
 20
6.902984059218116
 10
-6.354245604329381
 20
6.902422851523892
 10
-6.354582226629108
 20
6.901861132245626
 10
-6.354919360512876
 20
6.90129941296736
 10
-6.355255982812601
 20
6.900738205273136
 10
-6.355593116696369
 20
6.900064449089642
 10
-6.355817702090868
 20
6.899502729811376
 10
-6.356154835974636
 20
6.898828973627882
 10
-6.356491458274362
 20
6.898155217444387
 10
-6.35671604366886
 20
6.897481461260894
 10
-6.357053177552628
 20
6.896919741982628
 10
-6.357390311436396
 20
6.896245985799134
 10
-6.358064067619889
 20
6.895123058826643
 10
-6.367048506567894
 20
6.894673376453606
 10
-6.366598824194857
 20
6.896021400404635
 10
-6.366149653405861
 20
6.897368912771623
 10
-6.365588445711637
 20
6.898828973627882
 10
-6.364914689528142
 20
6.90017648599487
 10
-6.364352970249877
 20
6.901636546851128
 10
-6.363679214066382
 20
6.902984059218116
 10
-6.362892909393618
 20
6.904444120074375
 10
-6.362219153210124
 20
6.905791632441363
 10
-6.361432848537361
 20
6.907251693297621
 10
-6.360647055448638
 20
6.908599717248651
 10
-6.359972787681102
 20
6.910059266520867
 10
-6.35918699459238
 20
6.911407290471897
 10
-6.358513238408885
 20
6.912866839744114
 10
-6.357726933736121
 20
6.914214863695144
 10
-6.356379421369133
 20
6.917134473823619
 10
-6.356154835974636
 20
6.917471607707386
 10
-6.355930250580137
 20
6.917920778496382
 10
-6.355705665185639
 20
6.91825791238015
 10
-6.355481079791141
 20
6.918706571585104
 10
-6.355255982812601
 20
6.919043705468872
 10
-6.355031909002145
 20
6.919492876257868
 10
-6.354806812023605
 20
6.919830010141636
 10
-6.354582226629108
 20
6.920279180930632
 10
-6.354357641234609
 20
6.920616314814401
 10
-6.354133055840112
 20
6.921065485603396
 10
-6.354021018934883
 20
6.921402107903123
 10
-6.353796433540385
 20
6.92173924178689
 10
-6.353571848145887
 20
6.922188412575887
 10
-6.353347262751389
 20
6.922525034875612
 10
-6.352785543473123
 20
6.923311339548377
 10
-6.352673506567895
 20
6.923311339548377
 10
-6.352560958078625
 20
6.923311339548377
 10
-6.352448409589355
 20
6.923311339548377
 10
-6.352336372684127
 20
6.923423888037647
  0
LWPOLYLINE
  5
39BA
330
395C
100
AcDbEntity
  8
IMAGE
  6
0
100
AcDbPolyline
 90
       12
 70
     1
 43
0.0
 10
-6.367946848145887
 20
6.923423888037647
 10
-6.35907444610311
 20
6.923423888037647
 10
-6.373337409197882
 20
6.895123058826643
 10
-6.381984714262118
 20
6.894898473432145
 10
-6.382097262751388
 20
6.894898473432145
 10
-6.382097262751388
 20
6.895010510337374
 10
-6.382209299656617
 20
6.895123058826643
 10
-6.382209299656617
 20
6.895235095731871
 10
-6.382209299656617
 20
6.895347644221142
 10
-6.368171433540385
 20
6.923311339548377
 10
-6.368058885051114
 20
6.923311339548377
 10
-6.367946848145887
 20
6.923423888037647
  0
LWPOLYLINE
  5
39BB
330
395C
100
AcDbEntity
  8
IMAGE
  6
0
100
AcDbPolyline
 90
       60
 70
     1
 43
0.0
 10
-6.528205665185636
 20
6.923760510337372
 10
-6.51562734834162
 20
6.923760510337372
 10
-6.520793323999117
 20
6.895684266520868
 10
-6.52876687287986
 20
6.895459681126371
 10
-6.528991458274358
 20
6.89557222961564
 10
-6.529216043668856
 20
6.895684266520868
 10
-6.529328592158126
 20
6.895908851915366
 10
-6.529328592158126
 20
6.896133437309863
 10
-6.529328592158126
 20
6.896358534288403
 10
-6.529328592158126
 20
6.896583119682902
 10
-6.529328592158126
 20
6.896807193493358
 10
-6.529216043668856
 20
6.897144327377126
 10
-6.529216043668856
 20
6.897368912771623
 10
-6.529104006763629
 20
6.897593498166122
 10
-6.528991458274358
 20
6.89781808356062
 10
-6.52887942136913
 20
6.898155217444387
 10
-6.52876687287986
 20
6.898379802838886
 10
-6.52865432439059
 20
6.898604388233384
 10
-6.528430250580134
 20
6.899165595927608
 10
-6.528542287485362
 20
6.899165595927608
 10
-6.528542287485362
 20
6.899278144416878
 10
-6.528542287485362
 20
6.899390692906148
 10
-6.52865432439059
 20
6.899390692906148
 10
-6.52865432439059
 20
6.899502729811376
 10
-6.52876687287986
 20
6.899615278300646
 10
-6.52876687287986
 20
6.899727315205875
 10
-6.52876687287986
 20
6.899839863695144
 10
-6.529553177552624
 20
6.899727315205875
 10
-6.530226933736118
 20
6.899727315205875
 10
-6.530900689919612
 20
6.899839863695144
 10
-6.531574446103106
 20
6.899839863695144
 10
-6.532360750775871
 20
6.899839863695144
 10
-6.533034506959364
 20
6.899951900600372
 10
-6.533708263142859
 20
6.899951900600372
 10
-6.534382019326353
 20
6.899951900600372
 10
-6.535055775509847
 20
6.899951900600372
 10
-6.535730043277383
 20
6.899839863695144
 10
-6.536403799460877
 20
6.899727315205875
 10
-6.537077555644371
 20
6.899502729811376
 10
-6.537639274922637
 20
6.899278144416878
 10
-6.538200482616861
 20
6.898941522117151
 10
-6.539211372684123
 20
6.898042668955118
 10
-6.539435958078621
 20
6.89781808356062
 10
-6.539548506567891
 20
6.897593498166122
 10
-6.539660543473119
 20
6.897368912771623
 10
-6.539772580378348
 20
6.897256875866396
 10
-6.539885128867617
 20
6.897032290471898
 10
-6.539997165772845
 20
6.896919741982628
 10
-6.540109714262116
 20
6.89669515658813
 10
-6.540222262751385
 20
6.896583119682902
 10
-6.540446848145884
 20
6.896358534288403
 10
-6.540558885051111
 20
6.896245985799134
 10
-6.540671433540381
 20
6.896021400404635
 10
-6.540783470445609
 20
6.895908851915366
 10
-6.541008055840107
 20
6.895796815010138
 10
-6.541120604329377
 20
6.895684266520868
 10
-6.541457226629104
 20
6.895459681126371
 10
-6.551115421760603
 20
6.895459681126371
 10
-6.528317702090864
 20
6.923760510337372
 10
-6.528205665185636
 20
6.923760510337372
  0
LWPOLYLINE
  5
39BC
330
395C
100
AcDbEntity
  8
IMAGE
  6
0
100
AcDbPolyline
 90
       71
 70
     1
 43
0.0
 10
-6.489011165381374
 20
6.923760510337372
 10
-6.480139274922638
 20
6.923760510337372
 10
-6.47856666557711
 20
6.91107015658813
 10
-6.47856666557711
 20
6.910845571193632
 10
-6.478454628671882
 20
6.910620985799134
 10
-6.478342080182613
 20
6.910620985799134
 10
-6.478230043277384
 20
6.910508437309863
 10
-6.478117494788114
 20
6.910508437309863
 10
-6.478005457882886
 20
6.910620985799134
 10
-6.477892909393616
 20
6.910733534288404
 10
-6.477780872488388
 20
6.910845571193632
 10
-6.477668323999118
 20
6.910957608098859
 10
-6.477556287093889
 20
6.911182193493357
 10
-6.47744373860462
 20
6.911294741982628
 10
-6.47733119011535
 20
6.911519327377125
 10
-6.477219153210122
 20
6.911631875866396
 10
-6.477107116304894
 20
6.911743912771624
 10
-6.476882019326354
 20
6.912081046655392
 10
-6.476882019326354
 20
6.91230563204989
 10
-6.476769982421126
 20
6.912642254349615
 10
-6.476657433931856
 20
6.912979388233384
 10
-6.476545397026628
 20
6.913203973627882
 10
-6.476432848537358
 20
6.913540595927608
 10
-6.47632081163213
 20
6.913765692906148
 10
-6.47620826314286
 20
6.913990278300646
 10
-6.476096226237632
 20
6.914214863695144
 10
-6.475983677748361
 20
6.914439449089642
 10
-6.475871640843134
 20
6.914664034484141
 10
-6.475759092353864
 20
6.914888619878638
 10
-6.475534506959365
 20
6.915113205273136
 10
-6.475422470054137
 20
6.915337790667634
 10
-6.475309921564868
 20
6.915562376062132
 10
-6.4749727876811
 20
6.916124095340398
 10
-6.474748202286601
 20
6.916573266129394
 10
-6.474411579986876
 20
6.917134473823619
 10
-6.474186994592377
 20
6.917583644612614
 10
-6.473849860708609
 20
6.91814536389088
 10
-6.473625275314112
 20
6.918706571585104
 10
-6.473400689919613
 20
6.919156253958142
 10
-6.473176104525116
 20
6.919605424747139
 10
-6.472951519130617
 20
6.920166632441363
 10
-6.472614896830891
 20
6.920616314814401
 10
-6.472390311436393
 20
6.921065485603396
 10
-6.472165214457853
 20
6.921514656392393
 10
-6.471828592158127
 20
6.921963827181389
 10
-6.471604006763629
 20
6.922412997970385
 10
-6.471266872879861
 20
6.922862168759381
 10
-6.470481079791139
 20
6.923760510337372
 10
-6.462057848537358
 20
6.923760510337372
 10
-6.469694775118376
 20
6.908375131854153
 10
-6.476545397026628
 20
6.89557222961564
 10
-6.484968116696367
 20
6.895459681126371
 10
-6.486428177552625
 20
6.909160924942876
 10
-6.486540726041895
 20
6.909160924942876
 10
-6.486540726041895
 20
6.909273473432146
 10
-6.486652762947123
 20
6.909273473432146
 10
-6.486652762947123
 20
6.909385510337373
 10
-6.486764799852351
 20
6.909385510337373
 10
-6.486764799852351
 20
6.909498058826644
 10
-6.486877348341621
 20
6.909498058826644
 10
-6.486877348341621
 20
6.909610095731872
 10
-6.486989385246848
 20
6.909610095731872
 10
-6.487101933736119
 20
6.909610095731872
 10
-6.487214482225389
 20
6.909722644221141
 10
-6.494401726433368
 20
6.89557222961564
 10
-6.502936994592377
 20
6.895459681126371
 10
-6.489460336170369
 20
6.923760510337372
 10
-6.489348299265141
 20
6.923760510337372
 10
-6.489235750775871
 20
6.923760510337372
 10
-6.489123202286601
 20
6.923760510337372
 10
-6.489011165381374
 20
6.923760510337372
  0
LWPOLYLINE
  5
39BD
330
395C
100
AcDbEntity
  8
IMAGE
  6
0
100
AcDbPolyline
 90
       38
 70
     1
 43
0.0
 10
-6.504171958470095
 20
6.923760510337372
 10
-6.495637201895128
 20
6.923760510337372
 10
-6.509563031106131
 20
6.895459681126371
 10
-6.518210336170369
 20
6.895459681126371
 10
-6.518210336170369
 20
6.896245985799134
 10
-6.517985750775871
 20
6.897032290471898
 10
-6.517761165381372
 20
6.89781808356062
 10
-6.517536579986875
 20
6.898604388233384
 10
-6.517087409197879
 20
6.899390692906148
 10
-6.516750275314111
 20
6.900064449089642
 10
-6.516301104525115
 20
6.900850242178364
 10
-6.515851933736119
 20
6.901636546851128
 10
-6.515402762947123
 20
6.902422851523892
 10
-6.514953592158127
 20
6.903096607707387
 10
-6.514504421369131
 20
6.903882912380151
 10
-6.514167287485363
 20
6.904668705468872
 10
-6.513718116696366
 20
6.905455010141637
 10
-6.513380982812599
 20
6.906353351719629
 10
-6.512707226629104
 20
6.908037997970384
 10
-6.512258055840108
 20
6.908936339548377
 10
-6.511696848145884
 20
6.90994722961564
 10
-6.511247677356888
 20
6.910957608098859
 10
-6.510685958078622
 20
6.911968498166122
 10
-6.510236787289626
 20
6.912866839744114
 10
-6.509675068011359
 20
6.913877729811376
 10
-6.509225897222363
 20
6.914888619878638
 10
-6.508664689528139
 20
6.915899509945901
 10
-6.508215007155102
 20
6.916797851523893
 10
-6.507765836366106
 20
6.917808741591155
 10
-6.507204628671881
 20
6.918819120074374
 10
-6.506755457882886
 20
6.919717461652367
 10
-6.506193738604619
 20
6.920728351719628
 10
-6.505744567815623
 20
6.92173924178689
 10
-6.504621640843133
 20
6.923760510337372
 10
-6.504509092353863
 20
6.923760510337372
 10
-6.504397055448635
 20
6.923760510337372
 10
-6.504284506959365
 20
6.923760510337372
 10
-6.504171958470095
 20
6.923760510337372
  0
LWPOLYLINE
  5
39BE
330
395C
100
AcDbEntity
  8
IMAGE
  6
0
100
AcDbPolyline
 90
      126
 70
     0
 43
0.0
 10
-6.563918323999116
 20
6.934205010141637
 10
-6.562682848537356
 20
6.934092973236408
 10
-6.561447373075596
 20
6.933980424747138
 10
-6.560099860708608
 20
6.934092973236408
 10
-6.55875234834162
 20
6.934092973236408
 10
-6.557292287485362
 20
6.934205010141637
 10
-6.555944775118374
 20
6.934205010141637
 10
-6.554484714262115
 20
6.934317047046864
 10
-6.553137201895127
 20
6.934317047046864
 10
-6.551789177944097
 20
6.934317047046864
 10
-6.550441665577109
 20
6.934205010141637
 10
-6.549094153210121
 20
6.934092973236408
 10
-6.547746640843133
 20
6.933867876257868
 10
-6.546511165381372
 20
6.933418705468872
 10
-6.545275689919612
 20
6.932969534679876
 10
-6.543029835974632
 20
6.931622022312888
 10
-6.542692702090864
 20
6.931060303034621
 10
-6.542243531301868
 20
6.930386546851128
 10
-6.5419063974181
 20
6.929824827572862
 10
-6.541569775118373
 20
6.929263619878638
 10
-6.541345189723875
 20
6.928589863695143
 10
-6.541120604329377
 20
6.927916107511649
 10
-6.541008055840107
 20
6.927241839744113
 10
-6.54089601893488
 20
6.926568595144662
 10
-6.540783470445609
 20
6.925894327377125
 10
-6.540783470445609
 20
6.925220571193631
 10
-6.540783470445609
 20
6.924546815010137
 10
-6.540783470445609
 20
6.9238725472426
 10
-6.54089601893488
 20
6.923198791059108
 10
-6.541008055840107
 20
6.922525034875612
 10
-6.541232641234605
 20
6.921290070997894
 10
-6.541457226629104
 20
6.920279180930632
 10
-6.541794360512872
 20
6.919380327768598
 10
-6.54213149439664
 20
6.918481986190606
 10
-6.542468116696365
 20
6.917696193101884
 10
-6.542917287485362
 20
6.91690988842912
 10
-6.543366458274358
 20
6.916124095340398
 10
-6.543928177552624
 20
6.915449827572862
 10
-6.54437734834162
 20
6.914776071389368
 10
-6.545051104525114
 20
6.914214863695144
 10
-6.54561282380338
 20
6.913653144416877
 10
-6.546286579986874
 20
6.913091425138611
 10
-6.546960336170368
 20
6.912642254349615
 10
-6.547634092353862
 20
6.91219308356062
 10
-6.548420397026626
 20
6.911743912771624
 10
-6.549880457882885
 20
6.91107015658813
 10
-6.550329628671881
 20
6.910845571193632
 10
-6.550666250971606
 20
6.910733534288404
 10
-6.551115421760603
 20
6.910620985799134
 10
-6.55145255564437
 20
6.910508437309863
 10
-6.551789177944097
 20
6.910396400404636
 10
-6.552126311827865
 20
6.910283851915365
 10
-6.552575482616861
 20
6.910171815010137
 10
-6.552912616500629
 20
6.910059266520867
 10
-6.553249238800355
 20
6.90994722961564
 10
-6.553586372684123
 20
6.909834681126369
 10
-6.553922994983849
 20
6.909834681126369
 10
-6.554260128867617
 20
6.909722644221141
 10
-6.554597262751385
 20
6.909722644221141
 10
-6.554933885051111
 20
6.909722644221141
 10
-6.555495604329378
 20
6.909722644221141
 10
-6.555944775118374
 20
6.909273473432146
 10
-6.556169360512871
 20
6.908936339548377
 10
-6.556281397418099
 20
6.908487168759382
 10
-6.556393945907369
 20
6.908037997970384
 10
-6.556393945907369
 20
6.907588827181388
 10
-6.556281397418099
 20
6.907027107903124
 10
-6.556169360512871
 20
6.906577937114127
 10
-6.556056812023602
 20
6.906016217835861
 10
-6.555832226629103
 20
6.905455010141637
 10
-6.555607641234605
 20
6.904893802447412
 10
-6.555495604329378
 20
6.904331571585105
 10
-6.555271018934879
 20
6.90377036389088
 10
-6.555046433540381
 20
6.903209156196656
 10
-6.554821848145883
 20
6.902647436918391
 10
-6.554597262751385
 20
6.901636546851128
 10
-6.554597262751385
 20
6.901187376062133
 10
-6.554484714262115
 20
6.900850242178364
 10
-6.554372677356887
 20
6.900513108294596
 10
-6.554260128867617
 20
6.90017648599487
 10
-6.554147580378347
 20
6.899839863695144
 10
-6.554035543473119
 20
6.899390692906148
 10
-6.554035543473119
 20
6.89905355902238
 10
-6.553922994983849
 20
6.898604388233384
 10
-6.553810958078621
 20
6.898267254349616
 10
-6.553698409589351
 20
6.89793063204989
 10
-6.553586372684123
 20
6.897481461260894
 10
-6.553586372684123
 20
6.897144327377126
 10
-6.553473824194853
 20
6.89669515658813
 10
-6.553361787289625
 20
6.896358534288403
 10
-6.553024653405857
 20
6.895684266520868
 10
-6.561784506959364
 20
6.895459681126371
 10
-6.566164689528139
 20
6.908487168759382
 10
-6.573239896830889
 20
6.895684266520868
 10
-6.583571848145883
 20
6.895459681126371
 10
-6.583122165772844
 20
6.897144327377126
 10
-6.582448409589351
 20
6.898828973627882
 10
-6.581774653405856
 20
6.900625656783867
 10
-6.581100897222363
 20
6.902310303034623
 10
-6.580202555644371
 20
6.904107497774649
 10
-6.579416250971606
 20
6.905791632441363
 10
-6.578517909393614
 20
6.907588827181388
 10
-6.577619567815622
 20
6.909385510337373
 10
-6.576608677748359
 20
6.91107015658813
 10
-6.575710336170367
 20
6.912866839744114
 10
-6.574699446103106
 20
6.914664034484141
 10
-6.573801104525114
 20
6.916460717640124
 10
-6.572902762947121
 20
6.91814536389088
 10
-6.572004421369129
 20
6.919942558630907
 10
-6.570207226629102
 20
6.923535924942876
 10
-6.569870604329377
 20
6.924209681126368
 10
-6.569421433540381
 20
6.924883437309864
 10
-6.569084299656613
 20
6.925557193493357
 10
-6.568747677356887
 20
6.926343498166121
 10
-6.568410543473119
 20
6.927017254349616
 10
-6.56807340958935
 20
6.927691010533109
 10
-6.567736787289625
 20
6.928365278300645
 10
-6.567399653405857
 20
6.929151071389368
 10
-6.567063031106131
 20
6.929824827572862
 10
-6.566725897222362
 20
6.930499095340398
 10
-6.566388763338594
 20
6.931172851523892
 10
-6.566052141038868
 20
6.931734059218116
 10
-6.565602970249872
 20
6.932408326985652
 10
-6.565153799460876
 20
6.932969534679876
 10
-6.564142909393614
 20
6.934205010141637
 10
-6.564030872488387
 20
6.934205010141637
  0
LWPOLYLINE
  5
39BF
330
395C
100
AcDbEntity
  8
IMAGE
  6
0
100
AcDbPolyline
 90
      126
 70
     0
 43
0.0
 10
-6.443303177552626
 20
6.913540595927608
 10
-6.443303177552626
 20
6.913653144416877
 10
-6.443303177552626
 20
6.913765692906148
 10
-6.443078592158127
 20
6.913990278300646
 10
-6.440607641234607
 20
6.91342855902238
 10
-6.440495604329379
 20
6.91342855902238
 10
-6.44038305584011
 20
6.91342855902238
 10
-6.440271018934882
 20
6.91342855902238
 10
-6.440271018934882
 20
6.913540595927608
 10
-6.440158470445611
 20
6.913540595927608
 10
-6.440046433540383
 20
6.913653144416877
 10
-6.439933885051114
 20
6.913765692906148
 10
-6.440607641234607
 20
6.914439449089642
 10
-6.441169360512874
 20
6.915225753762406
 10
-6.441731079791139
 20
6.915899509945901
 10
-6.442292287485364
 20
6.916685303034622
 10
-6.44285400676363
 20
6.917471607707386
 10
-6.443527762947124
 20
6.91825791238015
 10
-6.444089482225391
 20
6.919043705468872
 10
-6.444763238408884
 20
6.919830010141636
 10
-6.445436994592379
 20
6.920616314814401
 10
-6.446223299265143
 20
6.921290070997894
 10
-6.446897055448636
 20
6.922076375670659
 10
-6.447682848537358
 20
6.922750131854153
 10
-6.448469153210123
 20
6.923423888037647
 10
-6.449255457882887
 20
6.923985095731871
 10
-6.451052141038871
 20
6.925220571193631
 10
-6.468347262751387
 20
6.933194120074374
 10
-6.459924031497606
 20
6.931958644612614
 10
-6.460373202286602
 20
6.933194120074374
 10
-6.457004421369131
 20
6.932408326985652
 10
-6.456891872879861
 20
6.932408326985652
 10
-6.456779835974634
 20
6.93252036389088
 10
-6.456779835974634
 20
6.93263291238015
 10
-6.456667287485363
 20
6.932744949285378
 10
-6.456667287485363
 20
6.932857497774648
 10
-6.456667287485363
 20
6.932969534679876
 10
-6.456667287485363
 20
6.933082083169146
 10
-6.456667287485363
 20
6.933194120074374
 10
-6.456555250580136
 20
6.933418705468872
 10
-6.455095189723878
 20
6.933530742374101
 10
-6.454982641234607
 20
6.93364329086337
 10
-6.454982641234607
 20
6.93375583935264
 10
-6.454982641234607
 20
6.933867876257868
 10
-6.454982641234607
 20
6.933980424747138
 10
-6.454982641234607
 20
6.934092973236408
 10
-6.454982641234607
 20
6.934205010141637
 10
-6.454870604329379
 20
6.934205010141637
 10
-6.454870604329379
 20
6.934317047046864
 10
-6.454646018934881
 20
6.934429595536134
 10
-6.454533470445611
 20
6.934429595536134
 10
-6.454421433540384
 20
6.934429595536134
 10
-6.454308885051113
 20
6.934429595536134
 10
-6.454196848145885
 20
6.934429595536134
 10
-6.454196848145885
 20
6.934541632441362
 10
-6.454084299656615
 20
6.934541632441362
 10
-6.453971751167345
 20
6.934654180930633
 10
-6.453859714262117
 20
6.934766729419902
 10
-6.453859714262117
 20
6.93487876632513
 10
-6.453859714262117
 20
6.9349913148144
 10
-6.453859714262117
 20
6.935103351719628
 10
-6.453859714262117
 20
6.935215388624857
 10
-6.453971751167345
 20
6.935215388624857
 10
-6.453971751167345
 20
6.935327937114125
 10
-6.454084299656615
 20
6.935440485603396
 10
-6.454084299656615
 20
6.935552522508625
 10
-6.454196848145885
 20
6.935665070997894
 10
-6.454196848145885
 20
6.935777107903122
 10
-6.454308885051113
 20
6.935889656392393
 10
-6.454308885051113
 20
6.93600169329762
 10
-6.454308885051113
 20
6.936338827181389
 10
-6.454308885051113
 20
6.936450864086616
 10
-6.454196848145885
 20
6.936563412575887
 10
-6.454084299656615
 20
6.936563412575887
 10
-6.453971751167345
 20
6.936675449481115
 10
-6.453859714262117
 20
6.936675449481115
 10
-6.453747677356889
 20
6.936675449481115
 10
-6.453523091962392
 20
6.936787997970385
 10
-6.453523091962392
 20
6.936900034875613
 10
-6.453523091962392
 20
6.937012583364883
 10
-6.453410543473121
 20
6.937012583364883
 10
-6.453410543473121
 20
6.937125131854153
 10
-6.453410543473121
 20
6.937237168759381
 10
-6.45329799498385
 20
6.937237168759381
 10
-6.453185958078623
 20
6.937461754153878
 10
-6.455207226629105
 20
6.942291107511649
 10
-6.454646018934881
 20
6.941617351328156
 10
-6.453971751167345
 20
6.940943083560619
 10
-6.45329799498385
 20
6.940157290471897
 10
-6.452624238800357
 20
6.939370985799133
 10
-6.451950482616862
 20
6.938472644221142
 10
-6.451276726433369
 20
6.937686339548377
 10
-6.450715007155102
 20
6.936787997970385
 10
-6.450041250971609
 20
6.935889656392393
 10
-6.449367494788114
 20
6.93487876632513
 10
-6.448806287093891
 20
6.933980424747138
 10
-6.448132019326354
 20
6.933082083169146
 10
-6.447570811632131
 20
6.932071193101884
 10
-6.446897055448636
 20
6.931172851523892
 10
-6.44633533617037
 20
6.9302745099459
 10
-6.44509986070861
 20
6.928589863695143
 10
-6.434655872488389
 20
6.922412997970385
 10
-6.434655872488389
 20
6.922525034875612
 10
-6.434655872488389
 20
6.922637583364883
 10
-6.434543323999119
 20
6.922637583364883
 10
-6.434543323999119
 20
6.922750131854153
 10
-6.434543323999119
 20
6.922862168759381
 10
-6.434430775509849
 20
6.922862168759381
 10
-6.434318738604621
 20
6.923086754153879
 10
-6.435105043277385
 20
6.924434266520867
 10
-6.435105043277385
 20
6.924546815010137
 10
-6.434992494788115
 20
6.924546815010137
 10
-6.434992494788115
 20
6.924658851915365
 10
-6.434880457882887
 20
6.924658851915365
 10
-6.434767909393617
 20
6.924771400404636
 10
-6.434655872488389
 20
6.924771400404636
 10
-6.434543323999119
 20
6.924771400404636
 10
-6.434430775509849
 20
6.924771400404636
 10
-6.434318738604621
 20
6.924771400404636
 10
-6.434206701699393
 20
6.924771400404636
 10
-6.434094153210123
 20
6.924771400404636
 10
-6.433982116304894
 20
6.924771400404636
 10
-6.433869567815625
 20
6.924883437309864
 10
-6.433644982421126
 20
6.924995985799133
 10
-6.433644982421126
 20
6.925108022704361
 10
-6.433644982421126
 20
6.925220571193631
  0
LWPOLYLINE
  5
39C0
330
395C
100
AcDbEntity
  8
IMAGE
  6
0
100
AcDbPolyline
 90
      126
 70
     0
 43
0.0
 10
-6.434094153210123
 20
6.946895363890879
 10
-6.433307848537358
 20
6.945547851523891
 10
-6.432409506959366
 20
6.944424924551402
 10
-6.431286579986877
 20
6.943301485994869
 10
-6.430163653014386
 20
6.942178559022379
 10
-6.429040214457854
 20
6.941167668955117
 10
-6.427917287485364
 20
6.940157290471897
 10
-6.426681812023604
 20
6.939146400404634
 10
-6.425558885051113
 20
6.938135510337373
 10
-6.424435958078624
 20
6.937125131854153
 10
-6.423313031106133
 20
6.93600169329762
 10
-6.422302141038871
 20
6.93487876632513
 10
-6.421403799460879
 20
6.93375583935264
 10
-6.420617494788115
 20
6.932408326985652
 10
-6.419943738604621
 20
6.931060303034621
 10
-6.419045397026629
 20
6.928028144416877
 10
-6.419382019326355
 20
6.927466936722654
 10
-6.419606604720853
 20
6.926905217444388
 10
-6.419831190115351
 20
6.926456046655391
 10
-6.420056287093891
 20
6.926006364282353
 10
-6.420392909393617
 20
6.925557193493357
 10
-6.420617494788115
 20
6.925108022704361
 10
-6.420954628671883
 20
6.924771400404636
 10
-6.421179214066381
 20
6.924322229615639
 10
-6.421515836366107
 20
6.923985095731871
 10
-6.421852970249875
 20
6.923535924942876
 10
-6.422190104133643
 20
6.923198791059108
 10
-6.422414689528141
 20
6.922750131854153
 10
-6.422751311827868
 20
6.922300449481115
 10
-6.423087934127593
 20
6.921851278692119
 10
-6.42364965340586
 20
6.920952937114126
 10
-6.423762201895129
 20
6.920840388624856
 10
-6.423874238800357
 20
6.920728351719628
 10
-6.423986787289628
 20
6.920616314814401
 10
-6.424098824194856
 20
6.920503766325131
 10
-6.424211372684125
 20
6.920391729419903
 10
-6.426681812023604
 20
6.915000656783866
 10
-6.426569775118376
 20
6.914664034484141
 10
-6.426457738213148
 20
6.914326900600372
 10
-6.426232641234608
 20
6.913990278300646
 10
-6.42600805584011
 20
6.913765692906148
 10
-6.425783470445612
 20
6.913540595927608
 10
-6.425558885051113
 20
6.913203973627882
 10
-6.425334299656616
 20
6.913091425138611
 10
-6.424997165772848
 20
6.912866839744114
 10
-6.424772580378349
 20
6.912642254349615
 10
-6.424435958078624
 20
6.912530217444388
 10
-6.424098824194856
 20
6.91230563204989
 10
-6.423762201895129
 20
6.91219308356062
 10
-6.423425068011361
 20
6.912081046655392
 10
-6.423087934127593
 20
6.912081046655392
 10
-6.422302141038871
 20
6.911968498166122
 10
-6.422190104133643
 20
6.911855949676851
 10
-6.422077555644373
 20
6.911855949676851
 10
-6.421852970249875
 20
6.911855949676851
 10
-6.421740421760605
 20
6.911855949676851
 10
-6.421628384855377
 20
6.911855949676851
 10
-6.421403799460879
 20
6.911855949676851
 10
-6.421291250971609
 20
6.911743912771624
 10
-6.421179214066381
 20
6.911743912771624
 10
-6.421066665577111
 20
6.911743912771624
 10
-6.420954628671883
 20
6.911631875866396
 10
-6.420842080182613
 20
6.911631875866396
 10
-6.420730043277385
 20
6.911631875866396
 10
-6.420617494788115
 20
6.911519327377125
 10
-6.420505457882887
 20
6.911519327377125
 10
-6.420280872488389
 20
6.911407290471897
 10
-6.419831190115351
 20
6.91107015658813
 10
-6.419382019326355
 20
6.910733534288404
 10
-6.419045397026629
 20
6.910283851915365
 10
-6.418820811632131
 20
6.909834681126369
 10
-6.418596226237633
 20
6.909385510337373
 10
-6.418371640843135
 20
6.908823791059107
 10
-6.418259092353864
 20
6.908262583364883
 10
-6.418034506959367
 20
6.907700864086617
 10
-6.417922470054139
 20
6.907139656392393
 10
-6.417697884659641
 20
6.906577937114127
 10
-6.417585336170371
 20
6.90612876632513
 10
-6.417248202286603
 20
6.905567047046865
 10
-6.417024128476147
 20
6.905117876257869
 10
-6.416686994592379
 20
6.904668705468872
 10
-6.415563556035847
 20
6.904107497774649
 10
-6.415676104525116
 20
6.903994949285379
 10
-6.415788653014387
 20
6.903882912380151
 10
-6.415900689919615
 20
6.90377036389088
 10
-6.416013238408885
 20
6.90377036389088
 10
-6.416237823803383
 20
6.90377036389088
 10
-6.416349860708611
 20
6.90377036389088
 10
-6.416462409197881
 20
6.90377036389088
 10
-6.416686994592379
 20
6.90377036389088
 10
-6.416799031497607
 20
6.90377036389088
 10
-6.417024128476147
 20
6.90377036389088
 10
-6.417136165381375
 20
6.90377036389088
 10
-6.417360750775873
 20
6.90377036389088
 10
-6.4174727876811
 20
6.90377036389088
 10
-6.417697884659641
 20
6.90377036389088
 10
-6.417922470054139
 20
6.903882912380151
 10
-6.418147055448637
 20
6.90377036389088
 10
-6.418259092353864
 20
6.90377036389088
 10
-6.418371640843135
 20
6.903657815401611
 10
-6.418483677748363
 20
6.903545778496383
 10
-6.418483677748363
 20
6.903433230007113
 10
-6.418596226237633
 20
6.903321193101884
 10
-6.418596226237633
 20
6.903209156196656
 10
-6.418596226237633
 20
6.903096607707387
 10
-6.418596226237633
 20
6.902872022312889
 10
-6.418596226237633
 20
6.902759473823619
 10
-6.418596226237633
 20
6.902647436918391
 10
-6.418596226237633
 20
6.90253488842912
 10
-6.418596226237633
 20
6.902310303034623
 10
-6.419269982421127
 20
6.902872022312889
 10
-6.419831190115351
 20
6.903433230007113
 10
-6.420392909393617
 20
6.903994949285379
 10
-6.420954628671883
 20
6.904556668563644
 10
-6.421628384855377
 20
6.905005839352641
 10
-6.422190104133643
 20
6.905567047046865
 10
-6.422863860317137
 20
6.906016217835861
 10
-6.423537616500632
 20
6.906353351719629
 10
-6.424211372684125
 20
6.906689974019355
 10
-6.42488512886762
 20
6.907027107903124
 10
-6.425671433540384
 20
6.907364241786891
 10
-6.426457738213148
 20
6.907588827181388
 10
-6.42724353130187
 20
6.907700864086617
 10
-6.428029835974634
 20
6.907813412575887
 10
-6.429826519130618
 20
6.907925449481115
 10
-6.430051104525116
 20
6.907813412575887
  0
LWPOLYLINE
  5
39C1
330
395C
100
AcDbEntity
  8
IMAGE
  6
0
100
AcDbPolyline
 90
       91
 70
     0
 43
0.0
 10
-6.430051104525116
 20
6.907813412575887
 10
-6.430163653014386
 20
6.907700864086617
 10
-6.430388238408884
 20
6.907700864086617
 10
-6.430500275314113
 20
6.907700864086617
 10
-6.430612823803382
 20
6.907588827181388
 10
-6.430837409197881
 20
6.907588827181388
 10
-6.430949446103109
 20
6.907588827181388
 10
-6.431061994592378
 20
6.907588827181388
 10
-6.431174031497606
 20
6.907588827181388
 10
-6.431286579986877
 20
6.907476278692119
 10
-6.431398616892105
 20
6.907476278692119
 10
-6.431623202286602
 20
6.907476278692119
 10
-6.431735750775872
 20
6.907364241786891
 10
-6.431848299265142
 20
6.907251693297621
 10
-6.43196033617037
 20
6.907139656392393
 10
-6.432971226237633
 20
6.906465900208899
 10
-6.433757019326355
 20
6.905791632441363
 10
-6.434543323999119
 20
6.904893802447412
 10
-6.435217080182613
 20
6.903994949285379
 10
-6.435890836366107
 20
6.902984059218116
 10
-6.436565104133643
 20
6.901973680734896
 10
-6.437238860317137
 20
6.900962790667635
 10
-6.437912616500631
 20
6.899951900600372
 10
-6.438698409589354
 20
6.89905355902238
 10
-6.439484714262118
 20
6.898155217444387
 10
-6.440271018934882
 20
6.897481461260894
 10
-6.441169360512874
 20
6.896807193493358
 10
-6.442180250580135
 20
6.896358534288403
 10
-6.443303177552626
 20
6.896133437309863
 10
-6.445773616892104
 20
6.896245985799134
 10
-6.447346226237632
 20
6.896919741982628
 10
-6.44869373860462
 20
6.897593498166122
 10
-6.450041250971609
 20
6.898379802838886
 10
-6.451388763338597
 20
6.899165595927608
 10
-6.452736787289627
 20
6.899951900600372
 10
-6.453971751167345
 20
6.900850242178364
 10
-6.455207226629105
 20
6.901636546851128
 10
-6.456442702090866
 20
6.902422851523892
 10
-6.457678177552625
 20
6.903321193101884
 10
-6.458913653014386
 20
6.904107497774649
 10
-6.460148616892104
 20
6.905005839352641
 10
-6.461384092353863
 20
6.905791632441363
 10
-6.462619567815624
 20
6.906577937114127
 10
-6.463855043277384
 20
6.907476278692119
 10
-6.466325482616863
 20
6.909048888037647
 10
-6.465876311827867
 20
6.909160924942876
 10
-6.4653145925496
 20
6.909385510337373
 10
-6.464640836366107
 20
6.909385510337373
 10
-6.464079628671883
 20
6.909385510337373
 10
-6.463517909393616
 20
6.909273473432146
 10
-6.462956701699392
 20
6.909160924942876
 10
-6.462282433931856
 20
6.909048888037647
 10
-6.461721226237632
 20
6.908936339548377
 10
-6.461159506959366
 20
6.908711754153879
 10
-6.460485750775872
 20
6.908487168759382
 10
-6.459924031497606
 20
6.908262583364883
 10
-6.459362823803382
 20
6.908037997970384
 10
-6.458801104525115
 20
6.907813412575887
 10
-6.458127348341622
 20
6.907700864086617
 10
-6.457004421369131
 20
6.907476278692119
 10
-6.459025689919614
 20
6.910171815010137
 10
-6.458689067619888
 20
6.910283851915365
 10
-6.458351933736119
 20
6.910396400404636
 10
-6.457902762947123
 20
6.910396400404636
 10
-6.457453592158127
 20
6.910396400404636
 10
-6.457004421369131
 20
6.910283851915365
 10
-6.456667287485363
 20
6.910171815010137
 10
-6.456218116696367
 20
6.90994722961564
 10
-6.455768945907371
 20
6.909834681126369
 10
-6.455319775118375
 20
6.909610095731872
 10
-6.454870604329379
 20
6.909385510337373
 10
-6.454421433540384
 20
6.909160924942876
 10
-6.453971751167345
 20
6.908936339548377
 10
-6.453635128867619
 20
6.908823791059107
 10
-6.453185958078623
 20
6.908711754153879
 10
-6.452287616500631
 20
6.908599717248651
 10
-6.452399653405859
 20
6.908823791059107
 10
-6.452399653405859
 20
6.909048888037647
 10
-6.452512201895128
 20
6.909273473432146
 10
-6.452624238800357
 20
6.909385510337373
 10
-6.452736787289627
 20
6.909610095731872
 10
-6.452848824194854
 20
6.909834681126369
 10
-6.452961372684125
 20
6.90994722961564
 10
-6.453185958078623
 20
6.910171815010137
 10
-6.45329799498385
 20
6.910283851915365
 10
-6.453410543473121
 20
6.910508437309863
 10
-6.453635128867619
 20
6.910733534288404
 10
-6.453747677356889
 20
6.910957608098859
 10
-6.453859714262117
 20
6.911182193493357
 10
-6.453971751167345
 20
6.911407290471897
 10
-6.453971751167345
 20
6.911855949676851
  0
LWPOLYLINE
  5
39C2
330
395C
100
AcDbEntity
  8
IMAGE
  6
0
100
AcDbPolyline
 90
       17
 70
     1
 43
0.0
 10
-6.525847262751386
 20
6.91342855902238
 10
-6.527082226629104
 20
6.907251693297621
 10
-6.527306812023602
 20
6.907027107903124
 10
-6.527531397418099
 20
6.906915070997895
 10
-6.52764394590737
 20
6.906915070997895
 10
-6.527868531301868
 20
6.906802522508625
 10
-6.528093116696366
 20
6.906802522508625
 10
-6.528317702090864
 20
6.906802522508625
 10
-6.528542287485362
 20
6.906802522508625
 10
-6.52876687287986
 20
6.906802522508625
 10
-6.528991458274358
 20
6.906802522508625
 10
-6.529216043668856
 20
6.906802522508625
 10
-6.529440629063354
 20
6.906802522508625
 10
-6.529777762947122
 20
6.906802522508625
 10
-6.53000234834162
 20
6.906802522508625
 10
-6.530226933736118
 20
6.906802522508625
 10
-6.530676104525114
 20
6.906802522508625
  0
LWPOLYLINE
  5
39C3
330
395C
100
AcDbEntity
  8
IMAGE
  6
0
100
AcDbPolyline
 90
       32
 70
     1
 43
0.0
 10
-6.397146018934883
 20
6.910396400404636
 10
-6.392092080182614
 20
6.910283851915365
 10
-6.391867494788116
 20
6.90994722961564
 10
-6.391642909393618
 20
6.909722644221141
 10
-6.39153087248839
 20
6.909498058826644
 10
-6.391306287093891
 20
6.909160924942876
 10
-6.391193738604622
 20
6.908936339548377
 10
-6.391193738604622
 20
6.908599717248651
 10
-6.391081190115351
 20
6.908262583364883
 10
-6.391081190115351
 20
6.908037997970384
 10
-6.391081190115351
 20
6.907700864086617
 10
-6.391193738604622
 20
6.907364241786891
 10
-6.391193738604622
 20
6.907027107903124
 10
-6.391306287093891
 20
6.906689974019355
 10
-6.391418323999119
 20
6.906353351719629
 10
-6.39153087248839
 20
6.906016217835861
 10
-6.391867494788116
 20
6.905455010141637
 10
-6.392316665577111
 20
6.904781253958143
 10
-6.392765836366108
 20
6.904331571585105
 10
-6.393215007155104
 20
6.903882912380151
 10
-6.393664689528142
 20
6.903433230007113
 10
-6.394225897222366
 20
6.903209156196656
 10
-6.394787616500632
 20
6.902872022312889
 10
-6.395461372684127
 20
6.902647436918391
 10
-6.396023091962392
 20
6.90253488842912
 10
-6.396696848145886
 20
6.902310303034623
 10
-6.39737060432938
 20
6.902198266129395
 10
-6.397932323607647
 20
6.902198266129395
 10
-6.39860607979114
 20
6.902198266129395
 10
-6.399279835974635
 20
6.902085717640124
 10
-6.399953592158128
 20
6.902198266129395
 10
-6.401189067619889
 20
6.902310303034623
  0
CIRCLE
  5
39C4
330
395C
100
AcDbEntity
  8
IMAGE
100
AcDbCircle
 10
-6.299447601322163
 20
6.896165129404945
 30
0.0
 40
0.0054157458349123
  0
TEXT
  5
39C5
330
395C
100
AcDbEntity
  8
IMAGE
100
AcDbText
 10
-6.302211708380385
 20
6.893344529770566
 30
0.0
 40
0.0059290188099484
  1
R
  7
ROMANS
100
AcDbText
  0
LWPOLYLINE
  5
39C6
330
395C
100
AcDbEntity
  8
IMAGE
  6
0
100
AcDbPolyline
 90
       35
 70
     1
 43
0.0
 10
-6.388610750775874
 20
6.925557193493357
 10
-6.384343116696369
 20
6.925333119682901
 10
-6.384231079791141
 20
6.924883437309864
 10
-6.38411853130187
 20
6.924546815010137
 10
-6.384006494396643
 20
6.924209681126368
 10
-6.384006494396643
 20
6.923760510337372
 10
-6.384006494396643
 20
6.923423888037647
 10
-6.38411853130187
 20
6.923086754153879
 10
-6.384231079791141
 20
6.922750131854153
 10
-6.384343116696369
 20
6.922300449481115
 10
-6.384455153601597
 20
6.921963827181389
 10
-6.384680250580137
 20
6.92162669329762
 10
-6.384904835974634
 20
6.921290070997894
 10
-6.385016872879863
 20
6.920952937114126
 10
-6.385241458274361
 20
6.920616314814401
 10
-6.385466043668859
 20
6.920279180930632
 10
-6.385690629063357
 20
6.919717461652367
 10
-6.386140311436395
 20
6.919380327768598
 10
-6.386476933736121
 20
6.919156253958142
 10
-6.386926104525117
 20
6.918931668563645
 10
-6.387375275314114
 20
6.918706571585104
 10
-6.387824446103109
 20
6.918481986190606
 10
-6.388273616892106
 20
6.918369949285378
 10
-6.388835336170371
 20
6.91825791238015
 10
-6.389284506959367
 20
6.91814536389088
 10
-6.389846226237634
 20
6.91803281540161
 10
-6.390407945515899
 20
6.917920778496382
 10
-6.390856604720854
 20
6.917920778496382
 10
-6.391418323999119
 20
6.917920778496382
 10
-6.391980043277386
 20
6.917808741591155
 10
-6.392429214066382
 20
6.917808741591155
 10
-6.393440104133643
 20
6.917920778496382
 10
-6.388835336170371
 20
6.925557193493357
 10
-6.388723299265143
 20
6.925557193493357
 10
-6.388610750775874
 20
6.925557193493357
  0
LWPOLYLINE
  5
39C7
330
395C
100
AcDbEntity
  8
IMAGE
  6
0
100
AcDbPolyline
 90
       58
 70
     1
 43
0.0
 10
-6.556618531301867
 20
6.926006364282353
 10
-6.556281397418099
 20
6.926006364282353
 10
-6.555944775118374
 20
6.926006364282353
 10
-6.555607641234605
 20
6.926006364282353
 10
-6.555271018934879
 20
6.926006364282353
 10
-6.554821848145883
 20
6.926006364282353
 10
-6.554484714262115
 20
6.925894327377125
 10
-6.554147580378347
 20
6.925894327377125
 10
-6.553698409589351
 20
6.925894327377125
 10
-6.553361787289625
 20
6.925782290471897
 10
-6.553024653405857
 20
6.925669741982627
 10
-6.552688031106131
 20
6.925557193493357
 10
-6.552350897222362
 20
6.925445156588129
 10
-6.552013763338594
 20
6.925220571193631
 10
-6.551789177944097
 20
6.924995985799133
 10
-6.551227970249873
 20
6.924546815010137
 10
-6.551340007155101
 20
6.921177522508625
 10
-6.551789177944097
 20
6.920616314814401
 10
-6.552238860317135
 20
6.920166632441363
 10
-6.552688031106131
 20
6.919717461652367
 10
-6.553137201895127
 20
6.919268290863371
 10
-6.553586372684123
 20
6.918931668563645
 10
-6.554147580378347
 20
6.918594534679876
 10
-6.554709299656614
 20
6.91825791238015
 10
-6.555383055840107
 20
6.91803281540161
 10
-6.555944775118374
 20
6.917808741591155
 10
-6.556618531301867
 20
6.917696193101884
 10
-6.557292287485362
 20
6.917471607707386
 10
-6.557966043668855
 20
6.917359059218116
 10
-6.558640311436391
 20
6.917359059218116
 10
-6.559314067619886
 20
6.917359059218116
 10
-6.560661579986874
 20
6.917471607707386
 10
-6.560886165381372
 20
6.917808741591155
 10
-6.560886165381372
 20
6.91825791238015
 10
-6.560886165381372
 20
6.918594534679876
 10
-6.560773616892102
 20
6.919043705468872
 10
-6.560661579986874
 20
6.919605424747139
 10
-6.560436994592376
 20
6.920054595536134
 10
-6.560212409197878
 20
6.920503766325131
 10
-6.55987527531411
 20
6.921065485603396
 10
-6.559650689919612
 20
6.921514656392393
 10
-6.559314067619886
 20
6.921963827181389
 10
-6.558976933736118
 20
6.922525034875612
 10
-6.55875234834162
 20
6.922974205664608
 10
-6.558415214457851
 20
6.923535924942876
 10
-6.558190629063354
 20
6.923985095731871
 10
-6.55762942136913
 20
6.924995985799133
 10
-6.557516872879859
 20
6.925108022704361
 10
-6.557516872879859
 20
6.925220571193631
 10
-6.557404835974631
 20
6.925333119682901
 10
-6.557404835974631
 20
6.925445156588129
 10
-6.557292287485362
 20
6.925557193493357
 10
-6.557292287485362
 20
6.925669741982627
 10
-6.557180250580134
 20
6.925782290471897
 10
-6.557180250580134
 20
6.925894327377125
 10
-6.557067702090863
 20
6.925894327377125
 10
-6.556955153601593
 20
6.925894327377125
 10
-6.556618531301867
 20
6.926006364282353
  0
LWPOLYLINE
  5
39C8
330
395C
100
AcDbEntity
  8
IMAGE
  6
0
100
AcDbPolyline
 90
        3
 70
     0
 43
0.0
 10
-6.564030872488387
 20
6.934205010141637
 10
-6.563918323999116
 20
6.934205010141637
 10
-6.563918323999116
 20
6.934205010141637
  0
LWPOLYLINE
  5
39C9
330
395C
100
AcDbEntity
  8
IMAGE
  6
0
100
AcDbPolyline
 90
       39
 70
     0
 43
0.0
 10
-6.432771350035179
 20
6.928901776802826
 10
-6.432746640843135
 20
6.92892648599487
 10
-6.432297470054138
 20
6.929375656783865
 10
-6.434318738604621
 20
6.934766729419902
 10
-6.434206701699393
 20
6.934766729419902
 10
-6.434094153210123
 20
6.934766729419902
 10
-6.433982116304894
 20
6.93487876632513
 10
-6.433869567815625
 20
6.934766729419902
 10
-6.433757019326355
 20
6.934766729419902
 10
-6.433644982421126
 20
6.934766729419902
 10
-6.433532433931857
 20
6.934654180930633
 10
-6.433420397026629
 20
6.934654180930633
 10
-6.433307848537358
 20
6.934541632441362
 10
-6.43319581163213
 20
6.934541632441362
 10
-6.433083263142861
 20
6.934429595536134
 10
-6.432971226237633
 20
6.934429595536134
 10
-6.432858677748363
 20
6.934317047046864
 10
-6.432746640843135
 20
6.934317047046864
 10
-6.432409506959366
 20
6.934429595536134
 10
-6.434206701699393
 20
6.93959557119363
 10
-6.434094153210123
 20
6.93959557119363
 10
-6.433869567815625
 20
6.93959557119363
 10
-6.433757019326355
 20
6.939483022704361
 10
-6.433644982421126
 20
6.939483022704361
 10
-6.433420397026629
 20
6.939370985799133
 10
-6.433307848537358
 20
6.939258948893905
 10
-6.43319581163213
 20
6.939146400404634
 10
-6.432971226237633
 20
6.939146400404634
 10
-6.432858677748363
 20
6.939033851915365
 10
-6.432746640843135
 20
6.938921815010137
 10
-6.432521543864595
 20
6.938809266520867
 10
-6.432409506959366
 20
6.938809266520867
 10
-6.432297470054138
 20
6.938809266520867
 10
-6.43207288465964
 20
6.938809266520867
 10
-6.431623202286602
 20
6.939033851915365
 10
-6.434318738604621
 20
6.946895363890879
 10
-6.434206701699393
 20
6.946895363890879
 10
-6.434094153210123
 20
6.946895363890879
 10
-6.434094153210123
 20
6.946895363890879
  0
LWPOLYLINE
  5
39CA
330
395C
100
AcDbEntity
  8
IMAGE
  6
0
100
AcDbPolyline
 90
       10
 70
     0
 43
0.0
 10
-6.433644982421126
 20
6.925220571193631
 10
-6.433532433931857
 20
6.925220571193631
 10
-6.433532433931857
 20
6.925333119682901
 10
-6.433420397026629
 20
6.925557193493357
 10
-6.435441665577111
 20
6.93004941296736
 10
-6.435329628671882
 20
6.93016196145663
 10
-6.435329628671882
 20
6.9302745099459
 10
-6.435217080182613
 20
6.9302745099459
 10
-6.435105043277385
 20
6.930386546851128
 10
-6.432771350035179
 20
6.928901776802826
  0
VIEWPORT
  5
D4
330
3958
100
AcDbEntity
 67
     1
  8
0
100
AcDbViewport
 10
6.172388059701492
 20
4.5
 30
0.0
 40
12.34477611940298
 41
9.0
 68
     1
 69
     1
 12
6.172388059701492
 22
4.5
 13
0.0
 23
0.0
 14
0.14
 24
0.14
 15
0.14
 25
0.14
 16
0.0
 26
0.0
 36
1.0
 17
0.0
 27
0.0
 37
0.0
 42
50.0
 43
0.0
 44
0.0
 45
9.0
 50
0.0
 51
0.0
 72
   100
 90
    32800
  1

281
     0
 71
     0
 74
     0
110
0.0
120
0.0
130
0.0
111
0.0
121
0.0
131
0.0
112
0.0
122
0.0
132
0.0
 79
     0
146
0.0
  0
ENDSEC
  0
SECTION
  2
OBJECTS
  0
DICTIONARY
  5
394A
330
0
100
AcDbDictionary
281
     1
  3
ACAD_GROUP
350
394B
  3
ACAD_LAYOUT
350
3957
  3
ACAD_MLINESTYLE
350
3954
  3
ACAD_PLOTSETTINGS
350
3956
  3
ACAD_PLOTSTYLENAME
350
394C
  3
AcadDim
350
39AC
  3
AcDbVariableDictionary
350
397D
  0
DICTIONARY
  5
394B
102
{ACAD_REACTORS
330
394A
102
}
330
394A
100
AcDbDictionary
281
     1
  0
DICTIONARY
  5
3957
102
{ACAD_REACTORS
330
394A
102
}
330
394A
100
AcDbDictionary
281
     1
  3
Layout1
350
395B
  3
Model
350
395F
  0
DICTIONARY
  5
3954
102
{ACAD_REACTORS
330
394A
102
}
330
394A
100
AcDbDictionary
281
     1
  3
Standard
350
3955
  0
DICTIONARY
  5
3956
102
{ACAD_REACTORS
330
394A
102
}
330
394A
100
AcDbDictionary
281
     1
  0
ACDBDICTIONARYWDFLT
  5
394C
102
{ACAD_REACTORS
330
394A
102
}
330
394A
100
AcDbDictionary
281
     1
  3
Normal
350
394D
100
AcDbDictionaryWithDefault
340
394D
  0
XRECORD
  5
39AC
102
{ACAD_REACTORS
330
394A
102
}
330
394A
100
AcDbXrecord
280
     1
 90
   990106
  3

 60
     4
 61
     0
 62
     1
 63
     3
 64
     0
 65
     0
 66
     0
 67
     2
 68
     1
 69
     0
 70
     0
 71
     1
 72
     0
 40
0.0
170
     1
  0
DICTIONARY
  5
397D
102
{ACAD_REACTORS
330
394A
102
}
330
394A
100
AcDbDictionary
281
     1
  3
DIMASSOC
350
3980
  3
HIDETEXT
350
397F
  3
SORTENTS
350
397E
  0
LAYOUT
  5
395B
102
{ACAD_REACTORS
330
3957
102
}
330
3957
100
AcDbPlotSettings
  1

  2
S:\AutoCAD 2002\Plotters\1055B&WDraftShaded.pc3
  4

  6

 40
0.0
 41
0.0
 42
0.0
 43
0.0
 44
0.0
 45
0.0
 46
0.0
 47
0.0
 48
0.0
 49
0.0
140
0.0
141
0.0
142
1.0
143
1.0
 70
   688
 72
     0
 73
     0
 74
     5
  7
TRexLJ5Shaded2.ctb
 75
    16
147
1.0
148
0.0
149
0.0
100
AcDbLayout
  1
Layout1
 70
     1
 71
     1
 10
0.0
 20
0.0
 11
12.0
 21
9.0
 12
0.0
 22
0.0
 32
0.0
 14
1.000000000000000E+20
 24
1.000000000000000E+20
 34
1.000000000000000E+20
 15
-1.000000000000000E+20
 25
-1.000000000000000E+20
 35
-1.000000000000000E+20
146
0.0
 13
0.0
 23
0.0
 33
0.0
 16
1.0
 26
0.0
 36
0.0
 17
0.0
 27
1.0
 37
0.0
 76
     0
330
3958
331
D4
  0
LAYOUT
  5
395F
102
{ACAD_REACTORS
330
3957
102
}
330
3957
100
AcDbPlotSettings
  1

  2
OKI DOKI Color Laser.pc3
  4
Tabloid
  6

 40
3.174999952316284
 41
3.174999952316284
 42
3.17498779296875
 43
3.17498779296875
 44
279.3999938964843
 45
431.8000183105469
 46
0.0
 47
7.112
 48
0.0
 49
0.0
140
0.0
141
0.0
142
1.0
143
1.023928486304226
 70
 28340
 72
     0
 73
     1
 74
     0
  7
OKIColorShaded.ctb
 75
     0
147
0.976630705538241
148
303.3298446513978
149
-20.62279501950009
100
AcDbLayout
  1
Model
 70
     1
 71
     0
 10
0.0
 20
0.0
 11
12.0
 21
9.0
 12
0.0
 22
0.0
 32
0.0
 14
0.0
 24
0.0
 34
0.0
 15
0.0
 25
0.0
 35
0.0
146
0.0
 13
0.0
 23
0.0
 33
0.0
 16
1.0
 26
0.0
 36
0.0
 17
0.0
 27
1.0
 37
0.0
 76
     0
330
395C
  0
MLINESTYLE
  5
3955
102
{ACAD_REACTORS
330
3954
102
}
330
3954
100
AcDbMlineStyle
  2
STANDARD
 70
     0
  3

 62
   256
 51
90.0
 52
90.0
 71
     2
 49
0.5
 62
   256
  6
BYLAYER
 49
-0.5
 62
   256
  6
BYLAYER
  0
ACDBPLACEHOLDER
  5
394D
102
{ACAD_REACTORS
330
394C
102
}
330
394C
  0
DICTIONARYVAR
  5
3980
102
{ACAD_REACTORS
330
397D
102
}
330
397D
100
DictionaryVariables
280
     0
  1
1
  0
DICTIONARYVAR
  5
397F
102
{ACAD_REACTORS
330
397D
102
}
330
397D
100
DictionaryVariables
280
     0
  1
1
  0
DICTIONARYVAR
  5
397E
102
{ACAD_REACTORS
330
397D
102
}
330
397D
100
DictionaryVariables
280
     0
  1
1
  0
ENDSEC
  0
EOF
