  0
SECTION
  2
HEADER
  9
$ACADVER
  1
AC1015
  9
$ACADMAINTVER
 70
    13
  9
$DWGCODEPAGE
  3
ANSI_1252
  9
$INSBASE
 10
0.0
 20
0.0
 30
0.0
  9
$EXTMIN
 10
0.0348781899348295
 20
-0.3835322333964303
 30
0.0
  9
$EXTMAX
 10
16.52487818993482
 20
10.05646776660356
 30
0.03
  9
$LIMMIN
 10
0.0
 20
0.0
  9
$LIMMAX
 10
12.0
 20
9.0
  9
$ORTHOMODE
 70
     0
  9
$REGENMODE
 70
     1
  9
$FILLMODE
 70
     1
  9
$QTEXTMODE
 70
     0
  9
$MIRRTEXT
 70
     0
  9
$LTSCALE
 40
1.0
  9
$ATTMODE
 70
     1
  9
$TEXTSIZE
 40
0.1
  9
$TRACEWID
 40
0.05
  9
$TEXTSTYLE
  7
ROMANS
  9
$CLAYER
  8
IMAGE
  9
$CELTYPE
  6
ByLayer
  9
$CECOLOR
 62
   256
  9
$CELTSCALE
 40
1.0
  9
$DISPSILH
 70
     0
  9
$DIMSCALE
 40
1.0
  9
$DIMASZ
 40
0.18
  9
$DIMEXO
 40
0.0625
  9
$DIMDLI
 40
0.38
  9
$DIMRND
 40
0.0
  9
$DIMDLE
 40
0.0
  9
$DIMEXE
 40
0.18
  9
$DIMTP
 40
0.0
  9
$DIMTM
 40
0.0
  9
$DIMTXT
 40
0.1
  9
$DIMCEN
 40
0.09
  9
$DIMTSZ
 40
0.0
  9
$DIMTOL
 70
     0
  9
$DIMLIM
 70
     0
  9
$DIMTIH
 70
     1
  9
$DIMTOH
 70
     1
  9
$DIMSE1
 70
     0
  9
$DIMSE2
 70
     0
  9
$DIMTAD
 70
     0
  9
$DIMZIN
 70
     0
  9
$DIMBLK
  1

  9
$DIMASO
 70
     1
  9
$DIMSHO
 70
     1
  9
$DIMPOST
  1

  9
$DIMAPOST
  1

  9
$DIMALT
 70
     0
  9
$DIMALTD
 70
     2
  9
$DIMALTF
 40
25.4
  9
$DIMLFAC
 40
1.0
  9
$DIMTOFL
 70
     0
  9
$DIMTVP
 40
0.0
  9
$DIMTIX
 70
     0
  9
$DIMSOXD
 70
     0
  9
$DIMSAH
 70
     0
  9
$DIMBLK1
  1

  9
$DIMBLK2
  1

  9
$DIMSTYLE
  2
Standard
  9
$DIMCLRD
 70
     0
  9
$DIMCLRE
 70
     0
  9
$DIMCLRT
 70
     0
  9
$DIMTFAC
 40
1.799999999999999
  9
$DIMGAP
 40
0.09
  9
$DIMJUST
 70
     0
  9
$DIMSD1
 70
     0
  9
$DIMSD2
 70
     0
  9
$DIMTOLJ
 70
     1
  9
$DIMTZIN
 70
     0
  9
$DIMALTZ
 70
     0
  9
$DIMALTTZ
 70
     0
  9
$DIMUPT
 70
     0
  9
$DIMDEC
 70
     4
  9
$DIMTDEC
 70
     4
  9
$DIMALTU
 70
     2
  9
$DIMALTTD
 70
     2
  9
$DIMTXSTY
  7
STANDARD
  9
$DIMAUNIT
 70
     0
  9
$DIMADEC
 70
     0
  9
$DIMALTRND
 40
0.0
  9
$DIMAZIN
 70
     0
  9
$DIMDSEP
 70
    46
  9
$DIMATFIT
 70
     3
  9
$DIMFRAC
 70
     0
  9
$DIMLDRBLK
  1

  9
$DIMLUNIT
 70
     2
  9
$DIMLWD
 70
    -2
  9
$DIMLWE
 70
    -2
  9
$DIMTMOVE
 70
     2
  9
$LUNITS
 70
     2
  9
$LUPREC
 70
     4
  9
$SKETCHINC
 40
0.1
  9
$FILLETRAD
 40
0.0
  9
$AUNITS
 70
     0
  9
$AUPREC
 70
     0
  9
$MENU
  1
ACAD
  9
$ELEVATION
 40
0.0
  9
$PELEVATION
 40
0.0
  9
$THICKNESS
 40
0.0
  9
$LIMCHECK
 70
     0
  9
$CHAMFERA
 40
0.0
  9
$CHAMFERB
 40
0.0
  9
$CHAMFERC
 40
0.0
  9
$CHAMFERD
 40
0.0
  9
$SKPOLY
 70
     0
  9
$TDCREATE
 40
2449660.676995370
  9
$TDUCREATE
 40
2449660.968662037
  9
$TDUPDATE
 40
2453021.639070567
  9
$TDUUPDATE
 40
2453021.930737234
  9
$TDINDWG
 40
0.2257091551
  9
$TDUSRTIMER
 40
0.2257091551
  9
$USRTIMER
 70
     1
  9
$ANGBASE
 50
0.0
  9
$ANGDIR
 70
     0
  9
$PDMODE
 70
     0
  9
$PDSIZE
 40
0.0
  9
$PLINEWID
 40
0.0
  9
$SPLFRAME
 70
     0
  9
$SPLINETYPE
 70
     6
  9
$SPLINESEGS
 70
     8
  9
$HANDSEED
  5
5AE
  9
$SURFTAB1
 70
     6
  9
$SURFTAB2
 70
     6
  9
$SURFTYPE
 70
     6
  9
$SURFU
 70
     6
  9
$SURFV
 70
     6
  9
$UCSBASE
  2

  9
$UCSNAME
  2

  9
$UCSORG
 10
0.0
 20
0.0
 30
0.0
  9
$UCSXDIR
 10
1.0
 20
0.0
 30
0.0
  9
$UCSYDIR
 10
0.0
 20
1.0
 30
0.0
  9
$UCSORTHOREF
  2

  9
$UCSORTHOVIEW
 70
     0
  9
$UCSORGTOP
 10
0.0
 20
0.0
 30
0.0
  9
$UCSORGBOTTOM
 10
0.0
 20
0.0
 30
0.0
  9
$UCSORGLEFT
 10
0.0
 20
0.0
 30
0.0
  9
$UCSORGRIGHT
 10
0.0
 20
0.0
 30
0.0
  9
$UCSORGFRONT
 10
0.0
 20
0.0
 30
0.0
  9
$UCSORGBACK
 10
0.0
 20
0.0
 30
0.0
  9
$PUCSBASE
  2

  9
$PUCSNAME
  2

  9
$PUCSORG
 10
0.0
 20
0.0
 30
0.0
  9
$PUCSXDIR
 10
1.0
 20
0.0
 30
0.0
  9
$PUCSYDIR
 10
0.0
 20
1.0
 30
0.0
  9
$PUCSORTHOREF
  2

  9
$PUCSORTHOVIEW
 70
     0
  9
$PUCSORGTOP
 10
0.0
 20
0.0
 30
0.0
  9
$PUCSORGBOTTOM
 10
0.0
 20
0.0
 30
0.0
  9
$PUCSORGLEFT
 10
0.0
 20
0.0
 30
0.0
  9
$PUCSORGRIGHT
 10
0.0
 20
0.0
 30
0.0
  9
$PUCSORGFRONT
 10
0.0
 20
0.0
 30
0.0
  9
$PUCSORGBACK
 10
0.0
 20
0.0
 30
0.0
  9
$USERI1
 70
     0
  9
$USERI2
 70
     0
  9
$USERI3
 70
     0
  9
$USERI4
 70
     0
  9
$USERI5
 70
     0
  9
$USERR1
 40
0.0
  9
$USERR2
 40
0.0
  9
$USERR3
 40
0.0
  9
$USERR4
 40
0.0
  9
$USERR5
 40
0.0
  9
$WORLDVIEW
 70
     1
  9
$SHADEDGE
 70
     3
  9
$SHADEDIF
 70
    70
  9
$TILEMODE
 70
     1
  9
$MAXACTVP
 70
    16
  9
$PINSBASE
 10
0.0
 20
0.0
 30
0.0
  9
$PLIMCHECK
 70
     0
  9
$PEXTMIN
 10
1.000000000000000E+20
 20
1.000000000000000E+20
 30
1.000000000000000E+20
  9
$PEXTMAX
 10
-1.000000000000000E+20
 20
-1.000000000000000E+20
 30
-1.000000000000000E+20
  9
$PLIMMIN
 10
0.0
 20
0.0
  9
$PLIMMAX
 10
12.0
 20
9.0
  9
$UNITMODE
 70
     0
  9
$VISRETAIN
 70
     0
  9
$PLINEGEN
 70
     1
  9
$PSLTSCALE
 70
     1
  9
$TREEDEPTH
 70
  3020
  9
$CMLSTYLE
  2
Standard
  9
$CMLJUST
 70
     0
  9
$CMLSCALE
 40
1.0
  9
$PROXYGRAPHICS
 70
     1
  9
$MEASUREMENT
 70
     0
  9
$CELWEIGHT
370
    -1
  9
$ENDCAPS
280
     0
  9
$JOINSTYLE
280
     0
  9
$LWDISPLAY
290
     0
  9
$INSUNITS
 70
     0
  9
$HYPERLINKBASE
  1

  9
$STYLESHEET
  1

  9
$XEDIT
290
     1
  9
$CEPSNTYPE
380
     0
  9
$PSTYLEMODE
290
     1
  9
$FINGERPRINTGUID
  2
{5E343336-38C6-49C6-8217-2D2D83A8193A}
  9
$VERSIONGUID
  2
{54D1B6CB-F600-4285-8294-EF404D6E2DA3}
  9
$EXTNAMES
290
     1
  9
$PSVPSCALE
 40
0.0
  9
$OLESTARTUP
290
     0
  0
ENDSEC
  0
SECTION
  2
CLASSES
  0
CLASS
  1
ACDBDICTIONARYWDFLT
  2
AcDbDictionaryWithDefault
  3
AutoCAD 2000
 90
        0
280
     0
281
     0
  0
CLASS
  1
ACDBPLACEHOLDER
  2
AcDbPlaceHolder
  3
AutoCAD 2000
 90
        0
280
     0
281
     0
  0
CLASS
  1
LAYOUT
  2
AcDbLayout
  3
AutoCAD 2000
 90
        0
280
     0
281
     0
  0
CLASS
  1
DICTIONARYVAR
  2
AcDbDictionaryVar
  3
AutoCAD 2000
 90
        0
280
     0
281
     0
  0
ENDSEC
  0
SECTION
  2
TABLES
  0
TABLE
  2
VPORT
  5
8
330
0
100
AcDbSymbolTable
 70
     2
  0
VPORT
  5
5AD
330
8
100
AcDbSymbolTableRecord
100
AcDbViewportTableRecord
  2
*Active
 70
     0
 10
0.0
 20
0.0
 11
1.0
 21
1.0
 12
8.279495459852272
 22
4.83645632017457
 13
0.0
 23
0.0
 14
0.14
 24
0.14
 15
0.14
 25
0.14
 16
0.0
 26
0.0
 36
1.0
 17
0.0
 27
0.0
 37
0.0
 40
11.00717839124701
 41
1.505548705302096
 42
50.0
 43
0.0
 44
0.0
 50
0.0
 51
0.0
 71
     0
 72
  5000
 73
     1
 74
     1
 75
     0
 76
     0
 77
     0
 78
     0
281
     0
 65
     1
110
0.0
120
0.0
130
0.0
111
1.0
121
0.0
131
0.0
112
0.0
122
1.0
132
0.0
 79
     0
146
0.0
  0
ENDTAB
  0
TABLE
  2
LTYPE
  5
5
330
0
100
AcDbSymbolTable
 70
     1
  0
LTYPE
  5
13
330
5
100
AcDbSymbolTableRecord
100
AcDbLinetypeTableRecord
  2
ByBlock
 70
     0
  3

 72
    65
 73
     0
 40
0.0
  0
LTYPE
  5
14
330
5
100
AcDbSymbolTableRecord
100
AcDbLinetypeTableRecord
  2
ByLayer
 70
     0
  3

 72
    65
 73
     0
 40
0.0
  0
LTYPE
  5
15
330
5
100
AcDbSymbolTableRecord
100
AcDbLinetypeTableRecord
  2
CONTINUOUS
 70
     0
  3
Solid line
 72
    65
 73
     0
 40
0.0
  0
ENDTAB
  0
TABLE
  2
LAYER
  5
2
330
0
100
AcDbSymbolTable
 70
     9
  0
LAYER
  5
10
330
2
100
AcDbSymbolTableRecord
100
AcDbLayerTableRecord
  2
0
 70
     0
 62
     7
  6
CONTINUOUS
370
    -3
390
F
  0
LAYER
  5
2B
330
2
100
AcDbSymbolTableRecord
100
AcDbLayerTableRecord
  2
TEXT_BUBBLES
 70
     0
 62
     6
  6
CONTINUOUS
370
    -3
390
F
  0
LAYER
  5
2C
330
2
100
AcDbSymbolTableRecord
100
AcDbLayerTableRecord
  2
IMAGE
 70
     0
 62
     7
  6
CONTINUOUS
370
    -3
390
F
  0
LAYER
  5
2F
330
2
100
AcDbSymbolTableRecord
100
AcDbLayerTableRecord
  2
TEXT_LEADERS
 70
     0
 62
    -5
  6
CONTINUOUS
370
    -3
390
F
  0
LAYER
  5
30
330
2
100
AcDbSymbolTableRecord
100
AcDbLayerTableRecord
  2
OPTION-MODEL-075
 70
     0
 62
     1
  6
CONTINUOUS
370
    -3
390
F
  0
LAYER
  5
31
330
2
100
AcDbSymbolTableRecord
100
AcDbLayerTableRecord
  2
INSTRUCT-OPTION
 70
     0
 62
     7
  6
CONTINUOUS
370
    -3
390
F
  0
LAYER
  5
32
330
2
100
AcDbSymbolTableRecord
100
AcDbLayerTableRecord
  2
INSTRUCT-CALLOUT
 70
     0
 62
     4
  6
CONTINUOUS
370
    -3
390
F
  0
LAYER
  5
34
330
2
100
AcDbSymbolTableRecord
100
AcDbLayerTableRecord
  2
DEFPOINTS
 70
     0
 62
     7
  6
CONTINUOUS
290
     0
370
    -3
390
F
  0
LAYER
  5
53C
330
2
100
AcDbSymbolTableRecord
100
AcDbLayerTableRecord
  2
TITLE
 70
     0
 62
     4
  6
CONTINUOUS
370
    -3
390
F
  0
ENDTAB
  0
TABLE
  2
STYLE
  5
3
330
0
100
AcDbSymbolTable
 70
     5
  0
STYLE
  5
11
330
3
100
AcDbSymbolTableRecord
100
AcDbTextStyleTableRecord
  2
STANDARD
 70
     0
 40
0.0
 41
1.0
 50
0.0
 71
     0
 42
0.2
  3
txt
  4

  0
STYLE
  5
26
330
3
100
AcDbSymbolTableRecord
100
AcDbTextStyleTableRecord
  2
ROMANS
 70
     0
 40
0.0
 41
1.0
 50
0.0
 71
     0
 42
0.1
  3
ROMANS.SHX
  4

  0
STYLE
  5
53D
330
3
100
AcDbSymbolTableRecord
100
AcDbTextStyleTableRecord
  2
L100
 70
     0
 40
0.1
 41
1.0
 50
0.0
 71
     0
 42
0.1
  3
romans.shx
  4

  0
STYLE
  5
53E
330
3
100
AcDbSymbolTableRecord
100
AcDbTextStyleTableRecord
  2
L200
 70
     0
 40
0.2
 41
1.0
 50
0.0
 71
     0
 42
0.081
  3
ARIAL.TTF
  4

1001
ACAD
1000
Arial
1071
       34
  0
STYLE
  5
53F
330
3
100
AcDbSymbolTableRecord
100
AcDbTextStyleTableRecord
  2
L80
 70
     0
 40
0.08
 41
1.0
 50
0.0
 71
     0
 42
0.08
  3
ROMANS
  4

  0
ENDTAB
  0
TABLE
  2
VIEW
  5
6
330
0
100
AcDbSymbolTable
 70
     0
  0
ENDTAB
  0
TABLE
  2
UCS
  5
7
330
0
100
AcDbSymbolTable
 70
     0
  0
ENDTAB
  0
TABLE
  2
APPID
  5
9
330
0
100
AcDbSymbolTable
 70
     3
  0
APPID
  5
12
330
9
100
AcDbSymbolTableRecord
100
AcDbRegAppTableRecord
  2
ACAD
 70
     0
  0
APPID
  5
540
330
9
100
AcDbSymbolTableRecord
100
AcDbRegAppTableRecord
  2
RAK
 70
     0
  0
APPID
  5
541
330
9
100
AcDbSymbolTableRecord
100
AcDbRegAppTableRecord
  2
DCO15
 70
     0
  0
ENDTAB
  0
TABLE
  2
DIMSTYLE
  5
A
330
0
100
AcDbSymbolTable
 70
     1
100
AcDbDimStyleTable
 71
     0
  0
DIMSTYLE
105
519
330
A
100
AcDbSymbolTableRecord
100
AcDbDimStyleTableRecord
  2
Standard
 70
     0
340
11
  0
ENDTAB
  0
TABLE
  2
BLOCK_RECORD
  5
1
330
0
100
AcDbSymbolTable
 70
     1
  0
BLOCK_RECORD
  5
1E
330
1
100
AcDbSymbolTableRecord
100
AcDbBlockTableRecord
  2
*Model_Space
340
21
  0
BLOCK_RECORD
  5
1A
330
1
100
AcDbSymbolTableRecord
100
AcDbBlockTableRecord
  2
*Paper_Space
340
1D
  0
BLOCK_RECORD
  5
542
330
1
100
AcDbSymbolTableRecord
100
AcDbBlockTableRecord
  2
titleblock
340
0
102
{BLKREFS
331
551
102
}
  0
ENDTAB
  0
ENDSEC
  0
SECTION
  2
BLOCKS
  0
BLOCK
  5
37
330
1E
100
AcDbEntity
  8
0
100
AcDbBlockBegin
  2
*Model_Space
 70
     0
 10
0.0
 20
0.0
 30
0.0
  3
*Model_Space
  1

  0
ENDBLK
  5
38
330
1E
100
AcDbEntity
  8
0
100
AcDbBlockEnd
  0
BLOCK
  5
35
330
1A
100
AcDbEntity
 67
     1
  8
0
100
AcDbBlockBegin
  2
*Paper_Space
 70
     0
 10
0.0
 20
0.0
 30
0.0
  3
*Paper_Space
  1

  0
ENDBLK
  5
36
330
1A
100
AcDbEntity
 67
     1
  8
0
100
AcDbBlockEnd
  0
BLOCK
  5
54E
330
542
100
AcDbEntity
  8
0
100
AcDbBlockBegin
  2
titleblock
 70
     2
 10
0.0
 20
0.0
 30
0.0
  3
titleblock
  1

  0
LWPOLYLINE
  5
543
330
542
100
AcDbEntity
  8
IMAGE
100
AcDbPolyline
 90
        4
 70
     1
 43
0.0
 10
0.0
 20
0.0
 10
16.48999999999999
 20
0.0000000000000001
 10
16.48999999999999
 20
10.44
 10
0.0
 20
10.44
  0
ATTDEF
  5
544
330
542
100
AcDbEntity
  8
TITLE
100
AcDbText
 10
0.5055556038023421
 20
0.7842270964783673
 30
0.0
 40
0.2
  1
D
  7
L200
 72
     4
 11
0.6064423705144839
 21
0.8842270964783672
 31
0.0
100
AcDbAttributeDefinition
  3
#
  2
D
 70
     0
  0
ATTDEF
  5
545
330
542
100
AcDbEntity
  8
TITLE
100
AcDbText
 10
1.231442370514484
 20
1.34371230274675
 30
0.0
 40
0.2
  1

  7
L200
100
AcDbAttributeDefinition
  3
DETAIL TITLE TOP LINE
  2
TITLE1
 70
     0
  0
ATTDEF
  5
546
330
542
100
AcDbEntity
  8
TITLE
100
AcDbText
 10
1.231442370514484
 20
0.9842270964783674
 30
0.0
 40
0.2
  1
TITLE
  7
L200
100
AcDbAttributeDefinition
  3
DETAIL TITLE TOP 2ND LINE
  2
TITLE2
 70
     0
  0
ATTDEF
  5
547
330
542
100
AcDbEntity
  8
TITLE
100
AcDbText
 10
2.713645751168312
 20
0.5927927664583189
 30
0.0
 40
0.2
  1
TITLE2
  7
L200
100
AcDbAttributeDefinition
  3
DETAIL TITLE BOTTOM 1
  2
TITLE3
 70
     0
  0
ATTDEF
  5
548
330
542
100
AcDbEntity
  8
TITLE
100
AcDbText
 10
2.713645751168312
 20
0.2692560808167741
 30
0.0
 40
0.2
  1

  7
L200
100
AcDbAttributeDefinition
  3
DETAIL TITLE BOTTOM 2
  2
TITLE4
 70
     0
  0
ATTDEF
  5
549
330
542
100
AcDbEntity
  8
TITLE
 62
     7
100
AcDbText
 10
8.177214829966379
 20
0.9696027915446398
 30
0.0
 40
0.08
  1
-
  7
L80
 72
     2
 11
8.261024353775903
 21
0.9696027915446398
 31
0.0
100
AcDbAttributeDefinition
  3
REVISION DATE
  2
REVISED
 70
     0
  0
ATTDEF
  5
54A
330
542
100
AcDbEntity
  8
TITLE
 62
     7
100
AcDbText
 10
0.2639423705144838
 20
0.0847116480207214
 30
0.0
 40
0.08
  1
-
  7
L80
100
AcDbAttributeDefinition
  3
DWG-NAME
  2
DWG-NAME
 70
     0
  0
LWPOLYLINE
  5
54B
330
542
100
AcDbEntity
  8
TITLE
 62
     3
100
AcDbPolyline
 90
        2
 70
     1
 43
0.03
 10
0.6064423705144839
 20
0.5417270964783675
 42
0.9999999999999998
 10
0.6064423705144839
 20
1.226727096478367
 42
0.9999999999999998
  0
ATTDEF
  5
54C
330
542
100
AcDbEntity
  8
TITLE
 62
     7
100
AcDbText
 10
1.231442370514484
 20
0.7005637793954894
 30
0.0
 40
0.1
  1
N.T.S.
  7
L100
100
AcDbAttributeDefinition
  3
SCALE
  2
SCALE
 70
     0
  0
LWPOLYLINE
  5
54D
330
542
100
AcDbEntity
  8
TITLE
 62
     3
100
AcDbPolyline
 90
        2
 70
     0
 43
0.04
 39
0.03
 10
0.9489423705144833
 20
0.8842270964783672
 10
8.261024353775903
 20
0.8842270964783672
  0
ENDBLK
  5
54F
330
542
100
AcDbEntity
  8
0
100
AcDbBlockEnd
  0
ENDSEC
  0
SECTION
  2
ENTITIES
  0
LINE
  5
BD
330
1E
100
AcDbEntity
  8
IMAGE
100
AcDbLine
 10
1.375101843754799
 20
5.734160709332722
 30
0.0
 11
1.234987073420259
 21
5.356665104076573
 31
0.0
  0
LINE
  5
BE
330
1E
100
AcDbEntity
  8
IMAGE
100
AcDbLine
 10
1.101153310031766
 20
5.703748948147635
 30
0.0
 11
1.164236466750595
 21
5.356665104076583
 31
0.0
  0
LINE
  5
BF
330
1E
100
AcDbEntity
  8
IMAGE
100
AcDbLine
 10
0.9489596801856322
 20
5.754435216789436
 30
0.0
 11
0.9489596801856322
 21
5.356665104076573
 31
0.0
  0
LINE
  5
C0
330
1E
100
AcDbEntity
  8
IMAGE
100
AcDbLine
 10
1.253346939877891
 20
5.744297963061081
 30
0.0
 11
1.180068525507534
 21
5.356665104076573
 31
0.0
  0
LINE
  5
C1
330
1E
100
AcDbEntity
  8
IMAGE
100
AcDbLine
 10
1.021966239691245
 20
5.705810630601976
 30
0.0
 11
1.090056220221269
 21
5.362702332697613
 31
0.0
  0
LINE
  5
C2
330
1E
100
AcDbEntity
  8
IMAGE
100
AcDbLine
 10
1.285814914245064
 20
5.697299383035732
 30
0.0
 11
1.261492843666982
 21
5.356665104076573
 31
0.0
  0
LINE
  5
C3
330
1E
100
AcDbEntity
  8
IMAGE
100
AcDbLine
 10
0.8936694255028619
 20
5.697299383035732
 30
0.0
 11
0.8693473549247826
 21
5.356665104076573
 31
0.0
  0
LINE
  5
C4
330
1E
100
AcDbEntity
  8
IMAGE
100
AcDbLine
 10
0.8934326798564423
 20
5.703748948147635
 30
0.0
 11
0.9565158365752711
 21
5.356665104076583
 31
0.0
  0
LINE
  5
C5
330
1E
100
AcDbEntity
  8
IMAGE
100
AcDbLine
 10
0.8427014699077247
 20
5.724023455604354
 30
0.0
 11
0.8190269052649963
 21
5.356665104076583
 31
0.0
  0
LINE
  5
C6
330
1E
100
AcDbEntity
  8
IMAGE
100
AcDbLine
 10
0.8142456095159214
 20
5.705810630601976
 30
0.0
 11
0.8823355900459461
 21
5.362702332697613
 31
0.0
  0
LINE
  5
C7
330
1E
100
AcDbEntity
  8
IMAGE
100
AcDbLine
 10
1.345709630173646
 20
5.701555006818861
 30
0.0
 11
1.370213504136952
 21
5.356665104076573
 31
0.0
  0
LINE
  5
C8
330
1E
100
AcDbEntity
  8
IMAGE
100
AcDbLine
 10
1.299118086956754
 20
5.701555006818861
 30
0.0
 11
1.323621960920057
 21
5.356665104076573
 31
0.0
  0
LINE
  5
C9
330
1E
100
AcDbEntity
  8
IMAGE
100
AcDbLine
 10
1.158682502113594
 20
5.705810630601976
 30
0.0
 11
1.226772482643616
 21
5.362702332697613
 31
0.0
  0
LINE
  5
CA
330
1E
100
AcDbEntity
  8
IMAGE
100
AcDbLine
 10
0.9884575507885525
 20
5.718577501951361
 30
0.0
 11
1.022408422830152
 21
5.356665104076573
 31
0.0
  0
LINE
  5
CB
330
1E
100
AcDbEntity
  8
IMAGE
100
AcDbLine
 10
1.399113005055816
 20
5.718577501951361
 30
0.0
 11
1.433063877097416
 21
5.356665104076573
 31
0.0
  0
LINE
  5
CC
330
1E
100
AcDbEntity
  8
IMAGE
100
AcDbLine
 10
3.201149766367615
 20
5.754435216789436
 30
0.0
 11
3.201149766367615
 21
5.356665104076573
 31
0.0
  0
LINE
  5
CD
330
1E
100
AcDbEntity
  8
IMAGE
100
AcDbLine
 10
3.099254440145305
 20
5.734160709332722
 30
0.0
 11
2.959139669810764
 21
5.356665104076573
 31
0.0
  0
LINE
  5
CE
330
1E
100
AcDbEntity
  8
IMAGE
100
AcDbLine
 10
3.235146441194582
 20
5.734160709332722
 30
0.0
 11
3.095031670860042
 21
5.356665104076573
 31
0.0
  0
LINE
  5
CF
330
1E
100
AcDbEntity
  8
IMAGE
100
AcDbLine
 10
2.961197907471549
 20
5.703748948147635
 30
0.0
 11
3.024281064190378
 21
5.356665104076583
 31
0.0
  0
LINE
  5
D0
330
1E
100
AcDbEntity
  8
IMAGE
100
AcDbLine
 10
2.882010837131028
 20
5.705810630601976
 30
0.0
 11
2.950100817661052
 21
5.362702332697613
 31
0.0
  0
LINE
  5
D1
330
1E
100
AcDbEntity
  8
IMAGE
100
AcDbLine
 10
3.145622766038425
 20
5.703748948147635
 30
0.0
 11
3.208705922757254
 21
5.356665104076583
 31
0.0
  0
LINE
  5
D2
330
1E
100
AcDbEntity
  8
IMAGE
100
AcDbLine
 10
2.993429136192291
 20
5.754435216789436
 30
0.0
 11
2.993429136192291
 21
5.356665104076573
 31
0.0
  0
LINE
  5
D3
330
1E
100
AcDbEntity
  8
IMAGE
100
AcDbLine
 10
3.066435695697904
 20
5.705810630601976
 30
0.0
 11
3.134525676227928
 21
5.362702332697613
 31
0.0
  0
LINE
  5
D4
330
1E
100
AcDbEntity
  8
IMAGE
100
AcDbLine
 10
3.240647636970534
 20
5.718577501951361
 30
0.0
 11
3.274598509012135
 21
5.356665104076573
 31
0.0
  0
LINE
  5
D5
330
1E
100
AcDbEntity
  8
IMAGE
100
AcDbLine
 10
2.280562255391408
 20
3.668986448533193
 30
0.0
 11
2.280562255391408
 21
3.615213975505906
 31
0.0
  0
LINE
  5
D6
330
1E
100
AcDbEntity
  8
IMAGE
100
AcDbLine
 10
2.104562255391408
 20
3.668986448533193
 30
0.0
 11
2.104562255391407
 21
3.615213975505906
 31
0.0
  0
LINE
  5
D7
330
1E
100
AcDbEntity
  8
IMAGE
100
AcDbLine
 10
2.026678658198312
 20
3.615213975505907
 30
0.0
 11
2.350909820425176
 21
3.615213975505907
 31
0.0
  0
LINE
  5
D8
330
1E
100
AcDbEntity
  8
IMAGE
100
AcDbLine
 10
2.085946519040351
 20
3.615213975505907
 30
0.0
 11
2.085946519040351
 21
3.472097525573187
 31
0.0
  0
LINE
  5
D9
330
1E
100
AcDbEntity
  8
IMAGE
100
AcDbLine
 10
2.076708829831682
 20
3.615213975505907
 30
0.0
 11
2.076708829831679
 21
3.472097525573187
 31
0.0
  0
LINE
  5
DA
330
1E
100
AcDbEntity
  8
IMAGE
100
AcDbLine
 10
2.307626551123144
 20
3.615213975505907
 30
0.0
 11
2.307626551123144
 21
3.472097525573187
 31
0.0
  0
LINE
  5
DB
330
1E
100
AcDbEntity
  8
IMAGE
100
AcDbLine
 10
2.298388861914473
 20
3.615213975505907
 30
0.0
 11
2.298388861914473
 21
3.472097525573187
 31
0.0
  0
LINE
  5
DC
330
1E
100
AcDbEntity
  8
IMAGE
100
AcDbLine
 10
2.198031928520415
 20
3.615213975505907
 30
0.0
 11
2.198031928520415
 21
3.472097525573187
 31
0.0
  0
LINE
  5
DD
330
1E
100
AcDbEntity
  8
IMAGE
100
AcDbLine
 10
2.188794239311744
 20
3.615213975505907
 30
0.0
 11
2.188794239311744
 21
3.472097525573187
 31
0.0
  0
LINE
  5
DE
330
1E
100
AcDbEntity
  8
IMAGE
100
AcDbLine
 10
2.026678658198314
 20
3.472097525573187
 30
0.0
 11
2.350909820425176
 21
3.472097525573187
 31
0.0
  0
ARC
  5
DF
330
1E
100
AcDbEntity
  8
IMAGE
100
AcDbCircle
 10
2.30590972021756
 20
3.488862645034991
 30
0.0
 40
0.0433306753570854
100
AcDbArc
 50
235.6269844683447
 51
304.3730155316552
  0
ARC
  5
E0
330
1E
100
AcDbEntity
  8
IMAGE
100
AcDbCircle
 10
2.197089053586579
 20
3.488862645034991
 30
0.0
 40
0.0433306753570854
100
AcDbArc
 50
235.6269844683447
 51
304.3730155316552
  0
ARC
  5
E1
330
1E
100
AcDbEntity
  8
IMAGE
100
AcDbCircle
 10
2.088268386955598
 20
3.488862645034991
 30
0.0
 40
0.0433306753570854
100
AcDbArc
 50
235.6269844683447
 51
304.3730155316552
  0
ARC
  5
E2
330
1E
100
AcDbEntity
  8
IMAGE
100
AcDbCircle
 10
2.033980331566151
 20
3.460400067760317
 30
0.0
 40
0.0073016733678377
100
AcDbArc
 50
180.0
 51
270.0
  0
ARC
  5
E3
330
1E
100
AcDbEntity
  8
IMAGE
100
AcDbCircle
 10
2.34360814705734
 20
3.460400067760317
 30
0.0
 40
0.0073016733678377
100
AcDbArc
 50
270.0
 51
0.0
  0
LINE
  5
E4
330
1E
100
AcDbEntity
  8
IMAGE
100
AcDbLine
 10
2.026678658198312
 20
3.468451029955481
 30
0.0
 11
2.350909820425176
 21
3.468451029955481
 31
0.0
  0
LINE
  5
E5
330
1E
100
AcDbEntity
  8
IMAGE
100
AcDbLine
 10
2.350909820425176
 20
3.615213975505907
 30
0.0
 11
2.350909820425176
 21
3.460400067760317
 31
0.0
  0
LINE
  5
E6
330
1E
100
AcDbEntity
  8
IMAGE
100
AcDbLine
 10
2.026678658198312
 20
3.615213975505907
 30
0.0
 11
2.026678658198314
 21
3.460400067760317
 31
0.0
  0
LINE
  5
E7
330
1E
100
AcDbEntity
  8
IMAGE
100
AcDbLine
 10
2.033980331566151
 20
3.453098394392475
 30
0.0
 11
2.34360814705734
 21
3.453098394392475
 31
0.0
  0
LINE
  5
E8
330
1E
100
AcDbEntity
  8
IMAGE
100
AcDbLine
 10
2.329062255391408
 20
3.942996200012375
 30
0.0
 11
2.638545077717847
 21
3.942996200012374
 31
0.0
  0
LINE
  5
E9
330
1E
100
AcDbEntity
  8
IMAGE
100
AcDbLine
 10
2.638545077717847
 20
3.956280618898942
 30
0.0
 11
3.236816648468157
 21
3.956280618898942
 31
0.0
  0
LINE
  5
EA
330
1E
100
AcDbEntity
  8
IMAGE
100
AcDbLine
 10
2.056062255391408
 20
3.668986448533193
 30
0.0
 11
2.329062255391408
 21
3.668986448533191
 31
0.0
  0
LINE
  5
EB
330
1E
100
AcDbEntity
  8
IMAGE
100
AcDbLine
 10
2.638545077717847
 20
4.215996200012373
 30
0.0
 11
2.638545077717847
 21
3.942996200012374
 31
0.0
  0
LINE
  5
EC
330
1E
100
AcDbEntity
  8
IMAGE
100
AcDbLine
 10
1.74657943306497
 20
4.215996200012373
 30
0.0
 11
1.746579433064969
 21
3.942996200012374
 31
0.0
  0
LINE
  5
ED
330
1E
100
AcDbEntity
  8
IMAGE
100
AcDbLine
 10
1.746579433064969
 20
3.942996200012374
 30
0.0
 11
2.056062255391408
 21
3.942996200012375
 31
0.0
  0
LWPOLYLINE
  5
EE
330
1E
100
AcDbEntity
  8
IMAGE
100
AcDbPolyline
 90
        4
 70
     0
 43
0.0
 10
3.236816648468157
 20
4.202711781125806
 42
-0.6523923451352183
 10
3.236816648468157
 20
4.066111630807375
 42
0.6523923451352184
 10
3.236816648468157
 20
3.956280618898942
 42
0.706121137971959
 10
3.236816648468157
 20
4.066111630807375
 42
0.706121137971959
  0
LWPOLYLINE
  5
F4
330
1E
100
AcDbEntity
  8
IMAGE
100
AcDbPolyline
 90
        4
 70
     0
 43
0.0
 10
0.909108357922439
 20
4.202711781125806
 42
0.6523923451352183
 10
0.909108357922439
 20
4.066111630807373
 42
-0.6523923451352184
 10
0.909108357922439
 20
3.956280618898942
 42
-0.706121137971959
 10
0.909108357922439
 20
4.066111630807373
 42
-0.706121137971959
  0
LINE
  5
FA
330
1E
100
AcDbEntity
  8
IMAGE
100
AcDbLine
 10
0.909108357922439
 20
3.956280618898942
 30
0.0
 11
1.746579433064969
 21
3.956280618898942
 31
0.0
  0
LINE
  5
FB
330
1E
100
AcDbEntity
  8
IMAGE
100
AcDbLine
 10
2.056062255391408
 20
3.942996200012375
 30
0.0
 11
2.056062255391408
 21
3.668986448533193
 31
0.0
  0
LINE
  5
FC
330
1E
100
AcDbEntity
  8
IMAGE
100
AcDbLine
 10
2.329062255391408
 20
3.942996200012375
 30
0.0
 11
2.329062255391408
 21
3.668986448533193
 31
0.0
  0
LINE
  5
FD
330
1E
100
AcDbEntity
  8
IMAGE
100
AcDbLine
 10
2.104562255391408
 20
3.668986448533193
 30
0.0
 11
2.280562255391408
 21
3.668986448533193
 31
0.0
  0
LINE
  5
FE
330
1E
100
AcDbEntity
  8
IMAGE
100
AcDbLine
 10
2.638545077717847
 20
4.202711781125806
 30
0.0
 11
3.236816648468157
 21
4.202711781125806
 31
0.0
  0
LINE
  5
FF
330
1E
100
AcDbEntity
  8
IMAGE
100
AcDbLine
 10
0.909108357922439
 20
4.202711781125806
 30
0.0
 11
1.746579433064969
 21
4.202711781125806
 31
0.0
  0
LINE
  5
100
330
1E
100
AcDbEntity
  8
IMAGE
100
AcDbLine
 10
1.746579433064969
 20
4.215996200012373
 30
0.0
 11
2.638545077717847
 21
4.215996200012373
 31
0.0
  0
LINE
  5
101
330
1E
100
AcDbEntity
  8
IMAGE
100
AcDbLine
 10
2.638545077717847
 20
4.202711781125806
 30
0.0
 11
2.638545077717847
 21
3.956280618898942
 31
0.0
  0
LINE
  5
102
330
1E
100
AcDbEntity
  8
IMAGE
100
AcDbLine
 10
1.746579433064969
 20
4.202711781125806
 30
0.0
 11
1.746579433064969
 21
3.956280618898942
 31
0.0
  0
POINT
  5
103
330
1E
100
AcDbEntity
  8
IMAGE
  6
ByBlock
100
AcDbPoint
 10
1.766979791480554
 20
3.228900324548604
 30
0.0
  0
LWPOLYLINE
  5
104
330
1E
100
AcDbEntity
  8
IMAGE
100
AcDbPolyline
 90
       16
 70
     1
 43
0.0
 10
2.304653528465966
 20
3.144540254953789
 42
0.0434330315006511
 10
2.271983561157587
 20
3.117562369023949
 42
0.0567894210325387
 10
2.251574012222992
 20
3.09233760138037
 42
0.0992891628608468
 10
2.240866548462211
 20
3.064639589821102
 42
0.1960556314456874
 10
2.244184683726562
 20
3.049535296917535
 42
0.1960556314457155
 10
2.257118863386015
 20
3.041058464827287
 42
0.0992891628608236
 10
2.28681411139306
 20
3.04120635101879
 42
0.056789421032569
 10
2.317651284818599
 20
3.051301266843575
 42
0.0434330315006363
 10
2.354490554651651
 20
3.072229747231349
 42
0.0434330315006436
 10
2.387160521960016
 20
3.099207633161175
 42
0.0567894210326018
 10
2.407570070894625
 20
3.124432400804769
 42
0.0992891628608134
 10
2.418277534655392
 20
3.15213041236402
 42
0.1960556314459067
 10
2.414959399391055
 20
3.167234705267603
 42
0.196055631445795
 10
2.402025219731602
 20
3.175711537357849
 42
0.0992891628608398
 10
2.372329971724557
 20
3.175563651166346
 42
0.0567894210325599
 10
2.341492798299004
 20
3.165468735341559
 42
0.0434330315006345
  0
LWPOLYLINE
  5
116
330
1E
100
AcDbEntity
  8
IMAGE
100
AcDbPolyline
 90
       16
 70
     1
 43
0.0
 10
2.184319615362799
 20
2.935367634898883
 42
0.0434330315006511
 10
2.151649648054434
 20
2.908389748969046
 42
0.0567894210325387
 10
2.131240099119825
 20
2.883164981325464
 42
0.0992891628608468
 10
2.120532635359058
 20
2.855466969766198
 42
0.1960556314456874
 10
2.123850770623395
 20
2.840362676862631
 42
0.1960556314457155
 10
2.136784950282848
 20
2.831885844772383
 42
0.0992891628608236
 10
2.166480198289892
 20
2.832033730963886
 42
0.056789421032569
 10
2.197317371715446
 20
2.842128646788671
 42
0.0434330315006363
 10
2.234156641548484
 20
2.863057127176445
 42
0.0434330315006436
 10
2.266826608856849
 20
2.890035013106271
 42
0.0567894210326018
 10
2.287236157791472
 20
2.915259780749864
 42
0.0992891628608134
 10
2.297943621552239
 20
2.942957792309116
 42
0.1960556314459067
 10
2.294625486287902
 20
2.958062085212699
 42
0.196055631445795
 10
2.281691306628435
 20
2.966538917302945
 42
0.0992891628608398
 10
2.251996058621405
 20
2.966391031111442
 42
0.0567894210325599
 10
2.221158885195837
 20
2.956296115286655
 42
0.0434330315006345
  0
LWPOLYLINE
  5
128
330
1E
100
AcDbEntity
  8
IMAGE
100
AcDbPolyline
 90
       16
 70
     1
 43
0.0
 10
2.429727379160528
 20
2.984832121261329
 42
0.07934358800666
 10
2.379730093749561
 20
2.984452096402757
 42
0.088395850954969
 10
2.337391208457877
 20
2.969366115184247
 42
0.1051726671530419
 10
2.304879884423546
 20
2.940376507267203
 42
0.1211548649735495
 10
2.29038615804588
 20
2.90530524067348
 42
0.1211548649734267
 10
2.293811237204952
 20
2.86751197834338
 42
0.1051726671530232
 10
2.316247148955842
 20
2.83017548919995
 42
0.0883958509549529
 10
2.352196140253572
 20
2.803197015155941
 42
0.0793435880066574
 10
2.399825163449112
 20
2.787986850239134
 42
0.0793435880066597
 10
2.449822448860079
 20
2.788366875097706
 42
0.0883958509549733
 10
2.492161334151763
 20
2.803452856316216
 42
0.1051726671530409
 10
2.524672658186109
 20
2.832442464233267
 42
0.1211548649734865
 10
2.53916638456376
 20
2.867513730826985
 42
0.1211548649735704
 10
2.535741305404688
 20
2.905306993157094
 42
0.1051726671530808
 10
2.513305393653798
 20
2.942643482300513
 42
0.088395850954995
 10
2.477356402356069
 20
2.969621956344525
 42
0.079343588006662
  0
LWPOLYLINE
  5
13A
330
1E
100
AcDbEntity
  8
IMAGE
100
AcDbPolyline
 90
       16
 70
     1
 43
0.0
 10
2.106571233530164
 20
3.125302734782661
 42
0.0748908044820551
 10
2.118410963913436
 20
3.08993201875251
 42
0.0853957141860852
 10
2.138054574617473
 20
3.06370716123214
 42
0.1061792576230668
 10
2.164984417371275
 20
3.047345566031721
 42
0.1276627052626351
 10
2.191237344647934
 20
3.045229083537874
 42
0.1276627052626062
 10
2.215205605272931
 20
3.056147790940894
 42
0.1061792576230447
 10
2.23496579822228
 20
3.08069270900658
 42
0.0853957141860986
 10
2.244519666574551
 20
3.112034983859596
 42
0.0748908044821293
 10
2.243624400298263
 20
3.149323926809615
 42
0.0748908044820311
 10
2.23178466991499
 20
3.184694642839771
 42
0.0853957141860326
 10
2.212141059210953
 20
3.210919500360136
 42
0.1061792576230853
 10
2.185211216457151
 20
3.227281095560556
 42
0.1276627052626233
 10
2.158958289180493
 20
3.229397578054401
 42
0.1276627052625918
 10
2.134990028555495
 20
3.218478870651381
 42
0.1061792576230068
 10
2.115229835606147
 20
3.193933952585695
 42
0.0853957141861021
 10
2.105675967253862
 20
3.162591677732664
 42
0.0748908044820785
  0
CIRCLE
  5
14C
330
1E
100
AcDbEntity
  8
IMAGE
100
AcDbCircle
 10
2.067486332920086
 20
3.193280231807387
 30
0.0
 40
0.0388839860400404
  0
LWPOLYLINE
  5
14D
330
1E
100
AcDbEntity
  8
IMAGE
100
AcDbPolyline
 90
       16
 70
     1
 43
0.0
 10
1.824443108165713
 20
2.883357326428721
 42
0.0745326405826767
 10
1.82187568165904
 20
2.847807857388513
 42
0.0851432476272048
 10
1.829503888065605
 20
2.817500205657152
 42
0.1062473046261003
 10
1.84715485559646
 20
2.793197023103165
 42
0.1282110682742083
 10
1.869392546470383
 20
2.78173500050273
 42
0.1282110682742351
 10
1.894395815109991
 20
2.782589058365
 42
0.1062473046261211
 10
1.920742848271391
 20
2.797012483083856
 42
0.085143247627067
 10
1.940596518042301
 20
2.821149075284824
 42
0.0745326405826477
 10
1.953474483105541
 20
2.854383311303428
 42
0.0745326405826642
 10
1.956041909612213
 20
2.889932780343672
 42
0.085143247627062
 10
1.948413703205648
 20
2.920240432074996
 42
0.1062473046260861
 10
1.930762735674793
 20
2.94454361462898
 42
0.1282110682742578
 10
1.908525044800871
 20
2.956005637229419
 42
0.1282110682742191
 10
1.883521776161263
 20
2.955151579367149
 42
0.1062473046261211
 10
1.857174742999877
 20
2.940728154648292
 42
0.0851432476270892
 10
1.837321073228938
 20
2.916591562447314
 42
0.0745326405826602
  0
POLYLINE
  5
15F
330
1E
100
AcDbEntity
  8
IMAGE
100
AcDb2dPolyline
 66
     1
 10
0.0
 20
0.0
 30
0.0
 70
     5
 75
     6
  0
VERTEX
  5
160
330
15F
100
AcDbEntity
  8
IMAGE
100
AcDbVertex
100
AcDb2dVertex
 10
1.930433166152003
 20
2.960249905030459
 30
0.0
 70
    16
  0
VERTEX
  5
161
330
15F
100
AcDbEntity
  8
IMAGE
100
AcDbVertex
100
AcDb2dVertex
 10
2.015486916387903
 20
2.984291733820321
 30
0.0
 70
     8
  0
VERTEX
  5
162
330
15F
100
AcDbEntity
  8
IMAGE
100
AcDbVertex
100
AcDb2dVertex
 10
2.023470150456805
 20
2.988451129813431
 30
0.0
 70
     8
  0
VERTEX
  5
163
330
15F
100
AcDbEntity
  8
IMAGE
100
AcDbVertex
100
AcDb2dVertex
 10
2.030731343256594
 20
2.99281439445263
 30
0.0
 70
     8
  0
VERTEX
  5
164
330
15F
100
AcDbEntity
  8
IMAGE
100
AcDbVertex
100
AcDb2dVertex
 10
2.037391168351167
 20
2.997211999955105
 30
0.0
 70
     8
  0
VERTEX
  5
165
330
15F
100
AcDbEntity
  8
IMAGE
100
AcDbVertex
100
AcDb2dVertex
 10
2.043570299304423
 20
3.001474418538054
 30
0.0
 70
     8
  0
VERTEX
  5
166
330
15F
100
AcDbEntity
  8
IMAGE
100
AcDbVertex
100
AcDb2dVertex
 10
2.049389409680291
 20
3.005432122418663
 30
0.0
 70
     8
  0
VERTEX
  5
167
330
15F
100
AcDbEntity
  8
IMAGE
100
AcDbVertex
100
AcDb2dVertex
 10
2.054969173042668
 20
3.008915583814122
 30
0.0
 70
     8
  0
VERTEX
  5
168
330
15F
100
AcDbEntity
  8
IMAGE
100
AcDbVertex
100
AcDb2dVertex
 10
2.060430262955453
 20
3.011755274941624
 30
0.0
 70
     8
  0
VERTEX
  5
169
330
15F
100
AcDbEntity
  8
IMAGE
100
AcDbVertex
100
AcDb2dVertex
 10
2.065893352982559
 20
3.013781668018359
 30
0.0
 70
     8
  0
VERTEX
  5
16A
330
15F
100
AcDbEntity
  8
IMAGE
100
AcDbVertex
100
AcDb2dVertex
 10
2.071449948354075
 20
3.014863203680775
 30
0.0
 70
     8
  0
VERTEX
  5
16B
330
15F
100
AcDbEntity
  8
IMAGE
100
AcDbVertex
100
AcDb2dVertex
 10
2.077074880964818
 20
3.015020196242364
 30
0.0
 70
     8
  0
VERTEX
  5
16C
330
15F
100
AcDbEntity
  8
IMAGE
100
AcDbVertex
100
AcDb2dVertex
 10
2.082713814375797
 20
3.014310928435874
 30
0.0
 70
     8
  0
VERTEX
  5
16D
330
15F
100
AcDbEntity
  8
IMAGE
100
AcDbVertex
100
AcDb2dVertex
 10
2.088312412148003
 20
3.012793682994054
 30
0.0
 70
     8
  0
VERTEX
  5
16E
330
15F
100
AcDbEntity
  8
IMAGE
100
AcDbVertex
100
AcDb2dVertex
 10
2.093816337842458
 20
3.010526742649652
 30
0.0
 70
     8
  0
VERTEX
  5
16F
330
15F
100
AcDbEntity
  8
IMAGE
100
AcDbVertex
100
AcDb2dVertex
 10
2.099171255020142
 20
3.00756839013542
 30
0.0
 70
     8
  0
VERTEX
  5
170
330
15F
100
AcDbEntity
  8
IMAGE
100
AcDbVertex
100
AcDb2dVertex
 10
2.104322827242089
 20
3.003976908184104
 30
0.0
 70
     8
  0
VERTEX
  5
171
330
15F
100
AcDbEntity
  8
IMAGE
100
AcDbVertex
100
AcDb2dVertex
 10
2.10921671806928
 20
2.999810579528455
 30
0.0
 70
     8
  0
VERTEX
  5
172
330
15F
100
AcDbEntity
  8
IMAGE
100
AcDbVertex
100
AcDb2dVertex
 10
2.113795257538857
 20
2.995112773615524
 30
0.0
 70
     8
  0
VERTEX
  5
173
330
15F
100
AcDbEntity
  8
IMAGE
100
AcDbVertex
100
AcDb2dVertex
 10
2.117987441592507
 20
2.989867206749579
 30
0.0
 70
     8
  0
VERTEX
  5
174
330
15F
100
AcDbEntity
  8
IMAGE
100
AcDbVertex
100
AcDb2dVertex
 10
2.12171893264804
 20
2.984042681949189
 30
0.0
 70
     8
  0
VERTEX
  5
175
330
15F
100
AcDbEntity
  8
IMAGE
100
AcDbVertex
100
AcDb2dVertex
 10
2.124915393123277
 20
2.977608002232925
 30
0.0
 70
     8
  0
VERTEX
  5
176
330
15F
100
AcDbEntity
  8
IMAGE
100
AcDbVertex
100
AcDb2dVertex
 10
2.127502485436014
 20
2.970531970619357
 30
0.0
 70
     8
  0
VERTEX
  5
177
330
15F
100
AcDbEntity
  8
IMAGE
100
AcDbVertex
100
AcDb2dVertex
 10
2.129405872004088
 20
2.962783390127052
 30
0.0
 70
     8
  0
VERTEX
  5
178
330
15F
100
AcDbEntity
  8
IMAGE
100
AcDbVertex
100
AcDb2dVertex
 10
2.130551215245308
 20
2.954331063774584
 30
0.0
 70
     8
  0
VERTEX
  5
179
330
15F
100
AcDbEntity
  8
IMAGE
100
AcDbVertex
100
AcDb2dVertex
 10
2.130864177577482
 20
2.94514379458052
 30
0.0
 70
     8
  0
VERTEX
  5
17A
330
15F
100
AcDbEntity
  8
IMAGE
100
AcDbVertex
100
AcDb2dVertex
 10
2.130284811129772
 20
2.935244436147538
 30
0.0
 70
     8
  0
VERTEX
  5
17B
330
15F
100
AcDbEntity
  8
IMAGE
100
AcDbVertex
100
AcDb2dVertex
 10
2.128810726876753
 20
2.924872044414734
 30
0.0
 70
     8
  0
VERTEX
  5
17C
330
15F
100
AcDbEntity
  8
IMAGE
100
AcDbVertex
100
AcDb2dVertex
 10
2.126453925504339
 20
2.914319725905312
 30
0.0
 70
     8
  0
VERTEX
  5
17D
330
15F
100
AcDbEntity
  8
IMAGE
100
AcDbVertex
100
AcDb2dVertex
 10
2.123226407698442
 20
2.903880587142471
 30
0.0
 70
     8
  0
VERTEX
  5
17E
330
15F
100
AcDbEntity
  8
IMAGE
100
AcDbVertex
100
AcDb2dVertex
 10
2.119140174144963
 20
2.893847734649416
 30
0.0
 70
     8
  0
VERTEX
  5
17F
330
15F
100
AcDbEntity
  8
IMAGE
100
AcDbVertex
100
AcDb2dVertex
 10
2.114207225529813
 20
2.88451427494935
 30
0.0
 70
     8
  0
VERTEX
  5
180
330
15F
100
AcDbEntity
  8
IMAGE
100
AcDbVertex
100
AcDb2dVertex
 10
2.108439562538936
 20
2.876173314565474
 30
0.0
 70
     8
  0
VERTEX
  5
181
330
15F
100
AcDbEntity
  8
IMAGE
100
AcDbVertex
100
AcDb2dVertex
 10
2.101849185858203
 20
2.869117960020992
 30
0.0
 70
     8
  0
VERTEX
  5
182
330
15F
100
AcDbEntity
  8
IMAGE
100
AcDbVertex
100
AcDb2dVertex
 10
2.094461319151566
 20
2.863585937151139
 30
0.0
 70
     8
  0
VERTEX
  5
183
330
15F
100
AcDbEntity
  8
IMAGE
100
AcDbVertex
100
AcDb2dVertex
 10
2.086354077994887
 20
2.8595934490393
 30
0.0
 70
     8
  0
VERTEX
  5
184
330
15F
100
AcDbEntity
  8
IMAGE
100
AcDbVertex
100
AcDb2dVertex
 10
2.077618800942094
 20
2.857101318080881
 30
0.0
 70
     8
  0
VERTEX
  5
185
330
15F
100
AcDbEntity
  8
IMAGE
100
AcDbVertex
100
AcDb2dVertex
 10
2.06834682654706
 20
2.8560703666713
 30
0.0
 70
     8
  0
VERTEX
  5
186
330
15F
100
AcDbEntity
  8
IMAGE
100
AcDbVertex
100
AcDb2dVertex
 10
2.058629493363685
 20
2.856461417205969
 30
0.0
 70
     8
  0
VERTEX
  5
187
330
15F
100
AcDbEntity
  8
IMAGE
100
AcDbVertex
100
AcDb2dVertex
 10
2.048558139945871
 20
2.858235292080302
 30
0.0
 70
     8
  0
VERTEX
  5
188
330
15F
100
AcDbEntity
  8
IMAGE
100
AcDbVertex
100
AcDb2dVertex
 10
2.038224104847504
 20
2.861352813689711
 30
0.0
 70
     8
  0
VERTEX
  5
189
330
15F
100
AcDbEntity
  8
IMAGE
100
AcDbVertex
100
AcDb2dVertex
 10
2.027718726622499
 20
2.865774804429613
 30
0.0
 70
     8
  0
VERTEX
  5
18A
330
15F
100
AcDbEntity
  8
IMAGE
100
AcDbVertex
100
AcDb2dVertex
 10
2.017144511129675
 20
2.871424682562642
 30
0.0
 70
     8
  0
VERTEX
  5
18B
330
15F
100
AcDbEntity
  8
IMAGE
100
AcDbVertex
100
AcDb2dVertex
 10
2.006648633447685
 20
2.878076249820348
 30
0.0
 70
     8
  0
VERTEX
  5
18C
330
15F
100
AcDbEntity
  8
IMAGE
100
AcDbVertex
100
AcDb2dVertex
 10
1.996389435960086
 20
2.885465903801496
 30
0.0
 70
     8
  0
VERTEX
  5
18D
330
15F
100
AcDbEntity
  8
IMAGE
100
AcDbVertex
100
AcDb2dVertex
 10
1.986525261050463
 20
2.893330042104859
 30
0.0
 70
     8
  0
VERTEX
  5
18E
330
15F
100
AcDbEntity
  8
IMAGE
100
AcDbVertex
100
AcDb2dVertex
 10
1.977214451102401
 20
2.901405062329207
 30
0.0
 70
     8
  0
VERTEX
  5
18F
330
15F
100
AcDbEntity
  8
IMAGE
100
AcDbVertex
100
AcDb2dVertex
 10
1.968615348499486
 20
2.909427362073307
 30
0.0
 70
     8
  0
VERTEX
  5
190
330
15F
100
AcDbEntity
  8
IMAGE
100
AcDbVertex
100
AcDb2dVertex
 10
1.960886295625275
 20
2.917133338935931
 30
0.0
 70
     8
  0
VERTEX
  5
191
330
15F
100
AcDbEntity
  8
IMAGE
100
AcDbVertex
100
AcDb2dVertex
 10
1.954185634863353
 20
2.92425939051585
 30
0.0
 70
     8
  0
VERTEX
  5
192
330
15F
100
AcDbEntity
  8
IMAGE
100
AcDbVertex
100
AcDb2dVertex
 10
1.948654818743069
 20
2.930601164492844
 30
0.0
 70
     8
  0
VERTEX
  5
193
330
15F
100
AcDbEntity
  8
IMAGE
100
AcDbVertex
100
AcDb2dVertex
 10
1.944367740376737
 20
2.936191308870732
 30
0.0
 70
     8
  0
VERTEX
  5
194
330
15F
100
AcDbEntity
  8
IMAGE
100
AcDbVertex
100
AcDb2dVertex
 10
1.94138140302245
 20
2.941121721734351
 30
0.0
 70
     8
  0
VERTEX
  5
195
330
15F
100
AcDbEntity
  8
IMAGE
100
AcDbVertex
100
AcDb2dVertex
 10
1.939752809938301
 20
2.94548430116853
 30
0.0
 70
     8
  0
VERTEX
  5
196
330
15F
100
AcDbEntity
  8
IMAGE
100
AcDbVertex
100
AcDb2dVertex
 10
1.939538964382368
 20
2.949370945258105
 30
0.0
 70
     8
  0
VERTEX
  5
197
330
15F
100
AcDbEntity
  8
IMAGE
100
AcDbVertex
100
AcDb2dVertex
 10
1.940796869612757
 20
2.952873552087905
 30
0.0
 70
     8
  0
VERTEX
  5
198
330
15F
100
AcDbEntity
  8
IMAGE
100
AcDbVertex
100
AcDb2dVertex
 10
1.943583528887547
 20
2.956084019742764
 30
0.0
 70
     8
  0
VERTEX
  5
199
330
15F
100
AcDbEntity
  8
IMAGE
100
AcDbVertex
100
AcDb2dVertex
 10
1.947955945464816
 20
2.959094246307513
 30
0.0
 70
     8
  0
VERTEX
  5
19A
330
15F
100
AcDbEntity
  8
IMAGE
100
AcDbVertex
100
AcDb2dVertex
 10
1.953909841322275
 20
2.961990849757727
 30
0.0
 70
     8
  0
VERTEX
  5
19B
330
15F
100
AcDbEntity
  8
IMAGE
100
AcDbVertex
100
AcDb2dVertex
 10
1.961195813316127
 20
2.964839327631935
 30
0.0
 70
     8
  0
VERTEX
  5
19C
330
15F
100
AcDbEntity
  8
IMAGE
100
AcDbVertex
100
AcDb2dVertex
 10
1.969503177022151
 20
2.967699897359413
 30
0.0
 70
     8
  0
VERTEX
  5
19D
330
15F
100
AcDbEntity
  8
IMAGE
100
AcDbVertex
100
AcDb2dVertex
 10
1.978521248016139
 20
2.970632776369428
 30
0.0
 70
     8
  0
VERTEX
  5
19E
330
15F
100
AcDbEntity
  8
IMAGE
100
AcDbVertex
100
AcDb2dVertex
 10
1.987939341873914
 20
2.973698182091255
 30
0.0
 70
     8
  0
VERTEX
  5
19F
330
15F
100
AcDbEntity
  8
IMAGE
100
AcDbVertex
100
AcDb2dVertex
 10
1.997446774171269
 20
2.976956331954165
 30
0.0
 70
     8
  0
VERTEX
  5
1A0
330
15F
100
AcDbEntity
  8
IMAGE
100
AcDbVertex
100
AcDb2dVertex
 10
2.006732860483996
 20
2.980467443387429
 30
0.0
 70
     8
  0
VERTEX
  5
1A1
330
15F
100
AcDbEntity
  8
IMAGE
100
AcDbVertex
100
AcDb2dVertex
 10
2.02447587460681
 20
2.98030883857874
 30
0.0
 70
    16
  0
VERTEX
  5
1A2
330
15F
100
AcDbEntity
  8
IMAGE
100
AcDbVertex
100
AcDb2dVertex
 10
2.06458483374816
 20
3.024265143576512
 30
0.0
 70
    16
  0
VERTEX
  5
1A3
330
15F
100
AcDbEntity
  8
IMAGE
100
AcDbVertex
100
AcDb2dVertex
 10
2.112544908295905
 20
3.00532059522536
 30
0.0
 70
    16
  0
VERTEX
  5
1A4
330
15F
100
AcDbEntity
  8
IMAGE
100
AcDbVertex
100
AcDb2dVertex
 10
2.140535841483899
 20
2.953315952692783
 30
0.0
 70
    16
  0
VERTEX
  5
1A5
330
15F
100
AcDbEntity
  8
IMAGE
100
AcDbVertex
100
AcDb2dVertex
 10
2.110496791233362
 20
2.852278361486633
 30
0.0
 70
    16
  0
VERTEX
  5
1A6
330
15F
100
AcDbEntity
  8
IMAGE
100
AcDbVertex
100
AcDb2dVertex
 10
2.028572108731882
 20
2.852278361486633
 30
0.0
 70
    16
  0
VERTEX
  5
1A7
330
15F
100
AcDbEntity
  8
IMAGE
100
AcDbVertex
100
AcDb2dVertex
 10
1.941527133574073
 20
2.933257019144502
 30
0.0
 70
    16
  0
SEQEND
  5
1A8
330
15F
100
AcDbEntity
  8
IMAGE
  0
POLYLINE
  5
1A9
330
1E
100
AcDbEntity
  8
IMAGE
100
AcDb2dPolyline
 66
     1
 10
0.0
 20
0.0
 30
0.0
 70
     5
 75
     6
  0
VERTEX
  5
1AA
330
1A9
100
AcDbEntity
  8
IMAGE
100
AcDbVertex
100
AcDb2dVertex
 10
1.930719728672759
 20
2.947650864992511
 30
0.0
 70
    16
  0
VERTEX
  5
1AB
330
1A9
100
AcDbEntity
  8
IMAGE
100
AcDbVertex
100
AcDb2dVertex
 10
1.825906644087044
 20
3.048034598259335
 30
0.0
 70
     8
  0
VERTEX
  5
1AC
330
1A9
100
AcDbEntity
  8
IMAGE
100
AcDbVertex
100
AcDb2dVertex
 10
1.815613946383169
 20
3.043675909953896
 30
0.0
 70
     8
  0
VERTEX
  5
1AD
330
1A9
100
AcDbEntity
  8
IMAGE
100
AcDbVertex
100
AcDb2dVertex
 10
1.806532827206442
 20
3.035018770887596
 30
0.0
 70
     8
  0
VERTEX
  5
1AE
330
1A9
100
AcDbEntity
  8
IMAGE
100
AcDbVertex
100
AcDb2dVertex
 10
1.799005862379051
 20
3.023161479134117
 30
0.0
 70
     8
  0
VERTEX
  5
1AF
330
1A9
100
AcDbEntity
  8
IMAGE
100
AcDbVertex
100
AcDb2dVertex
 10
1.793375627723211
 20
3.009202332767149
 30
0.0
 70
     8
  0
VERTEX
  5
1B0
330
1A9
100
AcDbEntity
  8
IMAGE
100
AcDbVertex
100
AcDb2dVertex
 10
1.789984699061097
 20
2.994239629860376
 30
0.0
 70
     8
  0
VERTEX
  5
1B1
330
1A9
100
AcDbEntity
  8
IMAGE
100
AcDbVertex
100
AcDb2dVertex
 10
1.789175652214954
 20
2.979371668487488
 30
0.0
 70
     8
  0
VERTEX
  5
1B2
330
1A9
100
AcDbEntity
  8
IMAGE
100
AcDbVertex
100
AcDb2dVertex
 10
1.791291063006941
 20
2.965696746722166
 30
0.0
 70
     8
  0
VERTEX
  5
1B3
330
1A9
100
AcDbEntity
  8
IMAGE
100
AcDbVertex
100
AcDb2dVertex
 10
1.79667350725926
 20
2.954313162638099
 30
0.0
 70
     8
  0
VERTEX
  5
1B4
330
1A9
100
AcDbEntity
  8
IMAGE
100
AcDbVertex
100
AcDb2dVertex
 10
1.805439960213977
 20
2.946107362074294
 30
0.0
 70
     8
  0
VERTEX
  5
1B5
330
1A9
100
AcDbEntity
  8
IMAGE
100
AcDbVertex
100
AcDb2dVertex
 10
1.816804994792494
 20
2.941118381931009
 30
0.0
 70
     8
  0
VERTEX
  5
1B6
330
1A9
100
AcDbEntity
  8
IMAGE
100
AcDbVertex
100
AcDb2dVertex
 10
1.829757583336036
 20
2.939173406873834
 30
0.0
 70
     8
  0
VERTEX
  5
1B7
330
1A9
100
AcDbEntity
  8
IMAGE
100
AcDbVertex
100
AcDb2dVertex
 10
1.843286698185853
 20
2.940099621568351
 30
0.0
 70
     8
  0
VERTEX
  5
1B8
330
1A9
100
AcDbEntity
  8
IMAGE
100
AcDbVertex
100
AcDb2dVertex
 10
1.856381311683211
 20
2.94372421068014
 30
0.0
 70
     8
  0
VERTEX
  5
1B9
330
1A9
100
AcDbEntity
  8
IMAGE
100
AcDbVertex
100
AcDb2dVertex
 10
1.868030396169348
 20
2.949874358874789
 30
0.0
 70
     8
  0
VERTEX
  5
1BA
330
1A9
100
AcDbEntity
  8
IMAGE
100
AcDbVertex
100
AcDb2dVertex
 10
1.877222923985502
 20
2.958377250817879
 30
0.0
 70
     8
  0
VERTEX
  5
1BB
330
1A9
100
AcDbEntity
  8
IMAGE
100
AcDbVertex
100
AcDb2dVertex
 10
1.88294786747291
 20
2.969060071174992
 30
0.0
 70
     8
  0
VERTEX
  5
1BC
330
1A9
100
AcDbEntity
  8
IMAGE
100
AcDbVertex
100
AcDb2dVertex
 10
1.884474112222083
 20
2.98162456004424
 30
0.0
 70
     8
  0
VERTEX
  5
1BD
330
1A9
100
AcDbEntity
  8
IMAGE
100
AcDbVertex
100
AcDb2dVertex
 10
1.882190196820292
 20
2.995270679253824
 30
0.0
 70
     8
  0
VERTEX
  5
1BE
330
1A9
100
AcDbEntity
  8
IMAGE
100
AcDbVertex
100
AcDb2dVertex
 10
1.876764573104143
 20
3.009072946064476
 30
0.0
 70
     8
  0
VERTEX
  5
1BF
330
1A9
100
AcDbEntity
  8
IMAGE
100
AcDbVertex
100
AcDb2dVertex
 10
1.868865692910151
 20
3.02210587773693
 30
0.0
 70
     8
  0
VERTEX
  5
1C0
330
1A9
100
AcDbEntity
  8
IMAGE
100
AcDbVertex
100
AcDb2dVertex
 10
1.859162008074893
 20
3.033443991531911
 30
0.0
 70
     8
  0
VERTEX
  5
1C1
330
1A9
100
AcDbEntity
  8
IMAGE
100
AcDbVertex
100
AcDb2dVertex
 10
1.848321970434927
 20
3.042161804710149
 30
0.0
 70
     8
  0
VERTEX
  5
1C2
330
1A9
100
AcDbEntity
  8
IMAGE
100
AcDbVertex
100
AcDb2dVertex
 10
1.837014031826786
 20
3.047333834532383
 30
0.0
 70
     8
  0
VERTEX
  5
1C3
330
1A9
100
AcDbEntity
  8
IMAGE
100
AcDbVertex
100
AcDb2dVertex
 10
1.816637281901012
 20
3.105599919161195
 30
0.0
 70
    16
  0
VERTEX
  5
1C4
330
1A9
100
AcDbEntity
  8
IMAGE
100
AcDbVertex
100
AcDb2dVertex
 10
1.758171008245444
 20
2.918157047918726
 30
0.0
 70
    16
  0
SEQEND
  5
1C5
330
1A9
100
AcDbEntity
  8
IMAGE
  0
CIRCLE
  5
1C6
330
1E
100
AcDbEntity
  8
IMAGE
100
AcDbCircle
 10
2.177231272187686
 20
2.993433819789342
 30
0.0
 40
0.0486836726316033
  0
LWPOLYLINE
  5
1C7
330
1E
100
AcDbEntity
  8
IMAGE
100
AcDbPolyline
 90
       16
 70
     1
 43
0.0
 10
2.797418376809226
 20
2.896902634238273
 42
0.0434330315006511
 10
2.764748409500846
 20
2.869924748308436
 42
0.0567894210325387
 10
2.744338860566238
 20
2.844699980664854
 42
0.0992891628608468
 10
2.733631396805471
 20
2.817001969105588
 42
0.1960556314456874
 10
2.736949532069808
 20
2.80189767620202
 42
0.1960556314457155
 10
2.749883711729275
 20
2.793420844111773
 42
0.0992891628608236
 10
2.779578959736305
 20
2.793568730303276
 42
0.056789421032569
 10
2.810416133161858
 20
2.803663646128061
 42
0.0434330315006363
 10
2.847255402994897
 20
2.824592126515835
 42
0.0434330315006436
 10
2.879925370303262
 20
2.851570012445661
 42
0.0567894210326018
 10
2.900334919237885
 20
2.876794780089253
 42
0.0992891628608134
 10
2.911042382998652
 20
2.904492791648506
 42
0.1960556314459067
 10
2.907724247734315
 20
2.919597084552089
 42
0.196055631445795
 10
2.894790068074862
 20
2.928073916642334
 42
0.0992891628608398
 10
2.865094820067817
 20
2.927926030450832
 42
0.0567894210325599
 10
2.834257646642264
 20
2.917831114626045
 42
0.0434330315006345
  0
LWPOLYLINE
  5
1D9
330
1E
100
AcDbEntity
  8
IMAGE
100
AcDbPolyline
 90
       16
 70
     1
 43
0.0
 10
2.538553257303565
 20
2.883357326428721
 42
0.0745326405826767
 10
2.535985830796893
 20
2.847807857388513
 42
0.0851432476272048
 10
2.543614037203458
 20
2.817500205657152
 42
0.1062473046261003
 10
2.561265004734299
 20
2.793197023103165
 42
0.1282110682742083
 10
2.583502695608221
 20
2.78173500050273
 42
0.1282110682742351
 10
2.608505964247843
 20
2.782589058365
 42
0.1062473046261211
 10
2.634852997409229
 20
2.797012483083856
 42
0.085143247627067
 10
2.654706667180154
 20
2.821149075284824
 42
0.0745326405826477
 10
2.667584632243379
 20
2.854383311303428
 42
0.0745326405826642
 10
2.670152058750052
 20
2.889932780343672
 42
0.085143247627062
 10
2.662523852343487
 20
2.920240432074996
 42
0.1062473046260861
 10
2.644872884812646
 20
2.94454361462898
 42
0.1282110682742578
 10
2.622635193938724
 20
2.956005637229419
 42
0.1282110682742191
 10
2.597631925299101
 20
2.955151579367149
 42
0.1062473046261211
 10
2.571284892137715
 20
2.940728154648292
 42
0.0851432476270892
 10
2.551431222366791
 20
2.916591562447314
 42
0.0745326405826602
  0
CIRCLE
  5
1EB
330
1E
100
AcDbEntity
  8
IMAGE
100
AcDbCircle
 10
2.781596482057925
 20
3.193280231807387
 30
0.0
 40
0.0388839860400404
  0
LWPOLYLINE
  5
1EC
330
1E
100
AcDbEntity
  8
IMAGE
100
AcDbPolyline
 90
       16
 70
     1
 43
0.0
 10
2.691167076536491
 20
3.186000043153164
 42
0.07934358800666
 10
2.641169791125524
 20
3.185620018294593
 42
0.088395850954969
 10
2.598830905833839
 20
3.170534037076084
 42
0.1051726671530419
 10
2.566319581799508
 20
3.14154442915904
 42
0.1211548649735495
 10
2.551825855421843
 20
3.106473162565315
 42
0.1211548649734267
 10
2.555250934580915
 20
3.068679900235217
 42
0.1051726671530232
 10
2.577686846331805
 20
3.031343411091788
 42
0.0883958509549529
 10
2.613635837629534
 20
3.004364937047777
 42
0.0793435880066574
 10
2.661264860825074
 20
2.989154772130972
 42
0.0793435880066597
 10
2.711262146236042
 20
2.989534796989542
 42
0.0883958509549733
 10
2.753601031527726
 20
3.004620778208054
 42
0.1051726671530409
 10
2.786112355562071
 20
3.033610386125105
 42
0.1211548649734865
 10
2.800606081939723
 20
3.068681652718823
 42
0.1211548649735704
 10
2.79718100278065
 20
3.106474915048931
 42
0.1051726671530808
 10
2.774745091029761
 20
3.143811404192352
 42
0.088395850954995
 10
2.738796099732031
 20
3.170789878236363
 42
0.079343588006662
  0
POLYLINE
  5
1FE
330
1E
100
AcDbEntity
  8
IMAGE
100
AcDb2dPolyline
 66
     1
 10
0.0
 20
0.0
 30
0.0
 70
     5
 75
     6
  0
VERTEX
  5
1FF
330
1FE
100
AcDbEntity
  8
IMAGE
100
AcDbVertex
100
AcDb2dVertex
 10
2.644829877810611
 20
2.947650864992511
 30
0.0
 70
    16
  0
VERTEX
  5
200
330
1FE
100
AcDbEntity
  8
IMAGE
100
AcDbVertex
100
AcDb2dVertex
 10
2.540016793224883
 20
3.048034598259335
 30
0.0
 70
     8
  0
VERTEX
  5
201
330
1FE
100
AcDbEntity
  8
IMAGE
100
AcDbVertex
100
AcDb2dVertex
 10
2.529724095521008
 20
3.043675909953896
 30
0.0
 70
     8
  0
VERTEX
  5
202
330
1FE
100
AcDbEntity
  8
IMAGE
100
AcDbVertex
100
AcDb2dVertex
 10
2.520642976344281
 20
3.035018770887596
 30
0.0
 70
     8
  0
VERTEX
  5
203
330
1FE
100
AcDbEntity
  8
IMAGE
100
AcDbVertex
100
AcDb2dVertex
 10
2.513116011516903
 20
3.023161479134117
 30
0.0
 70
     8
  0
VERTEX
  5
204
330
1FE
100
AcDbEntity
  8
IMAGE
100
AcDbVertex
100
AcDb2dVertex
 10
2.507485776861049
 20
3.009202332767149
 30
0.0
 70
     8
  0
VERTEX
  5
205
330
1FE
100
AcDbEntity
  8
IMAGE
100
AcDbVertex
100
AcDb2dVertex
 10
2.50409484819895
 20
2.994239629860376
 30
0.0
 70
     8
  0
VERTEX
  5
206
330
1FE
100
AcDbEntity
  8
IMAGE
100
AcDbVertex
100
AcDb2dVertex
 10
2.503285801352792
 20
2.979371668487488
 30
0.0
 70
     8
  0
VERTEX
  5
207
330
1FE
100
AcDbEntity
  8
IMAGE
100
AcDbVertex
100
AcDb2dVertex
 10
2.505401212144779
 20
2.965696746722166
 30
0.0
 70
     8
  0
VERTEX
  5
208
330
1FE
100
AcDbEntity
  8
IMAGE
100
AcDbVertex
100
AcDb2dVertex
 10
2.510783656397113
 20
2.954313162638099
 30
0.0
 70
     8
  0
VERTEX
  5
209
330
1FE
100
AcDbEntity
  8
IMAGE
100
AcDbVertex
100
AcDb2dVertex
 10
2.519550109351829
 20
2.946107362074294
 30
0.0
 70
     8
  0
VERTEX
  5
20A
330
1FE
100
AcDbEntity
  8
IMAGE
100
AcDbVertex
100
AcDb2dVertex
 10
2.530915143930333
 20
2.941118381931009
 30
0.0
 70
     8
  0
VERTEX
  5
20B
330
1FE
100
AcDbEntity
  8
IMAGE
100
AcDbVertex
100
AcDb2dVertex
 10
2.543867732473874
 20
2.939173406873834
 30
0.0
 70
     8
  0
VERTEX
  5
20C
330
1FE
100
AcDbEntity
  8
IMAGE
100
AcDbVertex
100
AcDb2dVertex
 10
2.557396847323691
 20
2.940099621568351
 30
0.0
 70
     8
  0
VERTEX
  5
20D
330
1FE
100
AcDbEntity
  8
IMAGE
100
AcDbVertex
100
AcDb2dVertex
 10
2.570491460821064
 20
2.94372421068014
 30
0.0
 70
     8
  0
VERTEX
  5
20E
330
1FE
100
AcDbEntity
  8
IMAGE
100
AcDbVertex
100
AcDb2dVertex
 10
2.582140545307187
 20
2.949874358874789
 30
0.0
 70
     8
  0
VERTEX
  5
20F
330
1FE
100
AcDbEntity
  8
IMAGE
100
AcDbVertex
100
AcDb2dVertex
 10
2.591333073123341
 20
2.958377250817879
 30
0.0
 70
     8
  0
VERTEX
  5
210
330
1FE
100
AcDbEntity
  8
IMAGE
100
AcDbVertex
100
AcDb2dVertex
 10
2.597058016610763
 20
2.969060071174992
 30
0.0
 70
     8
  0
VERTEX
  5
211
330
1FE
100
AcDbEntity
  8
IMAGE
100
AcDbVertex
100
AcDb2dVertex
 10
2.598584261359921
 20
2.98162456004424
 30
0.0
 70
     8
  0
VERTEX
  5
212
330
1FE
100
AcDbEntity
  8
IMAGE
100
AcDbVertex
100
AcDb2dVertex
 10
2.596300345958145
 20
2.995270679253824
 30
0.0
 70
     8
  0
VERTEX
  5
213
330
1FE
100
AcDbEntity
  8
IMAGE
100
AcDbVertex
100
AcDb2dVertex
 10
2.590874722241981
 20
3.009072946064476
 30
0.0
 70
     8
  0
VERTEX
  5
214
330
1FE
100
AcDbEntity
  8
IMAGE
100
AcDbVertex
100
AcDb2dVertex
 10
2.582975842048004
 20
3.02210587773693
 30
0.0
 70
     8
  0
VERTEX
  5
215
330
1FE
100
AcDbEntity
  8
IMAGE
100
AcDbVertex
100
AcDb2dVertex
 10
2.573272157212745
 20
3.033443991531911
 30
0.0
 70
     8
  0
VERTEX
  5
216
330
1FE
100
AcDbEntity
  8
IMAGE
100
AcDbVertex
100
AcDb2dVertex
 10
2.562432119572779
 20
3.042161804710149
 30
0.0
 70
     8
  0
VERTEX
  5
217
330
1FE
100
AcDbEntity
  8
IMAGE
100
AcDbVertex
100
AcDb2dVertex
 10
2.551124180964638
 20
3.047333834532383
 30
0.0
 70
     8
  0
VERTEX
  5
218
330
1FE
100
AcDbEntity
  8
IMAGE
100
AcDbVertex
100
AcDb2dVertex
 10
2.530747431038851
 20
3.105599919161195
 30
0.0
 70
    16
  0
VERTEX
  5
219
330
1FE
100
AcDbEntity
  8
IMAGE
100
AcDbVertex
100
AcDb2dVertex
 10
2.472281157383282
 20
2.918157047918726
 30
0.0
 70
    16
  0
SEQEND
  5
21A
330
1FE
100
AcDbEntity
  8
IMAGE
  0
POLYLINE
  5
21B
330
1E
100
AcDbEntity
  8
IMAGE
100
AcDb2dPolyline
 66
     1
 10
0.0
 20
0.0
 30
0.0
 70
     5
 75
     6
  0
VERTEX
  5
21C
330
21B
100
AcDbEntity
  8
IMAGE
100
AcDbVertex
100
AcDb2dVertex
 10
2.50100444449038
 20
3.231293149087152
 30
0.0
 70
    16
  0
VERTEX
  5
21D
330
21B
100
AcDbEntity
  8
IMAGE
100
AcDbVertex
100
AcDb2dVertex
 10
2.446359543419096
 20
3.160302684677603
 30
0.0
 70
     8
  0
VERTEX
  5
21E
330
21B
100
AcDbEntity
  8
IMAGE
100
AcDbVertex
100
AcDb2dVertex
 10
2.439673661279631
 20
3.16200715231418
 30
0.0
 70
     8
  0
VERTEX
  5
21F
330
21B
100
AcDbEntity
  8
IMAGE
100
AcDbVertex
100
AcDb2dVertex
 10
2.433328131926789
 20
3.166447280833983
 30
0.0
 70
     8
  0
VERTEX
  5
220
330
21B
100
AcDbEntity
  8
IMAGE
100
AcDbVertex
100
AcDb2dVertex
 10
2.427633973137123
 20
3.172984620384488
 30
0.0
 70
     8
  0
VERTEX
  5
221
330
21B
100
AcDbEntity
  8
IMAGE
100
AcDbVertex
100
AcDb2dVertex
 10
2.422902202687215
 20
3.180980721113176
 30
0.0
 70
     8
  0
VERTEX
  5
222
330
21B
100
AcDbEntity
  8
IMAGE
100
AcDbVertex
100
AcDb2dVertex
 10
2.419443838353676
 20
3.189797133167525
 30
0.0
 70
     8
  0
VERTEX
  5
223
330
21B
100
AcDbEntity
  8
IMAGE
100
AcDbVertex
100
AcDb2dVertex
 10
2.417569897913072
 20
3.198795406695018
 30
0.0
 70
     8
  0
VERTEX
  5
224
330
21B
100
AcDbEntity
  8
IMAGE
100
AcDbVertex
100
AcDb2dVertex
 10
2.417591399142001
 20
3.207337091843133
 30
0.0
 70
     8
  0
VERTEX
  5
225
330
21B
100
AcDbEntity
  8
IMAGE
100
AcDbVertex
100
AcDb2dVertex
 10
2.419819359817058
 20
3.214783738759349
 30
0.0
 70
     8
  0
VERTEX
  5
226
330
21B
100
AcDbEntity
  8
IMAGE
100
AcDbVertex
100
AcDb2dVertex
 10
2.42440745538838
 20
3.220605240596424
 30
0.0
 70
     8
  0
VERTEX
  5
227
330
21B
100
AcDbEntity
  8
IMAGE
100
AcDbVertex
100
AcDb2dVertex
 10
2.430879992000474
 20
3.224704862528215
 30
0.0
 70
     8
  0
VERTEX
  5
228
330
21B
100
AcDbEntity
  8
IMAGE
100
AcDbVertex
100
AcDb2dVertex
 10
2.43860393347143
 20
3.22709421273386
 30
0.0
 70
     8
  0
VERTEX
  5
229
330
21B
100
AcDbEntity
  8
IMAGE
100
AcDbVertex
100
AcDb2dVertex
 10
2.446946243619298
 20
3.227784899392496
 30
0.0
 70
     8
  0
VERTEX
  5
22A
330
21B
100
AcDbEntity
  8
IMAGE
100
AcDbVertex
100
AcDb2dVertex
 10
2.455273886262166
 20
3.226788530683258
 30
0.0
 70
     8
  0
VERTEX
  5
22B
330
21B
100
AcDbEntity
  8
IMAGE
100
AcDbVertex
100
AcDb2dVertex
 10
2.462953825218097
 20
3.224116714785286
 30
0.0
 70
     8
  0
VERTEX
  5
22C
330
21B
100
AcDbEntity
  8
IMAGE
100
AcDbVertex
100
AcDb2dVertex
 10
2.469353024305168
 20
3.219781059877716
 30
0.0
 70
     8
  0
VERTEX
  5
22D
330
21B
100
AcDbEntity
  8
IMAGE
100
AcDbVertex
100
AcDb2dVertex
 10
2.473838447341453
 20
3.213793174139681
 30
0.0
 70
     8
  0
VERTEX
  5
22E
330
21B
100
AcDbEntity
  8
IMAGE
100
AcDbVertex
100
AcDb2dVertex
 10
2.475936233909582
 20
3.206267204666032
 30
0.0
 70
     8
  0
VERTEX
  5
22F
330
21B
100
AcDbEntity
  8
IMAGE
100
AcDbVertex
100
AcDb2dVertex
 10
2.47580922665033
 20
3.197727454214441
 30
0.0
 70
     8
  0
VERTEX
  5
230
330
21B
100
AcDbEntity
  8
IMAGE
100
AcDbVertex
100
AcDb2dVertex
 10
2.473779443969054
 20
3.188800764458289
 30
0.0
 70
     8
  0
VERTEX
  5
231
330
21B
100
AcDbEntity
  8
IMAGE
100
AcDbVertex
100
AcDb2dVertex
 10
2.47016890427108
 20
3.180113977070965
 30
0.0
 70
     8
  0
VERTEX
  5
232
330
21B
100
AcDbEntity
  8
IMAGE
100
AcDbVertex
100
AcDb2dVertex
 10
2.465299625961752
 20
3.172293933725852
 30
0.0
 70
     8
  0
VERTEX
  5
233
330
21B
100
AcDbEntity
  8
IMAGE
100
AcDbVertex
100
AcDb2dVertex
 10
2.459493627446424
 20
3.165967476096331
 30
0.0
 70
     8
  0
VERTEX
  5
234
330
21B
100
AcDbEntity
  8
IMAGE
100
AcDbVertex
100
AcDb2dVertex
 10
2.453072927130425
 20
3.161761445855786
 30
0.0
 70
     8
  0
VERTEX
  5
235
330
21B
100
AcDbEntity
  8
IMAGE
100
AcDbVertex
100
AcDb2dVertex
 10
2.446046636645651
 20
3.124312170162993
 30
0.0
 70
    16
  0
VERTEX
  5
236
330
21B
100
AcDbEntity
  8
IMAGE
100
AcDbVertex
100
AcDb2dVertex
 10
2.392966269441562
 20
3.233274278326489
 30
0.0
 70
    16
  0
SEQEND
  5
237
330
21B
100
AcDbEntity
  8
IMAGE
  0
LWPOLYLINE
  5
238
330
1E
100
AcDbEntity
  8
IMAGE
100
AcDbPolyline
 90
       16
 70
     1
 43
0.0
 10
2.501175120912254
 20
3.157248443766958
 42
0.089158215018281
 10
2.487450692966465
 20
3.163080297235933
 42
0.0941232123748849
 10
2.473321759626476
 20
3.163592943653796
 42
0.1021164699559977
 10
2.460259892218421
 20
3.158751535133842
 42
0.1085893584407838
 10
2.450886706909916
 20
3.14957473231679
 42
0.1085893584407297
 10
2.446224968390343
 20
3.137313471910701
 42
0.1021164699558796
 10
2.447012112371372
 20
3.123405487836946
 42
0.0941232123751025
 10
2.453133186820086
 20
3.110660998389793
 42
0.0891582150184447
 10
2.463967660942846
 20
3.1004147987135
 42
0.0891582150182925
 10
2.477692088888649
 20
3.094582945244525
 42
0.0941232123749289
 10
2.491821022228624
 20
3.094070298826661
 42
0.1021164699559494
 10
2.504882889636679
 20
3.098911707346616
 42
0.108589358440703
 10
2.514256074945184
 20
3.108088510163666
 42
0.108589358440865
 10
2.518917813464743
 20
3.120349770569749
 42
0.1021164699561734
 10
2.518130669483728
 20
3.134257754643512
 42
0.0941232123749801
 10
2.512009595035014
 20
3.147002244090663
 42
0.0891582150184292
  0
POLYLINE
  5
24A
330
1E
100
AcDbEntity
  8
IMAGE
100
AcDb2dPolyline
 66
     1
 10
0.0
 20
0.0
 30
0.0
 70
     5
 75
     6
  0
VERTEX
  5
24B
330
24A
100
AcDbEntity
  8
IMAGE
100
AcDbVertex
100
AcDb2dVertex
 10
2.581338869432148
 20
3.232868314506122
 30
0.0
 70
    16
  0
VERTEX
  5
24C
330
24A
100
AcDbEntity
  8
IMAGE
100
AcDbVertex
100
AcDb2dVertex
 10
2.583614555057199
 20
3.201727439275306
 30
0.0
 70
     8
  0
VERTEX
  5
24D
330
24A
100
AcDbEntity
  8
IMAGE
100
AcDbVertex
100
AcDb2dVertex
 10
2.581455376091231
 20
3.194449433405992
 30
0.0
 70
     8
  0
VERTEX
  5
24E
330
24A
100
AcDbEntity
  8
IMAGE
100
AcDbVertex
100
AcDb2dVertex
 10
2.578651160257426
 20
3.186395614231039
 30
0.0
 70
     8
  0
VERTEX
  5
24F
330
24A
100
AcDbEntity
  8
IMAGE
100
AcDbVertex
100
AcDb2dVertex
 10
2.575335581862749
 20
3.177875533194095
 30
0.0
 70
     8
  0
VERTEX
  5
250
330
24A
100
AcDbEntity
  8
IMAGE
100
AcDbVertex
100
AcDb2dVertex
 10
2.571642315214209
 20
3.169198741738807
 30
0.0
 70
     8
  0
VERTEX
  5
251
330
24A
100
AcDbEntity
  8
IMAGE
100
AcDbVertex
100
AcDb2dVertex
 10
2.567705034618758
 20
3.160674791308818
 30
0.0
 70
     8
  0
VERTEX
  5
252
330
24A
100
AcDbEntity
  8
IMAGE
100
AcDbVertex
100
AcDb2dVertex
 10
2.563657414383375
 20
3.152613233347775
 30
0.0
 70
     8
  0
VERTEX
  5
253
330
24A
100
AcDbEntity
  8
IMAGE
100
AcDbVertex
100
AcDb2dVertex
 10
2.559633128815054
 20
3.145323619299326
 30
0.0
 70
     8
  0
VERTEX
  5
254
330
24A
100
AcDbEntity
  8
IMAGE
100
AcDbVertex
100
AcDb2dVertex
 10
2.555765852220748
 20
3.139115500607115
 30
0.0
 70
     8
  0
VERTEX
  5
255
330
24A
100
AcDbEntity
  8
IMAGE
100
AcDbVertex
100
AcDb2dVertex
 10
2.552148478798859
 20
3.134245547009835
 30
0.0
 70
     8
  0
VERTEX
  5
256
330
24A
100
AcDbEntity
  8
IMAGE
100
AcDbVertex
100
AcDb2dVertex
 10
2.548710782313282
 20
3.130758901426347
 30
0.0
 70
     8
  0
VERTEX
  5
257
330
24A
100
AcDbEntity
  8
IMAGE
100
AcDbVertex
100
AcDb2dVertex
 10
2.545341756419308
 20
3.128647825070562
 30
0.0
 70
     8
  0
VERTEX
  5
258
330
24A
100
AcDbEntity
  8
IMAGE
100
AcDbVertex
100
AcDb2dVertex
 10
2.541930394772269
 20
3.127904579156391
 30
0.0
 70
     8
  0
VERTEX
  5
259
330
24A
100
AcDbEntity
  8
IMAGE
100
AcDbVertex
100
AcDb2dVertex
 10
2.53836569102744
 20
3.128521424897739
 30
0.0
 70
     8
  0
VERTEX
  5
25A
330
24A
100
AcDbEntity
  8
IMAGE
100
AcDbVertex
100
AcDb2dVertex
 10
2.534536638840127
 20
3.130490623508519
 30
0.0
 70
     8
  0
VERTEX
  5
25B
330
24A
100
AcDbEntity
  8
IMAGE
100
AcDbVertex
100
AcDb2dVertex
 10
2.530332231865632
 20
3.133804436202638
 30
0.0
 70
     8
  0
VERTEX
  5
25C
330
24A
100
AcDbEntity
  8
IMAGE
100
AcDbVertex
100
AcDb2dVertex
 10
2.525641463759275
 20
3.138455124194003
 30
0.0
 70
     8
  0
VERTEX
  5
25D
330
24A
100
AcDbEntity
  8
IMAGE
100
AcDbVertex
100
AcDb2dVertex
 10
2.520405220031169
 20
3.144387226182296
 30
0.0
 70
     8
  0
VERTEX
  5
25E
330
24A
100
AcDbEntity
  8
IMAGE
100
AcDbVertex
100
AcDb2dVertex
 10
2.514771953610765
 20
3.15135439081028
 30
0.0
 70
     8
  0
VERTEX
  5
25F
330
24A
100
AcDbEntity
  8
IMAGE
100
AcDbVertex
100
AcDb2dVertex
 10
2.50894200928234
 20
3.159062544206494
 30
0.0
 70
     8
  0
VERTEX
  5
260
330
24A
100
AcDbEntity
  8
IMAGE
100
AcDbVertex
100
AcDb2dVertex
 10
2.503115731830167
 20
3.167217612499471
 30
0.0
 70
     8
  0
VERTEX
  5
261
330
24A
100
AcDbEntity
  8
IMAGE
100
AcDbVertex
100
AcDb2dVertex
 10
2.497493466038509
 20
3.175525521817747
 30
0.0
 70
     8
  0
VERTEX
  5
262
330
24A
100
AcDbEntity
  8
IMAGE
100
AcDbVertex
100
AcDb2dVertex
 10
2.49227555669167
 20
3.183692198289863
 30
0.0
 70
     8
  0
VERTEX
  5
263
330
24A
100
AcDbEntity
  8
IMAGE
100
AcDbVertex
100
AcDb2dVertex
 10
2.487662348573895
 20
3.19142356804435
 30
0.0
 70
     8
  0
VERTEX
  5
264
330
24A
100
AcDbEntity
  8
IMAGE
100
AcDbVertex
100
AcDb2dVertex
 10
2.483854186469461
 20
3.198425557209745
 30
0.0
 70
     8
  0
VERTEX
  5
265
330
24A
100
AcDbEntity
  8
IMAGE
100
AcDbVertex
100
AcDb2dVertex
 10
2.481028747200387
 20
3.204469347616051
 30
0.0
 70
     8
  0
VERTEX
  5
266
330
24A
100
AcDbEntity
  8
IMAGE
100
AcDbVertex
100
AcDb2dVertex
 10
2.479273035739528
 20
3.209587143899139
 30
0.0
 70
     8
  0
VERTEX
  5
267
330
24A
100
AcDbEntity
  8
IMAGE
100
AcDbVertex
100
AcDb2dVertex
 10
2.478651389097468
 20
3.213876406396338
 30
0.0
 70
     8
  0
VERTEX
  5
268
330
24A
100
AcDbEntity
  8
IMAGE
100
AcDbVertex
100
AcDb2dVertex
 10
2.479228144284807
 20
3.21743459544499
 30
0.0
 70
     8
  0
VERTEX
  5
269
330
24A
100
AcDbEntity
  8
IMAGE
100
AcDbVertex
100
AcDb2dVertex
 10
2.481067638312144
 20
3.22035917138243
 30
0.0
 70
     8
  0
VERTEX
  5
26A
330
24A
100
AcDbEntity
  8
IMAGE
100
AcDbVertex
100
AcDb2dVertex
 10
2.484234208190049
 20
3.222747594545991
 30
0.0
 70
     8
  0
VERTEX
  5
26B
330
24A
100
AcDbEntity
  8
IMAGE
100
AcDbVertex
100
AcDb2dVertex
 10
2.488792190929136
 20
3.224697325273009
 30
0.0
 70
     8
  0
VERTEX
  5
26C
330
24A
100
AcDbEntity
  8
IMAGE
100
AcDbVertex
100
AcDb2dVertex
 10
2.494805923539975
 20
3.226305823900821
 30
0.0
 70
     8
  0
VERTEX
  5
26D
330
24A
100
AcDbEntity
  8
IMAGE
100
AcDbVertex
100
AcDb2dVertex
 10
2.502267350006566
 20
3.22765172778184
 30
0.0
 70
     8
  0
VERTEX
  5
26E
330
24A
100
AcDbEntity
  8
IMAGE
100
AcDbVertex
100
AcDb2dVertex
 10
2.510878842206512
 20
3.228738382328807
 30
0.0
 70
     8
  0
VERTEX
  5
26F
330
24A
100
AcDbEntity
  8
IMAGE
100
AcDbVertex
100
AcDb2dVertex
 10
2.520270378990833
 20
3.229550309969539
 30
0.0
 70
     8
  0
VERTEX
  5
270
330
24A
100
AcDbEntity
  8
IMAGE
100
AcDbVertex
100
AcDb2dVertex
 10
2.530071939210533
 20
3.230072033131851
 30
0.0
 70
     8
  0
VERTEX
  5
271
330
24A
100
AcDbEntity
  8
IMAGE
100
AcDbVertex
100
AcDb2dVertex
 10
2.539913501716601
 20
3.23028807424356
 30
0.0
 70
     8
  0
VERTEX
  5
272
330
24A
100
AcDbEntity
  8
IMAGE
100
AcDbVertex
100
AcDb2dVertex
 10
2.549425045360042
 20
3.23018295573249
 30
0.0
 70
     8
  0
VERTEX
  5
273
330
24A
100
AcDbEntity
  8
IMAGE
100
AcDbVertex
100
AcDb2dVertex
 10
2.558236548991889
 20
3.229741200026455
 30
0.0
 70
     8
  0
VERTEX
  5
274
330
24A
100
AcDbEntity
  8
IMAGE
100
AcDbVertex
100
AcDb2dVertex
 10
2.565977991463132
 20
3.228947329553268
 30
0.0
 70
     8
  0
VERTEX
  5
275
330
24A
100
AcDbEntity
  8
IMAGE
100
AcDbVertex
100
AcDb2dVertex
 10
2.572354800381579
 20
3.227773492744244
 30
0.0
 70
     8
  0
VERTEX
  5
276
330
24A
100
AcDbEntity
  8
IMAGE
100
AcDbVertex
100
AcDb2dVertex
 10
2.577374198382277
 20
3.226142342044646
 30
0.0
 70
     8
  0
VERTEX
  5
277
330
24A
100
AcDbEntity
  8
IMAGE
100
AcDbVertex
100
AcDb2dVertex
 10
2.581118856857078
 20
3.223964155903227
 30
0.0
 70
     8
  0
VERTEX
  5
278
330
24A
100
AcDbEntity
  8
IMAGE
100
AcDbVertex
100
AcDb2dVertex
 10
2.583671447197819
 20
3.221149212768747
 30
0.0
 70
     8
  0
VERTEX
  5
279
330
24A
100
AcDbEntity
  8
IMAGE
100
AcDbVertex
100
AcDb2dVertex
 10
2.585114640796352
 20
3.217607791089957
 30
0.0
 70
     8
  0
VERTEX
  5
27A
330
24A
100
AcDbEntity
  8
IMAGE
100
AcDbVertex
100
AcDb2dVertex
 10
2.585531109044528
 20
3.213250169315618
 30
0.0
 70
     8
  0
VERTEX
  5
27B
330
24A
100
AcDbEntity
  8
IMAGE
100
AcDbVertex
100
AcDb2dVertex
 10
2.585003523334198
 20
3.207986625894481
 30
0.0
 70
     8
  0
VERTEX
  5
27C
330
24A
100
AcDbEntity
  8
IMAGE
100
AcDbVertex
100
AcDb2dVertex
 10
2.591920807588597
 20
3.213304663267676
 30
0.0
 70
    16
  0
VERTEX
  5
27D
330
24A
100
AcDbEntity
  8
IMAGE
100
AcDbVertex
100
AcDb2dVertex
 10
2.552665230556631
 20
3.124277668075003
 30
0.0
 70
    16
  0
VERTEX
  5
27E
330
24A
100
AcDbEntity
  8
IMAGE
100
AcDbVertex
100
AcDb2dVertex
 10
2.532013383509383
 20
3.124277668075003
 30
0.0
 70
    16
  0
VERTEX
  5
27F
330
24A
100
AcDbEntity
  8
IMAGE
100
AcDbVertex
100
AcDb2dVertex
 10
2.473130017961456
 20
3.209342404789002
 30
0.0
 70
    16
  0
VERTEX
  5
280
330
24A
100
AcDbEntity
  8
IMAGE
100
AcDbVertex
100
AcDb2dVertex
 10
2.478591663461561
 20
3.22890605602745
 30
0.0
 70
    16
  0
SEQEND
  5
281
330
24A
100
AcDbEntity
  8
IMAGE
  0
LWPOLYLINE
  5
282
330
1E
100
AcDbEntity
  8
IMAGE
100
AcDbPolyline
 90
       16
 70
     1
 43
0.0
 10
2.667160062649746
 20
3.232944530565367
 42
0.0280832620711611
 10
2.636533469626972
 20
3.230804885797774
 42
0.0383996410605271
 10
2.614524816605968
 20
3.226282476032953
 42
0.0790833228916241
 10
2.59601467392125
 20
3.217630094348085
 42
0.2524926882143302
 10
2.592884270715903
 20
3.211632526908213
 42
0.2524926882147992
 10
2.596176596896672
 20
3.205722296139177
 42
0.0790833228917059
 10
2.614915163264772
 20
3.197576424700344
 42
0.0383996410604923
 10
2.6370386479466
 20
3.193654126469433
 42
0.0280832620711411
 10
2.667712096188641
 20
3.192348043448613
 42
0.0280832620711456
 10
2.698338689211429
 20
3.194487688216203
 42
0.038399641060506
 10
2.720347342232419
 20
3.199010097981025
 42
0.0790833228916457
 10
2.738857484917151
 20
3.207662479665895
 42
0.2524926882143649
 10
2.741987888122498
 20
3.213660047105765
 42
0.2524926882146165
 10
2.738695561941714
 20
3.219570277874807
 42
0.0790833228915975
 10
2.719956995573629
 20
3.227716149313636
 42
0.0383996410605078
 10
2.697833510891787
 20
3.231638447544547
 42
0.0280832620711437
  0
LWPOLYLINE
  5
294
330
1E
100
AcDbEntity
  8
IMAGE
100
AcDbPolyline
 90
       16
 70
     1
 43
0.0
 10
2.492982652662111
 20
3.067354704532075
 42
0.0758084656014505
 10
2.477968649690471
 20
3.089580182007126
 42
0.0860349560247588
 10
2.459176785595591
 20
3.103976073960876
 42
0.1059956505938444
 10
2.437206460943319
 20
3.110076820053599
 42
0.1262751954735569
 10
2.418329324915707
 20
3.10641570302297
 42
0.1262751954735769
 10
2.403548296977295
 20
3.094116465014025
 42
0.1059956505938709
 10
2.394368159100228
 20
3.073244490100937
 42
0.0860349560247766
 10
2.393622246664169
 20
3.049583985542867
 42
0.0758084656014661
 10
2.401329414113594
 20
3.023893681844136
 42
0.0758084656015198
 10
2.416343417085233
 20
3.001668204369089
 42
0.0860349560248243
 10
2.435135281180113
 20
2.987272312415335
 42
0.1059956505938014
 10
2.457105605832385
 20
2.981171566322612
 42
0.1262751954735513
 10
2.475982741859998
 20
2.984832683353243
 42
0.1262751954736156
 10
2.490763769798409
 20
2.99713192136219
 42
0.1059956505938882
 10
2.499943907675476
 20
3.018003896275275
 42
0.0860349560248506
 10
2.500689820111535
 20
3.041664400833335
 42
0.0758084656015913
  0
LWPOLYLINE
  5
2A6
330
1E
100
AcDbEntity
  8
IMAGE
100
AcDbPolyline
 90
       16
 70
     1
 43
0.0
 10
2.272980744861289
 20
3.222501888087597
 42
0.0698995825513923
 10
2.256000053567337
 20
3.212980393332399
 42
0.0817261731085073
 10
2.244543683066656
 20
3.200856431768491
 42
0.1069271755962712
 10
2.238631059400948
 20
3.186094279365319
 42
0.13566893343318
 10
2.239913231618136
 20
3.173539889208856
 42
0.1356689334331474
 10
2.247461382268927
 20
3.16342642790482
 42
0.1069271755962251
 10
2.261801846174368
 20
3.156553920562985
 42
0.0817261731085129
 10
2.278440590276805
 20
3.155374486908602
 42
0.0698995825513785
 10
2.297387473189847
 20
3.159848675893587
 42
0.0698995825513624
 10
2.314368164483799
 20
3.16937017064879
 42
0.081726173108439
 10
2.325824534984481
 20
3.181494132212693
 42
0.106927175596282
 10
2.331737158650174
 20
3.196256284615858
 42
0.1356689334333885
 10
2.330454986433001
 20
3.208810674772328
 42
0.1356689334331357
 10
2.322906835782209
 20
3.218924136076367
 42
0.10692717559614
 10
2.308566371876768
 20
3.225796643418199
 42
0.0817261731084642
 10
2.291927627774317
 20
3.226976077072583
 42
0.0698995825513832
  0
LWPOLYLINE
  5
2B8
330
1E
100
AcDbEntity
  8
IMAGE
100
AcDbPolyline
 90
       16
 70
     1
 43
0.0
 10
2.374533215878731
 20
3.228569096383063
 42
0.0609570841761608
 10
2.358985258157819
 20
3.226666510483735
 42
0.0743285010951787
 10
2.3470917879926
 20
3.221751049375477
 42
0.1069412301566326
 10
2.338279911033286
 20
3.213486326662814
 42
0.152249204141643
 10
2.335725176391268
 20
3.205290827820864
 42
0.1522492041416091
 10
2.338279911033286
 20
3.197095328978911
 42
0.1069412301565743
 10
2.3470917879926
 20
3.188830606266249
 42
0.0743285010952252
 10
2.358985258157819
 20
3.183915145157995
 42
0.060957084176237
 10
2.374533215878731
 20
3.182012559258663
 42
0.0609570841761912
 10
2.390081173599643
 20
3.183915145157991
 42
0.0743285010952129
 10
2.401974643764863
 20
3.188830606266249
 42
0.1069412301566912
 10
2.410786520724162
 20
3.197095328978914
 42
0.1522492041416768
 10
2.413341255366195
 20
3.205290827820864
 42
0.1522492041417418
 10
2.410786520724162
 20
3.213486326662819
 42
0.1069412301565381
 10
2.401974643764863
 20
3.221751049375477
 42
0.0743285010951216
 10
2.390081173599643
 20
3.226666510483735
 42
0.0609570841761459
  0
CIRCLE
  5
2CA
330
1E
100
AcDbEntity
  8
IMAGE
100
AcDbCircle
 10
2.353881368831484
 20
3.021541090872425
 30
0.0
 40
0.0406209884069822
  0
LWPOLYLINE
  5
2CB
330
1E
100
AcDbEntity
  8
IMAGE
100
AcDbPolyline
 90
       16
 70
     1
 43
0.0
 10
2.287880240347849
 20
3.030560359971048
 42
0.077695058020973
 10
2.272512793633144
 20
3.03588319714788
 42
0.0873149072940186
 10
2.258018689067018
 20
3.03594366032258
 42
0.1055783114419096
 10
2.245012996429541
 20
3.030743082232666
 42
0.12349933406887
 10
2.236957033623316
 20
3.021818179069173
 42
0.1234993340689395
 10
2.234066885875666
 20
3.010147725812775
 42
0.1055783114418395
 10
2.237032906129645
 20
2.996458431554021
 42
0.0873149072939882
 10
2.245192236984867
 20
2.984478947301168
 42
0.0776950580208599
 10
2.258201861500783
 20
2.974719813933145
 42
0.0776950580208842
 10
2.273569308215489
 20
2.969396976756313
 42
0.08731490729401
 10
2.288063412781614
 20
2.969336513581613
 42
0.1055783114418745
 10
2.301069105419092
 20
2.974537091671525
 42
0.1234993340689042
 10
2.309125068225317
 20
2.98346199483502
 42
0.1234993340689395
 10
2.312015215972966
 20
2.99513244809142
 42
0.1055783114418395
 10
2.309049195718988
 20
3.008821742350172
 42
0.0873149072939638
 10
2.30088986486378
 20
3.020801226603012
 42
0.0776950580209874
  0
LWPOLYLINE
  5
2DD
330
1E
100
AcDbEntity
  8
IMAGE
100
AcDbPolyline
 90
       16
 70
     1
 43
0.0
 10
1.953049913511907
 20
3.232944530565367
 42
0.0280832620711611
 10
1.922423320489134
 20
3.230804885797774
 42
0.0383996410605271
 10
1.90041466746813
 20
3.226282476032953
 42
0.0790833228916241
 10
1.881904524783397
 20
3.217630094348085
 42
0.2524926882143302
 10
1.87877412157805
 20
3.211632526908213
 42
0.2524926882147992
 10
1.882066447758834
 20
3.205722296139177
 42
0.0790833228917059
 10
1.900805014126934
 20
3.197576424700344
 42
0.0383996410604923
 10
1.922928498808762
 20
3.193654126469433
 42
0.0280832620711411
 10
1.953601947050803
 20
3.192348043448613
 42
0.0280832620711456
 10
1.984228540073576
 20
3.194487688216203
 42
0.038399641060506
 10
2.00623719309458
 20
3.199010097981025
 42
0.0790833228916457
 10
2.024747335779313
 20
3.207662479665895
 42
0.2524926882143649
 10
2.027877738984646
 20
3.213660047105765
 42
0.2524926882146165
 10
2.024585412803876
 20
3.219570277874807
 42
0.0790833228915975
 10
2.005846846435776
 20
3.227716149313636
 42
0.0383996410605078
 10
1.983723361753948
 20
3.231638447544547
 42
0.0280832620711437
  0
LWPOLYLINE
  5
2EF
330
1E
100
AcDbEntity
  8
IMAGE
100
AcDbPolyline
 90
       16
 70
     1
 43
0.0
 10
1.977056927398638
 20
3.186000043153164
 42
0.07934358800666
 10
1.927059641987685
 20
3.185620018294593
 42
0.088395850954969
 10
1.884720756696001
 20
3.170534037076084
 42
0.1051726671530419
 10
1.852209432661656
 20
3.14154442915904
 42
0.1211548649735495
 10
1.83771570628399
 20
3.106473162565315
 42
0.1211548649734267
 10
1.841140785443062
 20
3.068679900235217
 42
0.1051726671530232
 10
1.863576697193952
 20
3.031343411091788
 42
0.0883958509549529
 10
1.899525688491682
 20
3.004364937047777
 42
0.0793435880066574
 10
1.947154711687236
 20
2.989154772130972
 42
0.0793435880066597
 10
1.997151997098189
 20
2.989534796989542
 42
0.0883958509549733
 10
2.039490882389873
 20
3.004620778208054
 42
0.1051726671530409
 10
2.072002206424233
 20
3.033610386125105
 42
0.1211548649734865
 10
2.086495932801884
 20
3.068681652718823
 42
0.1211548649735704
 10
2.083070853642798
 20
3.106474915048931
 42
0.1051726671530808
 10
2.060634941891922
 20
3.143811404192352
 42
0.088395850954995
 10
2.024685950594179
 20
3.170789878236363
 42
0.079343588006662
  0
POLYLINE
  5
301
330
1E
100
AcDbEntity
  8
IMAGE
100
AcDb2dPolyline
 66
     1
 10
0.0
 20
0.0
 30
0.0
 70
     5
 75
     6
  0
VERTEX
  5
302
330
301
100
AcDbEntity
  8
IMAGE
100
AcDbVertex
100
AcDb2dVertex
 10
1.86722872029431
 20
3.232868314506122
 30
0.0
 70
    16
  0
VERTEX
  5
303
330
301
100
AcDbEntity
  8
IMAGE
100
AcDbVertex
100
AcDb2dVertex
 10
1.869504405919347
 20
3.201727439275306
 30
0.0
 70
     8
  0
VERTEX
  5
304
330
301
100
AcDbEntity
  8
IMAGE
100
AcDbVertex
100
AcDb2dVertex
 10
1.867345226953393
 20
3.194449433405992
 30
0.0
 70
     8
  0
VERTEX
  5
305
330
301
100
AcDbEntity
  8
IMAGE
100
AcDbVertex
100
AcDb2dVertex
 10
1.864541011119573
 20
3.186395614231039
 30
0.0
 70
     8
  0
VERTEX
  5
306
330
301
100
AcDbEntity
  8
IMAGE
100
AcDbVertex
100
AcDb2dVertex
 10
1.861225432724911
 20
3.177875533194095
 30
0.0
 70
     8
  0
VERTEX
  5
307
330
301
100
AcDbEntity
  8
IMAGE
100
AcDbVertex
100
AcDb2dVertex
 10
1.857532166076357
 20
3.169198741738807
 30
0.0
 70
     8
  0
VERTEX
  5
308
330
301
100
AcDbEntity
  8
IMAGE
100
AcDbVertex
100
AcDb2dVertex
 10
1.853594885480905
 20
3.160674791308818
 30
0.0
 70
     8
  0
VERTEX
  5
309
330
301
100
AcDbEntity
  8
IMAGE
100
AcDbVertex
100
AcDb2dVertex
 10
1.849547265245536
 20
3.152613233347775
 30
0.0
 70
     8
  0
VERTEX
  5
30A
330
301
100
AcDbEntity
  8
IMAGE
100
AcDbVertex
100
AcDb2dVertex
 10
1.845522979677202
 20
3.145323619299326
 30
0.0
 70
     8
  0
VERTEX
  5
30B
330
301
100
AcDbEntity
  8
IMAGE
100
AcDbVertex
100
AcDb2dVertex
 10
1.84165570308291
 20
3.139115500607115
 30
0.0
 70
     8
  0
VERTEX
  5
30C
330
301
100
AcDbEntity
  8
IMAGE
100
AcDbVertex
100
AcDb2dVertex
 10
1.838038329661021
 20
3.134245547009835
 30
0.0
 70
     8
  0
VERTEX
  5
30D
330
301
100
AcDbEntity
  8
IMAGE
100
AcDbVertex
100
AcDb2dVertex
 10
1.83460063317543
 20
3.130758901426347
 30
0.0
 70
     8
  0
VERTEX
  5
30E
330
301
100
AcDbEntity
  8
IMAGE
100
AcDbVertex
100
AcDb2dVertex
 10
1.83123160728147
 20
3.128647825070562
 30
0.0
 70
     8
  0
VERTEX
  5
30F
330
301
100
AcDbEntity
  8
IMAGE
100
AcDbVertex
100
AcDb2dVertex
 10
1.827820245634416
 20
3.127904579156391
 30
0.0
 70
     8
  0
VERTEX
  5
310
330
301
100
AcDbEntity
  8
IMAGE
100
AcDbVertex
100
AcDb2dVertex
 10
1.824255541889588
 20
3.128521424897739
 30
0.0
 70
     8
  0
VERTEX
  5
311
330
301
100
AcDbEntity
  8
IMAGE
100
AcDbVertex
100
AcDb2dVertex
 10
1.820426489702288
 20
3.130490623508519
 30
0.0
 70
     8
  0
VERTEX
  5
312
330
301
100
AcDbEntity
  8
IMAGE
100
AcDbVertex
100
AcDb2dVertex
 10
1.816222082727794
 20
3.133804436202638
 30
0.0
 70
     8
  0
VERTEX
  5
313
330
301
100
AcDbEntity
  8
IMAGE
100
AcDbVertex
100
AcDb2dVertex
 10
1.811531314621436
 20
3.138455124194003
 30
0.0
 70
     8
  0
VERTEX
  5
314
330
301
100
AcDbEntity
  8
IMAGE
100
AcDbVertex
100
AcDb2dVertex
 10
1.80629507089333
 20
3.144387226182296
 30
0.0
 70
     8
  0
VERTEX
  5
315
330
301
100
AcDbEntity
  8
IMAGE
100
AcDbVertex
100
AcDb2dVertex
 10
1.800661804472927
 20
3.15135439081028
 30
0.0
 70
     8
  0
VERTEX
  5
316
330
301
100
AcDbEntity
  8
IMAGE
100
AcDbVertex
100
AcDb2dVertex
 10
1.794831860144501
 20
3.159062544206494
 30
0.0
 70
     8
  0
VERTEX
  5
317
330
301
100
AcDbEntity
  8
IMAGE
100
AcDbVertex
100
AcDb2dVertex
 10
1.789005582692315
 20
3.167217612499471
 30
0.0
 70
     8
  0
VERTEX
  5
318
330
301
100
AcDbEntity
  8
IMAGE
100
AcDbVertex
100
AcDb2dVertex
 10
1.783383316900671
 20
3.175525521817747
 30
0.0
 70
     8
  0
VERTEX
  5
319
330
301
100
AcDbEntity
  8
IMAGE
100
AcDbVertex
100
AcDb2dVertex
 10
1.778165407553817
 20
3.183692198289863
 30
0.0
 70
     8
  0
VERTEX
  5
31A
330
301
100
AcDbEntity
  8
IMAGE
100
AcDbVertex
100
AcDb2dVertex
 10
1.773552199436043
 20
3.19142356804435
 30
0.0
 70
     8
  0
VERTEX
  5
31B
330
301
100
AcDbEntity
  8
IMAGE
100
AcDbVertex
100
AcDb2dVertex
 10
1.769744037331623
 20
3.198425557209745
 30
0.0
 70
     8
  0
VERTEX
  5
31C
330
301
100
AcDbEntity
  8
IMAGE
100
AcDbVertex
100
AcDb2dVertex
 10
1.766918598062549
 20
3.204469347616051
 30
0.0
 70
     8
  0
VERTEX
  5
31D
330
301
100
AcDbEntity
  8
IMAGE
100
AcDbVertex
100
AcDb2dVertex
 10
1.765162886601675
 20
3.209587143899139
 30
0.0
 70
     8
  0
VERTEX
  5
31E
330
301
100
AcDbEntity
  8
IMAGE
100
AcDbVertex
100
AcDb2dVertex
 10
1.76454123995963
 20
3.213876406396338
 30
0.0
 70
     8
  0
VERTEX
  5
31F
330
301
100
AcDbEntity
  8
IMAGE
100
AcDbVertex
100
AcDb2dVertex
 10
1.765117995146969
 20
3.21743459544499
 30
0.0
 70
     8
  0
VERTEX
  5
320
330
301
100
AcDbEntity
  8
IMAGE
100
AcDbVertex
100
AcDb2dVertex
 10
1.766957489174306
 20
3.22035917138243
 30
0.0
 70
     8
  0
VERTEX
  5
321
330
301
100
AcDbEntity
  8
IMAGE
100
AcDbVertex
100
AcDb2dVertex
 10
1.770124059052211
 20
3.222747594545991
 30
0.0
 70
     8
  0
VERTEX
  5
322
330
301
100
AcDbEntity
  8
IMAGE
100
AcDbVertex
100
AcDb2dVertex
 10
1.774682041791283
 20
3.224697325273009
 30
0.0
 70
     8
  0
VERTEX
  5
323
330
301
100
AcDbEntity
  8
IMAGE
100
AcDbVertex
100
AcDb2dVertex
 10
1.780695774402136
 20
3.226305823900821
 30
0.0
 70
     8
  0
VERTEX
  5
324
330
301
100
AcDbEntity
  8
IMAGE
100
AcDbVertex
100
AcDb2dVertex
 10
1.788157200868727
 20
3.22765172778184
 30
0.0
 70
     8
  0
VERTEX
  5
325
330
301
100
AcDbEntity
  8
IMAGE
100
AcDbVertex
100
AcDb2dVertex
 10
1.796768693068674
 20
3.228738382328807
 30
0.0
 70
     8
  0
VERTEX
  5
326
330
301
100
AcDbEntity
  8
IMAGE
100
AcDbVertex
100
AcDb2dVertex
 10
1.806160229852995
 20
3.229550309969539
 30
0.0
 70
     8
  0
VERTEX
  5
327
330
301
100
AcDbEntity
  8
IMAGE
100
AcDbVertex
100
AcDb2dVertex
 10
1.81596179007268
 20
3.230072033131851
 30
0.0
 70
     8
  0
VERTEX
  5
328
330
301
100
AcDbEntity
  8
IMAGE
100
AcDbVertex
100
AcDb2dVertex
 10
1.825803352578748
 20
3.23028807424356
 30
0.0
 70
     8
  0
VERTEX
  5
329
330
301
100
AcDbEntity
  8
IMAGE
100
AcDbVertex
100
AcDb2dVertex
 10
1.835314896222204
 20
3.23018295573249
 30
0.0
 70
     8
  0
VERTEX
  5
32A
330
301
100
AcDbEntity
  8
IMAGE
100
AcDbVertex
100
AcDb2dVertex
 10
1.844126399854037
 20
3.229741200026455
 30
0.0
 70
     8
  0
VERTEX
  5
32B
330
301
100
AcDbEntity
  8
IMAGE
100
AcDbVertex
100
AcDb2dVertex
 10
1.85186784232528
 20
3.228947329553268
 30
0.0
 70
     8
  0
VERTEX
  5
32C
330
301
100
AcDbEntity
  8
IMAGE
100
AcDbVertex
100
AcDb2dVertex
 10
1.858244651243726
 20
3.227773492744244
 30
0.0
 70
     8
  0
VERTEX
  5
32D
330
301
100
AcDbEntity
  8
IMAGE
100
AcDbVertex
100
AcDb2dVertex
 10
1.863264049244438
 20
3.226142342044646
 30
0.0
 70
     8
  0
VERTEX
  5
32E
330
301
100
AcDbEntity
  8
IMAGE
100
AcDbVertex
100
AcDb2dVertex
 10
1.867008707719225
 20
3.223964155903227
 30
0.0
 70
     8
  0
VERTEX
  5
32F
330
301
100
AcDbEntity
  8
IMAGE
100
AcDbVertex
100
AcDb2dVertex
 10
1.869561298059981
 20
3.221149212768747
 30
0.0
 70
     8
  0
VERTEX
  5
330
330
301
100
AcDbEntity
  8
IMAGE
100
AcDbVertex
100
AcDb2dVertex
 10
1.871004491658514
 20
3.217607791089957
 30
0.0
 70
     8
  0
VERTEX
  5
331
330
301
100
AcDbEntity
  8
IMAGE
100
AcDbVertex
100
AcDb2dVertex
 10
1.871420959906689
 20
3.213250169315618
 30
0.0
 70
     8
  0
VERTEX
  5
332
330
301
100
AcDbEntity
  8
IMAGE
100
AcDbVertex
100
AcDb2dVertex
 10
1.870893374196345
 20
3.207986625894481
 30
0.0
 70
     8
  0
VERTEX
  5
333
330
301
100
AcDbEntity
  8
IMAGE
100
AcDbVertex
100
AcDb2dVertex
 10
1.877810658450744
 20
3.213304663267676
 30
0.0
 70
    16
  0
VERTEX
  5
334
330
301
100
AcDbEntity
  8
IMAGE
100
AcDbVertex
100
AcDb2dVertex
 10
1.838555081418792
 20
3.124277668075003
 30
0.0
 70
    16
  0
VERTEX
  5
335
330
301
100
AcDbEntity
  8
IMAGE
100
AcDbVertex
100
AcDb2dVertex
 10
1.817903234371545
 20
3.124277668075003
 30
0.0
 70
    16
  0
VERTEX
  5
336
330
301
100
AcDbEntity
  8
IMAGE
100
AcDbVertex
100
AcDb2dVertex
 10
1.759019868823617
 20
3.209342404789002
 30
0.0
 70
    16
  0
VERTEX
  5
337
330
301
100
AcDbEntity
  8
IMAGE
100
AcDbVertex
100
AcDb2dVertex
 10
1.764481514323708
 20
3.22890605602745
 30
0.0
 70
    16
  0
SEQEND
  5
338
330
301
100
AcDbEntity
  8
IMAGE
  0
LWPOLYLINE
  5
339
330
1E
100
AcDbEntity
  8
IMAGE
100
AcDbPolyline
 90
       16
 70
     1
 43
0.0
 10
1.632595040204162
 20
3.134918978950809
 42
0.0748908044820551
 10
1.644434770587434
 20
3.099548262920658
 42
0.0853957141860852
 10
1.664078381291471
 20
3.073323405400288
 42
0.1061792576230668
 10
1.691008224045273
 20
3.056961810199869
 42
0.1276627052626351
 10
1.717261151321931
 20
3.054845327706023
 42
0.1276627052626062
 10
1.741229411946928
 20
3.065764035109042
 42
0.1061792576230447
 10
1.760989604896277
 20
3.090308953174729
 42
0.0853957141860986
 10
1.770543473248547
 20
3.121651228027744
 42
0.0748908044821293
 10
1.769648206972259
 20
3.158940170977763
 42
0.0748908044820311
 10
1.757808476588987
 20
3.194310887007919
 42
0.0853957141860326
 10
1.73816486588495
 20
3.220535744528284
 42
0.1061792576230853
 10
1.711235023131148
 20
3.236897339728705
 42
0.1276627052626233
 10
1.68498209585449
 20
3.239013822222549
 42
0.1276627052625918
 10
1.661013835229493
 20
3.22809511481953
 42
0.1061792576230068
 10
1.641253642280144
 20
3.203550196753843
 42
0.0853957141861021
 10
1.631699773927874
 20
3.172207921900812
 42
0.0748908044820785
  0
CIRCLE
  5
34B
330
1E
100
AcDbEntity
  8
IMAGE
100
AcDbCircle
 10
1.727305412692647
 20
2.998241929879407
 30
0.0
 40
0.0486836726316033
  0
ARC
  5
34C
330
1E
100
AcDbEntity
  8
IMAGE
100
AcDbCircle
 10
1.617560473425047
 20
3.198088341897453
 30
0.0
 40
0.0388839860400404
100
AcDbArc
 50
31.04377563682971
 51
289.9298274966234
  0
POLYLINE
  5
34D
330
1E
100
AcDbEntity
  8
IMAGE
100
AcDb2dPolyline
 66
     1
 10
0.0
 20
0.0
 30
0.0
 70
     5
 75
     6
  0
VERTEX
  5
34E
330
34D
100
AcDbEntity
  8
IMAGE
100
AcDbVertex
100
AcDb2dVertex
 10
1.480507306656964
 20
2.965058015120524
 30
0.0
 70
    16
  0
VERTEX
  5
34F
330
34D
100
AcDbEntity
  8
IMAGE
100
AcDbVertex
100
AcDb2dVertex
 10
1.565561056892878
 20
2.989099843910386
 30
0.0
 70
     8
  0
VERTEX
  5
350
330
34D
100
AcDbEntity
  8
IMAGE
100
AcDbVertex
100
AcDb2dVertex
 10
1.573544290961766
 20
2.993259239903496
 30
0.0
 70
     8
  0
VERTEX
  5
351
330
34D
100
AcDbEntity
  8
IMAGE
100
AcDbVertex
100
AcDb2dVertex
 10
1.580805483761555
 20
2.997622504542695
 30
0.0
 70
     8
  0
VERTEX
  5
352
330
34D
100
AcDbEntity
  8
IMAGE
100
AcDbVertex
100
AcDb2dVertex
 10
1.587465308856128
 20
3.002020110045171
 30
0.0
 70
     8
  0
VERTEX
  5
353
330
34D
100
AcDbEntity
  8
IMAGE
100
AcDbVertex
100
AcDb2dVertex
 10
1.593644439809384
 20
3.00628252862812
 30
0.0
 70
     8
  0
VERTEX
  5
354
330
34D
100
AcDbEntity
  8
IMAGE
100
AcDbVertex
100
AcDb2dVertex
 10
1.599463550185266
 20
3.010240232508728
 30
0.0
 70
     8
  0
VERTEX
  5
355
330
34D
100
AcDbEntity
  8
IMAGE
100
AcDbVertex
100
AcDb2dVertex
 10
1.605043313547628
 20
3.013723693904188
 30
0.0
 70
     8
  0
VERTEX
  5
356
330
34D
100
AcDbEntity
  8
IMAGE
100
AcDbVertex
100
AcDb2dVertex
 10
1.610504403460428
 20
3.01656338503169
 30
0.0
 70
     8
  0
VERTEX
  5
357
330
34D
100
AcDbEntity
  8
IMAGE
100
AcDbVertex
100
AcDb2dVertex
 10
1.61596749348752
 20
3.018589778108424
 30
0.0
 70
     8
  0
VERTEX
  5
358
330
34D
100
AcDbEntity
  8
IMAGE
100
AcDbVertex
100
AcDb2dVertex
 10
1.621524088859036
 20
3.019671313770841
 30
0.0
 70
     8
  0
VERTEX
  5
359
330
34D
100
AcDbEntity
  8
IMAGE
100
AcDbVertex
100
AcDb2dVertex
 10
1.627149021469779
 20
3.01982830633243
 30
0.0
 70
     8
  0
VERTEX
  5
35A
330
34D
100
AcDbEntity
  8
IMAGE
100
AcDbVertex
100
AcDb2dVertex
 10
1.632787954880758
 20
3.01911903852594
 30
0.0
 70
     8
  0
VERTEX
  5
35B
330
34D
100
AcDbEntity
  8
IMAGE
100
AcDbVertex
100
AcDb2dVertex
 10
1.638386552652963
 20
3.01760179308412
 30
0.0
 70
     8
  0
VERTEX
  5
35C
330
34D
100
AcDbEntity
  8
IMAGE
100
AcDbVertex
100
AcDb2dVertex
 10
1.643890478347419
 20
3.015334852739718
 30
0.0
 70
     8
  0
VERTEX
  5
35D
330
34D
100
AcDbEntity
  8
IMAGE
100
AcDbVertex
100
AcDb2dVertex
 10
1.649245395525117
 20
3.012376500225486
 30
0.0
 70
     8
  0
VERTEX
  5
35E
330
34D
100
AcDbEntity
  8
IMAGE
100
AcDbVertex
100
AcDb2dVertex
 10
1.65439696774705
 20
3.008785018274169
 30
0.0
 70
     8
  0
VERTEX
  5
35F
330
34D
100
AcDbEntity
  8
IMAGE
100
AcDbVertex
100
AcDb2dVertex
 10
1.659290858574241
 20
3.004618689618521
 30
0.0
 70
     8
  0
VERTEX
  5
360
330
34D
100
AcDbEntity
  8
IMAGE
100
AcDbVertex
100
AcDb2dVertex
 10
1.663869398043818
 20
2.99992088370559
 30
0.0
 70
     8
  0
VERTEX
  5
361
330
34D
100
AcDbEntity
  8
IMAGE
100
AcDbVertex
100
AcDb2dVertex
 10
1.668061582097468
 20
2.994675316839645
 30
0.0
 70
     8
  0
VERTEX
  5
362
330
34D
100
AcDbEntity
  8
IMAGE
100
AcDbVertex
100
AcDb2dVertex
 10
1.671793073153001
 20
2.988850792039255
 30
0.0
 70
     8
  0
VERTEX
  5
363
330
34D
100
AcDbEntity
  8
IMAGE
100
AcDbVertex
100
AcDb2dVertex
 10
1.674989533628238
 20
2.982416112322991
 30
0.0
 70
     8
  0
VERTEX
  5
364
330
34D
100
AcDbEntity
  8
IMAGE
100
AcDbVertex
100
AcDb2dVertex
 10
1.677576625940975
 20
2.975340080709422
 30
0.0
 70
     8
  0
VERTEX
  5
365
330
34D
100
AcDbEntity
  8
IMAGE
100
AcDbVertex
100
AcDb2dVertex
 10
1.679480012509049
 20
2.967591500217118
 30
0.0
 70
     8
  0
VERTEX
  5
366
330
34D
100
AcDbEntity
  8
IMAGE
100
AcDbVertex
100
AcDb2dVertex
 10
1.680625355750269
 20
2.959139173864649
 30
0.0
 70
     8
  0
VERTEX
  5
367
330
34D
100
AcDbEntity
  8
IMAGE
100
AcDbVertex
100
AcDb2dVertex
 10
1.680938318082443
 20
2.949951904670586
 30
0.0
 70
     8
  0
VERTEX
  5
368
330
34D
100
AcDbEntity
  8
IMAGE
100
AcDbVertex
100
AcDb2dVertex
 10
1.680358951634747
 20
2.940052546237604
 30
0.0
 70
     8
  0
VERTEX
  5
369
330
34D
100
AcDbEntity
  8
IMAGE
100
AcDbVertex
100
AcDb2dVertex
 10
1.678884867381729
 20
2.929680154504799
 30
0.0
 70
     8
  0
VERTEX
  5
36A
330
34D
100
AcDbEntity
  8
IMAGE
100
AcDbVertex
100
AcDb2dVertex
 10
1.6765280660093
 20
2.919127835995377
 30
0.0
 70
     8
  0
VERTEX
  5
36B
330
34D
100
AcDbEntity
  8
IMAGE
100
AcDbVertex
100
AcDb2dVertex
 10
1.673300548203403
 20
2.908688697232536
 30
0.0
 70
     8
  0
VERTEX
  5
36C
330
34D
100
AcDbEntity
  8
IMAGE
100
AcDbVertex
100
AcDb2dVertex
 10
1.669214314649924
 20
2.898655844739482
 30
0.0
 70
     8
  0
VERTEX
  5
36D
330
34D
100
AcDbEntity
  8
IMAGE
100
AcDbVertex
100
AcDb2dVertex
 10
1.664281366034789
 20
2.889322385039415
 30
0.0
 70
     8
  0
VERTEX
  5
36E
330
34D
100
AcDbEntity
  8
IMAGE
100
AcDbVertex
100
AcDb2dVertex
 10
1.658513703043897
 20
2.880981424655539
 30
0.0
 70
     8
  0
VERTEX
  5
36F
330
34D
100
AcDbEntity
  8
IMAGE
100
AcDbVertex
100
AcDb2dVertex
 10
1.651923326363178
 20
2.873926070111057
 30
0.0
 70
     8
  0
VERTEX
  5
370
330
34D
100
AcDbEntity
  8
IMAGE
100
AcDbVertex
100
AcDb2dVertex
 10
1.644535459656527
 20
2.868394047241205
 30
0.0
 70
     8
  0
VERTEX
  5
371
330
34D
100
AcDbEntity
  8
IMAGE
100
AcDbVertex
100
AcDb2dVertex
 10
1.636428218499862
 20
2.864401559129366
 30
0.0
 70
     8
  0
VERTEX
  5
372
330
34D
100
AcDbEntity
  8
IMAGE
100
AcDbVertex
100
AcDb2dVertex
 10
1.627692941447055
 20
2.861909428170946
 30
0.0
 70
     8
  0
VERTEX
  5
373
330
34D
100
AcDbEntity
  8
IMAGE
100
AcDbVertex
100
AcDb2dVertex
 10
1.618420967052021
 20
2.860878476761366
 30
0.0
 70
     8
  0
VERTEX
  5
374
330
34D
100
AcDbEntity
  8
IMAGE
100
AcDbVertex
100
AcDb2dVertex
 10
1.608703633868646
 20
2.861269527296034
 30
0.0
 70
     8
  0
VERTEX
  5
375
330
34D
100
AcDbEntity
  8
IMAGE
100
AcDbVertex
100
AcDb2dVertex
 10
1.598632280450832
 20
2.863043402170367
 30
0.0
 70
     8
  0
VERTEX
  5
376
330
34D
100
AcDbEntity
  8
IMAGE
100
AcDbVertex
100
AcDb2dVertex
 10
1.588298245352479
 20
2.866160923779777
 30
0.0
 70
     8
  0
VERTEX
  5
377
330
34D
100
AcDbEntity
  8
IMAGE
100
AcDbVertex
100
AcDb2dVertex
 10
1.57779286712746
 20
2.870582914519678
 30
0.0
 70
     8
  0
VERTEX
  5
378
330
34D
100
AcDbEntity
  8
IMAGE
100
AcDbVertex
100
AcDb2dVertex
 10
1.567218651634636
 20
2.876232792652708
 30
0.0
 70
     8
  0
VERTEX
  5
379
330
34D
100
AcDbEntity
  8
IMAGE
100
AcDbVertex
100
AcDb2dVertex
 10
1.556722773952646
 20
2.882884359910413
 30
0.0
 70
     8
  0
VERTEX
  5
37A
330
34D
100
AcDbEntity
  8
IMAGE
100
AcDbVertex
100
AcDb2dVertex
 10
1.546463576465047
 20
2.890274013891561
 30
0.0
 70
     8
  0
VERTEX
  5
37B
330
34D
100
AcDbEntity
  8
IMAGE
100
AcDbVertex
100
AcDb2dVertex
 10
1.536599401555438
 20
2.898138152194924
 30
0.0
 70
     8
  0
VERTEX
  5
37C
330
34D
100
AcDbEntity
  8
IMAGE
100
AcDbVertex
100
AcDb2dVertex
 10
1.527288591607376
 20
2.906213172419273
 30
0.0
 70
     8
  0
VERTEX
  5
37D
330
34D
100
AcDbEntity
  8
IMAGE
100
AcDbVertex
100
AcDb2dVertex
 10
1.518689489004447
 20
2.914235472163373
 30
0.0
 70
     8
  0
VERTEX
  5
37E
330
34D
100
AcDbEntity
  8
IMAGE
100
AcDbVertex
100
AcDb2dVertex
 10
1.510960436130236
 20
2.921941449025997
 30
0.0
 70
     8
  0
VERTEX
  5
37F
330
34D
100
AcDbEntity
  8
IMAGE
100
AcDbVertex
100
AcDb2dVertex
 10
1.504259775368328
 20
2.929067500605916
 30
0.0
 70
     8
  0
VERTEX
  5
380
330
34D
100
AcDbEntity
  8
IMAGE
100
AcDbVertex
100
AcDb2dVertex
 10
1.49872895924803
 20
2.935409274582909
 30
0.0
 70
     8
  0
VERTEX
  5
381
330
34D
100
AcDbEntity
  8
IMAGE
100
AcDbVertex
100
AcDb2dVertex
 10
1.494441880881698
 20
2.940999418960798
 30
0.0
 70
     8
  0
VERTEX
  5
382
330
34D
100
AcDbEntity
  8
IMAGE
100
AcDbVertex
100
AcDb2dVertex
 10
1.491455543527411
 20
2.945929831824417
 30
0.0
 70
     8
  0
VERTEX
  5
383
330
34D
100
AcDbEntity
  8
IMAGE
100
AcDbVertex
100
AcDb2dVertex
 10
1.489826950443262
 20
2.950292411258596
 30
0.0
 70
     8
  0
VERTEX
  5
384
330
34D
100
AcDbEntity
  8
IMAGE
100
AcDbVertex
100
AcDb2dVertex
 10
1.489613104887329
 20
2.95417905534817
 30
0.0
 70
     8
  0
VERTEX
  5
385
330
34D
100
AcDbEntity
  8
IMAGE
100
AcDbVertex
100
AcDb2dVertex
 10
1.490871010117718
 20
2.95768166217797
 30
0.0
 70
     8
  0
VERTEX
  5
386
330
34D
100
AcDbEntity
  8
IMAGE
100
AcDbVertex
100
AcDb2dVertex
 10
1.493657669392508
 20
2.96089212983283
 30
0.0
 70
     8
  0
VERTEX
  5
387
330
34D
100
AcDbEntity
  8
IMAGE
100
AcDbVertex
100
AcDb2dVertex
 10
1.498030085969777
 20
2.963902356397579
 30
0.0
 70
     8
  0
VERTEX
  5
388
330
34D
100
AcDbEntity
  8
IMAGE
100
AcDbVertex
100
AcDb2dVertex
 10
1.50398398182725
 20
2.966798959847793
 30
0.0
 70
     8
  0
VERTEX
  5
389
330
34D
100
AcDbEntity
  8
IMAGE
100
AcDbVertex
100
AcDb2dVertex
 10
1.511269953821088
 20
2.969647437722001
 30
0.0
 70
     8
  0
VERTEX
  5
38A
330
34D
100
AcDbEntity
  8
IMAGE
100
AcDbVertex
100
AcDb2dVertex
 10
1.519577317527112
 20
2.972508007449479
 30
0.0
 70
     8
  0
VERTEX
  5
38B
330
34D
100
AcDbEntity
  8
IMAGE
100
AcDbVertex
100
AcDb2dVertex
 10
1.528595388521114
 20
2.975440886459493
 30
0.0
 70
     8
  0
VERTEX
  5
38C
330
34D
100
AcDbEntity
  8
IMAGE
100
AcDbVertex
100
AcDb2dVertex
 10
1.53801348237889
 20
2.97850629218132
 30
0.0
 70
     8
  0
VERTEX
  5
38D
330
34D
100
AcDbEntity
  8
IMAGE
100
AcDbVertex
100
AcDb2dVertex
 10
1.54752091467623
 20
2.981764442044231
 30
0.0
 70
     8
  0
VERTEX
  5
38E
330
34D
100
AcDbEntity
  8
IMAGE
100
AcDbVertex
100
AcDb2dVertex
 10
1.556807000988971
 20
2.985275553477495
 30
0.0
 70
     8
  0
VERTEX
  5
38F
330
34D
100
AcDbEntity
  8
IMAGE
100
AcDbVertex
100
AcDb2dVertex
 10
1.574550015111785
 20
2.985116948668805
 30
0.0
 70
    16
  0
VERTEX
  5
390
330
34D
100
AcDbEntity
  8
IMAGE
100
AcDbVertex
100
AcDb2dVertex
 10
1.614658974253121
 20
3.029073253666578
 30
0.0
 70
    16
  0
VERTEX
  5
391
330
34D
100
AcDbEntity
  8
IMAGE
100
AcDbVertex
100
AcDb2dVertex
 10
1.662619048800866
 20
3.010128705315425
 30
0.0
 70
    16
  0
VERTEX
  5
392
330
34D
100
AcDbEntity
  8
IMAGE
100
AcDbVertex
100
AcDb2dVertex
 10
1.690609981988874
 20
2.958124062782849
 30
0.0
 70
    16
  0
VERTEX
  5
393
330
34D
100
AcDbEntity
  8
IMAGE
100
AcDbVertex
100
AcDb2dVertex
 10
1.660570931738323
 20
2.857086471576698
 30
0.0
 70
    16
  0
VERTEX
  5
394
330
34D
100
AcDbEntity
  8
IMAGE
100
AcDbVertex
100
AcDb2dVertex
 10
1.578646249236857
 20
2.857086471576698
 30
0.0
 70
    16
  0
VERTEX
  5
395
330
34D
100
AcDbEntity
  8
IMAGE
100
AcDbVertex
100
AcDb2dVertex
 10
1.491601274079034
 20
2.938065129234568
 30
0.0
 70
    16
  0
SEQEND
  5
396
330
34D
100
AcDbEntity
  8
IMAGE
  0
LWPOLYLINE
  5
397
330
1E
100
AcDbEntity
  8
IMAGE
100
AcDbPolyline
 90
       16
 70
     1
 43
0.0
 10
2.018516515839676
 20
2.867084137148475
 42
0.077695058020973
 10
2.00314906912497
 20
2.872406974325307
 42
0.0873149072940186
 10
1.988654964558845
 20
2.872467437500007
 42
0.1055783114419096
 10
1.975649271921367
 20
2.867266859410093
 42
0.12349933406887
 10
1.967593309115142
 20
2.8583419562466
 42
0.1234993340689395
 10
1.964703161367493
 20
2.846671502990202
 42
0.1055783114418395
 10
1.967669181621471
 20
2.832982208731448
 42
0.0873149072939882
 10
1.975828512476693
 20
2.821002724478595
 42
0.0776950580208599
 10
1.98883813699261
 20
2.811243591110572
 42
0.0776950580208842
 10
2.004205583707315
 20
2.80592075393374
 42
0.08731490729401
 10
2.018699688273441
 20
2.80586029075904
 42
0.1055783114418745
 10
2.031705380910918
 20
2.811060868848952
 42
0.1234993340689042
 10
2.039761343717143
 20
2.819985772012447
 42
0.1234993340689395
 10
2.042651491464793
 20
2.831656225268847
 42
0.1055783114418395
 10
2.039685471210814
 20
2.845345519527599
 42
0.0873149072939638
 10
2.031526140355607
 20
2.857325003780439
 42
0.0776950580209874
  0
POLYLINE
  5
3A9
330
1E
100
AcDbEntity
  8
IMAGE
100
AcDb2dPolyline
 66
     1
 10
0.0
 20
0.0
 30
0.0
 70
     5
 75
     6
  0
VERTEX
  5
3AA
330
3A9
100
AcDbEntity
  8
IMAGE
100
AcDbVertex
100
AcDb2dVertex
 10
1.827595193214214
 20
2.899532593351941
 30
0.0
 70
    16
  0
VERTEX
  5
3AB
330
3A9
100
AcDbEntity
  8
IMAGE
100
AcDbVertex
100
AcDb2dVertex
 10
1.77295029214293
 20
2.828542128942391
 30
0.0
 70
     8
  0
VERTEX
  5
3AC
330
3A9
100
AcDbEntity
  8
IMAGE
100
AcDbVertex
100
AcDb2dVertex
 10
1.766264410003465
 20
2.830246596578968
 30
0.0
 70
     8
  0
VERTEX
  5
3AD
330
3A9
100
AcDbEntity
  8
IMAGE
100
AcDbVertex
100
AcDb2dVertex
 10
1.759918880650623
 20
2.834686725098772
 30
0.0
 70
     8
  0
VERTEX
  5
3AE
330
3A9
100
AcDbEntity
  8
IMAGE
100
AcDbVertex
100
AcDb2dVertex
 10
1.754224721860957
 20
2.841224064649277
 30
0.0
 70
     8
  0
VERTEX
  5
3AF
330
3A9
100
AcDbEntity
  8
IMAGE
100
AcDbVertex
100
AcDb2dVertex
 10
1.749492951411049
 20
2.849220165377964
 30
0.0
 70
     8
  0
VERTEX
  5
3B0
330
3A9
100
AcDbEntity
  8
IMAGE
100
AcDbVertex
100
AcDb2dVertex
 10
1.74603458707751
 20
2.858036577432314
 30
0.0
 70
     8
  0
VERTEX
  5
3B1
330
3A9
100
AcDbEntity
  8
IMAGE
100
AcDbVertex
100
AcDb2dVertex
 10
1.744160646636906
 20
2.867034850959806
 30
0.0
 70
     8
  0
VERTEX
  5
3B2
330
3A9
100
AcDbEntity
  8
IMAGE
100
AcDbVertex
100
AcDb2dVertex
 10
1.744182147865835
 20
2.875576536107921
 30
0.0
 70
     8
  0
VERTEX
  5
3B3
330
3A9
100
AcDbEntity
  8
IMAGE
100
AcDbVertex
100
AcDb2dVertex
 10
1.746410108540892
 20
2.883023183024138
 30
0.0
 70
     8
  0
VERTEX
  5
3B4
330
3A9
100
AcDbEntity
  8
IMAGE
100
AcDbVertex
100
AcDb2dVertex
 10
1.750998204112214
 20
2.888844684861212
 30
0.0
 70
     8
  0
VERTEX
  5
3B5
330
3A9
100
AcDbEntity
  8
IMAGE
100
AcDbVertex
100
AcDb2dVertex
 10
1.757470740724308
 20
2.892944306793003
 30
0.0
 70
     8
  0
VERTEX
  5
3B6
330
3A9
100
AcDbEntity
  8
IMAGE
100
AcDbVertex
100
AcDb2dVertex
 10
1.765194682195264
 20
2.895333656998648
 30
0.0
 70
     8
  0
VERTEX
  5
3B7
330
3A9
100
AcDbEntity
  8
IMAGE
100
AcDbVertex
100
AcDb2dVertex
 10
1.773536992343132
 20
2.896024343657285
 30
0.0
 70
     8
  0
VERTEX
  5
3B8
330
3A9
100
AcDbEntity
  8
IMAGE
100
AcDbVertex
100
AcDb2dVertex
 10
1.781864634986
 20
2.895027974948046
 30
0.0
 70
     8
  0
VERTEX
  5
3B9
330
3A9
100
AcDbEntity
  8
IMAGE
100
AcDbVertex
100
AcDb2dVertex
 10
1.789544573941931
 20
2.892356159050074
 30
0.0
 70
     8
  0
VERTEX
  5
3BA
330
3A9
100
AcDbEntity
  8
IMAGE
100
AcDbVertex
100
AcDb2dVertex
 10
1.795943773029001
 20
2.888020504142505
 30
0.0
 70
     8
  0
VERTEX
  5
3BB
330
3A9
100
AcDbEntity
  8
IMAGE
100
AcDbVertex
100
AcDb2dVertex
 10
1.800429196065287
 20
2.88203261840447
 30
0.0
 70
     8
  0
VERTEX
  5
3BC
330
3A9
100
AcDbEntity
  8
IMAGE
100
AcDbVertex
100
AcDb2dVertex
 10
1.802526982633416
 20
2.87450664893082
 30
0.0
 70
     8
  0
VERTEX
  5
3BD
330
3A9
100
AcDbEntity
  8
IMAGE
100
AcDbVertex
100
AcDb2dVertex
 10
1.802399975374164
 20
2.865966898479229
 30
0.0
 70
     8
  0
VERTEX
  5
3BE
330
3A9
100
AcDbEntity
  8
IMAGE
100
AcDbVertex
100
AcDb2dVertex
 10
1.800370192692888
 20
2.857040208723077
 30
0.0
 70
     8
  0
VERTEX
  5
3BF
330
3A9
100
AcDbEntity
  8
IMAGE
100
AcDbVertex
100
AcDb2dVertex
 10
1.796759652994914
 20
2.848353421335753
 30
0.0
 70
     8
  0
VERTEX
  5
3C0
330
3A9
100
AcDbEntity
  8
IMAGE
100
AcDbVertex
100
AcDb2dVertex
 10
1.791890374685586
 20
2.84053337799064
 30
0.0
 70
     8
  0
VERTEX
  5
3C1
330
3A9
100
AcDbEntity
  8
IMAGE
100
AcDbVertex
100
AcDb2dVertex
 10
1.786084376170258
 20
2.834206920361119
 30
0.0
 70
     8
  0
VERTEX
  5
3C2
330
3A9
100
AcDbEntity
  8
IMAGE
100
AcDbVertex
100
AcDb2dVertex
 10
1.779663675854258
 20
2.830000890120575
 30
0.0
 70
     8
  0
VERTEX
  5
3C3
330
3A9
100
AcDbEntity
  8
IMAGE
100
AcDbVertex
100
AcDb2dVertex
 10
1.772637385369485
 20
2.792551614427781
 30
0.0
 70
    16
  0
VERTEX
  5
3C4
330
3A9
100
AcDbEntity
  8
IMAGE
100
AcDbVertex
100
AcDb2dVertex
 10
1.719557018165396
 20
2.901513722591277
 30
0.0
 70
    16
  0
SEQEND
  5
3C5
330
3A9
100
AcDbEntity
  8
IMAGE
  0
LINE
  5
3C6
330
1E
100
AcDbEntity
  8
IMAGE
100
AcDbLine
 10
1.445892008950864
 20
5.017145396540342
 30
0.0
 11
2.907834222092442
 21
5.017145396540342
 31
0.0
  0
LINE
  5
3C7
330
1E
100
AcDbEntity
  8
IMAGE
100
AcDbLine
 10
1.497086396808859
 20
5.101514002945738
 30
0.0
 11
2.856639834234446
 21
5.101514002945738
 31
0.0
  0
LINE
  5
3C8
330
1E
100
AcDbEntity
  8
IMAGE
100
AcDbLine
 10
2.840686970165962
 20
5.141995290208639
 30
0.0
 11
1.513039260877342
 21
5.141995290208641
 31
0.0
  0
LINE
  5
3C9
330
1E
100
AcDbEntity
  8
IMAGE
100
AcDbLine
 10
1.456583869717829
 20
5.368203733131118
 30
0.0
 11
2.897142361325475
 21
5.368203733131122
 31
0.0
  0
LINE
  5
3CA
330
1E
100
AcDbEntity
  8
IMAGE
100
AcDbLine
 10
1.550461155639388
 20
5.330781838369069
 30
0.0
 11
2.803265075403918
 21
5.330781838369071
 31
0.0
  0
LINE
  5
3CB
330
1E
100
AcDbEntity
  8
IMAGE
100
AcDbLine
 10
1.327014001864565
 20
3.308680806914758
 30
0.0
 11
1.372075149462019
 21
3.956280618898942
 31
0.0
  0
LINE
  5
3CC
330
1E
100
AcDbEntity
  8
IMAGE
100
AcDbLine
 10
1.410761833271724
 20
5.017145396540342
 30
0.0
 11
1.353868798043148
 21
4.202711781125806
 31
0.0
  0
LINE
  5
3CD
330
1E
100
AcDbEntity
  8
IMAGE
100
AcDbLine
 10
1.242612171999344
 20
3.831617540415624
 30
0.0
 11
1.212455709534975
 21
3.432882190580931
 31
0.0
  0
LINE
  5
3CE
330
1E
100
AcDbEntity
  8
IMAGE
100
AcDbLine
 10
1.572188512554903
 20
3.308680806914761
 30
0.0
 11
0.946669701826288
 21
3.308680806914755
 31
0.0
  0
LWPOLYLINE
  5
3CF
330
1E
100
AcDbEntity
  8
IMAGE
100
AcDbPolyline
 90
        2
 70
     0
 43
0.0
 10
0.946669701826288
 20
3.308680806914758
 10
1.572188512554903
 20
3.029239729213403
  0
LWPOLYLINE
  5
3D3
330
1E
100
AcDbEntity
  8
IMAGE
100
AcDbPolyline
 90
        2
 70
     0
 43
0.0
 10
0.946669701826288
 20
3.029239729213403
 10
1.572188512554903
 20
3.308680806914761
  0
LINE
  5
3D7
330
1E
100
AcDbEntity
  8
IMAGE
100
AcDbLine
 10
0.946669701826288
 20
3.029239729213403
 30
0.0
 11
1.572188512554903
 21
3.029239729213403
 31
0.0
  0
LINE
  5
3D8
330
1E
100
AcDbEntity
  8
IMAGE
100
AcDbLine
 10
0.946669701826288
 20
3.308680806914758
 30
0.0
 11
0.946669701826288
 21
3.029239729213403
 31
0.0
  0
LINE
  5
3D9
330
1E
100
AcDbEntity
  8
IMAGE
100
AcDbLine
 10
1.572188512554903
 20
3.029239729213403
 30
0.0
 11
1.572188512554903
 21
3.308680806914758
 31
0.0
  0
LINE
  5
3DA
330
1E
100
AcDbEntity
  8
IMAGE
100
AcDbLine
 10
1.191844212516626
 20
3.308680806914758
 30
0.0
 11
1.327014001864565
 21
3.308680806914758
 31
0.0
  0
LINE
  5
3DB
330
1E
100
AcDbEntity
  8
IMAGE
100
AcDbLine
 10
1.293880438634741
 20
3.343968066021
 30
0.0
 11
1.222830442557353
 21
3.343968066021006
 31
0.0
  0
LINE
  5
3DC
330
1E
100
AcDbEntity
  8
IMAGE
100
AcDbLine
 10
1.177464447692377
 20
3.428321242226272
 30
0.0
 11
1.191844212516626
 21
3.308680806914758
 31
0.0
  0
LINE
  5
3DD
330
1E
100
AcDbEntity
  8
IMAGE
100
AcDbLine
 10
1.222830442557353
 20
3.343968066021006
 30
0.0
 11
1.212455709534975
 21
3.432882190580931
 31
0.0
  0
LINE
  5
3DE
330
1E
100
AcDbEntity
  8
IMAGE
100
AcDbLine
 10
1.212455709534975
 20
3.432882190580931
 30
0.0
 11
1.177464447692377
 21
3.428321242226272
 31
0.0
  0
LWPOLYLINE
  5
3DF
330
1E
100
AcDbEntity
  8
IMAGE
100
AcDbPolyline
 90
        2
 70
     0
 43
0.0
 10
1.327945656721064
 20
3.831617540415621
 10
1.242612171999344
 20
3.831617540415624
  0
LINE
  5
3E3
330
1E
100
AcDbEntity
  8
IMAGE
100
AcDbLine
 10
1.497086396808859
 20
5.101514002945738
 30
0.0
 11
1.513039260877342
 21
5.330781838369071
 31
0.0
  0
LINE
  5
3E4
330
1E
100
AcDbEntity
  8
IMAGE
100
AcDbLine
 10
1.513039260877342
 20
5.330781838369069
 30
0.0
 11
1.513039260877342
 21
5.141995290208641
 31
0.0
  0
LINE
  5
3E5
330
1E
100
AcDbEntity
  8
IMAGE
100
AcDbLine
 10
1.550461155639388
 20
5.330781838369069
 30
0.0
 11
1.550461155639388
 21
5.141995290208641
 31
0.0
  0
LINE
  5
3E6
330
1E
100
AcDbEntity
  8
IMAGE
100
AcDbLine
 10
1.477995075429934
 20
5.330781838369072
 30
0.0
 11
1.461982362030478
 21
5.101557083280508
 31
0.0
  0
LINE
  5
3E7
330
1E
100
AcDbEntity
  8
IMAGE
100
AcDbLine
 10
1.445892008950864
 20
5.017145396540342
 30
0.0
 11
1.497086396808859
 21
5.101514002945738
 31
0.0
  0
LINE
  5
3E8
330
1E
100
AcDbEntity
  8
IMAGE
100
AcDbLine
 10
1.410761833271724
 20
5.017145396540342
 30
0.0
 11
1.461982362030478
 21
5.101557083280508
 31
0.0
  0
LINE
  5
3E9
330
1E
100
AcDbEntity
  8
IMAGE
100
AcDbLine
 10
1.456583869717829
 20
5.330781838369072
 30
0.0
 11
1.456583869717829
 21
5.368203733131118
 31
0.0
  0
LWPOLYLINE
  5
3EA
330
1E
100
AcDbEntity
  8
IMAGE
100
AcDbPolyline
 90
        2
 70
     0
 43
0.0
 10
1.513039260877342
 20
5.330781838369069
 10
1.45658386971783
 20
5.330781838369072
  0
LINE
  5
3EE
330
1E
100
AcDbEntity
  8
IMAGE
100
AcDbLine
 10
3.076645083672127
 20
3.308680806914758
 30
0.0
 11
3.01265670317906
 21
3.956280618898942
 31
0.0
  0
LINE
  5
3EF
330
1E
100
AcDbEntity
  8
IMAGE
100
AcDbLine
 10
2.944001995494681
 20
5.017145396540342
 30
0.0
 11
3.024695222144502
 21
4.202711781125805
 31
0.0
  0
LINE
  5
3F0
330
1E
100
AcDbEntity
  8
IMAGE
100
AcDbLine
 10
3.456989383710404
 20
3.308680806914761
 30
0.0
 11
2.831470572981789
 21
3.308680806914755
 31
0.0
  0
LWPOLYLINE
  5
3F1
330
1E
100
AcDbEntity
  8
IMAGE
100
AcDbPolyline
 90
        2
 70
     0
 43
0.0
 10
2.831470572981788
 20
3.029239729213403
 10
3.456989383710404
 20
3.308680806914761
  0
LWPOLYLINE
  5
3F5
330
1E
100
AcDbEntity
  8
IMAGE
100
AcDbPolyline
 90
        2
 70
     0
 43
0.0
 10
2.831470572981788
 20
3.308680806914758
 10
3.456989383710404
 20
3.029239729213403
  0
LINE
  5
3F9
330
1E
100
AcDbEntity
  8
IMAGE
100
AcDbLine
 10
2.831470572981789
 20
3.308680806914758
 30
0.0
 11
2.831470572981789
 21
3.029239729213403
 31
0.0
  0
LINE
  5
3FA
330
1E
100
AcDbEntity
  8
IMAGE
100
AcDbLine
 10
3.16104691353735
 20
3.831617540415624
 30
0.0
 11
3.191203376001717
 21
3.432882190580931
 31
0.0
  0
LINE
  5
3FB
330
1E
100
AcDbEntity
  8
IMAGE
100
AcDbLine
 10
3.456989383710404
 20
3.029239729213403
 30
0.0
 11
3.456989383710404
 21
3.308680806914758
 31
0.0
  0
LINE
  5
3FC
330
1E
100
AcDbEntity
  8
IMAGE
100
AcDbLine
 10
3.226194637844316
 20
3.428321242226272
 30
0.0
 11
3.211814873020067
 21
3.308680806914758
 31
0.0
  0
LINE
  5
3FD
330
1E
100
AcDbEntity
  8
IMAGE
100
AcDbLine
 10
3.191203376001717
 20
3.432882190580931
 30
0.0
 11
3.226194637844316
 21
3.428321242226272
 31
0.0
  0
LINE
  5
3FE
330
1E
100
AcDbEntity
  8
IMAGE
100
AcDbLine
 10
3.211814873020067
 20
3.308680806914758
 30
0.0
 11
3.076645083672127
 21
3.308680806914758
 31
0.0
  0
LINE
  5
3FF
330
1E
100
AcDbEntity
  8
IMAGE
100
AcDbLine
 10
3.180828642979339
 20
3.343968066021006
 30
0.0
 11
3.191203376001717
 21
3.432882190580931
 31
0.0
  0
LINE
  5
400
330
1E
100
AcDbEntity
  8
IMAGE
100
AcDbLine
 10
3.109778646901955
 20
3.343968066021
 30
0.0
 11
3.180828642979339
 21
3.343968066021006
 31
0.0
  0
LWPOLYLINE
  5
401
330
1E
100
AcDbEntity
  8
IMAGE
100
AcDbPolyline
 90
        2
 70
     0
 43
0.0
 10
3.061462849495971
 20
3.831617540415621
 10
3.16104691353735
 20
3.831617540415624
  0
LINE
  5
405
330
1E
100
AcDbEntity
  8
IMAGE
100
AcDbLine
 10
2.942964397771582
 20
5.017145396540342
 30
0.0
 11
2.891743869012828
 21
5.101557083280508
 31
0.0
  0
LINE
  5
406
330
1E
100
AcDbEntity
  8
IMAGE
100
AcDbLine
 10
2.856639834234446
 20
5.101514002945738
 30
0.0
 11
2.840686970165963
 21
5.330781838369071
 31
0.0
  0
LINE
  5
407
330
1E
100
AcDbEntity
  8
IMAGE
100
AcDbLine
 10
2.840686970165963
 20
5.330781838369071
 30
0.0
 11
2.840686970165962
 21
5.141995290208639
 31
0.0
  0
LINE
  5
408
330
1E
100
AcDbEntity
  8
IMAGE
100
AcDbLine
 10
2.803265075403918
 20
5.330781838369071
 30
0.0
 11
2.803265075403917
 21
5.141995290208639
 31
0.0
  0
LINE
  5
409
330
1E
100
AcDbEntity
  8
IMAGE
100
AcDbLine
 10
2.875731155613372
 20
5.330781838369072
 30
0.0
 11
2.891743869012828
 21
5.101557083280508
 31
0.0
  0
LINE
  5
40A
330
1E
100
AcDbEntity
  8
IMAGE
100
AcDbLine
 10
2.907834222092442
 20
5.017145396540342
 30
0.0
 11
2.856639834234446
 21
5.101514002945738
 31
0.0
  0
LWPOLYLINE
  5
40B
330
1E
100
AcDbEntity
  8
IMAGE
100
AcDbPolyline
 90
        2
 70
     0
 43
0.0
 10
2.840686970165963
 20
5.330781838369074
 10
2.897142361325477
 20
5.330781838369076
  0
LINE
  5
40F
330
1E
100
AcDbEntity
  8
IMAGE
100
AcDbLine
 10
2.897142361325477
 20
5.330781838369072
 30
0.0
 11
2.897142361325477
 21
5.368203733131118
 31
0.0
  0
LWPOLYLINE
  5
410
330
1E
100
AcDbEntity
  8
IMAGE
100
AcDbPolyline
 90
        2
 70
     0
 43
0.0
 10
3.332949596942947
 20
5.356919223028383
 10
2.897142361325477
 20
5.356919223028384
  0
LINE
  5
414
330
1E
100
AcDbEntity
  8
IMAGE
100
AcDbLine
 10
2.831470572981788
 20
3.029239729213403
 30
0.0
 11
3.456989383710404
 21
3.029239729213403
 31
0.0
  0
CIRCLE
  5
423
330
1E
100
AcDbEntity
  8
TEXT_BUBBLES
100
AcDbCircle
 10
3.86659031989704
 20
5.489344907820047
 30
0.0
 40
0.15625
  0
TEXT
  5
424
330
1E
100
AcDbEntity
  8
TEXT_BUBBLES
100
AcDbText
 10
3.815995081801802
 20
5.426844907820047
 30
0.0
 40
0.125
  1
1
  7
ROMANS
 72
     4
 11
3.86659031989704
 21
5.489344907820047
 31
0.0
100
AcDbText
  0
TEXT
  5
425
330
1E
100
AcDbEntity
  8
TEXT_BUBBLES
100
AcDbText
 10
3.807066510373232
 20
5.051682762426406
 30
0.0
 40
0.125
  1
2
  7
ROMANS
 72
     4
 11
3.866590319897042
 21
5.114182762426406
 31
0.0
100
AcDbText
  0
CIRCLE
  5
426
330
1E
100
AcDbEntity
  8
TEXT_BUBBLES
100
AcDbCircle
 10
3.866590319897042
 20
5.114182762426406
 30
0.0
 40
0.15625
  0
TEXT
  5
427
330
1E
100
AcDbEntity
  8
TEXT_BUBBLES
100
AcDbText
 10
3.807066510373232
 20
4.713287536393877
 30
0.0
 40
0.125
  1
3
  7
ROMANS
 72
     4
 11
3.866590319897042
 21
4.775787536393877
 31
0.0
100
AcDbText
  0
CIRCLE
  5
428
330
1E
100
AcDbEntity
  8
TEXT_BUBBLES
100
AcDbCircle
 10
3.866590319897042
 20
4.775787536393877
 30
0.0
 40
0.15625
  0
TEXT
  5
429
330
1E
100
AcDbEntity
  8
TEXT_BUBBLES
100
AcDbText
 10
3.804090319897042
 20
4.394106171512521
 30
0.0
 40
0.125
  1
4
  7
ROMANS
 72
     4
 11
3.866590319897042
 21
4.456606171512521
 31
0.0
100
AcDbText
  0
CIRCLE
  5
42A
330
1E
100
AcDbEntity
  8
TEXT_BUBBLES
100
AcDbCircle
 10
3.866590319897042
 20
4.456606171512521
 30
0.0
 40
0.15625
  0
TEXT
  5
42B
330
1E
100
AcDbEntity
  8
TEXT_BUBBLES
100
AcDbText
 10
3.807066510373232
 20
4.044225170962446
 30
0.0
 40
0.125
  1
5
  7
ROMANS
 72
     4
 11
3.866590319897042
 21
4.106725170962446
 31
0.0
100
AcDbText
  0
CIRCLE
  5
42C
330
1E
100
AcDbEntity
  8
TEXT_BUBBLES
100
AcDbCircle
 10
3.866590319897042
 20
4.106725170962446
 30
0.0
 40
0.15625
  0
TEXT
  5
42D
330
1E
100
AcDbEntity
  8
TEXT_BUBBLES
100
AcDbText
 10
3.804090319897042
 20
3.345782780361399
 30
0.0
 40
0.125
  1
6
  7
ROMANS
 72
     4
 11
3.866590319897042
 21
3.408282780361399
 31
0.0
100
AcDbText
  0
CIRCLE
  5
42E
330
1E
100
AcDbEntity
  8
TEXT_BUBBLES
100
AcDbCircle
 10
3.866590319897042
 20
3.408282780361399
 30
0.0
 40
0.15625
  0
TEXT
  5
42F
330
1E
100
AcDbEntity
  8
TEXT_LEADERS
100
AcDbText
 10
5.30255319294908
 20
5.726890039819486
 30
0.0
 40
0.125
  1
FINISH GRADE/TOP OF MULCH
  7
ROMANS
100
AcDbText
  0
TEXT
  5
430
330
1E
100
AcDbEntity
  8
TEXT_LEADERS
100
AcDbText
 10
5.302553192949081
 20
5.360765615511196
 30
0.0
 40
0.125
  1
VALVE BOX WITH COVER:  
  7
ROMANS
100
AcDbText
  0
TEXT
  5
431
330
1E
100
AcDbEntity
  8
TEXT_LEADERS
100
AcDbText
 10
5.302553192949081
 20
5.158384663130243
 30
0.0
 40
0.125
  1
  RAIN BIRD VB-6RND
  7
ROMANS
100
AcDbText
  0
TEXT
  5
432
330
1E
100
AcDbEntity
  8
TEXT_LEADERS
100
AcDbText
 10
5.302553192949081
 20
4.952077019233469
 30
0.0
 40
0.125
  1
PVC SCH 40 TEE
  7
ROMANS
100
AcDbText
  0
TEXT
  5
433
330
1E
100
AcDbEntity
  8
TEXT_LEADERS
100
AcDbText
 10
5.302553192949081
 20
4.643274860965961
 30
0.0
 40
0.125
  1
PVC LATERAL PIPE
  7
ROMANS
100
AcDbText
  0
TEXT
  5
434
330
1E
100
AcDbEntity
  8
TEXT_LEADERS
100
AcDbText
 10
5.302553192949081
 20
4.330338984540201
 30
0.0
 40
0.125
  1
FILTERED DRAIN VALVE:
  7
ROMANS
100
AcDbText
  0
TEXT
  5
435
330
1E
100
AcDbEntity
  8
TEXT_LEADERS
100
AcDbText
 10
5.302553192949081
 20
4.155338984540201
 30
0.0
 40
0.125
  1
  RAIN BIRD 16A-FDV
  7
ROMANS
100
AcDbText
  0
TEXT
  5
436
330
1E
100
AcDbEntity
  8
TEXT_LEADERS
100
AcDbText
 10
5.302553192949081
 20
3.453152772544135
 30
0.0
 40
0.125
  1
BRICK (1 OF 2)
  7
ROMANS
100
AcDbText
  0
TEXT
  5
437
330
1E
100
AcDbEntity
  8
TEXT_BUBBLES
100
AcDbText
 10
4.901957954853841
 20
5.902474758620059
 30
0.0
 40
0.125
  1
1
  7
ROMANS
 72
     4
 11
4.952553192949079
 21
5.964974758620059
 31
0.0
100
AcDbText
  0
CIRCLE
  5
438
330
1E
100
AcDbEntity
  8
TEXT_BUBBLES
100
AcDbCircle
 10
4.952553192949079
 20
5.964974758620059
 30
0.0
 40
0.15625
  0
CIRCLE
  5
439
330
1E
100
AcDbEntity
  8
TEXT_BUBBLES
100
AcDbCircle
 10
4.952553192949079
 20
5.614974758620058
 30
0.0
 40
0.15625
  0
TEXT
  5
43A
330
1E
100
AcDbEntity
  8
TEXT_BUBBLES
100
AcDbText
 10
4.89302938342527
 20
5.552474758620058
 30
0.0
 40
0.125
  1
2
  7
ROMANS
 72
     4
 11
4.952553192949079
 21
5.614974758620058
 31
0.0
100
AcDbText
  0
CIRCLE
  5
43B
330
1E
100
AcDbEntity
  8
TEXT_BUBBLES
100
AcDbCircle
 10
4.952553192949079
 20
5.089974758620058
 30
0.0
 40
0.15625
  0
TEXT
  5
43C
330
1E
100
AcDbEntity
  8
TEXT_BUBBLES
100
AcDbText
 10
4.89302938342527
 20
5.027474758620058
 30
0.0
 40
0.125
  1
3
  7
ROMANS
 72
     4
 11
4.952553192949079
 21
5.089974758620058
 31
0.0
100
AcDbText
  0
CIRCLE
  5
43D
330
1E
100
AcDbEntity
  8
TEXT_BUBBLES
100
AcDbCircle
 10
4.952553192949079
 20
4.739974758620058
 30
0.0
 40
0.15625
  0
TEXT
  5
43E
330
1E
100
AcDbEntity
  8
TEXT_BUBBLES
100
AcDbText
 10
4.890053192949079
 20
4.677474758620058
 30
0.0
 40
0.125
  1
4
  7
ROMANS
 72
     4
 11
4.952553192949079
 21
4.739974758620058
 31
0.0
100
AcDbText
  0
CIRCLE
  5
43F
330
1E
100
AcDbEntity
  8
TEXT_BUBBLES
100
AcDbCircle
 10
4.952553192949079
 20
4.389974758620058
 30
0.0
 40
0.15625
  0
TEXT
  5
440
330
1E
100
AcDbEntity
  8
TEXT_BUBBLES
100
AcDbText
 10
4.89302938342527
 20
4.327474758620058
 30
0.0
 40
0.125
  1
5
  7
ROMANS
 72
     4
 11
4.952553192949079
 21
4.389974758620058
 31
0.0
100
AcDbText
  0
CIRCLE
  5
441
330
1E
100
AcDbEntity
  8
TEXT_BUBBLES
100
AcDbCircle
 10
4.952553192949079
 20
3.864974758620058
 30
0.0
 40
0.15625
  0
TEXT
  5
442
330
1E
100
AcDbEntity
  8
TEXT_BUBBLES
100
AcDbText
 10
4.890053192949079
 20
3.802474758620058
 30
0.0
 40
0.125
  1
6
  7
ROMANS
 72
     4
 11
4.952553192949079
 21
3.864974758620058
 31
0.0
100
AcDbText
  0
CIRCLE
  5
443
330
1E
100
AcDbEntity
  8
TEXT_BUBBLES
100
AcDbCircle
 10
4.944856281245224
 20
3.527706030748738
 30
0.0
 40
0.15625
  0
TEXT
  5
444
330
1E
100
AcDbEntity
  8
TEXT_BUBBLES
100
AcDbText
 10
4.885332471721414
 20
3.465206030748738
 30
0.0
 40
0.125
  1
7
  7
ROMANS
 72
     4
 11
4.944856281245224
 21
3.527706030748738
 31
0.0
100
AcDbText
  0
LINE
  5
445
330
1E
100
AcDbEntity
  8
IMAGE
100
AcDbLine
 10
1.38922226835894
 20
4.202711781125806
 30
0.0
 11
1.445892008950864
 21
5.017145396540342
 31
0.0
  0
LINE
  5
446
330
1E
100
AcDbEntity
  8
IMAGE
100
AcDbLine
 10
1.336654114699244
 20
3.956280618898942
 30
0.0
 11
1.293880438634741
 21
3.343968066021
 31
0.0
  0
LINE
  5
447
330
1E
100
AcDbEntity
  8
IMAGE
100
AcDbLine
 10
3.049111362700083
 20
3.956280618898942
 30
0.0
 11
3.109778646901955
 21
3.343968066021
 31
0.0
  0
LINE
  5
448
330
1E
100
AcDbEntity
  8
IMAGE
100
AcDbLine
 10
2.98830720417966
 20
4.202711781125806
 30
0.0
 11
2.907834222092442
 21
5.017145396540342
 31
0.0
  0
CIRCLE
  5
453
330
1E
100
AcDbEntity
  8
TEXT_BUBBLES
100
AcDbCircle
 10
3.866590319897042
 20
2.390185017702944
 30
0.0
 40
0.15625
  0
TEXT
  5
454
330
1E
100
AcDbEntity
  8
TEXT_BUBBLES
100
AcDbText
 10
3.807066510373232
 20
2.327685017702944
 30
0.0
 40
0.125
  1
7
  7
ROMANS
 72
     4
 11
3.866590319897042
 21
2.390185017702944
 31
0.0
100
AcDbText
  0
TEXT
  5
458
330
1E
100
AcDbEntity
  8
TEXT_BUBBLES
100
AcDbText
 10
5.302553192949081
 20
3.455338984540202
 30
0.0
 40
0.125
  1
6-INCH MINIMUM DEPTH OF
  7
ROMANS
100
AcDbText
  0
TEXT
  5
459
330
1E
100
AcDbEntity
  8
TEXT_BUBBLES
100
AcDbText
 10
5.302553192949081
 20
3.805338984540202
 30
0.0
 40
0.125
  1
BRICK (1 OF 2)
  7
ROMANS
100
AcDbText
  0
TEXT
  5
45A
330
1E
100
AcDbEntity
  8
TEXT_BUBBLES
100
AcDbText
 10
5.302553192949081
 20
4.155338984540201
 30
0.0
 40
0.125
  1
  RAIN BIRD 16A-FDV
  7
ROMANS
100
AcDbText
  0
TEXT
  5
45B
330
1E
100
AcDbEntity
  8
TEXT_BUBBLES
100
AcDbText
 10
5.302553192949081
 20
4.330338984540201
 30
0.0
 40
0.125
  1
FILTERED DRAIN VALVE:
  7
ROMANS
100
AcDbText
  0
TEXT
  5
45C
330
1E
100
AcDbEntity
  8
TEXT_BUBBLES
100
AcDbText
 10
5.302553192949081
 20
4.680338984540202
 30
0.0
 40
0.125
  1
PVC LATERAL PIPE
  7
ROMANS
100
AcDbText
  0
TEXT
  5
45D
330
1E
100
AcDbEntity
  8
TEXT_BUBBLES
100
AcDbText
 10
5.302553192949081
 20
5.030338984540201
 30
0.0
 40
0.125
  1
PVC SCH 40 TEE
  7
ROMANS
100
AcDbText
  0
TEXT
  5
45E
330
1E
100
AcDbEntity
  8
TEXT_BUBBLES
100
AcDbText
 10
5.302553192949081
 20
5.352958032159249
 30
0.0
 40
0.125
  1
  RAIN BIRD VB-6RND
  7
ROMANS
100
AcDbText
  0
TEXT
  5
45F
330
1E
100
AcDbEntity
  8
TEXT_BUBBLES
100
AcDbText
 10
5.302553192949081
 20
5.555338984540202
 30
0.0
 40
0.125
  1
VALVE BOX WITH COVER:  
  7
ROMANS
100
AcDbText
  0
TEXT
  5
460
330
1E
100
AcDbEntity
  8
TEXT_BUBBLES
100
AcDbText
 10
5.302553192949081
 20
5.905338984540201
 30
0.0
 40
0.125
  1
FINISH GRADE/TOP OF MULCH
  7
ROMANS
100
AcDbText
  0
TEXT
  5
469
330
1E
100
AcDbEntity
  8
TEXT_LEADERS
100
AcDbText
 10
5.302553192949081
 20
2.108009433491087
 30
0.0
 40
0.125
  1
6-INCH MINIMUM DEPTH OF
  7
ROMANS
100
AcDbText
  0
TEXT
  5
46A
330
1E
100
AcDbEntity
  8
OPTION-MODEL-075
100
AcDbText
 10
5.350690255950272
 20
4.155338746121452
 30
0.0
 40
0.1250000018625
  1
                 -075
  7
ROMANS
100
AcDbText
  0
LWPOLYLINE
  5
46B
330
1E
100
AcDbEntity
  8
IMAGE
100
AcDbPolyline
 90
        2
 70
     0
 43
0.0
 10
1.456583869717829
 20
5.356919223028384
 10
0.7488542044101072
 20
5.356919223028383
  0
LINE
  5
46F
330
1E
100
AcDbEntity
  8
IMAGE
100
AcDbLine
 10
1.175179258300328
 20
5.734160709332722
 30
0.0
 11
1.035064487965786
 21
5.356665104076573
 31
0.0
  0
LINE
  5
470
330
1E
100
AcDbEntity
  8
IMAGE
100
AcDbLine
 10
0.9997243968713886
 20
5.703748948147635
 30
0.0
 11
1.062807553590217
 21
5.356665104076583
 31
0.0
  0
LINE
  5
471
330
1E
100
AcDbEntity
  8
IMAGE
100
AcDbLine
 10
1.074781342419584
 20
5.734160709332722
 30
0.0
 11
0.9346665720850451
 21
5.356665104076573
 31
0.0
  0
LINE
  5
472
330
1E
100
AcDbEntity
  8
IMAGE
100
AcDbLine
 10
1.453049661008371
 20
5.697299383035732
 30
0.0
 11
1.428727590430292
 21
5.356665104076573
 31
0.0
  0
LINE
  5
473
330
1E
100
AcDbEntity
  8
IMAGE
100
AcDbLine
 10
3.274195906324085
 20
5.754435216789436
 30
0.0
 11
3.274195906324085
 21
5.356665104076573
 31
0.0
  0
LINE
  5
474
330
1E
100
AcDbEntity
  8
IMAGE
100
AcDbLine
 10
3.099562990577289
 20
5.697299383035732
 30
0.0
 11
3.075240919999207
 21
5.356665104076573
 31
0.0
  0
LINE
  5
475
330
1E
100
AcDbEntity
  8
IMAGE
100
AcDbLine
 10
2.956891480741045
 20
5.705810630601976
 30
0.0
 11
3.02498146127107
 21
5.362702332697613
 31
0.0
  0
LINE
  5
476
330
1E
100
AcDbEntity
  8
IMAGE
100
AcDbLine
 10
3.047495293144799
 20
5.697299383035732
 30
0.0
 11
3.02317322256672
 21
5.356665104076573
 31
0.0
  0
LINE
  5
477
330
1E
100
AcDbEntity
  8
IMAGE
100
AcDbLine
 10
2.965809378776122
 20
5.697299383035732
 30
0.0
 11
2.941487308198043
 21
5.356665104076573
 31
0.0
  0
LINE
  5
478
330
1E
100
AcDbEntity
  8
IMAGE
100
AcDbLine
 10
3.298069269138163
 20
5.697299383035732
 30
0.0
 11
3.273747198560084
 21
5.356665104076573
 31
0.0
  0
TEXT
  5
47A
330
1E
100
AcDbEntity
  8
INSTRUCT-OPTION
100
AcDbText
 10
10.94376685578675
 20
5.75823732253856
 30
0.0
 40
0.1250000018625
  1
   OPTION-MODEL-075
  7
ROMANS
100
AcDbText
  0
TEXT
  5
47C
330
1E
100
AcDbEntity
  8
INSTRUCT-OPTION
100
AcDbText
 10
10.94376111482274
 20
6.365357368895737
 30
0.0
 40
0.1250000018625
  1
CHOOSE A 3/4-INCH INLET SIZE BY TURNING ON
  7
ROMANS
100
AcDbText
  0
TEXT
  5
47D
330
1E
100
AcDbEntity
  8
INSTRUCT-OPTION
100
AcDbText
 10
10.94376685578675
 20
6.16298683521106
 30
0.0
 40
0.1250000018625
  1
THE APPROPRIATE LAYER:
  7
ROMANS
100
AcDbText
  0
TEXT
  5
47E
330
1E
100
AcDbEntity
  8
INSTRUCT-OPTION
100
AcDbText
 10
11.33386736906507
 20
7.035376711488171
 30
0.0
 40
0.1250000018625
  1
CHOOSING MODELS AND OPTIONAL FEATURES
  7
ROMANS
100
AcDbText
  0
LWPOLYLINE
  5
47F
330
1E
100
AcDbEntity
  8
INSTRUCT-OPTION
100
AcDbPolyline
 90
        4
 70
     1
 43
0.0
 10
10.82145780120361
 20
6.98050385746689
 10
10.82145780120361
 20
5.46843605360677
 10
16.3610787904312
 20
5.46843605360677
 10
16.3610787904312
 20
6.98050385746689
  0
TEXT
  5
485
330
1E
100
AcDbEntity
  8
INSTRUCT-OPTION
100
AcDbText
 10
10.83718562577898
 20
5.244764415122098
 30
0.0
 40
0.1250000018625
  1
TO TURN OFF THIS INSTRUCTION BOX, TURN OFF
  7
ROMANS
100
AcDbText
  0
TEXT
  5
486
330
1E
100
AcDbEntity
  8
INSTRUCT-OPTION
100
AcDbText
 10
10.83718562577898
 20
5.042389360762099
 30
0.0
 40
0.1250000018625
  1
LAYER "INSTRUCT-OPTION".
  7
ROMANS
100
AcDbText
  0
LWPOLYLINE
  5
487
330
1E
100
AcDbEntity
  8
INSTRUCT-CALLOUT
100
AcDbPolyline
 90
        4
 70
     1
 43
0.0
 10
10.78840144175762
 20
9.789158463774249
 10
10.78840144175762
 20
7.999800937096446
 10
16.32802243098521
 20
7.999800937096446
 10
16.32802243098521
 20
9.789158463774249
  0
TEXT
  5
48D
330
1E
100
AcDbEntity
  8
INSTRUCT-CALLOUT
100
AcDbText
 10
11.20164196668515
 20
9.860552827170749
 30
0.0
 40
0.1250000018625
  1
CHOOSING EQUIPMENT CALLOUT METHOD
  7
ROMANS
100
AcDbText
  0
TEXT
  5
48E
330
1E
100
AcDbEntity
  8
INSTRUCT-CALLOUT
100
AcDbText
 10
10.91070475537675
 20
9.392913997827147
 30
0.0
 40
0.1250000018625
  1
CHOOSE EITHER LEADERS OR BUBBLE CALLOUTS
  7
ROMANS
100
AcDbText
  0
TEXT
  5
48F
330
1E
100
AcDbEntity
  8
INSTRUCT-CALLOUT
100
AcDbText
 10
10.91070475537675
 20
9.190538943468396
 30
0.0
 40
0.1250000018625
  1
BY TURNING ON THE APPROPRIATE LAYER:
  7
ROMANS
100
AcDbText
  0
TEXT
  5
490
330
1E
100
AcDbEntity
  8
INSTRUCT-CALLOUT
100
AcDbText
 10
11.45613442070527
 20
8.769267325374425
 30
0.0
 40
0.1250000018625
  1
TEXT_LEADERS         TEXT_BUBBLES
  7
ROMANS
100
AcDbText
  0
LINE
  5
491
330
1E
100
AcDbEntity
  8
INSTRUCT-CALLOUT
100
AcDbLine
 10
11.84004023565127
 20
8.453678258247407
 30
0.0
 11
12.01037591797455
 21
8.453678258247405
 31
0.0
  0
LINE
  5
492
330
1E
100
AcDbEntity
  8
INSTRUCT-CALLOUT
100
AcDbLine
 10
11.48032721755336
 20
8.303988630989554
 30
0.0
 11
11.84004023565127
 21
8.453678258247407
 31
0.0
  0
SOLID
  5
493
330
1E
100
AcDbEntity
  8
INSTRUCT-CALLOUT
100
AcDbTrace
 10
11.58705971447877
 20
8.307786538316914
 30
0.0
 11
11.5582448583641
 21
8.377030339967973
 31
0.0
 12
11.36492088146826
 22
8.255963870798446
 32
0.0
 13
11.36492088146826
 23
8.255963870798446
 33
0.0
  0
TEXT
  5
494
330
1E
100
AcDbEntity
  8
INSTRUCT-CALLOUT
100
AcDbText
 10
12.04284433924596
 20
8.372739996505032
 30
0.0
 40
0.1250000018625
  1
ITEM 1
  7
ROMANS
100
AcDbText
  0
SOLID
  5
495
330
1E
100
AcDbEntity
  8
INSTRUCT-CALLOUT
100
AcDbTrace
 10
14.26514637454055
 20
8.324569081506162
 30
0.0
 11
14.28489924160847
 21
8.252216996238377
 31
0.0
 12
14.05796655227115
 22
8.2291344376685
 32
0.0
 13
14.05796655227115
 23
8.2291344376685
 33
0.0
  0
LINE
  5
496
330
1E
100
AcDbEntity
  8
INSTRUCT-CALLOUT
100
AcDbLine
 10
14.1785533610508
 20
8.262055882781705
 30
0.0
 11
14.49840513220685
 21
8.349378722112479
 31
0.0
  0
TEXT
  5
497
330
1E
100
AcDbEntity
  8
INSTRUCT-CALLOUT
100
AcDbText
 10
14.59854340508617
 20
8.328030528503987
 30
0.0
 40
0.125
  1
1
  7
ROMANS
 72
     4
 11
14.64913864318141
 21
8.390530528503987
 31
0.0
100
AcDbText
  0
CIRCLE
  5
498
330
1E
100
AcDbEntity
  8
INSTRUCT-CALLOUT
100
AcDbCircle
 10
14.64913864318141
 20
8.390530528503987
 30
0.0
 40
0.15625
  0
TEXT
  5
499
330
1E
100
AcDbEntity
  8
INSTRUCT-CALLOUT
100
AcDbText
 10
10.83718562577898
 20
7.560765866177182
 30
0.0
 40
0.1250000018625
  1
LAYER "INSTRUCT-CALLOUT".
  7
ROMANS
100
AcDbText
  0
TEXT
  5
49A
330
1E
100
AcDbEntity
  8
INSTRUCT-CALLOUT
100
AcDbText
 10
10.83718562577898
 20
7.763140920537181
 30
0.0
 40
0.1250000018625
  1
TO TURN OFF THIS INSTRUCTION BOX, TURN OFF
  7
ROMANS
100
AcDbText
  0
TEXT
  5
49B
330
1E
100
AcDbEntity
  8
INSTRUCT-OPTION
100
AcDbText
 10
10.94376685578675
 20
6.567736347883561
 30
0.0
 40
0.1250000018625
  1
%%uINLET SIZE
  7
ROMANS
100
AcDbText
  0
LWPOLYLINE
  5
49C
330
1E
100
AcDbEntity
  8
IMAGE
100
AcDbPolyline
 90
        3
 70
     0
 43
0.0
 10
1.787064971774416
 20
3.157248443766958
 42
0.089158215018281
 10
1.773340543828613
 20
3.163080297235933
 42
0.0311341714513713
 10
1.768688520731577
 20
3.163839215797322
 42
0.1021164699559977
  0
LWPOLYLINE
  5
4A1
330
1E
100
AcDbEntity
  8
IMAGE
100
AcDbPolyline
 90
        9
 70
     0
 43
0.0
 10
1.763064709520915
 20
3.094704195076256
 42
0.0031512949210777
 10
1.76358193975081
 20
3.094582945244525
 42
0.0941232123749289
 10
1.777710873090772
 20
3.094070298826661
 42
0.1021164699559494
 10
1.790772740498841
 20
3.098911707346616
 42
0.108589358440703
 10
1.800145925807346
 20
3.108088510163666
 42
0.108589358440865
 10
1.804807664326904
 20
3.120349770569749
 42
0.1021164699561734
 10
1.804020520345876
 20
3.134257754643512
 42
0.0941232123749801
 10
1.797899445897176
 20
3.147002244090663
 42
0.0891582150184292
 10
1.787064971774416
 20
3.157248443766958
 42
0.089158215018281
  0
LWPOLYLINE
  5
4AC
330
1E
100
AcDbEntity
  8
IMAGE
100
AcDbPolyline
 90
       15
 70
     0
 43
0.0
 10
1.591784553806694
 20
2.865109191146817
 42
0.033832196371866
 10
1.580302851933361
 20
2.84950809075492
 42
0.0992891628608468
 10
1.569595388172595
 20
2.821810079195653
 42
0.1960556314456874
 10
1.572913523436931
 20
2.806705786292086
 42
0.1960556314457155
 10
1.585847703096399
 20
2.798228954201839
 42
0.0992891628608236
 10
1.615542951103429
 20
2.798376840393341
 42
0.056789421032569
 10
1.646380124528982
 20
2.808471756218127
 42
0.0434330315006363
 10
1.68321939436202
 20
2.8294002366059
 42
0.0434330315006436
 10
1.715889361670385
 20
2.856378122535726
 42
0.0567894210326018
 10
1.736298910605008
 20
2.881602890179319
 42
0.0992891628608134
 10
1.747006374365775
 20
2.909300901738571
 42
0.1960556314459067
 10
1.743688239101438
 20
2.924405194642154
 42
0.196055631445795
 10
1.730754059441985
 20
2.9328820267324
 42
0.0992891628608398
 10
1.701058811434941
 20
2.932734140540897
 42
0.0419183993849985
 10
1.678052047238483
 20
2.925951294060554
 42
0.0434330315006345
  0
LWPOLYLINE
  5
4BD
330
1E
100
AcDbEntity
  8
IMAGE
100
AcDbPolyline
 90
       12
 70
     0
 43
0.0
 10
2.25830443551877
 20
2.853102753989414
 42
0.0280832620711611
 10
2.227677842495996
 20
2.85096310922182
 42
0.0383996410605271
 10
2.205669189474992
 20
2.846440699456999
 42
0.0790833228916241
 10
2.187159046790275
 20
2.837788317772131
 42
0.2524926882143302
 10
2.184028643584928
 20
2.831790750332259
 42
0.2524926882147992
 10
2.187320969765697
 20
2.825880519563223
 42
0.0790833228917059
 10
2.206059536133797
 20
2.81773464812439
 42
0.0383996410604923
 10
2.228183020815624
 20
2.813812349893479
 42
0.0280832620711411
 10
2.258856469057665
 20
2.812506266872659
 42
0.0280832620711456
 10
2.289483062080453
 20
2.814645911640249
 42
0.038399641060506
 10
2.311491715101443
 20
2.819168321405072
 42
0.046953734657751
 10
2.322833340296218
 20
2.823609941869265
 42
0.2524926882143649
  0
LWPOLYLINE
  5
4CB
330
1E
100
AcDbEntity
  8
IMAGE
100
AcDbPolyline
 90
        3
 70
     0
 43
0.0
 10
2.301721975651973
 20
2.849966122515123
 42
0.0219819750173284
 10
2.288977883760811
 20
2.851796670968594
 42
0.0280832620711437
 10
2.25830443551877
 20
2.853102753989414
 42
0.0280832620711611
  0
LWPOLYLINE
  5
4D0
330
1E
100
AcDbEntity
  8
IMAGE
100
AcDbPolyline
 90
       28
 70
     0
 43
0.0
 10
2.729597065525755
 20
2.984291733820321
 10
2.737580299594644
 20
2.988451129813431
 10
2.744841492394432
 20
2.99281439445263
 10
2.751501317489005
 20
2.997211999955105
 10
2.757680448442262
 20
3.001474418538054
 10
2.763499558818143
 20
3.005432122418663
 10
2.769079322180506
 20
3.008915583814122
 10
2.774540412093305
 20
3.011755274941624
 10
2.780003502120397
 20
3.013781668018359
 10
2.785560097491913
 20
3.014863203680775
 10
2.791185030102657
 20
3.015020196242364
 10
2.796823963513635
 20
3.014310928435874
 10
2.802422561285841
 20
3.012793682994054
 10
2.807926486980296
 20
3.010526742649652
 10
2.813281404157994
 20
3.00756839013542
 10
2.818432976379928
 20
3.003976908184104
 10
2.823326867207118
 20
2.999810579528455
 10
2.827905406676695
 20
2.995112773615524
 10
2.832097590730346
 20
2.989867206749579
 10
2.835829081785878
 20
2.984042681949189
 10
2.839025542261115
 20
2.977608002232925
 10
2.841612634573853
 20
2.970531970619357
 10
2.843516021141927
 20
2.962783390127052
 10
2.844661364383146
 20
2.954331063774584
 10
2.84497432671532
 20
2.94514379458052
 10
2.844394960267625
 20
2.935244436147538
 10
2.842920876014606
 20
2.924872044414734
 10
2.84208805587136
 20
2.921143183970488
  0
LWPOLYLINE
  5
4EE
330
1E
100
AcDbEntity
  8
IMAGE
100
AcDbPolyline
 90
       27
 70
     0
 43
0.0
 10
2.755820562439571
 20
2.860301081056752
 10
2.752334253985357
 20
2.861352813689711
 10
2.741828875760337
 20
2.865774804429613
 10
2.731254660267513
 20
2.871424682562642
 10
2.720758782585523
 20
2.878076249820348
 10
2.710499585097924
 20
2.885465903801496
 10
2.700635410188315
 20
2.893330042104859
 10
2.691324600240254
 20
2.901405062329207
 10
2.682725497637325
 20
2.909427362073307
 10
2.674996444763114
 20
2.917133338935931
 10
2.668295784001206
 20
2.92425939051585
 10
2.662764967880907
 20
2.930601164492844
 10
2.658477889514575
 20
2.936191308870732
 10
2.655491552160289
 20
2.941121721734351
 10
2.65386295907614
 20
2.94548430116853
 10
2.653649113520206
 20
2.949370945258105
 10
2.654907018750595
 20
2.952873552087905
 10
2.657693678025385
 20
2.956084019742764
 10
2.662066094602654
 20
2.959094246307513
 10
2.668019990460127
 20
2.961990849757727
 10
2.675305962453965
 20
2.964839327631935
 10
2.683613326159989
 20
2.967699897359413
 10
2.692631397153992
 20
2.970632776369428
 10
2.702049491011767
 20
2.973698182091255
 10
2.711556923309107
 20
2.976956331954165
 10
2.720843009621848
 20
2.980467443387429
 10
2.729597065525755
 20
2.984291733820321
  0
TEXT
  5
50B
330
1E
100
AcDbEntity
  8
TEXT_BUBBLES
100
AcDbText
 10
5.302553192949081
 20
3.240092586520506
 30
0.0
 40
0.125
  1
  3/4-INCH WASHED GRAVEL
  7
ROMANS
100
AcDbText
  0
TEXT
  5
50C
330
1E
100
AcDbEntity
  8
TEXT_LEADERS
100
AcDbText
 10
5.302553192949081
 20
1.909320439790854
 30
0.0
 40
0.125
  1
  3/4-INCH WASHED GRAVEL
  7
ROMANS
100
AcDbText
  0
LINE
  5
50F
330
1E
100
AcDbEntity
  8
IMAGE
  6
ByBlock
 62
     0
100
AcDbLine
 10
2.028238072645128
 20
3.445602408333187
 30
0.0
 11
1.764706698379918
 21
3.445602408333187
 31
0.0
  0
LINE
  5
510
330
1E
100
AcDbEntity
  8
IMAGE
  6
ByBlock
 62
     0
100
AcDbLine
 10
2.028238072645128
 20
3.235664335236963
 30
0.0
 11
1.764706698379918
 21
3.235664335236963
 31
0.0
  0
LINE
  5
511
330
1E
100
AcDbEntity
  8
IMAGE
  6
ByBlock
 62
     0
100
AcDbLine
 10
1.944706698379918
 20
3.625602408333187
 30
0.0
 11
1.944706698379918
 21
3.805602408333187
 31
0.0
  0
LINE
  5
512
330
1E
100
AcDbEntity
  8
IMAGE
  6
ByBlock
 62
     0
100
AcDbLine
 10
1.944706698379918
 20
3.055664335236963
 30
0.0
 11
1.944706698379918
 21
2.875664335236963
 31
0.0
  0
SOLID
  5
513
330
1E
100
AcDbEntity
  8
IMAGE
  6
ByBlock
 62
     0
100
AcDbTrace
 10
1.914706698379918
 20
3.625602408333187
 30
0.0
 11
1.974706698379918
 21
3.625602408333187
 31
0.0
 12
1.944706698379918
 22
3.445602408333187
 32
0.0
 13
1.944706698379918
 23
3.445602408333187
 33
0.0
  0
SOLID
  5
514
330
1E
100
AcDbEntity
  8
IMAGE
  6
ByBlock
 62
     0
100
AcDbTrace
 10
1.914706698379918
 20
3.055664335236963
 30
0.0
 11
1.974706698379918
 21
3.055664335236963
 31
0.0
 12
1.944706698379918
 22
3.235664335236963
 32
0.0
 13
1.944706698379918
 23
3.235664335236963
 33
0.0
  0
TEXT
  5
515
330
1E
100
AcDbEntity
  8
IMAGE
  6
ByBlock
 62
     0
100
AcDbText
 10
1.675246087297108
 20
3.287054072823878
 30
0.0
 40
0.1
  1
2" MIN.
  7
ROMANS
 72
     1
 11
1.956198468249489
 21
3.337054072823878
 31
0.0
100
AcDbText
 73
     2
  0
POINT
  5
516
330
1E
100
AcDbEntity
  8
DEFPOINTS
  6
ByBlock
 62
     0
100
AcDbPoint
 10
2.090738072645128
 20
3.445602408333187
 30
0.0
  0
POINT
  5
517
330
1E
100
AcDbEntity
  8
DEFPOINTS
  6
ByBlock
 62
     0
100
AcDbPoint
 10
2.090738072645128
 20
3.235664335236963
 30
0.0
  0
POINT
  5
518
330
1E
100
AcDbEntity
  8
DEFPOINTS
  6
ByBlock
 62
     0
100
AcDbPoint
 10
1.944706698379918
 20
3.235664335236963
 30
0.0
  0
LEADER
  5
526
330
1E
100
AcDbEntity
  8
TEXT_LEADERS
100
AcDbLeader
  3
Standard
 76
     3
 10
2.811130657122951
 20
2.803992582217454
 30
0.0
 10
4.414529468923804
 20
2.156177411776987
 30
0.0
 10
5.221434369779145
 20
2.156177411776987
 30
0.0
211
-1.0
221
0.0
231
0.0
210
0.0
220
0.0
230
-1.0
  0
LEADER
  5
527
330
1E
100
AcDbEntity
  8
TEXT_LEADERS
100
AcDbLeader
  3
Standard
 76
     3
 10
3.456989383710403
 20
3.128509007143412
 30
0.0
 10
4.414529468923804
 20
3.515380313858054
 30
0.0
 10
5.221434369779145
 20
3.515380313858054
 30
0.0
  0
LEADER
  5
528
330
1E
100
AcDbEntity
  8
TEXT_LEADERS
100
AcDbLeader
  3
Standard
 76
     3
 10
2.350909820425177
 20
3.564889891390131
 30
0.0
 10
4.414529468923804
 20
4.398646349532296
 30
0.0
 10
5.221434369779145
 20
4.398646349532296
 30
0.0
  0
LEADER
  5
529
330
1E
100
AcDbEntity
  8
TEXT_LEADERS
100
AcDbLeader
  3
Standard
 76
     3
 10
3.15970919121363
 20
4.202711781125805
 30
0.0
 10
4.414529468923804
 20
4.709692082030464
 30
0.0
 10
5.221434369779145
 20
4.709692082030464
 30
0.0
  0
LEADER
  5
52A
330
1E
100
AcDbEntity
  8
TEXT_LEADERS
100
AcDbLeader
  3
Standard
 76
     3
 10
2.439766346531193
 20
4.215996200012374
 30
0.0
 10
4.414529468923804
 20
5.013852291271104
 30
0.0
 10
5.221434369779145
 20
5.013852291271104
 30
0.0
  0
LEADER
  5
52C
330
1E
100
AcDbEntity
  8
TEXT_LEADERS
100
AcDbLeader
  3
Standard
 76
     3
 10
3.332949596942947
 20
5.356919223028383
 30
0.0
 10
4.414529468923803
 20
5.79390585664408
 30
0.0
 10
5.221434369779144
 20
5.79390585664408
 30
0.0
  0
LEADER
  5
52D
330
1E
100
AcDbEntity
  8
TEXT_LEADERS
100
AcDbLeader
  3
Standard
 76
     3
 10
2.811130657122951
 20
2.803992582217454
 30
0.0
 10
4.414529468923804
 20
2.156177411776987
 30
0.0
 10
5.221434369779145
 20
2.156177411776987
 30
0.0
211
-1.0
221
0.0
231
0.0
210
0.0
220
0.0
230
-1.0
  0
LEADER
  5
52E
330
1E
100
AcDbEntity
  8
TEXT_LEADERS
100
AcDbLeader
  3
Standard
 76
     3
 10
3.456989383710403
 20
3.128509007143412
 30
0.0
 10
4.414529468923804
 20
3.515380313858054
 30
0.0
 10
5.221434369779145
 20
3.515380313858054
 30
0.0
  0
LEADER
  5
52F
330
1E
100
AcDbEntity
  8
TEXT_LEADERS
100
AcDbLeader
  3
Standard
 76
     3
 10
3.15970919121363
 20
4.202711781125805
 30
0.0
 10
4.414529468923804
 20
4.709692082030464
 30
0.0
 10
5.221434369779145
 20
4.709692082030464
 30
0.0
  0
LEADER
  5
530
330
1E
100
AcDbEntity
  8
TEXT_LEADERS
100
AcDbLeader
  3
Standard
 76
     3
 10
3.332949596942947
 20
5.356919223028383
 30
0.0
 10
4.414529468923803
 20
5.79390585664408
 30
0.0
 10
5.221434369779144
 20
5.79390585664408
 30
0.0
  0
LEADER
  5
531
330
1E
100
AcDbEntity
  8
TEXT_LEADERS
100
AcDbLeader
  3
Standard
 76
     3
 10
2.965946415718542
 20
4.795661212016971
 30
0.0
 10
4.414529468923804
 20
5.425221009570616
 30
0.0
 10
5.221434369779145
 20
5.425221009570616
 30
0.0
  0
LEADER
  5
532
330
1E
100
AcDbEntity
  8
TEXT_LEADERS
100
AcDbLeader
  3
Standard
 76
     3
 10
2.439766346531193
 20
4.215996200012374
 30
0.0
 10
4.414529468923804
 20
5.013852291271104
 30
0.0
 10
5.221434369779145
 20
5.013852291271104
 30
0.0
  0
LEADER
  5
533
330
1E
100
AcDbEntity
  8
TEXT_LEADERS
100
AcDbLeader
  3
Standard
 76
     3
 10
2.350909820425177
 20
3.564889891390131
 30
0.0
 10
4.414529468923804
 20
4.398646349532296
 30
0.0
 10
5.221434369779145
 20
4.398646349532296
 30
0.0
  0
LEADER
  5
534
330
1E
100
AcDbEntity
  8
TEXT_BUBBLES
100
AcDbLeader
  3
Standard
 76
     2
 10
2.811130657122951
 20
2.803992582217454
 30
0.0
 10
3.710340319897042
 20
2.390185017702944
 30
0.0
  0
LEADER
  5
535
330
1E
100
AcDbEntity
  8
TEXT_BUBBLES
100
AcDbLeader
  3
Standard
 76
     2
 10
2.350909820425177
 20
3.547215688606278
 30
0.0
 10
3.710496610471292
 20
4.099738299150998
 30
0.0
  0
LEADER
  5
536
330
1E
100
AcDbEntity
  8
TEXT_BUBBLES
100
AcDbLeader
  3
Standard
 76
     2
 10
2.439766346531193
 20
4.215996200012374
 30
0.0
 10
3.710340319897042
 20
4.775787536393877
 30
0.0
  0
LEADER
  5
537
330
1E
100
AcDbEntity
  8
TEXT_BUBBLES
100
AcDbLeader
  3
Standard
 76
     2
 10
2.969146951572033
 20
4.763358327442348
 30
0.0
 10
3.710340319897042
 20
5.114182762426406
 30
0.0
  0
LEADER
  5
538
330
1E
100
AcDbEntity
  8
TEXT_BUBBLES
100
AcDbLeader
  3
Standard
 76
     2
 10
3.332949596942947
 20
5.356919223028383
 30
0.0
 10
3.71034031989704
 20
5.489344907820047
 30
0.0
  0
LEADER
  5
539
330
1E
100
AcDbEntity
  8
TEXT_BUBBLES
100
AcDbLeader
  3
Standard
 76
     2
 10
3.15970919121363
 20
4.202711781125805
 30
0.0
 10
3.710340319897042
 20
4.456606171512521
 30
0.0
  0
LEADER
  5
53A
330
1E
100
AcDbEntity
  8
TEXT_BUBBLES
100
AcDbLeader
  3
Standard
 76
     2
 10
3.456989383710403
 20
3.128509007143412
 30
0.0
 10
3.710340319897042
 20
3.408282780361399
 30
0.0
  0
INSERT
  5
551
330
1E
100
AcDbEntity
  8
IMAGE
100
AcDbBlockReference
 66
     1
  2
titleblock
 10
0.0348781899348295
 20
-0.3835322333964303
 30
0.0
  0
ATTRIB
  5
552
330
551
100
AcDbEntity
  8
TITLE
100
AcDbText
 10
0.5404337937371715
 20
0.400694863081937
 30
0.0
 40
0.2
  1
D
  7
L200
 72
     4
 11
0.6413205604493135
 21
0.500694863081937
 31
0.0
100
AcDbAttribute
  2
D
 70
     0
  0
ATTRIB
  5
553
330
551
100
AcDbEntity
  8
TITLE
100
AcDbText
 10
1.266320560449313
 20
0.9601800693503202
 30
0.0
 40
0.2
  1

  7
L200
100
AcDbAttribute
  2
TITLE1
 70
     0
  0
ATTRIB
  5
554
330
551
100
AcDbEntity
  8
TITLE
100
AcDbText
 10
1.266320560449313
 20
0.6006948630819373
 30
0.0
 40
0.2
  1
DRAIN VALVE
  7
L200
100
AcDbAttribute
  2
TITLE2
 70
     0
  0
ATTRIB
  5
555
330
551
100
AcDbEntity
  8
TITLE
100
AcDbText
 10
2.748523941103142
 20
0.2092605330618886
 30
0.0
 40
0.2
  1
16A-FDV OR 16A-FDV-075
  7
L200
100
AcDbAttribute
  2
TITLE3
 70
     0
  0
ATTRIB
  5
556
330
551
100
AcDbEntity
  8
TITLE
100
AcDbText
 10
2.748523941103142
 20
-0.1142761525796561
 30
0.0
 40
0.2
  1

  7
L200
100
AcDbAttribute
  2
TITLE4
 70
     0
  0
ATTRIB
  5
557
330
551
100
AcDbEntity
  8
TITLE
 62
     7
100
AcDbText
 10
7.724473972282162
 20
0.5860705581482097
 30
0.0
 40
0.08
  1
1-16-04
  7
L80
 72
     2
 11
8.295902543710733
 21
0.5860705581482097
 31
0.0
100
AcDbAttribute
  2
REVISED
 70
     0
  0
ATTRIB
  5
558
330
551
100
AcDbEntity
  8
TITLE
 62
     7
100
AcDbText
 10
0.2988205604493133
 20
-0.2988205853757089
 30
0.0
 40
0.08
  1
A-16A-FDV OR 075.DWG
  7
L80
100
AcDbAttribute
  2
DWG-NAME
 70
     0
  0
ATTRIB
  5
559
330
551
100
AcDbEntity
  8
TITLE
 62
     7
100
AcDbText
 10
1.266320560449313
 20
0.3170315459990591
 30
0.0
 40
0.1
  1
N.T.S.
  7
L100
100
AcDbAttribute
  2
SCALE
 70
     0
  0
SEQEND
  5
55A
330
551
100
AcDbEntity
  8
IMAGE
  0
HATCH
  5
56A
330
1E
100
AcDbEntity
  8
IMAGE
100
AcDbHatch
 10
0.0
 20
0.0
 30
0.0
210
0.0
220
0.0
230
1.0
  2
EARTH
 70
     0
 71
     0
 91
        1
 92
        7
 72
     0
 73
     1
 93
       12
 10
1.477995075429934
 20
5.330781838369071
 10
1.456583869717829
 20
5.330781838369072
 10
1.456583869717829
 20
5.356919223028384
 10
0.784383701347022
 20
5.356919223028383
 10
0.8403602348857985
 20
5.252706549489854
 10
0.9226416798888987
 20
5.165282367008247
 10
1.014710548322861
 20
5.064879011339389
 10
1.133164348749818
 20
5.002387563034975
 10
1.217685569596243
 20
4.951209374261225
 10
1.397352414939491
 20
4.825187259502127
 10
1.410761833271724
 20
5.017145396540342
 10
1.461982362030478
 20
5.101557083280508
 97
        0
 75
     0
 76
     1
 52
45.0
 41
0.65
 77
     0
 78
     6
 53
45.0
 43
0.0
 44
0.0
 45
0.0
 46
0.229809703885628
 79
     2
 49
0.1625
 49
-0.1625
 53
45.0
 43
-0.0430893194785553
 44
0.0430893194785553
 45
0.0
 46
0.229809703885628
 79
     2
 49
0.1625
 49
-0.1625
 53
45.0
 43
-0.0861786389571105
 44
0.0861786389571105
 45
0.0
 46
0.229809703885628
 79
     2
 49
0.1625
 49
-0.1625
 53
135.0
 43
-0.0861786389571105
 44
0.114904851942814
 45
-0.2298097038856279
 46
0.0
 79
     2
 49
0.1625
 49
-0.1625
 53
135.0
 43
-0.0430893194785552
 44
0.1579941714213692
 45
-0.2298097038856279
 46
0.0
 79
     2
 49
0.1625
 49
-0.1625
 53
135.0
 43
0.0
 44
0.2010834908999244
 45
-0.2298097038856279
 46
0.0
 79
     2
 49
0.1625
 49
-0.1625
 47
0.0041427784850971
 98
        1
 10
1.19901419011779
 20
5.185639274445113
  0
LWPOLYLINE
  5
58A
330
1E
100
AcDbEntity
  8
IMAGE
100
AcDbPolyline
 90
        7
 70
   128
 43
0.0
 10
2.965065431053589
 20
4.804552956164421
 10
2.944001995494681
 20
5.017145396540342
 10
2.891743869012828
 20
5.101557083280508
 10
2.875731155613372
 20
5.330781838369072
 10
2.897142361325477
 20
5.330781838369072
 10
2.897142361325477
 20
5.356919223028384
 10
3.320451693211127
 20
5.356919223028383
  0
HATCH
  5
599
330
1E
100
AcDbEntity
  8
IMAGE
100
AcDbHatch
 10
0.0
 20
0.0
 30
0.0
210
0.0
220
0.0
230
1.0
  2
EARTH
 70
     0
 71
     0
 91
        1
 92
        7
 72
     0
 73
     1
 93
       13
 10
3.276597258251813
 20
5.265252658481679
 10
3.320451693211127
 20
5.356919223028383
 10
2.897142361325477
 20
5.356919223028384
 10
2.897142361325477
 20
5.330781838369072
 10
2.875731155613372
 20
5.330781838369072
 10
2.891743869012828
 20
5.101557083280509
 10
2.944001995494681
 20
5.017145396540341
 10
2.965065431053589
 20
4.804552956164421
 10
3.048966689778302
 20
4.870629259511027
 10
3.070729225834597
 20
4.905435265949657
 10
3.10174309897801
 20
4.987558477796092
 10
3.118330645354101
 20
5.098229632676433
 10
3.2652255823581
 20
5.220055791880469
 97
        0
 75
     0
 76
     1
 52
45.0
 41
0.65
 77
     0
 78
     6
 53
45.0
 43
0.0
 44
0.0
 45
0.0
 46
0.229809703885628
 79
     2
 49
0.1625
 49
-0.1625
 53
45.0
 43
-0.0430893194785553
 44
0.0430893194785553
 45
0.0
 46
0.229809703885628
 79
     2
 49
0.1625
 49
-0.1625
 53
45.0
 43
-0.0861786389571105
 44
0.0861786389571105
 45
0.0
 46
0.229809703885628
 79
     2
 49
0.1625
 49
-0.1625
 53
135.0
 43
-0.0861786389571105
 44
0.114904851942814
 45
-0.2298097038856279
 46
0.0
 79
     2
 49
0.1625
 49
-0.1625
 53
135.0
 43
-0.0430893194785552
 44
0.1579941714213692
 45
-0.2298097038856279
 46
0.0
 79
     2
 49
0.1625
 49
-0.1625
 53
135.0
 43
0.0
 44
0.2010834908999244
 45
-0.2298097038856279
 46
0.0
 79
     2
 49
0.1625
 49
-0.1625
 47
0.0013650081390615
 98
        1
 10
3.092427256839274
 20
5.248262808609193
  0
VIEWPORT
  5
BC
330
1A
100
AcDbEntity
 67
     1
  8
0
100
AcDbViewport
 10
6.172388059701492
 20
4.5
 30
0.0
 40
12.34477611940298
 41
9.0
 68
     1
 69
     1
 12
6.172388059701492
 22
4.5
 13
0.0
 23
0.0
 14
0.14
 24
0.14
 15
0.14
 25
0.14
 16
0.0
 26
0.0
 36
1.0
 17
0.0
 27
0.0
 37
0.0
 42
50.0
 43
0.0
 44
0.0
 45
9.0
 50
0.0
 51
0.0
 72
   100
 90
    32800
  1

281
     0
 71
     0
 74
     0
110
0.0
120
0.0
130
0.0
111
0.0
121
0.0
131
0.0
112
0.0
122
0.0
132
0.0
 79
     0
146
0.0
  0
ENDSEC
  0
SECTION
  2
OBJECTS
  0
DICTIONARY
  5
C
330
0
100
AcDbDictionary
281
     1
  3
ACAD_GROUP
350
D
  3
ACAD_LAYOUT
350
19
  3
ACAD_MLINESTYLE
350
16
  3
ACAD_PLOTSETTINGS
350
18
  3
ACAD_PLOTSTYLENAME
350
E
  3
AcDbVariableDictionary
350
51D
  0
DICTIONARY
  5
D
102
{ACAD_REACTORS
330
C
102
}
330
C
100
AcDbDictionary
281
     1
  0
DICTIONARY
  5
19
102
{ACAD_REACTORS
330
C
102
}
330
C
100
AcDbDictionary
281
     1
  3
Layout1
350
1D
  3
Model
350
21
  0
DICTIONARY
  5
16
102
{ACAD_REACTORS
330
C
102
}
330
C
100
AcDbDictionary
281
     1
  3
Standard
350
17
  0
DICTIONARY
  5
18
102
{ACAD_REACTORS
330
C
102
}
330
C
100
AcDbDictionary
281
     1
  0
ACDBDICTIONARYWDFLT
  5
E
102
{ACAD_REACTORS
330
C
102
}
330
C
100
AcDbDictionary
281
     1
  3
Normal
350
F
100
AcDbDictionaryWithDefault
340
F
  0
DICTIONARY
  5
51D
102
{ACAD_REACTORS
330
C
102
}
330
C
100
AcDbDictionary
281
     1
  3
DIMASSOC
350
520
  3
HIDETEXT
350
51F
  3
SORTENTS
350
51E
  0
LAYOUT
  5
1D
102
{ACAD_REACTORS
330
19
102
}
330
19
100
AcDbPlotSettings
  1

  2
S:\AutoCAD 2002\Plotters\1055B&WDraftShaded.pc3
  4

  6

 40
0.0
 41
0.0
 42
0.0
 43
0.0
 44
0.0
 45
0.0
 46
0.0
 47
0.0
 48
0.0
 49
0.0
140
0.0
141
0.0
142
1.0
143
1.0
 70
   688
 72
     0
 73
     0
 74
     5
  7
TRexLJ5Shaded2.ctb
 75
    16
147
1.0
148
0.0
149
0.0
100
AcDbLayout
  1
Layout1
 70
     1
 71
     1
 10
0.0
 20
0.0
 11
12.0
 21
9.0
 12
0.0
 22
0.0
 32
0.0
 14
1.000000000000000E+20
 24
1.000000000000000E+20
 34
1.000000000000000E+20
 15
-1.000000000000000E+20
 25
-1.000000000000000E+20
 35
-1.000000000000000E+20
146
0.0
 13
0.0
 23
0.0
 33
0.0
 16
1.0
 26
0.0
 36
0.0
 17
0.0
 27
1.0
 37
0.0
 76
     0
330
1A
331
BC
  0
LAYOUT
  5
21
102
{ACAD_REACTORS
330
19
102
}
330
19
100
AcDbPlotSettings
  1

  2
S:\AutoCAD 2002\Plotters\1055B&WDraftShaded.pc3
  4

  6

 40
0.0
 41
0.0
 42
0.0
 43
0.0
 44
0.0
 45
0.0
 46
0.0
 47
0.0
 48
0.0
 49
0.0
140
0.0
141
0.0
142
1.0
143
1.0
 70
  1712
 72
     0
 73
     0
 74
     0
  7
TRexLJ5Shaded2.ctb
 75
     0
147
1.0
148
0.0
149
0.0
100
AcDbLayout
  1
Model
 70
     1
 71
     0
 10
0.0
 20
0.0
 11
12.0
 21
9.0
 12
0.0
 22
0.0
 32
0.0
 14
0.0
 24
0.0
 34
0.0
 15
0.0
 25
0.0
 35
0.0
146
0.0
 13
0.0
 23
0.0
 33
0.0
 16
1.0
 26
0.0
 36
0.0
 17
0.0
 27
1.0
 37
0.0
 76
     0
330
1E
  0
MLINESTYLE
  5
17
102
{ACAD_REACTORS
330
16
102
}
330
16
100
AcDbMlineStyle
  2
STANDARD
 70
     0
  3

 62
   256
 51
90.0
 52
90.0
 71
     2
 49
0.5
 62
   256
  6
BYLAYER
 49
-0.5
 62
   256
  6
BYLAYER
  0
ACDBPLACEHOLDER
  5
F
102
{ACAD_REACTORS
330
E
102
}
330
E
  0
DICTIONARYVAR
  5
520
102
{ACAD_REACTORS
330
51D
102
}
330
51D
100
DictionaryVariables
280
     0
  1
1
  0
DICTIONARYVAR
  5
51F
102
{ACAD_REACTORS
330
51D
102
}
330
51D
100
DictionaryVariables
280
     0
  1
1
  0
DICTIONARYVAR
  5
51E
102
{ACAD_REACTORS
330
51D
102
}
330
51D
100
DictionaryVariables
280
     0
  1
1
  0
ENDSEC
  0
EOF
