  0
SECTION
  2
HEADER
  9
$ACADVER
  1
AC1015
  9
$ACADMAINTVER
 70
    13
  9
$DWGCODEPAGE
  3
ANSI_1252
  9
$INSBASE
 10
0.0
 20
0.0
 30
0.0
  9
$EXTMIN
 10
0.0
 20
0.0
 30
0.0
  9
$EXTMAX
 10
16.49
 20
10.44
 30
0.03
  9
$LIMMIN
 10
0.0
 20
0.0
  9
$LIMMAX
 10
8.5
 20
11.0
  9
$ORTHOMODE
 70
     0
  9
$REGENMODE
 70
     0
  9
$FILLMODE
 70
     1
  9
$QTEXTMODE
 70
     0
  9
$MIRRTEXT
 70
     0
  9
$LTSCALE
 40
5.0
  9
$ATTMODE
 70
     1
  9
$TEXTSIZE
 40
0.1
  9
$TRACEWID
 40
0.05
  9
$TEXTSTYLE
  7
ROMANS
  9
$CLAYER
  8
Image
  9
$CELTYPE
  6
BYLAYER
  9
$CECOLOR
 62
   256
  9
$CELTSCALE
 40
1.0
  9
$DISPSILH
 70
     0
  9
$DIMSCALE
 40
1.0
  9
$DIMASZ
 40
0.18
  9
$DIMEXO
 40
0.0625
  9
$DIMDLI
 40
0.3799999999999999
  9
$DIMRND
 40
0.0
  9
$DIMDLE
 40
0.0
  9
$DIMEXE
 40
0.18
  9
$DIMTP
 40
0.0
  9
$DIMTM
 40
0.0
  9
$DIMTXT
 40
0.18
  9
$DIMCEN
 40
0.09
  9
$DIMTSZ
 40
0.0
  9
$DIMTOL
 70
     0
  9
$DIMLIM
 70
     0
  9
$DIMTIH
 70
     1
  9
$DIMTOH
 70
     1
  9
$DIMSE1
 70
     0
  9
$DIMSE2
 70
     0
  9
$DIMTAD
 70
     0
  9
$DIMZIN
 70
     0
  9
$DIMBLK
  1

  9
$DIMASO
 70
     0
  9
$DIMSHO
 70
     0
  9
$DIMPOST
  1

  9
$DIMAPOST
  1

  9
$DIMALT
 70
     0
  9
$DIMALTD
 70
     2
  9
$DIMALTF
 40
25.4
  9
$DIMLFAC
 40
1.0
  9
$DIMTOFL
 70
     0
  9
$DIMTVP
 40
0.0
  9
$DIMTIX
 70
     0
  9
$DIMSOXD
 70
     0
  9
$DIMSAH
 70
     0
  9
$DIMBLK1
  1

  9
$DIMBLK2
  1

  9
$DIMSTYLE
  2
STANDARD
  9
$DIMCLRD
 70
     0
  9
$DIMCLRE
 70
     0
  9
$DIMCLRT
 70
     0
  9
$DIMTFAC
 40
1.0
  9
$DIMGAP
 40
0.09
  9
$DIMJUST
 70
     0
  9
$DIMSD1
 70
     0
  9
$DIMSD2
 70
     0
  9
$DIMTOLJ
 70
     1
  9
$DIMTZIN
 70
     0
  9
$DIMALTZ
 70
     0
  9
$DIMALTTZ
 70
     0
  9
$DIMUPT
 70
     0
  9
$DIMDEC
 70
     4
  9
$DIMTDEC
 70
     4
  9
$DIMALTU
 70
     2
  9
$DIMALTTD
 70
     2
  9
$DIMTXSTY
  7
STANDARD
  9
$DIMAUNIT
 70
     0
  9
$DIMADEC
 70
     0
  9
$DIMALTRND
 40
0.0
  9
$DIMAZIN
 70
     0
  9
$DIMDSEP
 70
    46
  9
$DIMATFIT
 70
     3
  9
$DIMFRAC
 70
     0
  9
$DIMLDRBLK
  1

  9
$DIMLUNIT
 70
     2
  9
$DIMLWD
 70
    -2
  9
$DIMLWE
 70
    -2
  9
$DIMTMOVE
 70
     0
  9
$LUNITS
 70
     2
  9
$LUPREC
 70
     4
  9
$SKETCHINC
 40
0.1
  9
$FILLETRAD
 40
0.0
  9
$AUNITS
 70
     1
  9
$AUPREC
 70
     4
  9
$MENU
  1
c:\acad13nt\win\SUPPORT\ACAD
  9
$ELEVATION
 40
0.0
  9
$PELEVATION
 40
0.0
  9
$THICKNESS
 40
0.0
  9
$LIMCHECK
 70
     0
  9
$CHAMFERA
 40
0.0
  9
$CHAMFERB
 40
0.0
  9
$CHAMFERC
 40
0.0
  9
$CHAMFERD
 40
0.0
  9
$SKPOLY
 70
     0
  9
$TDCREATE
 40
2450518.425246990
  9
$TDUCREATE
 40
2450518.716913657
  9
$TDUPDATE
 40
2453027.526363125
  9
$TDUUPDATE
 40
2453027.818029791
  9
$TDINDWG
 40
0.4383879167
  9
$TDUSRTIMER
 40
0.4383879167
  9
$USRTIMER
 70
     1
  9
$ANGBASE
 50
0.0
  9
$ANGDIR
 70
     1
  9
$PDMODE
 70
     0
  9
$PDSIZE
 40
0.0
  9
$PLINEWID
 40
0.017
  9
$SPLFRAME
 70
     0
  9
$SPLINETYPE
 70
     6
  9
$SPLINESEGS
 70
     8
  9
$HANDSEED
  5
16FA
  9
$SURFTAB1
 70
     6
  9
$SURFTAB2
 70
     6
  9
$SURFTYPE
 70
     6
  9
$SURFU
 70
     6
  9
$SURFV
 70
     6
  9
$UCSBASE
  2

  9
$UCSNAME
  2

  9
$UCSORG
 10
0.0
 20
0.0
 30
0.0
  9
$UCSXDIR
 10
1.0
 20
0.0
 30
0.0
  9
$UCSYDIR
 10
0.0
 20
1.0
 30
0.0
  9
$UCSORTHOREF
  2

  9
$UCSORTHOVIEW
 70
     0
  9
$UCSORGTOP
 10
0.0
 20
0.0
 30
0.0
  9
$UCSORGBOTTOM
 10
0.0
 20
0.0
 30
0.0
  9
$UCSORGLEFT
 10
0.0
 20
0.0
 30
0.0
  9
$UCSORGRIGHT
 10
0.0
 20
0.0
 30
0.0
  9
$UCSORGFRONT
 10
0.0
 20
0.0
 30
0.0
  9
$UCSORGBACK
 10
0.0
 20
0.0
 30
0.0
  9
$PUCSBASE
  2

  9
$PUCSNAME
  2

  9
$PUCSORG
 10
0.0
 20
0.0
 30
0.0
  9
$PUCSXDIR
 10
1.0
 20
0.0
 30
0.0
  9
$PUCSYDIR
 10
0.0
 20
1.0
 30
0.0
  9
$PUCSORTHOREF
  2

  9
$PUCSORTHOVIEW
 70
     0
  9
$PUCSORGTOP
 10
0.0
 20
0.0
 30
0.0
  9
$PUCSORGBOTTOM
 10
0.0
 20
0.0
 30
0.0
  9
$PUCSORGLEFT
 10
0.0
 20
0.0
 30
0.0
  9
$PUCSORGRIGHT
 10
0.0
 20
0.0
 30
0.0
  9
$PUCSORGFRONT
 10
0.0
 20
0.0
 30
0.0
  9
$PUCSORGBACK
 10
0.0
 20
0.0
 30
0.0
  9
$USERI1
 70
     0
  9
$USERI2
 70
     0
  9
$USERI3
 70
     0
  9
$USERI4
 70
     0
  9
$USERI5
 70
     0
  9
$USERR1
 40
0.0
  9
$USERR2
 40
0.0
  9
$USERR3
 40
0.0
  9
$USERR4
 40
0.0
  9
$USERR5
 40
0.0
  9
$WORLDVIEW
 70
     1
  9
$SHADEDGE
 70
     3
  9
$SHADEDIF
 70
    70
  9
$TILEMODE
 70
     1
  9
$MAXACTVP
 70
    16
  9
$PINSBASE
 10
0.0
 20
0.0
 30
0.0
  9
$PLIMCHECK
 70
     0
  9
$PEXTMIN
 10
1.000000000000000E+20
 20
1.000000000000000E+20
 30
1.000000000000000E+20
  9
$PEXTMAX
 10
-1.000000000000000E+20
 20
-1.000000000000000E+20
 30
-1.000000000000000E+20
  9
$PLIMMIN
 10
0.0
 20
0.0
  9
$PLIMMAX
 10
12.0
 20
9.0
  9
$UNITMODE
 70
     0
  9
$VISRETAIN
 70
     0
  9
$PLINEGEN
 70
     1
  9
$PSLTSCALE
 70
     0
  9
$TREEDEPTH
 70
  3020
  9
$CMLSTYLE
  2
STANDARD
  9
$CMLJUST
 70
     0
  9
$CMLSCALE
 40
1.0
  9
$PROXYGRAPHICS
 70
     1
  9
$MEASUREMENT
 70
     0
  9
$CELWEIGHT
370
    -1
  9
$ENDCAPS
280
     0
  9
$JOINSTYLE
280
     0
  9
$LWDISPLAY
290
     0
  9
$INSUNITS
 70
     0
  9
$HYPERLINKBASE
  1

  9
$STYLESHEET
  1
OKIColorShaded.ctb
  9
$XEDIT
290
     1
  9
$CEPSNTYPE
380
     0
  9
$PSTYLEMODE
290
     1
  9
$FINGERPRINTGUID
  2
{A0D6346A-37E7-465F-9CB7-F44636EB6E4E}
  9
$VERSIONGUID
  2
{978950C8-6148-4367-98BE-4186CA72F6FE}
  9
$EXTNAMES
290
     1
  9
$PSVPSCALE
 40
0.0
  9
$OLESTARTUP
290
     0
  0
ENDSEC
  0
SECTION
  2
CLASSES
  0
CLASS
  1
LWPOLYLINE
  2
AcDbPolyline
  3
AutoCAD 2000
 90
    32768
280
     0
281
     1
  0
CLASS
  1
XRECORD
  2
AcDbXrecord
  3
AutoCAD 2000
 90
    32768
280
     0
281
     0
  0
CLASS
  1
ACDBDICTIONARYWDFLT
  2
AcDbDictionaryWithDefault
  3
AutoCAD 2000
 90
        0
280
     0
281
     0
  0
CLASS
  1
ACDBPLACEHOLDER
  2
AcDbPlaceHolder
  3
AutoCAD 2000
 90
        0
280
     0
281
     0
  0
CLASS
  1
LAYOUT
  2
AcDbLayout
  3
AutoCAD 2000
 90
        0
280
     0
281
     0
  0
CLASS
  1
PLOTSETTINGS
  2
AcDbPlotSettings
  3
AutoCAD 2000
 90
        0
280
     0
281
     0
  0
CLASS
  1
DICTIONARYVAR
  2
AcDbDictionaryVar
  3
AutoCAD 2000
 90
        0
280
     0
281
     0
  0
CLASS
  1
SORTENTSTABLE
  2
AcDbSortentsTable
  3
AutoCAD 2000
 90
        0
280
     0
281
     0
  0
ENDSEC
  0
SECTION
  2
TABLES
  0
TABLE
  2
VPORT
  5
8
330
0
100
AcDbSymbolTable
 70
     4
  0
VPORT
  5
16F9
330
8
100
AcDbSymbolTableRecord
100
AcDbViewportTableRecord
  2
*Active
 70
     0
 10
0.0
 20
0.0
 11
1.0
 21
1.0
 12
8.399692992273413
 22
5.220182574606152
 13
0.0
 23
0.0
 14
2.029204650849912
 24
0.01
 15
0.0
 25
0.0
 16
0.0
 26
0.0
 36
1.0
 17
0.0
 27
0.0
 37
0.0
 40
10.53286380387273
 41
1.639044943820224
 42
50.0
 43
0.0
 44
0.0
 50
0.0
 51
0.0
 71
     0
 72
 20000
 73
     1
 74
     1
 75
     0
 76
     0
 77
     0
 78
     0
281
     0
 65
     1
110
0.0
120
0.0
130
0.0
111
1.0
121
0.0
131
0.0
112
0.0
122
1.0
132
0.0
 79
     0
146
0.0
  0
ENDTAB
  0
TABLE
  2
LTYPE
  5
5
330
0
100
AcDbSymbolTable
 70
     1
  0
LTYPE
  5
12
330
5
100
AcDbSymbolTableRecord
100
AcDbLinetypeTableRecord
  2
BYBLOCK
 70
     0
  3

 72
    65
 73
     0
 40
0.0
  0
LTYPE
  5
13
330
5
100
AcDbSymbolTableRecord
100
AcDbLinetypeTableRecord
  2
BYLAYER
 70
     0
  3

 72
    65
 73
     0
 40
0.0
  0
LTYPE
  5
14
330
5
100
AcDbSymbolTableRecord
100
AcDbLinetypeTableRecord
  2
CONTINUOUS
 70
     0
  3
Solid line
 72
    65
 73
     0
 40
0.0
  0
ENDTAB
  0
TABLE
  2
LAYER
  5
2
102
{ACAD_XDICTIONARY
360
16AE
102
}
330
0
100
AcDbSymbolTable
 70
     4
  0
LAYER
  5
F
330
2
100
AcDbSymbolTableRecord
100
AcDbLayerTableRecord
  2
0
 70
     0
 62
     7
  6
CONTINUOUS
370
    -3
390
1233
  0
LAYER
  5
36
330
2
100
AcDbSymbolTableRecord
100
AcDbLayerTableRecord
  2
TITLE
 70
     0
 62
     4
  6
CONTINUOUS
370
    -3
390
1233
  0
LAYER
  5
1338
330
2
100
AcDbSymbolTableRecord
100
AcDbLayerTableRecord
  2
Image
 70
     0
 62
     7
  6
CONTINUOUS
370
    -3
390
1233
  0
LAYER
  5
1339
330
2
100
AcDbSymbolTableRecord
100
AcDbLayerTableRecord
  2
TEXT_BUBBLES
 70
     0
 62
     6
  6
CONTINUOUS
370
    -3
390
1233
1001
RAK
1000
{EFB-CP-BUBBLES
1070
     0
1070
     6
1000
CONTINUOUS
1000
EFB-CP-BUBBLES}
1000
{EFB-CP-LEADERS
1070
     0
1070
    -6
1000
CONTINUOUS
1000
EFB-CP-LEADERS}
1000
{EFB-CP-BSP-BUBBLES
1070
     0
1070
     6
1000
CONTINUOUS
1000
EFB-CP-BSP-BUBBLES}
1000
{EFB-CP-BSP-LEADERS
1070
     0
1070
    -6
1000
CONTINUOUS
1000
EFB-CP-BSP-LEADERS}
1000
{EFB-CP-NP-BUBBLES
1070
     0
1070
     6
1000
CONTINUOUS
1000
EFB-CP-NP-BUBBLES}
1000
{EFB-CP-NP-LEADERS
1070
     0
1070
    -6
1000
CONTINUOUS
1000
EFB-CP-NP-LEADERS}
1000
{EFB-CP-PRS-BUBBLES
1070
     0
1070
     6
1000
CONTINUOUS
1000
EFB-CP-PRS-BUBBLES}
1000
{EFB-CP-PRS-LEADERS
1070
     0
1070
    -6
1000
CONTINUOUS
1000
EFB-CP-PRS-LEADERS}
1000
{EFB-CP-PRS-BSP-BUBBLES
1070
     0
1070
     6
1000
CONTINUOUS
1000
EFB-CP-PRS-BSP-BUBBLES}
1000
{EFB-CP-PRS-BSP-LEADERS
1070
     0
1070
    -6
1000
CONTINUOUS
1000
EFB-CP-PRS-BSP-LEADERS}
1000
{EFB-CP-PRS-NP-BUBBLES
1070
     0
1070
     6
1000
CONTINUOUS
1000
EFB-CP-PRS-NP-BUBBLES}
1000
{EFB-CP-PRS-NP-LEADERS
1070
     0
1070
    -6
1000
CONTINUOUS
1000
EFB-CP-PRS-NP-LEADERS}
  0
ENDTAB
  0
TABLE
  2
STYLE
  5
3
330
0
100
AcDbSymbolTable
 70
     6
  0
STYLE
  5
10
330
3
100
AcDbSymbolTableRecord
100
AcDbTextStyleTableRecord
  2
STANDARD
 70
     0
 40
0.0
 41
1.0
 50
0.0
 71
     0
 42
0.2
  3
TXT
  4

  0
STYLE
  5
2A
330
3
100
AcDbSymbolTableRecord
100
AcDbTextStyleTableRecord
  2
ROMANS
 70
     0
 40
0.0
 41
1.0
 50
0.0
 71
     0
 42
0.1
  3
romans
  4

  0
STYLE
  5
2B
330
3
100
AcDbSymbolTableRecord
100
AcDbTextStyleTableRecord
  2
HLTSOLID
 70
     0
 40
0.0
 41
1.0
 50
0.0
 71
     0
 42
0.3912543662120207
  3
hltsolid
  4

  0
STYLE
  5
133B
330
3
100
AcDbSymbolTableRecord
100
AcDbTextStyleTableRecord
  2
L100
 70
     0
 40
0.1
 41
1.0
 50
0.0
 71
     0
 42
0.1
  3
SIMPLEX
  4

  0
STYLE
  5
133C
330
3
100
AcDbSymbolTableRecord
100
AcDbTextStyleTableRecord
  2
L200
 70
     0
 40
0.2
 41
1.0
 50
0.0
 71
     0
 42
0.081
  3
ARIAL.TTF
  4

1001
ACAD
1000
Arial
1071
       34
  0
STYLE
  5
133D
330
3
100
AcDbSymbolTableRecord
100
AcDbTextStyleTableRecord
  2
L80
 70
     0
 40
0.08
 41
1.0
 50
0.0
 71
     0
 42
0.08
  3
ROMANS
  4

  0
ENDTAB
  0
TABLE
  2
VIEW
  5
6
330
0
100
AcDbSymbolTable
 70
     1
  0
VIEW
  5
1635
330
6
100
AcDbSymbolTableRecord
100
AcDbViewTableRecord
  2
PS1
 70
     0
 40
10.44
 10
8.244999999999999
 20
5.219999999999999
 41
16.49
 11
0.0
 21
0.0
 31
1.0
 12
0.0
 22
0.0
 32
0.0
 42
50.0
 43
0.0
 44
0.0
 50
0.0
 71
     0
281
     0
 72
     1
110
0.0
120
0.0
130
0.0
111
1.0
121
0.0
131
0.0
112
0.0
122
1.0
132
0.0
 79
     0
146
0.0
  0
ENDTAB
  0
TABLE
  2
UCS
  5
7
330
0
100
AcDbSymbolTable
 70
     0
  0
ENDTAB
  0
TABLE
  2
APPID
  5
9
330
0
100
AcDbSymbolTable
 70
    28
  0
APPID
  5
11
330
9
100
AcDbSymbolTableRecord
100
AcDbRegAppTableRecord
  2
ACAD
 70
     0
  0
APPID
  5
1141
330
9
100
AcDbSymbolTableRecord
100
AcDbRegAppTableRecord
  2
RAK
 70
     0
  0
APPID
  5
133E
330
9
100
AcDbSymbolTableRecord
100
AcDbRegAppTableRecord
  2
CLSI_CADWRITER
 70
     0
  0
APPID
  5
133F
330
9
100
AcDbSymbolTableRecord
100
AcDbRegAppTableRecord
  2
WID_Sprinkler
 70
     0
  0
APPID
  5
1340
330
9
100
AcDbSymbolTableRecord
100
AcDbRegAppTableRecord
  2
WID_Valve
 70
     0
  0
APPID
  5
1341
330
9
100
AcDbSymbolTableRecord
100
AcDbRegAppTableRecord
  2
WID_Fitting
 70
     0
  0
APPID
  5
1342
330
9
100
AcDbSymbolTableRecord
100
AcDbRegAppTableRecord
  2
WID_HPNode
 70
     0
  0
APPID
  5
1343
330
9
100
AcDbSymbolTableRecord
100
AcDbRegAppTableRecord
  2
WID_Node
 70
     0
  0
APPID
  5
1344
330
9
100
AcDbSymbolTableRecord
100
AcDbRegAppTableRecord
  2
WID_Conduit
 70
     0
  0
APPID
  5
1345
330
9
100
AcDbSymbolTableRecord
100
AcDbRegAppTableRecord
  2
WID_SprinklerSection
 70
     0
  0
APPID
  5
1346
330
9
100
AcDbSymbolTableRecord
100
AcDbRegAppTableRecord
  2
WID_MainLineSection
 70
     0
  0
APPID
  5
1347
330
9
100
AcDbSymbolTableRecord
100
AcDbRegAppTableRecord
  2
WID_ManifoldSection
 70
     0
  0
APPID
  5
1348
330
9
100
AcDbSymbolTableRecord
100
AcDbRegAppTableRecord
  2
WID_DripSection
 70
     0
  0
APPID
  5
1349
330
9
100
AcDbSymbolTableRecord
100
AcDbRegAppTableRecord
  2
WID_HPSection
 70
     0
  0
APPID
  5
134A
330
9
100
AcDbSymbolTableRecord
100
AcDbRegAppTableRecord
  2
WID_Sleeve
 70
     0
  0
APPID
  5
134B
330
9
100
AcDbSymbolTableRecord
100
AcDbRegAppTableRecord
  2
WID_Layout
 70
     0
  0
APPID
  5
134C
330
9
100
AcDbSymbolTableRecord
100
AcDbRegAppTableRecord
  2
WID_Island
 70
     0
  0
APPID
  5
134D
330
9
100
AcDbSymbolTableRecord
100
AcDbRegAppTableRecord
  2
WID_Controller
 70
     0
  0
APPID
  5
134E
330
9
100
AcDbSymbolTableRecord
100
AcDbRegAppTableRecord
  2
WID_SprinklerLateral
 70
     0
  0
APPID
  5
134F
330
9
100
AcDbSymbolTableRecord
100
AcDbRegAppTableRecord
  2
WID_HPDripLateral
 70
     0
  0
APPID
  5
1350
330
9
100
AcDbSymbolTableRecord
100
AcDbRegAppTableRecord
  2
WID_LabelPipeSize
 70
     0
  0
APPID
  5
1351
330
9
100
AcDbSymbolTableRecord
100
AcDbRegAppTableRecord
  2
WID_LabelPipeSegment
 70
     0
  0
APPID
  5
1352
330
9
100
AcDbSymbolTableRecord
100
AcDbRegAppTableRecord
  2
WID_LabelValveDesignator
 70
     0
  0
APPID
  5
1353
330
9
100
AcDbSymbolTableRecord
100
AcDbRegAppTableRecord
  2
WID_CheckArc
 70
     0
  0
APPID
  5
1354
330
9
100
AcDbSymbolTableRecord
100
AcDbRegAppTableRecord
  2
WID_ObjectType
 70
     0
  0
APPID
  5
1355
330
9
100
AcDbSymbolTableRecord
100
AcDbRegAppTableRecord
  2
WID_DripLateral
 70
     0
  0
APPID
  5
1356
330
9
100
AcDbSymbolTableRecord
100
AcDbRegAppTableRecord
  2
ABNSLEADERTOOLS
 70
     0
  0
APPID
  5
1357
330
9
100
AcDbSymbolTableRecord
100
AcDbRegAppTableRecord
  2
DCO15
 70
     0
  0
ENDTAB
  0
TABLE
  2
DIMSTYLE
  5
A
330
0
100
AcDbSymbolTable
 70
     1
100
AcDbDimStyleTable
 71
     0
  0
DIMSTYLE
105
7D9
330
A
100
AcDbSymbolTableRecord
100
AcDbDimStyleTableRecord
  2
STANDARD
 70
     0
340
10
  0
ENDTAB
  0
TABLE
  2
BLOCK_RECORD
  5
1
330
0
100
AcDbSymbolTable
 70
     5
  0
BLOCK_RECORD
  5
18
102
{ACAD_XDICTIONARY
360
154C
102
}
330
1
100
AcDbSymbolTableRecord
100
AcDbBlockTableRecord
  2
*MODEL_SPACE
340
1236
  0
BLOCK_RECORD
  5
15
330
1
100
AcDbSymbolTableRecord
100
AcDbBlockTableRecord
  2
*PAPER_SPACE
340
1237
  0
BLOCK_RECORD
  5
123C
330
1
100
AcDbSymbolTableRecord
100
AcDbBlockTableRecord
  2
TITLBLK
340
0
102
{BLKREFS
331
139A
102
}
  0
BLOCK_RECORD
  5
125D
330
1
100
AcDbSymbolTableRecord
100
AcDbBlockTableRecord
  2
bubble
340
0
310
2800000020000000200000000100080000000000000400000000000000000000000000000000000000000000000080000080000000808000800000008000800080800000C0C0C000C0DCC000F0CAA6000020400000206000002080000020A0000020C0000020E00000400000004020000040400000406000004080000040A0
310
000040C0000040E00000600000006020000060400000606000006080000060A0000060C0000060E00000800000008020000080400000806000008080000080A0000080C0000080E00000A0000000A0200000A0400000A0600000A0800000A0A00000A0C00000A0E00000C0000000C0200000C0400000C0600000C0800000C0
310
A00000C0C00000C0E00000E0000000E0200000E0400000E0600000E0800000E0A00000E0C00000E0E00040000000400020004000400040006000400080004000A0004000C0004000E00040200000402020004020400040206000402080004020A0004020C0004020E000404000004040200040404000404060004040800040
310
40A0004040C0004040E00040600000406020004060400040606000406080004060A0004060C0004060E00040800000408020004080400040806000408080004080A0004080C0004080E00040A0000040A0200040A0400040A0600040A0800040A0A00040A0C00040A0E00040C0000040C0200040C0400040C0600040C08000
310
40C0A00040C0C00040C0E00040E0000040E0200040E0400040E0600040E0800040E0A00040E0C00040E0E00080000000800020008000400080006000800080008000A0008000C0008000E00080200000802020008020400080206000802080008020A0008020C0008020E00080400000804020008040400080406000804080
310
008040A0008040C0008040E00080600000806020008060400080606000806080008060A0008060C0008060E00080800000808020008080400080806000808080008080A0008080C0008080E00080A0000080A0200080A0400080A0600080A0800080A0A00080A0C00080A0E00080C0000080C0200080C0400080C0600080C0
310
800080C0A00080C0C00080C0E00080E0000080E0200080E0400080E0600080E0800080E0A00080E0C00080E0E000C0000000C0002000C0004000C0006000C0008000C000A000C000C000C000E000C0200000C0202000C0204000C0206000C0208000C020A000C020C000C020E000C0400000C0402000C0404000C0406000C0
310
408000C040A000C040C000C040E000C0600000C0602000C0604000C0606000C0608000C060A000C060C000C060E000C0800000C0802000C0804000C0806000C0808000C080A000C080C000C080E000C0A00000C0A02000C0A04000C0A06000C0A08000C0A0A000C0A0C000C0A0E000C0C00000C0C02000C0C04000C0C06000
310
C0C08000C0C0A000F0FBFF00A4A0A000808080000000FF0000FF000000FFFF00FF000000FF00FF00FFFF0000FFFFFF0008080808080808080808080808080808080808080808080808080808080808080808080808080808080808080808080808080808080808080808080808080808080808080808080808080808FDFDFD
310
08080808080808080808080808080808080808080808080808080808FD080808FDFDFDFDFDFD0808080808080808080808080808080808080808FDFD08080808080808080808FDFDFDFD080808080808080808080808080808FD08080808080808080808080808080808FD08080808080808080808080808FD080808080808
310
0808080808080808080808FD0808080808080808080808FDFD08080808080808080808080808080808080808FD080808080808080808FD080808080808080808080808080808080808080808FD0808080808080808FD08FD0808080808080808FD0808FD0808080808080808FDFD08080808080808FD0808FD080808080808
310
FD08080808FD080808080808FD08FD08080808080808FD0808FD080808080808FD08080808FD080808080808FD0808FD080808080808FD080808FD08080808FD080808080808FD08080808FD080808FD080808080808FD08080808FD0808FD0808080808080808FD0808FD0808080808FD0808080808FD08080808FD0808FD
310
0808080808080808FD0808FD0808080808FD0808080808FD0808080808FDFD08080808080808080808FDFD08080808080808FD08080808FD0808080808FDFD08080808080808080808FDFD08080808080808FD08080808FD08080808FD0808FD0808080808080808FD0808FD0808080808FD0808080808FD08080808FD0808
310
FD0808080808080808FD0808FD0808080808FD0808080808FD080808FD08080808FD080808080808FD08080808FD080808FD080808080808FD0808FD080808080808FD08080808FD080808080808FD0808FD080808080808FD0808FD080808080808FD08080808FD080808080808FD08FD08080808080808FD08FD08080808
310
08080808FD0808FD0808080808080808FDFD0808080808080808FD080808080808080808080808080808080808080808FD08080808080808080808FDFD08080808080808080808080808080808080808FD080808080808080808080808FD0808080808080808080808080808080808FD0808080808080808080808080808FD
310
08080808080808080808080808080808FD080808080808080808080808080808FDFD0808080808080808080808FDFDFD080808080808080808080808080808080808FD08080808FDFDFDFDFDFD08080808080808080808080808080808080808080808FDFDFDFD080808080808080808080808080808080808080808080808
310
0808080808080808080808080808080808080808080808080808080808080808080808080808080808080808080808080808080808080808
102
{BLKREFS
331
136A
331
136D
331
1370
331
1373
331
1376
331
1379
331
137C
331
137F
331
1382
331
1385
331
1388
331
138B
331
157B
331
1580
331
1585
331
158A
331
158F
331
1594
331
1597
331
159F
331
15A4
331
15A7
331
15AE
331
1604
331
1646
331
1650
331
168E
331
1691
102
}
  0
BLOCK_RECORD
  5
1262
330
1
100
AcDbSymbolTableRecord
100
AcDbBlockTableRecord
  2
PlotLayout2002
340
0
102
{BLKREFS
331
1266
331
1630
102
}
  0
BLOCK_RECORD
  5
1265
330
1
100
AcDbSymbolTableRecord
100
AcDbBlockTableRecord
  2
wid
340
0
102
{BLKREFS
331
1397
331
1398
102
}
  0
BLOCK_RECORD
  5
162F
330
1
100
AcDbSymbolTableRecord
100
AcDbBlockTableRecord
  2
pagesetups
340
0
102
{BLKREFS
331
1634
102
}
  0
ENDTAB
  0
ENDSEC
  0
SECTION
  2
BLOCKS
  0
BLOCK
  5
3B
330
18
100
AcDbEntity
  8
0
100
AcDbBlockBegin
  2
*MODEL_SPACE
 70
     0
 10
0.0
 20
0.0
 30
0.0
  3
*MODEL_SPACE
  1

  0
ENDBLK
  5
3C
330
18
100
AcDbEntity
  8
0
100
AcDbBlockEnd
  0
BLOCK
  5
39
330
15
100
AcDbEntity
 67
     1
  8
0
100
AcDbBlockBegin
  2
*PAPER_SPACE
 70
     0
 10
0.0
 20
0.0
 30
0.0
  3
*PAPER_SPACE
  1

  0
ENDBLK
  5
3A
330
15
100
AcDbEntity
 67
     1
  8
0
100
AcDbBlockEnd
  0
BLOCK
  5
1247
330
123C
100
AcDbEntity
  8
0
100
AcDbBlockBegin
  2
TITLBLK
 70
     2
 10
0.0
 20
0.0
 30
0.0
  3
TITLBLK
  1

  0
LWPOLYLINE
  5
123D
330
123C
100
AcDbEntity
  8
TITLE
 62
     3
100
AcDbPolyline
 90
        2
 70
     0
 43
0.04
 39
0.03
 10
0.3424999999999994
 20
-0.0000000000000003
 10
7.654581983261419
 20
-0.0000000000000003
  0
ATTDEF
  5
123E
330
123C
100
AcDbEntity
  8
TITLE
100
AcDbText
 10
0.625
 20
0.0999999999999998
 30
0.0
 40
0.2
  1
TITLE
  7
L200
100
AcDbAttributeDefinition
  3
DETAIL TITLE TOP 2ND LINE
  2
TITLE2
 70
     0
  0
LWPOLYLINE
  5
123F
330
123C
100
AcDbEntity
  8
TITLE
 62
     3
100
AcDbPolyline
 90
        2
 70
     1
 43
0.03
 10
0.0
 20
-0.3425000000000002
 42
0.9999999999999998
 10
0.0
 20
0.3425000000000002
 42
0.9999999999999998
  0
ATTDEF
  5
1240
330
123C
100
AcDbEntity
  8
TITLE
100
AcDbText
 10
-0.0776944065484311
 20
-0.1000000000000003
 30
0.0
 40
0.2
  1
#
  7
L200
 72
     4
 11
0.0
 21
-0.0000000000000003
 31
0.0
100
AcDbAttributeDefinition
  3
#
  2
#
 70
     0
  0
ATTDEF
  5
1241
330
123C
100
AcDbEntity
  8
TITLE
 62
     7
100
AcDbText
 10
0.625
 20
-0.1836633170828782
 30
0.0
 40
0.1
  1
N.T.S.
  7
L100
100
AcDbAttributeDefinition
  3
SCALE
  2
SCALE
 70
     0
  0
ATTDEF
  5
1242
330
123C
100
AcDbEntity
  8
TITLE
100
AcDbText
 10
2.107203380653828
 20
-0.2914343300200487
 30
0.0
 40
0.2
  1
TITLE2
  7
L200
100
AcDbAttributeDefinition
  3
DETAIL TITLE BOTTOM 1
  2
TITLE3
 70
     0
  0
ATTDEF
  5
1243
330
123C
100
AcDbEntity
  8
TITLE
 62
     7
100
AcDbText
 10
7.570772459451895
 20
-0.1618486459795794
 30
0.0
 40
0.08
  1
-
  7
L80
 72
     2
 11
7.654581983261419
 21
-0.1618486459795794
 31
0.0
100
AcDbAttributeDefinition
  3
DWG-NAME
  2
DWG-NAME
 70
     0
  0
ATTDEF
  5
1244
330
123C
100
AcDbEntity
  8
TITLE
 62
     7
100
AcDbText
 10
7.570772459451895
 20
0.0853756950662722
 30
0.0
 40
0.08
  1
-
  7
L80
 72
     2
 11
7.654581983261419
 21
0.0853756950662722
 31
0.0
100
AcDbAttributeDefinition
  3
REVISION DATE
  2
REVISED
 70
     0
  0
ATTDEF
  5
1245
330
123C
100
AcDbEntity
  8
TITLE
100
AcDbText
 10
0.625
 20
0.459485206268383
 30
0.0
 40
0.2
  1
TITLE
  7
L200
100
AcDbAttributeDefinition
  3
DETAIL TITLE TOP LINE
  2
TITLE1
 70
     0
  0
ATTDEF
  5
1246
330
123C
100
AcDbEntity
  8
TITLE
100
AcDbText
 10
2.107203380653828
 20
-0.6149710156615936
 30
0.0
 40
0.2
  1
TITLE2
  7
L200
100
AcDbAttributeDefinition
  3
DETAIL TITLE BOTTOM 2
  2
TITLE4
 70
     0
  0
ENDBLK
  5
1248
330
123C
100
AcDbEntity
  8
0
100
AcDbBlockEnd
  0
BLOCK
  5
1260
330
125D
100
AcDbEntity
  8
0
100
AcDbBlockBegin
  2
bubble
 70
     2
 10
0.0
 20
0.0
 30
0.0
  3
bubble
  1

  0
CIRCLE
  5
125E
330
125D
100
AcDbEntity
  8
TEXT_BUBBLES
100
AcDbCircle
 10
0.0
 20
0.0
 30
0.0
 40
0.1398891854377198
  0
ATTDEF
  5
125F
330
125D
100
AcDbEntity
  8
TEXT_BUBBLES
100
AcDbText
 10
0.0
 20
0.0
 30
0.0
 40
0.125
  1

  7
ROMANS
 72
     4
 11
0.0
 21
0.0
 31
0.0
100
AcDbAttributeDefinition
  3
Number
  2
XX
 70
     0
  0
ENDBLK
  5
1261
330
125D
100
AcDbEntity
  8
0
100
AcDbBlockEnd
  0
BLOCK
  5
1263
330
1262
100
AcDbEntity
  8
0
100
AcDbBlockBegin
  2
PlotLayout2002
 70
     0
 10
0.0
 20
0.0
 30
0.0
  3
PlotLayout2002
  1

  0
ENDBLK
  5
1264
330
1262
100
AcDbEntity
  8
0
100
AcDbBlockEnd
  0
BLOCK
  5
1267
330
1265
100
AcDbEntity
  8
0
 62
    40
100
AcDbBlockBegin
  2
wid
 70
     0
 10
0.0
 20
0.0
 30
0.0
  3
wid
  1

  0
INSERT
  5
1266
330
1265
100
AcDbEntity
  8
0
100
AcDbBlockReference
  2
PlotLayout2002
 10
0.0
 20
0.0
 30
0.0
  0
ENDBLK
  5
1268
330
1265
100
AcDbEntity
  8
0
 62
    40
100
AcDbBlockEnd
  0
BLOCK
  5
1631
330
162F
100
AcDbEntity
  8
0
100
AcDbBlockBegin
  2
pagesetups
 70
     0
 10
0.0
 20
0.0
 30
0.0
  3
pagesetups
  1

  0
INSERT
  5
1630
330
162F
100
AcDbEntity
  8
0
100
AcDbBlockReference
  2
PlotLayout2002
 10
0.0
 20
0.0
 30
0.0
  0
ENDBLK
  5
1632
330
162F
100
AcDbEntity
  8
0
100
AcDbBlockEnd
  0
ENDSEC
  0
SECTION
  2
ENTITIES
  0
LINE
  5
5B5
330
18
100
AcDbEntity
  8
Image
100
AcDbLine
 10
2.645197577093242
 20
9.005478366040495
 30
0.0
 11
2.645197577093242
 21
9.117796813727096
 31
0.0
  0
LINE
  5
5B6
330
18
100
AcDbEntity
  8
Image
100
AcDbLine
 10
2.645197577093242
 20
9.117796813727096
 30
0.0
 11
3.021069061829855
 21
9.117796813727096
 31
0.0
  0
LINE
  5
5B7
330
18
100
AcDbEntity
  8
Image
100
AcDbLine
 10
2.642057384007999
 20
8.885105135774995
 30
0.0
 11
2.642057384007999
 21
8.56802881855345
 31
0.0
  0
LINE
  5
5B8
330
18
100
AcDbEntity
  8
Image
100
AcDbLine
 10
2.642057384007999
 20
8.56802881855345
 30
0.0
 11
3.024357999651378
 21
8.56802881855345
 31
0.0
  0
LINE
  5
5B9
330
18
100
AcDbEntity
  8
Image
100
AcDbLine
 10
3.024357999651378
 20
8.56802881855345
 30
0.0
 11
3.024357999651378
 21
8.885105135774995
 31
0.0
  0
LINE
  5
5BA
330
18
100
AcDbEntity
  8
Image
100
AcDbLine
 10
3.024357999651378
 20
8.596477722815876
 30
0.0
 11
3.07458635023319
 21
8.596477722815876
 31
0.0
  0
LINE
  5
5BB
330
18
100
AcDbEntity
  8
Image
100
AcDbLine
 10
3.07458635023319
 20
8.596477722815876
 30
0.0
 11
3.07458635023319
 21
8.678195038131738
 31
0.0
  0
LINE
  5
5BC
330
18
100
AcDbEntity
  8
Image
100
AcDbLine
 10
3.07458635023319
 20
8.678195038131738
 30
0.0
 11
3.094952153125817
 21
8.678195038131738
 31
0.0
  0
LINE
  5
5BD
330
18
100
AcDbEntity
  8
Image
100
AcDbLine
 10
3.094952153125817
 20
8.678195038131738
 30
0.0
 11
3.094952153125817
 21
8.664962509054713
 31
0.0
  0
LINE
  5
5BE
330
18
100
AcDbEntity
  8
Image
100
AcDbLine
 10
3.094952153125817
 20
8.664962509054713
 30
0.0
 11
3.185408494238513
 21
8.664962509054713
 31
0.0
  0
LINE
  5
5BF
330
18
100
AcDbEntity
  8
Image
100
AcDbLine
 10
3.024357999651378
 20
8.629076478004069
 30
0.0
 11
3.049244859242367
 21
8.629076478004069
 31
0.0
  0
LINE
  5
5C0
330
18
100
AcDbEntity
  8
Image
100
AcDbLine
 10
3.049244859242367
 20
8.629076478004069
 30
0.0
 11
3.049244859242367
 21
8.823393759900145
 31
0.0
  0
LINE
  5
5C1
330
18
100
AcDbEntity
  8
Image
100
AcDbLine
 10
3.049244859242367
 20
8.989268537055457
 30
0.0
 11
3.185408494238513
 21
8.989268537055453
 31
0.0
  0
LWPOLYLINE
  5
5C2
330
18
100
AcDbEntity
  8
Image
100
AcDbPolyline
 90
        2
 70
     0
 43
0.0168750144220711
 10
3.046027232298078
 20
8.998305987202533
 10
3.334956967484361
 20
8.998305987202533
  0
LINE
  5
5C6
330
18
100
AcDbEntity
  8
Image
100
AcDbLine
 10
3.143802832799037
 20
8.998305987202533
 30
0.0
 11
3.143802832799037
 21
9.031366262145105
 31
0.0
  0
LINE
  5
5C7
330
18
100
AcDbEntity
  8
Image
100
AcDbLine
 10
3.143802832799037
 20
9.031366262145105
 30
0.0
 11
3.331841900485489
 21
9.031366262145105
 31
0.0
  0
LINE
  5
5C8
330
18
100
AcDbEntity
  8
Image
100
AcDbLine
 10
3.331841900485489
 20
9.031366262145105
 30
0.0
 11
3.331841900485489
 21
8.998305987202533
 31
0.0
  0
LINE
  5
5C9
330
18
100
AcDbEntity
  8
Image
100
AcDbLine
 10
3.254862153846135
 20
9.031366262145105
 30
0.0
 11
3.254862153846135
 21
9.090926037014448
 31
0.0
  0
LINE
  5
5CA
330
18
100
AcDbEntity
  8
Image
100
AcDbLine
 10
3.254862153846135
 20
9.090926037014448
 30
0.0
 11
3.304959625691632
 21
9.090926037014448
 31
0.0
  0
LINE
  5
5CB
330
18
100
AcDbEntity
  8
Image
100
AcDbLine
 10
3.304959625691632
 20
9.090926037014448
 30
0.0
 11
3.304959625691632
 21
9.031366262145105
 31
0.0
  0
LWPOLYLINE
  5
5CC
330
18
100
AcDbEntity
  8
Image
100
AcDbPolyline
 90
        2
 70
     0
 43
0.0168750144220711
 10
3.24958039611738
 20
9.089572947923794
 10
3.310298179922668
 20
9.089572947923794
  0
LINE
  5
5D0
330
18
100
AcDbEntity
  8
Image
100
AcDbLine
 10
3.045358296534685
 20
8.85586866297649
 30
0.0
 11
3.049244859242367
 21
8.855868662976494
 31
0.0
  0
LWPOLYLINE
  5
5D7
330
18
100
AcDbEntity
  8
Image
100
AcDbPolyline
 90
        2
 70
     0
 43
0.0168750144220711
 10
3.185408494238513
 20
8.772076523578357
 10
4.85243851211667
 20
8.772076523578357
  0
LWPOLYLINE
  5
5DB
330
18
100
AcDbEntity
  8
Image
100
AcDbPolyline
 90
        2
 70
     0
 43
0.0084375072110355
 10
3.185408494238513
 20
8.67871680818656
 10
4.85243851211667
 20
8.67871680818656
  0
LINE
  5
5DF
330
18
100
AcDbEntity
  8
Image
100
AcDbLine
 10
3.185408494238513
 20
8.727588623698224
 30
0.0
 11
4.85243851211667
 21
8.727588623698224
 31
0.0
  0
LWPOLYLINE
  5
5E0
330
18
100
AcDbEntity
  8
Image
100
AcDbPolyline
 90
        2
 70
     0
 43
0.0126562608165533
 10
4.778033567834523
 20
8.727588623698224
 10
4.778033567834523
 20
8.772076523578357
  0
LWPOLYLINE
  5
5E4
330
18
100
AcDbEntity
  8
Image
100
AcDbPolyline
 90
        2
 70
     0
 43
0.0126562608165533
 10
3.231053792931076
 20
8.727588623698224
 10
3.231053792931076
 20
8.772076523578357
  0
CIRCLE
  5
5ED
330
18
100
AcDbEntity
  8
Image
100
AcDbCircle
 10
4.770065182353556
 20
9.390557502048958
 30
0.0
 40
0.0460842365893271
  0
LWPOLYLINE
  5
5EE
330
18
100
AcDbEntity
  8
Image
100
AcDbPolyline
 90
       16
 70
     1
 43
0.0
 10
5.033355628178263
 20
9.343360144257779
 42
0.1581661960882999
 10
5.042054377979958
 20
9.346182444801709
 42
0.1065004799102946
 10
5.051002003379572
 20
9.356158039146183
 42
0.071779128505962
 10
5.056263089575445
 20
9.369499644891714
 42
0.0581409632450136
 10
5.058311371314681
 20
9.387054890555594
 42
0.0581409632449974
 10
5.056263089575445
 20
9.404610136219471
 42
0.0717791285059567
 10
5.051002003379572
 20
9.417951741965005
 42
0.1065004799102737
 10
5.042054377979958
 20
9.42792733630948
 42
0.1581661960882869
 10
5.033355628178263
 20
9.430749636853406
 42
0.1581661960883128
 10
5.024656878376569
 20
9.42792733630948
 42
0.1065004799103157
 10
5.015709252976954
 20
9.417951741965005
 42
0.0717791285059813
 10
5.010448166781081
 20
9.404610136219471
 42
0.0581409632450186
 10
5.008399885041846
 20
9.387054890555594
 42
0.0581409632450186
 10
5.010448166781081
 20
9.369499644891716
 42
0.0717791285059811
 10
5.015709252976954
 20
9.356158039146183
 42
0.1065004799102948
 10
5.024656878376569
 20
9.346182444801709
 42
0.1581661960882999
  0
LINE
  5
60B
330
18
100
AcDbEntity
  8
Image
100
AcDbLine
 10
4.946417266186893
 20
9.388710544228278
 30
0.0
 11
5.008405353668898
 21
9.387968119349013
 31
0.0
  0
LINE
  5
615
330
18
100
AcDbEntity
  8
Image
100
AcDbLine
 10
4.456380321705543
 20
8.43272240101154
 30
0.0
 11
4.661444317778801
 21
8.43272240101154
 31
0.0
  0
LINE
  5
616
330
18
100
AcDbEntity
  8
Image
100
AcDbLine
 10
4.698343702319947
 20
8.405712397475866
 30
0.0
 11
4.419480937164362
 21
8.405712397475866
 31
0.0
  0
LWPOLYLINE
  5
617
330
18
100
AcDbEntity
  8
Image
100
AcDbPolyline
 90
        2
 70
     0
 43
0.0126562608165533
 10
4.458303703368486
 20
8.665372748836382
 10
4.668720738846833
 20
8.665372748836382
  0
LINE
  5
61B
330
18
100
AcDbEntity
  8
Image
100
AcDbLine
 10
4.506767104441845
 20
8.43272240101154
 30
0.0
 11
4.506767104441845
 21
8.67871680818656
 31
0.0
  0
LINE
  5
61C
330
18
100
AcDbEntity
  8
Image
100
AcDbLine
 10
4.616389909383965
 20
8.43272240101154
 30
0.0
 11
4.616389909383965
 21
8.67871680818656
 31
0.0
  0
LINE
  5
623
102
{ACAD_REACTORS
330
1601
102
}
330
18
100
AcDbEntity
  8
Image
100
AcDbLine
 10
4.06691169435839
 20
4.700907211104688
 30
0.0
 11
4.066911694358392
 21
3.794384615940049
 31
0.0
  0
LINE
  5
62F
330
18
100
AcDbEntity
  8
Image
100
AcDbLine
 10
2.58854521047095
 20
3.124801832501912
 30
0.0
 11
2.58854521047095
 21
2.994384615940048
 31
0.0
  0
LWPOLYLINE
  5
638
330
18
100
AcDbEntity
  8
Image
100
AcDbPolyline
 90
        6
 70
     0
 43
0.01
 10
3.94541489692966
 20
5.095937505943457
 10
3.979171661053801
 20
5.095937505943457
 42
-0.4142135623730951
 10
4.004313389762877
 20
5.07079577723438
 10
4.004313389762877
 20
3.856267297035822
 42
-0.3600952599898269
 10
3.204313389762877
 20
3.056267297035822
 10
2.427742754906562
 20
3.056267297035821
  0
LINE
  5
640
330
18
100
AcDbEntity
  8
Image
100
AcDbLine
 10
3.185408494238513
 20
8.664962509054713
 30
0.0
 11
3.185408494238513
 21
8.989268537055453
 31
0.0
  0
LINE
  5
641
330
18
100
AcDbEntity
  8
Image
100
AcDbLine
 10
3.049244859242367
 20
8.855868662976494
 30
0.0
 11
3.049244859242367
 21
8.989268537055457
 31
0.0
  0
ARC
  5
642
330
18
100
AcDbEntity
  8
Image
100
AcDbCircle
 10
4.392068260134212
 20
8.481871711693623
 30
0.0
 40
0.0809425475512032
100
AcDbArc
 50
289.7957620138332
 51
322.6117938993508
  0
ARC
  5
643
330
18
100
AcDbEntity
  8
Image
100
AcDbCircle
 10
4.725756379350132
 20
8.481871711693623
 30
0.0
 40
0.0809425475512032
100
AcDbArc
 50
217.3882061006492
 51
250.2042379861668
  0
ARC
  5
644
330
18
100
AcDbEntity
  8
Image
100
AcDbCircle
 10
4.392068260134212
 20
8.454861708157949
 30
0.0
 40
0.0809425475512032
100
AcDbArc
 50
289.7957620138332
 51
322.6117938993508
  0
LINE
  5
645
330
18
100
AcDbEntity
  8
Image
100
AcDbLine
 10
4.698343702319947
 20
8.378702393940189
 30
0.0
 11
4.419480937164362
 21
8.378702393940189
 31
0.0
  0
ARC
  5
646
330
18
100
AcDbEntity
  8
Image
100
AcDbCircle
 10
4.725756379350132
 20
8.454861708157949
 30
0.0
 40
0.0809425475512032
100
AcDbArc
 50
217.3882061006492
 51
250.2042379861668
  0
ARC
  5
647
330
18
100
AcDbEntity
  8
Image
100
AcDbCircle
 10
4.392068260134212
 20
8.427851704622277
 30
0.0
 40
0.0809425475512032
100
AcDbArc
 50
289.7957620138332
 51
322.6117938993508
  0
LINE
  5
648
330
18
100
AcDbEntity
  8
Image
100
AcDbLine
 10
4.698343702319947
 20
8.351692390404517
 30
0.0
 11
4.419480937164362
 21
8.351692390404517
 31
0.0
  0
ARC
  5
649
330
18
100
AcDbEntity
  8
Image
100
AcDbCircle
 10
4.725756379350132
 20
8.427851704622277
 30
0.0
 40
0.0809425475512032
100
AcDbArc
 50
217.3882061006492
 51
250.2042379861668
  0
ARC
  5
64A
330
18
100
AcDbEntity
  8
Image
100
AcDbCircle
 10
4.392068260134212
 20
8.400841701086601
 30
0.0
 40
0.0809425475512032
100
AcDbArc
 50
289.7957620138332
 51
322.6117938993508
  0
LINE
  5
64B
330
18
100
AcDbEntity
  8
Image
100
AcDbLine
 10
4.698343702319947
 20
8.324682386868843
 30
0.0
 11
4.419480937164362
 21
8.324682386868843
 31
0.0
  0
ARC
  5
64C
330
18
100
AcDbEntity
  8
Image
100
AcDbCircle
 10
4.725756379350132
 20
8.400841701086601
 30
0.0
 40
0.0809425475512032
100
AcDbArc
 50
217.3882061006492
 51
250.2042379861668
  0
ARC
  5
64D
330
18
100
AcDbEntity
  8
Image
100
AcDbCircle
 10
4.392068260134212
 20
8.373831697550928
 30
0.0
 40
0.0809425475512032
100
AcDbArc
 50
289.7957620138332
 51
322.6117938993508
  0
LINE
  5
64E
330
18
100
AcDbEntity
  8
Image
100
AcDbLine
 10
4.698343702319947
 20
8.297672383333166
 30
0.0
 11
4.419480937164362
 21
8.297672383333166
 31
0.0
  0
ARC
  5
64F
330
18
100
AcDbEntity
  8
Image
100
AcDbCircle
 10
4.725756379350132
 20
8.373831697550928
 30
0.0
 40
0.0809425475512032
100
AcDbArc
 50
217.3882061006492
 51
250.2042379861668
  0
ARC
  5
650
330
18
100
AcDbEntity
  8
Image
100
AcDbCircle
 10
4.392068260134212
 20
8.346821694015254
 30
0.0
 40
0.0809425475512032
100
AcDbArc
 50
289.7957620138332
 51
322.6117938993508
  0
LINE
  5
651
330
18
100
AcDbEntity
  8
Image
100
AcDbLine
 10
4.698343702319947
 20
8.270662379797489
 30
0.0
 11
4.419480937164362
 21
8.270662379797489
 31
0.0
  0
ARC
  5
652
330
18
100
AcDbEntity
  8
Image
100
AcDbCircle
 10
4.725756379350132
 20
8.346821694015254
 30
0.0
 40
0.0809425475512032
100
AcDbArc
 50
217.3882061006492
 51
250.2042379861668
  0
ARC
  5
653
330
18
100
AcDbEntity
  8
Image
100
AcDbCircle
 10
4.392068260134212
 20
8.319811690479582
 30
0.0
 40
0.0809425475512032
100
AcDbArc
 50
289.7957620138332
 51
322.6117938993508
  0
LINE
  5
654
330
18
100
AcDbEntity
  8
Image
100
AcDbLine
 10
4.698343702319945
 20
8.243652376261817
 30
0.0
 11
4.419480937164358
 21
8.243652376261817
 31
0.0
  0
ARC
  5
655
330
18
100
AcDbEntity
  8
Image
100
AcDbCircle
 10
4.725756379350132
 20
8.319811690479582
 30
0.0
 40
0.0809425475512032
100
AcDbArc
 50
217.3882061006492
 51
250.2042379861668
  0
ARC
  5
656
330
18
100
AcDbEntity
  8
Image
100
AcDbCircle
 10
4.392068260134212
 20
8.292801686943905
 30
0.0
 40
0.0809425475512032
100
AcDbArc
 50
289.7957620138332
 51
322.6117938993508
  0
LINE
  5
657
330
18
100
AcDbEntity
  8
Image
100
AcDbLine
 10
4.698343702319947
 20
8.216642372726143
 30
0.0
 11
4.419480937164362
 21
8.216642372726143
 31
0.0
  0
ARC
  5
658
330
18
100
AcDbEntity
  8
Image
100
AcDbCircle
 10
4.725756379350132
 20
8.292801686943905
 30
0.0
 40
0.0809425475512032
100
AcDbArc
 50
217.3882061006492
 51
250.2042379861668
  0
ARC
  5
659
330
18
100
AcDbEntity
  8
Image
100
AcDbCircle
 10
4.392068260134212
 20
8.265791683408227
 30
0.0
 40
0.0809425475512032
100
AcDbArc
 50
289.7957620138332
 51
322.6117938993508
  0
LINE
  5
65A
330
18
100
AcDbEntity
  8
Image
100
AcDbLine
 10
4.698343702319945
 20
8.189632369190469
 30
0.0
 11
4.419480937164358
 21
8.189632369190469
 31
0.0
  0
ARC
  5
65B
330
18
100
AcDbEntity
  8
Image
100
AcDbCircle
 10
4.725756379350132
 20
8.265791683408227
 30
0.0
 40
0.0809425475512032
100
AcDbArc
 50
217.3882061006492
 51
250.2042379861668
  0
ARC
  5
65C
330
18
100
AcDbEntity
  8
Image
100
AcDbCircle
 10
4.392068260134212
 20
8.238781679872555
 30
0.0
 40
0.0809425475512032
100
AcDbArc
 50
289.7957620138332
 51
322.6117938993508
  0
LINE
  5
65D
330
18
100
AcDbEntity
  8
Image
100
AcDbLine
 10
4.698343702319947
 20
8.162622365654794
 30
0.0
 11
4.419480937164362
 21
8.162622365654794
 31
0.0
  0
ARC
  5
65E
330
18
100
AcDbEntity
  8
Image
100
AcDbCircle
 10
4.725756379350132
 20
8.238781679872555
 30
0.0
 40
0.0809425475512032
100
AcDbArc
 50
217.3882061006492
 51
250.2042379861668
  0
ARC
  5
65F
330
18
100
AcDbEntity
  8
Image
100
AcDbCircle
 10
4.392068260134212
 20
8.211771676336882
 30
0.0
 40
0.0809425475512032
100
AcDbArc
 50
289.7957620138332
 51
322.6117938993508
  0
LINE
  5
660
330
18
100
AcDbEntity
  8
Image
100
AcDbLine
 10
4.698343702319947
 20
8.135612362119122
 30
0.0
 11
4.419480937164362
 21
8.135612362119122
 31
0.0
  0
ARC
  5
661
330
18
100
AcDbEntity
  8
Image
100
AcDbCircle
 10
4.725756379350132
 20
8.211771676336882
 30
0.0
 40
0.0809425475512032
100
AcDbArc
 50
217.3882061006492
 51
250.2042379861668
  0
ARC
  5
662
330
18
100
AcDbEntity
  8
Image
100
AcDbCircle
 10
4.392068260134212
 20
8.184761672801212
 30
0.0
 40
0.0809425475512032
100
AcDbArc
 50
289.7957620138332
 51
322.6117938993508
  0
LINE
  5
663
330
18
100
AcDbEntity
  8
Image
100
AcDbLine
 10
4.698343702319945
 20
8.108602358583446
 30
0.0
 11
4.419480937164358
 21
8.108602358583446
 31
0.0
  0
ARC
  5
664
330
18
100
AcDbEntity
  8
Image
100
AcDbCircle
 10
4.725756379350132
 20
8.184761672801212
 30
0.0
 40
0.0809425475512032
100
AcDbArc
 50
217.3882061006492
 51
250.2042379861668
  0
ARC
  5
665
330
18
100
AcDbEntity
  8
Image
100
AcDbCircle
 10
5.016638925157238
 20
9.387054890555594
 30
0.0
 40
0.0467833198258016
100
AcDbArc
 50
290.9358133037253
 51
69.06418669627337
  0
LINE
  5
666
330
18
100
AcDbEntity
  8
Image
100
AcDbLine
 10
4.876500902986764
 20
9.388710544228278
 30
0.0
 11
4.816112609826925
 21
9.388715957831253
 31
0.0
  0
LINE
  5
66F
102
{ACAD_REACTORS
330
1601
102
}
330
18
100
AcDbEntity
  8
Image
100
AcDbLine
 10
3.136494477796526
 20
3.124801832501912
 30
0.0
 11
2.58854521047095
 21
3.124801832501912
 31
0.0
  0
LINE
  5
672
102
{ACAD_REACTORS
330
1601
102
}
330
18
100
AcDbEntity
  8
Image
100
AcDbLine
 10
3.266911694358391
 20
2.994384615940049
 30
0.0
 11
2.58854521047095
 21
2.994384615940048
 31
0.0
  0
LWPOLYLINE
  5
673
330
18
100
AcDbEntity
  8
Image
100
AcDbPolyline
 90
        2
 70
     0
 43
0.0
 10
3.936494477796525
 20
4.700907211104688
 10
4.06691169435839
 20
4.700907211104688
  0
LWPOLYLINE
  5
6D3
330
18
100
AcDbEntity
  8
Image
100
AcDbPolyline
 90
        2
 70
     0
 43
0.0351562800459814
 10
5.445165684108985
 20
6.556558985983594
 10
5.739737969129766
 20
6.556558985983594
  0
LWPOLYLINE
  5
6D7
330
18
100
AcDbEntity
  8
Image
100
AcDbPolyline
 90
        3
 70
     0
 43
0.0351562800459814
 10
5.615441749020734
 20
6.432262765874559
 10
5.739737969129766
 20
6.556558985983594
 10
5.615441749020734
 20
6.680855206092626
  0
TEXT
  5
6DC
330
18
100
AcDbEntity
  8
Image
100
AcDbText
 10
5.802117982428285
 20
6.416507587475461
 30
0.0
 40
0.2751009613552549
  1
North
  7
HLTSOLID
100
AcDbText
  0
LINE
  5
793
330
18
100
AcDbEntity
  8
Image
100
AcDbLine
 10
3.775447340815755
 20
7.423290240410418
 30
0.0
 11
3.775447340815755
 21
8.67871680818656
 31
0.0
  0
LINE
  5
794
330
18
100
AcDbEntity
  8
Image
100
AcDbLine
 10
3.775447340815755
 20
8.67871680818656
 30
0.0
 11
4.228884759197018
 21
8.67871680818656
 31
0.0
  0
LINE
  5
795
330
18
100
AcDbEntity
  8
Image
100
AcDbLine
 10
4.228884759197018
 20
8.67871680818656
 30
0.0
 11
4.228884759197018
 21
7.423290240410418
 31
0.0
  0
LINE
  5
796
330
18
100
AcDbEntity
  8
Image
100
AcDbLine
 10
3.775447340815755
 20
7.423290240410418
 30
0.0
 11
4.228884759197018
 21
7.423290240410418
 31
0.0
  0
LINE
  5
797
330
18
100
AcDbEntity
  8
Image
100
AcDbLine
 10
3.775447340815755
 20
7.518929065790509
 30
0.0
 11
3.824971899245639
 21
7.553606534929624
 31
0.0
  0
LINE
  5
798
330
18
100
AcDbEntity
  8
Image
100
AcDbLine
 10
4.228884759197018
 20
7.519010485151188
 30
0.0
 11
4.179360200767135
 21
7.553687954290301
 31
0.0
  0
LINE
  5
799
330
18
100
AcDbEntity
  8
Image
100
AcDbLine
 10
4.067690760511638
 20
7.423290240410418
 30
0.0
 11
4.067690760511638
 21
6.930174411643115
 31
0.0
  0
LINE
  5
79A
330
18
100
AcDbEntity
  8
Image
100
AcDbLine
 10
3.905432734085051
 20
6.54324114795777
 30
0.0
 11
3.905432734085051
 21
6.169421450617839
 31
0.0
  0
LINE
  5
79B
330
18
100
AcDbEntity
  8
Image
100
AcDbLine
 10
4.098899365927723
 20
6.54324114795777
 30
0.0
 11
4.098899365927731
 21
6.166419394368739
 31
0.0
  0
LINE
  5
79C
330
18
100
AcDbEntity
  8
Image
100
AcDbLine
 10
4.067690760511638
 20
6.930174411643115
 30
0.0
 11
4.098899365927723
 21
6.54324114795777
 31
0.0
  0
LINE
  5
79D
330
18
100
AcDbEntity
  8
Image
100
AcDbLine
 10
3.905432734085049
 20
6.011410813136766
 30
0.0
 11
3.905432734085049
 21
4.895455738147816
 31
0.0
  0
LINE
  5
79E
330
18
100
AcDbEntity
  8
Image
100
AcDbLine
 10
4.098899365927723
 20
6.008408756887666
 30
0.0
 11
4.098899365927723
 21
4.895455738147818
 31
0.0
  0
LWPOLYLINE
  5
79F
330
18
100
AcDbEntity
  8
Image
100
AcDbPolyline
 90
        6
 70
     0
 43
0.0
 10
3.855436808265462
 20
6.011410813136766
 10
3.950974291400711
 20
6.011410813136766
 10
3.986281622124602
 20
6.080458106866052
 10
4.0215889528485
 20
5.95136968815478
 10
4.044434872728665
 20
6.008408756887666
 10
4.148279963093056
 20
6.008408756887666
  0
LWPOLYLINE
  5
7A7
330
18
100
AcDbEntity
  8
Image
100
AcDbPolyline
 90
        6
 70
     0
 43
0.0
 10
3.855436808265462
 20
6.169421450617839
 10
3.950974291400711
 20
6.169421450617839
 10
3.986281622124602
 20
6.238468744347123
 10
4.0215889528485
 20
6.109380325635854
 10
4.044434872728665
 20
6.166419394368739
 10
4.148279963093056
 20
6.166419394368739
  0
LWPOLYLINE
  5
7BC
330
18
100
AcDbEntity
  8
Image
100
AcDbPolyline
 90
        3
 70
     0
 43
0.0
 10
2.63244723283422
 20
8.885105135774995
 10
2.63244723283422
 20
9.005478366040495
 10
2.645197577093242
 20
9.005478366040495
  0
LWPOLYLINE
  5
7C1
330
18
100
AcDbEntity
  8
Image
100
AcDbPolyline
 90
        3
 70
     0
 43
0.0
 10
3.033819406088877
 20
8.885105135774995
 10
3.033819406088877
 20
9.005478366040495
 10
3.021069061829855
 20
9.005478366040495
  0
LINE
  5
7C6
330
18
100
AcDbEntity
  8
Image
100
AcDbLine
 10
3.021069061829855
 20
9.005478366040495
 30
0.0
 11
3.021069061829855
 21
9.117796813727096
 31
0.0
  0
LINE
  5
7C7
330
18
100
AcDbEntity
  8
Image
100
AcDbLine
 10
2.63244723283422
 20
8.885105135774995
 30
0.0
 11
2.642057384007999
 21
8.885105135774995
 31
0.0
  0
LINE
  5
7C8
330
18
100
AcDbEntity
  8
Image
100
AcDbLine
 10
3.033819406088877
 20
8.885105135774995
 30
0.0
 11
3.024357999651378
 21
8.885105135774995
 31
0.0
  0
LINE
  5
7C9
330
18
100
AcDbEntity
  8
Image
100
AcDbLine
 10
3.024357999651378
 20
8.823393759900145
 30
0.0
 11
3.049244859242367
 21
8.823393759900145
 31
0.0
  0
LINE
  5
7CA
330
18
100
AcDbEntity
  8
Image
100
AcDbLine
 10
3.024357999651378
 20
8.855992515088338
 30
0.0
 11
3.049244859242367
 21
8.855992515088338
 31
0.0
  0
LWPOLYLINE
  5
7CB
330
18
100
AcDbEntity
  8
Image
100
AcDbPolyline
 90
        3
 70
     0
 43
0.0
 10
3.824971899245639
 20
7.553606534929624
 10
4.179360200767135
 20
7.553687954290301
 10
4.179360200767135
 20
8.67871680818656
  0
LWPOLYLINE
  5
7D0
330
18
100
AcDbEntity
  8
Image
100
AcDbPolyline
 90
        2
 70
     0
 43
0.0
 10
3.824971899245639
 20
7.553606534929624
 10
3.824971899245639
 20
8.67871680818656
  0
LINE
  5
7D4
330
18
100
AcDbEntity
  8
Image
100
AcDbLine
 10
3.936641339501136
 20
6.930174411643115
 30
0.0
 11
3.905432734085049
 21
6.54324114795777
 31
0.0
  0
LINE
  5
7D5
330
18
100
AcDbEntity
  8
Image
100
AcDbLine
 10
3.936641339501136
 20
7.423290240410418
 30
0.0
 11
3.936641339501136
 21
6.930174411643115
 31
0.0
  0
LINE
  5
7F2
102
{ACAD_REACTORS
330
1601
102
}
330
18
100
AcDbEntity
  8
Image
100
AcDbLine
 10
3.936494477796527
 20
3.924801832501914
 30
0.0
 11
3.936494477796525
 21
4.700907211104688
 31
0.0
  0
LINE
  5
BC1
330
18
100
AcDbEntity
  8
Image
100
AcDbLine
 10
4.257826181587686
 20
4.82456356643178
 30
0.0
 11
4.117972348376131
 21
4.895455738147818
 31
0.0
  0
LINE
  5
BC2
330
18
100
AcDbEntity
  8
Image
100
AcDbLine
 10
4.117972348376129
 20
4.895455738147818
 30
0.0
 11
4.117972348376129
 21
4.776228388030537
 31
0.0
  0
LINE
  5
BC3
330
18
100
AcDbEntity
  8
Image
100
AcDbLine
 10
3.886359751636643
 20
4.895455738147818
 30
0.0
 11
3.886359751636645
 21
4.776228388030537
 31
0.0
  0
LINE
  5
BC5
330
18
100
AcDbEntity
  8
Image
100
AcDbLine
 10
4.117972348376129
 20
4.895455738147818
 30
0.0
 11
3.886359751636643
 21
4.895455738147816
 31
0.0
  0
LINE
  5
BC6
330
18
100
AcDbEntity
  8
Image
100
AcDbLine
 10
3.735821450983038
 20
4.819147589742389
 30
0.0
 11
3.886359751636643
 21
4.895455738147818
 31
0.0
  0
POLYLINE
  5
CF9
330
18
100
AcDbEntity
  8
Image
100
AcDb2dPolyline
 66
     1
 10
0.0
 20
0.0
 30
0.0
 70
     4
 40
0.016875
 41
0.016875
 75
     6
  0
VERTEX
  5
CFA
330
CF9
100
AcDbEntity
  8
Image
100
AcDbVertex
100
AcDb2dVertex
 10
3.067301372593719
 20
4.639831998235894
 30
0.0
 70
    16
  0
VERTEX
  5
D05
330
CF9
100
AcDbEntity
  8
Image
100
AcDbVertex
100
AcDb2dVertex
 10
3.067301372593719
 20
4.639831998235894
 30
0.0
 70
     8
  0
VERTEX
  5
D06
330
CF9
100
AcDbEntity
  8
Image
100
AcDbVertex
100
AcDb2dVertex
 10
3.069028180562082
 20
4.67069884725786
 30
0.0
 70
     8
  0
VERTEX
  5
D07
330
CF9
100
AcDbEntity
  8
Image
100
AcDbVertex
100
AcDb2dVertex
 10
3.071913788420989
 20
4.694810134740301
 30
0.0
 70
     8
  0
VERTEX
  5
D08
330
CF9
100
AcDbEntity
  8
Image
100
AcDbVertex
100
AcDb2dVertex
 10
3.075909730938125
 20
4.713079523169026
 30
0.0
 70
     8
  0
VERTEX
  5
D09
330
CF9
100
AcDbEntity
  8
Image
100
AcDbVertex
100
AcDb2dVertex
 10
3.080967542881174
 20
4.726420675029844
 30
0.0
 70
     8
  0
VERTEX
  5
D0A
330
CF9
100
AcDbEntity
  8
Image
100
AcDbVertex
100
AcDb2dVertex
 10
3.087038759017815
 20
4.735747252808565
 30
0.0
 70
     8
  0
VERTEX
  5
D0B
330
CF9
100
AcDbEntity
  8
Image
100
AcDbVertex
100
AcDb2dVertex
 10
3.094074914115733
 20
4.741972918990999
 30
0.0
 70
     8
  0
VERTEX
  5
D0C
330
CF9
100
AcDbEntity
  8
Image
100
AcDbVertex
100
AcDb2dVertex
 10
3.102027542942611
 20
4.746011336062954
 30
0.0
 70
     8
  0
VERTEX
  5
D0D
330
CF9
100
AcDbEntity
  8
Image
100
AcDbVertex
100
AcDb2dVertex
 10
3.110848180266131
 20
4.748776166510237
 30
0.0
 70
     8
  0
VERTEX
  5
D0E
330
CF9
100
AcDbEntity
  8
Image
100
AcDbVertex
100
AcDb2dVertex
 10
3.120522825186556
 20
4.751033708493865
 30
0.0
 70
     8
  0
VERTEX
  5
D0F
330
CF9
100
AcDbEntity
  8
Image
100
AcDbVertex
100
AcDb2dVertex
 10
3.131175334134457
 20
4.752960802875657
 30
0.0
 70
     8
  0
VERTEX
  5
D10
330
CF9
100
AcDbEntity
  8
Image
100
AcDbVertex
100
AcDb2dVertex
 10
3.142964027872986
 20
4.754586926192633
 30
0.0
 70
     8
  0
VERTEX
  5
D11
330
CF9
100
AcDbEntity
  8
Image
100
AcDbVertex
100
AcDb2dVertex
 10
3.156047227165297
 20
4.755941554981816
 30
0.0
 70
     8
  0
VERTEX
  5
D12
330
CF9
100
AcDbEntity
  8
Image
100
AcDbVertex
100
AcDb2dVertex
 10
3.170583252774537
 20
4.757054165780228
 30
0.0
 70
     8
  0
VERTEX
  5
D13
330
CF9
100
AcDbEntity
  8
Image
100
AcDbVertex
100
AcDb2dVertex
 10
3.18673042546386
 20
4.757954235124893
 30
0.0
 70
     8
  0
VERTEX
  5
D14
330
CF9
100
AcDbEntity
  8
Image
100
AcDbVertex
100
AcDb2dVertex
 10
3.204647065996416
 20
4.758671239552832
 30
0.0
 70
     8
  0
VERTEX
  5
D15
330
CF9
100
AcDbEntity
  8
Image
100
AcDbVertex
100
AcDb2dVertex
 10
3.224491495135358
 20
4.759234655601067
 30
0.0
 70
     8
  0
VERTEX
  5
D16
330
CF9
100
AcDbEntity
  8
Image
100
AcDbVertex
100
AcDb2dVertex
 10
3.246288547482958
 20
4.759671632713841
 30
0.0
 70
     8
  0
VERTEX
  5
D17
330
CF9
100
AcDbEntity
  8
Image
100
AcDbVertex
100
AcDb2dVertex
 10
3.269529112997965
 20
4.760000011964267
 30
0.0
 70
     8
  0
VERTEX
  5
D18
330
CF9
100
AcDbEntity
  8
Image
100
AcDbVertex
100
AcDb2dVertex
 10
3.29357059547825
 20
4.760235307332685
 30
0.0
 70
     8
  0
VERTEX
  5
D19
330
CF9
100
AcDbEntity
  8
Image
100
AcDbVertex
100
AcDb2dVertex
 10
3.317770398721687
 20
4.760393032799424
 30
0.0
 70
     8
  0
VERTEX
  5
D1A
330
CF9
100
AcDbEntity
  8
Image
100
AcDbVertex
100
AcDb2dVertex
 10
3.34148592652615
 20
4.760488702344824
 30
0.0
 70
     8
  0
VERTEX
  5
D1B
330
CF9
100
AcDbEntity
  8
Image
100
AcDbVertex
100
AcDb2dVertex
 10
3.364074582689504
 20
4.760537829949219
 30
0.0
 70
     8
  0
VERTEX
  5
D1C
330
CF9
100
AcDbEntity
  8
Image
100
AcDbVertex
100
AcDb2dVertex
 10
3.384893771009625
 20
4.760555929592943
 30
0.0
 70
     8
  0
VERTEX
  5
D1D
330
CF9
100
AcDbEntity
  8
Image
100
AcDbVertex
100
AcDb2dVertex
 10
3.403300895284385
 20
4.760558515256333
 30
0.0
 70
     8
  0
VERTEX
  5
D1E
330
CF9
100
AcDbEntity
  8
Image
100
AcDbVertex
100
AcDb2dVertex
 10
3.418827201759114
 20
4.760567306500472
 30
0.0
 70
     8
  0
VERTEX
  5
D1F
330
CF9
100
AcDbEntity
  8
Image
100
AcDbVertex
100
AcDb2dVertex
 10
3.431699306468996
 20
4.760628845209446
 30
0.0
 70
     8
  0
VERTEX
  5
D20
330
CF9
100
AcDbEntity
  8
Image
100
AcDbVertex
100
AcDb2dVertex
 10
3.442317667896663
 20
4.760795878848087
 30
0.0
 70
     8
  0
VERTEX
  5
D21
330
CF9
100
AcDbEntity
  8
Image
100
AcDbVertex
100
AcDb2dVertex
 10
3.451082744524761
 20
4.761121154881232
 30
0.0
 70
     8
  0
VERTEX
  5
D22
330
CF9
100
AcDbEntity
  8
Image
100
AcDbVertex
100
AcDb2dVertex
 10
3.458394994835927
 20
4.761657420773714
 30
0.0
 70
     8
  0
VERTEX
  5
D23
330
CF9
100
AcDbEntity
  8
Image
100
AcDbVertex
100
AcDb2dVertex
 10
3.464654877312803
 20
4.762457423990367
 30
0.0
 70
     8
  0
VERTEX
  5
D24
330
CF9
100
AcDbEntity
  8
Image
100
AcDbVertex
100
AcDb2dVertex
 10
3.470262850438025
 20
4.763573911996028
 30
0.0
 70
     8
  0
VERTEX
  5
D25
330
CF9
100
AcDbEntity
  8
Image
100
AcDbVertex
100
AcDb2dVertex
 10
3.475619372694238
 20
4.765059632255526
 30
0.0
 70
     8
  0
VERTEX
  5
D26
330
CF9
100
AcDbEntity
  8
Image
100
AcDbVertex
100
AcDb2dVertex
 10
3.481055831242571
 20
4.7669479397903
 30
0.0
 70
     8
  0
VERTEX
  5
D27
330
CF9
100
AcDbEntity
  8
Image
100
AcDbVertex
100
AcDb2dVertex
 10
3.486627327958121
 20
4.769194619848176
 30
0.0
 70
     8
  0
VERTEX
  5
D28
330
CF9
100
AcDbEntity
  8
Image
100
AcDbVertex
100
AcDb2dVertex
 10
3.49231989339448
 20
4.771736065233586
 30
0.0
 70
     8
  0
VERTEX
  5
D29
330
CF9
100
AcDbEntity
  8
Image
100
AcDbVertex
100
AcDb2dVertex
 10
3.498119558105234
 20
4.774508668750957
 30
0.0
 70
     8
  0
VERTEX
  5
D2A
330
CF9
100
AcDbEntity
  8
Image
100
AcDbVertex
100
AcDb2dVertex
 10
3.504012352643975
 20
4.77744882320472
 30
0.0
 70
     8
  0
VERTEX
  5
D2B
330
CF9
100
AcDbEntity
  8
Image
100
AcDbVertex
100
AcDb2dVertex
 10
3.509984307564291
 20
4.7804929213993
 30
0.0
 70
     8
  0
VERTEX
  5
D2C
330
CF9
100
AcDbEntity
  8
Image
100
AcDbVertex
100
AcDb2dVertex
 10
3.516021453419774
 20
4.783577356139131
 30
0.0
 70
     8
  0
VERTEX
  5
D2D
330
CF9
100
AcDbEntity
  8
Image
100
AcDbVertex
100
AcDb2dVertex
 10
3.522109820764011
 20
4.786638520228638
 30
0.0
 70
     8
  0
VERTEX
  5
D2E
330
CF9
100
AcDbEntity
  8
Image
100
AcDbVertex
100
AcDb2dVertex
 10
3.528809741138584
 20
4.789611255048606
 30
0.0
 70
     8
  0
VERTEX
  5
D2F
330
CF9
100
AcDbEntity
  8
Image
100
AcDbVertex
100
AcDb2dVertex
 10
3.538978750037038
 20
4.792424196285221
 30
0.0
 70
     8
  0
VERTEX
  5
D30
330
CF9
100
AcDbEntity
  8
Image
100
AcDbVertex
100
AcDb2dVertex
 10
3.556048683940916
 20
4.795004428201027
 30
0.0
 70
     8
  0
VERTEX
  5
D31
330
CF9
100
AcDbEntity
  8
Image
100
AcDbVertex
100
AcDb2dVertex
 10
3.583451379331757
 20
4.797279035058561
 30
0.0
 70
     8
  0
VERTEX
  5
D32
330
CF9
100
AcDbEntity
  8
Image
100
AcDbVertex
100
AcDb2dVertex
 10
3.624618672691099
 20
4.799175101120368
 30
0.0
 70
     8
  0
VERTEX
  5
D33
330
CF9
100
AcDbEntity
  8
Image
100
AcDbVertex
100
AcDb2dVertex
 10
3.682982400500481
 20
4.800619710648989
 30
0.0
 70
     8
  0
VERTEX
  5
D34
330
CF9
100
AcDbEntity
  8
Image
100
AcDbVertex
100
AcDb2dVertex
 10
3.761974399241442
 20
4.801539947906965
 30
0.0
 70
     8
  0
VERTEX
  5
D35
330
CF9
100
AcDbEntity
  8
Image
100
AcDbVertex
100
AcDb2dVertex
 10
3.865026505395524
 20
4.801862897156837
 30
0.0
 70
     8
  0
VERTEX
  5
CFC
330
CF9
100
AcDbEntity
  8
Image
100
AcDbVertex
100
AcDb2dVertex
 10
3.070318047115454
 20
4.731963155445667
 30
0.0
 70
    16
  0
VERTEX
  5
CFD
330
CF9
100
AcDbEntity
  8
Image
100
AcDbVertex
100
AcDb2dVertex
 10
3.102106385446658
 20
4.75261535732474
 30
0.0
 70
    16
  0
VERTEX
  5
CFE
330
CF9
100
AcDbEntity
  8
Image
100
AcDbVertex
100
AcDb2dVertex
 10
3.202239661860302
 20
4.760558515256333
 30
0.0
 70
    16
  0
VERTEX
  5
CFF
330
CF9
100
AcDbEntity
  8
Image
100
AcDbVertex
100
AcDb2dVertex
 10
3.435883937924286
 20
4.760558515256333
 30
0.0
 70
    16
  0
VERTEX
  5
D00
330
CF9
100
AcDbEntity
  8
Image
100
AcDbVertex
100
AcDb2dVertex
 10
3.474029958148866
 20
4.760558515256333
 30
0.0
 70
    16
  0
VERTEX
  5
D01
330
CF9
100
AcDbEntity
  8
Image
100
AcDbVertex
100
AcDb2dVertex
 10
3.521712465645675
 20
4.787565217251499
 30
0.0
 70
    16
  0
VERTEX
  5
D02
330
CF9
100
AcDbEntity
  8
Image
100
AcDbVertex
100
AcDb2dVertex
 10
3.555090224450223
 20
4.801862897156835
 30
0.0
 70
    16
  0
VERTEX
  5
D03
330
CF9
100
AcDbEntity
  8
Image
100
AcDbVertex
100
AcDb2dVertex
 10
3.865026505395524
 20
4.801862897156835
 30
0.0
 70
    16
  0
SEQEND
  5
D04
330
CF9
100
AcDbEntity
  8
Image
  0
LINE
  5
E38
330
18
100
AcDbEntity
  8
Image
100
AcDbLine
 10
4.876500927686661
 20
8.628345511412017
 30
0.0
 11
4.876500927686661
 21
9.153891931387537
 31
0.0
  0
LINE
  5
E3A
330
18
100
AcDbEntity
  8
Image
100
AcDbLine
 10
4.946417241486996
 20
8.628345511412017
 30
0.0
 11
4.946417241486996
 21
9.153891931387537
 31
0.0
  0
LINE
  5
E3B
330
18
100
AcDbEntity
  8
Image
100
AcDbLine
 10
4.85243851211667
 20
8.772076523578357
 30
0.0
 11
4.85243851211667
 21
8.67871680818656
 31
0.0
  0
LINE
  5
E3C
330
18
100
AcDbEntity
  8
Image
100
AcDbLine
 10
4.85243851211667
 20
8.727588623698224
 30
0.0
 11
4.876500927686661
 21
8.727588623698224
 31
0.0
  0
LWPOLYLINE
  5
E3D
330
18
100
AcDbEntity
  8
Image
100
AcDbPolyline
 90
        2
 70
     0
 43
0.0240624155699916
 10
4.864469719901666
 20
8.727588623698224
 10
4.864469719901666
 20
8.614368204853047
  0
LINE
  5
E45
330
18
100
AcDbEntity
  8
Image
100
AcDbLine
 10
4.946417241486996
 20
8.628345511412017
 30
0.0
 11
4.864469719901666
 21
8.628345511412017
 31
0.0
  0
LWPOLYLINE
  5
E4B
330
18
100
AcDbEntity
  8
Image
100
AcDbPolyline
 90
        2
 70
     0
 43
0.01
 10
4.95760387343096
 20
8.653504637664685
 10
4.831754498710393
 20
8.653504637664685
  0
LINE
  5
E4F
330
18
100
AcDbEntity
  8
Image
100
AcDbLine
 10
4.946417241486996
 20
9.153891931387537
 30
0.0
 11
4.876500927686661
 21
9.153891931387537
 31
0.0
  0
LWPOLYLINE
  5
E5C
330
18
100
AcDbEntity
  8
Image
100
AcDbPolyline
 90
        4
 70
     1
 43
0.0
 10
4.844339391722639
 20
9.304846752787231
 10
4.844339391722639
 20
9.153891931387537
 10
4.978578777451017
 20
9.153891931387537
 10
4.978578777451017
 20
9.304846752787231
  0
LWPOLYLINE
  5
E62
330
18
100
AcDbEntity
  8
Image
100
AcDbPolyline
 90
        4
 70
     1
 43
0.0
 10
4.82755946850659
 20
9.360755947081262
 10
4.82755946850659
 20
9.304846752787231
 10
4.995358700667066
 20
9.304846752787231
 10
4.995358700667066
 20
9.360755947081262
  0
LWPOLYLINE
  5
E68
330
18
100
AcDbEntity
  8
Image
100
AcDbPolyline
 90
        4
 70
     1
 43
0.0
 10
4.876500902986764
 20
9.416665141375293
 10
4.876500902986764
 20
9.360755947081262
 10
4.946417266186893
 20
9.360755947081262
 10
4.946417266186893
 20
9.416665141375293
  0
LWPOLYLINE
  5
E6E
330
18
100
AcDbEntity
  8
Image
100
AcDbPolyline
 90
        4
 70
     1
 43
0.0
 10
4.858322669302642
 20
9.564824507851565
 10
4.858322669302642
 20
9.416665141375293
 10
4.964595499871014
 20
9.416665141375293
 10
4.964595499871014
 20
9.564824507851565
  0
LINE
  5
E94
330
18
100
AcDbEntity
  8
Image
100
AcDbLine
 10
5.016333604687124
 20
9.528483529963356
 30
0.0
 11
5.016333604687124
 21
9.475369790592754
 31
0.0
  0
LINE
  5
E95
330
18
100
AcDbEntity
  8
Image
100
AcDbLine
 10
5.016333604687124
 20
9.475369790592754
 30
0.0
 11
5.1030298417035
 21
9.475369790592754
 31
0.0
  0
LINE
  5
E96
330
18
100
AcDbEntity
  8
Image
100
AcDbLine
 10
5.1030298417035
 20
9.475369790592754
 30
0.0
 11
5.134517515126196
 21
9.501926660278055
 31
0.0
  0
LINE
  5
E97
330
18
100
AcDbEntity
  8
Image
100
AcDbLine
 10
5.1030298417035
 20
9.528483529963356
 30
0.0
 11
5.016333604687124
 21
9.528483529963356
 31
0.0
  0
LINE
  5
E98
330
18
100
AcDbEntity
  8
Image
100
AcDbLine
 10
5.134517515126196
 20
9.501926660278055
 30
0.0
 11
5.1030298417035
 21
9.528483529963356
 31
0.0
  0
LWPOLYLINE
  5
E99
330
18
100
AcDbEntity
  8
Image
100
AcDbPolyline
 90
        2
 70
     0
 43
0.0
 10
5.016333604687124
 20
9.506119858634118
 10
5.016333604687124
 20
9.497733461921992
  0
LWPOLYLINE
  5
EA2
330
18
100
AcDbEntity
  8
Image
100
AcDbPolyline
 90
        2
 70
     0
 43
0.0
 10
4.964595499871014
 20
9.50611985863412
 10
5.016333604687126
 20
9.506119858634118
  0
LWPOLYLINE
  5
EA6
330
18
100
AcDbEntity
  8
Image
100
AcDbPolyline
 90
        2
 70
     0
 43
0.0
 10
4.964595499871014
 20
9.497733461921992
 10
5.016333604687126
 20
9.497733461921994
  0
LINE
  5
EB6
330
18
100
AcDbEntity
  8
Image
100
AcDbLine
 10
4.370306659668889
 20
9.503324403710688
 30
0.0
 11
4.370306659668889
 21
9.212596580604991
 31
0.0
  0
LINE
  5
EB7
330
18
100
AcDbEntity
  8
Image
100
AcDbLine
 10
4.370306659668889
 20
9.212596580604991
 30
0.0
 11
4.518529298277377
 21
9.212596580604991
 31
0.0
  0
LINE
  5
EB8
330
18
100
AcDbEntity
  8
Image
100
AcDbLine
 10
4.518529298277377
 20
9.212596580604991
 30
0.0
 11
4.54321514494034
 21
9.497733461921994
 31
0.0
  0
LWPOLYLINE
  5
EBE
330
18
100
AcDbEntity
  8
Image
100
AcDbPolyline
 90
        2
 70
     0
 43
0.0
 10
4.370306659668891
 20
9.497733461921992
 10
4.858322669302642
 20
9.497733461921992
  0
LWPOLYLINE
  5
EC2
330
18
100
AcDbEntity
  8
Image
100
AcDbPolyline
 90
        2
 70
     0
 43
0.0
 10
4.370306659668891
 20
9.506119858634118
 10
4.858322669302642
 20
9.50611985863412
  0
LINE
  5
EC6
330
18
100
AcDbEntity
  8
Image
100
AcDbLine
 10
4.518529298277377
 20
9.794052226816386
 30
0.0
 11
4.543457165403584
 21
9.506119858634118
 31
0.0
  0
LINE
  5
EC7
330
18
100
AcDbEntity
  8
Image
100
AcDbLine
 10
4.370306659668889
 20
9.503324403710688
 30
0.0
 11
4.370306659668889
 21
9.794052226816386
 31
0.0
  0
LINE
  5
EC8
330
18
100
AcDbEntity
  8
Image
100
AcDbLine
 10
4.370306659668889
 20
9.794052226816386
 30
0.0
 11
4.518529298277377
 21
9.794052226816386
 31
0.0
  0
LINE
  5
112F
330
18
100
AcDbEntity
  8
Image
100
AcDbLine
 10
2.645197577093242
 20
9.005478366040495
 30
0.0
 11
3.021069061829855
 21
9.005478366040495
 31
0.0
  0
LINE
  5
1130
330
18
100
AcDbEntity
  8
Image
100
AcDbLine
 10
2.642057384007999
 20
8.885105135774995
 30
0.0
 11
3.024357999651378
 21
8.885105135774995
 31
0.0
  0
INSERT
  5
136A
330
18
100
AcDbEntity
  8
TEXT_BUBBLES
100
AcDbBlockReference
 66
     1
  2
bubble
 10
8.914494107879153
 20
8.947194861986917
 30
0.0
  0
ATTRIB
  5
136B
330
136A
100
AcDbEntity
  8
TEXT_BUBBLES
100
AcDbText
 10
8.863898869783916
 20
8.884694861986917
 30
0.0
 40
0.125
  1
1
  7
ROMANS
 72
     4
 11
8.914494107879153
 21
8.947194861986917
 31
0.0
100
AcDbAttribute
  2
XX
 70
     0
  0
SEQEND
  5
136C
330
136A
100
AcDbEntity
  8
TEXT_BUBBLES
  0
INSERT
  5
136D
330
18
100
AcDbEntity
  8
TEXT_BUBBLES
100
AcDbBlockReference
 66
     1
  2
bubble
 10
8.914494107879153
 20
8.537778413892036
 30
0.0
  0
ATTRIB
  5
136E
330
136D
100
AcDbEntity
  8
TEXT_BUBBLES
100
AcDbText
 10
8.854970298355343
 20
8.475278413892036
 30
0.0
 40
0.125
  1
2
  7
ROMANS
 72
     4
 11
8.914494107879153
 21
8.537778413892036
 31
0.0
100
AcDbAttribute
  2
XX
 70
     0
  0
SEQEND
  5
136F
330
136D
100
AcDbEntity
  8
TEXT_BUBBLES
  0
INSERT
  5
1370
330
18
100
AcDbEntity
  8
TEXT_BUBBLES
100
AcDbBlockReference
 66
     1
  2
bubble
 10
8.894499898112623
 20
8.117058018583046
 30
0.0
  0
ATTRIB
  5
1371
330
1370
100
AcDbEntity
  8
TEXT_BUBBLES
100
AcDbText
 10
8.834976088588813
 20
8.054558018583046
 30
0.0
 40
0.125
  1
3
  7
ROMANS
 72
     4
 11
8.894499898112623
 21
8.117058018583046
 31
0.0
100
AcDbAttribute
  2
XX
 70
     0
  0
SEQEND
  5
1372
330
1370
100
AcDbEntity
  8
TEXT_BUBBLES
  0
INSERT
  5
1373
330
18
100
AcDbEntity
  8
TEXT_BUBBLES
100
AcDbBlockReference
 66
     1
  2
bubble
 10
8.894499898112623
 20
7.688919829022904
 30
0.0
  0
ATTRIB
  5
1374
330
1373
100
AcDbEntity
  8
TEXT_BUBBLES
100
AcDbText
 10
8.831999898112623
 20
7.626419829022904
 30
0.0
 40
0.125
  1
4
  7
ROMANS
 72
     4
 11
8.894499898112623
 21
7.688919829022904
 31
0.0
100
AcDbAttribute
  2
XX
 70
     0
  0
SEQEND
  5
1375
330
1373
100
AcDbEntity
  8
TEXT_BUBBLES
  0
INSERT
  5
1376
330
18
100
AcDbEntity
  8
TEXT_BUBBLES
100
AcDbBlockReference
 66
     1
  2
bubble
 10
8.901164663251453
 20
7.075673423696572
 30
0.0
  0
ATTRIB
  5
1377
330
1376
100
AcDbEntity
  8
TEXT_BUBBLES
100
AcDbText
 10
8.841640853727643
 20
7.013173423696572
 30
0.0
 40
0.125
  1
5
  7
ROMANS
 72
     4
 11
8.901164663251453
 21
7.075673423696572
 31
0.0
100
AcDbAttribute
  2
XX
 70
     0
  0
SEQEND
  5
1378
330
1376
100
AcDbEntity
  8
TEXT_BUBBLES
  0
INSERT
  5
1379
330
18
100
AcDbEntity
  8
TEXT_BUBBLES
100
AcDbBlockReference
 66
     1
  2
bubble
 10
8.907829342740328
 20
6.660114691889694
 30
0.0
  0
ATTRIB
  5
137A
330
1379
100
AcDbEntity
  8
TEXT_BUBBLES
100
AcDbText
 10
8.845329342740328
 20
6.597614691889694
 30
0.0
 40
0.125
  1
6
  7
ROMANS
 72
     4
 11
8.907829342740328
 21
6.660114691889694
 31
0.0
100
AcDbAttribute
  2
XX
 70
     0
  0
SEQEND
  5
137B
330
1379
100
AcDbEntity
  8
TEXT_BUBBLES
  0
INSERT
  5
137C
330
18
100
AcDbEntity
  8
TEXT_BUBBLES
100
AcDbBlockReference
 66
     1
  2
bubble
 10
8.901164663251453
 20
6.038673454151414
 30
0.0
  0
ATTRIB
  5
137D
330
137C
100
AcDbEntity
  8
TEXT_BUBBLES
100
AcDbText
 10
8.841640853727643
 20
5.976173454151414
 30
0.0
 40
0.125
  1
7
  7
ROMANS
 72
     4
 11
8.901164663251453
 21
6.038673454151414
 31
0.0
100
AcDbAttribute
  2
XX
 70
     0
  0
SEQEND
  5
137E
330
137C
100
AcDbEntity
  8
TEXT_BUBBLES
  0
INSERT
  5
137F
330
18
100
AcDbEntity
  8
TEXT_BUBBLES
100
AcDbBlockReference
 66
     1
  2
bubble
 10
8.894499983762571
 20
5.622877843247921
 30
0.0
  0
ATTRIB
  5
1380
330
137F
100
AcDbEntity
  8
TEXT_BUBBLES
100
AcDbText
 10
8.834976174238761
 20
5.560377843247921
 30
0.0
 40
0.125
  1
8
  7
ROMANS
 72
     4
 11
8.894499983762571
 21
5.622877843247921
 31
0.0
100
AcDbAttribute
  2
XX
 70
     0
  0
SEQEND
  5
1381
330
137F
100
AcDbEntity
  8
TEXT_BUBBLES
  0
INSERT
  5
1382
330
18
100
AcDbEntity
  8
TEXT_BUBBLES
100
AcDbBlockReference
 66
     1
  2
bubble
 10
8.901164663251453
 20
5.1834805742642
 30
0.0
  0
ATTRIB
  5
1383
330
1382
100
AcDbEntity
  8
TEXT_BUBBLES
100
AcDbText
 10
8.844617044203834
 20
5.1209805742642
 30
0.0
 40
0.125
  1
9
  7
ROMANS
 72
     4
 11
8.901164663251453
 21
5.1834805742642
 31
0.0
100
AcDbAttribute
  2
XX
 70
     0
  0
SEQEND
  5
1384
330
1382
100
AcDbEntity
  8
TEXT_BUBBLES
  0
INSERT
  5
1385
330
18
100
AcDbEntity
  8
TEXT_BUBBLES
100
AcDbBlockReference
 66
     1
  2
bubble
 10
8.887835218623749
 20
4.266932857813232
 30
0.0
  0
ATTRIB
  5
1386
330
1385
100
AcDbEntity
  8
TEXT_BUBBLES
100
AcDbText
 10
8.759859028147559
 20
4.204432857813232
 30
0.0
 40
0.125
  1
10
  7
ROMANS
 72
     4
 11
8.887835218623749
 21
4.266932857813232
 31
0.0
100
AcDbAttribute
  2
XX
 70
     0
  0
SEQEND
  5
1387
330
1385
100
AcDbEntity
  8
TEXT_BUBBLES
  0
INSERT
  5
1388
330
18
100
AcDbEntity
  8
TEXT_BUBBLES
100
AcDbBlockReference
 66
     1
  2
bubble
 10
8.894499983762575
 20
3.830957062439267
 30
0.0
  0
ATTRIB
  5
1389
330
1388
100
AcDbEntity
  8
TEXT_BUBBLES
100
AcDbText
 10
8.784380936143527
 20
3.768457062439267
 30
0.0
 40
0.125
  1
11
  7
ROMANS
 72
     4
 11
8.894499983762575
 21
3.830957062439267
 31
0.0
100
AcDbAttribute
  2
XX
 70
     0
  0
SEQEND
  5
138A
330
1388
100
AcDbEntity
  8
TEXT_BUBBLES
  0
INSERT
  5
138B
330
18
100
AcDbEntity
  8
TEXT_BUBBLES
100
AcDbBlockReference
 66
     1
  2
bubble
 10
8.921158873017979
 20
2.954780121016622
 30
0.0
  0
ATTRIB
  5
138C
330
138B
100
AcDbEntity
  8
TEXT_BUBBLES
100
AcDbText
 10
8.79318268254179
 20
2.892280121016622
 30
0.0
 40
0.125
  1
12
  7
ROMANS
 72
     4
 11
8.921158873017979
 21
2.954780121016622
 31
0.0
100
AcDbAttribute
  2
XX
 70
     0
  0
SEQEND
  5
138D
330
138B
100
AcDbEntity
  8
TEXT_BUBBLES
  0
INSERT
  5
1397
330
18
100
AcDbEntity
  8
TEXT_BUBBLES
 62
    42
100
AcDbBlockReference
  2
wid
 10
14.70557120830156
 20
2.261997463618294
 30
0.0
  0
INSERT
  5
1398
330
18
100
AcDbEntity
  8
TEXT_BUBBLES
 62
    42
100
AcDbBlockReference
  2
wid
 10
14.70557120830156
 20
2.261997463618294
 30
0.0
  0
LWPOLYLINE
  5
1399
330
18
100
AcDbEntity
  8
Image
100
AcDbPolyline
 90
        4
 70
     1
 43
0.0
 10
0.0
 20
0.0
 10
16.49
 20
0.0
 10
16.49
 20
10.44
 10
0.0
 20
10.44
  0
INSERT
  5
139A
330
18
100
AcDbEntity
  8
TEXT_BUBBLES
 62
    42
100
AcDbBlockReference
 66
     1
  2
TITLBLK
 10
0.6064423705144844
 20
0.8842270964783679
 30
0.0
  0
ATTRIB
  5
139B
330
139A
100
AcDbEntity
  8
TITLE
100
AcDbText
 10
1.231442370514484
 20
0.9842270964783676
 30
0.0
 40
0.2
  1
STATION INSTALLATION
  7
L200
100
AcDbAttribute
  2
TITLE2
 70
     0
  0
ATTRIB
  5
139C
330
139A
100
AcDbEntity
  8
TITLE
100
AcDbText
 10
0.373359150869191
 20
0.7855913529585845
 30
0.0
 40
0.2
  1
300
  7
L200
 72
     4
 11
0.6064423705144844
 21
0.8842270964783661
 31
0.0
100
AcDbAttribute
  2
#
 70
     0
  0
ATTRIB
  5
139D
330
139A
100
AcDbEntity
  8
TITLE
 62
     7
100
AcDbText
 10
1.231442370514484
 20
0.7005637793954898
 30
0.0
 40
0.1
  1
N.T.S.
  7
L100
100
AcDbAttribute
  2
SCALE
 70
     0
  0
ATTRIB
  5
139E
330
139A
100
AcDbEntity
  8
TITLE
100
AcDbText
 10
2.713645751168312
 20
0.5927927664583188
 30
0.0
 40
0.2
  1
AND INTERNAL WIRE INSTALLATION
  7
L200
100
AcDbAttribute
  2
TITLE3
 70
     0
  0
ATTRIB
  5
139F
330
139A
100
AcDbEntity
  8
TITLE
 62
     7
100
AcDbText
 10
0.2747148890673239
 20
0.0464812004029863
 30
0.0
 40
0.08
  1
300-WS INSTALLATION.DWG
  7
L80
 72
     2
 11
1.905191079543514
 21
0.0464812004029863
 31
0.0
100
AcDbAttribute
  2
DWG-NAME
 70
     0
  0
ATTRIB
  5
13A0
330
139A
100
AcDbEntity
  8
TITLE
 62
     7
100
AcDbText
 10
7.689595782347334
 20
0.96960279154464
 30
0.0
 40
0.08
  1
1-21-04
  7
L80
 72
     2
 11
8.261024353775905
 21
0.96960279154464
 31
0.0
100
AcDbAttribute
  2
REVISED
 70
     0
  0
ATTRIB
  5
13A1
330
139A
100
AcDbEntity
  8
TITLE
100
AcDbText
 10
1.231442370514484
 20
1.34371230274675
 30
0.0
 40
0.2
  1
SITECONTROL WEATHER 
  7
L200
100
AcDbAttribute
  2
TITLE1
 70
     0
  0
ATTRIB
  5
13A2
330
139A
100
AcDbEntity
  8
TITLE
100
AcDbText
 10
2.713645751168312
 20
0.2692560808167745
 30
0.0
 40
0.2
  1

  7
L200
100
AcDbAttribute
  2
TITLE4
 70
     0
  0
SEQEND
  5
13A3
330
139A
100
AcDbEntity
  8
TEXT_BUBBLES
 62
    40
  0
LINE
  5
148D
102
{ACAD_REACTORS
330
1601
102
}
330
18
100
AcDbEntity
  8
Image
  6
Continuous
100
AcDbLine
 10
4.831486026314562
 20
4.473173087624125
 30
0.0
 11
5.244493362073873
 21
2.750200714167744
 31
0.0
  0
LINE
  5
148E
102
{ACAD_REACTORS
330
1601
102
}
330
18
100
AcDbEntity
  8
Image
  6
Continuous
100
AcDbLine
 10
3.108513652858185
 20
4.473173087624125
 30
0.0
 11
2.660034801889301
 21
2.750200714167744
 31
0.0
  0
LINE
  5
148F
102
{ACAD_REACTORS
330
1601
102
}
330
18
100
AcDbEntity
  8
Image
  6
Continuous
100
AcDbLine
 10
2.660034801889301
 20
2.750200714167744
 30
0.0
 11
5.244493362073873
 21
2.750200714167744
 31
0.0
  0
LWPOLYLINE
  5
1490
330
18
100
AcDbEntity
  8
Image
  6
Continuous
100
AcDbPolyline
 90
        6
 70
     0
 43
0.0
 10
3.676126385016935
 20
4.473173087624125
 10
3.108513652858185
 20
4.473173087624125
 10
3.108513652858185
 20
4.650605249180706
 10
4.83148602631457
 20
4.650605249180706
 10
4.83148602631457
 20
4.473173087624125
 10
4.303718460114833
 20
4.473173087624125
  0
LINE
  5
1491
102
{ACAD_REACTORS
330
1601
102
}
330
18
100
AcDbEntity
  8
Image
  6
Continuous
100
AcDbLine
 10
3.108513652858185
 20
4.473173087624125
 30
0.0
 11
3.676126385016935
 21
4.473173087624125
 31
0.0
  0
LWPOLYLINE
  5
1493
102
{ACAD_REACTORS
330
1601
102
}
330
18
100
AcDbEntity
  8
Image
 62
     7
100
AcDbPolyline
 90
       10
 70
     0
 43
0.0
 10
4.267283107500329
 20
4.74943808419473
 10
4.267283107500329
 20
3.859783105686306
 10
4.267283107500329
 20
3.814212441425887
 42
0.4142135623730951
 10
4.279586864194651
 20
3.801908684731565
 10
4.351051874898512
 20
3.801908684731565
 10
4.351051874898512
 20
3.838344037346068
 10
4.316022216809155
 20
3.838344037346068
 42
-0.4142135623730951
 10
4.303718460114833
 20
3.85064779404039
 10
4.303718460114833
 20
3.859783105686306
 10
4.303718460114833
 20
4.74943808419473
  0
LWPOLYLINE
  5
1494
102
{ACAD_REACTORS
330
1601
102
}
330
18
100
AcDbEntity
  8
Image
 62
     7
100
AcDbPolyline
 90
       10
 70
     0
 43
0.0
 10
3.840747200002974
 20
4.74943808419473
 10
3.840747200002974
 20
3.859783105686306
 10
3.840747200002974
 20
3.814212441425887
 42
-0.4142135623730951
 10
3.828443443308652
 20
3.801908684731565
 10
3.756978432604789
 20
3.801908684731565
 10
3.756978432604789
 20
3.838344037346068
 10
3.79200809069415
 20
3.838344037346068
 42
0.4142135623730951
 10
3.80431184738847
 20
3.85064779404039
 10
3.80431184738847
 20
3.859783105686306
 10
3.80431184738847
 20
4.74943808419473
  0
LWPOLYLINE
  5
1495
102
{ACAD_REACTORS
330
1601
102
}
330
18
100
AcDbEntity
  8
Image
 62
     7
100
AcDbPolyline
 90
       10
 70
     0
 43
0.0
 10
3.712561737631439
 20
4.74943808419473
 10
3.712561737631439
 20
3.859783105686306
 10
3.712561737631439
 20
3.814212441425887
 42
-0.4142135623730951
 10
3.700257980937116
 20
3.801908684731565
 10
3.628792970233256
 20
3.801908684731565
 10
3.628792970233256
 20
3.838344037346068
 10
3.663822628322613
 20
3.838344037346068
 42
0.4142135623730951
 10
3.676126385016935
 20
3.85064779404039
 10
3.676126385016935
 20
3.859783105686306
 10
3.676126385016935
 20
4.74943808419473
  0
LINE
  5
1496
330
18
100
AcDbEntity
  8
Image
100
AcDbLine
 10
3.128831287946933
 20
4.712317221404463
 30
0.0
 11
2.970253503843654
 21
4.473173087624125
 31
0.0
  0
LINE
  5
1497
330
18
100
AcDbEntity
  8
Image
  6
Continuous
100
AcDbLine
 10
2.623565790060359
 20
4.473173087624125
 30
0.0
 11
3.108513652858185
 21
4.473173087624125
 31
0.0
  0
LINE
  5
1498
330
18
100
AcDbEntity
  8
Image
100
AcDbLine
 10
3.074229821282466
 20
4.736892717765297
 30
0.0
 11
3.011110515904897
 21
4.473173087624129
 31
0.0
  0
LINE
  5
1499
330
18
100
AcDbEntity
  8
Image
100
AcDbLine
 10
3.043342411448076
 20
4.757178843160765
 30
0.0
 11
3.067030542370661
 21
4.473173087624129
 31
0.0
  0
LINE
  5
149A
330
18
100
AcDbEntity
  8
Image
100
AcDbLine
 10
3.068093124243475
 20
4.734697519238229
 30
0.0
 11
3.04357520877965
 21
4.473173087624125
 31
0.0
  0
LINE
  5
149B
330
18
100
AcDbEntity
  8
Image
100
AcDbLine
 10
2.913840131095799
 20
4.696320466974349
 30
0.0
 11
2.733445903300733
 21
4.473173087624124
 31
0.0
  0
LINE
  5
149C
330
18
100
AcDbEntity
  8
Image
100
AcDbLine
 10
2.880140404929761
 20
4.736892717765289
 30
0.0
 11
2.817021099552189
 21
4.473173087624125
 31
0.0
  0
LINE
  5
149D
330
18
100
AcDbEntity
  8
Image
100
AcDbLine
 10
2.85254515547793
 20
4.713407207282502
 30
0.0
 11
2.786674509765141
 21
4.473173087624122
 31
0.0
  0
LINE
  5
149E
330
18
100
AcDbEntity
  8
Image
100
AcDbLine
 10
2.800124306321128
 20
4.767321905858516
 30
0.0
 11
2.940319366883379
 21
4.473173087624125
 31
0.0
  0
LINE
  5
149F
330
18
100
AcDbEntity
  8
Image
100
AcDbLine
 10
2.519814737628848
 20
4.767321905858516
 30
0.0
 11
2.660009798191085
 21
4.473173087624125
 31
0.0
  0
LINE
  5
14A0
330
18
100
AcDbEntity
  8
Image
100
AcDbLine
 10
2.73473078917144
 20
4.757178843160764
 30
0.0
 11
2.758418920094021
 21
4.473173087624129
 31
0.0
  0
LINE
  5
14A1
330
18
100
AcDbEntity
  8
Image
100
AcDbLine
 10
2.7632029556779
 20
4.738955581629376
 30
0.0
 11
2.69507395741957
 21
4.479213775769514
 31
0.0
  0
LINE
  5
14A2
330
18
100
AcDbEntity
  8
Image
100
AcDbLine
 10
2.755653693382239
 20
4.713407207282504
 30
0.0
 11
2.689783047669456
 21
4.473173087624124
 31
0.0
  0
LINE
  5
14A3
330
18
100
AcDbEntity
  8
Image
100
AcDbLine
 10
2.743167631229828
 20
4.751729768802809
 30
0.0
 11
2.709197304256814
 21
4.473173087624124
 31
0.0
  0
LINE
  5
14A4
330
18
100
AcDbEntity
  8
Image
100
AcDbLine
 10
2.680342840573192
 20
4.757178843160764
 30
0.0
 11
2.70403097149577
 21
4.473173087624129
 31
0.0
  0
LINE
  5
14A5
330
18
100
AcDbEntity
  8
Image
100
AcDbLine
 10
2.70881500707965
 20
4.738955581629376
 30
0.0
 11
2.640686008821317
 21
4.473173087624125
 31
0.0
  0
LINE
  5
14A6
330
18
100
AcDbEntity
  8
Image
100
AcDbLine
 10
2.645893530174344
 20
4.787608031253977
 30
0.0
 11
2.645893530174344
 21
4.473173087624124
 31
0.0
  0
LINE
  5
14A7
330
18
100
AcDbEntity
  8
Image
100
AcDbLine
 10
2.645623369673423
 20
4.730439456847083
 30
0.0
 11
2.66995937757289
 21
4.473173087624125
 31
0.0
  0
LINE
  5
14A8
330
18
100
AcDbEntity
  8
Image
100
AcDbLine
 10
2.606641978175431
 20
4.777464968556248
 30
0.0
 11
2.679962383411996
 21
4.473173087624125
 31
0.0
  0
LINE
  5
14A9
330
18
100
AcDbEntity
  8
Image
100
AcDbLine
 10
2.804194979890098
 20
4.787608031253977
 30
0.0
 11
2.804194979890098
 21
4.473173087624124
 31
0.0
  0
LINE
  5
14AA
330
18
100
AcDbEntity
  8
Image
100
AcDbLine
 10
2.781863401669969
 20
4.787608031253977
 30
0.0
 11
2.781863401669969
 21
4.473173087624124
 31
0.0
  0
LINE
  5
14AB
330
18
100
AcDbEntity
  8
Image
100
AcDbLine
 10
2.810041641980498
 20
4.713407207282504
 30
0.0
 11
2.74417099626771
 21
4.473173087624124
 31
0.0
  0
LINE
  5
14AC
330
18
100
AcDbEntity
  8
Image
100
AcDbLine
 10
2.879137502725463
 20
4.751729768802809
 30
0.0
 11
2.845167175752447
 21
4.473173087624124
 31
0.0
  0
LINE
  5
14AD
330
18
100
AcDbEntity
  8
Image
100
AcDbLine
 10
2.836251350268224
 20
4.787608031253977
 30
0.0
 11
2.836251350268224
 21
4.473173087624124
 31
0.0
  0
LINE
  5
14AE
330
18
100
AcDbEntity
  8
Image
100
AcDbLine
 10
3.018671002212895
 20
4.787608031253981
 30
0.0
 11
3.018671002212895
 21
4.473173087624125
 31
0.0
  0
LINE
  5
14AF
330
18
100
AcDbEntity
  8
Image
100
AcDbLine
 10
3.012946209429538
 20
4.734697519238231
 30
0.0
 11
2.988428293965711
 21
4.473173087624125
 31
0.0
  0
LINE
  5
14B0
330
18
100
AcDbEntity
  8
Image
100
AcDbLine
 10
2.97915049807166
 20
4.751729768802812
 30
0.0
 11
2.945180171098641
 21
4.473173087624125
 31
0.0
  0
LINE
  5
14B1
330
18
100
AcDbEntity
  8
Image
100
AcDbLine
 10
2.99246129392517
 20
4.713407207282505
 30
0.0
 11
2.926590648212382
 21
4.473173087624125
 31
0.0
  0
LINE
  5
14B2
330
18
100
AcDbEntity
  8
Image
100
AcDbLine
 10
2.889462400086319
 20
4.730439456847083
 30
0.0
 11
2.913798407985783
 21
4.473173087624125
 31
0.0
  0
LINE
  5
14B3
330
18
100
AcDbEntity
  8
Image
100
AcDbLine
 10
2.881876397016167
 20
4.787608031253981
 30
0.0
 11
2.881876397016167
 21
4.473173087624125
 31
0.0
  0
LINE
  5
14B4
330
18
100
AcDbEntity
  8
Image
100
AcDbLine
 10
2.917150441116113
 20
4.757178843160765
 30
0.0
 11
2.940838572038698
 21
4.473173087624129
 31
0.0
  0
LINE
  5
14B5
330
18
100
AcDbEntity
  8
Image
100
AcDbLine
 10
2.945622607622572
 20
4.73895558162938
 30
0.0
 11
2.874693500581685
 21
4.473173087624125
 31
0.0
  0
LINE
  5
14B6
330
18
100
AcDbEntity
  8
Image
100
AcDbLine
 10
2.921948979637285
 20
4.777464968556248
 30
0.0
 11
2.99526938487385
 21
4.473173087624125
 31
0.0
  0
LWPOLYLINE
  5
14B9
330
18
100
AcDbEntity
  8
Image
  6
Continuous
100
AcDbPolyline
 90
        4
 70
     1
 43
0.0
 10
3.778900970795653
 20
4.82564480553755
 10
3.864006913354579
 20
4.82564480553755
 10
3.864006913354579
 20
4.776228388030537
 10
3.778900970795653
 20
4.776228388030537
  0
LWPOLYLINE
  5
14BA
330
18
100
AcDbEntity
  8
Image
  6
Continuous
100
AcDbPolyline
 90
        4
 70
     1
 43
0.0
 10
3.778900970795653
 20
4.700021666687719
 10
3.864006913354579
 20
4.700021666687719
 10
3.864006913354579
 20
4.650605249180706
 10
3.778900970795653
 20
4.650605249180706
  0
LWPOLYLINE
  5
14BB
330
18
100
AcDbEntity
  8
Image
  6
Continuous
100
AcDbPolyline
 90
        4
 70
     1
 43
0.0
 10
3.778900970795653
 20
4.74943808419473
 10
3.864006913354579
 20
4.74943808419473
 10
3.864006913354579
 20
4.700021666687719
 10
3.778900970795653
 20
4.700021666687719
  0
LINE
  5
14BC
330
18
100
AcDbEntity
  8
Image
  6
Continuous
 62
     7
100
AcDbLine
 10
3.567805547466901
 20
4.776228388030537
 30
0.0
 11
4.383176436332609
 21
4.776228388030537
 31
0.0
  0
LINE
  5
14BD
330
18
100
AcDbEntity
  8
Image
  6
Continuous
 62
     7
100
AcDbLine
 10
3.567805547466901
 20
4.74943808419473
 30
0.0
 11
4.383176436332609
 21
4.74943808419473
 31
0.0
  0
LINE
  5
14BE
330
18
100
AcDbEntity
  8
Image
100
AcDbLine
 10
3.084177644958717
 20
4.730439456847083
 30
0.0
 11
3.108513652858185
 21
4.473173087624125
 31
0.0
  0
LINE
  5
14BF
330
18
100
AcDbEntity
  8
Image
100
AcDbLine
 10
3.11865326425714
 20
4.713407207282505
 30
0.0
 11
3.052782618544352
 21
4.473173087624125
 31
0.0
  0
LWPOLYLINE
  5
14C0
330
18
100
AcDbEntity
  8
Image
  6
Continuous
100
AcDbPolyline
 90
        4
 70
     1
 43
0.0
 10
3.650715508424113
 20
4.74943808419473
 10
3.735821450983038
 20
4.74943808419473
 10
3.735821450983038
 20
4.700021666687719
 10
3.650715508424113
 20
4.700021666687719
  0
LWPOLYLINE
  5
14C1
330
18
100
AcDbEntity
  8
Image
  6
Continuous
100
AcDbPolyline
 90
        4
 70
     1
 43
0.0
 10
3.650715508424113
 20
4.700021666687719
 10
3.735821450983038
 20
4.700021666687719
 10
3.735821450983038
 20
4.650605249180706
 10
3.650715508424113
 20
4.650605249180706
  0
LINE
  5
14C2
330
18
100
AcDbEntity
  8
Image
  6
Continuous
100
AcDbLine
 10
3.567805547466901
 20
4.776228388030537
 30
0.0
 11
3.567805547466901
 21
4.74943808419473
 31
0.0
  0
LWPOLYLINE
  5
14C3
330
18
100
AcDbEntity
  8
Image
 62
     7
100
AcDbPolyline
 90
        4
 70
     0
 43
0.0
 10
3.676126385016935
 20
4.776228388030537
 10
3.676126385016935
 20
4.84109400822934
 10
3.712561737631439
 20
4.84109400822934
 10
3.712561737631439
 20
4.776228388030537
  0
LWPOLYLINE
  5
14C4
330
18
100
AcDbEntity
  8
Image
  6
Continuous
100
AcDbPolyline
 90
        4
 70
     1
 43
0.0
 10
3.650715508424113
 20
4.82564480553755
 10
3.735821450983038
 20
4.82564480553755
 10
3.735821450983038
 20
4.776228388030538
 10
3.650715508424113
 20
4.776228388030538
  0
LWPOLYLINE
  5
14C5
330
18
100
AcDbEntity
  8
Image
 62
     7
100
AcDbPolyline
 90
        4
 70
     0
 43
0.0
 10
3.80431184738847
 20
4.776228388030537
 10
3.80431184738847
 20
4.84109400822934
 10
3.840747200002974
 20
4.84109400822934
 10
3.840747200002974
 20
4.776228388030537
  0
LWPOLYLINE
  5
14C6
330
18
100
AcDbEntity
  8
Image
  6
Continuous
100
AcDbPolyline
 90
        4
 70
     1
 43
0.0
 10
4.241872230907505
 20
4.74943808419473
 10
4.326978173466432
 20
4.74943808419473
 10
4.326978173466432
 20
4.700021666687719
 10
4.241872230907505
 20
4.700021666687719
  0
LWPOLYLINE
  5
14C7
330
18
100
AcDbEntity
  8
Image
  6
Continuous
100
AcDbPolyline
 90
        4
 70
     1
 43
0.0
 10
4.241872230907505
 20
4.700021666687719
 10
4.326978173466432
 20
4.700021666687719
 10
4.326978173466432
 20
4.650605249180706
 10
4.241872230907505
 20
4.650605249180706
  0
LWPOLYLINE
  5
14C8
330
18
100
AcDbEntity
  8
Image
 62
     7
100
AcDbPolyline
 90
        4
 70
     0
 43
0.0
 10
4.267283107500329
 20
4.776228388030537
 10
4.267283107500329
 20
4.84109400822934
 10
4.303718460114833
 20
4.84109400822934
 10
4.303718460114833
 20
4.776228388030537
  0
LWPOLYLINE
  5
14C9
330
18
100
AcDbEntity
  8
Image
  6
Continuous
100
AcDbPolyline
 90
        4
 70
     1
 43
0.0
 10
4.241872230907505
 20
4.82456356643178
 10
4.326978173466432
 20
4.82456356643178
 10
4.326978173466432
 20
4.775147148924769
 10
4.241872230907505
 20
4.775147148924769
  0
LINE
  5
14CA
330
18
100
AcDbEntity
  8
Image
  6
Continuous
100
AcDbLine
 10
4.383176436332609
 20
4.776228388030537
 30
0.0
 11
4.383176436332609
 21
4.74943808419473
 31
0.0
  0
LINE
  5
14CB
330
18
100
AcDbEntity
  8
Image
  6
Continuous
100
AcDbLine
 10
4.83148602631457
 20
4.473173087624125
 30
0.0
 11
5.300519807551417
 21
4.473173087624125
 31
0.0
  0
LINE
  5
14CC
330
18
100
AcDbEntity
  8
Image
100
AcDbLine
 10
5.333357700997325
 20
4.777464968556248
 30
0.0
 11
5.260037295760762
 21
4.473173087624125
 31
0.0
  0
LINE
  5
14CD
330
18
100
AcDbEntity
  8
Image
100
AcDbLine
 10
5.294376309499336
 20
4.730439456847083
 30
0.0
 11
5.270040301599866
 21
4.473173087624125
 31
0.0
  0
LINE
  5
14CE
330
18
100
AcDbEntity
  8
Image
100
AcDbLine
 10
5.231184672093109
 20
4.738955581629376
 30
0.0
 11
5.299313670351439
 21
4.473173087624125
 31
0.0
  0
LINE
  5
14CF
330
18
100
AcDbEntity
  8
Image
100
AcDbLine
 10
5.420184941543908
 20
4.767321905858516
 30
0.0
 11
5.279989880981672
 21
4.473173087624125
 31
0.0
  0
LINE
  5
14D0
330
18
100
AcDbEntity
  8
Image
100
AcDbLine
 10
4.825781147107647
 20
4.721388520226229
 30
0.0
 11
4.969746175329103
 21
4.473173087624125
 31
0.0
  0
LINE
  5
14D1
330
18
100
AcDbEntity
  8
Image
100
AcDbLine
 10
4.810622943076344
 20
4.736892717765295
 30
0.0
 11
4.873742248453918
 21
4.473173087624129
 31
0.0
  0
LINE
  5
14D2
330
18
100
AcDbEntity
  8
Image
100
AcDbLine
 10
4.927053469743221
 20
4.734697519238231
 30
0.0
 11
4.951571385207046
 21
4.473173087624125
 31
0.0
  0
LINE
  5
14D3
330
18
100
AcDbEntity
  8
Image
100
AcDbLine
 10
4.871906554929282
 20
4.734697519238229
 30
0.0
 11
4.896424470393107
 21
4.473173087624125
 31
0.0
  0
LINE
  5
14D4
330
18
100
AcDbEntity
  8
Image
100
AcDbLine
 10
4.89665726772468
 20
4.757178843160765
 30
0.0
 11
4.872969136802096
 21
4.473173087624129
 31
0.0
  0
LINE
  5
14D5
330
18
100
AcDbEntity
  8
Image
100
AcDbLine
 10
4.921328676959863
 20
4.787608031253981
 30
0.0
 11
4.921328676959863
 21
4.473173087624125
 31
0.0
  0
LINE
  5
14D6
330
18
100
AcDbEntity
  8
Image
100
AcDbLine
 10
4.86576985789029
 20
4.736892717765297
 30
0.0
 11
4.928889163267861
 21
4.473173087624129
 31
0.0
  0
LINE
  5
14D7
330
18
100
AcDbEntity
  8
Image
100
AcDbLine
 10
4.821346414915616
 20
4.713407207282505
 30
0.0
 11
4.887217060628405
 21
4.473173087624125
 31
0.0
  0
LINE
  5
14D8
330
18
100
AcDbEntity
  8
Image
100
AcDbLine
 10
4.855822034214039
 20
4.730439456847083
 30
0.0
 11
4.831486026314571
 21
4.473173087624125
 31
0.0
  0
LINE
  5
14D9
330
18
100
AcDbEntity
  8
Image
100
AcDbLine
 10
5.196832047942928
 20
4.751729768802809
 30
0.0
 11
5.230802374915944
 21
4.473173087624124
 31
0.0
  0
LINE
  5
14DA
330
18
100
AcDbEntity
  8
Image
100
AcDbLine
 10
5.184345985790518
 20
4.713407207282504
 30
0.0
 11
5.250216631503302
 21
4.473173087624124
 31
0.0
  0
LINE
  5
14DB
330
18
100
AcDbEntity
  8
Image
100
AcDbLine
 10
5.176796723494856
 20
4.738955581629376
 30
0.0
 11
5.244925721753187
 21
4.479213775769514
 31
0.0
  0
LINE
  5
14DC
330
18
100
AcDbEntity
  8
Image
100
AcDbLine
 10
5.205268890001317
 20
4.757178843160764
 30
0.0
 11
5.181580759078737
 21
4.473173087624129
 31
0.0
  0
LINE
  5
14DD
330
18
100
AcDbEntity
  8
Image
100
AcDbLine
 10
5.026159548076957
 20
4.696320466974349
 30
0.0
 11
5.206553775872025
 21
4.473173087624124
 31
0.0
  0
LINE
  5
14DE
330
18
100
AcDbEntity
  8
Image
100
AcDbLine
 10
5.018050699535471
 20
4.777464968556248
 30
0.0
 11
4.944730294298908
 21
4.473173087624125
 31
0.0
  0
LINE
  5
14DF
330
18
100
AcDbEntity
  8
Image
100
AcDbLine
 10
4.994377071550186
 20
4.73895558162938
 30
0.0
 11
5.065306178591074
 21
4.473173087624125
 31
0.0
  0
LINE
  5
14E0
330
18
100
AcDbEntity
  8
Image
100
AcDbLine
 10
5.022849238056643
 20
4.757178843160765
 30
0.0
 11
4.999161107134058
 21
4.473173087624129
 31
0.0
  0
LINE
  5
14E1
330
18
100
AcDbEntity
  8
Image
100
AcDbLine
 10
5.058123282156589
 20
4.787608031253981
 30
0.0
 11
5.058123282156589
 21
4.473173087624125
 31
0.0
  0
LINE
  5
14E2
330
18
100
AcDbEntity
  8
Image
100
AcDbLine
 10
5.050537279086437
 20
4.730439456847083
 30
0.0
 11
5.026201271186973
 21
4.473173087624125
 31
0.0
  0
LINE
  5
14E3
330
18
100
AcDbEntity
  8
Image
100
AcDbLine
 10
4.947538385247588
 20
4.713407207282505
 30
0.0
 11
5.013409030960376
 21
4.473173087624125
 31
0.0
  0
LINE
  5
14E4
330
18
100
AcDbEntity
  8
Image
100
AcDbLine
 10
4.960849181101098
 20
4.751729768802812
 30
0.0
 11
4.994819508074117
 21
4.473173087624125
 31
0.0
  0
LINE
  5
14E5
330
18
100
AcDbEntity
  8
Image
100
AcDbLine
 10
5.103748328904533
 20
4.787608031253977
 30
0.0
 11
5.103748328904533
 21
4.473173087624124
 31
0.0
  0
LINE
  5
14E6
330
18
100
AcDbEntity
  8
Image
100
AcDbLine
 10
5.060862176447296
 20
4.751729768802809
 30
0.0
 11
5.09483250342031
 21
4.473173087624124
 31
0.0
  0
LINE
  5
14E7
330
18
100
AcDbEntity
  8
Image
100
AcDbLine
 10
5.12995803719226
 20
4.713407207282504
 30
0.0
 11
5.195828682905048
 21
4.473173087624124
 31
0.0
  0
LINE
  5
14E8
330
18
100
AcDbEntity
  8
Image
100
AcDbLine
 10
5.158136277502787
 20
4.787608031253977
 30
0.0
 11
5.158136277502787
 21
4.473173087624124
 31
0.0
  0
LINE
  5
14E9
330
18
100
AcDbEntity
  8
Image
100
AcDbLine
 10
5.13580469928266
 20
4.787608031253977
 30
0.0
 11
5.13580469928266
 21
4.473173087624124
 31
0.0
  0
LINE
  5
14EA
330
18
100
AcDbEntity
  8
Image
100
AcDbLine
 10
5.139875372851628
 20
4.767321905858516
 30
0.0
 11
4.999680312289378
 21
4.473173087624125
 31
0.0
  0
LINE
  5
14EB
330
18
100
AcDbEntity
  8
Image
100
AcDbLine
 10
5.087454523694828
 20
4.713407207282502
 30
0.0
 11
5.153325169407617
 21
4.473173087624122
 31
0.0
  0
LINE
  5
14EC
330
18
100
AcDbEntity
  8
Image
100
AcDbLine
 10
5.059859274242997
 20
4.736892717765289
 30
0.0
 11
5.122978579620568
 21
4.473173087624125
 31
0.0
  0
LINE
  5
14ED
330
18
100
AcDbEntity
  8
Image
100
AcDbLine
 10
5.259656838599564
 20
4.757178843160764
 30
0.0
 11
5.235968707676986
 21
4.473173087624129
 31
0.0
  0
LINE
  5
14EE
330
18
100
AcDbEntity
  8
Image
100
AcDbLine
 10
5.294106148998414
 20
4.787608031253977
 30
0.0
 11
5.294106148998414
 21
4.473173087624124
 31
0.0
  0
HATCH
  5
154A
330
18
100
AcDbEntity
  8
Image
100
AcDbHatch
 10
0.0
 20
0.0
 30
0.0
210
0.0
220
0.0
230
1.0
  2
AR-CONC
 70
     0
 71
     0
 91
        5
 92
        7
 72
     0
 73
     1
 93
        5
 10
3.676126385016935
 20
4.650605249180706
 10
3.650715508424113
 20
4.650605249180706
 10
3.108513652858185
 20
4.650605249180706
 10
3.108513652858185
 20
4.473173087624125
 10
3.676126385016935
 20
4.473173087624125
 97
        0
 92
        7
 72
     0
 73
     1
 93
        5
 10
3.80431184738847
 20
4.650605249180706
 10
3.778900970795653
 20
4.650605249180706
 10
3.712561737631439
 20
4.650605249180706
 10
3.712561737631439
 20
4.473173087624125
 10
3.80431184738847
 20
4.473173087624125
 97
        0
 92
        7
 72
     0
 73
     1
 93
        4
 10
3.936494477796525
 20
4.650605249180706
 10
3.840747200002974
 20
4.650605249180706
 10
3.840747200002974
 20
4.473173087624125
 10
3.936494477796525
 20
4.473173087624125
 97
        0
 92
        7
 72
     0
 73
     1
 93
        5
 10
4.267283107500329
 20
4.650605249180706
 10
4.241872230907505
 20
4.650605249180706
 10
4.06691169435839
 20
4.650605249180706
 10
4.06691169435839
 20
4.473173087624125
 10
4.267283107500329
 20
4.473173087624125
 97
        0
 92
        7
 72
     0
 73
     1
 93
        5
 10
4.83148602631457
 20
4.649724385314918
 10
4.831275198188841
 20
4.650605249180706
 10
4.303718460114833
 20
4.650605249180706
 10
4.303718460114833
 20
4.473173087624125
 10
4.83148602631457
 20
4.473173087624125
 97
        0
 75
     0
 76
     1
 52
0.0
 41
0.1
 77
     0
 78
    13
 53
50.0
 43
-0.6847539066680657
 44
0.0958144396268552
 45
0.7172601826007535
 46
-0.0627521349825951
 79
     2
 49
0.075
 49
-0.825
 53
355.0
 43
-0.6847539066680657
 44
0.0958144396268552
 45
-0.138751333613
 46
0.752192133700012
 79
     2
 49
0.06
 49
-0.6600000000000001
 53
100.4513999999999
 43
-0.6249822266680649
 44
0.0905850996268551
 45
0.5785093817140216
 46
0.6894395420609536
 79
     2
 49
0.06374019
 49
-0.701142112
 53
46.1842
 43
-0.6847539066680657
 44
0.2958144396268552
 45
1.067241048625644
 46
-0.1655190143290181
 79
     2
 49
0.1125
 49
-1.2375
 53
96.63559999999996
 43
-0.5958171616680659
 44
0.2820211326268551
 45
0.9346627055487031
 46
0.9741178709004417
 79
     2
 49
0.095610288
 49
-1.051713
 53
351.1842
 43
-0.6847539066680657
 44
0.2958144396268552
 45
0.9346619451336271
 46
0.9741186009253246
 79
     2
 49
0.09
 49
-0.99
 53
21.0
 43
-0.5847539066680661
 44
0.2458144396268551
 45
0.5969070521184618
 46
-0.4026188906653388
 79
     2
 49
0.075
 49
-0.825
 53
326.0
 43
-0.5847539066680661
 44
0.2458144396268551
 45
0.2433153319215817
 46
0.7251500450468531
 79
     2
 49
0.06
 49
-0.6600000000000001
 53
71.45140000000001
 43
-0.5350116736680662
 44
0.2122628336268553
 45
0.8402226285814899
 46
0.3225304967099523
 79
     2
 49
0.06374019
 49
-0.701142112
 53
37.5
 43
-0.6847539066680657
 44
0.0958144396268552
 45
0.0121598553172907
 46
0.3328938538313115
 79
     6
 49
0.0
 49
-0.6520000000000001
 49
0.0
 49
-0.6700000000000001
 49
0.0
 49
-0.6625000000000001
 53
7.499999999999999
 43
-0.6847539066680657
 44
0.0958144396268552
 45
0.2630695374421486
 46
0.3944117118823603
 79
     6
 49
0.0
 49
-0.382
 49
0.0
 49
-0.637
 49
0.0
 49
-0.2525
 53
327.4999999999999
 43
-0.9077539066680664
 44
0.0958144396268552
 45
0.533822436172409
 46
-0.0225548717343798
 79
     6
 49
0.0
 49
-0.25
 49
0.0
 49
-0.7800000000000001
 49
0.0
 49
-1.034999999999999
 53
317.5
 43
-1.007753906668066
 44
0.0958144396268552
 45
0.5831861693423863
 46
0.1001049823323177
 79
     6
 49
0.0
 49
-0.325
 49
0.0
 49
-0.518
 49
0.0
 49
-0.735
 47
0.0032017898028574
 98
        5
 10
3.541516800630677
 20
4.577457431094435
 10
3.772172027891762
 20
4.548641288610339
 10
3.887499684347279
 20
4.580659230857122
 10
4.182225784278122
 20
4.548641288610339
 10
4.496173274484817
 20
4.526228801031704
  0
HATCH
  5
1551
330
18
100
AcDbEntity
  8
Image
 62
     8
100
AcDbHatch
 10
0.0
 20
0.0
 30
0.0
210
0.0
220
0.0
230
1.0
  2
EARTH
 70
     0
 71
     0
 91
        1
 92
        1
 93
       19
 72
     1
 10
2.709197304256814
 20
4.473173087624124
 11
3.108513652858185
 21
4.473173087624125
 72
     1
 10
3.108513652858185
 20
4.473173087624125
 11
2.757541112327203
 21
3.124801832501912
 72
     1
 10
2.757541112327203
 20
3.124801832501912
 11
2.58854521047095
 21
3.124801832501912
 72
     1
 10
2.58854521047095
 20
3.124801832501912
 11
2.58854521047095
 21
3.056267297035821
 72
     1
 10
2.58854521047095
 20
3.056267297035821
 11
2.58854521047095
 21
2.994384615940048
 72
     1
 10
2.58854521047095
 20
2.994384615940048
 11
2.723594332720463
 21
2.994384615940048
 72
     1
 10
2.723594332720463
 20
2.994384615940048
 11
2.660034801889301
 21
2.750200714167744
 72
     1
 10
2.660034801889301
 20
2.750200714167744
 11
5.244493362073873
 21
2.750200714167744
 72
     1
 10
5.244493362073873
 20
2.750200714167744
 11
4.831486026314571
 21
4.473173087624125
 72
     1
 10
4.831486026314571
 20
4.473173087624125
 11
5.181580759078737
 21
4.473173087624129
 72
     1
 10
5.181580759078737
 20
4.473173087624129
 11
5.360663905678627
 21
3.938540905159362
 72
     1
 10
5.360663905678627
 20
3.938540905159362
 11
5.522583250142579
 21
3.078815552321283
 72
     1
 10
5.522583250142579
 20
3.078815552321283
 11
5.471983401466376
 21
2.471950639726235
 72
     1
 10
5.471983401466376
 20
2.471950639726235
 11
4.146268650899084
 21
2.360692043804097
 72
     1
 10
4.146268650899084
 20
2.360692043804097
 11
2.537194919044955
 21
2.451721789000368
 72
     1
 10
2.537194919044955
 20
2.451721789000368
 11
2.467697179950629
 21
2.925671500909846
 72
     1
 10
2.467697179950629
 20
2.925671500909846
 11
2.660105336793691
 21
3.971732739122304
 72
     1
 10
2.660105336793691
 20
3.971732739122304
 11
2.759833996270401
 21
4.333003078963114
 72
     1
 10
2.759833996270401
 20
4.333003078963114
 11
2.709197304256814
 21
4.473173087624124
 97
        0
 75
     0
 76
     1
 52
315.0
 41
0.7
 77
     0
 78
     6
 53
315.0
 43
-0.6847539066680657
 44
0.0958144396268552
 45
0.2474873734152916
 46
-0.0000000000000001
 79
     2
 49
0.175
 49
-0.175
 53
315.0
 43
-0.6383500241526985
 44
0.1422183221422224
 45
0.2474873734152916
 46
-0.0000000000000001
 79
     2
 49
0.175
 49
-0.175
 53
315.0
 43
-0.5919461416373313
 44
0.1886222046575896
 45
0.2474873734152916
 46
-0.0000000000000001
 79
     2
 49
0.175
 49
-0.175
 53
45.0
 43
-0.5610102199604193
 44
0.1886222046575896
 45
0.0000000000000001
 46
0.2474873734152916
 79
     2
 49
0.175
 49
-0.175
 53
45.0
 43
-0.5146063374450521
 44
0.1422183221422224
 45
0.0000000000000001
 46
0.2474873734152916
 79
     2
 49
0.175
 49
-0.175
 53
45.0
 43
-0.4682024549296849
 44
0.0958144396268552
 45
0.0000000000000001
 46
0.2474873734152916
 79
     2
 49
0.175
 49
-0.175
 98
        1
 10
-0.6847539066680657
 20
0.0958144396268552
  0
MTEXT
  5
155E
330
18
100
AcDbEntity
  8
TEXT_BUBBLES
100
AcDbMText
 10
9.380989498267144
 20
9.015528470166916
 30
0.0
 40
0.125
 41
5.006599999999999
 71
     1
 72
     5
  3
SOLOR RADIATION SENSOR\P\PANEMOMETER AND WIND VANE\P\PTIPPING BUCKET RAIN GAUGE\P\PRADIATION SHIELD WITH TEMPERATURE AND RELATIVE HUMIDITY PROBE\P\PENVIRONMENTAL ENCLOSURE\P\PGROUND WIRE TO GROUNDING GRID. REFER TO SITECONTROL DETAIL 305\P\PMOUNTING 
  3
COLLAR\P\PFINISH GRADE\P\P1/2-INCH X 12-INCH ANCHOR BOLT (USE MANUFACTURER'S TEMPLATE FOR PROPER LOCATION)\P\PFOOTING: 24" X 24" TO 32" X 32" X 24" DEEP\P\PTWO (2) LONG SWEEP ELBOWS (ONE HIDDEN WITH COMMUNICATION WIRE). ORIENT PROPERLY FOR WIRING (SI
  1
ZE AS REQUIRED)\P\PTELEPHONE LINE OR DIRECT CONNECT SHORT HAUL MODEM CABLE ROUTED THROUGH HIDDEN LONG SWEEP ELBOW (PER MANUFACTURER'S SPECIFICATION)\P\P16VAC POWER SUPPLY\P\PLIGHTENING ROD (CONNECT TO GROUNDING)
  7
L100
 73
     1
 44
1.0
  0
LINE
  5
1572
330
18
100
AcDbEntity
  8
Image
  6
Continuous
100
AcDbLine
 10
3.712561737631439
 20
4.473173087624125
 30
0.0
 11
3.80431184738847
 21
4.473173087624125
 31
0.0
  0
LINE
  5
1573
330
18
100
AcDbEntity
  8
Image
  6
Continuous
100
AcDbLine
 10
3.840747200002974
 20
4.473173087624125
 30
0.0
 11
3.936494477796525
 21
4.473173087624124
 31
0.0
  0
LWPOLYLINE
  5
1574
102
{ACAD_REACTORS
330
1601
102
}
330
18
100
AcDbEntity
  8
Image
  6
Continuous
100
AcDbPolyline
 90
        2
 70
     0
 43
0.0
 10
3.80431184738847
 20
4.473173087624125
 10
3.712561737631439
 20
4.473173087624125
  0
LINE
  5
1575
330
18
100
AcDbEntity
  8
Image
  6
Continuous
100
AcDbLine
 10
4.06691169435839
 20
4.473173087624125
 30
0.0
 11
4.267283107500329
 21
4.473173087624125
 31
0.0
  0
LWPOLYLINE
  5
1576
102
{ACAD_REACTORS
330
1601
102
}
330
18
100
AcDbEntity
  8
Image
  6
Continuous
100
AcDbPolyline
 90
        2
 70
     0
 43
0.0
 10
3.936494477796525
 20
4.473173087624125
 10
3.840747200002974
 20
4.473173087624125
  0
LINE
  5
1577
102
{ACAD_REACTORS
330
1601
102
}
330
18
100
AcDbEntity
  8
Image
  6
Continuous
100
AcDbLine
 10
4.303718460114833
 20
4.473173087624125
 30
0.0
 11
4.831486026314562
 21
4.473173087624125
 31
0.0
  0
LWPOLYLINE
  5
1578
102
{ACAD_REACTORS
330
1601
102
}
330
18
100
AcDbEntity
  8
Image
  6
Continuous
100
AcDbPolyline
 90
        2
 70
     0
 43
0.0
 10
4.267283107500329
 20
4.473173087624125
 10
4.06691169435839
 20
4.473173087624125
  0
INSERT
  5
157B
330
18
100
AcDbEntity
  8
TEXT_BUBBLES
100
AcDbBlockReference
 66
     1
  2
bubble
 10
5.743566363061928
 20
9.500553102387195
 30
0.0
  0
ATTRIB
  5
157C
330
157B
100
AcDbEntity
  8
TEXT_BUBBLES
100
AcDbText
 10
5.684042553538119
 20
9.438053102387195
 30
0.0
 40
0.125
  1
2
  7
ROMANS
 72
     4
 11
5.743566363061928
 21
9.500553102387195
 31
0.0
100
AcDbAttribute
  2
XX
 70
     0
  0
SEQEND
  5
157D
330
157B
100
AcDbEntity
  8
TEXT_BUBBLES
  0
INSERT
  5
1580
330
18
100
AcDbEntity
  8
TEXT_BUBBLES
100
AcDbBlockReference
 66
     1
  2
bubble
 10
5.307392550255716
 20
8.296298825442306
 30
0.0
  0
ATTRIB
  5
1581
330
1580
100
AcDbEntity
  8
TEXT_BUBBLES
100
AcDbText
 10
5.244892550255716
 20
8.233798825442306
 30
0.0
 40
0.125
  1
4
  7
ROMANS
 72
     4
 11
5.307392550255716
 21
8.296298825442306
 31
0.0
100
AcDbAttribute
  2
XX
 70
     0
  0
SEQEND
  5
1582
330
1580
100
AcDbEntity
  8
TEXT_BUBBLES
  0
INSERT
  5
1585
330
18
100
AcDbEntity
  8
TEXT_BUBBLES
100
AcDbBlockReference
 66
     1
  2
bubble
 10
4.65634119086396
 20
5.237088554506
 30
0.0
  0
ATTRIB
  5
1586
330
1585
100
AcDbEntity
  8
TEXT_BUBBLES
100
AcDbText
 10
4.596817381340151
 20
5.174588554506
 30
0.0
 40
0.125
  1
7
  7
ROMANS
 72
     4
 11
4.65634119086396
 21
5.237088554506
 31
0.0
100
AcDbAttribute
  2
XX
 70
     0
  0
SEQEND
  5
1587
330
1585
100
AcDbEntity
  8
TEXT_BUBBLES
  0
INSERT
  5
158A
330
18
100
AcDbEntity
  8
TEXT_BUBBLES
100
AcDbBlockReference
 66
     1
  2
bubble
 10
5.730216569935665
 20
4.898541701795503
 30
0.0
  0
ATTRIB
  5
158B
330
158A
100
AcDbEntity
  8
TEXT_BUBBLES
100
AcDbText
 10
5.670692760411855
 20
4.836041701795503
 30
0.0
 40
0.125
  1
8
  7
ROMANS
 72
     4
 11
5.730216569935665
 21
4.898541701795503
 31
0.0
100
AcDbAttribute
  2
XX
 70
     0
  0
SEQEND
  5
158C
330
158A
100
AcDbEntity
  8
TEXT_BUBBLES
  0
INSERT
  5
158F
330
18
100
AcDbEntity
  8
TEXT_BUBBLES
100
AcDbBlockReference
 66
     1
  2
bubble
 10
6.104738881899431
 20
3.882842540523664
 30
0.0
  0
ATTRIB
  5
1590
330
158F
100
AcDbEntity
  8
TEXT_BUBBLES
100
AcDbText
 10
6.048191262851812
 20
3.820342540523664
 30
0.0
 40
0.125
  1
9
  7
ROMANS
 72
     4
 11
6.104738881899431
 21
3.882842540523664
 31
0.0
100
AcDbAttribute
  2
XX
 70
     0
  0
SEQEND
  5
1591
330
158F
100
AcDbEntity
  8
TEXT_BUBBLES
  0
INSERT
  5
1594
330
18
100
AcDbEntity
  8
TEXT_BUBBLES
100
AcDbBlockReference
 66
     1
  2
bubble
 10
5.998049536709771
 20
3.154062075615695
 30
0.0
  0
ATTRIB
  5
1595
330
1594
100
AcDbEntity
  8
TEXT_BUBBLES
100
AcDbText
 10
5.870073346233581
 20
3.091562075615695
 30
0.0
 40
0.125
  1
10
  7
ROMANS
 72
     4
 11
5.998049536709771
 21
3.154062075615695
 31
0.0
100
AcDbAttribute
  2
XX
 70
     0
  0
SEQEND
  5
1596
330
1594
100
AcDbEntity
  8
TEXT_BUBBLES
  0
INSERT
  5
1597
330
18
100
AcDbEntity
  8
TEXT_BUBBLES
100
AcDbBlockReference
 66
     1
  2
bubble
 10
2.825277743783885
 20
9.646387591420749
 30
0.0
  0
ATTRIB
  5
1598
330
1597
100
AcDbEntity
  8
TEXT_BUBBLES
100
AcDbText
 10
2.774682505688647
 20
9.583887591420749
 30
0.0
 40
0.125
  1
1
  7
ROMANS
 72
     4
 11
2.825277743783885
 21
9.646387591420749
 31
0.0
100
AcDbAttribute
  2
XX
 70
     0
  0
SEQEND
  5
1599
330
1597
100
AcDbEntity
  8
TEXT_BUBBLES
  0
INSERT
  5
159F
330
18
100
AcDbEntity
  8
TEXT_BUBBLES
100
AcDbBlockReference
 66
     1
  2
bubble
 10
2.036865722323037
 20
8.777876128538116
 30
0.0
  0
ATTRIB
  5
15A0
330
159F
100
AcDbEntity
  8
TEXT_BUBBLES
100
AcDbText
 10
1.977341912799227
 20
8.715376128538116
 30
0.0
 40
0.125
  1
3
  7
ROMANS
 72
     4
 11
2.036865722323037
 21
8.777876128538116
 31
0.0
100
AcDbAttribute
  2
XX
 70
     0
  0
SEQEND
  5
15A1
330
159F
100
AcDbEntity
  8
TEXT_BUBBLES
  0
INSERT
  5
15A4
330
18
100
AcDbEntity
  8
TEXT_BUBBLES
100
AcDbBlockReference
 66
     1
  2
bubble
 10
3.170255679130793
 20
8.020889089769902
 30
0.0
  0
ATTRIB
  5
15A5
330
15A4
100
AcDbEntity
  8
TEXT_BUBBLES
100
AcDbText
 10
3.110731869606984
 20
7.958389089769902
 30
0.0
 40
0.125
  1
5
  7
ROMANS
 72
     4
 11
3.170255679130793
 21
8.020889089769902
 31
0.0
100
AcDbAttribute
  2
XX
 70
     0
  0
SEQEND
  5
15A6
330
15A4
100
AcDbEntity
  8
TEXT_BUBBLES
  0
INSERT
  5
15A7
330
18
100
AcDbEntity
  8
TEXT_BUBBLES
100
AcDbBlockReference
 66
     1
  2
bubble
 10
2.888658262950134
 20
5.317303345841779
 30
0.0
  0
ATTRIB
  5
15A8
330
15A7
100
AcDbEntity
  8
TEXT_BUBBLES
100
AcDbText
 10
2.826158262950134
 20
5.254803345841779
 30
0.0
 40
0.125
  1
6
  7
ROMANS
 72
     4
 11
2.888658262950134
 21
5.317303345841779
 31
0.0
100
AcDbAttribute
  2
XX
 70
     0
  0
SEQEND
  5
15A9
330
15A7
100
AcDbEntity
  8
TEXT_BUBBLES
  0
INSERT
  5
15AE
330
18
100
AcDbEntity
  8
TEXT_BUBBLES
100
AcDbBlockReference
 66
     1
  2
bubble
 10
1.8225510932216
 20
3.057603996229329
 30
0.0
  0
ATTRIB
  5
15AF
330
15AE
100
AcDbEntity
  8
TEXT_BUBBLES
100
AcDbText
 10
1.694574902745409
 20
2.995103996229329
 30
0.0
 40
0.125
  1
13
  7
ROMANS
 72
     4
 11
1.8225510932216
 21
3.057603996229329
 31
0.0
100
AcDbAttribute
  2
XX
 70
     0
  0
SEQEND
  5
15B0
330
15AE
100
AcDbEntity
  8
TEXT_BUBBLES
  0
ARC
  5
15BA
102
{ACAD_REACTORS
330
1601
102
}
330
18
100
AcDbEntity
  8
Image
100
AcDbCircle
 10
3.092956960412102
 20
3.968339349886337
 30
0.0
 40
0.8446603214636505
100
AcDbArc
 50
272.9545864040708
 51
357.0454135959291
  0
ARC
  5
15BB
102
{ACAD_REACTORS
330
1601
102
}
330
18
100
AcDbEntity
  8
Image
100
AcDbCircle
 10
3.158436803447953
 20
3.902859506850488
 30
0.0
 40
0.9149281006575133
100
AcDbArc
 50
276.8090674082833
 51
353.1909325917165
  0
HATCH
  5
1601
330
18
100
AcDbEntity
  8
Image
100
AcDbHatch
 10
0.0
 20
0.0
 30
0.0
210
0.0
220
0.0
230
1.0
  2
AR-CONC
 70
     0
 71
     1
 91
        2
 92
        7
 72
     1
 73
     1
 93
       15
 10
3.266911694358391
 20
2.994384615940049
 42
0.0
 10
2.723594332720463
 20
2.994384615940048
 42
0.0
 10
2.660034801889301
 20
2.750200714167744
 42
0.0
 10
5.244493362073873
 20
2.750200714167744
 42
0.0
 10
4.831486026314562
 20
4.473173087624125
 42
0.0
 10
4.303718460114833
 20
4.473173087624125
 42
0.0
 10
4.303718460114833
 20
3.85064779404039
 42
0.414213562373095
 10
4.316022216809155
 20
3.838344037346068
 42
0.0
 10
4.351051874898512
 20
3.838344037346067
 42
0.0
 10
4.351051874898512
 20
3.801908684731565
 42
0.0
 10
4.267283107500329
 20
3.801908684731565
 42
0.0
 10
4.267283107500329
 20
3.859783105686306
 42
0.0
 10
4.267283107500329
 20
4.473173087624125
 42
0.0
 10
4.06691169435839
 20
4.473173087624125
 42
0.0
 10
4.066911694358392
 20
3.794384615940049
 42
-0.3461924334065431
 97
        9
330
1577
330
1493
330
1578
330
623
330
15BB
330
672
330
148E
330
148F
330
148D
 92
       23
 72
     1
 73
     1
 93
       23
 10
3.936494477796527
 20
3.924801832501911
 42
0.0
 10
3.936494477796526
 20
4.473173087624125
 42
0.0
 10
3.840747200002974
 20
4.473173087624125
 42
0.0
 10
3.840747200002974
 20
3.859783105686306
 42
0.0
 10
3.840747200002974
 20
3.801908684731565
 42
0.0
 10
3.756978432604789
 20
3.801908684731564
 42
0.0
 10
3.756978432604789
 20
3.838344037346068
 42
0.0
 10
3.792008090694149
 20
3.838344037346068
 42
0.4142135623730951
 10
3.80431184738847
 20
3.850647794040389
 42
0.0
 10
3.80431184738847
 20
3.859783105686306
 42
0.0
 10
3.80431184738847
 20
4.473173087624125
 42
0.0
 10
3.712561737631439
 20
4.473173087624125
 42
0.0
 10
3.712561737631439
 20
3.859783105686306
 42
0.0
 10
3.712561737631439
 20
3.801908684731565
 42
0.0
 10
3.628792970233256
 20
3.801908684731565
 42
0.0
 10
3.628792970233256
 20
3.838344037346067
 42
0.0
 10
3.663822628322613
 20
3.838344037346068
 42
0.414213562373095
 10
3.676126385016935
 20
3.85064779404039
 42
0.0
 10
3.676126385016935
 20
3.859783105686306
 42
0.0
 10
3.676126385016935
 20
4.473173087624125
 42
0.0
 10
3.108513652858185
 20
4.473173087624125
 42
0.0
 10
2.757541112327203
 20
3.124801832501912
 42
0.0
 10
3.136494477796526
 20
3.124801832501912
 42
0.3843188093043293
 97
        9
330
7F2
330
1576
330
1494
330
1574
330
1495
330
1491
330
148E
330
66F
330
15BA
 75
     0
 76
     1
 52
315.0
 41
0.1
 77
     0
 78
    13
 53
4.999999999999982
 43
-9.783107665201672
 44
-0.9185852272023137
 45
0.4628070788119674
 46
-0.5515519991722208
 79
     2
 49
0.075
 49
-0.825
 53
310.0
 43
-9.783107665201672
 44
-0.9185852272023137
 45
0.4337681495980276
 46
0.6299921673908858
 79
     2
 49
0.06
 49
-0.6600000000000001
 53
55.45139999999996
 43
-9.74454040672589
 44
-0.9645478892283559
 45
0.8965752821994698
 46
0.0784394686194265
 79
     2
 49
0.06374019
 49
-0.701142112
 53
1.184200000000004
 43
-9.641686308964363
 44
-0.7771638709650042
 45
0.6376137651964729
 46
-0.8716930000911972
 79
     2
 49
0.1125
 49
-1.2375
 53
51.63559999999999
 43
-9.588551874392893
 44
-0.8498049873658507
 45
1.349711689404357
 46
0.0278990149730505
 79
     2
 49
0.095610288
 49
-1.051713
 53
306.1842
 43
-9.641686308964363
 44
-0.7771638709650042
 45
1.349711667915245
 46
0.0279000688732524
 79
     2
 49
0.09
 49
-0.99
 53
336.0
 43
-9.606330969905036
 44
-0.8832298881429863
 45
0.1373824764677699
 46
-0.7067715721143025
 79
     2
 49
0.075
 49
-0.825
 53
281.0
 43
-9.606330969905036
 44
-0.8832298881429863
 45
0.6848084353987664
 46
0.340708593061954
 79
     2
 49
0.06
 49
-0.6600000000000001
 53
26.45139999999999
 43
-9.594882467761673
 44
-0.9421275265309468
 45
0.82219061973943
 46
-0.3660636170132848
 79
     2
 49
0.06374019
 49
-0.701142112
 53
352.4999999999999
 43
-9.783107665201672
 44
-0.9185852272023137
 45
0.2439898176125473
 46
0.2267931853063402
 79
     6
 49
0.0
 49
-0.6520000000000001
 49
0.0
 49
-0.6700000000000001
 49
0.0
 49
-0.6625000000000001
 53
322.5
 43
-9.783107665201672
 44
-0.9185852272023137
 45
0.4649094499003635
 46
0.09287294220246
 79
     6
 49
0.0
 49
-0.382
 49
0.0
 49
-0.637
 49
0.0
 49
-0.2525
 53
282.5
 43
-9.940792477406272
 44
-0.7609004149977135
 45
0.3615207618148605
 46
-0.3934181673192061
 79
     6
 49
0.0
 49
-0.25
 49
0.0
 49
-0.7800000000000001
 49
0.0
 49
-1.034999999999999
 53
272.5
 43
-10.01150315552492
 44
-0.6901897368790588
 45
0.4831598068739489
 46
-0.3415899831984663
 79
     6
 49
0.0
 49
-0.325
 49
0.0
 49
-0.518
 49
0.0
 49
-0.735
 47
0.0098149697316202
 98
        2
 10
4.267434636134618
 20
3.246314565470791
 10
3.560369382225729
 20
3.540763679313851
  0
INSERT
  5
1604
330
18
100
AcDbEntity
  8
TEXT_BUBBLES
100
AcDbBlockReference
 66
     1
  2
bubble
 10
2.057705460305173
 20
3.810795513521103
 30
0.0
  0
ATTRIB
  5
1605
330
1604
100
AcDbEntity
  8
TEXT_BUBBLES
100
AcDbText
 10
1.947586412686126
 20
3.748295513521103
 30
0.0
 40
0.125
  1
11
  7
ROMANS
 72
     4
 11
2.057705460305173
 21
3.810795513521103
 31
0.0
100
AcDbAttribute
  2
XX
 70
     0
  0
SEQEND
  5
1606
330
1604
100
AcDbEntity
  8
TEXT_BUBBLES
  0
INSERT
  5
1634
330
18
100
AcDbEntity
  8
Image
100
AcDbBlockReference
  2
pagesetups
 10
0.0
 20
0.0
 30
0.0
  0
INSERT
  5
1646
330
18
100
AcDbEntity
  8
TEXT_BUBBLES
100
AcDbBlockReference
 66
     1
  2
bubble
 10
1.855053807330787
 20
3.486025210067682
 30
0.0
  0
ATTRIB
  5
1647
330
1646
100
AcDbEntity
  8
TEXT_BUBBLES
100
AcDbText
 10
1.727077616854597
 20
3.423525210067682
 30
0.0
 40
0.125
  1
12
  7
ROMANS
 72
     4
 11
1.855053807330787
 21
3.486025210067682
 31
0.0
100
AcDbAttribute
  2
XX
 70
     0
  0
SEQEND
  5
1648
330
1646
100
AcDbEntity
  8
TEXT_BUBBLES
  0
INSERT
  5
1650
330
18
100
AcDbEntity
  8
TEXT_BUBBLES
100
AcDbBlockReference
 66
     1
  2
bubble
 10
8.921158873017979
 20
1.86133847573571
 30
0.0
  0
ATTRIB
  5
1651
330
1650
100
AcDbEntity
  8
TEXT_BUBBLES
100
AcDbText
 10
8.79318268254179
 20
1.79883847573571
 30
0.0
 40
0.125
  1
13
  7
ROMANS
 72
     4
 11
8.921158873017979
 21
1.86133847573571
 31
0.0
100
AcDbAttribute
  2
XX
 70
     0
  0
SEQEND
  5
1652
330
1650
100
AcDbEntity
  8
TEXT_BUBBLES
  0
INSERT
  5
168E
330
18
100
AcDbEntity
  8
TEXT_BUBBLES
100
AcDbBlockReference
 66
     1
  2
bubble
 10
8.921158873017979
 20
1.437631298577907
 30
0.0
  0
ATTRIB
  5
168F
330
168E
100
AcDbEntity
  8
TEXT_BUBBLES
100
AcDbText
 10
8.790206492065598
 20
1.375131298577907
 30
0.0
 40
0.125
  1
14
  7
ROMANS
 72
     4
 11
8.921158873017979
 21
1.437631298577907
 31
0.0
100
AcDbAttribute
  2
XX
 70
     0
  0
SEQEND
  5
1690
330
168E
100
AcDbEntity
  8
TEXT_BUBBLES
  0
INSERT
  5
1691
330
18
100
AcDbEntity
  8
TEXT_BUBBLES
100
AcDbBlockReference
 66
     1
  2
bubble
 10
3.566095839601575
 20
10.16435239927682
 30
0.0
  0
ATTRIB
  5
1692
330
1691
100
AcDbEntity
  8
TEXT_BUBBLES
100
AcDbText
 10
3.435143458649194
 20
10.10185239927682
 30
0.0
 40
0.125
  1
14
  7
ROMANS
 72
     4
 11
3.566095839601575
 21
10.16435239927682
 31
0.0
100
AcDbAttribute
  2
XX
 70
     0
  0
SEQEND
  5
1693
330
1691
100
AcDbEntity
  8
TEXT_BUBBLES
  0
LWPOLYLINE
  5
1696
330
18
100
AcDbEntity
  8
Image
100
AcDbPolyline
 90
        2
 70
     0
 43
0.017
 10
4.018923503177592
 20
8.772076523578357
 10
4.018923503177592
 20
9.959537528621757
  0
LEADER
  5
16D4
330
18
100
AcDbEntity
  8
TEXT_BUBBLES
100
AcDbLeader
  3
STANDARD
 76
     2
 10
4.018923503177592
 20
9.638611538902312
 30
0.0
 10
3.602710469312509
 20
10.02933998098294
 30
0.0
  0
LEADER
  5
16D5
330
18
100
AcDbEntity
  8
TEXT_BUBBLES
100
AcDbLeader
  3
STANDARD
 76
     2
 10
2.558230215722218
 20
3.245874972597656
 30
0.0
 10
1.990031740553683
 20
3.449283656680486
 30
0.0
  0
LEADER
  5
16D6
330
18
100
AcDbEntity
  8
TEXT_BUBBLES
100
AcDbLeader
  3
STANDARD
 76
     2
 10
4.898360682596507
 20
3.154062075615695
 30
0.0
 10
5.858160351272051
 20
3.154062075615695
 30
0.0
  0
LEADER
  5
16D7
330
18
100
AcDbEntity
  8
TEXT_BUBBLES
100
AcDbLeader
  3
STANDARD
 76
     2
 10
3.67112933025626
 20
3.352573347736277
 30
0.0
 10
2.189597685658773
 20
3.76417550608112
 30
0.0
  0
LEADER
  5
16D8
330
18
100
AcDbEntity
  8
TEXT_BUBBLES
100
AcDbLeader
  3
STANDARD
 76
     2
 10
2.427742754906562
 20
3.056267297035821
 30
0.0
 10
1.962440278659319
 20
3.057603996229329
 30
0.0
  0
LEADER
  5
16D9
330
18
100
AcDbEntity
  8
TEXT_BUBBLES
100
AcDbLeader
  3
STANDARD
 76
     2
 10
3.384893771009625
 20
4.760555929592943
 30
0.0
 10
2.98246494170665
 20
5.213528150235601
 30
0.0
  0
LEADER
  5
16DA
330
18
100
AcDbEntity
  8
TEXT_BUBBLES
100
AcDbLeader
  3
STANDARD
 76
     2
 10
3.775447340815755
 20
8.021465714963225
 30
0.0
 10
3.310144864568512
 20
8.020889089769902
 30
0.0
  0
LEADER
  5
16DB
330
18
100
AcDbEntity
  8
TEXT_BUBBLES
100
AcDbLeader
  3
STANDARD
 76
     2
 10
2.642057384007999
 20
8.778200444651885
 30
0.0
 10
2.176754907760757
 20
8.777876128538116
 30
0.0
  0
LEADER
  5
16DC
330
18
100
AcDbEntity
  8
TEXT_BUBBLES
100
AcDbLeader
  3
STANDARD
 76
     2
 10
3.254162004433391
 20
9.089572947923794
 30
0.0
 10
2.896235378729546
 20
9.525830558256577
 30
0.0
  0
LEADER
  5
16DD
330
18
100
AcDbEntity
  8
TEXT_BUBBLES
100
AcDbLeader
  3
STANDARD
 76
     2
 10
4.307569259862184
 20
3.882842540523664
 30
0.0
 10
5.96484969646171
 20
3.882842540523664
 30
0.0
  0
LEADER
  5
16DE
330
18
100
AcDbEntity
  8
TEXT_BUBBLES
100
AcDbLeader
  3
STANDARD
 76
     2
 10
5.300519807551417
 20
4.473173087624125
 30
0.0
 10
5.638880973863042
 20
4.792585139504687
 30
0.0
  0
LEADER
  5
16DF
330
18
100
AcDbEntity
  8
TEXT_BUBBLES
100
AcDbLeader
  3
STANDARD
 76
     2
 10
4.184087199238762
 20
4.861941995601743
 30
0.0
 10
4.561164055035934
 20
5.134568814855519
 30
0.0
  0
LEADER
  5
16E0
330
18
100
AcDbEntity
  8
TEXT_BUBBLES
100
AcDbLeader
  3
STANDARD
 76
     2
 10
4.698343702319984
 20
8.297672383333166
 30
0.0
 10
5.163652565070645
 20
8.297672383333166
 30
0.0
  0
LEADER
  5
16E1
330
18
100
AcDbEntity
  8
TEXT_BUBBLES
100
AcDbLeader
  3
STANDARD
 76
     2
 10
5.134517515126196
 20
9.501926660278055
 30
0.0
 10
5.599826377876857
 20
9.501926660278055
 30
0.0
  0
VIEWPORT
  5
792
330
15
100
AcDbEntity
 67
     1
  8
0
100
AcDbViewport
 10
5.999999999999999
 20
4.711375212224107
 30
0.0
 40
11.99999999999999
 41
9.422750424448215
 68
     1
 69
     1
 12
5.999999999999999
 22
4.711375212224107
 13
0.0
 23
0.0
 14
2.029204650849911
 24
0.01
 15
0.0
 25
0.0
 16
0.0
 26
0.0
 36
1.0
 17
0.0
 27
0.0
 37
0.0
 42
50.0
 43
0.0
 44
0.0
 45
9.422750424448215
 50
0.0
 51
0.0
 72
 20000
 90
    32800
  1

281
     0
 71
     1
 74
     0
110
0.0
120
0.0
130
0.0
111
1.0
121
0.0
131
0.0
112
0.0
122
1.0
132
0.0
 79
     0
146
0.0
  0
ENDSEC
  0
SECTION
  2
OBJECTS
  0
DICTIONARY
  5
C
330
0
100
AcDbDictionary
281
     1
  3
ACAD_GROUP
350
D
  3
ACAD_LAYOUT
350
1234
  3
ACAD_MLINESTYLE
350
E
  3
ACAD_PLOTSETTINGS
350
1235
  3
ACAD_PLOTSTYLENAME
350
1232
  3
AcDbVariableDictionary
350
13AC
  3
ASE_INDEX_DICTIONARY
350
13A9
  3
BNS_SELSET
350
113F
  0
DICTIONARY
  5
16AE
330
2
100
AcDbDictionary
280
     1
281
     1
  3
ACAD_LAYERFILTERS
360
16B6
  3
ACAD_LAYERSTATES
360
16AF
  0
DICTIONARY
  5
154C
330
18
100
AcDbDictionary
280
     1
281
     1
  3
ACAD_SORTENTS
360
154D
  0
DICTIONARY
  5
D
102
{ACAD_REACTORS
330
C
102
}
330
C
100
AcDbDictionary
281
     1
  0
DICTIONARY
  5
1234
102
{ACAD_REACTORS
330
C
102
}
330
C
100
AcDbDictionary
281
     1
  3
Layout1
350
1237
  3
Model
350
1236
  0
DICTIONARY
  5
E
102
{ACAD_REACTORS
330
C
102
}
330
C
100
AcDbDictionary
281
     1
  3
STANDARD
350
1B
  0
DICTIONARY
  5
1235
102
{ACAD_REACTORS
330
C
102
}
330
C
100
AcDbDictionary
281
     1
  3
1055 B&W Full Shaded Draft
350
161D
  3
1055 B&W Full Shaded Final
350
161E
  3
1055 B&W Half Shaded Draft
350
161F
  3
1055 B&W Half Shaded Final
350
1620
  3
1055 Color Full Shaded Draft
350
1621
  3
1055 Color Full Shaded Final
350
1622
  3
1055 Color Half Shaded Draft
350
1623
  3
1055 Color Half Shaded Final
350
1624
  3
1055 PLUS B&W Full Shaded Draft
350
16B8
  3
1055 PLUS B&W Full Shaded Final
350
16B9
  3
1055 PLUS Color Full Shaded Draft
350
16BA
  3
1055 PLUS Color Full Shaded Final
350
16BB
  3
1055-B&W-Shaded-Draft
350
1625
  3
1055-B&W-Shaded-Final
350
1626
  3
1055-Color-Shaded-Draft
350
1627
  3
1055-Color-Shaded-Final
350
1628
  3
1055-PLUS-B&W-Shaded-Draft
350
16BC
  3
1055-PLUS-B&W-Shaded-Final
350
16BD
  3
1055-PLUS-Color-Shaded-Draft
350
16BE
  3
1055-PLUS-Color-Shaded-Final
350
16BF
  3
1055cm B&W Shaded Draft
350
1358
  3
1055cm B&W Shaded Final
350
1359
  3
1055cm Color Draft
350
135A
  3
1055cm Color Shaded Draft
350
135B
  3
1055cm Color Shaded Final
350
135C
  3
1055cmB&WShadedDraft
350
135D
  3
1055cmColorShadedDraft
350
135E
  3
2200 Color Inkjet
350
16C0
  3
2200-Color-Inkjet
350
16C1
  3
24x36 PDF
350
16C2
  3
8500 B&W Shaded 11x17
350
135F
  3
8500 B&W Shaded 8.5x11
350
1360
  3
8500 Color Shaded 11x17
350
1361
  3
8500 Color Shaded 8.5x11
350
1362
  3
8500-B&W-Shaded-11x17
350
1629
  3
8500-B&W-Shaded-8.5x11
350
162A
  3
8500-Color-Shaded-11x17
350
162B
  3
8500-Color-Shaded-8.5x11
350
162C
  3
8500B&WShaded11x17
350
1363
  3
8500ColorShaded11x17
350
1364
  3
Laser Jet 5 Shaded 11x17
350
1365
  3
Laser Jet 5 Shaded 8.5x11
350
1366
  3
LaserJet5-Shaded-11x17
350
162D
  3
LaserJet5-Shaded-8.5x11
350
162E
  3
LaserJet5Shaded 11x17
350
1367
  3
Oki Doki B&W Shaded 11x17
350
16C3
  3
Oki Doki B&W Shaded 8.5x11
350
16C4
  3
Oki Doki Color Laser
350
16C5
  3
Oki Doki Color Shaded 11x17
350
16C6
  3
Oki Doki Color Shaded 8.5x11
350
16C7
  3
Oki-Doki-B&W-Shaded-11x17
350
16C8
  3
Oki-Doki-B&W-Shaded-8.5x11
350
16C9
  3
Oki-Doki-Color-Laser
350
16CA
  3
Oki-Doki-Color-Shaded-11x17
350
16CB
  3
Oki-Doki-Color-Shaded-8.5x11
350
16CC
  0
ACDBDICTIONARYWDFLT
  5
1232
102
{ACAD_REACTORS
330
C
102
}
330
C
100
AcDbDictionary
281
     1
  3
Normal
350
1233
100
AcDbDictionaryWithDefault
340
1233
  0
DICTIONARY
  5
13AC
102
{ACAD_REACTORS
330
C
102
}
330
C
100
AcDbDictionary
281
     1
  3
DIMASSOC
350
13AD
  3
SORTENTS
350
1552
  0
DICTIONARY
  5
13A9
102
{ACAD_REACTORS
330
C
102
}
330
C
100
AcDbDictionary
281
     1
  3
ASEBlockHierarchyIndexRecord
350
13AA
1001
DCO15
1040
1447501557.269
  0
DICTIONARY
  5
113F
102
{ACAD_REACTORS
330
C
102
}
330
0
100
AcDbDictionary
281
     1
  3
BNS_SS01
350
122E
  0
DICTIONARY
  5
16B6
102
{ACAD_REACTORS
330
16AE
102
}
330
16AE
100
AcDbDictionary
280
     1
281
     1
  0
DICTIONARY
  5
16AF
102
{ACAD_REACTORS
330
16AE
102
}
330
16AE
100
AcDbDictionary
281
     1
  0
SORTENTSTABLE
  5
154D
102
{ACAD_REACTORS
330
154C
102
}
330
154C
100
AcDbSortentsTable
330
18
331
14AB
  5
14AC
331
14EA
  5
14EB
331
5C2
  5
5C6
331
14B3
  5
14B4
331
154A
  5
154B
331
5CA
  5
5CB
331
EB8
  5
EBE
331
7CB
  5
7D0
331
6DC
  5
6DD
331
645
  5
646
331
64D
  5
64E
331
136D
  5
1370
331
14BB
  5
14BC
331
14C3
  5
14C4
331
14CB
  5
14CC
331
1494
  5
1495
331
1385
  5
1388
331
14D3
  5
14D4
331
655
  5
656
331
794
  5
795
331
EC8
  5
EE0
331
BC3
  5
BC5
331
616
  5
617
331
65D
  5
65E
331
79C
  5
79D
331
1130
  5
1368
331
665
  5
666
331
E99
  5
EA2
331
7BC
  5
7C1
331
E3A
  5
E3B
331
149C
  5
149D
331
14DB
  5
14DC
331
5BB
  5
5BC
331
14A4
  5
14A5
331
14E3
  5
14E4
331
14EB
  5
14EC
331
14AC
  5
14AD
331
5CB
  5
5CC
331
14B4
  5
14B5
331
646
  5
647
331
7D4
  5
7D5
331
64E
  5
64F
331
E62
  5
E68
331
14BC
  5
14BD
331
5DB
  5
5DF
331
14C4
  5
14C5
331
148D
  5
148E
331
1376
  5
1379
331
14CC
  5
14CD
331
1495
  5
1496
331
14D4
  5
14D5
331
656
  5
657
331
795
  5
796
331
65E
  5
65F
331
617
  5
61B
331
79D
  5
79E
331
666
  5
66F
331
E3B
  5
E3C
331
EA2
  5
EA6
331
14DC
  5
14DD
331
149D
  5
149E
331
5BC
  5
5BD
331
14A5
  5
14A6
331
14E4
  5
14E5
331
14AD
  5
14AE
331
14EC
  5
14ED
331
5CC
  5
5D0
331
14B5
  5
14B6
331
62F
  5
638
331
E4B
  5
E4F
331
647
  5
648
331
7D5
  5
7D6
331
EC2
  5
EC6
331
64F
  5
650
331
14BD
  5
14BE
331
14C5
  5
14C6
331
148E
  5
148F
331
5E4
  5
5ED
331
14CD
  5
14CE
331
137F
  5
1382
331
1496
  5
1497
331
14D5
  5
14D6
331
5B5
  5
5B6
331
657
  5
658
331
796
  5
797
331
BC5
  5
BC6
331
65F
  5
660
331
79E
  5
79F
331
66F
  5
672
331
E3C
  5
E3D
331
149E
  5
149F
331
14DD
  5
14DE
331
5BD
  5
5BE
331
14E5
  5
14E6
331
1397
  5
1398
331
14A6
  5
14A7
331
14ED
  5
14EE
331
14AE
  5
14AF
331
14B6
  5
14B9
331
638
  5
640
331
7C6
  5
7C7
331
6D7
  5
6DC
331
640
  5
641
331
648
  5
649
331
E5C
  5
E62
331
1370
  5
1373
331
14BE
  5
14BF
331
14C6
  5
14C7
331
148F
  5
1490
331
14CE
  5
14CF
331
1497
  5
1498
331
5ED
  5
5EE
331
14D6
  5
14D7
331
5B6
  5
5B7
331
650
  5
651
331
658
  5
659
331
797
  5
798
331
E94
  5
E95
331
BC6
  5
CF9
331
660
  5
661
331
79F
  5
7A7
331
7A7
  5
7BC
331
E3D
  5
E45
331
1388
  5
138B
331
14DE
  5
14DF
331
149F
  5
14A0
331
5BE
  5
5BF
331
14A7
  5
14A8
331
1398
  5
1399
331
14E6
  5
14E7
331
5C6
  5
5C7
331
14AF
  5
14B0
331
14EE
  5
14F4
331
7C7
  5
7C8
331
E45
  5
E4B
331
641
  5
642
331
649
  5
64A
331
14BF
  5
14C0
331
14C7
  5
14C8
331
1379
  5
137C
331
1490
  5
1491
331
14CF
  5
14D0
331
14D7
  5
14D8
331
5EE
  5
60B
331
5B7
  5
5B8
331
651
  5
652
331
659
  5
65A
331
798
  5
799
331
661
  5
662
331
E95
  5
E96
331
1498
  5
1499
331
14A0
  5
14A1
331
14DF
  5
14E0
331
14E7
  5
14E8
331
1399
  5
139A
331
14A8
  5
14A9
331
5BF
  5
5C0
331
14B0
  5
14B1
331
5C7
  5
5C8
331
5D7
  5
5DB
331
7C8
  5
7C9
331
642
  5
643
331
7D0
  5
7D4
331
64A
  5
64B
331
136A
  5
136D
331
14C0
  5
14C1
331
14C8
  5
14C9
331
1491
  5
1493
331
5DF
  5
5E0
331
1382
  5
1385
331
14D0
  5
14D1
331
60B
  5
615
331
652
  5
653
331
E6E
  5
E94
331
65A
  5
65B
331
799
  5
79A
331
61B
  5
61C
331
662
  5
663
331
E96
  5
E97
331
623
  5
624
331
EA6
  5
EB6
331
14D8
  5
14D9
331
1499
  5
149A
331
14E0
  5
14E1
331
14A1
  5
14A2
331
5B8
  5
5B9
331
14A9
  5
14AA
331
139A
  5
13A4
331
14E8
  5
14E9
331
5C0
  5
5C1
331
14B1
  5
14B2
331
5C8
  5
5C9
331
5D0
  5
5D7
331
672
  5
673
331
7C1
  5
7C6
331
EB6
  5
EB7
331
7C9
  5
7CA
331
643
  5
644
331
E4F
  5
E5C
331
EBE
  5
EC2
331
64B
  5
64C
331
EC6
  5
EC7
331
14B9
  5
14BA
331
1373
  5
1376
331
14C1
  5
14C2
331
14C9
  5
14CA
331
5E0
  5
5E4
331
14D1
  5
14D2
331
653
  5
654
331
BC1
  5
BC2
331
65B
  5
65C
331
79A
  5
79B
331
61C
  5
623
331
663
  5
664
331
CF9
  5
E2A
331
E97
  5
E98
331
E38
  5
E3A
331
149A
  5
149B
331
138B
  5
138E
331
14D9
  5
14DA
331
14A2
  5
14A3
331
14E1
  5
14E2
331
5B9
  5
5BA
331
14E9
  5
14EA
331
14AA
  5
14AB
331
5C1
  5
5C2
331
14B2
  5
14B3
331
5C9
  5
5CA
331
673
  5
6C9
331
EB7
  5
EB8
331
6D3
  5
6D7
331
7CA
  5
7CB
331
644
  5
645
331
64C
  5
64D
331
EC7
  5
EC8
331
14BA
  5
14BB
331
14C2
  5
14C3
331
14CA
  5
14CB
331
137C
  5
137F
331
1493
  5
1494
331
14D2
  5
14D3
331
E68
  5
E6E
331
654
  5
655
331
793
  5
794
331
7F2
  5
BC1
331
BC2
  5
BC3
331
65C
  5
65D
331
615
  5
616
331
79B
  5
79C
331
664
  5
665
331
E98
  5
E99
331
112F
  5
1130
331
14DA
  5
14DB
331
149B
  5
149C
331
14A3
  5
14A4
331
14E2
  5
14E3
331
5BA
  5
5BB
  0
LAYOUT
  5
1237
102
{ACAD_REACTORS
330
1234
102
}
330
1234
100
AcDbPlotSettings
  1

  2
S:\AutoCAD 2002\Plotters\1055ColorDraftShaded.pc3
  4

  6

 40
0.0
 41
0.0
 42
0.0
 43
0.0
 44
0.0
 45
0.0
 46
0.0
 47
0.0
 48
0.0
 49
0.0
140
0.0
141
0.0
142
1.0
143
1.0
 70
   688
 72
     0
 73
     0
 74
     5
  7
Black&White.ctb
 75
    16
147
1.0
148
0.0
149
0.0
100
AcDbLayout
  1
Layout1
 70
     0
 71
     1
 10
0.0
 20
0.0
 11
12.0
 21
9.0
 12
0.0
 22
0.0
 32
0.0
 14
1.000000000000000E+20
 24
1.000000000000000E+20
 34
1.000000000000000E+20
 15
-1.000000000000000E+20
 25
-1.000000000000000E+20
 35
-1.000000000000000E+20
146
0.0
 13
0.0
 23
0.0
 33
0.0
 16
1.0
 26
0.0
 36
0.0
 17
0.0
 27
1.0
 37
0.0
 76
     0
330
15
331
792
  0
LAYOUT
  5
1236
102
{ACAD_REACTORS
330
1234
102
}
330
1234
100
AcDbPlotSettings
  1

  2
OKI DOKI Color Laser.pc3
  4
Tabloid
  6
PS1
 40
5.027083396911621
 41
5.027085304260253
 42
5.027099609375
 43
5.027069091796875
 44
279.3999938964843
 45
431.7999877929687
 46
1.27
 47
0.0
 48
180360.0524337165
 49
80033.77936194791
140
180369.1574725906
141
80037.61796031875
142
1.0
143
0.9931242156595711
 70
 11956
 72
     0
 73
     1
 74
     3
  7
OKIColorShaded.ctb
 75
     0
147
1.006923388063659
148
-0.0000000000000042
149
0.0
100
AcDbLayout
  1
Model
 70
     1
 71
     0
 10
0.0
 20
0.0
 11
12.0
 21
9.0
 12
0.0
 22
0.0
 32
0.0
 14
0.0
 24
0.0
 34
0.0
 15
0.0
 25
0.0
 35
0.0
146
0.0
 13
0.0
 23
0.0
 33
0.0
 16
1.0
 26
0.0
 36
0.0
 17
0.0
 27
1.0
 37
0.0
 76
     0
330
18
  0
MLINESTYLE
  5
1B
102
{ACAD_REACTORS
330
E
102
}
330
E
100
AcDbMlineStyle
  2
STANDARD
 70
     0
  3

 62
     0
 51
90.0
 52
90.0
 71
     2
 49
0.5
 62
   256
  6
BYLAYER
 49
-0.5
 62
   256
  6
BYLAYER
  0
PLOTSETTINGS
  5
161D
102
{ACAD_REACTORS
330
1235
102
}
330
1235
100
AcDbPlotSettings
  1
1055 B&W Full Shaded Draft
  2
1055B&WDraftShaded.pc3
  4
User607
  6
PS1
 40
0.0
 41
0.0
 42
0.0
 43
0.0
 44
901.7000122070312
 45
1155.700073242187
 46
0.0
 47
0.0
 48
180377.877572
 49
80019.819395
140
180380.8390819999
141
80022.26069
142
1.0
143
1.0
 70
   688
 72
     0
 73
     2
 74
     5
  7
1055B&WFullDraftShaded.ctb
 75
    16
147
1.0
148
-4581114.014650871
149
-2032337.537636779
  0
PLOTSETTINGS
  5
161E
102
{ACAD_REACTORS
330
1235
102
}
330
1235
100
AcDbPlotSettings
  1
1055 B&W Full Shaded Final
  2
1055B&WFinalShaded.pc3
  4
User258
  6
PS1
 40
4.995333194732666
 41
8.297393798828125
 42
4.99530029296875
 43
8.29736328125
 44
761.9576416015624
 45
1066.757690429687
 46
0.0
 47
0.0
 48
180377.877572
 49
80019.819395
140
180380.8390819999
141
80022.26069
142
1.0
143
1.0
 70
   688
 72
     0
 73
     3
 74
     5
  7
1055B&WFullFinalShaded.ctb
 75
    16
147
1.0
148
-4581114.014650871
149
-2032337.537636779
  0
PLOTSETTINGS
  5
161F
102
{ACAD_REACTORS
330
1235
102
}
330
1235
100
AcDbPlotSettings
  1
1055 B&W Half Shaded Draft
  2
1055B&WDraftShaded.pc3
  4
User607
  6
PS1
 40
0.0
 41
0.0
 42
0.0
 43
0.0
 44
901.7000122070312
 45
1155.700073242187
 46
0.0
 47
0.0
 48
180377.877572
 49
80019.819395
140
180380.8390819999
141
80022.26069
142
1.0
143
2.0
 70
   688
 72
     0
 73
     2
 74
     5
  7
1055B&WHalfDraftShaded.ctb
 75
    17
147
0.5
148
-4581114.014650871
149
-2032337.537636779
  0
PLOTSETTINGS
  5
1620
102
{ACAD_REACTORS
330
1235
102
}
330
1235
100
AcDbPlotSettings
  1
1055 B&W Half Shaded Final
  2
1055B&WFinalShaded.pc3
  4
User258
  6
PS1
 40
4.995333194732666
 41
8.297393798828125
 42
4.99530029296875
 43
8.29736328125
 44
761.9576416015624
 45
1066.757690429687
 46
0.0
 47
0.0
 48
180377.877572
 49
80019.819395
140
180380.8390819999
141
80022.26069
142
1.0
143
2.0
 70
   688
 72
     0
 73
     3
 74
     5
  7
1055B&WHalfFinalShaded.ctb
 75
    17
147
0.5
148
-4581114.014650871
149
-2032337.537636779
  0
PLOTSETTINGS
  5
1621
102
{ACAD_REACTORS
330
1235
102
}
330
1235
100
AcDbPlotSettings
  1
1055 Color Full Shaded Draft
  2
1055ColorDraftShaded.pc3
  4
User607
  6
PS1
 40
0.0
 41
0.0
 42
0.0
 43
0.0
 44
901.7000122070312
 45
1155.700073242187
 46
0.0
 47
0.0
 48
180377.877572
 49
80019.819395
140
180380.8390819999
141
80022.26069
142
1.0
143
1.0
 70
   688
 72
     0
 73
     2
 74
     5
  7
1055ColorFullDraftShaded.ctb
 75
    16
147
1.0
148
-4581114.014650871
149
-2032337.537636779
  0
PLOTSETTINGS
  5
1622
102
{ACAD_REACTORS
330
1235
102
}
330
1235
100
AcDbPlotSettings
  1
1055 Color Full Shaded Final
  2
1055ColorFinalShaded.pc3
  4
User607
  6
PS1
 40
0.0
 41
0.0
 42
0.0
 43
0.0
 44
901.7000122070312
 45
1155.700073242187
 46
0.0
 47
0.0
 48
180377.877572
 49
80019.819395
140
180380.8390819999
141
80022.26069
142
1.0
143
1.0
 70
   688
 72
     0
 73
     2
 74
     5
  7
1055ColorFullFinalShaded.ctb
 75
    16
147
1.0
148
-4581114.014650871
149
-2032337.537636779
  0
PLOTSETTINGS
  5
1623
102
{ACAD_REACTORS
330
1235
102
}
330
1235
100
AcDbPlotSettings
  1
1055 Color Half Shaded Draft
  2
1055ColorDraftShaded.pc3
  4
User607
  6
PS1
 40
0.0
 41
0.0
 42
0.0
 43
0.0
 44
901.7000122070312
 45
1155.700073242187
 46
0.0
 47
0.0
 48
180377.877572
 49
80019.819395
140
180380.8390819999
141
80022.26069
142
1.0
143
1.0
 70
   688
 72
     0
 73
     2
 74
     5
  7
1055ColorHalfDraftShaded.ctb
 75
    16
147
1.0
148
-4581114.014650871
149
-2032337.537636779
  0
PLOTSETTINGS
  5
1624
102
{ACAD_REACTORS
330
1235
102
}
330
1235
100
AcDbPlotSettings
  1
1055 Color Half Shaded Final
  2
1055ColorFinalShaded.pc3
  4
User607
  6
PS1
 40
0.0
 41
0.0
 42
0.0
 43
0.0
 44
901.7000122070312
 45
1155.700073242187
 46
0.0
 47
0.0
 48
180377.877572
 49
80019.819395
140
180380.8390819999
141
80022.26069
142
1.0
143
1.0
 70
   688
 72
     0
 73
     2
 74
     5
  7
1055ColorHalfFinalShaded.ctb
 75
    16
147
1.0
148
-4581114.014650871
149
-2032337.537636779
  0
PLOTSETTINGS
  5
16B8
102
{ACAD_REACTORS
330
1235
102
}
330
1235
100
AcDbPlotSettings
  1
1055 PLUS B&W Full Shaded Draft
  2
1055_PLUS_B&WDraftShaded.pc3
  4
User257
  6
ps1
 40
4.995333194732666
 41
8.297393798828125
 42
4.99530029296875
 43
8.29736328125
 44
901.6152954101562
 45
1155.615356445312
 46
0.0
 47
0.0
 48
180377.877572
 49
80019.819395
140
180380.8390819999
141
80022.26069
142
1.0
143
1.0
 70
   688
 72
     0
 73
     3
 74
     5
  7
1055B&WFullDraftShaded.ctb
 75
    16
147
1.0
148
-4581603.303200401
149
-2032962.095032944
  0
PLOTSETTINGS
  5
16B9
102
{ACAD_REACTORS
330
1235
102
}
330
1235
100
AcDbPlotSettings
  1
1055 PLUS B&W Full Shaded Final
  2
1055_PLUS_B&WFinalShaded.pc3
  4
User257
  6
PS1
 40
4.995333194732666
 41
8.297271728515625
 42
4.99530029296875
 43
8.29736328125
 44
901.6576538085937
 45
1155.657592773437
 46
0.0
 47
0.0
 48
180377.877572
 49
80019.819395
140
180380.8390819999
141
80022.26069
142
1.0
143
1.0
 70
   688
 72
     0
 73
     3
 74
     5
  7
1055B&WFullFinalShaded.ctb
 75
    16
147
1.0
148
-4581603.303200401
149
-2032962.095032944
  0
PLOTSETTINGS
  5
16BA
102
{ACAD_REACTORS
330
1235
102
}
330
1235
100
AcDbPlotSettings
  1
1055 PLUS Color Full Shaded Draft
  2
1055_PLUS_ColorDraftShaded.pc3
  4
User257
  6
PS1
 40
4.995333194732666
 41
8.297393798828125
 42
4.99530029296875
 43
8.29736328125
 44
901.6152954101562
 45
1155.615356445312
 46
0.0
 47
0.0
 48
180377.877572
 49
80019.819395
140
180380.8390819999
141
80022.26069
142
1.0
143
1.0
 70
   688
 72
     0
 73
     3
 74
     5
  7
1055ColorFullDraftShaded.ctb
 75
    16
147
1.0
148
-4581603.303200401
149
-2032962.095032944
  0
PLOTSETTINGS
  5
16BB
102
{ACAD_REACTORS
330
1235
102
}
330
1235
100
AcDbPlotSettings
  1
1055 PLUS Color Full Shaded Final
  2
1055_PLUS_ColorFinalShaded.pc3
  4
User257
  6
PS1
 40
4.995333194732666
 41
8.297271728515625
 42
4.99530029296875
 43
8.29736328125
 44
901.6576538085937
 45
1155.657592773437
 46
0.0
 47
0.0
 48
180377.877572
 49
80019.819395
140
180380.8390819999
141
80022.26069
142
1.0
143
1.0
 70
   688
 72
     0
 73
     3
 74
     5
  7
1055ColorFullFinalShaded.ctb
 75
    16
147
1.0
148
-4581603.303200401
149
-2032962.095032944
  0
PLOTSETTINGS
  5
1625
102
{ACAD_REACTORS
330
1235
102
}
330
1235
100
AcDbPlotSettings
  1
1055-B&W-Shaded-Draft
  2
1055B&WDraftShaded.pc3
  4
User257
  6

 40
4.995333194732666
 41
8.297393798828125
 42
4.99530029296875
 43
8.29736328125
 44
901.6152954101562
 45
1155.615356445312
 46
0.0
 47
0.0
 48
180360.0524337165
 49
80033.77936194791
140
180369.1574725906
141
80037.61796031875
142
1.0
143
1.0
 70
  1712
 72
     0
 73
     1
 74
     4
  7
1055B&WFullDraftShaded.ctb
 75
    16
147
1.0
148
-4581145.331816398
149
-2032857.995793476
  0
PLOTSETTINGS
  5
1626
102
{ACAD_REACTORS
330
1235
102
}
330
1235
100
AcDbPlotSettings
  1
1055-B&W-Shaded-Final
  2
1055B&WFinalShaded.pc3
  4
User607
  6

 40
0.0
 41
0.0
 42
0.0
 43
0.0
 44
901.7000122070312
 45
1155.700073242187
 46
0.0
 47
0.0
 48
180360.0524337165
 49
80033.77936194791
140
180369.1574725906
141
80037.61796031875
142
1.0
143
1.0
 70
  1712
 72
     0
 73
     1
 74
     4
  7
1055B&WFullFinalShaded.ctb
 75
    16
147
1.0
148
-4581145.331816398
149
-2032857.995793476
  0
PLOTSETTINGS
  5
1627
102
{ACAD_REACTORS
330
1235
102
}
330
1235
100
AcDbPlotSettings
  1
1055-Color-Shaded-Draft
  2
1055ColorDraftShaded.pc3
  4
User257
  6

 40
4.995333194732666
 41
8.297393798828125
 42
4.99530029296875
 43
8.29736328125
 44
901.6152954101562
 45
1155.615356445312
 46
0.0
 47
0.0
 48
180360.0524337165
 49
80033.77936194791
140
180369.1574725906
141
80037.61796031875
142
1.0
143
1.0
 70
  1712
 72
     0
 73
     1
 74
     4
  7
1055ColorFullDraftShaded.ctb
 75
    16
147
1.0
148
-4581145.331816398
149
-2032857.995793476
  0
PLOTSETTINGS
  5
1628
102
{ACAD_REACTORS
330
1235
102
}
330
1235
100
AcDbPlotSettings
  1
1055-Color-Shaded-Final
  2
1055ColorDraftShaded.pc3
  4
User257
  6

 40
4.995333194732666
 41
8.297393798828125
 42
4.99530029296875
 43
8.29736328125
 44
901.6152954101562
 45
1155.615356445312
 46
0.0
 47
0.0
 48
180360.0524337165
 49
80033.77936194791
140
180369.1574725906
141
80037.61796031875
142
1.0
143
1.0
 70
  1712
 72
     0
 73
     1
 74
     4
  7
1055ColorFullFinalShaded.ctb
 75
    16
147
1.0
148
-4581145.331816398
149
-2032857.995793476
  0
PLOTSETTINGS
  5
16BC
102
{ACAD_REACTORS
330
1235
102
}
330
1235
100
AcDbPlotSettings
  1
1055-PLUS-B&W-Shaded-Draft
  2
1055_PLUS_B&WDraftShaded.pc3
  4
User257
  6

 40
4.995333194732666
 41
8.297393798828125
 42
4.99530029296875
 43
8.29736328125
 44
901.6152954101562
 45
1155.615356445312
 46
0.0
 47
0.0
 48
180360.0524337165
 49
80033.77936194791
140
180369.1574725906
141
80037.61796031875
142
1.0
143
30.0
 70
  1696
 72
     0
 73
     1
 74
     0
  7
1055B&WFullDraftShaded.ctb
 75
     0
147
0.0333333333333333
148
0.9506237099442845
149
8.593888772447144
  0
PLOTSETTINGS
  5
16BD
102
{ACAD_REACTORS
330
1235
102
}
330
1235
100
AcDbPlotSettings
  1
1055-PLUS-B&W-Shaded-Final
  2
1055_PLUS_B&WFinalShaded.pc3
  4
User257
  6

 40
4.995333194732666
 41
8.297271728515625
 42
4.99530029296875
 43
8.29736328125
 44
901.6576538085937
 45
1155.657592773437
 46
0.0
 47
0.0
 48
180360.0524337165
 49
80033.77936194791
140
180369.1574725906
141
80037.61796031875
142
1.0
143
30.0
 70
  1696
 72
     0
 73
     1
 74
     0
  7
1055B&WFullFinalShaded.ctb
 75
     0
147
0.0333333333333333
148
0.9506237099442845
149
8.593888772447144
  0
PLOTSETTINGS
  5
16BE
102
{ACAD_REACTORS
330
1235
102
}
330
1235
100
AcDbPlotSettings
  1
1055-PLUS-Color-Shaded-Draft
  2
1055_PLUS_ColorDraftShaded.pc3
  4
User257
  6

 40
4.995333194732666
 41
8.297393798828125
 42
4.99530029296875
 43
8.29736328125
 44
901.6152954101562
 45
1155.615356445312
 46
0.0
 47
0.0
 48
180360.0524337165
 49
80033.77936194791
140
180369.1574725906
141
80037.61796031875
142
1.0
143
30.0
 70
  1696
 72
     0
 73
     1
 74
     0
  7
1055ColorFullDraftShaded.ctb
 75
     0
147
0.0333333333333333
148
0.9506237099442845
149
8.593888772447144
  0
PLOTSETTINGS
  5
16BF
102
{ACAD_REACTORS
330
1235
102
}
330
1235
100
AcDbPlotSettings
  1
1055-PLUS-Color-Shaded-Final
  2
1055_PLUS_ColorFinalShaded.pc3
  4
User257
  6

 40
4.995333194732666
 41
8.297271728515625
 42
4.99530029296875
 43
8.29736328125
 44
901.6576538085937
 45
1155.657592773437
 46
0.0
 47
0.0
 48
180360.0524337165
 49
80033.77936194791
140
180369.1574725906
141
80037.61796031875
142
1.0
143
30.0
 70
  1696
 72
     0
 73
     1
 74
     0
  7
1055ColorFullFinalShaded.ctb
 75
     0
147
0.0333333333333333
148
0.9506237099442845
149
8.593888772447144
  0
PLOTSETTINGS
  5
1358
102
{ACAD_REACTORS
330
1235
102
}
330
1235
100
AcDbPlotSettings
  1
1055cm B&W Shaded Draft
  2
1055B&WDraftShaded.pc3
  4
User257
  6
PS1
 40
4.995333194732666
 41
8.297393798828125
 42
4.99530029296875
 43
8.29736328125
 44
901.6152954101562
 45
1155.615356445312
 46
0.0
 47
0.0
 48
180377.877572
 49
80019.819395
140
180380.8390819999
141
80022.26069
142
1.0
143
1.0
 70
   688
 72
     0
 73
     2
 74
     3
  7
1055B&WDraftShaded.ctb
 75
    16
147
1.0
148
-4581153.377679998
149
-2032365.335819999
  0
PLOTSETTINGS
  5
1359
102
{ACAD_REACTORS
330
1235
102
}
330
1235
100
AcDbPlotSettings
  1
1055cm B&W Shaded Final
  2
1055B&WFinalShaded.pc3
  4
User257
  6
PS1
 40
4.995333194732666
 41
8.297271728515625
 42
4.99530029296875
 43
8.29736328125
 44
901.6576538085937
 45
1155.657592773437
 46
0.0
 47
0.0
 48
180377.877572
 49
80019.819395
140
180380.8390819999
141
80022.26069
142
1.0
143
1.0
 70
   672
 72
     0
 73
     2
 74
     3
  7
1055B&WFinalShaded.ctb
 75
     0
147
1.0
148
-4581153.377679998
149
-2032365.335819999
  0
PLOTSETTINGS
  5
135A
102
{ACAD_REACTORS
330
1235
102
}
330
1235
100
AcDbPlotSettings
  1
1055cm Color Draft
  2
1055ColorDraftShaded.pc3
  4
User257
  6
PS1
 40
4.995333194732666
 41
8.297393798828125
 42
4.99530029296875
 43
8.29736328125
 44
901.6152954101562
 45
1155.615356445312
 46
0.0
 47
0.0
 48
180377.877572
 49
80019.819395
140
180380.8390819999
141
80022.26069
142
1.0
143
1.0
 70
   688
 72
     0
 73
     2
 74
     3
  7
Color.CTB
 75
    16
147
1.0
148
-4581153.377679998
149
-2032365.335819999
  0
PLOTSETTINGS
  5
135B
102
{ACAD_REACTORS
330
1235
102
}
330
1235
100
AcDbPlotSettings
  1
1055cm Color Shaded Draft
  2
1055ColorDraftShaded.pc3
  4
User257
  6
PS1
 40
4.995333194732666
 41
8.297393798828125
 42
4.99530029296875
 43
8.29736328125
 44
901.6152954101562
 45
1155.615356445312
 46
0.0
 47
0.0
 48
180377.877572
 49
80019.819395
140
180380.8390819999
141
80022.26069
142
1.0
143
1.0
 70
   688
 72
     0
 73
     2
 74
     3
  7
1055ColorDraftShaded.CTB
 75
    16
147
1.0
148
-4581153.377679998
149
-2032365.335819999
  0
PLOTSETTINGS
  5
135C
102
{ACAD_REACTORS
330
1235
102
}
330
1235
100
AcDbPlotSettings
  1
1055cm Color Shaded Final
  2
1055ColorFinalShaded.pc3
  4
User257
  6
PS1
 40
4.995333194732666
 41
8.297271728515625
 42
4.99530029296875
 43
8.29736328125
 44
901.6576538085937
 45
1155.657592773437
 46
0.0
 47
0.0
 48
180377.877572
 49
80019.819395
140
180380.8390819999
141
80022.26069
142
1.0
143
1.0
 70
   688
 72
     0
 73
     2
 74
     3
  7
1055ColorFinalShaded.ctb
 75
    16
147
1.0
148
-4581153.377679998
149
-2032365.335819999
  0
PLOTSETTINGS
  5
135D
102
{ACAD_REACTORS
330
1235
102
}
330
1235
100
AcDbPlotSettings
  1
1055cmB&WShadedDraft
  2
1055B&WDraftShaded.pc3
  4
User257
  6

 40
4.995333194732666
 41
8.297393798828125
 42
4.99530029296875
 43
8.29736328125
 44
901.6152954101562
 45
1155.615356445312
 46
0.0
 47
0.0
 48
180360.0524337165
 49
80033.77936194791
140
180369.1574725906
141
80037.61796031875
142
1.0
143
30.0
 70
  1712
 72
     0
 73
     1
 74
     0
  7
1055B&WDraftShaded.ctb
 75
    23
147
0.0333333333333333
148
-4580581.320935756
149
-2032339.826086972
  0
PLOTSETTINGS
  5
135E
102
{ACAD_REACTORS
330
1235
102
}
330
1235
100
AcDbPlotSettings
  1
1055cmColorShadedDraft
  2
1055ColorDraftShaded.pc3
  4
User257
  6

 40
4.995333194732666
 41
8.297393798828125
 42
4.99530029296875
 43
8.29736328125
 44
901.6152954101562
 45
1155.615356445312
 46
0.0
 47
0.0
 48
180360.0524337165
 49
80033.77936194791
140
180369.1574725906
141
80037.61796031875
142
1.0
143
30.0
 70
  1712
 72
     0
 73
     1
 74
     0
  7
1055ColorDraftShaded.ctb
 75
    23
147
0.0333333333333333
148
-4580581.320935756
149
-2032339.826086972
  0
PLOTSETTINGS
  5
16C0
102
{ACAD_REACTORS
330
1235
102
}
330
1235
100
AcDbPlotSettings
  1
2200 Color Inkjet
  2
HP  2200 Color Inkjet.pc3
  4
Letter
  6
PS1
 40
7.143749713897705
 41
12.47775650024414
 42
7.14373779296875
 43
3.17498779296875
 44
215.8999938964843
 45
279.3999938964843
 46
0.0
 47
0.0
 48
180377.877572
 49
80019.819395
140
180380.8390819999
141
80022.26069
142
1.0
143
0.3486331030131726
 70
   688
 72
     0
 73
     1
 74
     3
  7
Color.ctb
 75
     0
147
2.868344948764708
148
-4581603.303200401
149
-2032962.095032944
  0
PLOTSETTINGS
  5
16C1
102
{ACAD_REACTORS
330
1235
102
}
330
1235
100
AcDbPlotSettings
  1
2200-Color-Inkjet
  2
HP  2200 Color Inkjet.pc3
  4
Letter
  6

 40
7.143749713897705
 41
12.47775650024414
 42
7.14373779296875
 43
3.17498779296875
 44
215.8999938964843
 45
279.3999938964843
 46
0.0
 47
0.0
 48
180360.0524337165
 49
80033.77936194791
140
180369.1574725906
141
80037.61796031875
142
1.0
143
0.069393053089765
 70
  1712
 72
     0
 73
     1
 74
     1
  7
Color.ctb
 75
     0
147
14.41066440334347
148
-190.0773302744904
149
-129.2444057835751
  0
PLOTSETTINGS
  5
16C2
102
{ACAD_REACTORS
330
1235
102
}
330
1235
100
AcDbPlotSettings
  1
24x36 PDF
  2
Bluebeam PDF Printer.pc3
  4
User128
  6
PS1
 40
3.174999952316284
 41
3.174999952316284
 42
3.17498779296875
 43
3.17498779296875
 44
609.5999755859375
 45
914.3999633789062
 46
270.5099999999999
 47
416.3059999999999
 48
180377.877572
 49
80019.819395
140
180380.8390819999
141
80022.26069
142
1.0
143
1.0
 70
   692
 72
     0
 73
     1
 74
     4
  7
1055B&WFullDraftShaded.ctb
 75
    16
147
1.0
148
-4581598.0903288
149
-2032503.412632999
  0
PLOTSETTINGS
  5
135F
102
{ACAD_REACTORS
330
1235
102
}
330
1235
100
AcDbPlotSettings
  1
8500 B&W Shaded 11x17
  2
8500B&WShaded.pc3
  4
11x17
  6
PS1
 40
5.027083396911621
 41
5.027085304260253
 42
5.027099609375
 43
5.027069091796875
 44
279.3999938964843
 45
431.7999877929687
 46
0.0
 47
0.762
 48
180377.877572
 49
80019.819395
140
180380.8390819999
141
80022.26069
142
1.0
143
1.980353799589804
 70
   692
 72
     0
 73
     1
 74
     3
  7
8500B&WShaded.ctb
 75
     0
147
0.5049602753846977
148
-4581153.377679998
149
-2032365.335819999
  0
PLOTSETTINGS
  5
1360
102
{ACAD_REACTORS
330
1235
102
}
330
1235
100
AcDbPlotSettings
  1
8500 B&W Shaded 8.5x11
  2
8500B&WShaded.pc3
  4
Letter
  6
PS1
 40
5.027083396911621
 41
5.027085304260253
 42
5.027084350585937
 43
5.027069091796875
 44
215.8999938964843
 45
279.3999938964843
 46
16.50999999999999
 47
0.0
 48
180377.877572
 49
80019.819395
140
180380.8390819999
141
80022.26069
142
1.0
143
3.089030970531291
 70
   692
 72
     0
 73
     1
 74
     3
  7
8500B&WShaded.ctb
 75
     0
147
0.3237261165523398
148
-4581153.377679998
149
-2032365.335819999
  0
PLOTSETTINGS
  5
1361
102
{ACAD_REACTORS
330
1235
102
}
330
1235
100
AcDbPlotSettings
  1
8500 Color Shaded 11x17
  2
8500ColorShaded.pc3
  4
11x17
  6
PS1
 40
5.027083396911621
 41
5.027085304260253
 42
5.027099609375
 43
5.027069091796875
 44
279.3999938964843
 45
431.7999877929687
 46
0.0
 47
0.762
 48
180377.877572
 49
80019.819395
140
180380.8390819999
141
80022.26069
142
1.0
143
1.980353799589804
 70
   692
 72
     0
 73
     1
 74
     3
  7
8500ColorShaded.ctb
 75
     0
147
0.5049602753846977
148
-4581153.377679998
149
-2032365.335819999
  0
PLOTSETTINGS
  5
1362
102
{ACAD_REACTORS
330
1235
102
}
330
1235
100
AcDbPlotSettings
  1
8500 Color Shaded 8.5x11
  2
8500ColorShaded.pc3
  4
Letter
  6
PS1
 40
5.027083396911621
 41
5.027085304260253
 42
5.027084350585937
 43
5.027069091796875
 44
215.8999938964843
 45
279.3999938964843
 46
16.50999999999999
 47
0.0
 48
180377.877572
 49
80019.819395
140
180380.8390819999
141
80022.26069
142
1.0
143
3.089030970531291
 70
   692
 72
     0
 73
     1
 74
     3
  7
8500ColorShaded.ctb
 75
     0
147
0.3237261165523398
148
-4581153.377679998
149
-2032365.335819999
  0
PLOTSETTINGS
  5
1629
102
{ACAD_REACTORS
330
1235
102
}
330
1235
100
AcDbPlotSettings
  1
8500-B&W-Shaded-11x17
  2
8500B&WShaded.pc3
  4
11x17
  6

 40
5.027083396911621
 41
5.027085304260253
 42
5.027099609375
 43
5.027069091796875
 44
279.3999938964843
 45
431.7999877929687
 46
0.0
 47
0.0
 48
180360.0524337165
 49
80033.77936194791
140
180369.1574725906
141
80037.61796031875
142
1.0
143
4.787622939151733
 70
  1712
 72
     0
 73
     1
 74
     0
  7
8500B&WShaded.ctb
 75
     0
147
0.2088719209322652
148
-4580581.320935756
149
-2032339.826086972
  0
PLOTSETTINGS
  5
162A
102
{ACAD_REACTORS
330
1235
102
}
330
1235
100
AcDbPlotSettings
  1
8500-B&W-Shaded-8.5x11
  2
8500B&WShaded.pc3
  4
Letter
  6

 40
5.027083396911621
 41
5.027085304260253
 42
5.027084350585937
 43
5.027069091796875
 44
215.8999938964843
 45
279.3999938964843
 46
0.0
 47
0.0
 48
180360.0524337165
 49
80033.77936194791
140
180369.1574725906
141
80037.61796031875
142
1.0
143
1.400341199009821
 70
  1712
 72
     0
 73
     1
 74
     0
  7
8500B&WShaded.ctb
 75
     0
147
0.7141116755738516
148
0.0
149
0.0
  0
PLOTSETTINGS
  5
162B
102
{ACAD_REACTORS
330
1235
102
}
330
1235
100
AcDbPlotSettings
  1
8500-Color-Shaded-11x17
  2
8500ColorShaded.pc3
  4
11x17
  6

 40
5.027083396911621
 41
5.027085304260253
 42
5.027099609375
 43
5.027069091796875
 44
279.3999938964843
 45
431.7999877929687
 46
0.0
 47
0.0
 48
180360.0524337165
 49
80033.77936194791
140
180369.1574725906
141
80037.61796031875
142
1.0
143
4.787622939151733
 70
  1712
 72
     0
 73
     1
 74
     0
  7
8500ColorShaded.ctb
 75
     0
147
0.2088719209322652
148
-4580581.320935756
149
-2032339.826086972
  0
PLOTSETTINGS
  5
162C
102
{ACAD_REACTORS
330
1235
102
}
330
1235
100
AcDbPlotSettings
  1
8500-Color-Shaded-8.5x11
  2
8500ColorShaded.pc3
  4
Letter
  6

 40
5.027083396911621
 41
5.027085304260253
 42
5.027084350585937
 43
5.027069091796875
 44
215.8999938964843
 45
279.3999938964843
 46
0.0
 47
0.0
 48
180360.0524337165
 49
80033.77936194791
140
180369.1574725906
141
80037.61796031875
142
1.0
143
1.400341199009821
 70
  1712
 72
     0
 73
     1
 74
     0
  7
8500ColorShaded.ctb
 75
     0
147
0.7141116755738516
148
0.0
149
0.0
  0
PLOTSETTINGS
  5
1363
102
{ACAD_REACTORS
330
1235
102
}
330
1235
100
AcDbPlotSettings
  1
8500B&WShaded11x17
  2
8500B&WShaded.pc3
  4
11x17
  6

 40
5.027083396911621
 41
5.027085304260253
 42
5.027099609375
 43
5.027069091796875
 44
279.3999938964843
 45
431.7999877929687
 46
0.0
 47
0.0
 48
180360.0524337165
 49
80033.77936194791
140
180369.1574725906
141
80037.61796031875
142
1.0
143
4.787622939151733
 70
  1712
 72
     0
 73
     1
 74
     0
  7
8500B&WShaded.ctb
 75
     0
147
0.2088719209322652
148
-4580581.320935756
149
-2032339.826086972
  0
PLOTSETTINGS
  5
1364
102
{ACAD_REACTORS
330
1235
102
}
330
1235
100
AcDbPlotSettings
  1
8500ColorShaded11x17
  2
8500ColorShaded.pc3
  4
11x17
  6

 40
5.027083396911621
 41
5.027085304260253
 42
5.027099609375
 43
5.027069091796875
 44
279.3999938964843
 45
431.7999877929687
 46
0.0
 47
0.0
 48
180360.0524337165
 49
80033.77936194791
140
180369.1574725906
141
80037.61796031875
142
1.0
143
4.787622939151733
 70
  1712
 72
     0
 73
     1
 74
     0
  7
8500ColorShaded.ctb
 75
     0
147
0.2088719209322652
148
-4580581.320935756
149
-2032339.826086972
  0
PLOTSETTINGS
  5
1365
102
{ACAD_REACTORS
330
1235
102
}
330
1235
100
AcDbPlotSettings
  1
Laser Jet 5 Shaded 11x17
  2
LaserJet5Shaded.pc3
  4
11x17
  6
PS1
 40
7.143749713897705
 41
5.873736858367919
 42
7.143768310546875
 43
7.14373779296875
 44
279.3999938964843
 45
431.7999877929687
 46
0.0
 47
2.54
 48
180377.877572
 49
80019.819395
140
180380.8390819999
141
80022.26069
142
1.0
143
2.011976231014692
 70
   692
 72
     0
 73
     1
 74
     3
  7
LaserJet5Shaded.ctb
 75
     0
147
0.4970237642895384
148
-4581153.377679998
149
-2032365.335819999
  0
PLOTSETTINGS
  5
1366
102
{ACAD_REACTORS
330
1235
102
}
330
1235
100
AcDbPlotSettings
  1
Laser Jet 5 Shaded 8.5x11
  2
LaserJet5Shaded.pc3
  4
Letter
  6
PS1
 40
7.143749713897705
 41
6.974400997161865
 42
7.14373779296875
 43
6.297088623046875
 44
215.8999938964843
 45
279.3999938964843
 46
15.49399999999999
 47
0.0
 48
180377.877572
 49
80019.819395
140
180380.8390819999
141
80022.26069
142
1.0
143
3.126375516456624
 70
   692
 72
     0
 73
     1
 74
     3
  7
LaserJet5Shaded.ctb
 75
     0
147
0.3198592090861117
148
-4581153.377679998
149
-2032365.335819999
  0
PLOTSETTINGS
  5
162D
102
{ACAD_REACTORS
330
1235
102
}
330
1235
100
AcDbPlotSettings
  1
LaserJet5-Shaded-11x17
  2
LaserJet5Shaded.pc3
  4
11x17
  6

 40
7.143749713897705
 41
5.873736858367919
 42
7.143768310546875
 43
7.14373779296875
 44
279.3999938964843
 45
431.7999877929687
 46
0.0
 47
0.0
 48
180360.0524337165
 49
80033.77936194791
140
180369.1574725906
141
80037.61796031875
142
1.0
143
4.864072045424008
 70
  1712
 72
     0
 73
     1
 74
     0
  7
LaserJet5Shaded.ctb
 75
     0
147
0.205589060084086
148
-4580581.320935756
149
-2032339.826086972
  0
PLOTSETTINGS
  5
162E
102
{ACAD_REACTORS
330
1235
102
}
330
1235
100
AcDbPlotSettings
  1
LaserJet5-Shaded-8.5x11
  2
LaserJet5Shaded.pc3
  4
Letter
  6

 40
7.143749713897705
 41
6.974400997161865
 42
7.14373779296875
 43
6.297088623046875
 44
215.8999938964843
 45
279.3999938964843
 46
0.0
 47
0.0
 48
180360.0524337165
 49
80033.77936194791
140
180369.1574725906
141
80037.61796031875
142
1.0
143
1.417270490660323
 70
  1712
 72
     0
 73
     1
 74
     0
  7
LaserJet5Shaded.ctb
 75
     0
147
0.7055816138061886
148
0.0
149
0.0
  0
PLOTSETTINGS
  5
1367
102
{ACAD_REACTORS
330
1235
102
}
330
1235
100
AcDbPlotSettings
  1
LaserJet5Shaded 11x17
  2
LaserJet5Shaded.pc3
  4
11x17
  6

 40
7.143749713897705
 41
5.873736858367919
 42
7.143768310546875
 43
7.14373779296875
 44
279.3999938964843
 45
431.7999877929687
 46
0.0
 47
0.0
 48
180360.0524337165
 49
80033.77936194791
140
180369.1574725906
141
80037.61796031875
142
1.0
143
4.864072045424008
 70
  1712
 72
     0
 73
     1
 74
     0
  7
LaserJet5Shaded.ctb
 75
     0
147
0.205589060084086
148
-4580581.320935756
149
-2032339.826086972
  0
PLOTSETTINGS
  5
16C3
102
{ACAD_REACTORS
330
1235
102
}
330
1235
100
AcDbPlotSettings
  1
Oki Doki B&W Shaded 11x17
  2
OKI DOKI Color Laser.pc3
  4
Tabloid
  6
PS1
 40
5.027083396911621
 41
5.027085304260253
 42
5.027099609375
 43
5.027069091796875
 44
279.3999938964843
 45
431.7999877929687
 46
0.0
 47
47.49799999999999
 48
180377.877572
 49
80019.819395
140
180380.8390819999
141
80022.26069
142
1.0
143
0.2302203728173071
 70
   692
 72
     0
 73
     1
 74
     4
  7
OKIB&WShaded.ctb
 75
     0
147
4.343664236846477
148
-4581598.0903288
149
-2032503.412632999
  0
PLOTSETTINGS
  5
16C4
102
{ACAD_REACTORS
330
1235
102
}
330
1235
100
AcDbPlotSettings
  1
Oki Doki B&W Shaded 8.5x11
  2
OKI DOKI Color Laser.pc3
  4
Letter
  6
PS1
 40
5.027083396911621
 41
5.027085304260253
 42
5.027084350585937
 43
5.027069091796875
 44
215.8999938964843
 45
279.3999938964843
 46
0.0
 47
9.906
 48
180377.877572
 49
80019.819395
140
180380.8390819999
141
80022.26069
142
1.0
143
0.3012394963745367
 70
   692
 72
     0
 73
     1
 74
     4
  7
OKIB&WShaded.ctb
 75
     0
147
3.319617819161008
148
-4581598.0903288
149
-2032503.412632999
  0
PLOTSETTINGS
  5
16C5
102
{ACAD_REACTORS
330
1235
102
}
330
1235
100
AcDbPlotSettings
  1
Oki Doki Color Laser
  2
OKI DOKI Color Laser.pc3
  4
Letter
  6
PS1
 40
5.027083396911621
 41
5.027085304260253
 42
5.027084350585937
 43
5.027069091796875
 44
215.8999938964843
 45
279.3999938964843
 46
71.88199999999999
 47
97.02799999999999
 48
180377.877572
 49
80019.819395
140
180380.8390819999
141
80022.26069
142
1.0
143
1.0
 70
   692
 72
     0
 73
     1
 74
     4
  7
Color.ctb
 75
    16
147
1.0
148
-4581598.0903288
149
-2032503.412632999
  0
PLOTSETTINGS
  5
16C6
102
{ACAD_REACTORS
330
1235
102
}
330
1235
100
AcDbPlotSettings
  1
Oki Doki Color Shaded 11x17
  2
OKI DOKI Color Laser.pc3
  4
Tabloid
  6
PS1
 40
5.027083396911621
 41
5.027085304260253
 42
5.027099609375
 43
5.027069091796875
 44
279.3999938964843
 45
431.7999877929687
 46
0.0
 47
47.49799999999999
 48
180377.877572
 49
80019.819395
140
180380.8390819999
141
80022.26069
142
1.0
143
0.2302203728173071
 70
   692
 72
     0
 73
     1
 74
     4
  7
OKIColorShaded.ctb
 75
     0
147
4.343664236846477
148
-4581598.0903288
149
-2032503.412632999
  0
PLOTSETTINGS
  5
16C7
102
{ACAD_REACTORS
330
1235
102
}
330
1235
100
AcDbPlotSettings
  1
Oki Doki Color Shaded 8.5x11
  2
OKI DOKI Color Laser.pc3
  4
Letter
  6
PS1
 40
5.027083396911621
 41
5.027085304260253
 42
5.027084350585937
 43
5.027069091796875
 44
215.8999938964843
 45
279.3999938964843
 46
0.0
 47
9.906
 48
180377.877572
 49
80019.819395
140
180380.8390819999
141
80022.26069
142
1.0
143
0.3012394963745367
 70
   692
 72
     0
 73
     1
 74
     4
  7
OKIColorShaded.ctb
 75
     0
147
3.319617819161008
148
-4581598.0903288
149
-2032503.412632999
  0
PLOTSETTINGS
  5
16C8
102
{ACAD_REACTORS
330
1235
102
}
330
1235
100
AcDbPlotSettings
  1
Oki-Doki-B&W-Shaded-11x17
  2
OKI DOKI Color Laser.pc3
  4
Tabloid
  6

 40
5.027083396911621
 41
5.027085304260253
 42
5.027099609375
 43
5.027069091796875
 44
279.3999938964843
 45
431.7999877929687
 46
45.72
 47
0.0
 48
180360.0524337165
 49
80033.77936194791
140
180369.1574725906
141
80037.61796031875
142
1.0
143
0.5483586774064594
 70
  1716
 72
     0
 73
     1
 74
     4
  7
OKIB&WShaded.ctb
 75
     0
147
1.823623918435361
148
-4581145.331816398
149
-2032857.995793476
  0
PLOTSETTINGS
  5
16C9
102
{ACAD_REACTORS
330
1235
102
}
330
1235
100
AcDbPlotSettings
  1
Oki-Doki-B&W-Shaded-8.5x11
  2
OKI DOKI Color Laser.pc3
  4
Letter
  6

 40
5.027083396911621
 41
5.027085304260253
 42
5.027084350585937
 43
5.027069091796875
 44
215.8999938964843
 45
279.3999938964843
 46
46.228
 47
0.0
 48
180360.0524337165
 49
80033.77936194791
140
180369.1574725906
141
80037.61796031875
142
1.0
143
0.8586284006917006
 70
  1716
 72
     0
 73
     1
 74
     4
  7
OKIB&WShaded.ctb
 75
     0
147
1.16464817515285
148
-4581145.331816398
149
-2032857.995793476
  0
PLOTSETTINGS
  5
16CA
102
{ACAD_REACTORS
330
1235
102
}
330
1235
100
AcDbPlotSettings
  1
Oki-Doki-Color-Laser
  2
OKI DOKI Color Laser.pc3
  4
Letter
  6

 40
5.027083396911621
 41
5.027085304260253
 42
5.027084350585937
 43
5.027069091796875
 44
215.8999938964843
 45
279.3999938964843
 46
17.018
 47
0.0
 48
180360.0524337165
 49
80033.77936194791
140
180369.1574725906
141
80037.61796031875
142
1.0
143
1.429088128819241
 70
  1716
 72
     0
 73
     1
 74
     0
  7
Color.ctb
 75
     0
147
0.6997469084193093
148
0.9506237099442977
149
8.593888772447144
  0
PLOTSETTINGS
  5
16CB
102
{ACAD_REACTORS
330
1235
102
}
330
1235
100
AcDbPlotSettings
  1
Oki-Doki-Color-Shaded-11x17
  2
OKI DOKI Color Laser.pc3
  4
Tabloid
  6

 40
5.027083396911621
 41
5.027085304260253
 42
5.027099609375
 43
5.027069091796875
 44
279.3999938964843
 45
431.7999877929687
 46
45.72
 47
0.0
 48
180360.0524337165
 49
80033.77936194791
140
180369.1574725906
141
80037.61796031875
142
1.0
143
0.5483586774064594
 70
  1716
 72
     0
 73
     1
 74
     4
  7
OKIColorShaded.ctb
 75
     0
147
1.823623918435361
148
-4581145.331816398
149
-2032857.995793476
  0
PLOTSETTINGS
  5
16CC
102
{ACAD_REACTORS
330
1235
102
}
330
1235
100
AcDbPlotSettings
  1
Oki-Doki-Color-Shaded-8.5x11
  2
OKI DOKI Color Laser.pc3
  4
Letter
  6

 40
5.027083396911621
 41
5.027085304260253
 42
5.027084350585937
 43
5.027069091796875
 44
215.8999938964843
 45
279.3999938964843
 46
46.228
 47
0.0
 48
180360.0524337165
 49
80033.77936194791
140
180369.1574725906
141
80037.61796031875
142
1.0
143
0.8586284006917006
 70
  1716
 72
     0
 73
     1
 74
     4
  7
OKIColorShaded.ctb
 75
     0
147
1.16464817515285
148
-4581145.331816398
149
-2032857.995793476
  0
ACDBPLACEHOLDER
  5
1233
102
{ACAD_REACTORS
330
1232
102
}
330
1232
  0
DICTIONARYVAR
  5
13AD
102
{ACAD_REACTORS
330
13AC
102
}
330
13AC
100
DictionaryVariables
280
     0
  1
1
  0
DICTIONARYVAR
  5
1552
102
{ACAD_REACTORS
330
13AC
102
}
330
13AC
100
DictionaryVariables
280
     0
  1
1
  0
XRECORD
  5
13AA
102
{ACAD_REACTORS
330
13A9
102
}
330
13A9
100
AcDbXrecord
280
     1
330
0
330
0
330
0
330
136A
330
136D
330
1370
330
1373
330
1376
330
1379
330
137C
330
137F
330
1382
330
1385
330
1388
330
138B
330
0
330
0
330
0
330
1397
330
1398
330
139A
330
0
330
0
330
0
330
0
330
0
330
0
330
0
330
0
330
1266
330
0
330
0
330
0
330
0
330
0
330
0
  0
XRECORD
  5
122E
102
{ACAD_REACTORS
330
113F
102
}
330
0
100
AcDbXrecord
280
     1
330
E98
330
E96
330
E99
330
EA2
330
EA6
330
665
330
5EE
330
60B
330
E94
330
E95
330
E97
330
666
330
5ED
330
E4F
330
E5C
330
E62
330
E68
330
E6E
330
EC8
330
EB7
330
EB6
330
EB8
330
EC6
330
EC7
330
EBE
330
EC2
330
0
330
0
330
0
330
6D3
330
6D7
330
E3B
330
E3C
330
E3D
330
5E0
330
643
330
61C
330
649
330
64C
330
64F
330
652
330
655
330
658
330
65B
330
661
330
664
330
65E
330
646
330
0
330
E45
330
E4B
330
642
330
61B
330
647
330
64A
330
64D
330
650
330
653
330
656
330
659
330
65F
330
662
330
65C
330
644
330
798
330
795
330
615
330
616
330
645
330
648
330
64B
330
64E
330
651
330
654
330
657
330
65A
330
65D
330
660
330
663
330
617
330
79C
330
7D4
330
79F
330
7A7
330
79A
330
79B
330
799
330
7D5
330
0
330
E38
330
E3A
330
0
330
0
330
0
330
6DC
330
0
330
0
330
0
330
0
330
0
330
0
330
BC5
330
BC1
330
0
330
0
330
0
330
0
330
0
330
0
330
0
330
0
330
0
330
0
330
0
330
0
330
0
330
0
330
0
330
0
330
673
330
0
330
0
330
623
330
7F2
330
0
330
BC2
330
BC3
330
0
330
0
330
638
330
0
330
0
330
0
330
0
330
0
330
0
330
0
330
0
330
0
330
0
330
0
330
0
330
0
330
0
330
0
330
0
330
0
330
0
330
0
330
0
330
0
330
0
330
0
330
0
330
79D
330
79E
330
5C8
330
5CA
330
5CC
330
5C6
330
5C9
330
5CB
330
5C7
330
0
330
0
330
641
330
7C8
330
7C1
330
5D0
330
7CA
330
7C6
330
7C7
330
7BC
330
5B5
330
5B6
330
112F
330
1130
330
5C1
330
5C2
330
0
330
5E4
330
797
330
0
330
793
330
7D0
330
5BC
330
5BD
330
5C0
330
5BF
330
7C9
330
5BA
330
5BB
330
5B8
330
5BE
330
0
330
0
330
0
330
0
330
5B7
330
5B9
330
640
330
0
330
0
330
0
330
0
330
0
330
0
330
0
330
0
330
0
330
0
330
0
330
0
330
0
330
0
330
0
330
0
330
0
330
0
330
0
330
0
330
0
330
0
330
0
330
0
330
0
330
0
330
0
330
0
330
62F
330
0
330
0
330
0
330
0
330
66F
330
672
330
0
330
0
330
0
330
0
330
0
330
0
330
0
330
0
330
0
330
0
330
0
330
0
330
0
330
0
330
0
330
0
330
0
330
0
330
0
330
0
330
0
330
0
330
0
330
0
330
0
330
0
330
5DF
330
0
330
0
330
794
330
796
330
BC6
330
CF9
330
0
330
0
330
5D7
330
5DB
330
0
330
0
330
0
330
7CB
330
0
  0
ENDSEC
  0
EOF
