  0
SECTION
  2
HEADER
  9
$ACADVER
  1
AC1015
  9
$ACADMAINTVER
 70
    13
  9
$DWGCODEPAGE
  3
ANSI_1252
  9
$INSBASE
 10
0.0
 20
0.0
 30
0.0
  9
$EXTMIN
 10
0.0
 20
0.0
 30
0.0
  9
$EXTMAX
 10
16.49
 20
10.44
 30
0.055511053975511
  9
$LIMMIN
 10
0.0
 20
0.0
  9
$LIMMAX
 10
11.00555555555599
 20
8.505555555555599
  9
$ORTHOMODE
 70
     0
  9
$REGENMODE
 70
     1
  9
$FILLMODE
 70
     1
  9
$QTEXTMODE
 70
     0
  9
$MIRRTEXT
 70
     0
  9
$LTSCALE
 40
1.0
  9
$ATTMODE
 70
     1
  9
$TEXTSIZE
 40
0.0
  9
$TRACEWID
 40
0.05
  9
$TEXTSTYLE
  7
STANDARD
  9
$CLAYER
  8
IMAGE
  9
$CELTYPE
  6
BYLAYER
  9
$CECOLOR
 62
   256
  9
$CELTSCALE
 40
1.0
  9
$DISPSILH
 70
     0
  9
$DIMSCALE
 40
1.0
  9
$DIMASZ
 40
0.18
  9
$DIMEXO
 40
0.0625
  9
$DIMDLI
 40
0.38
  9
$DIMRND
 40
0.0
  9
$DIMDLE
 40
0.0
  9
$DIMEXE
 40
0.18
  9
$DIMTP
 40
0.0
  9
$DIMTM
 40
0.0
  9
$DIMTXT
 40
0.18
  9
$DIMCEN
 40
0.09
  9
$DIMTSZ
 40
0.0
  9
$DIMTOL
 70
     0
  9
$DIMLIM
 70
     0
  9
$DIMTIH
 70
     1
  9
$DIMTOH
 70
     1
  9
$DIMSE1
 70
     0
  9
$DIMSE2
 70
     0
  9
$DIMTAD
 70
     0
  9
$DIMZIN
 70
     0
  9
$DIMBLK
  1

  9
$DIMASO
 70
     1
  9
$DIMSHO
 70
     1
  9
$DIMPOST
  1

  9
$DIMAPOST
  1

  9
$DIMALT
 70
     0
  9
$DIMALTD
 70
     2
  9
$DIMALTF
 40
25.4
  9
$DIMLFAC
 40
1.0
  9
$DIMTOFL
 70
     0
  9
$DIMTVP
 40
0.0
  9
$DIMTIX
 70
     0
  9
$DIMSOXD
 70
     0
  9
$DIMSAH
 70
     0
  9
$DIMBLK1
  1

  9
$DIMBLK2
  1

  9
$DIMSTYLE
  2
STANDARD
  9
$DIMCLRD
 70
     0
  9
$DIMCLRE
 70
     0
  9
$DIMCLRT
 70
     0
  9
$DIMTFAC
 40
1.0
  9
$DIMGAP
 40
0.09
  9
$DIMJUST
 70
     0
  9
$DIMSD1
 70
     0
  9
$DIMSD2
 70
     0
  9
$DIMTOLJ
 70
     1
  9
$DIMTZIN
 70
     0
  9
$DIMALTZ
 70
     0
  9
$DIMALTTZ
 70
     0
  9
$DIMUPT
 70
     0
  9
$DIMDEC
 70
     4
  9
$DIMTDEC
 70
     4
  9
$DIMALTU
 70
     2
  9
$DIMALTTD
 70
     2
  9
$DIMTXSTY
  7
STANDARD
  9
$DIMAUNIT
 70
     0
  9
$DIMADEC
 70
     0
  9
$DIMALTRND
 40
0.0
  9
$DIMAZIN
 70
     0
  9
$DIMDSEP
 70
    46
  9
$DIMATFIT
 70
     3
  9
$DIMFRAC
 70
     0
  9
$DIMLDRBLK
  1

  9
$DIMLUNIT
 70
     2
  9
$DIMLWD
 70
    -2
  9
$DIMLWE
 70
    -2
  9
$DIMTMOVE
 70
     0
  9
$LUNITS
 70
     2
  9
$LUPREC
 70
     2
  9
$SKETCHINC
 40
0.1
  9
$FILLETRAD
 40
0.0
  9
$AUNITS
 70
     0
  9
$AUPREC
 70
     2
  9
$MENU
  1
.
  9
$ELEVATION
 40
0.0
  9
$PELEVATION
 40
0.0
  9
$THICKNESS
 40
0.0
  9
$LIMCHECK
 70
     0
  9
$CHAMFERA
 40
0.25
  9
$CHAMFERB
 40
0.25
  9
$CHAMFERC
 40
0.0
  9
$CHAMFERD
 40
0.0
  9
$SKPOLY
 70
     0
  9
$TDCREATE
 40
2444971.708333333
  9
$TDUCREATE
 40
2444972.000000000
  9
$TDUPDATE
 40
2453034.411441990
  9
$TDUUPDATE
 40
2453034.703108657
  9
$TDINDWG
 40
0.4910529745
  9
$TDUSRTIMER
 40
0.4910529745
  9
$USRTIMER
 70
     1
  9
$ANGBASE
 50
0.0
  9
$ANGDIR
 70
     0
  9
$PDMODE
 70
     0
  9
$PDSIZE
 40
0.0
  9
$PLINEWID
 40
0.0
  9
$SPLFRAME
 70
     0
  9
$SPLINETYPE
 70
     6
  9
$SPLINESEGS
 70
     8
  9
$HANDSEED
  5
1A35
  9
$SURFTAB1
 70
     6
  9
$SURFTAB2
 70
     6
  9
$SURFTYPE
 70
     6
  9
$SURFU
 70
     6
  9
$SURFV
 70
     6
  9
$UCSBASE
  2

  9
$UCSNAME
  2

  9
$UCSORG
 10
0.0
 20
0.0
 30
0.0
  9
$UCSXDIR
 10
1.0
 20
0.0
 30
0.0
  9
$UCSYDIR
 10
0.0
 20
1.0
 30
0.0
  9
$UCSORTHOREF
  2

  9
$UCSORTHOVIEW
 70
     0
  9
$UCSORGTOP
 10
0.0
 20
0.0
 30
0.0
  9
$UCSORGBOTTOM
 10
0.0
 20
0.0
 30
0.0
  9
$UCSORGLEFT
 10
0.0
 20
0.0
 30
0.0
  9
$UCSORGRIGHT
 10
0.0
 20
0.0
 30
0.0
  9
$UCSORGFRONT
 10
0.0
 20
0.0
 30
0.0
  9
$UCSORGBACK
 10
0.0
 20
0.0
 30
0.0
  9
$PUCSBASE
  2

  9
$PUCSNAME
  2

  9
$PUCSORG
 10
0.0
 20
0.0
 30
0.0
  9
$PUCSXDIR
 10
1.0
 20
0.0
 30
0.0
  9
$PUCSYDIR
 10
0.0
 20
1.0
 30
0.0
  9
$PUCSORTHOREF
  2

  9
$PUCSORTHOVIEW
 70
     0
  9
$PUCSORGTOP
 10
0.0
 20
0.0
 30
0.0
  9
$PUCSORGBOTTOM
 10
0.0
 20
0.0
 30
0.0
  9
$PUCSORGLEFT
 10
0.0
 20
0.0
 30
0.0
  9
$PUCSORGRIGHT
 10
0.0
 20
0.0
 30
0.0
  9
$PUCSORGFRONT
 10
0.0
 20
0.0
 30
0.0
  9
$PUCSORGBACK
 10
0.0
 20
0.0
 30
0.0
  9
$USERI1
 70
     0
  9
$USERI2
 70
     0
  9
$USERI3
 70
     0
  9
$USERI4
 70
     0
  9
$USERI5
 70
     0
  9
$USERR1
 40
0.0
  9
$USERR2
 40
0.0
  9
$USERR3
 40
0.0
  9
$USERR4
 40
0.0
  9
$USERR5
 40
0.0
  9
$WORLDVIEW
 70
     1
  9
$SHADEDGE
 70
     3
  9
$SHADEDIF
 70
    70
  9
$TILEMODE
 70
     1
  9
$MAXACTVP
 70
    48
  9
$PINSBASE
 10
0.0
 20
0.0
 30
0.0
  9
$PLIMCHECK
 70
     0
  9
$PEXTMIN
 10
1.000000000000000E+20
 20
1.000000000000000E+20
 30
1.000000000000000E+20
  9
$PEXTMAX
 10
-1.000000000000000E+20
 20
-1.000000000000000E+20
 30
-1.000000000000000E+20
  9
$PLIMMIN
 10
0.0
 20
0.0
  9
$PLIMMAX
 10
12.0
 20
9.0
  9
$UNITMODE
 70
     0
  9
$VISRETAIN
 70
     1
  9
$PLINEGEN
 70
     1
  9
$PSLTSCALE
 70
     1
  9
$TREEDEPTH
 70
  3020
  9
$CMLSTYLE
  2
STANDARD
  9
$CMLJUST
 70
     0
  9
$CMLSCALE
 40
1.0
  9
$PROXYGRAPHICS
 70
     1
  9
$MEASUREMENT
 70
     0
  9
$CELWEIGHT
370
    -1
  9
$ENDCAPS
280
     0
  9
$JOINSTYLE
280
     0
  9
$LWDISPLAY
290
     0
  9
$INSUNITS
 70
     0
  9
$HYPERLINKBASE
  1

  9
$STYLESHEET
  1
8500ColorShaded.ctb
  9
$XEDIT
290
     1
  9
$CEPSNTYPE
380
     0
  9
$PSTYLEMODE
290
     1
  9
$FINGERPRINTGUID
  2
{0054E4D2-D583-48FA-9329-3DBBDBDEFB20}
  9
$VERSIONGUID
  2
{2EABC384-583A-47AA-BE9E-2BF6269CE610}
  9
$EXTNAMES
290
     1
  9
$PSVPSCALE
 40
0.0
  9
$OLESTARTUP
290
     0
  0
ENDSEC
  0
SECTION
  2
CLASSES
  0
CLASS
  1
ACDBDICTIONARYWDFLT
  2
AcDbDictionaryWithDefault
  3
AutoCAD 2000
 90
        0
280
     0
281
     0
  0
CLASS
  1
ACDBPLACEHOLDER
  2
AcDbPlaceHolder
  3
AutoCAD 2000
 90
        0
280
     0
281
     0
  0
CLASS
  1
LAYOUT
  2
AcDbLayout
  3
AutoCAD 2000
 90
        0
280
     0
281
     0
  0
CLASS
  1
DICTIONARYVAR
  2
AcDbDictionaryVar
  3
AutoCAD 2000
 90
        0
280
     0
281
     0
  0
CLASS
  1
PLOTSETTINGS
  2
AcDbPlotSettings
  3
AutoCAD 2000
 90
        0
280
     0
281
     0
  0
ENDSEC
  0
SECTION
  2
TABLES
  0
TABLE
  2
VPORT
  5
8
330
0
100
AcDbSymbolTable
 70
     2
  0
VPORT
  5
1A34
330
8
100
AcDbSymbolTableRecord
100
AcDbViewportTableRecord
  2
*Active
 70
     0
 10
0.0
 20
0.0
 11
1.0
 21
1.0
 12
8.245000076789889
 22
5.220000048616521
 13
0.0
 23
0.0
 14
1.0
 24
1.0
 15
0.0
 25
0.0
 16
0.0
 26
0.0
 36
1.0
 17
0.0
 27
0.0
 37
0.0
 40
11.00791689450875
 41
1.505548705302095
 42
50.0
 43
0.0
 44
0.0
 50
0.0
 51
0.0
 71
     0
 72
 10000
 73
     1
 74
     1
 75
     0
 76
     0
 77
     0
 78
     0
281
     0
 65
     1
110
0.0
120
0.0
130
0.0
111
1.0
121
0.0
131
0.0
112
0.0
122
1.0
132
0.0
 79
     0
146
0.0
  0
ENDTAB
  0
TABLE
  2
LTYPE
  5
5
330
0
100
AcDbSymbolTable
 70
     3
  0
LTYPE
  5
12
330
5
100
AcDbSymbolTableRecord
100
AcDbLinetypeTableRecord
  2
BYBLOCK
 70
     0
  3

 72
    65
 73
     0
 40
0.0
  0
LTYPE
  5
13
330
5
100
AcDbSymbolTableRecord
100
AcDbLinetypeTableRecord
  2
BYLAYER
 70
     0
  3

 72
    65
 73
     0
 40
0.0
  0
LTYPE
  5
14
330
5
100
AcDbSymbolTableRecord
100
AcDbLinetypeTableRecord
  2
CONTINUOUS
 70
     0
  3
___________________________
 72
    65
 73
     0
 40
0.0
  0
LTYPE
  5
1F
330
5
100
AcDbSymbolTableRecord
100
AcDbLinetypeTableRecord
  2
HIDDEN
 70
     0
  3
_ _ _ _ _ _ _ _ _ _ _ _ _ _ 
 72
    65
 73
     2
 40
0.375
 49
0.25
 74
     0
 49
-0.125
 74
     0
  0
LTYPE
  5
41
330
5
100
AcDbSymbolTableRecord
100
AcDbLinetypeTableRecord
  2
HIDDEN2
 70
     0
  3
 
 72
    65
 73
     2
 40
0.1875
 49
0.125
 74
     0
 49
-0.0625
 74
     0
  0
ENDTAB
  0
TABLE
  2
LAYER
  5
2
330
0
100
AcDbSymbolTable
 70
     4
  0
LAYER
  5
E
330
2
100
AcDbSymbolTableRecord
100
AcDbLayerTableRecord
  2
0
 70
     0
 62
     7
  6
CONTINUOUS
370
    -3
390
146D
  0
LAYER
  5
147F
330
2
100
AcDbSymbolTableRecord
100
AcDbLayerTableRecord
  2
IMAGE
 70
     0
 62
     7
  6
CONTINUOUS
370
    -3
390
146D
  0
LAYER
  5
151D
330
2
100
AcDbSymbolTableRecord
100
AcDbLayerTableRecord
  2
TITLE
 70
     0
 62
     4
  6
CONTINUOUS
370
    -3
390
146D
  0
LAYER
  5
151E
330
2
100
AcDbSymbolTableRecord
100
AcDbLayerTableRecord
  2
TEXT_BUBBLES
 70
     0
 62
     6
  6
CONTINUOUS
370
    -3
390
146D
1001
RAK
1000
{EFB-CP-BUBBLES
1070
     0
1070
     6
1000
CONTINUOUS
1000
EFB-CP-BUBBLES}
1000
{EFB-CP-LEADERS
1070
     0
1070
    -6
1000
CONTINUOUS
1000
EFB-CP-LEADERS}
1000
{EFB-CP-BSP-BUBBLES
1070
     0
1070
     6
1000
CONTINUOUS
1000
EFB-CP-BSP-BUBBLES}
1000
{EFB-CP-BSP-LEADERS
1070
     0
1070
    -6
1000
CONTINUOUS
1000
EFB-CP-BSP-LEADERS}
1000
{EFB-CP-NP-BUBBLES
1070
     0
1070
     6
1000
CONTINUOUS
1000
EFB-CP-NP-BUBBLES}
1000
{EFB-CP-NP-LEADERS
1070
     0
1070
    -6
1000
CONTINUOUS
1000
EFB-CP-NP-LEADERS}
1000
{EFB-CP-PRS-BUBBLES
1070
     0
1070
     6
1000
CONTINUOUS
1000
EFB-CP-PRS-BUBBLES}
1000
{EFB-CP-PRS-LEADERS
1070
     0
1070
    -6
1000
CONTINUOUS
1000
EFB-CP-PRS-LEADERS}
1000
{EFB-CP-PRS-BSP-BUBBLES
1070
     0
1070
     6
1000
CONTINUOUS
1000
EFB-CP-PRS-BSP-BUBBLES}
1000
{EFB-CP-PRS-BSP-LEADERS
1070
     0
1070
    -6
1000
CONTINUOUS
1000
EFB-CP-PRS-BSP-LEADERS}
1000
{EFB-CP-PRS-NP-BUBBLES
1070
     0
1070
     6
1000
CONTINUOUS
1000
EFB-CP-PRS-NP-BUBBLES}
1000
{EFB-CP-PRS-NP-LEADERS
1070
     0
1070
    -6
1000
CONTINUOUS
1000
EFB-CP-PRS-NP-LEADERS}
  0
ENDTAB
  0
TABLE
  2
STYLE
  5
3
330
0
100
AcDbSymbolTable
 70
     5
  0
STYLE
  5
F
330
3
100
AcDbSymbolTableRecord
100
AcDbTextStyleTableRecord
  2
STANDARD
 70
     0
 40
0.0
 41
0.0
 50
0.0
 71
     0
 42
0.0
  3
TXT
  4

  0
STYLE
  5
1480
330
3
100
AcDbSymbolTableRecord
100
AcDbTextStyleTableRecord
  2
ROMANS
 70
     0
 40
0.0
 41
1.0
 50
0.0
 71
     0
 42
0.125
  3
ROMANS.SHX
  4

  0
STYLE
  5
151F
330
3
100
AcDbSymbolTableRecord
100
AcDbTextStyleTableRecord
  2
L200
 70
     0
 40
0.2
 41
1.0
 50
0.0
 71
     0
 42
0.081
  3
ARIAL.TTF
  4

1001
ACAD
1000
Arial
1071
       34
  0
STYLE
  5
1520
330
3
100
AcDbSymbolTableRecord
100
AcDbTextStyleTableRecord
  2
L100
 70
     0
 40
0.1
 41
1.0
 50
0.0
 71
     0
 42
0.1
  3
SIMPLEX
  4

  0
STYLE
  5
1521
330
3
100
AcDbSymbolTableRecord
100
AcDbTextStyleTableRecord
  2
L80
 70
     0
 40
0.08
 41
1.0
 50
0.0
 71
     0
 42
0.08
  3
ROMANS
  4

  0
ENDTAB
  0
TABLE
  2
VIEW
  5
6
330
0
100
AcDbSymbolTable
 70
     1
  0
VIEW
  5
1851
330
6
100
AcDbSymbolTableRecord
100
AcDbViewTableRecord
  2
PS1
 70
     0
 40
10.44
 10
8.244999999999999
 20
5.219999999999999
 41
16.49
 11
0.0
 21
0.0
 31
1.0
 12
0.0
 22
0.0
 32
0.0
 42
50.0
 43
0.0
 44
0.0
 50
0.0
 71
     0
281
     0
 72
     1
110
0.0
120
0.0
130
0.0
111
1.0
121
0.0
131
0.0
112
0.0
122
1.0
132
0.0
 79
     0
146
0.0
  0
ENDTAB
  0
TABLE
  2
UCS
  5
7
330
0
100
AcDbSymbolTable
 70
     0
  0
ENDTAB
  0
TABLE
  2
APPID
  5
9
330
0
100
AcDbSymbolTable
 70
    27
  0
APPID
  5
10
330
9
100
AcDbSymbolTableRecord
100
AcDbRegAppTableRecord
  2
ACAD
 70
     0
  0
APPID
  5
1522
330
9
100
AcDbSymbolTableRecord
100
AcDbRegAppTableRecord
  2
RAK
 70
     0
  0
APPID
  5
1867
330
9
100
AcDbSymbolTableRecord
100
AcDbRegAppTableRecord
  2
WID_Sprinkler
 70
     0
  0
APPID
  5
1868
330
9
100
AcDbSymbolTableRecord
100
AcDbRegAppTableRecord
  2
WID_Valve
 70
     0
  0
APPID
  5
1869
330
9
100
AcDbSymbolTableRecord
100
AcDbRegAppTableRecord
  2
WID_Fitting
 70
     0
  0
APPID
  5
186A
330
9
100
AcDbSymbolTableRecord
100
AcDbRegAppTableRecord
  2
WID_HPNode
 70
     0
  0
APPID
  5
186B
330
9
100
AcDbSymbolTableRecord
100
AcDbRegAppTableRecord
  2
WID_Node
 70
     0
  0
APPID
  5
186C
330
9
100
AcDbSymbolTableRecord
100
AcDbRegAppTableRecord
  2
WID_Conduit
 70
     0
  0
APPID
  5
186D
330
9
100
AcDbSymbolTableRecord
100
AcDbRegAppTableRecord
  2
WID_SprinklerSection
 70
     0
  0
APPID
  5
186E
330
9
100
AcDbSymbolTableRecord
100
AcDbRegAppTableRecord
  2
WID_MainLineSection
 70
     0
  0
APPID
  5
186F
330
9
100
AcDbSymbolTableRecord
100
AcDbRegAppTableRecord
  2
WID_ManifoldSection
 70
     0
  0
APPID
  5
1870
330
9
100
AcDbSymbolTableRecord
100
AcDbRegAppTableRecord
  2
WID_DripSection
 70
     0
  0
APPID
  5
1871
330
9
100
AcDbSymbolTableRecord
100
AcDbRegAppTableRecord
  2
WID_HPSection
 70
     0
  0
APPID
  5
1872
330
9
100
AcDbSymbolTableRecord
100
AcDbRegAppTableRecord
  2
WID_Sleeve
 70
     0
  0
APPID
  5
1873
330
9
100
AcDbSymbolTableRecord
100
AcDbRegAppTableRecord
  2
WID_Layout
 70
     0
  0
APPID
  5
1874
330
9
100
AcDbSymbolTableRecord
100
AcDbRegAppTableRecord
  2
WID_Island
 70
     0
  0
APPID
  5
1875
330
9
100
AcDbSymbolTableRecord
100
AcDbRegAppTableRecord
  2
WID_Controller
 70
     0
  0
APPID
  5
1876
330
9
100
AcDbSymbolTableRecord
100
AcDbRegAppTableRecord
  2
WID_SprinklerLateral
 70
     0
  0
APPID
  5
1877
330
9
100
AcDbSymbolTableRecord
100
AcDbRegAppTableRecord
  2
WID_HPDripLateral
 70
     0
  0
APPID
  5
1878
330
9
100
AcDbSymbolTableRecord
100
AcDbRegAppTableRecord
  2
WID_LabelPipeSize
 70
     0
  0
APPID
  5
1879
330
9
100
AcDbSymbolTableRecord
100
AcDbRegAppTableRecord
  2
WID_LabelPipeSegment
 70
     0
  0
APPID
  5
187A
330
9
100
AcDbSymbolTableRecord
100
AcDbRegAppTableRecord
  2
WID_LabelValveDesignator
 70
     0
  0
APPID
  5
187B
330
9
100
AcDbSymbolTableRecord
100
AcDbRegAppTableRecord
  2
WID_CheckArc
 70
     0
  0
APPID
  5
187C
330
9
100
AcDbSymbolTableRecord
100
AcDbRegAppTableRecord
  2
WID_ObjectType
 70
     0
  0
APPID
  5
187D
330
9
100
AcDbSymbolTableRecord
100
AcDbRegAppTableRecord
  2
WID_DripLateral
 70
     0
  0
APPID
  5
187E
330
9
100
AcDbSymbolTableRecord
100
AcDbRegAppTableRecord
  2
ABNSLEADERTOOLS
 70
     0
  0
APPID
  5
187F
330
9
100
AcDbSymbolTableRecord
100
AcDbRegAppTableRecord
  2
DCO15
 70
     0
  0
ENDTAB
  0
TABLE
  2
DIMSTYLE
  5
A
330
0
100
AcDbSymbolTable
 70
     1
100
AcDbDimStyleTable
 71
     0
  0
DIMSTYLE
105
1469
330
A
100
AcDbSymbolTableRecord
100
AcDbDimStyleTableRecord
  2
STANDARD
 70
     0
340
F
  0
ENDTAB
  0
TABLE
  2
BLOCK_RECORD
  5
1
330
0
100
AcDbSymbolTable
 70
     4
  0
BLOCK_RECORD
  5
18
330
1
100
AcDbSymbolTableRecord
100
AcDbBlockTableRecord
  2
*MODEL_SPACE
340
1470
  0
BLOCK_RECORD
  5
15
330
1
100
AcDbSymbolTableRecord
100
AcDbBlockTableRecord
  2
*PAPER_SPACE
340
1471
  0
BLOCK_RECORD
  5
150A
330
1
100
AcDbSymbolTableRecord
100
AcDbBlockTableRecord
  2
TITLBLK
340
0
102
{BLKREFS
331
1564
102
}
  0
BLOCK_RECORD
  5
1517
330
1
100
AcDbSymbolTableRecord
100
AcDbBlockTableRecord
  2
bubble
340
0
310
2800000020000000200000000100080000000000000400000000000000000000000000000000000000000000000080000080000000808000800000008000800080800000C0C0C000C0DCC000F0CAA6000020400000206000002080000020A0000020C0000020E00000400000004020000040400000406000004080000040A0
310
000040C0000040E00000600000006020000060400000606000006080000060A0000060C0000060E00000800000008020000080400000806000008080000080A0000080C0000080E00000A0000000A0200000A0400000A0600000A0800000A0A00000A0C00000A0E00000C0000000C0200000C0400000C0600000C0800000C0
310
A00000C0C00000C0E00000E0000000E0200000E0400000E0600000E0800000E0A00000E0C00000E0E00040000000400020004000400040006000400080004000A0004000C0004000E00040200000402020004020400040206000402080004020A0004020C0004020E000404000004040200040404000404060004040800040
310
40A0004040C0004040E00040600000406020004060400040606000406080004060A0004060C0004060E00040800000408020004080400040806000408080004080A0004080C0004080E00040A0000040A0200040A0400040A0600040A0800040A0A00040A0C00040A0E00040C0000040C0200040C0400040C0600040C08000
310
40C0A00040C0C00040C0E00040E0000040E0200040E0400040E0600040E0800040E0A00040E0C00040E0E00080000000800020008000400080006000800080008000A0008000C0008000E00080200000802020008020400080206000802080008020A0008020C0008020E00080400000804020008040400080406000804080
310
008040A0008040C0008040E00080600000806020008060400080606000806080008060A0008060C0008060E00080800000808020008080400080806000808080008080A0008080C0008080E00080A0000080A0200080A0400080A0600080A0800080A0A00080A0C00080A0E00080C0000080C0200080C0400080C0600080C0
310
800080C0A00080C0C00080C0E00080E0000080E0200080E0400080E0600080E0800080E0A00080E0C00080E0E000C0000000C0002000C0004000C0006000C0008000C000A000C000C000C000E000C0200000C0202000C0204000C0206000C0208000C020A000C020C000C020E000C0400000C0402000C0404000C0406000C0
310
408000C040A000C040C000C040E000C0600000C0602000C0604000C0606000C0608000C060A000C060C000C060E000C0800000C0802000C0804000C0806000C0808000C080A000C080C000C080E000C0A00000C0A02000C0A04000C0A06000C0A08000C0A0A000C0A0C000C0A0E000C0C00000C0C02000C0C04000C0C06000
310
C0C08000C0C0A000F0FBFF00A4A0A000808080000000FF0000FF000000FFFF00FF000000FF00FF00FFFF0000FFFFFF0008080808080808080808080808080808080808080808080808080808080808080808080808080808080808080808080808080808080808080808080808080808080808080808080808080808FDFDFD
310
08080808080808080808080808080808080808080808080808080808FD080808FDFDFDFDFDFD0808080808080808080808080808080808080808FDFD08080808080808080808FDFDFDFD080808080808080808080808080808FD08080808080808080808080808080808FD08080808080808080808080808FD080808080808
310
0808080808080808080808FD0808080808080808080808FDFD08080808080808080808080808080808080808FD080808080808080808FD080808080808080808080808080808080808080808FD0808080808080808FD08FD0808080808080808FD0808FD0808080808080808FDFD08080808080808FD0808FD080808080808
310
FD08080808FD080808080808FD08FD08080808080808FD0808FD080808080808FD08080808FD080808080808FD0808FD080808080808FD080808FD08080808FD080808080808FD08080808FD080808FD080808080808FD08080808FD0808FD0808080808080808FD0808FD0808080808FD0808080808FD08080808FD0808FD
310
0808080808080808FD0808FD0808080808FD0808080808FD0808080808FDFD08080808080808080808FDFD08080808080808FD08080808FD0808080808FDFD08080808080808080808FDFD08080808080808FD08080808FD08080808FD0808FD0808080808080808FD0808FD0808080808FD0808080808FD08080808FD0808
310
FD0808080808080808FD0808FD0808080808FD0808080808FD080808FD08080808FD080808080808FD08080808FD080808FD080808080808FD0808FD080808080808FD08080808FD080808080808FD0808FD080808080808FD0808FD080808080808FD08080808FD080808080808FD08FD08080808080808FD08FD08080808
310
08080808FD0808FD0808080808080808FDFD0808080808080808FD080808080808080808080808080808080808080808FD08080808080808080808FDFD08080808080808080808080808080808080808FD080808080808080808080808FD0808080808080808080808080808080808FD0808080808080808080808080808FD
310
08080808080808080808080808080808FD080808080808080808080808080808FDFD0808080808080808080808FDFDFD080808080808080808080808080808080808FD08080808FDFDFDFDFDFD08080808080808080808080808080808080808080808FDFDFDFD080808080808080808080808080808080808080808080808
310
0808080808080808080808080808080808080808080808080808080808080808080808080808080808080808080808080808080808080808
102
{BLKREFS
331
1570
331
1576
331
1579
331
157C
331
157F
331
1582
331
1585
331
1588
331
158B
331
158E
331
1591
331
1594
331
1597
331
159A
331
159D
331
1803
331
1806
331
1809
331
180C
331
180F
331
1818
331
181B
331
181E
331
1829
331
182E
331
1835
331
1838
331
1840
331
1845
331
19C7
331
19CC
102
}
  0
BLOCK_RECORD
  5
1858
330
1
100
AcDbSymbolTableRecord
100
AcDbBlockTableRecord
  2
PlotLayout2002
340
0
102
{BLKREFS
331
1899
102
}
  0
BLOCK_RECORD
  5
1898
330
1
100
AcDbSymbolTableRecord
100
AcDbBlockTableRecord
  2
pagesetups
340
0
102
{BLKREFS
331
189D
102
}
  0
ENDTAB
  0
ENDSEC
  0
SECTION
  2
BLOCKS
  0
BLOCK
  5
19
330
18
100
AcDbEntity
  8
0
100
AcDbBlockBegin
  2
*MODEL_SPACE
 70
     0
 10
0.0
 20
0.0
 30
0.0
  3
*MODEL_SPACE
  1

  0
ENDBLK
  5
1A
330
18
100
AcDbEntity
  8
0
100
AcDbBlockEnd
  0
BLOCK
  5
16
330
15
100
AcDbEntity
 67
     1
  8
0
100
AcDbBlockBegin
  2
*PAPER_SPACE
 70
     0
 10
0.0
 20
0.0
 30
0.0
  3
*PAPER_SPACE
  1

  0
ENDBLK
  5
17
330
15
100
AcDbEntity
 67
     1
  8
0
100
AcDbBlockEnd
  0
BLOCK
  5
1515
330
150A
100
AcDbEntity
  8
0
100
AcDbBlockBegin
  2
TITLBLK
 70
     2
 10
0.0
 20
0.0
 30
0.0
  3
TITLBLK
  1

  0
LWPOLYLINE
  5
150B
330
150A
100
AcDbEntity
  8
TITLE
 62
     3
100
AcDbPolyline
 90
        2
 70
     0
 43
0.04
 39
0.03
 10
0.3424999999999994
 20
-0.0000000000000003
 10
7.654581983261419
 20
-0.0000000000000003
  0
ATTDEF
  5
150C
330
150A
100
AcDbEntity
  8
TITLE
100
AcDbText
 10
0.625
 20
0.0999999999999998
 30
0.0
 40
0.2
  1
TITLE
  7
L200
100
AcDbAttributeDefinition
  3
DETAIL TITLE TOP 2ND LINE
  2
TITLE2
 70
     0
  0
LWPOLYLINE
  5
150D
330
150A
100
AcDbEntity
  8
TITLE
 62
     3
100
AcDbPolyline
 90
        2
 70
     1
 43
0.03
 10
0.0
 20
-0.3425000000000002
 42
0.9999999999999998
 10
0.0
 20
0.3425000000000002
 42
0.9999999999999998
  0
ATTDEF
  5
150E
330
150A
100
AcDbEntity
  8
TITLE
100
AcDbText
 10
-0.0776944065484311
 20
-0.1000000000000003
 30
0.0
 40
0.2
  1
#
  7
L200
 72
     4
 11
0.0
 21
-0.0000000000000003
 31
0.0
100
AcDbAttributeDefinition
  3
#
  2
#
 70
     0
  0
ATTDEF
  5
150F
330
150A
100
AcDbEntity
  8
TITLE
 62
     7
100
AcDbText
 10
0.625
 20
-0.1836633170828782
 30
0.0
 40
0.1
  1
N.T.S.
  7
L100
100
AcDbAttributeDefinition
  3
SCALE
  2
SCALE
 70
     0
  0
ATTDEF
  5
1510
330
150A
100
AcDbEntity
  8
TITLE
100
AcDbText
 10
2.107203380653828
 20
-0.2914343300200487
 30
0.0
 40
0.2
  1
TITLE2
  7
L200
100
AcDbAttributeDefinition
  3
DETAIL TITLE BOTTOM 1
  2
TITLE3
 70
     0
  0
ATTDEF
  5
1511
330
150A
100
AcDbEntity
  8
TITLE
 62
     7
100
AcDbText
 10
7.570772459451895
 20
-0.1618486459795794
 30
0.0
 40
0.08
  1
-
  7
L80
 72
     2
 11
7.654581983261419
 21
-0.1618486459795794
 31
0.0
100
AcDbAttributeDefinition
  3
DWG-NAME
  2
DWG-NAME
 70
     0
  0
ATTDEF
  5
1512
330
150A
100
AcDbEntity
  8
TITLE
 62
     7
100
AcDbText
 10
7.570772459451895
 20
0.0853756950662722
 30
0.0
 40
0.08
  1
-
  7
L80
 72
     2
 11
7.654581983261419
 21
0.0853756950662722
 31
0.0
100
AcDbAttributeDefinition
  3
REVISION DATE
  2
REVISED
 70
     0
  0
ATTDEF
  5
1513
330
150A
100
AcDbEntity
  8
TITLE
100
AcDbText
 10
0.625
 20
0.459485206268383
 30
0.0
 40
0.2
  1
TITLE
  7
L200
100
AcDbAttributeDefinition
  3
DETAIL TITLE TOP LINE
  2
TITLE1
 70
     0
  0
ATTDEF
  5
1514
330
150A
100
AcDbEntity
  8
TITLE
100
AcDbText
 10
2.107203380653828
 20
-0.6149710156615936
 30
0.0
 40
0.2
  1
TITLE2
  7
L200
100
AcDbAttributeDefinition
  3
DETAIL TITLE BOTTOM 2
  2
TITLE4
 70
     0
  0
ENDBLK
  5
1516
330
150A
100
AcDbEntity
  8
0
100
AcDbBlockEnd
  0
BLOCK
  5
151A
330
1517
100
AcDbEntity
  8
0
100
AcDbBlockBegin
  2
bubble
 70
     2
 10
0.0
 20
0.0
 30
0.0
  3
bubble
  1

  0
CIRCLE
  5
1518
330
1517
100
AcDbEntity
  8
TEXT_BUBBLES
100
AcDbCircle
 10
0.0
 20
0.0
 30
0.0
 40
0.1398891854377198
  0
ATTDEF
  5
1519
330
1517
100
AcDbEntity
  8
TEXT_BUBBLES
100
AcDbText
 10
0.0
 20
0.0
 30
0.0
 40
0.125
  1

  7
ROMANS
 72
     4
 11
0.0
 21
0.0
 31
0.0
100
AcDbAttributeDefinition
  3
Number
  2
XX
 70
     0
  0
ENDBLK
  5
151B
330
1517
100
AcDbEntity
  8
0
100
AcDbBlockEnd
  0
BLOCK
  5
1859
330
1858
100
AcDbEntity
  8
0
100
AcDbBlockBegin
  2
PlotLayout2002
 70
     0
 10
0.0
 20
0.0
 30
0.0
  3
PlotLayout2002
  1

  0
ENDBLK
  5
185A
330
1858
100
AcDbEntity
  8
0
100
AcDbBlockEnd
  0
BLOCK
  5
189A
330
1898
100
AcDbEntity
  8
0
100
AcDbBlockBegin
  2
pagesetups
 70
     0
 10
0.0
 20
0.0
 30
0.0
  3
pagesetups
  1

  0
INSERT
  5
1899
330
1898
100
AcDbEntity
  8
0
100
AcDbBlockReference
  2
PlotLayout2002
 10
0.0
 20
0.0
 30
0.0
  0
ENDBLK
  5
189B
330
1898
100
AcDbEntity
  8
0
100
AcDbBlockEnd
  0
ENDSEC
  0
SECTION
  2
ENTITIES
  0
LINE
  5
9B
330
18
100
AcDbEntity
  8
IMAGE
  6
Continuous
 62
     7
100
AcDbLine
 10
3.918579941353701
 20
4.648267922072504
 30
0.0
 11
3.918579941353701
 21
4.949075529123003
 31
0.0
  0
LINE
  5
9C
330
18
100
AcDbEntity
  8
IMAGE
  6
Continuous
 62
     7
100
AcDbLine
 10
3.804690941353701
 20
4.949075529123003
 30
0.0
 11
3.804690941353701
 21
4.648267922072504
 31
0.0
  0
LINE
  5
9D
330
18
100
AcDbEntity
  8
IMAGE
  6
Continuous
 62
     7
100
AcDbLine
 10
3.918579941353701
 20
4.648267922072504
 30
0.0
 11
3.804690941353701
 21
4.648267922072504
 31
0.0
  0
LWPOLYLINE
  5
9E
330
18
100
AcDbEntity
  8
IMAGE
  6
Continuous
 62
     7
100
AcDbPolyline
 90
        4
 70
     1
 43
0.0
 10
5.314287608260401
 20
8.199025764241305
 10
7.1876291460061
 20
8.199025764241305
 10
7.1876291460061
 20
4.591503638243904
 10
5.314287608260401
 20
4.591503638243904
  0
LWPOLYLINE
  5
A4
330
18
100
AcDbEntity
  8
IMAGE
  6
Continuous
 62
     7
100
AcDbPolyline
 90
        4
 70
     1
 43
0.0
 10
3.732402709068502
 20
8.013216195159804
 10
4.958995382592501
 20
8.013216195159804
 10
4.958995382592501
 20
6.875830261528403
 10
3.732402709068502
 20
6.875830261528403
  0
LWPOLYLINE
  5
DB
330
18
100
AcDbEntity
  8
IMAGE
  6
Continuous
 62
     7
100
AcDbPolyline
 90
        4
 70
     1
 43
0.0
 10
4.166564405776853
 20
6.829552849379004
 10
4.613656648440201
 20
6.829552849379004
 10
4.613656648440201
 20
5.914916200693704
 10
4.166564405776853
 20
5.914916200693704
  0
LWPOLYLINE
  5
E1
330
18
100
AcDbEntity
  8
IMAGE
  6
HIDDEN2
 62
     7
100
AcDbPolyline
 90
        4
 70
   129
 43
0.0
 10
3.489789083774101
 20
8.094191876822504
 10
5.209314284232301
 20
8.094191876822504
 10
5.209314284232301
 20
4.706021282343002
 10
3.489789083774101
 20
4.706021282343002
  0
LWPOLYLINE
  5
E7
330
18
100
AcDbEntity
  8
IMAGE
  6
Continuous
 62
     7
100
AcDbPolyline
 90
        4
 70
     1
 43
0.0
 10
3.8182181583406
 20
4.996267076898504
 10
3.909230429050602
 20
4.996267076898504
 10
3.909230429050602
 20
4.949075529123003
 10
3.8182181583406
 20
4.949075529123003
  0
LINE
  5
ED
330
18
100
AcDbEntity
  8
IMAGE
  6
Continuous
 62
     7
100
AcDbLine
 10
3.804690941353701
 20
4.949075529123003
 30
0.0
 11
3.918579941353701
 21
4.949075529123003
 31
0.0
  0
CIRCLE
  5
EE
330
18
100
AcDbEntity
  8
IMAGE
  6
Continuous
 62
     7
100
AcDbCircle
 10
3.8620388812751
 20
4.908625631029703
 30
0.0
 40
0.02616463685194
  0
CIRCLE
  5
EF
330
18
100
AcDbEntity
  8
IMAGE
  6
Continuous
 62
     7
100
AcDbCircle
 10
3.860353468854501
 20
4.677724129413704
 30
0.0
 40
0.02616463685194
  0
LWPOLYLINE
  5
F6
330
18
100
AcDbEntity
  8
IMAGE
  6
Continuous
 62
     7
100
AcDbPolyline
 90
        4
 70
     1
 43
0.0
 10
3.825238814112201
 20
4.648267922072504
 10
3.896251084822101
 20
4.648267922072504
 10
3.896251084822101
 20
4.594444397309504
 10
3.825238814112201
 20
4.594444397309504
  0
LWPOLYLINE
  5
FC
330
18
100
AcDbEntity
  8
IMAGE
  6
Continuous
 62
     7
100
AcDbPolyline
 90
        4
 70
     1
 43
0.0
 10
3.378772094784102
 20
8.198420058109503
 10
5.305326558804701
 20
8.198420058109503
 10
5.305326558804701
 20
4.594321570996103
 10
3.378772094784102
 20
4.594321570996103
  0
LWPOLYLINE
  5
102
330
18
100
AcDbEntity
  8
IMAGE
  6
Continuous
 62
     7
100
AcDbPolyline
 90
        4
 70
     1
 43
0.0
 10
3.379829956187201
 20
4.595004293353003
 10
5.306384420207802
 20
4.595004293353003
 10
5.306384420207802
 20
3.572948482988804
 10
3.379829956187201
 20
3.572948482988804
  0
LWPOLYLINE
  5
10D
102
{ACAD_REACTORS
330
1972
102
}
330
18
100
AcDbEntity
  8
IMAGE
  6
Continuous
 62
     7
100
AcDbPolyline
 90
        4
 70
     1
 43
0.0
 10
2.727264581949602
 20
3.563102234544603
 10
5.9272953263067
 20
3.563102234544603
 10
5.9272953263067
 20
2.765556110566404
 10
2.727264581949602
 20
2.765556110566404
  0
LWPOLYLINE
  5
174
330
18
100
AcDbEntity
  8
IMAGE
  6
Continuous
 62
     7
100
AcDbPolyline
 90
        4
 70
     1
 43
0.0
 10
4.164471898878601
 20
4.796648481620663
 10
4.255342461080001
 20
4.796648481620663
 10
4.255342461080001
 20
4.595004293353003
 10
4.164330190370002
 20
4.595004293353003
  0
LWPOLYLINE
  5
17A
330
18
100
AcDbEntity
  8
IMAGE
  6
Continuous
 62
     7
100
AcDbPolyline
 90
        4
 70
     1
 43
0.0
 10
4.474595343477201
 20
4.796648481620663
 10
4.629727920030801
 20
4.796648481620663
 10
4.629727920030801
 20
4.595004293353003
 10
4.474595343477201
 20
4.595004293353003
  0
LWPOLYLINE
  5
180
330
18
100
AcDbEntity
  8
IMAGE
  6
Continuous
 62
     7
100
AcDbPolyline
 90
        4
 70
     1
 43
0.0
 10
4.8844846607673
 20
4.796648481620663
 10
4.9754969314772
 20
4.796648481620663
 10
4.9754969314772
 20
4.595004293353003
 10
4.8844846607673
 20
4.595004293353003
  0
LWPOLYLINE
  5
1477
330
18
100
AcDbEntity
  8
IMAGE
  6
Continuous
 62
     7
100
AcDbPolyline
 90
        3
 70
     0
 10
5.095086684242988
 20
5.86874678673757
 40
0.013
 41
0.013
 10
5.095086684242988
 20
5.846240255390757
 40
0.013
 41
0.013
 10
4.92999079612225
 20
4.796648481620663
 40
0.0
 41
0.0
  0
LWPOLYLINE
  5
1478
330
18
100
AcDbEntity
  8
IMAGE
  6
Continuous
 62
     7
100
AcDbPolyline
 90
        2
 70
     0
 43
0.013
 10
4.209907179979301
 20
5.914210560370403
 10
4.209907179979301
 20
4.796648481620663
  0
LINE
  5
1508
330
18
100
AcDbEntity
  8
IMAGE
  6
Continuous
100
AcDbLine
 10
2.727264581949602
 20
3.408299427856367
 30
0.0
 11
1.54614546350258
 21
3.408299427856367
 31
0.0
  0
LINE
  5
1509
330
18
100
AcDbEntity
  8
IMAGE
  6
Continuous
100
AcDbLine
 10
8.081571609323052
 20
3.408299427856367
 30
0.0
 11
5.927295326306802
 21
3.408299427856367
 31
0.0
  0
INSERT
  5
1564
330
18
100
AcDbEntity
  8
TEXT_BUBBLES
 62
    42
100
AcDbBlockReference
 66
     1
  2
TITLBLK
 10
0.6064423705144842
 20
0.8842270964783676
 30
0.0
  0
ATTRIB
  5
1565
330
1564
100
AcDbEntity
  8
TITLE
100
AcDbText
 10
1.231442370514484
 20
0.9842270964783672
 30
0.0
 40
0.2
  1
ENCLOSURE ASSEMBLY
  7
L200
100
AcDbAttribute
  2
TITLE2
 70
     0
  0
ATTRIB
  5
1566
330
1564
100
AcDbEntity
  8
TITLE
100
AcDbText
 10
0.3733591508691907
 20
0.7855231401345745
 30
0.0
 40
0.2
  1
107
  7
L200
 72
     4
 11
0.6064423705144842
 21
0.8842270964783672
 31
0.0
100
AcDbAttribute
  2
#
 70
     0
  0
ATTRIB
  5
1567
330
1564
100
AcDbEntity
  8
TITLE
 62
     7
100
AcDbText
 10
1.231442370514484
 20
0.7005637793954893
 30
0.0
 40
0.1
  1
N.T.S.
  7
L100
100
AcDbAttribute
  2
SCALE
 70
     0
  0
ATTRIB
  5
1568
330
1564
100
AcDbEntity
  8
TITLE
100
AcDbText
 10
2.713645751168312
 20
0.5927927664583188
 30
0.0
 40
0.2
  1
TWO-WIRE COMMUNICATION
  7
L200
100
AcDbAttribute
  2
TITLE3
 70
     0
  0
ATTRIB
  5
1569
330
1564
100
AcDbEntity
  8
TITLE
 62
     7
100
AcDbText
 10
0.2368984596243977
 20
0.0461924580179268
 30
0.0
 40
0.08
  1
107-MCM ENCL-1-SAT.DWG
  7
L80
 72
     2
 11
1.966422269148207
 21
0.0461924580179268
 31
0.0
100
AcDbAttribute
  2
DWG-NAME
 70
     0
  0
ATTRIB
  5
156A
330
1564
100
AcDbEntity
  8
TITLE
 62
     7
100
AcDbText
 10
7.68959578234733
 20
0.9696027915446396
 30
0.0
 40
0.08
  1
1-21-04
  7
L80
 72
     2
 11
8.261024353775901
 21
0.9696027915446396
 31
0.0
100
AcDbAttribute
  2
REVISED
 70
     0
  0
ATTRIB
  5
156B
330
1564
100
AcDbEntity
  8
TITLE
100
AcDbText
 10
1.231442370514484
 20
1.34371230274675
 30
0.0
 40
0.2
  1
SITECONTROL SATELLITE CONTROLLER
  7
L200
100
AcDbAttribute
  2
TITLE1
 70
     0
  0
ATTRIB
  5
156C
330
1564
100
AcDbEntity
  8
TITLE
100
AcDbText
 10
2.713645751168312
 20
0.2692560808167741
 30
0.0
 40
0.2
  1
WIRING DIAGRAM
  7
L200
100
AcDbAttribute
  2
TITLE4
 70
     0
  0
SEQEND
  5
156D
330
1564
100
AcDbEntity
  8
TEXT_BUBBLES
 62
    40
  0
LWPOLYLINE
  5
156E
330
18
100
AcDbEntity
  8
IMAGE
100
AcDbPolyline
 90
        4
 70
     1
 43
0.0
 10
0.0
 20
0.0
 10
16.49
 20
0.0
 10
16.49
 20
10.44
 10
0.0
 20
10.44
  0
MTEXT
  5
156F
330
18
100
AcDbEntity
  8
TEXT_BUBBLES
100
AcDbMText
 10
9.511352981861126
 20
8.696420983407733
 30
0.0
 40
0.124999999875
 41
6.709999999999999
 71
     1
 72
     5
  3
STAINLESS STEEL CONTROLLER ENCLOSURE \P\PRAIN BIRD SITE CONTROL SATELLITE CONTROLLER  \P\PTERMINAL STRIP\P\PENCLOSURE DOOR \P\PGROUNDING BUSS BAR\P\P#10 COPPER GROUND WIRE FROM GROUNDING BUSS BAR TO GROUNDING GRID (SEE GROUNDING GRID SITECONTROL DETA
  3
IL 305)\P\PCOMMON AND CONTROL WIRES FOR VALVES\P\PTWO-WIRE PATH\P\PREFER TO LOCAL ELECTRIC CODE FOR CONNECTIONS\P\PRAIN BIRD WARRANTY REQUIRES PROPER SURGE PROTECTION. USE INTERMATIC AG2401 OR TRIPPLITE ISOBAR\P\P120 VAC ELECTRICAL SERVICE\P\PPE-CABL
  1
E TO OTHER SATELLITES\P\PGROUND WIRE TO GROUNDING ROD GRID (SEE SITECONTROL DETAIL 305)\P\PSTAINLESS STEEL CONTROLLER PEDESTAL\P\PCONCRETE SLAB 
  7
L100
 73
     1
 44
1.0
  0
INSERT
  5
1570
330
18
100
AcDbEntity
  8
TEXT_BUBBLES
100
AcDbBlockReference
 66
     1
  2
bubble
 10
9.191395243783503
 20
2.109881304819614
 30
0.0
  0
ATTRIB
  5
1571
330
1570
100
AcDbEntity
  8
TEXT_BUBBLES
100
AcDbText
 10
9.063419053307313
 20
2.047381304819614
 30
0.0
 40
0.125
  1
15
  7
ROMANS
 72
     4
 11
9.191395243783503
 21
2.109881304819614
 31
0.0
100
AcDbAttribute
  2
XX
 70
     0
  0
SEQEND
  5
1572
330
1570
100
AcDbEntity
  8
TEXT_BUBBLES
  0
INSERT
  5
1576
330
18
100
AcDbEntity
  8
TEXT_BUBBLES
100
AcDbBlockReference
 66
     1
  2
bubble
 10
9.168229773408256
 20
3.149775941915546
 30
0.0
  0
ATTRIB
  5
1577
330
1576
100
AcDbEntity
  8
TEXT_BUBBLES
100
AcDbText
 10
9.040253582932066
 20
3.087275941915546
 30
0.0
 40
0.125
  1
13
  7
ROMANS
 72
     4
 11
9.168229773408256
 21
3.149775941915546
 31
0.0
100
AcDbAttribute
  2
XX
 70
     0
  0
SEQEND
  5
1578
330
1576
100
AcDbEntity
  8
TEXT_BUBBLES
  0
INSERT
  5
1579
330
18
100
AcDbEntity
  8
TEXT_BUBBLES
100
AcDbBlockReference
 66
     1
  2
bubble
 10
9.191395243783503
 20
2.524241518435974
 30
0.0
  0
ATTRIB
  5
157A
330
1579
100
AcDbEntity
  8
TEXT_BUBBLES
100
AcDbText
 10
9.060442862831122
 20
2.461741518435974
 30
0.0
 40
0.125
  1
14
  7
ROMANS
 72
     4
 11
9.191395243783503
 21
2.524241518435974
 31
0.0
100
AcDbAttribute
  2
XX
 70
     0
  0
SEQEND
  5
157B
330
1579
100
AcDbEntity
  8
TEXT_BUBBLES
  0
INSERT
  5
157C
330
18
100
AcDbEntity
  8
TEXT_BUBBLES
100
AcDbBlockReference
 66
     1
  2
bubble
 10
9.168229773408256
 20
3.582297510641849
 30
0.0
  0
ATTRIB
  5
157D
330
157C
100
AcDbEntity
  8
TEXT_BUBBLES
100
AcDbText
 10
9.040253582932066
 20
3.519797510641849
 30
0.0
 40
0.125
  1
12
  7
ROMANS
 72
     4
 11
9.168229773408256
 21
3.582297510641849
 31
0.0
100
AcDbAttribute
  2
XX
 70
     0
  0
SEQEND
  5
157E
330
157C
100
AcDbEntity
  8
TEXT_BUBBLES
  0
INSERT
  5
157F
330
18
100
AcDbEntity
  8
TEXT_BUBBLES
100
AcDbBlockReference
 66
     1
  2
bubble
 10
9.168229773408256
 20
4.026008651746875
 30
0.0
  0
ATTRIB
  5
1580
330
157F
100
AcDbEntity
  8
TEXT_BUBBLES
100
AcDbText
 10
9.058110725789209
 20
3.963508651746875
 30
0.0
 40
0.125
  1
11
  7
ROMANS
 72
     4
 11
9.168229773408256
 21
4.026008651746875
 31
0.0
100
AcDbAttribute
  2
XX
 70
     0
  0
SEQEND
  5
1581
330
157F
100
AcDbEntity
  8
TEXT_BUBBLES
  0
INSERT
  5
1582
330
18
100
AcDbEntity
  8
TEXT_BUBBLES
100
AcDbBlockReference
 66
     1
  2
bubble
 10
9.168229773408256
 20
8.215614965625881
 30
0.0
  0
ATTRIB
  5
1583
330
1582
100
AcDbEntity
  8
TEXT_BUBBLES
100
AcDbText
 10
9.108705963884446
 20
8.153114965625881
 30
0.0
 40
0.125
  1
2
  7
ROMANS
 72
     4
 11
9.168229773408256
 21
8.215614965625881
 31
0.0
100
AcDbAttribute
  2
XX
 70
     0
  0
SEQEND
  5
1584
330
1582
100
AcDbEntity
  8
TEXT_BUBBLES
  0
INSERT
  5
1585
330
18
100
AcDbEntity
  8
TEXT_BUBBLES
100
AcDbBlockReference
 66
     1
  2
bubble
 10
9.168229773408256
 20
5.902673115775214
 30
0.0
  0
ATTRIB
  5
1586
330
1585
100
AcDbEntity
  8
TEXT_BUBBLES
100
AcDbText
 10
9.108705963884446
 20
5.840173115775214
 30
0.0
 40
0.125
  1
7
  7
ROMANS
 72
     4
 11
9.168229773408256
 21
5.902673115775214
 31
0.0
100
AcDbAttribute
  2
XX
 70
     0
  0
SEQEND
  5
1587
330
1585
100
AcDbEntity
  8
TEXT_BUBBLES
  0
INSERT
  5
1588
330
18
100
AcDbEntity
  8
TEXT_BUBBLES
100
AcDbBlockReference
 66
     1
  2
bubble
 10
9.168229773408256
 20
5.072271836309908
 30
0.0
  0
ATTRIB
  5
1589
330
1588
100
AcDbEntity
  8
TEXT_BUBBLES
100
AcDbText
 10
9.111682154360638
 20
5.009771836309908
 30
0.0
 40
0.125
  1
9
  7
ROMANS
 72
     4
 11
9.168229773408256
 21
5.072271836309908
 31
0.0
100
AcDbAttribute
  2
XX
 70
     0
  0
SEQEND
  5
158A
330
1588
100
AcDbEntity
  8
TEXT_BUBBLES
  0
INSERT
  5
158B
330
18
100
AcDbEntity
  8
TEXT_BUBBLES
100
AcDbBlockReference
 66
     1
  2
bubble
 10
9.168229773408256
 20
4.653552086253038
 30
0.0
  0
ATTRIB
  5
158C
330
158B
100
AcDbEntity
  8
TEXT_BUBBLES
100
AcDbText
 10
9.040253582932066
 20
4.591052086253038
 30
0.0
 40
0.125
  1
10
  7
ROMANS
 72
     4
 11
9.168229773408256
 21
4.653552086253038
 31
0.0
100
AcDbAttribute
  2
XX
 70
     0
  0
SEQEND
  5
158D
330
158B
100
AcDbEntity
  8
TEXT_BUBBLES
  0
INSERT
  5
158E
330
18
100
AcDbEntity
  8
TEXT_BUBBLES
100
AcDbBlockReference
 66
     1
  2
bubble
 10
9.168229773408256
 20
5.486738851791831
 30
0.0
  0
ATTRIB
  5
158F
330
158E
100
AcDbEntity
  8
TEXT_BUBBLES
100
AcDbText
 10
9.108705963884446
 20
5.424238851791831
 30
0.0
 40
0.125
  1
8
  7
ROMANS
 72
     4
 11
9.168229773408256
 21
5.486738851791831
 31
0.0
100
AcDbAttribute
  2
XX
 70
     0
  0
SEQEND
  5
1590
330
158E
100
AcDbEntity
  8
TEXT_BUBBLES
  0
INSERT
  5
1591
330
18
100
AcDbEntity
  8
TEXT_BUBBLES
100
AcDbBlockReference
 66
     1
  2
bubble
 10
9.168229773408256
 20
6.55257850264796
 30
0.0
  0
ATTRIB
  5
1592
330
1591
100
AcDbEntity
  8
TEXT_BUBBLES
100
AcDbText
 10
9.105729773408256
 20
6.49007850264796
 30
0.0
 40
0.125
  1
6
  7
ROMANS
 72
     4
 11
9.168229773408256
 21
6.55257850264796
 31
0.0
100
AcDbAttribute
  2
XX
 70
     0
  0
SEQEND
  5
1593
330
1591
100
AcDbEntity
  8
TEXT_BUBBLES
  0
INSERT
  5
1594
330
18
100
AcDbEntity
  8
TEXT_BUBBLES
100
AcDbBlockReference
 66
     1
  2
bubble
 10
9.168229773408256
 20
6.969141995152525
 30
0.0
  0
ATTRIB
  5
1595
330
1594
100
AcDbEntity
  8
TEXT_BUBBLES
100
AcDbText
 10
9.108705963884446
 20
6.906641995152525
 30
0.0
 40
0.125
  1
5
  7
ROMANS
 72
     4
 11
9.168229773408256
 21
6.969141995152525
 31
0.0
100
AcDbAttribute
  2
XX
 70
     0
  0
SEQEND
  5
1596
330
1594
100
AcDbEntity
  8
TEXT_BUBBLES
  0
INSERT
  5
1597
330
18
100
AcDbEntity
  8
TEXT_BUBBLES
100
AcDbBlockReference
 66
     1
  2
bubble
 10
9.168229773408256
 20
7.383845839767807
 30
0.0
  0
ATTRIB
  5
1598
330
1597
100
AcDbEntity
  8
TEXT_BUBBLES
100
AcDbText
 10
9.105729773408256
 20
7.321345839767807
 30
0.0
 40
0.125
  1
4
  7
ROMANS
 72
     4
 11
9.168229773408256
 21
7.383845839767807
 31
0.0
100
AcDbAttribute
  2
XX
 70
     0
  0
SEQEND
  5
1599
330
1597
100
AcDbEntity
  8
TEXT_BUBBLES
  0
INSERT
  5
159A
330
18
100
AcDbEntity
  8
TEXT_BUBBLES
100
AcDbBlockReference
 66
     1
  2
bubble
 10
9.168229773408256
 20
7.7985496343893
 30
0.0
  0
ATTRIB
  5
159B
330
159A
100
AcDbEntity
  8
TEXT_BUBBLES
100
AcDbText
 10
9.108705963884446
 20
7.7360496343893
 30
0.0
 40
0.125
  1
3
  7
ROMANS
 72
     4
 11
9.168229773408256
 21
7.7985496343893
 31
0.0
100
AcDbAttribute
  2
XX
 70
     0
  0
SEQEND
  5
159C
330
159A
100
AcDbEntity
  8
TEXT_BUBBLES
  0
INSERT
  5
159D
330
18
100
AcDbEntity
  8
TEXT_BUBBLES
100
AcDbBlockReference
 66
     1
  2
bubble
 10
9.168229773408256
 20
8.635443346041476
 30
0.0
  0
ATTRIB
  5
159E
330
159D
100
AcDbEntity
  8
TEXT_BUBBLES
100
AcDbText
 10
9.117634535313019
 20
8.572943346041476
 30
0.0
 40
0.125
  1
1
  7
ROMANS
 72
     4
 11
9.168229773408256
 21
8.635443346041476
 31
0.0
100
AcDbAttribute
  2
XX
 70
     0
  0
SEQEND
  5
159F
330
159D
100
AcDbEntity
  8
TEXT_BUBBLES
  0
LINE
  5
15A0
330
18
100
AcDbEntity
  8
IMAGE
  6
HIDDEN
 62
     7
100
AcDbLine
 10
4.474595343477201
 20
4.594321570996103
 30
0.0
 11
4.629727920030801
 21
4.594321570996103
 31
0.0
  0
LINE
  5
15A1
102
{ACAD_REACTORS
330
1972
102
}
330
18
100
AcDbEntity
  8
IMAGE
  6
HIDDEN
 62
     7
100
AcDbLine
 10
4.629727920030801
 20
4.594321570996103
 30
0.0
 11
4.629727920030801
 21
2.568944854107603
 31
0.0
  0
LINE
  5
15A3
102
{ACAD_REACTORS
330
1972
102
}
330
18
100
AcDbEntity
  8
IMAGE
  6
HIDDEN
 62
     7
100
AcDbLine
 10
4.474595343477201
 20
2.568944854107603
 30
0.0
 11
4.474595343477201
 21
4.594321570996103
 31
0.0
  0
LINE
  5
15A4
330
18
100
AcDbEntity
  8
IMAGE
  6
HIDDEN
 62
     7
100
AcDbLine
 10
4.164330190370002
 20
4.594116783816803
 30
0.0
 11
4.255342461080001
 21
4.594116783816803
 31
0.0
  0
LINE
  5
15A5
102
{ACAD_REACTORS
330
1972
102
}
330
18
100
AcDbEntity
  8
IMAGE
  6
HIDDEN
 62
     7
100
AcDbLine
 10
4.255342461080001
 20
4.594116783816803
 30
0.0
 11
4.255342461080001
 21
2.568944854107603
 31
0.0
  0
LINE
  5
15A7
102
{ACAD_REACTORS
330
1972
102
}
330
18
100
AcDbEntity
  8
IMAGE
  6
HIDDEN
 62
     7
100
AcDbLine
 10
4.164330190370002
 20
2.568944854107603
 30
0.0
 11
4.164330190370002
 21
4.594116783816803
 31
0.0
  0
LINE
  5
15A8
330
18
100
AcDbEntity
  8
IMAGE
  6
HIDDEN
 62
     7
100
AcDbLine
 10
3.825238814112201
 20
4.594615052326303
 30
0.0
 11
3.896251084822101
 21
4.594615052326303
 31
0.0
  0
LINE
  5
15A9
102
{ACAD_REACTORS
330
1972
102
}
330
18
100
AcDbEntity
  8
IMAGE
  6
HIDDEN
 62
     7
100
AcDbLine
 10
3.896251084822101
 20
4.594615052326303
 30
0.0
 11
3.896251084822101
 21
2.568944854107603
 31
0.0
  0
LINE
  5
15AB
102
{ACAD_REACTORS
330
1972
102
}
330
18
100
AcDbEntity
  8
IMAGE
  6
HIDDEN
 62
     7
100
AcDbLine
 10
3.825238814112201
 20
2.568944854107603
 30
0.0
 11
3.825238814112201
 21
4.594615052326303
 31
0.0
  0
LINE
  5
15AC
330
18
100
AcDbEntity
  8
IMAGE
  6
HIDDEN
 62
     7
100
AcDbLine
 10
4.884588581511801
 20
4.594321570996103
 30
0.0
 11
4.975600852221701
 21
4.594321570996103
 31
0.0
  0
LINE
  5
15AD
102
{ACAD_REACTORS
330
1972
102
}
330
18
100
AcDbEntity
  8
IMAGE
  6
HIDDEN
 62
     7
100
AcDbLine
 10
4.975600852221701
 20
4.594321570996103
 30
0.0
 11
4.975600852221701
 21
2.568944854107603
 31
0.0
  0
LINE
  5
15AF
102
{ACAD_REACTORS
330
1972
102
}
330
18
100
AcDbEntity
  8
IMAGE
  6
HIDDEN
 62
     7
100
AcDbLine
 10
4.884588581511801
 20
2.568944854107603
 30
0.0
 11
4.884588581511801
 21
4.594321570996103
 31
0.0
  0
POLYLINE
  5
1600
330
18
100
AcDbEntity
  8
IMAGE
  6
Continuous
100
AcDb2dPolyline
 66
     1
 10
0.0
 20
0.0
 30
0.0
  0
VERTEX
  5
1601
330
1600
100
AcDbEntity
  8
IMAGE
  6
Continuous
100
AcDbVertex
100
AcDb2dVertex
 10
3.828496829638906
 20
2.553976670525809
 30
0.0
  0
VERTEX
  5
1602
330
1600
100
AcDbEntity
  8
IMAGE
  6
Continuous
100
AcDbVertex
100
AcDb2dVertex
 10
3.829138453930125
 20
2.555316141066172
 30
0.0
  0
VERTEX
  5
1603
330
1600
100
AcDbEntity
  8
IMAGE
  6
Continuous
100
AcDbVertex
100
AcDb2dVertex
 10
3.830418275272519
 20
2.556919081754135
 30
0.0
  0
VERTEX
  5
1604
330
1600
100
AcDbEntity
  8
IMAGE
  6
Continuous
100
AcDbVertex
100
AcDb2dVertex
 10
3.832341633466343
 20
2.558589557675117
 30
0.0
  0
VERTEX
  5
1605
330
1600
100
AcDbEntity
  8
IMAGE
  6
Continuous
100
AcDbVertex
100
AcDb2dVertex
 10
3.834913868311859
 20
2.560131633914532
 30
0.0
  0
VERTEX
  5
1606
330
1600
100
AcDbEntity
  8
IMAGE
  6
Continuous
100
AcDbVertex
100
AcDb2dVertex
 10
3.838140319609321
 20
2.561349375557798
 30
0.0
  0
VERTEX
  5
1607
330
1600
100
AcDbEntity
  8
IMAGE
  6
Continuous
100
AcDbVertex
100
AcDb2dVertex
 10
3.842026327158988
 20
2.56204684769033
 30
0.0
  0
VERTEX
  5
1608
330
1600
100
AcDbEntity
  8
IMAGE
  6
Continuous
100
AcDbVertex
100
AcDb2dVertex
 10
3.846577230761115
 20
2.562028115397546
 30
0.0
  0
VERTEX
  5
1609
330
1600
100
AcDbEntity
  8
IMAGE
  6
Continuous
100
AcDbVertex
100
AcDb2dVertex
 10
3.851798370215957
 20
2.561097243764861
 30
0.0
  0
VERTEX
  5
160A
330
1600
100
AcDbEntity
  8
IMAGE
  6
Continuous
100
AcDbVertex
100
AcDb2dVertex
 10
3.857658274311846
 20
2.559172249686584
 30
0.0
  0
VERTEX
  5
160B
330
1600
100
AcDbEntity
  8
IMAGE
  6
Continuous
100
AcDbVertex
100
AcDb2dVertex
 10
3.863978227789383
 20
2.556626957292593
 30
0.0
  0
VERTEX
  5
160C
330
1600
100
AcDbEntity
  8
IMAGE
  6
Continuous
100
AcDbVertex
100
AcDb2dVertex
 10
3.870542704377241
 20
2.553949142521656
 30
0.0
  0
VERTEX
  5
160D
330
1600
100
AcDbEntity
  8
IMAGE
  6
Continuous
100
AcDbVertex
100
AcDb2dVertex
 10
3.877136177804095
 20
2.551626581312542
 30
0.0
  0
VERTEX
  5
160E
330
1600
100
AcDbEntity
  8
IMAGE
  6
Continuous
100
AcDbVertex
100
AcDb2dVertex
 10
3.883543121798622
 20
2.550147049604022
 30
0.0
  0
VERTEX
  5
160F
330
1600
100
AcDbEntity
  8
IMAGE
  6
Continuous
100
AcDbVertex
100
AcDb2dVertex
 10
3.889548010089489
 20
2.549998323334864
 30
0.0
  0
VERTEX
  5
1610
330
1600
100
AcDbEntity
  8
IMAGE
  6
Continuous
100
AcDbVertex
100
AcDb2dVertex
 10
3.894935316405378
 20
2.551668178443837
 30
0.0
  0
VERTEX
  5
1611
330
1600
100
AcDbEntity
  8
IMAGE
  6
Continuous
100
AcDbVertex
100
AcDb2dVertex
 10
3.899489514474955
 20
2.555644390869711
 30
0.0
  0
SEQEND
  5
1612
330
1600
100
AcDbEntity
  8
IMAGE
  6
Continuous
  0
POLYLINE
  5
1613
330
18
100
AcDbEntity
  8
IMAGE
  6
Continuous
100
AcDb2dPolyline
 66
     1
 10
0.0
 20
0.0
 30
0.0
  0
VERTEX
  5
1614
330
1613
100
AcDbEntity
  8
IMAGE
  6
Continuous
100
AcDbVertex
100
AcDb2dVertex
 10
4.164568456633766
 20
2.553976670525809
 30
0.0
  0
VERTEX
  5
1615
330
1613
100
AcDbEntity
  8
IMAGE
  6
Continuous
100
AcDbVertex
100
AcDb2dVertex
 10
4.165390788930743
 20
2.555693391512319
 30
0.0
  0
VERTEX
  5
1616
330
1613
100
AcDbEntity
  8
IMAGE
  6
Continuous
100
AcDbVertex
100
AcDb2dVertex
 10
4.167031061031742
 20
2.557747786764949
 30
0.0
  0
VERTEX
  5
1617
330
1613
100
AcDbEntity
  8
IMAGE
  6
Continuous
100
AcDbVertex
100
AcDb2dVertex
 10
4.169496116646197
 20
2.559888737972604
 30
0.0
  0
VERTEX
  5
1618
330
1613
100
AcDbEntity
  8
IMAGE
  6
Continuous
100
AcDbVertex
100
AcDb2dVertex
 10
4.172792799483534
 20
2.561865126824192
 30
0.0
  0
VERTEX
  5
1619
330
1613
100
AcDbEntity
  8
IMAGE
  6
Continuous
100
AcDbVertex
100
AcDb2dVertex
 10
4.176927953253176
 20
2.563425835008618
 30
0.0
  0
VERTEX
  5
161A
330
1613
100
AcDbEntity
  8
IMAGE
  6
Continuous
100
AcDbVertex
100
AcDb2dVertex
 10
4.181908421664555
 20
2.564319744214788
 30
0.0
  0
VERTEX
  5
161B
330
1613
100
AcDbEntity
  8
IMAGE
  6
Continuous
100
AcDbVertex
100
AcDb2dVertex
 10
4.187741048427096
 20
2.56429573613161
 30
0.0
  0
VERTEX
  5
161C
330
1613
100
AcDbEntity
  8
IMAGE
  6
Continuous
100
AcDbVertex
100
AcDb2dVertex
 10
4.19443267725023
 20
2.563102692447988
 30
0.0
  0
VERTEX
  5
161D
330
1613
100
AcDbEntity
  8
IMAGE
  6
Continuous
100
AcDbVertex
100
AcDb2dVertex
 10
4.201942973324097
 20
2.560635540216188
 30
0.0
  0
VERTEX
  5
161E
330
1613
100
AcDbEntity
  8
IMAGE
  6
Continuous
100
AcDbVertex
100
AcDb2dVertex
 10
4.210042887761719
 20
2.557373387941913
 30
0.0
  0
VERTEX
  5
161F
330
1613
100
AcDbEntity
  8
IMAGE
  6
Continuous
100
AcDbVertex
100
AcDb2dVertex
 10
4.218456193156836
 20
2.55394138949422
 30
0.0
  0
VERTEX
  5
1620
330
1613
100
AcDbEntity
  8
IMAGE
  6
Continuous
100
AcDbVertex
100
AcDb2dVertex
 10
4.226906662103179
 20
2.550964698742172
 30
0.0
  0
VERTEX
  5
1621
330
1613
100
AcDbEntity
  8
IMAGE
  6
Continuous
100
AcDbVertex
100
AcDb2dVertex
 10
4.235118067194491
 20
2.549068469554827
 30
0.0
  0
VERTEX
  5
1622
330
1613
100
AcDbEntity
  8
IMAGE
  6
Continuous
100
AcDbVertex
100
AcDb2dVertex
 10
4.242814181024506
 20
2.548877855801246
 30
0.0
  0
VERTEX
  5
1623
330
1613
100
AcDbEntity
  8
IMAGE
  6
Continuous
100
AcDbVertex
100
AcDb2dVertex
 10
4.249718776186963
 20
2.55101801135049
 30
0.0
  0
VERTEX
  5
1624
330
1613
100
AcDbEntity
  8
IMAGE
  6
Continuous
100
AcDbVertex
100
AcDb2dVertex
 10
4.255555625275601
 20
2.556114090071618
 30
0.0
  0
SEQEND
  5
1625
330
1613
100
AcDbEntity
  8
IMAGE
  6
Continuous
  0
POLYLINE
  5
1626
330
18
100
AcDbEntity
  8
IMAGE
  6
Continuous
100
AcDb2dPolyline
 66
     1
 10
0.0
 20
0.0
 30
0.0
  0
VERTEX
  5
1627
330
1626
100
AcDbEntity
  8
IMAGE
  6
Continuous
100
AcDbVertex
100
AcDb2dVertex
 10
4.476933915586147
 20
2.553976670525809
 30
0.0
  0
VERTEX
  5
1628
330
1626
100
AcDbEntity
  8
IMAGE
  6
Continuous
100
AcDbVertex
100
AcDb2dVertex
 10
4.478431192284783
 20
2.557102421929
 30
0.0
  0
VERTEX
  5
1629
330
1626
100
AcDbEntity
  8
IMAGE
  6
Continuous
100
AcDbVertex
100
AcDb2dVertex
 10
4.481417747969493
 20
2.560842999981042
 30
0.0
  0
VERTEX
  5
162A
330
1626
100
AcDbEntity
  8
IMAGE
  6
Continuous
100
AcDbVertex
100
AcDb2dVertex
 10
4.485906043450454
 20
2.564741176384826
 30
0.0
  0
VERTEX
  5
162B
330
1626
100
AcDbEntity
  8
IMAGE
  6
Continuous
100
AcDbVertex
100
AcDb2dVertex
 10
4.491908539537852
 20
2.568339722843247
 30
0.0
  0
VERTEX
  5
162C
330
1626
100
AcDbEntity
  8
IMAGE
  6
Continuous
100
AcDbVertex
100
AcDb2dVertex
 10
4.499437697041861
 20
2.571181411059198
 30
0.0
  0
VERTEX
  5
162D
330
1626
100
AcDbEntity
  8
IMAGE
  6
Continuous
100
AcDbVertex
100
AcDb2dVertex
 10
4.50850597677267
 20
2.572809012735574
 30
0.0
  0
VERTEX
  5
162E
330
1626
100
AcDbEntity
  8
IMAGE
  6
Continuous
100
AcDbVertex
100
AcDb2dVertex
 10
4.519125839540449
 20
2.572765299575269
 30
0.0
  0
VERTEX
  5
162F
330
1626
100
AcDbEntity
  8
IMAGE
  6
Continuous
100
AcDbVertex
100
AcDb2dVertex
 10
4.531309746155389
 20
2.570593043281175
 30
0.0
  0
VERTEX
  5
1630
330
1626
100
AcDbEntity
  8
IMAGE
  6
Continuous
100
AcDbVertex
100
AcDb2dVertex
 10
4.54498425626842
 20
2.566100930345506
 30
0.0
  0
VERTEX
  5
1631
330
1626
100
AcDbEntity
  8
IMAGE
  6
Continuous
100
AcDbVertex
100
AcDb2dVertex
 10
4.55973232489348
 20
2.560161306417757
 30
0.0
  0
VERTEX
  5
1632
330
1626
100
AcDbEntity
  8
IMAGE
  6
Continuous
100
AcDbVertex
100
AcDb2dVertex
 10
4.575051005885273
 20
2.553912431936742
 30
0.0
  0
VERTEX
  5
1633
330
1626
100
AcDbEntity
  8
IMAGE
  6
Continuous
100
AcDbVertex
100
AcDb2dVertex
 10
4.590437353098493
 20
2.548492567341273
 30
0.0
  0
VERTEX
  5
1634
330
1626
100
AcDbEntity
  8
IMAGE
  6
Continuous
100
AcDbVertex
100
AcDb2dVertex
 10
4.605388420387838
 20
2.545039973070165
 30
0.0
  0
VERTEX
  5
1635
330
1626
100
AcDbEntity
  8
IMAGE
  6
Continuous
100
AcDbVertex
100
AcDb2dVertex
 10
4.61940126160801
 20
2.544692909562231
 30
0.0
  0
VERTEX
  5
1636
330
1626
100
AcDbEntity
  8
IMAGE
  6
Continuous
100
AcDbVertex
100
AcDb2dVertex
 10
4.631972930613694
 20
2.548589637256285
 30
0.0
  0
VERTEX
  5
1637
330
1626
100
AcDbEntity
  8
IMAGE
  6
Continuous
100
AcDbVertex
100
AcDb2dVertex
 10
4.642600481259598
 20
2.557868416591142
 30
0.0
  0
SEQEND
  5
1638
330
1626
100
AcDbEntity
  8
IMAGE
  6
Continuous
  0
POLYLINE
  5
1639
330
18
100
AcDbEntity
  8
IMAGE
  6
Continuous
100
AcDb2dPolyline
 66
     1
 10
0.0
 20
0.0
 30
0.0
  0
VERTEX
  5
163A
330
1639
100
AcDbEntity
  8
IMAGE
  6
Continuous
100
AcDbVertex
100
AcDb2dVertex
 10
4.884572775896451
 20
2.553976670525809
 30
0.0
  0
VERTEX
  5
163B
330
1639
100
AcDbEntity
  8
IMAGE
  6
Continuous
100
AcDbVertex
100
AcDb2dVertex
 10
4.885395108193428
 20
2.555693391512319
 30
0.0
  0
VERTEX
  5
163C
330
1639
100
AcDbEntity
  8
IMAGE
  6
Continuous
100
AcDbVertex
100
AcDb2dVertex
 10
4.887035380294427
 20
2.557747786764949
 30
0.0
  0
VERTEX
  5
163D
330
1639
100
AcDbEntity
  8
IMAGE
  6
Continuous
100
AcDbVertex
100
AcDb2dVertex
 10
4.889500435908882
 20
2.559888737972604
 30
0.0
  0
VERTEX
  5
163E
330
1639
100
AcDbEntity
  8
IMAGE
  6
Continuous
100
AcDbVertex
100
AcDb2dVertex
 10
4.892797118746216
 20
2.561865126824192
 30
0.0
  0
VERTEX
  5
163F
330
1639
100
AcDbEntity
  8
IMAGE
  6
Continuous
100
AcDbVertex
100
AcDb2dVertex
 10
4.896932272515861
 20
2.563425835008618
 30
0.0
  0
VERTEX
  5
1640
330
1639
100
AcDbEntity
  8
IMAGE
  6
Continuous
100
AcDbVertex
100
AcDb2dVertex
 10
4.901912740927237
 20
2.564319744214788
 30
0.0
  0
VERTEX
  5
1641
330
1639
100
AcDbEntity
  8
IMAGE
  6
Continuous
100
AcDbVertex
100
AcDb2dVertex
 10
4.907745367689781
 20
2.56429573613161
 30
0.0
  0
VERTEX
  5
1642
330
1639
100
AcDbEntity
  8
IMAGE
  6
Continuous
100
AcDbVertex
100
AcDb2dVertex
 10
4.914436996512911
 20
2.563102692447988
 30
0.0
  0
VERTEX
  5
1643
330
1639
100
AcDbEntity
  8
IMAGE
  6
Continuous
100
AcDbVertex
100
AcDb2dVertex
 10
4.921947292586779
 20
2.560635540216188
 30
0.0
  0
VERTEX
  5
1644
330
1639
100
AcDbEntity
  8
IMAGE
  6
Continuous
100
AcDbVertex
100
AcDb2dVertex
 10
4.930047207024404
 20
2.557373387941913
 30
0.0
  0
VERTEX
  5
1645
330
1639
100
AcDbEntity
  8
IMAGE
  6
Continuous
100
AcDbVertex
100
AcDb2dVertex
 10
4.938460512419517
 20
2.55394138949422
 30
0.0
  0
VERTEX
  5
1646
330
1639
100
AcDbEntity
  8
IMAGE
  6
Continuous
100
AcDbVertex
100
AcDb2dVertex
 10
4.946910981365864
 20
2.550964698742172
 30
0.0
  0
VERTEX
  5
1647
330
1639
100
AcDbEntity
  8
IMAGE
  6
Continuous
100
AcDbVertex
100
AcDb2dVertex
 10
4.955122386457176
 20
2.549068469554827
 30
0.0
  0
VERTEX
  5
1648
330
1639
100
AcDbEntity
  8
IMAGE
  6
Continuous
100
AcDbVertex
100
AcDb2dVertex
 10
4.962818500287191
 20
2.548877855801246
 30
0.0
  0
VERTEX
  5
1649
330
1639
100
AcDbEntity
  8
IMAGE
  6
Continuous
100
AcDbVertex
100
AcDb2dVertex
 10
4.969723095449648
 20
2.55101801135049
 30
0.0
  0
VERTEX
  5
164A
330
1639
100
AcDbEntity
  8
IMAGE
  6
Continuous
100
AcDbVertex
100
AcDb2dVertex
 10
4.975559944538282
 20
2.556114090071618
 30
0.0
  0
SEQEND
  5
164B
330
1639
100
AcDbEntity
  8
IMAGE
  6
Continuous
  0
INSERT
  5
1803
330
18
100
AcDbEntity
  8
TEXT_BUBBLES
100
AcDbBlockReference
 66
     1
  2
bubble
 10
6.536344174242433
 20
3.560858047463784
 30
0.0
  0
ATTRIB
  5
1804
330
1803
100
AcDbEntity
  8
TEXT_BUBBLES
100
AcDbText
 10
6.408367983766242
 20
3.498358047463784
 30
0.0
 40
0.125
  1
15
  7
ROMANS
 72
     4
 11
6.536344174242433
 21
3.560858047463784
 31
0.0
100
AcDbAttribute
  2
XX
 70
     0
  0
SEQEND
  5
1805
330
1803
100
AcDbEntity
  8
TEXT_BUBBLES
  0
INSERT
  5
1806
330
18
100
AcDbEntity
  8
TEXT_BUBBLES
100
AcDbBlockReference
 66
     1
  2
bubble
 10
3.845135971574198
 20
2.360445437271477
 30
0.0
  0
ATTRIB
  5
1807
330
1806
100
AcDbEntity
  8
TEXT_BUBBLES
100
AcDbText
 10
3.735016923955151
 20
2.297945437271477
 30
0.0
 40
0.125
  1
11
  7
ROMANS
 72
     4
 11
3.845135971574198
 21
2.360445437271477
 31
0.0
100
AcDbAttribute
  2
XX
 70
     0
  0
SEQEND
  5
1808
330
1806
100
AcDbEntity
  8
TEXT_BUBBLES
  0
INSERT
  5
1809
330
18
100
AcDbEntity
  8
TEXT_BUBBLES
100
AcDbBlockReference
 66
     1
  2
bubble
 10
4.928138890974979
 20
2.360445437271477
 30
0.0
  0
ATTRIB
  5
180A
330
1809
100
AcDbEntity
  8
TEXT_BUBBLES
100
AcDbText
 10
4.800162700498789
 20
2.297945437271477
 30
0.0
 40
0.125
  1
13
  7
ROMANS
 72
     4
 11
4.928138890974979
 21
2.360445437271477
 31
0.0
100
AcDbAttribute
  2
XX
 70
     0
  0
SEQEND
  5
180B
330
1809
100
AcDbEntity
  8
TEXT_BUBBLES
  0
INSERT
  5
180C
330
18
100
AcDbEntity
  8
TEXT_BUBBLES
100
AcDbBlockReference
 66
     1
  2
bubble
 10
4.236568727919731
 20
2.360445437271477
 30
0.0
  0
ATTRIB
  5
180D
330
180C
100
AcDbEntity
  8
TEXT_BUBBLES
100
AcDbText
 10
4.108592537443541
 20
2.297945437271477
 30
0.0
 40
0.125
  1
12
  7
ROMANS
 72
     4
 11
4.236568727919731
 21
2.360445437271477
 31
0.0
100
AcDbAttribute
  2
XX
 70
     0
  0
SEQEND
  5
180E
330
180C
100
AcDbEntity
  8
TEXT_BUBBLES
  0
INSERT
  5
180F
330
18
100
AcDbEntity
  8
TEXT_BUBBLES
100
AcDbBlockReference
 66
     1
  2
bubble
 10
4.575767131945841
 20
2.360445437271477
 30
0.0
  0
ATTRIB
  5
1810
330
180F
100
AcDbEntity
  8
TEXT_BUBBLES
100
AcDbText
 10
4.516243322422032
 20
2.297945437271477
 30
0.0
 40
0.125
  1
7
  7
ROMANS
 72
     4
 11
4.575767131945841
 21
2.360445437271477
 31
0.0
100
AcDbAttribute
  2
XX
 70
     0
  0
SEQEND
  5
1811
330
180F
100
AcDbEntity
  8
TEXT_BUBBLES
  0
INSERT
  5
1818
330
18
100
AcDbEntity
  8
TEXT_BUBBLES
100
AcDbBlockReference
 66
     1
  2
bubble
 10
3.857785307421975
 20
5.700791214563209
 30
0.0
  0
ATTRIB
  5
1819
330
1818
100
AcDbEntity
  8
TEXT_BUBBLES
100
AcDbText
 10
3.729809116945784
 20
5.638291214563209
 30
0.0
 40
0.125
  1
10
  7
ROMANS
 72
     4
 11
3.857785307421975
 21
5.700791214563209
 31
0.0
100
AcDbAttribute
  2
XX
 70
     0
  0
SEQEND
  5
181A
330
1818
100
AcDbEntity
  8
TEXT_BUBBLES
  0
INSERT
  5
181B
330
18
100
AcDbEntity
  8
TEXT_BUBBLES
100
AcDbBlockReference
 66
     1
  2
bubble
 10
3.857785307421975
 20
5.35497713301472
 30
0.0
  0
ATTRIB
  5
181C
330
181B
100
AcDbEntity
  8
TEXT_BUBBLES
100
AcDbText
 10
3.801237688374356
 20
5.29247713301472
 30
0.0
 40
0.125
  1
9
  7
ROMANS
 72
     4
 11
3.857785307421975
 21
5.35497713301472
 31
0.0
100
AcDbAttribute
  2
XX
 70
     0
  0
SEQEND
  5
181D
330
181B
100
AcDbEntity
  8
TEXT_BUBBLES
  0
INSERT
  5
181E
330
18
100
AcDbEntity
  8
TEXT_BUBBLES
100
AcDbBlockReference
 66
     1
  2
bubble
 10
5.915433268143534
 20
4.095256953892499
 30
0.0
  0
ATTRIB
  5
181F
330
181E
100
AcDbEntity
  8
TEXT_BUBBLES
100
AcDbText
 10
5.784480887191152
 20
4.032756953892499
 30
0.0
 40
0.125
  1
14
  7
ROMANS
 72
     4
 11
5.915433268143534
 21
4.095256953892499
 31
0.0
100
AcDbAttribute
  2
XX
 70
     0
  0
SEQEND
  5
1820
330
181E
100
AcDbEntity
  8
TEXT_BUBBLES
  0
INSERT
  5
1829
330
18
100
AcDbEntity
  8
TEXT_BUBBLES
100
AcDbBlockReference
 66
     1
  2
bubble
 10
5.79231857259282
 20
5.560980854109312
 30
0.0
  0
ATTRIB
  5
182A
330
1829
100
AcDbEntity
  8
TEXT_BUBBLES
100
AcDbText
 10
5.72981857259282
 20
5.498480854109312
 30
0.0
 40
0.125
  1
6
  7
ROMANS
 72
     4
 11
5.79231857259282
 21
5.560980854109312
 31
0.0
100
AcDbAttribute
  2
XX
 70
     0
  0
SEQEND
  5
182B
330
1829
100
AcDbEntity
  8
TEXT_BUBBLES
  0
INSERT
  5
182E
330
18
100
AcDbEntity
  8
TEXT_BUBBLES
100
AcDbBlockReference
 66
     1
  2
bubble
 10
2.98761526121344
 20
6.730001981702145
 30
0.0
  0
ATTRIB
  5
182F
330
182E
100
AcDbEntity
  8
TEXT_BUBBLES
100
AcDbText
 10
2.92809145168963
 20
6.667501981702145
 30
0.0
 40
0.125
  1
2
  7
ROMANS
 72
     4
 11
2.98761526121344
 21
6.730001981702145
 31
0.0
100
AcDbAttribute
  2
XX
 70
     0
  0
SEQEND
  5
1830
330
182E
100
AcDbEntity
  8
TEXT_BUBBLES
  0
INSERT
  5
1835
330
18
100
AcDbEntity
  8
TEXT_BUBBLES
100
AcDbBlockReference
 66
     1
  2
bubble
 10
4.397226496844616
 20
6.437252511521627
 30
0.0
  0
ATTRIB
  5
1836
330
1835
100
AcDbEntity
  8
TEXT_BUBBLES
100
AcDbText
 10
4.337702687320807
 20
6.374752511521627
 30
0.0
 40
0.125
  1
3
  7
ROMANS
 72
     4
 11
4.397226496844616
 21
6.437252511521627
 31
0.0
100
AcDbAttribute
  2
XX
 70
     0
  0
SEQEND
  5
1837
330
1835
100
AcDbEntity
  8
TEXT_BUBBLES
  0
INSERT
  5
1838
330
18
100
AcDbEntity
  8
TEXT_BUBBLES
100
AcDbBlockReference
 66
     1
  2
bubble
 10
5.786154317730228
 20
5.908721634722485
 30
0.0
  0
ATTRIB
  5
1839
330
1838
100
AcDbEntity
  8
TEXT_BUBBLES
100
AcDbText
 10
5.726630508206419
 20
5.846221634722485
 30
0.0
 40
0.125
  1
5
  7
ROMANS
 72
     4
 11
5.786154317730228
 21
5.908721634722485
 31
0.0
100
AcDbAttribute
  2
XX
 70
     0
  0
SEQEND
  5
183A
330
1838
100
AcDbEntity
  8
TEXT_BUBBLES
  0
INSERT
  5
1840
330
18
100
AcDbEntity
  8
TEXT_BUBBLES
100
AcDbBlockReference
 66
     1
  2
bubble
 10
7.672480046687541
 20
6.545678269525755
 30
0.0
  0
ATTRIB
  5
1841
330
1840
100
AcDbEntity
  8
TEXT_BUBBLES
100
AcDbText
 10
7.609980046687541
 20
6.483178269525755
 30
0.0
 40
0.125
  1
4
  7
ROMANS
 72
     4
 11
7.672480046687541
 21
6.545678269525755
 31
0.0
100
AcDbAttribute
  2
XX
 70
     0
  0
SEQEND
  5
1842
330
1840
100
AcDbEntity
  8
TEXT_BUBBLES
  0
INSERT
  5
1845
330
18
100
AcDbEntity
  8
TEXT_BUBBLES
100
AcDbBlockReference
 66
     1
  2
bubble
 10
2.674989713332402
 20
7.890157159239421
 30
0.0
  0
ATTRIB
  5
1846
330
1845
100
AcDbEntity
  8
TEXT_BUBBLES
100
AcDbText
 10
2.624394475237164
 20
7.827657159239421
 30
0.0
 40
0.125
  1
1
  7
ROMANS
 72
     4
 11
2.674989713332402
 21
7.890157159239421
 31
0.0
100
AcDbAttribute
  2
XX
 70
     0
  0
SEQEND
  5
1847
330
1845
100
AcDbEntity
  8
TEXT_BUBBLES
  0
LWPOLYLINE
  5
184B
330
18
100
AcDbEntity
  8
IMAGE
  6
Continuous
100
AcDbPolyline
 90
       11
 70
     1
 10
3.752719101383842
 20
5.03643676823505
 40
0.0
 41
0.0
 42
0.5205670505517463
 10
3.752719101383842
 20
5.03643676823505
 40
0.0
 41
0.025
 42
0.5205670505517463
 10
4.004055938781437
 20
5.07949947250762
 40
0.0
 41
0.025
 42
0.5205670505517463
 10
4.104590658375443
 20
5.309167245186026
 40
0.0
 41
0.025
 42
0.5205670505517463
 10
4.12613381806167
 20
5.560366382419243
 40
0.0
 41
0.025
 42
0.5205670505517463
 10
4.090228577526347
 20
5.811565519652459
 40
0.0
 41
0.025
 42
0.5205670505517463
 10
3.896340140350301
 20
5.976639223503484
 40
0.0
 41
0.025
 42
0.5205670505517463
 10
3.666546462638932
 20
5.861805337164281
 40
0.0
 41
0.025
 42
0.5205670505517463
 10
3.630641183691026
 20
5.610606199931065
 40
0.0
 41
0.025
 42
0.5205670505517463
 10
3.652184343377253
 20
5.359407087534901
 40
0.0
 41
0.025
 42
0.5205670505517463
 10
3.752719101383842
 20
5.03643676823505
 40
0.025
 41
0.025
  0
LINE
  5
184C
330
18
100
AcDbEntity
  8
IMAGE
  6
Continuous
 62
     7
100
AcDbLine
 10
3.909230429050602
 20
6.875830261528403
 30
0.0
 11
3.909230429050602
 21
5.979416388347953
 31
0.0
  0
LINE
  5
184D
330
18
100
AcDbEntity
  8
IMAGE
  6
Continuous
 62
     7
100
AcDbLine
 10
3.818218158340602
 20
4.955489666481941
 30
0.0
 11
3.818218158340602
 21
4.996988893811917
 31
0.0
  0
LINE
  5
184E
330
18
100
AcDbEntity
  8
IMAGE
  6
Continuous
 62
     7
100
AcDbLine
 10
3.818218158340602
 20
5.99553493023111
 30
0.0
 11
3.818218158340602
 21
6.875830261528403
 31
0.0
  0
LINE
  5
184F
330
18
100
AcDbEntity
  8
IMAGE
  6
Continuous
 62
     7
100
AcDbLine
 10
3.909230429050602
 20
4.997241537608808
 30
0.0
 11
3.909230429050602
 21
4.955489666481941
 31
0.0
  0
INSERT
  5
189D
330
18
100
AcDbEntity
  8
0
100
AcDbBlockReference
  2
pagesetups
 10
0.0
 20
0.0
 30
0.0
  0
LINE
  5
18B2
330
18
100
AcDbEntity
  8
IMAGE
 62
     7
100
AcDbLine
 39
0.055511053975511
 10
4.820860211738394
 20
5.973077789951073
 30
0.0
 11
5.163730528433131
 21
5.973077789951074
 31
0.0
  0
LINE
  5
18B3
330
18
100
AcDbEntity
  8
IMAGE
 62
     7
100
AcDbLine
 39
0.055511053975511
 10
5.16373052843313
 20
5.846240255390757
 30
0.0
 11
4.820860211738394
 21
5.846240255390756
 31
0.0
  0
CIRCLE
  5
18B4
330
18
100
AcDbEntity
  8
IMAGE
 62
     7
100
AcDbCircle
 39
0.055511053975511
 10
4.975249431044558
 20
5.912114797655939
 30
0.0
 40
0.0433680109183689
  0
CIRCLE
  5
18B5
330
18
100
AcDbEntity
  8
IMAGE
 62
     7
100
AcDbCircle
 39
0.055511053975511
 10
5.095086684242988
 20
5.912114797655939
 30
0.0
 40
0.0433680109183689
  0
LINE
  5
18B6
330
18
100
AcDbEntity
  8
IMAGE
 62
     7
100
AcDbLine
 39
0.055511053975511
 10
5.16373052843313
 20
5.846240255390757
 30
0.0
 11
5.16373052843313
 21
5.973077789951073
 31
0.0
  0
CIRCLE
  5
18B7
330
18
100
AcDbEntity
  8
IMAGE
 62
     7
100
AcDbCircle
 39
0.055511053975511
 10
4.874061462302919
 20
5.912114797655939
 30
0.0
 40
0.0310774642686003
  0
LINE
  5
18B8
330
18
100
AcDbEntity
  8
IMAGE
 62
     7
100
AcDbLine
 10
4.940192903738062
 20
5.886583948390303
 30
0.0
 11
4.999287560801175
 21
5.948211233613244
 31
0.0
  0
LINE
  5
18B9
330
18
100
AcDbEntity
  8
IMAGE
 62
     7
100
AcDbLine
 10
4.951211301287947
 20
5.876018361698629
 30
0.0
 11
5.010305958351051
 21
5.937645646921578
 31
0.0
  0
LINE
  5
18BA
330
18
100
AcDbEntity
  8
IMAGE
  6
Continuous
100
AcDbLine
 10
4.820860211738394
 20
5.973077789951074
 30
0.0
 11
4.820860211738394
 21
5.846240255390757
 31
0.0
  0
LINE
  5
18BB
330
18
100
AcDbEntity
  8
IMAGE
 62
     7
100
AcDbLine
 10
5.071048554486377
 20
5.876018361698629
 30
0.0
 11
5.130143211549481
 21
5.937645646921578
 31
0.0
  0
LWPOLYLINE
  5
18BC
330
18
100
AcDbEntity
  8
IMAGE
  6
Continuous
 62
     7
100
AcDbPolyline
 90
        2
 70
     0
 43
0.013
 10
5.095191848754883
 20
5.973077789951074
 10
5.094845439325572
 20
5.955482137577885
  0
LINE
  5
18BD
330
18
100
AcDbEntity
  8
IMAGE
 62
     7
100
AcDbLine
 10
5.060030156936492
 20
5.886583948390303
 30
0.0
 11
5.119124813999604
 21
5.948211233613244
 31
0.0
  0
LWPOLYLINE
  5
18CE
330
18
100
AcDbEntity
  8
IMAGE
  6
Continuous
 62
     7
100
AcDbPolyline
 90
        2
 70
     0
 43
0.013
 10
4.526155298668288
 20
5.914210560370403
 10
4.526155298668288
 20
4.796648481620663
  0
LWPOLYLINE
  5
18CF
330
18
100
AcDbEntity
  8
IMAGE
  6
Continuous
 62
     7
100
AcDbPolyline
 90
        2
 70
     0
 43
0.013
 10
4.579072934664663
 20
5.914210560370403
 10
4.579072934664663
 20
4.796648481620663
  0
HATCH
  5
1972
330
18
100
AcDbEntity
  8
IMAGE
100
AcDbHatch
 10
0.0
 20
0.0
 30
0.0
210
0.0
220
0.0
230
1.0
  2
AR-CONC
 70
     0
 71
     1
 91
        5
 92
        7
 72
     0
 73
     1
 93
        4
 10
3.825238814112201
 20
3.563102234544603
 10
2.727264581949602
 20
3.563102234544603
 10
2.727264581949602
 20
2.765556110566404
 10
3.825238814112201
 20
2.765556110566404
 97
        2
330
10D
330
15AB
 92
        7
 72
     0
 73
     1
 93
        4
 10
4.164330190370002
 20
3.563102234544603
 10
3.896251084822101
 20
3.563102234544603
 10
3.896251084822101
 20
2.765556110566404
 10
4.164330190370002
 20
2.765556110566404
 97
        3
330
10D
330
15A9
330
15A7
 92
        7
 72
     0
 73
     1
 93
        4
 10
4.474595343477201
 20
3.563102234544603
 10
4.255342461080001
 20
3.563102234544603
 10
4.255342461080001
 20
2.765556110566404
 10
4.474595343477201
 20
2.765556110566404
 97
        3
330
10D
330
15A5
330
15A3
 92
        7
 72
     0
 73
     1
 93
        4
 10
4.884588581511801
 20
3.563102234544603
 10
4.629727920030801
 20
3.563102234544603
 10
4.629727920030801
 20
2.765556110566404
 10
4.884588581511801
 20
2.765556110566404
 97
        3
330
10D
330
15A1
330
15AF
 92
        7
 72
     0
 73
     1
 93
        4
 10
5.9272953263067
 20
3.563102234544603
 10
4.975600852221701
 20
3.563102234544603
 10
4.975600852221701
 20
2.765556110566404
 10
5.927295326306701
 20
2.765556110566404
 97
        2
330
10D
330
15AD
 75
     0
 76
     1
 52
0.0
 41
0.075
 77
     0
 78
    13
 53
50.0
 43
0.0
 44
0.0
 45
0.5379451369505651
 46
-0.0470641012369463
 79
     2
 49
0.05625
 49
-0.61875
 53
355.0
 43
0.0
 44
0.0
 45
-0.10406350020975
 46
0.5641441002750089
 79
     2
 49
0.045
 49
-0.495
 53
100.4514
 43
0.04482876
 44
-0.003922005
 45
0.4338820362855162
 46
0.5170796565457153
 79
     2
 49
0.0478051425
 49
-0.525856584
 53
46.1842
 43
0.0
 44
0.15
 45
0.8004307864692332
 46
-0.1241392607467636
 79
     2
 49
0.084375
 49
-0.928125
 53
96.6356
 43
0.06670255875
 44
0.13965501975
 45
0.7009970291615275
 46
0.7305884031753313
 79
     2
 49
0.071707716
 49
-0.78878475
 53
351.1842
 43
0.0
 44
0.15
 45
0.7009964588502204
 46
0.7305889506939934
 79
     2
 49
0.0675
 49
-0.7425000000000001
 53
21.0
 43
0.075
 44
0.1125
 45
0.4476802890888462
 46
-0.301964167999004
 79
     2
 49
0.05625
 49
-0.61875
 53
326.0
 43
0.075
 44
0.1125
 45
0.1824864989411863
 46
0.5438625337851397
 79
     2
 49
0.045
 49
-0.495
 53
71.45140000000001
 43
0.11230667475
 44
0.0873362955
 45
0.6301669714361175
 46
0.2418978725324643
 79
     2
 49
0.0478051425
 49
-0.525856584
 53
37.5
 43
0.0
 44
0.0
 45
0.009119891487968
 46
0.2496703903734836
 79
     6
 49
0.0
 49
-0.489
 49
0.0
 49
-0.5025
 49
0.0
 49
-0.496875
 53
7.499999999999999
 43
0.0
 44
0.0
 45
0.1973021530816114
 46
0.2958087839117702
 79
     6
 49
0.0
 49
-0.2865
 49
0.0
 49
-0.47775
 49
0.0
 49
-0.189375
 53
327.4999999999999
 43
-0.16725
 44
0.0
 45
0.4003668271293068
 46
-0.0169161538007848
 79
     6
 49
0.0
 49
-0.1875
 49
0.0
 49
-0.585
 49
0.0
 49
-0.7762500000000001
 53
317.5
 43
-0.24225
 44
0.0
 45
0.4373896270067898
 46
0.0750787367492383
 79
     6
 49
0.0
 49
-0.24375
 49
0.0
 49
-0.3885
 49
0.0
 49
-0.55125
 47
0.01203835188933
 98
        5
 10
3.385569801123023
 20
3.162124484484455
 10
4.023970212326499
 20
3.065817667386157
 10
4.421464817571139
 20
3.005625931778836
 10
4.67441592229877
 20
3.005625931778836
 10
5.276680479550126
 20
2.981549227504262
  0
HATCH
  5
19C4
330
18
100
AcDbEntity
  8
IMAGE
100
AcDbHatch
 10
0.0
 20
0.0
 30
0.0
210
0.0
220
0.0
230
1.0
  2
EARTH
 70
     0
 71
     0
 91
        2
 92
        7
 72
     0
 73
     1
 93
        4
 10
2.727264581949602
 20
3.408299427856367
 10
2.048542484872097
 20
3.408299427856367
 10
2.048542484872097
 20
2.933395818955113
 10
2.727264581949602
 20
2.933395818955113
 97
        0
 92
        7
 72
     0
 73
     1
 93
        4
 10
6.854613601759889
 20
3.408299427856367
 10
5.927295326306701
 20
3.408299427856367
 10
5.9272953263067
 20
2.921357466817825
 10
6.854613601759889
 20
2.921357466817825
 97
        0
 75
     0
 76
     1
 52
45.0
 41
1.0
 77
     0
 78
     6
 53
45.0
 43
0.0
 44
0.0
 45
0.0
 46
0.3535533905932737
 79
     2
 49
0.25
 49
-0.25
 53
45.0
 43
-0.0662912607362388
 44
0.0662912607362389
 45
0.0
 46
0.3535533905932737
 79
     2
 49
0.25
 49
-0.25
 53
45.0
 43
-0.1325825214724776
 44
0.1325825214724777
 45
0.0
 46
0.3535533905932737
 79
     2
 49
0.25
 49
-0.25
 53
135.0
 43
-0.1325825214724776
 44
0.1767766952966369
 45
-0.3535533905932737
 46
0.0
 79
     2
 49
0.25
 49
-0.25
 53
135.0
 43
-0.0662912607362388
 44
0.2430679560328757
 45
-0.3535533905932737
 46
0.0
 79
     2
 49
0.25
 49
-0.25
 53
135.0
 43
0.0
 44
0.3093592167691145
 45
-0.3535533905932737
 46
0.0
 79
     2
 49
0.25
 49
-0.25
 47
0.01203835188933
 98
        2
 10
2.409901193810352
 20
3.246392949445466
 10
6.324620794767036
 20
3.13804778020988
  0
INSERT
  5
19C7
330
18
100
AcDbEntity
  8
TEXT_BUBBLES
100
AcDbBlockReference
 66
     1
  2
bubble
 10
5.79231857259282
 20
5.224928090496154
 30
0.0
  0
ATTRIB
  5
19C8
330
19C7
100
AcDbEntity
  8
TEXT_BUBBLES
100
AcDbText
 10
5.73279476306901
 20
5.162428090496154
 30
0.0
 40
0.125
  1
7
  7
ROMANS
 72
     4
 11
5.79231857259282
 21
5.224928090496154
 31
0.0
100
AcDbAttribute
  2
XX
 70
     0
  0
SEQEND
  5
19C9
330
19C7
100
AcDbEntity
  8
TEXT_BUBBLES
  0
INSERT
  5
19CC
330
18
100
AcDbEntity
  8
TEXT_BUBBLES
100
AcDbBlockReference
 66
     1
  2
bubble
 10
5.79231857259282
 20
4.912320865031015
 30
0.0
  0
ATTRIB
  5
19CD
330
19CC
100
AcDbEntity
  8
TEXT_BUBBLES
100
AcDbText
 10
5.73279476306901
 20
4.849820865031015
 30
0.0
 40
0.125
  1
8
  7
ROMANS
 72
     4
 11
5.79231857259282
 21
4.912320865031015
 31
0.0
100
AcDbAttribute
  2
XX
 70
     0
  0
SEQEND
  5
19CE
330
19CC
100
AcDbEntity
  8
TEXT_BUBBLES
  0
LEADER
  5
19FB
330
18
100
AcDbEntity
  8
TEXT_BUBBLES
100
AcDbLeader
  3
STANDARD
 76
     2
 10
4.212837713929353
 20
4.913694422921875
 30
0.0
 10
5.652436130731272
 20
4.913694422921875
 30
0.0
  0
LEADER
  5
19FC
330
18
100
AcDbEntity
  8
TEXT_BUBBLES
100
AcDbLeader
  3
STANDARD
 76
     2
 10
4.581601896641768
 20
5.226301648387014
 30
0.0
 10
5.652436130731272
 20
5.226301648387014
 30
0.0
  0
LEADER
  5
19FD
330
18
100
AcDbEntity
  8
TEXT_BUBBLES
100
AcDbLeader
  3
STANDARD
 76
     2
 10
7.1876291460061
 20
6.339209869577471
 30
0.0
 10
7.528740061502473
 20
6.547051827416611
 30
0.0
  0
LEADER
  5
19FE
330
18
100
AcDbEntity
  8
TEXT_BUBBLES
100
AcDbLeader
  3
STANDARD
 76
     2
 10
5.16373052843313
 20
5.910095192613343
 30
0.0
 10
5.64241433254516
 20
5.910095192613343
 30
0.0
  0
LEADER
  5
19FF
330
18
100
AcDbEntity
  8
TEXT_BUBBLES
100
AcDbLeader
  3
STANDARD
 76
     2
 10
3.732402709068502
 20
7.10891906233468
 30
0.0
 10
3.127172053342254
 20
6.73963971863276
 30
0.0
  0
LEADER
  5
1A00
330
18
100
AcDbEntity
  8
TEXT_BUBBLES
100
AcDbLeader
  3
STANDARD
 76
     2
 10
5.053878801187861
 20
5.562354412000172
 30
0.0
 10
5.652436130731272
 20
5.562354412000172
 30
0.0
  0
LEADER
  5
1A01
330
18
100
AcDbEntity
  8
TEXT_BUBBLES
100
AcDbLeader
  3
STANDARD
 76
     2
 10
5.306384420207802
 20
4.096630511783359
 30
0.0
 10
5.771693282958466
 20
4.096630511783359
 30
0.0
  0
LEADER
  5
1A02
330
18
100
AcDbEntity
  8
TEXT_BUBBLES
100
AcDbLeader
  3
STANDARD
 76
     2
 10
3.378772094784102
 20
7.486712940831898
 30
0.0
 10
2.784385024566614
 20
7.802969717010631
 30
0.0
  0
LEADER
  5
1A03
330
18
100
AcDbEntity
  8
TEXT_BUBBLES
100
AcDbLeader
  3
STANDARD
 76
     2
 10
5.9272953263067
 20
3.562231605354644
 30
0.0
 10
6.392604189057364
 20
3.562231605354644
 30
0.0
  0
ENDSEC
  0
SECTION
  2
OBJECTS
  0
DICTIONARY
  5
C
330
0
100
AcDbDictionary
281
     1
  3
ACAD_GROUP
350
D
  3
ACAD_LAYOUT
350
146E
  3
ACAD_MLINESTYLE
350
1B
  3
ACAD_PLOTSETTINGS
350
146F
  3
ACAD_PLOTSTYLENAME
350
146C
  3
AcDbVariableDictionary
350
147D
  0
DICTIONARY
  5
D
102
{ACAD_REACTORS
330
C
102
}
330
C
100
AcDbDictionary
281
     1
  0
DICTIONARY
  5
146E
102
{ACAD_REACTORS
330
C
102
}
330
C
100
AcDbDictionary
281
     1
  3
Layout1
350
1471
  3
Model
350
1470
  0
DICTIONARY
  5
1B
102
{ACAD_REACTORS
330
C
102
}
330
C
100
AcDbDictionary
281
     1
  3
STANDARD
350
1C
  0
DICTIONARY
  5
146F
102
{ACAD_REACTORS
330
C
102
}
330
C
100
AcDbDictionary
281
     1
  3
1055 B&W Full Shaded Draft
350
1880
  3
1055 B&W Full Shaded Final
350
1881
  3
1055 B&W Half Shaded Draft
350
1882
  3
1055 B&W Half Shaded Final
350
1883
  3
1055 Color Full Shaded Draft
350
1884
  3
1055 Color Full Shaded Final
350
1885
  3
1055 Color Half Shaded Draft
350
1886
  3
1055 Color Half Shaded Final
350
1887
  3
1055-B&W-Shaded-Draft
350
1888
  3
1055-B&W-Shaded-Final
350
1889
  3
1055-Color-Shaded-Draft
350
188A
  3
1055-Color-Shaded-Final
350
188B
  3
8500 B&W Shaded 11x17
350
188C
  3
8500 B&W Shaded 8.5x11
350
188D
  3
8500 Color Shaded 11x17
350
188E
  3
8500 Color Shaded 8.5x11
350
188F
  3
8500-B&W-Shaded-11x17
350
1890
  3
8500-B&W-Shaded-8.5x11
350
1891
  3
8500-Color-Shaded-11x17
350
1892
  3
8500-Color-Shaded-8.5x11
350
1893
  3
Laser Jet 5 Shaded 11x17
350
1894
  3
Laser Jet 5 Shaded 8.5x11
350
1895
  3
LaserJet5-Shaded-11x17
350
1896
  3
LaserJet5-Shaded-8.5x11
350
1897
  0
ACDBDICTIONARYWDFLT
  5
146C
102
{ACAD_REACTORS
330
C
102
}
330
C
100
AcDbDictionary
281
     1
  3
Normal
350
146D
100
AcDbDictionaryWithDefault
340
146D
  0
DICTIONARY
  5
147D
102
{ACAD_REACTORS
330
C
102
}
330
C
100
AcDbDictionary
281
     1
  3
DIMASSOC
350
147E
  3
SORTENTS
350
19F5
  0
LAYOUT
  5
1471
102
{ACAD_REACTORS
330
146E
102
}
330
146E
100
AcDbPlotSettings
  1

  2
S:\AutoCAD 2002\Plotters\1055ColorDraftShaded.pc3
  4

  6

 40
0.0
 41
0.0
 42
0.0
 43
0.0
 44
0.0
 45
0.0
 46
0.0
 47
0.0
 48
0.0
 49
0.0
140
0.0
141
0.0
142
1.0
143
1.0
 70
   688
 72
     0
 73
     0
 74
     5
  7
Black&White.ctb
 75
    16
147
1.0
148
0.0
149
0.0
100
AcDbLayout
  1
Layout1
 70
     1
 71
     1
 10
0.0
 20
0.0
 11
12.0
 21
9.0
 12
0.0
 22
0.0
 32
0.0
 14
1.000000000000000E+20
 24
1.000000000000000E+20
 34
1.000000000000000E+20
 15
-1.000000000000000E+20
 25
-1.000000000000000E+20
 35
-1.000000000000000E+20
146
0.0
 13
0.0
 23
0.0
 33
0.0
 16
1.0
 26
0.0
 36
0.0
 17
0.0
 27
1.0
 37
0.0
 76
     0
330
15
  0
LAYOUT
  5
1470
102
{ACAD_REACTORS
330
146E
102
}
330
146E
100
AcDbPlotSettings
  1

  2
8500ColorShaded.pc3
  4
11x17
  6
PS1
 40
5.027083396911621
 41
5.027085304260253
 42
5.027099609375
 43
5.027069091796875
 44
279.3999938964843
 45
431.7999877929687
 46
1.27
 47
0.0
 48
180360.0524337165
 49
80033.77936194791
140
180369.1574725906
141
80037.61796031875
142
1.0
143
0.993245450342745
 70
 11956
 72
     0
 73
     1
 74
     1
  7
8500ColorShaded.ctb
 75
     0
147
1.006800483863202
148
0.0255631607826849
149
0.0161843176817441
100
AcDbLayout
  1
Model
 70
     1
 71
     0
 10
0.0
 20
0.0
 11
12.0
 21
9.0
 12
0.0
 22
0.0
 32
0.0
 14
0.0
 24
0.0
 34
0.0
 15
0.0
 25
0.0
 35
0.0
146
0.0
 13
0.0
 23
0.0
 33
0.0
 16
1.0
 26
0.0
 36
0.0
 17
0.0
 27
1.0
 37
0.0
 76
     0
330
18
  0
MLINESTYLE
  5
1C
102
{ACAD_REACTORS
330
1B
102
}
330
1B
100
AcDbMlineStyle
  2
STANDARD
 70
     0
  3

 62
   256
 51
90.0
 52
90.0
 71
     2
 49
0.5
 62
   256
  6
BYLAYER
 49
-0.5
 62
   256
  6
BYLAYER
  0
PLOTSETTINGS
  5
1880
102
{ACAD_REACTORS
330
146F
102
}
330
146F
100
AcDbPlotSettings
  1
1055 B&W Full Shaded Draft
  2
1055B&WDraftShaded.pc3
  4
User607
  6
PS1
 40
0.0
 41
0.0
 42
0.0
 43
0.0
 44
901.7000122070312
 45
1155.700073242187
 46
0.0
 47
0.0
 48
180377.877572
 49
80019.819395
140
180380.8390819999
141
80022.26069
142
1.0
143
1.0
 70
   688
 72
     0
 73
     2
 74
     5
  7
1055B&WFullDraftShaded.ctb
 75
    16
147
1.0
148
-4581114.014650871
149
-2032337.537636779
  0
PLOTSETTINGS
  5
1881
102
{ACAD_REACTORS
330
146F
102
}
330
146F
100
AcDbPlotSettings
  1
1055 B&W Full Shaded Final
  2
1055B&WFinalShaded.pc3
  4
User258
  6
PS1
 40
4.995333194732666
 41
8.297393798828125
 42
4.99530029296875
 43
8.29736328125
 44
761.9576416015624
 45
1066.757690429687
 46
0.0
 47
0.0
 48
180377.877572
 49
80019.819395
140
180380.8390819999
141
80022.26069
142
1.0
143
1.0
 70
   688
 72
     0
 73
     3
 74
     5
  7
1055B&WFullFinalShaded.ctb
 75
    16
147
1.0
148
-4581114.014650871
149
-2032337.537636779
  0
PLOTSETTINGS
  5
1882
102
{ACAD_REACTORS
330
146F
102
}
330
146F
100
AcDbPlotSettings
  1
1055 B&W Half Shaded Draft
  2
1055B&WDraftShaded.pc3
  4
User607
  6
PS1
 40
0.0
 41
0.0
 42
0.0
 43
0.0
 44
901.7000122070312
 45
1155.700073242187
 46
0.0
 47
0.0
 48
180377.877572
 49
80019.819395
140
180380.8390819999
141
80022.26069
142
1.0
143
2.0
 70
   688
 72
     0
 73
     2
 74
     5
  7
1055B&WHalfDraftShaded.ctb
 75
    17
147
0.5
148
-4581114.014650871
149
-2032337.537636779
  0
PLOTSETTINGS
  5
1883
102
{ACAD_REACTORS
330
146F
102
}
330
146F
100
AcDbPlotSettings
  1
1055 B&W Half Shaded Final
  2
1055B&WFinalShaded.pc3
  4
User258
  6
PS1
 40
4.995333194732666
 41
8.297393798828125
 42
4.99530029296875
 43
8.29736328125
 44
761.9576416015624
 45
1066.757690429687
 46
0.0
 47
0.0
 48
180377.877572
 49
80019.819395
140
180380.8390819999
141
80022.26069
142
1.0
143
2.0
 70
   688
 72
     0
 73
     3
 74
     5
  7
1055B&WHalfFinalShaded.ctb
 75
    17
147
0.5
148
-4581114.014650871
149
-2032337.537636779
  0
PLOTSETTINGS
  5
1884
102
{ACAD_REACTORS
330
146F
102
}
330
146F
100
AcDbPlotSettings
  1
1055 Color Full Shaded Draft
  2
1055ColorDraftShaded.pc3
  4
User607
  6
PS1
 40
0.0
 41
0.0
 42
0.0
 43
0.0
 44
901.7000122070312
 45
1155.700073242187
 46
0.0
 47
0.0
 48
180377.877572
 49
80019.819395
140
180380.8390819999
141
80022.26069
142
1.0
143
1.0
 70
   688
 72
     0
 73
     2
 74
     5
  7
1055ColorFullDraftShaded.ctb
 75
    16
147
1.0
148
-4581114.014650871
149
-2032337.537636779
  0
PLOTSETTINGS
  5
1885
102
{ACAD_REACTORS
330
146F
102
}
330
146F
100
AcDbPlotSettings
  1
1055 Color Full Shaded Final
  2
1055ColorFinalShaded.pc3
  4
User607
  6
PS1
 40
0.0
 41
0.0
 42
0.0
 43
0.0
 44
901.7000122070312
 45
1155.700073242187
 46
0.0
 47
0.0
 48
180377.877572
 49
80019.819395
140
180380.8390819999
141
80022.26069
142
1.0
143
1.0
 70
   688
 72
     0
 73
     2
 74
     5
  7
1055ColorFullFinalShaded.ctb
 75
    16
147
1.0
148
-4581114.014650871
149
-2032337.537636779
  0
PLOTSETTINGS
  5
1886
102
{ACAD_REACTORS
330
146F
102
}
330
146F
100
AcDbPlotSettings
  1
1055 Color Half Shaded Draft
  2
1055ColorDraftShaded.pc3
  4
User607
  6
PS1
 40
0.0
 41
0.0
 42
0.0
 43
0.0
 44
901.7000122070312
 45
1155.700073242187
 46
0.0
 47
0.0
 48
180377.877572
 49
80019.819395
140
180380.8390819999
141
80022.26069
142
1.0
143
1.0
 70
   688
 72
     0
 73
     2
 74
     5
  7
1055ColorHalfDraftShaded.ctb
 75
    16
147
1.0
148
-4581114.014650871
149
-2032337.537636779
  0
PLOTSETTINGS
  5
1887
102
{ACAD_REACTORS
330
146F
102
}
330
146F
100
AcDbPlotSettings
  1
1055 Color Half Shaded Final
  2
1055ColorFinalShaded.pc3
  4
User607
  6
PS1
 40
0.0
 41
0.0
 42
0.0
 43
0.0
 44
901.7000122070312
 45
1155.700073242187
 46
0.0
 47
0.0
 48
180377.877572
 49
80019.819395
140
180380.8390819999
141
80022.26069
142
1.0
143
1.0
 70
   688
 72
     0
 73
     2
 74
     5
  7
1055ColorHalfFinalShaded.ctb
 75
    16
147
1.0
148
-4581114.014650871
149
-2032337.537636779
  0
PLOTSETTINGS
  5
1888
102
{ACAD_REACTORS
330
146F
102
}
330
146F
100
AcDbPlotSettings
  1
1055-B&W-Shaded-Draft
  2
1055B&WDraftShaded.pc3
  4
User257
  6

 40
4.995333194732666
 41
8.297393798828125
 42
4.99530029296875
 43
8.29736328125
 44
901.6152954101562
 45
1155.615356445312
 46
0.0
 47
0.0
 48
180360.0524337165
 49
80033.77936194791
140
180369.1574725906
141
80037.61796031875
142
1.0
143
1.0
 70
  1712
 72
     0
 73
     1
 74
     4
  7
1055B&WFullDraftShaded.ctb
 75
    16
147
1.0
148
-4581145.331816398
149
-2032857.995793476
  0
PLOTSETTINGS
  5
1889
102
{ACAD_REACTORS
330
146F
102
}
330
146F
100
AcDbPlotSettings
  1
1055-B&W-Shaded-Final
  2
1055B&WFinalShaded.pc3
  4
User607
  6

 40
0.0
 41
0.0
 42
0.0
 43
0.0
 44
901.7000122070312
 45
1155.700073242187
 46
0.0
 47
0.0
 48
180360.0524337165
 49
80033.77936194791
140
180369.1574725906
141
80037.61796031875
142
1.0
143
1.0
 70
  1712
 72
     0
 73
     1
 74
     4
  7
1055B&WFullFinalShaded.ctb
 75
    16
147
1.0
148
-4581145.331816398
149
-2032857.995793476
  0
PLOTSETTINGS
  5
188A
102
{ACAD_REACTORS
330
146F
102
}
330
146F
100
AcDbPlotSettings
  1
1055-Color-Shaded-Draft
  2
1055ColorDraftShaded.pc3
  4
User257
  6

 40
4.995333194732666
 41
8.297393798828125
 42
4.99530029296875
 43
8.29736328125
 44
901.6152954101562
 45
1155.615356445312
 46
0.0
 47
0.0
 48
180360.0524337165
 49
80033.77936194791
140
180369.1574725906
141
80037.61796031875
142
1.0
143
1.0
 70
  1712
 72
     0
 73
     1
 74
     4
  7
1055ColorFullDraftShaded.ctb
 75
    16
147
1.0
148
-4581145.331816398
149
-2032857.995793476
  0
PLOTSETTINGS
  5
188B
102
{ACAD_REACTORS
330
146F
102
}
330
146F
100
AcDbPlotSettings
  1
1055-Color-Shaded-Final
  2
1055ColorDraftShaded.pc3
  4
User257
  6

 40
4.995333194732666
 41
8.297393798828125
 42
4.99530029296875
 43
8.29736328125
 44
901.6152954101562
 45
1155.615356445312
 46
0.0
 47
0.0
 48
180360.0524337165
 49
80033.77936194791
140
180369.1574725906
141
80037.61796031875
142
1.0
143
1.0
 70
  1712
 72
     0
 73
     1
 74
     4
  7
1055ColorFullFinalShaded.ctb
 75
    16
147
1.0
148
-4581145.331816398
149
-2032857.995793476
  0
PLOTSETTINGS
  5
188C
102
{ACAD_REACTORS
330
146F
102
}
330
146F
100
AcDbPlotSettings
  1
8500 B&W Shaded 11x17
  2
8500B&WShaded.pc3
  4
11x17
  6
PS1
 40
5.027083396911621
 41
5.027085304260253
 42
5.027099609375
 43
5.027069091796875
 44
279.3999938964843
 45
431.7999877929687
 46
0.0
 47
5.588
 48
180377.877572
 49
80019.819395
140
180380.8390819999
141
80022.26069
142
1.0
143
0.8480629150589166
 70
   692
 72
     0
 73
     1
 74
     0
  7
8500B&WShaded.ctb
 75
     0
147
1.179157798605694
148
-4581114.014650871
149
-2032337.537636779
  0
PLOTSETTINGS
  5
188D
102
{ACAD_REACTORS
330
146F
102
}
330
146F
100
AcDbPlotSettings
  1
8500 B&W Shaded 8.5x11
  2
8500B&WShaded.pc3
  4
Letter
  6
PS1
 40
5.027083396911621
 41
5.027085304260253
 42
5.027084350585937
 43
5.027069091796875
 44
215.8999938964843
 45
279.3999938964843
 46
14.47799999999999
 47
0.0
 48
180377.877572
 49
80019.819395
140
180380.8390819999
141
80022.26069
142
1.0
143
1.292286209488803
 70
   692
 72
     0
 73
     1
 74
     0
  7
8500B&WShaded.ctb
 75
     0
147
0.7738223875309912
148
-4581114.014650871
149
-2032337.537636779
  0
PLOTSETTINGS
  5
188E
102
{ACAD_REACTORS
330
146F
102
}
330
146F
100
AcDbPlotSettings
  1
8500 Color Shaded 11x17
  2
8500ColorShaded.pc3
  4
11x17
  6
PS1
 40
5.027083396911621
 41
5.027085304260253
 42
5.027099609375
 43
5.027069091796875
 44
279.3999938964843
 45
431.7999877929687
 46
0.0
 47
5.588
 48
180377.877572
 49
80019.819395
140
180380.8390819999
141
80022.26069
142
1.0
143
0.8480629150589166
 70
   692
 72
     0
 73
     1
 74
     0
  7
8500ColorShaded.ctb
 75
     0
147
1.179157798605694
148
-4581114.014650871
149
-2032337.537636779
  0
PLOTSETTINGS
  5
188F
102
{ACAD_REACTORS
330
146F
102
}
330
146F
100
AcDbPlotSettings
  1
8500 Color Shaded 8.5x11
  2
8500ColorShaded.pc3
  4
Letter
  6
PS1
 40
5.027083396911621
 41
5.027085304260253
 42
5.027084350585937
 43
5.027069091796875
 44
215.8999938964843
 45
279.3999938964843
 46
14.47799999999999
 47
0.0
 48
180377.877572
 49
80019.819395
140
180380.8390819999
141
80022.26069
142
1.0
143
1.292286209488803
 70
   692
 72
     0
 73
     1
 74
     0
  7
8500ColorShaded.ctb
 75
     0
147
0.7738223875309912
148
-4581114.014650871
149
-2032337.537636779
  0
PLOTSETTINGS
  5
1890
102
{ACAD_REACTORS
330
146F
102
}
330
146F
100
AcDbPlotSettings
  1
8500-B&W-Shaded-11x17
  2
8500B&WShaded.pc3
  4
11x17
  6

 40
5.027083396911621
 41
5.027085304260253
 42
5.027099609375
 43
5.027069091796875
 44
279.3999938964843
 45
431.7999877929687
 46
0.0
 47
0.0
 48
180360.0524337165
 49
80033.77936194791
140
180369.1574725906
141
80037.61796031875
142
1.0
143
4.787622939151733
 70
  1712
 72
     0
 73
     1
 74
     0
  7
8500B&WShaded.ctb
 75
     0
147
0.2088719209322652
148
-4580581.320935756
149
-2032339.826086972
  0
PLOTSETTINGS
  5
1891
102
{ACAD_REACTORS
330
146F
102
}
330
146F
100
AcDbPlotSettings
  1
8500-B&W-Shaded-8.5x11
  2
8500B&WShaded.pc3
  4
Letter
  6

 40
5.027083396911621
 41
5.027085304260253
 42
5.027084350585937
 43
5.027069091796875
 44
215.8999938964843
 45
279.3999938964843
 46
0.0
 47
0.0
 48
180360.0524337165
 49
80033.77936194791
140
180369.1574725906
141
80037.61796031875
142
1.0
143
1.400341199009821
 70
  1712
 72
     0
 73
     1
 74
     0
  7
8500B&WShaded.ctb
 75
     0
147
0.7141116755738516
148
0.0
149
0.0
  0
PLOTSETTINGS
  5
1892
102
{ACAD_REACTORS
330
146F
102
}
330
146F
100
AcDbPlotSettings
  1
8500-Color-Shaded-11x17
  2
8500ColorShaded.pc3
  4
11x17
  6

 40
5.027083396911621
 41
5.027085304260253
 42
5.027099609375
 43
5.027069091796875
 44
279.3999938964843
 45
431.7999877929687
 46
0.0
 47
0.0
 48
180360.0524337165
 49
80033.77936194791
140
180369.1574725906
141
80037.61796031875
142
1.0
143
4.787622939151733
 70
  1712
 72
     0
 73
     1
 74
     0
  7
8500ColorShaded.ctb
 75
     0
147
0.2088719209322652
148
-4580581.320935756
149
-2032339.826086972
  0
PLOTSETTINGS
  5
1893
102
{ACAD_REACTORS
330
146F
102
}
330
146F
100
AcDbPlotSettings
  1
8500-Color-Shaded-8.5x11
  2
8500ColorShaded.pc3
  4
Letter
  6

 40
5.027083396911621
 41
5.027085304260253
 42
5.027084350585937
 43
5.027069091796875
 44
215.8999938964843
 45
279.3999938964843
 46
0.0
 47
0.0
 48
180360.0524337165
 49
80033.77936194791
140
180369.1574725906
141
80037.61796031875
142
1.0
143
1.400341199009821
 70
  1712
 72
     0
 73
     1
 74
     0
  7
8500ColorShaded.ctb
 75
     0
147
0.7141116755738516
148
0.0
149
0.0
  0
PLOTSETTINGS
  5
1894
102
{ACAD_REACTORS
330
146F
102
}
330
146F
100
AcDbPlotSettings
  1
Laser Jet 5 Shaded 11x17
  2
LaserJet5Shaded.pc3
  4
11x17
  6
PS1
 40
7.143749713897705
 41
5.873736858367919
 42
7.143768310546875
 43
7.14373779296875
 44
279.3999938964843
 45
431.7999877929687
 46
0.0
 47
7.365999999999998
 48
180377.877572
 49
80019.819395
140
180380.8390819999
141
80022.26069
142
1.0
143
0.8616048444762743
 70
   692
 72
     0
 73
     1
 74
     0
  7
LaserJet5Shaded.ctb
 75
     0
147
1.160624857683859
148
-4581114.014650871
149
-2032337.537636779
  0
PLOTSETTINGS
  5
1895
102
{ACAD_REACTORS
330
146F
102
}
330
146F
100
AcDbPlotSettings
  1
Laser Jet 5 Shaded 8.5x11
  2
LaserJet5Shaded.pc3
  4
Letter
  6
PS1
 40
7.143749713897705
 41
6.974400997161865
 42
7.14373779296875
 43
6.297088623046875
 44
215.8999938964843
 45
279.3999938964843
 46
13.462
 47
0.0
 48
180377.877572
 49
80019.819395
140
180380.8390819999
141
80022.26069
142
1.0
143
1.307909180627428
 70
   692
 72
     0
 73
     1
 74
     0
  7
LaserJet5Shaded.ctb
 75
     0
147
0.7645790814927086
148
-4581114.014650871
149
-2032337.537636779
  0
PLOTSETTINGS
  5
1896
102
{ACAD_REACTORS
330
146F
102
}
330
146F
100
AcDbPlotSettings
  1
LaserJet5-Shaded-11x17
  2
LaserJet5Shaded.pc3
  4
11x17
  6

 40
7.143749713897705
 41
5.873736858367919
 42
7.143768310546875
 43
7.14373779296875
 44
279.3999938964843
 45
431.7999877929687
 46
0.0
 47
0.0
 48
180360.0524337165
 49
80033.77936194791
140
180369.1574725906
141
80037.61796031875
142
1.0
143
4.864072045424008
 70
  1712
 72
     0
 73
     1
 74
     0
  7
LaserJet5Shaded.ctb
 75
     0
147
0.205589060084086
148
-4580581.320935756
149
-2032339.826086972
  0
PLOTSETTINGS
  5
1897
102
{ACAD_REACTORS
330
146F
102
}
330
146F
100
AcDbPlotSettings
  1
LaserJet5-Shaded-8.5x11
  2
LaserJet5Shaded.pc3
  4
Letter
  6

 40
7.143749713897705
 41
6.974400997161865
 42
7.14373779296875
 43
6.297088623046875
 44
215.8999938964843
 45
279.3999938964843
 46
0.0
 47
0.0
 48
180360.0524337165
 49
80033.77936194791
140
180369.1574725906
141
80037.61796031875
142
1.0
143
1.417270490660323
 70
  1712
 72
     0
 73
     1
 74
     0
  7
LaserJet5Shaded.ctb
 75
     0
147
0.7055816138061886
148
0.0
149
0.0
  0
ACDBPLACEHOLDER
  5
146D
102
{ACAD_REACTORS
330
146C
102
}
330
146C
  0
DICTIONARYVAR
  5
147E
102
{ACAD_REACTORS
330
147D
102
}
330
147D
100
DictionaryVariables
280
     0
  1
1
  0
DICTIONARYVAR
  5
19F5
102
{ACAD_REACTORS
330
147D
102
}
330
147D
100
DictionaryVariables
280
     0
  1
1
  0
ENDSEC
  0
EOF
