  0
SECTION
  2
HEADER
  9
$ACADVER
  1
AC1018
  9
$ACADMAINTVER
 70
   104
  9
$DWGCODEPAGE
  3
ANSI_1252
  9
$TITLE
  1
O:\RAINBIRD\SpecDraw 2006\MDC\DWG\SENSDEC.DWG
  9
$SUBJECT
  1
 
  9
$AUTHOR
  1
dweyer
  9
$COMMENTS
  1
This drawing was opened and saved by 'dweyer' with AutoCAD version 16.1s (LMS Tech) using profile WatermarkID on 12-21-2005 @ 16:03:PM
  9
$LASTSAVEDBY
  1
dweyer
  9
$INSBASE
 10
0.1225034467745107
 20
2.125109839956107
 30
0.0
  9
$EXTMIN
 10
0.0
 20
0.0
 30
0.0
  9
$EXTMAX
 10
16.48999999999999
 20
10.44
 30
0.03
  9
$LIMMIN
 10
0.0
 20
0.0
  9
$LIMMAX
 10
8.5
 20
11.0
  9
$ORTHOMODE
 70
     0
  9
$REGENMODE
 70
     1
  9
$FILLMODE
 70
     1
  9
$QTEXTMODE
 70
     0
  9
$MIRRTEXT
 70
     0
  9
$LTSCALE
 40
1.0
  9
$ATTMODE
 70
     1
  9
$TEXTSIZE
 40
0.125
  9
$TRACEWID
 40
0.05
  9
$TEXTSTYLE
  7
ROMANS
  9
$CLAYER
  8
image
  9
$CELTYPE
  6
BYLAYER
  9
$CECOLOR
 62
   256
  9
$CELTSCALE
 40
1.0
  9
$DISPSILH
 70
     0
  9
$DIMSCALE
 40
1.0
  9
$DIMASZ
 40
0.18
  9
$DIMEXO
 40
0.0625
  9
$DIMDLI
 40
0.3799999999999999
  9
$DIMRND
 40
0.0
  9
$DIMDLE
 40
0.0
  9
$DIMEXE
 40
0.125
  9
$DIMTP
 40
0.0
  9
$DIMTM
 40
0.0
  9
$DIMTXT
 40
0.125
  9
$DIMCEN
 40
0.09
  9
$DIMTSZ
 40
0.0
  9
$DIMTOL
 70
     0
  9
$DIMLIM
 70
     0
  9
$DIMTIH
 70
     1
  9
$DIMTOH
 70
     1
  9
$DIMSE1
 70
     0
  9
$DIMSE2
 70
     0
  9
$DIMTAD
 70
     0
  9
$DIMZIN
 70
     0
  9
$DIMBLK
  1

  9
$DIMASO
 70
     0
  9
$DIMSHO
 70
     0
  9
$DIMPOST
  1

  9
$DIMAPOST
  1

  9
$DIMALT
 70
     0
  9
$DIMALTD
 70
     2
  9
$DIMALTF
 40
25.4
  9
$DIMLFAC
 40
1.0
  9
$DIMTOFL
 70
     0
  9
$DIMTVP
 40
0.0
  9
$DIMTIX
 70
     0
  9
$DIMSOXD
 70
     0
  9
$DIMSAH
 70
     0
  9
$DIMBLK1
  1

  9
$DIMBLK2
  1

  9
$DIMSTYLE
  2
STANDARD
  9
$DIMCLRD
 70
   256
  9
$DIMCLRE
 70
   256
  9
$DIMCLRT
 70
   256
  9
$DIMTFAC
 40
1.0
  9
$DIMGAP
 40
0.09
  9
$DIMJUST
 70
     0
  9
$DIMSD1
 70
     0
  9
$DIMSD2
 70
     0
  9
$DIMTOLJ
 70
     1
  9
$DIMTZIN
 70
     0
  9
$DIMALTZ
 70
     0
  9
$DIMALTTZ
 70
     0
  9
$DIMUPT
 70
     0
  9
$DIMDEC
 70
     4
  9
$DIMTDEC
 70
     4
  9
$DIMALTU
 70
     2
  9
$DIMALTTD
 70
     2
  9
$DIMTXSTY
  7
STANDARD
  9
$DIMAUNIT
 70
     0
  9
$DIMADEC
 70
     0
  9
$DIMALTRND
 40
0.0
  9
$DIMAZIN
 70
     0
  9
$DIMDSEP
 70
    46
  9
$DIMATFIT
 70
     3
  9
$DIMFRAC
 70
     0
  9
$DIMLDRBLK
  1

  9
$DIMLUNIT
 70
     2
  9
$DIMLWD
 70
    -1
  9
$DIMLWE
 70
    -1
  9
$DIMTMOVE
 70
     0
  9
$LUNITS
 70
     2
  9
$LUPREC
 70
     3
  9
$SKETCHINC
 40
0.1
  9
$FILLETRAD
 40
0.0
  9
$AUNITS
 70
     0
  9
$AUPREC
 70
     0
  9
$MENU
  1
c:\acad13nt\win\SUPPORT\ACAD
  9
$ELEVATION
 40
0.0
  9
$PELEVATION
 40
0.0
  9
$THICKNESS
 40
0.0
  9
$LIMCHECK
 70
     0
  9
$CHAMFERA
 40
0.0
  9
$CHAMFERB
 40
0.0
  9
$CHAMFERC
 40
0.0
  9
$CHAMFERD
 40
0.0
  9
$SKPOLY
 70
     0
  9
$TDCREATE
 40
2448656.376037384
  9
$TDUCREATE
 40
2448656.667704051
  9
$TDUPDATE
 40
2455575.513616273
  9
$TDUUPDATE
 40
2455575.805282940
  9
$TDINDWG
 40
0.3358595023
  9
$TDUSRTIMER
 40
0.3358595023
  9
$USRTIMER
 70
     1
  9
$ANGBASE
 50
0.0
  9
$ANGDIR
 70
     0
  9
$PDMODE
 70
     0
  9
$PDSIZE
 40
0.0
  9
$PLINEWID
 40
0.0
  9
$SPLFRAME
 70
     0
  9
$SPLINETYPE
 70
     6
  9
$SPLINESEGS
 70
     8
  9
$HANDSEED
  5
196E
  9
$SURFTAB1
 70
     6
  9
$SURFTAB2
 70
     6
  9
$SURFTYPE
 70
     6
  9
$SURFU
 70
     6
  9
$SURFV
 70
     6
  9
$UCSBASE
  2

  9
$UCSNAME
  2

  9
$UCSORG
 10
0.0
 20
0.0
 30
0.0
  9
$UCSXDIR
 10
1.0
 20
0.0
 30
0.0
  9
$UCSYDIR
 10
0.0
 20
1.0
 30
0.0
  9
$UCSORTHOREF
  2

  9
$UCSORTHOVIEW
 70
     0
  9
$UCSORGTOP
 10
0.0
 20
0.0
 30
0.0
  9
$UCSORGBOTTOM
 10
0.0
 20
0.0
 30
0.0
  9
$UCSORGLEFT
 10
0.0
 20
0.0
 30
0.0
  9
$UCSORGRIGHT
 10
0.0
 20
0.0
 30
0.0
  9
$UCSORGFRONT
 10
0.0
 20
0.0
 30
0.0
  9
$UCSORGBACK
 10
0.0
 20
0.0
 30
0.0
  9
$PUCSBASE
  2

  9
$PUCSNAME
  2

  9
$PUCSORG
 10
0.0
 20
0.0
 30
0.0
  9
$PUCSXDIR
 10
1.0
 20
0.0
 30
0.0
  9
$PUCSYDIR
 10
0.0
 20
1.0
 30
0.0
  9
$PUCSORTHOREF
  2

  9
$PUCSORTHOVIEW
 70
     0
  9
$PUCSORGTOP
 10
0.0
 20
0.0
 30
0.0
  9
$PUCSORGBOTTOM
 10
0.0
 20
0.0
 30
0.0
  9
$PUCSORGLEFT
 10
0.0
 20
0.0
 30
0.0
  9
$PUCSORGRIGHT
 10
0.0
 20
0.0
 30
0.0
  9
$PUCSORGFRONT
 10
0.0
 20
0.0
 30
0.0
  9
$PUCSORGBACK
 10
0.0
 20
0.0
 30
0.0
  9
$USERI1
 70
     0
  9
$USERI2
 70
     0
  9
$USERI3
 70
     0
  9
$USERI4
 70
     0
  9
$USERI5
 70
     0
  9
$USERR1
 40
0.0
  9
$USERR2
 40
0.0
  9
$USERR3
 40
0.0
  9
$USERR4
 40
0.0
  9
$USERR5
 40
0.0
  9
$WORLDVIEW
 70
     1
  9
$SHADEDGE
 70
     3
  9
$SHADEDIF
 70
    70
  9
$TILEMODE
 70
     1
  9
$MAXACTVP
 70
    16
  9
$PINSBASE
 10
0.0
 20
0.0
 30
0.0
  9
$PLIMCHECK
 70
     0
  9
$PEXTMIN
 10
1.000000000000000E+20
 20
1.000000000000000E+20
 30
1.000000000000000E+20
  9
$PEXTMAX
 10
-1.000000000000000E+20
 20
-1.000000000000000E+20
 30
-1.000000000000000E+20
  9
$PLIMMIN
 10
0.0
 20
0.0
  9
$PLIMMAX
 10
12.0
 20
9.0
  9
$UNITMODE
 70
     0
  9
$VISRETAIN
 70
     0
  9
$PLINEGEN
 70
     1
  9
$PSLTSCALE
 70
     0
  9
$TREEDEPTH
 70
 -3020
  9
$CMLSTYLE
  2
STANDARD
  9
$CMLJUST
 70
     0
  9
$CMLSCALE
 40
1.0
  9
$PROXYGRAPHICS
 70
     1
  9
$MEASUREMENT
 70
     0
  9
$CELWEIGHT
370
    -1
  9
$ENDCAPS
280
     0
  9
$JOINSTYLE
280
     0
  9
$LWDISPLAY
290
     0
  9
$INSUNITS
 70
     0
  9
$HYPERLINKBASE
  1
www.aquaengineering.com
  9
$STYLESHEET
  1
OKIColorShaded.ctb
  9
$XEDIT
290
     1
  9
$CEPSNTYPE
380
     0
  9
$PSTYLEMODE
290
     1
  9
$FINGERPRINTGUID
  2
{A4923F29-6CA9-4619-A2B7-DA9F8BAD7873}
  9
$VERSIONGUID
  2
{A352410B-8635-4F2D-9475-F5C7043F0DB9}
  9
$EXTNAMES
290
     1
  9
$PSVPSCALE
 40
0.0
  9
$OLESTARTUP
290
     1
  9
$SORTENTS
280
    48
  9
$INDEXCTL
280
     0
  9
$HIDETEXT
280
     0
  9
$XCLIPFRAME
290
     0
  9
$HALOGAP
280
     0
  9
$OBSCOLOR
 70
   257
  9
$OBSLTYPE
280
     0
  9
$INTERSECTIONDISPLAY
280
     0
  9
$INTERSECTIONCOLOR
 70
   257
  9
$DIMASSOC
280
     1
  9
$PROJECTNAME
  1

  0
ENDSEC
  0
SECTION
  2
CLASSES
  0
CLASS
  1
ACDBDICTIONARYWDFLT
  2
AcDbDictionaryWithDefault
  3
ObjectDBX Classes
 90
        0
 91
        1
280
     0
281
     0
  0
CLASS
  1
DICTIONARYVAR
  2
AcDbDictionaryVar
  3
ObjectDBX Classes
 90
        0
 91
       11
280
     0
281
     0
  0
CLASS
  1
PLOTSETTINGS
  2
AcDbPlotSettings
  3
ObjectDBX Classes
 90
        0
 91
       24
280
     0
281
     0
  0
CLASS
  1
TABLESTYLE
  2
AcDbTableStyle
  3
ObjectDBX Classes
 90
     4095
 91
        1
280
     0
281
     0
  0
CLASS
  1
MATERIAL
  2
AcDbMaterial
  3
ObjectDBX Classes
 90
     1153
 91
        3
280
     0
281
     0
  0
CLASS
  1
VISUALSTYLE
  2
AcDbVisualStyle
  3
ObjectDBX Classes
 90
     4095
 91
       16
280
     0
281
     0
  0
CLASS
  1
SCALE
  2
AcDbScale
  3
ObjectDBX Classes
 90
     1153
 91
       33
280
     0
281
     0
  0
CLASS
  1
MLEADERSTYLE
  2
AcDbMLeaderStyle
  3
ACDB_MLEADERSTYLE_CLASS
 90
     4095
 91
        1
280
     0
281
     0
  0
CLASS
  1
EXACXREFPANELOBJECT
  2
ExAcXREFPanelObject
  3
EXAC_ESW
 90
     1025
 91
        0
280
     0
281
     0
  0
CLASS
  1
NPOCOLLECTION
  2
AcDbImpNonPersistentObjectsCollection
  3
ObjectDBX Classes
 90
     1153
 91
        0
280
     0
281
     0
  0
CLASS
  1
CELLSTYLEMAP
  2
AcDbCellStyleMap
  3
ObjectDBX Classes
 90
     1152
 91
        6
280
     0
281
     0
  0
CLASS
  1
SORTENTSTABLE
  2
AcDbSortentsTable
  3
ObjectDBX Classes
 90
        0
 91
        2
280
     0
281
     0
  0
ENDSEC
  0
SECTION
  2
TABLES
  0
TABLE
  2
VPORT
  5
8
330
0
100
AcDbSymbolTable
 70
     1
  0
VPORT
  5
180A
330
8
100
AcDbSymbolTableRecord
100
AcDbViewportTableRecord
  2
*Active
 70
     0
 10
0.0
 20
0.0
 11
1.0
 21
1.0
 12
8.244999999999997
 22
5.219999999999999
 13
0.0
 23
0.0
 14
1.0
 24
1.0
 15
0.0
 25
0.0
 16
0.0
 26
0.0
 36
1.0
 17
0.0
 27
0.0
 37
0.0
 40
10.53157894736842
 41
2.281112737920937
 42
50.0
 43
0.0
 44
0.0
 50
0.0
 51
0.0
 71
     0
 72
  1000
 73
     1
 74
     0
 75
     0
 76
     0
 77
     0
 78
     0
281
     0
 65
     1
110
0.0
120
0.0
130
0.0
111
1.0
121
0.0
131
0.0
112
0.0
122
1.0
132
0.0
 79
     0
146
0.0
  0
ENDTAB
  0
TABLE
  2
LTYPE
  5
5
330
0
100
AcDbSymbolTable
 70
     1
  0
LTYPE
  5
12
330
5
100
AcDbSymbolTableRecord
100
AcDbLinetypeTableRecord
  2
BYBLOCK
 70
     0
  3

 72
    65
 73
     0
 40
0.0
  0
LTYPE
  5
13
330
5
100
AcDbSymbolTableRecord
100
AcDbLinetypeTableRecord
  2
BYLAYER
 70
     0
  3

 72
    65
 73
     0
 40
0.0
  0
LTYPE
  5
14
330
5
100
AcDbSymbolTableRecord
100
AcDbLinetypeTableRecord
  2
CONTINUOUS
 70
     0
  3
Solid line
 72
    65
 73
     0
 40
0.0
  0
ENDTAB
  0
TABLE
  2
LAYER
  5
2
102
{ACAD_XDICTIONARY
360
174A
102
}
330
0
100
AcDbSymbolTable
 70
     4
  0
LAYER
  5
F
330
2
100
AcDbSymbolTableRecord
100
AcDbLayerTableRecord
  2
0
 70
     0
 62
     7
  6
CONTINUOUS
370
    -3
390
21B
  0
LAYER
  5
3AC
330
2
100
AcDbSymbolTableRecord
100
AcDbLayerTableRecord
  2
text_bubbles
 70
     0
 62
     6
  6
CONTINUOUS
370
    -3
390
21B
  0
LAYER
  5
3AD
330
2
100
AcDbSymbolTableRecord
100
AcDbLayerTableRecord
  2
image
 70
     0
 62
     7
  6
CONTINUOUS
370
    -3
390
21B
  0
LAYER
  5
17BC
330
2
100
AcDbSymbolTableRecord
100
AcDbLayerTableRecord
  2
title
 70
     0
 62
     4
  6
CONTINUOUS
370
    -3
390
21B
  0
ENDTAB
  0
TABLE
  2
STYLE
  5
3
330
0
100
AcDbSymbolTable
 70
     6
  0
STYLE
  5
10
330
3
100
AcDbSymbolTableRecord
100
AcDbTextStyleTableRecord
  2
STANDARD
 70
     0
 40
0.0
 41
1.0
 50
0.0
 71
     0
 42
0.2
  3
TXT
  4

  0
STYLE
  5
1F
330
3
100
AcDbSymbolTableRecord
100
AcDbTextStyleTableRecord
  2
SIMPLEX
 70
     0
 40
0.0
 41
1.0
 50
0.0
 71
     0
 42
0.125
  3
SIMPLEX
  4

  0
STYLE
  5
31A
330
3
100
AcDbSymbolTableRecord
100
AcDbTextStyleTableRecord
  2
ROMANS
 70
     0
 40
0.0
 41
1.0
 50
0.0
 71
     0
 42
0.125
  3
romans.shx
  4

  0
STYLE
  5
17BD
330
3
100
AcDbSymbolTableRecord
100
AcDbTextStyleTableRecord
  2
L100
 70
     0
 40
0.1
 41
1.0
 50
0.0
 71
     0
 42
0.1
  3
romans.shx
  4

  0
STYLE
  5
17BE
330
3
100
AcDbSymbolTableRecord
100
AcDbTextStyleTableRecord
  2
L200
 70
     0
 40
0.2
 41
1.0
 50
0.0
 71
     0
 42
0.081
  3
ARIAL.TTF
  4

1001
ACAD
1000
Arial
1071
       34
  0
STYLE
  5
17BF
330
3
100
AcDbSymbolTableRecord
100
AcDbTextStyleTableRecord
  2
L80
 70
     0
 40
0.08
 41
1.0
 50
0.0
 71
     0
 42
0.08
  3
ROMANS
  4

  0
ENDTAB
  0
TABLE
  2
VIEW
  5
6
330
0
100
AcDbSymbolTable
 70
     0
  0
ENDTAB
  0
TABLE
  2
UCS
  5
7
330
0
100
AcDbSymbolTable
 70
     0
  0
ENDTAB
  0
TABLE
  2
APPID
  5
9
330
0
100
AcDbSymbolTable
 70
    38
  0
APPID
  5
11
330
9
100
AcDbSymbolTableRecord
100
AcDbRegAppTableRecord
  2
ACAD
 70
     0
  0
APPID
  5
31E
330
9
100
AcDbSymbolTableRecord
100
AcDbRegAppTableRecord
  2
WID_Sprinkler
 70
     0
  0
APPID
  5
31F
330
9
100
AcDbSymbolTableRecord
100
AcDbRegAppTableRecord
  2
WID_Valve
 70
     0
  0
APPID
  5
320
330
9
100
AcDbSymbolTableRecord
100
AcDbRegAppTableRecord
  2
WID_Fitting
 70
     0
  0
APPID
  5
321
330
9
100
AcDbSymbolTableRecord
100
AcDbRegAppTableRecord
  2
WID_HPNode
 70
     0
  0
APPID
  5
322
330
9
100
AcDbSymbolTableRecord
100
AcDbRegAppTableRecord
  2
WID_Node
 70
     0
  0
APPID
  5
323
330
9
100
AcDbSymbolTableRecord
100
AcDbRegAppTableRecord
  2
WID_Conduit
 70
     0
  0
APPID
  5
324
330
9
100
AcDbSymbolTableRecord
100
AcDbRegAppTableRecord
  2
WID_SprinklerSection
 70
     0
  0
APPID
  5
325
330
9
100
AcDbSymbolTableRecord
100
AcDbRegAppTableRecord
  2
WID_MainLineSection
 70
     0
  0
APPID
  5
326
330
9
100
AcDbSymbolTableRecord
100
AcDbRegAppTableRecord
  2
WID_ManifoldSection
 70
     0
  0
APPID
  5
327
330
9
100
AcDbSymbolTableRecord
100
AcDbRegAppTableRecord
  2
WID_DripSection
 70
     0
  0
APPID
  5
328
330
9
100
AcDbSymbolTableRecord
100
AcDbRegAppTableRecord
  2
WID_HPSection
 70
     0
  0
APPID
  5
329
330
9
100
AcDbSymbolTableRecord
100
AcDbRegAppTableRecord
  2
WID_Sleeve
 70
     0
  0
APPID
  5
32A
330
9
100
AcDbSymbolTableRecord
100
AcDbRegAppTableRecord
  2
WID_Layout
 70
     0
  0
APPID
  5
32B
330
9
100
AcDbSymbolTableRecord
100
AcDbRegAppTableRecord
  2
WID_Island
 70
     0
  0
APPID
  5
32C
330
9
100
AcDbSymbolTableRecord
100
AcDbRegAppTableRecord
  2
WID_Controller
 70
     0
  0
APPID
  5
32D
330
9
100
AcDbSymbolTableRecord
100
AcDbRegAppTableRecord
  2
WID_SprinklerLateral
 70
     0
  0
APPID
  5
32E
330
9
100
AcDbSymbolTableRecord
100
AcDbRegAppTableRecord
  2
WID_HPDripLateral
 70
     0
  0
APPID
  5
32F
330
9
100
AcDbSymbolTableRecord
100
AcDbRegAppTableRecord
  2
WID_LabelPipeSize
 70
     0
  0
APPID
  5
330
330
9
100
AcDbSymbolTableRecord
100
AcDbRegAppTableRecord
  2
WID_LabelPipeSegment
 70
     0
  0
APPID
  5
331
330
9
100
AcDbSymbolTableRecord
100
AcDbRegAppTableRecord
  2
WID_LabelValveDesignator
 70
     0
  0
APPID
  5
332
330
9
100
AcDbSymbolTableRecord
100
AcDbRegAppTableRecord
  2
WID_CheckArc
 70
     0
  0
APPID
  5
333
330
9
100
AcDbSymbolTableRecord
100
AcDbRegAppTableRecord
  2
WID_ObjectType
 70
     0
  0
APPID
  5
334
330
9
100
AcDbSymbolTableRecord
100
AcDbRegAppTableRecord
  2
WID_DripLateral
 70
     0
  0
APPID
  5
335
330
9
100
AcDbSymbolTableRecord
100
AcDbRegAppTableRecord
  2
ABNSLEADERTOOLS
 70
     0
  0
APPID
  5
336
330
9
100
AcDbSymbolTableRecord
100
AcDbRegAppTableRecord
  2
RAK
 70
     0
  0
APPID
  5
337
330
9
100
AcDbSymbolTableRecord
100
AcDbRegAppTableRecord
  2
DCO15
 70
     0
  0
APPID
  5
3B2
330
9
100
AcDbSymbolTableRecord
100
AcDbRegAppTableRecord
  2
TCAD
 70
     0
  0
APPID
  5
17F8
330
9
100
AcDbSymbolTableRecord
100
AcDbRegAppTableRecord
  2
BBSI_PltSel
 70
     0
  0
APPID
  5
17F9
330
9
100
AcDbSymbolTableRecord
100
AcDbRegAppTableRecord
  2
BBSI_Plots
 70
     0
  0
APPID
  5
17FA
330
9
100
AcDbSymbolTableRecord
100
AcDbRegAppTableRecord
  2
BBSI_Bookmarks
 70
     0
  0
APPID
  5
17FB
330
9
100
AcDbSymbolTableRecord
100
AcDbRegAppTableRecord
  2
BBSI_StampsEx
 70
     0
  0
APPID
  5
17FC
330
9
100
AcDbSymbolTableRecord
100
AcDbRegAppTableRecord
  2
BBSI_Attachs
 70
     0
  0
APPID
  5
17FD
330
9
100
AcDbSymbolTableRecord
100
AcDbRegAppTableRecord
  2
BBSI_DigSigs
 70
     0
  0
APPID
  5
17FE
330
9
100
AcDbSymbolTableRecord
100
AcDbRegAppTableRecord
  2
ACAD_PSEXT
 70
     0
  0
APPID
  5
1859
330
9
100
AcDbSymbolTableRecord
100
AcDbRegAppTableRecord
  2
ACAD_MLEADERVER
 70
     0
  0
APPID
  5
1870
330
9
100
AcDbSymbolTableRecord
100
AcDbRegAppTableRecord
  2
ACAD_EXEMPT_FROM_CAD_STANDARDS
 70
     0
  0
APPID
  5
18A0
330
9
100
AcDbSymbolTableRecord
100
AcDbRegAppTableRecord
  2
BBSI_BookmarksEx
 70
     0
  0
ENDTAB
  0
TABLE
  2
DIMSTYLE
  5
A
330
0
100
AcDbSymbolTable
 70
     1
100
AcDbDimStyleTable
 71
     0
  0
DIMSTYLE
105
206
330
A
100
AcDbSymbolTableRecord
100
AcDbDimStyleTableRecord
  2
STANDARD
 70
     0
340
10
  0
ENDTAB
  0
TABLE
  2
BLOCK_RECORD
  5
1
330
0
100
AcDbSymbolTable
 70
     3
  0
BLOCK_RECORD
  5
18
102
{ACAD_XDICTIONARY
360
247
102
}
330
1
100
AcDbSymbolTableRecord
100
AcDbBlockTableRecord
  2
*MODEL_SPACE
340
21E
  0
BLOCK_RECORD
  5
15
102
{ACAD_XDICTIONARY
360
245
102
}
330
1
100
AcDbSymbolTableRecord
100
AcDbBlockTableRecord
  2
*PAPER_SPACE
340
21F
  0
BLOCK_RECORD
  5
371
330
1
100
AcDbSymbolTableRecord
100
AcDbBlockTableRecord
  2
*X0
340
0
102
{BLKREFS
331
C50
102
}
  0
BLOCK_RECORD
  5
3A7
330
1
100
AcDbSymbolTableRecord
100
AcDbBlockTableRecord
  2
bubble
340
0
310
2800000020000000200000000100080000000000000400000000000000000000000000000000000000000000000080000080000000808000800000008000800080800000C0C0C000C0DCC000F0CAA6000020400000206000002080000020A0000020C0000020E00000400000004020000040400000406000004080000040A0
310
000040C0000040E00000600000006020000060400000606000006080000060A0000060C0000060E00000800000008020000080400000806000008080000080A0000080C0000080E00000A0000000A0200000A0400000A0600000A0800000A0A00000A0C00000A0E00000C0000000C0200000C0400000C0600000C0800000C0
310
A00000C0C00000C0E00000E0000000E0200000E0400000E0600000E0800000E0A00000E0C00000E0E00040000000400020004000400040006000400080004000A0004000C0004000E00040200000402020004020400040206000402080004020A0004020C0004020E000404000004040200040404000404060004040800040
310
40A0004040C0004040E00040600000406020004060400040606000406080004060A0004060C0004060E00040800000408020004080400040806000408080004080A0004080C0004080E00040A0000040A0200040A0400040A0600040A0800040A0A00040A0C00040A0E00040C0000040C0200040C0400040C0600040C08000
310
40C0A00040C0C00040C0E00040E0000040E0200040E0400040E0600040E0800040E0A00040E0C00040E0E00080000000800020008000400080006000800080008000A0008000C0008000E00080200000802020008020400080206000802080008020A0008020C0008020E00080400000804020008040400080406000804080
310
008040A0008040C0008040E00080600000806020008060400080606000806080008060A0008060C0008060E00080800000808020008080400080806000808080008080A0008080C0008080E00080A0000080A0200080A0400080A0600080A0800080A0A00080A0C00080A0E00080C0000080C0200080C0400080C0600080C0
310
800080C0A00080C0C00080C0E00080E0000080E0200080E0400080E0600080E0800080E0A00080E0C00080E0E000C0000000C0002000C0004000C0006000C0008000C000A000C000C000C000E000C0200000C0202000C0204000C0206000C0208000C020A000C020C000C020E000C0400000C0402000C0404000C0406000C0
310
408000C040A000C040C000C040E000C0600000C0602000C0604000C0606000C0608000C060A000C060C000C060E000C0800000C0802000C0804000C0806000C0808000C080A000C080C000C080E000C0A00000C0A02000C0A04000C0A06000C0A08000C0A0A000C0A0C000C0A0E000C0C00000C0C02000C0C04000C0C06000
310
C0C08000C0C0A000F0FBFF00A4A0A000808080000000FF0000FF000000FFFF00FF000000FF00FF00FFFF0000FFFFFF0008080808080808080808080808080808080808080808080808080808080808080808080808080808080808080808080808080808080808080808080808080808080808080808080808080808FDFDFD
310
08080808080808080808080808080808080808080808080808080808FD080808FDFDFDFDFDFD0808080808080808080808080808080808080808FDFD08080808080808080808FDFDFDFD080808080808080808080808080808FD08080808080808080808080808080808FD08080808080808080808080808FD080808080808
310
0808080808080808080808FD0808080808080808080808FDFD08080808080808080808080808080808080808FD080808080808080808FD080808080808080808080808080808080808080808FD0808080808080808FD08FD0808080808080808FD0808FD0808080808080808FDFD08080808080808FD0808FD080808080808
310
FD08080808FD080808080808FD08FD08080808080808FD0808FD080808080808FD08080808FD080808080808FD0808FD080808080808FD080808FD08080808FD080808080808FD08080808FD080808FD080808080808FD08080808FD0808FD0808080808080808FD0808FD0808080808FD0808080808FD08080808FD0808FD
310
0808080808080808FD0808FD0808080808FD0808080808FD0808080808FDFD08080808080808080808FDFD08080808080808FD08080808FD0808080808FDFD08080808080808080808FDFD08080808080808FD08080808FD08080808FD0808FD0808080808080808FD0808FD0808080808FD0808080808FD08080808FD0808
310
FD0808080808080808FD0808FD0808080808FD0808080808FD080808FD08080808FD080808080808FD08080808FD080808FD080808080808FD0808FD080808080808FD08080808FD080808080808FD0808FD080808080808FD0808FD080808080808FD08080808FD080808080808FD08FD08080808080808FD08FD08080808
310
08080808FD0808FD0808080808080808FDFD0808080808080808FD080808080808080808080808080808080808080808FD08080808080808080808FDFD08080808080808080808080808080808080808FD080808080808080808080808FD0808080808080808080808080808080808FD0808080808080808080808080808FD
310
08080808080808080808080808080808FD080808080808080808080808080808FDFD0808080808080808080808FDFDFD080808080808080808080808080808080808FD08080808FDFDFDFDFDFD08080808080808080808080808080808080808080808FDFDFDFD080808080808080808080808080808080808080808080808
310
0808080808080808080808080808080808080808080808080808080808080808080808080808080808080808080808080808080808080808
102
{BLKREFS
331
12DF
331
12E2
331
12E5
331
12E8
331
12EB
331
12EE
331
12F1
331
12F4
331
12F7
331
12FA
331
12FD
331
1300
331
1303
331
1306
331
1309
331
130C
331
131E
331
1324
331
1330
331
1336
331
1339
331
133C
331
133F
331
1345
331
1348
331
134B
331
15D1
331
15D9
331
15DE
331
15E8
331
15FA
331
15FE
331
1602
331
1606
331
1739
331
173E
102
}
  0
BLOCK_RECORD
  5
17C0
102
{ACAD_XDICTIONARY
360
1929
102
}
330
1
100
AcDbSymbolTableRecord
100
AcDbBlockTableRecord
  2
titleblock
340
0
102
{BLKREFS
331
17CF
102
}
  0
ENDTAB
  0
ENDSEC
  0
SECTION
  2
BLOCKS
  0
BLOCK
  5
2B
330
18
100
AcDbEntity
  8
0
100
AcDbBlockBegin
  2
*MODEL_SPACE
 70
     0
 10
0.0
 20
0.0
 30
0.0
  3
*MODEL_SPACE
  1

  0
ENDBLK
  5
2C
330
18
100
AcDbEntity
  8
0
100
AcDbBlockEnd
  0
BLOCK
  5
29
330
15
100
AcDbEntity
 67
     1
  8
0
100
AcDbBlockBegin
  2
*PAPER_SPACE
 70
     0
 10
0.0
 20
0.0
 30
0.0
  3
*PAPER_SPACE
  1

  0
ENDBLK
  5
2A
330
15
100
AcDbEntity
 67
     1
  8
0
100
AcDbBlockEnd
  0
BLOCK
  5
3A5
330
371
100
AcDbEntity
  8
0
100
AcDbBlockBegin
  2
*X0
 70
     1
 10
0.0
 20
0.0
 30
0.0
  3
*X0
  1

  0
LINE
  5
372
330
371
100
AcDbEntity
  8
0
 62
     0
100
AcDbLine
 10
0.941886010811655
 20
5.167516578640115
 30
0.0
 11
0.8485281374238562
 21
5.260874452027914
 31
0.0
  0
LINE
  5
373
330
371
100
AcDbEntity
  8
0
 62
     0
100
AcDbLine
 10
3.709671462405301
 20
5.11502116680281
 30
0.0
 11
3.563818177180197
 21
5.260874452027914
 31
0.0
  0
LINE
  5
374
330
371
100
AcDbEntity
  8
0
 62
     0
100
AcDbLine
 10
0.941886010811655
 20
5.224085121135039
 30
0.0
 11
0.876812408671318
 21
5.289158723275376
 31
0.0
  0
LINE
  5
375
330
371
100
AcDbEntity
  8
0
 62
     0
100
AcDbLine
 10
0.676399486895569
 20
5.150160390081581
 30
0.0
 11
0.5500693208088369
 21
5.276490556168313
 31
0.0
  0
LINE
  5
376
330
371
100
AcDbEntity
  8
0
 62
     0
100
AcDbLine
 10
3.744549790343372
 20
5.136711381359662
 30
0.0
 11
3.592102448427659
 21
5.289158723275376
 31
0.0
  0
LINE
  5
377
330
371
100
AcDbEntity
  8
0
 62
     0
100
AcDbLine
 10
0.941886010811655
 20
5.280653663629962
 30
0.0
 11
0.9050966799187795
 21
5.317442994522838
 31
0.0
  0
LINE
  5
378
330
371
100
AcDbEntity
  8
0
 62
     0
100
AcDbLine
 10
0.7353910524340082
 20
5.147737367038066
 30
0.0
 11
0.5656854249492369
 21
5.317442994522838
 31
0.0
  0
LINE
  5
379
330
371
100
AcDbEntity
  8
0
 62
     0
100
AcDbLine
 10
3.450681092190351
 20
5.147737367038066
 30
0.0
 11
3.443807645535387
 21
5.154610813693031
 31
0.0
  0
LINE
  5
37A
330
371
100
AcDbEntity
  8
0
 62
     0
100
AcDbLine
 10
3.760716892535525
 20
5.177112821662434
 30
0.0
 11
3.620386719675122
 21
5.317442994522838
 31
0.0
  0
LINE
  5
37B
330
371
100
AcDbEntity
  8
0
 62
     0
100
AcDbLine
 10
0.941886010811655
 20
5.337222206124886
 30
0.0
 11
0.9333809511662421
 21
5.345727265770299
 31
0.0
  0
LINE
  5
37C
330
371
100
AcDbEntity
  8
0
 62
     0
100
AcDbLine
 10
0.7636753236814702
 20
5.176021638285527
 30
0.0
 11
0.5939696961966989
 21
5.345727265770299
 31
0.0
  0
LINE
  5
37D
330
371
100
AcDbEntity
  8
0
 62
     0
100
AcDbLine
 10
3.478965363437812
 20
5.176021638285528
 30
0.0
 11
3.443807645535388
 21
5.211179356187953
 31
0.0
  0
LINE
  5
37E
330
371
100
AcDbEntity
  8
0
 62
     0
100
AcDbLine
 10
3.776883994727679
 20
5.217514261965204
 30
0.0
 11
3.648670990922583
 21
5.3457272657703
 31
0.0
  0
LINE
  5
37F
330
371
100
AcDbEntity
  8
0
 62
     0
100
AcDbLine
 10
0.7919595949289326
 20
5.204305909532989
 30
0.0
 11
0.6222539674441612
 21
5.374011537017761
 31
0.0
  0
LINE
  5
380
330
371
100
AcDbEntity
  8
0
 62
     0
100
AcDbLine
 10
3.507249634685275
 20
5.204305909532989
 30
0.0
 11
3.443807645535388
 21
5.267747898682877
 31
0.0
  0
LINE
  5
381
330
371
100
AcDbEntity
  8
0
 62
     0
100
AcDbLine
 10
3.793051096919832
 20
5.257915702267974
 30
0.0
 11
3.676955262170046
 21
5.374011537017761
 31
0.0
  0
LINE
  5
382
330
371
100
AcDbEntity
  8
0
 62
     0
100
AcDbLine
 10
0.8202438661763942
 20
5.232590180780452
 30
0.0
 11
0.6505382386916229
 21
5.402295808265223
 31
0.0
  0
LINE
  5
383
330
371
100
AcDbEntity
  8
0
 62
     0
100
AcDbLine
 10
3.535533905932736
 20
5.232590180780451
 30
0.0
 11
3.443807645535388
 21
5.324316441177799
 31
0.0
  0
LINE
  5
384
330
371
100
AcDbEntity
  8
0
 62
     0
100
AcDbLine
 10
3.809681921166781
 20
5.297853420515949
 30
0.0
 11
3.705239533417507
 21
5.402295808265223
 31
0.0
  0
LINE
  5
385
330
371
100
AcDbEntity
  8
0
 62
     0
100
AcDbLine
 10
0.848528137423856
 20
5.260874452027914
 30
0.0
 11
0.69663330809804
 21
5.41276928135373
 31
0.0
  0
LINE
  5
386
330
371
100
AcDbEntity
  8
0
 62
     0
100
AcDbLine
 10
3.460573765236521
 20
5.024707609002049
 30
0.0
 11
3.450295253124563
 21
5.034986121114006
 31
0.0
  0
LINE
  5
387
330
371
100
AcDbEntity
  8
0
 62
     0
100
AcDbLine
 10
3.563818177180197
 20
5.260874452027914
 30
0.0
 11
3.443807645535388
 21
5.380884983672723
 31
0.0
  0
LINE
  5
388
330
371
100
AcDbEntity
  8
0
 62
     0
100
AcDbLine
 10
3.826324475503864
 20
5.33777940867379
 30
0.0
 11
3.751334602823925
 21
5.412769281353729
 31
0.0
  0
LINE
  5
389
330
371
100
AcDbEntity
  8
0
 62
     0
100
AcDbLine
 10
3.5638181771802
 20
5.260874452027914
 30
0.0
 11
3.715713006506015
 21
5.412769281353729
 31
0.0
  0
LINE
  5
38A
330
371
100
AcDbEntity
  8
0
 62
     0
100
AcDbLine
 10
0.848528137423858
 20
5.260874452027914
 30
0.0
 11
0.941886010811655
 21
5.35423232541571
 31
0.0
  0
LINE
  5
38B
330
371
100
AcDbEntity
  8
0
 62
     0
100
AcDbLine
 10
0.5473537342522463
 20
5.299111303825845
 30
0.0
 11
0.6610117117801306
 21
5.412769281353729
 31
0.0
  0
LINE
  5
38C
330
371
100
AcDbEntity
  8
0
 62
     0
100
AcDbLine
 10
3.535533905932738
 20
5.289158723275376
 30
0.0
 11
3.659144464011091
 21
5.412769281353729
 31
0.0
  0
LINE
  5
38D
330
371
100
AcDbEntity
  8
0
 62
     0
100
AcDbLine
 10
3.694607161950502
 20
5.108820724323598
 30
0.0
 11
3.705239533417509
 21
5.119453095790603
 31
0.0
  0
LINE
  5
38E
330
371
100
AcDbEntity
  8
0
 62
     0
100
AcDbLine
 10
0.8202438661763958
 20
5.289158723275375
 30
0.0
 11
0.9418860108116547
 21
5.410800867910634
 31
0.0
  0
LINE
  5
38F
330
371
100
AcDbEntity
  8
0
 62
     0
100
AcDbLine
 10
0.541290632454373
 20
5.349616744522895
 30
0.0
 11
0.6044431692852069
 21
5.412769281353729
 31
0.0
  0
LINE
  5
390
330
371
100
AcDbEntity
  8
0
 62
     0
100
AcDbLine
 10
3.507249634685276
 20
5.317442994522837
 30
0.0
 11
3.602575921516167
 21
5.412769281353728
 31
0.0
  0
LINE
  5
391
330
371
100
AcDbEntity
  8
0
 62
     0
100
AcDbLine
 10
3.598467814639128
 20
5.069249919507146
 30
0.0
 11
3.676955262170047
 21
5.147737367038065
 31
0.0
  0
LINE
  5
392
330
371
100
AcDbEntity
  8
0
 62
     0
100
AcDbLine
 10
0.9144196569418287
 20
5.100491801566189
 30
0.0
 11
0.9418860108116559
 21
5.127958155436016
 31
0.0
  0
LINE
  5
393
330
371
100
AcDbEntity
  8
0
 62
     0
100
AcDbLine
 10
0.7919595949289337
 20
5.317442994522837
 30
0.0
 11
0.8872858817598247
 21
5.412769281353727
 31
0.0
  0
LINE
  5
394
330
371
100
AcDbEntity
  8
0
 62
     0
100
AcDbLine
 10
0.5352275306564998
 20
5.400122185219946
 30
0.0
 11
0.5478746267902832
 21
5.41276928135373
 31
0.0
  0
LINE
  5
395
330
371
100
AcDbEntity
  8
0
 62
     0
100
AcDbLine
 10
3.478965363437814
 20
5.345727265770299
 30
0.0
 11
3.546007379021244
 21
5.412769281353728
 31
0.0
  0
LINE
  5
396
330
371
100
AcDbEntity
  8
0
 62
     0
100
AcDbLine
 10
3.506548117852592
 20
5.033898765215534
 30
0.0
 11
3.648670990922585
 21
5.176021638285527
 31
0.0
  0
LINE
  5
397
330
371
100
AcDbEntity
  8
0
 62
     0
100
AcDbLine
 10
3.818376618407357
 20
5.345727265770299
 30
0.0
 11
3.837686428780196
 21
5.365037076143138
 31
0.0
  0
LINE
  5
398
330
371
100
AcDbEntity
  8
0
 62
     0
100
AcDbLine
 10
0.8719889658515375
 20
5.114629652970822
 30
0.0
 11
0.9333809511662437
 21
5.176021638285527
 31
0.0
  0
LINE
  5
399
330
371
100
AcDbEntity
  8
0
 62
     0
100
AcDbLine
 10
0.7636753236814715
 20
5.345727265770299
 30
0.0
 11
0.8307173392649012
 21
5.412769281353728
 31
0.0
  0
LINE
  5
39A
330
371
100
AcDbEntity
  8
0
 62
     0
100
AcDbLine
 10
3.450681092190352
 20
5.374011537017761
 30
0.0
 11
3.48943883652632
 21
5.412769281353728
 31
0.0
  0
LINE
  5
39B
330
371
100
AcDbEntity
  8
0
 62
     0
100
AcDbLine
 10
3.450681092190352
 20
5.034600282048218
 30
0.0
 11
3.620386719675123
 21
5.204305909532989
 31
0.0
  0
LINE
  5
39C
330
371
100
AcDbEntity
  8
0
 62
     0
100
AcDbLine
 10
3.790092347159895
 20
5.374011537017761
 30
0.0
 11
3.828850091495862
 21
5.412769281353728
 31
0.0
  0
LINE
  5
39D
330
371
100
AcDbEntity
  8
0
 62
     0
100
AcDbLine
 10
0.8291399126817362
 20
5.128349142295944
 30
0.0
 11
0.9050966799187817
 21
5.204305909532989
 31
0.0
  0
LINE
  5
39E
330
371
100
AcDbEntity
  8
0
 62
     0
100
AcDbLine
 10
0.7353910524340107
 20
5.374011537017761
 30
0.0
 11
0.7741487967699778
 21
5.412769281353728
 31
0.0
  0
LINE
  5
39F
330
371
100
AcDbEntity
  8
0
 62
     0
100
AcDbLine
 10
3.443807645535387
 20
5.084295377888177
 30
0.0
 11
3.592102448427662
 21
5.232590180780452
 31
0.0
  0
LINE
  5
3A0
330
371
100
AcDbEntity
  8
0
 62
     0
100
AcDbLine
 10
3.761808075912433
 20
5.402295808265223
 30
0.0
 11
3.772281549000939
 21
5.412769281353729
 31
0.0
  0
LINE
  5
3A1
330
371
100
AcDbEntity
  8
0
 62
     0
100
AcDbLine
 10
0.7796399388918937
 20
5.135417711001025
 30
0.0
 11
0.8768124086713198
 21
5.232590180780452
 31
0.0
  0
LINE
  5
3A2
330
371
100
AcDbEntity
  8
0
 62
     0
100
AcDbLine
 10
0.7071067811865483
 20
5.402295808265223
 30
0.0
 11
0.7175802542750548
 21
5.412769281353729
 31
0.0
  0
LINE
  5
3A3
330
371
100
AcDbEntity
  8
0
 62
     0
100
AcDbLine
 10
3.443807645535387
 20
5.140863920383101
 30
0.0
 11
3.5638181771802
 21
5.260874452027914
 31
0.0
  0
LINE
  5
3A4
330
371
100
AcDbEntity
  8
0
 62
     0
100
AcDbLine
 10
0.7301399651020505
 20
5.142486279706106
 30
0.0
 11
0.8485281374238574
 21
5.260874452027913
 31
0.0
  0
ENDBLK
  5
3A6
330
371
100
AcDbEntity
  8
0
100
AcDbBlockEnd
  0
BLOCK
  5
3AA
330
3A7
100
AcDbEntity
  8
0
100
AcDbBlockBegin
  2
bubble
 70
     2
 10
0.0
 20
0.0
 30
0.0
  3
bubble
  1

  0
CIRCLE
  5
3A8
330
3A7
100
AcDbEntity
  8
text_bubbles
100
AcDbCircle
 10
0.0
 20
0.0
 30
0.0
 40
0.1398891854377198
  0
ATTDEF
  5
3A9
330
3A7
100
AcDbEntity
  8
text_bubbles
100
AcDbText
 10
0.0
 20
0.0
 30
0.0
 40
0.125
  1

  7
ROMANS
 72
     4
 11
0.0
 21
0.0
 31
0.0
100
AcDbAttributeDefinition
  3
Number
  2
XX
 70
     0
  0
ENDBLK
  5
3AB
330
3A7
100
AcDbEntity
  8
0
100
AcDbBlockEnd
  0
BLOCK
  5
17CC
330
17C0
100
AcDbEntity
  8
0
100
AcDbBlockBegin
  2
titleblock
 70
     2
 10
0.0
 20
0.0
 30
0.0
  3
titleblock
  1

  0
LWPOLYLINE
  5
17C1
330
17C0
100
AcDbEntity
  8
title
100
AcDbPolyline
 90
        4
 70
     1
 43
0.0
 10
0.0
 20
0.0
 10
16.48999999999999
 20
0.0000000000000001
 10
16.48999999999999
 20
10.44
 10
0.0
 20
10.44
  0
ATTDEF
  5
17C2
330
17C0
100
AcDbEntity
  8
title
100
AcDbText
 10
0.5055556038023421
 20
0.7842270964783673
 30
0.0
 40
0.2
  1
D
  7
L200
 72
     4
 11
0.6064423705144839
 21
0.8842270964783672
 31
0.0
100
AcDbAttributeDefinition
  3
#
  2
D
 70
     0
  0
ATTDEF
  5
17C3
330
17C0
100
AcDbEntity
  8
title
100
AcDbText
 10
1.231442370514484
 20
1.34371230274675
 30
0.0
 40
0.2
  1

  7
L200
100
AcDbAttributeDefinition
  3
DETAIL TITLE TOP LINE
  2
TITLE1
 70
     0
  0
ATTDEF
  5
17C4
330
17C0
100
AcDbEntity
  8
title
100
AcDbText
 10
1.231442370514484
 20
0.9842270964783674
 30
0.0
 40
0.2
  1
TITLE
  7
L200
100
AcDbAttributeDefinition
  3
DETAIL TITLE TOP 2ND LINE
  2
TITLE2
 70
     0
  0
ATTDEF
  5
17C5
330
17C0
100
AcDbEntity
  8
title
100
AcDbText
 10
2.713645751168312
 20
0.5927927664583189
 30
0.0
 40
0.2
  1
TITLE2
  7
L200
100
AcDbAttributeDefinition
  3
DETAIL TITLE BOTTOM 1
  2
TITLE3
 70
     0
  0
ATTDEF
  5
17C6
330
17C0
100
AcDbEntity
  8
title
100
AcDbText
 10
2.713645751168312
 20
0.2692560808167741
 30
0.0
 40
0.2
  1

  7
L200
100
AcDbAttributeDefinition
  3
DETAIL TITLE BOTTOM 2
  2
TITLE4
 70
     0
  0
ATTDEF
  5
17C7
330
17C0
100
AcDbEntity
  8
title
 62
     7
100
AcDbText
 10
8.177214829966379
 20
0.9696027915446398
 30
0.0
 40
0.08
  1
-
  7
L80
 72
     2
 11
8.261024353775903
 21
0.9696027915446398
 31
0.0
100
AcDbAttributeDefinition
  3
REVISION DATE
  2
REVISED
 70
     0
  0
ATTDEF
  5
17C8
330
17C0
100
AcDbEntity
  8
title
 62
     7
100
AcDbText
 10
0.2639423705144838
 20
0.0847116480207214
 30
0.0
 40
0.08
  1
-
  7
L80
100
AcDbAttributeDefinition
  3
DWG-NAME
  2
DWG-NAME
 70
     0
  0
LWPOLYLINE
  5
17C9
330
17C0
100
AcDbEntity
  8
title
 62
     3
100
AcDbPolyline
 90
        2
 70
     1
 43
0.03
 10
0.6064423705144839
 20
0.5417270964783675
 42
0.9999999999999998
 10
0.6064423705144839
 20
1.226727096478367
 42
0.9999999999999998
  0
ATTDEF
  5
17CA
330
17C0
100
AcDbEntity
  8
title
 62
     7
100
AcDbText
 10
1.231442370514484
 20
0.7005637793954894
 30
0.0
 40
0.1
  1
N.T.S.
  7
L100
100
AcDbAttributeDefinition
  3
SCALE
  2
SCALE
 70
     0
  0
LWPOLYLINE
  5
17CB
330
17C0
100
AcDbEntity
  8
title
 62
     3
100
AcDbPolyline
 90
        2
 70
     0
 43
0.04
 39
0.03
 10
0.9489423705144833
 20
0.8842270964783672
 10
8.261024353775903
 20
0.8842270964783672
  0
ENDBLK
  5
17CD
330
17C0
100
AcDbEntity
  8
0
100
AcDbBlockEnd
  0
ENDSEC
  0
SECTION
  2
ENTITIES
  0
LINE
  5
B91
330
18
100
AcDbEntity
  8
image
100
AcDbLine
 10
6.957352904774163
 20
6.378960474117718
 30
0.0
 11
7.086358151009676
 21
6.378960474117718
 31
0.0
  0
LINE
  5
B92
330
18
100
AcDbEntity
  8
image
100
AcDbLine
 10
7.086358151009676
 20
6.42293956535309
 30
0.0
 11
7.124618357107783
 21
6.247039248086959
 31
0.0
  0
LINE
  5
B93
330
18
100
AcDbEntity
  8
image
100
AcDbLine
 10
6.998152132121292
 20
6.42293956535309
 30
0.0
 11
7.086358151009676
 21
6.42293956535309
 31
0.0
  0
LINE
  5
B94
330
18
100
AcDbEntity
  8
image
100
AcDbLine
 10
6.786061046700192
 20
7.527267595518292
 30
0.0
 11
6.919270390562061
 21
6.885905035774655
 31
0.0
  0
LINE
  5
B95
330
18
100
AcDbEntity
  8
image
100
AcDbLine
 10
6.919270390562061
 20
6.885905035774655
 30
0.0
 11
6.967263045537436
 21
6.247039248086961
 31
0.0
  0
LINE
  5
B96
330
18
100
AcDbEntity
  8
image
100
AcDbLine
 10
6.962911789752599
 20
6.892049871863784
 30
0.0
 11
6.998152132121292
 21
6.42293956535309
 31
0.0
  0
LINE
  5
B97
330
18
100
AcDbEntity
  8
image
100
AcDbLine
 10
6.8289414193713
 20
7.537076543316011
 30
0.0
 11
6.962911789752599
 21
6.892049871863784
 31
0.0
  0
LWPOLYLINE
  5
B99
330
18
100
AcDbEntity
  8
image
100
AcDbPolyline
 90
       16
 70
     1
 43
0.0
 10
6.849335877061026
 20
5.682204838749649
 42
0.0846731520301792
 10
6.843942532294091
 20
5.713824524701349
 42
0.0916544813065032
 10
6.829182807088477
 20
5.739562024729254
 42
0.1036340346640379
 10
6.806274500833385
 20
5.757370011115122
 42
0.1140536254072521
 10
6.780528992237298
 20
5.763320149061575
 42
0.1140536254072534
 10
6.754783483641217
 20
5.757370011115122
 42
0.1036340346640368
 10
6.731875177386122
 20
5.739562024729254
 42
0.0916544813065076
 10
6.717115452180509
 20
5.713824524701349
 42
0.0846731520301862
 10
6.711722107413573
 20
5.682204838749649
 42
0.0846731520301835
 10
6.717115452180509
 20
5.65058515279793
 42
0.091654481306508
 10
6.731875177386122
 20
5.62484765277003
 42
0.103634034664036
 10
6.754783483641217
 20
5.607039666384162
 42
0.1140536254072547
 10
6.780528992237298
 20
5.601089528437713
 42
0.1140536254072534
 10
6.806274500833385
 20
5.607039666384162
 42
0.1036340346640367
 10
6.829182807088477
 20
5.62484765277003
 42
0.0916544813065066
 10
6.843942532294091
 20
5.65058515279793
 42
0.0846731520301858
  0
LWPOLYLINE
  5
B9A
330
18
100
AcDbEntity
  8
image
100
AcDbPolyline
 90
       16
 70
     1
 43
0.0
 10
6.902421428887135
 20
5.620456526046551
 42
0.1833035428166229
 10
6.896906407076622
 20
5.611008723807399
 42
0.1024612315138192
 10
6.897641284003865
 20
5.59188915666229
 42
0.0615734602679465
 10
6.905076403877803
 20
5.572467738777337
 42
0.0478438451985803
 10
6.919815929286697
 20
5.550176450959105
 42
0.0478438451985776
 10
6.938523592031966
 20
5.531092990149202
 42
0.061573460267943
 10
6.955955758269759
 20
5.519753146214648
 42
0.1024612315138217
 10
6.974496826935173
 20
5.51502803619916
 42
0.1833035428166229
 10
6.984890549276624
 20
5.518440801736018
 42
0.1833035428166234
 10
6.990405571087149
 20
5.527888603975169
 42
0.102461231513819
 10
6.989670694159904
 20
5.547008171120262
 42
0.0615734602679484
 10
6.982235574285967
 20
5.566429589005227
 42
0.0478438451985819
 10
6.967496048877075
 20
5.588720876823456
 42
0.0478438451985799
 10
6.9487883861318
 20
5.607804337633362
 42
0.0615734602679431
 10
6.931356219894006
 20
5.6191441815679
 42
0.1024612315138189
 10
6.912815151228587
 20
5.623869291583405
 42
0.183303542816622
  0
LINE
  5
B9B
330
18
100
AcDbEntity
  8
image
100
AcDbLine
 10
7.521768561947789
 20
5.484718952331697
 30
0.0
 11
6.742174183034695
 21
5.484718952331689
 31
0.0
  0
LINE
  5
B9C
330
18
100
AcDbEntity
  8
image
100
AcDbLine
 10
6.742174183034695
 20
5.484718952331695
 30
0.0
 11
6.742174183034695
 21
5.136446942478565
 31
0.0
  0
LWPOLYLINE
  5
B9D
330
18
100
AcDbEntity
  8
image
100
AcDbPolyline
 90
        2
 70
     0
 43
0.0
 10
6.742174183034695
 20
5.136446942478565
 10
7.521768561947789
 20
5.484718952331697
  0
LWPOLYLINE
  5
B9E
330
18
100
AcDbEntity
  8
image
100
AcDbPolyline
 90
        2
 70
     0
 43
0.0
 10
6.742174183034695
 20
5.484718952331695
 10
7.521768561947789
 20
5.136446942478565
  0
LINE
  5
B9F
330
18
100
AcDbEntity
  8
image
100
AcDbLine
 10
7.239412937568003
 20
5.484718952331695
 30
0.0
 11
7.024529807414486
 21
5.484718952331695
 31
0.0
  0
LINE
  5
BA0
330
18
100
AcDbEntity
  8
image
100
AcDbLine
 10
7.239412937568326
 20
5.719274105587038
 30
0.0
 11
7.239412937568326
 21
5.484718952331695
 31
0.0
  0
LWPOLYLINE
  5
BA1
330
18
100
AcDbEntity
  8
image
100
AcDbPolyline
 90
       16
 70
     1
 43
0.0
 10
5.519616548374161
 20
5.495878244159129
 42
0.0708989349029243
 10
5.49998892757655
 20
5.477683673172066
 42
0.0824870853856804
 10
5.488596560351696
 20
5.457652303214567
 42
0.1068139206260733
 10
5.48553244597682
 20
5.43585914891546
 42
0.1340008839894652
 10
5.491413039420505
 20
5.4192111974885
 42
0.1340008839894659
 10
5.504935128258511
 20
5.407858278065694
 42
0.106813920626075
 10
5.526416130340214
 20
5.403073205362661
 42
0.0824870853856831
 10
5.549172552739337
 20
5.406704603571666
 42
0.0708989349029243
 10
5.573101497175038
 20
5.418691743754862
 42
0.0708989349029259
 10
5.592729117972655
 20
5.436886314741942
 42
0.0824870853856834
 10
5.604121485197504
 20
5.456917684699428
 42
0.1068139206260768
 10
5.607185599572382
 20
5.478710838998541
 42
0.1340008839894672
 10
5.601305006128702
 20
5.4953587904255
 42
0.1340008839894638
 10
5.587782917290693
 20
5.506711709848316
 42
0.1068139206260751
 10
5.56630191520899
 20
5.511496782551349
 42
0.082487085385683
 10
5.543545492809867
 20
5.507865384342331
 42
0.0708989349029251
  0
LWPOLYLINE
  5
BA2
330
18
100
AcDbEntity
  8
image
100
AcDbPolyline
 90
       16
 70
     1
 43
0.0
 10
5.851030907103009
 20
5.536474692311523
 42
0.0708989349029243
 10
5.831403286305397
 20
5.518280121324441
 42
0.0824870853856804
 10
5.820010919080546
 20
5.498248751366958
 42
0.1068139206260733
 10
5.816946804705674
 20
5.47645559706784
 42
0.1340008839894652
 10
5.822827398149348
 20
5.459807645640891
 42
0.1340008839894659
 10
5.836349486987357
 20
5.448454726218065
 42
0.106813920626075
 10
5.857830489069057
 20
5.443669653515032
 42
0.0824870853856831
 10
5.880586911468185
 20
5.447301051724055
 42
0.0708989349029243
 10
5.904515855903886
 20
5.459288191907251
 42
0.0708989349029259
 10
5.9241434767015
 20
5.477482762894336
 42
0.0824870853856834
 10
5.93553584392635
 20
5.497514132851819
 42
0.1068139206260768
 10
5.93859995830123
 20
5.519307287150931
 42
0.1340008839894672
 10
5.932719364857549
 20
5.535955238577889
 42
0.1340008839894638
 10
5.919197276019538
 20
5.547308158000692
 42
0.1068139206260751
 10
5.897716273937838
 20
5.552093230703741
 42
0.082487085385683
 10
5.874959851538713
 20
5.548461832494719
 42
0.0708989349029251
  0
LWPOLYLINE
  5
BA3
330
18
100
AcDbEntity
  8
image
100
AcDbPolyline
 90
       16
 70
     1
 43
0.0
 10
6.018171372105749
 20
5.517178067210437
 42
0.0708989349029243
 10
5.998543751308137
 20
5.498983496223374
 42
0.0824870853856804
 10
5.987151384083279
 20
5.478952126265875
 42
0.1068139206260733
 10
5.98408726970841
 20
5.457158971966768
 42
0.1340008839894652
 10
5.989967863152084
 20
5.440511020539814
 42
0.1340008839894659
 10
6.003489951990097
 20
5.429158101117007
 42
0.106813920626075
 10
6.024970954071791
 20
5.424373028413974
 42
0.0824870853856831
 10
6.047727376470922
 20
5.428004426622978
 42
0.0708989349029243
 10
6.071656320906626
 20
5.439991566806172
 42
0.0708989349029259
 10
6.091283941704235
 20
5.458186137793253
 42
0.0824870853856834
 10
6.102676308929092
 20
5.478217507750743
 42
0.1068139206260768
 10
6.105740423303965
 20
5.500010662049865
 42
0.1340008839894672
 10
6.099859829860285
 20
5.516658613476808
 42
0.1340008839894638
 10
6.086337741022273
 20
5.528011532899629
 42
0.1068139206260751
 10
6.064856738940573
 20
5.532796605602678
 42
0.082487085385683
 10
6.04210031654145
 20
5.52916520739364
 42
0.0708989349029251
  0
LWPOLYLINE
  5
BA4
330
18
100
AcDbEntity
  8
image
100
AcDbPolyline
 90
       16
 70
     1
 43
0.0
 10
6.14519812550783
 20
5.488233129558846
 42
0.0708989349029243
 10
6.125570504710218
 20
5.470038558571781
 42
0.0824870853856804
 10
6.11417813748536
 20
5.450007188614282
 42
0.1068139206260733
 10
6.11111402311049
 20
5.428214034315173
 42
0.1340008839894652
 10
6.116994616554165
 20
5.411566082888215
 42
0.1340008839894659
 10
6.130516705392178
 20
5.40021316346541
 42
0.106813920626075
 10
6.151997707473876
 20
5.395428090762377
 42
0.0824870853856831
 10
6.174754129873006
 20
5.39905948897138
 42
0.0708989349029243
 10
6.198683074308707
 20
5.411046629154581
 42
0.0708989349029259
 10
6.218310695106319
 20
5.42924120014166
 42
0.0824870853856834
 10
6.229703062331171
 20
5.449272570099147
 42
0.1068139206260768
 10
6.232767176706046
 20
5.471065724398259
 42
0.1340008839894672
 10
6.226886583262368
 20
5.487713675825213
 42
0.1340008839894638
 10
6.213364494424354
 20
5.499066595248034
 42
0.1068139206260751
 10
6.191883492342659
 20
5.503851667951067
 42
0.082487085385683
 10
6.169127069943531
 20
5.500220269742049
 42
0.0708989349029251
  0
LWPOLYLINE
  5
BA5
330
18
100
AcDbEntity
  8
image
100
AcDbPolyline
 90
       16
 70
     1
 43
0.0
 10
5.059897790033165
 20
5.640150987259383
 42
0.0846731520301792
 10
5.054504445266227
 20
5.671770673211083
 42
0.0916544813065032
 10
5.039744720060619
 20
5.697508173238986
 42
0.1036340346640379
 10
5.016836413805529
 20
5.715316159624853
 42
0.1140536254072521
 10
4.991090905209437
 20
5.721266297571302
 42
0.1140536254072534
 10
4.965345396613351
 20
5.715316159624853
 42
0.1036340346640368
 10
4.942437090358261
 20
5.697508173238986
 42
0.0916544813065076
 10
4.92767736515265
 20
5.671770673211083
 42
0.0846731520301862
 10
4.922284020385712
 20
5.640150987259383
 42
0.0846731520301835
 10
4.92767736515265
 20
5.608531301307662
 42
0.091654481306508
 10
4.942437090358261
 20
5.582793801279761
 42
0.103634034664036
 10
4.965345396613351
 20
5.564985814893907
 42
0.1140536254072547
 10
4.991090905209437
 20
5.559035676947457
 42
0.1140536254072534
 10
5.016836413805529
 20
5.564985814893907
 42
0.1036340346640367
 10
5.039744720060619
 20
5.582793801279761
 42
0.0916544813065066
 10
5.054504445266227
 20
5.608531301307662
 42
0.0846731520301858
  0
LWPOLYLINE
  5
BA6
330
18
100
AcDbEntity
  8
image
100
AcDbPolyline
 90
       16
 70
     1
 43
0.0
 10
5.122977583227177
 20
5.576252318358374
 42
0.1615511064879552
 10
5.109726575061971
 20
5.558620945056269
 42
0.1061532262602322
 10
5.106007943376628
 20
5.525749878630511
 42
0.0703450477663066
 10
5.114421172849592
 20
5.491269504536179
 42
0.0566056099584688
 10
5.135254414352532
 20
5.452480018557718
 42
0.0566056099584683
 10
5.164255864981795
 20
5.419350514556118
 42
0.0703450477663069
 10
5.193584810108751
 20
5.399363228457476
 42
0.1061532262602343
 10
5.225667859651247
 20
5.391300154500726
 42
0.1615511064879549
 10
5.246829975909882
 20
5.397514603580782
 42
0.1615511064879543
 10
5.260080984075093
 20
5.415145976882882
 42
0.106153226260232
 10
5.263799615760431
 20
5.44801704330865
 42
0.0703450477663075
 10
5.255386386287472
 20
5.482497417402971
 42
0.0566056099584687
 10
5.234553144784529
 20
5.521286903381451
 42
0.05660560995847
 10
5.205551694155269
 20
5.554416407383039
 42
0.0703450477663058
 10
5.17622274902831
 20
5.574403693481677
 42
0.1061532262602316
 10
5.144139699485817
 20
5.582466767438425
 42
0.1615511064879538
  0
LWPOLYLINE
  5
BA7
330
18
100
AcDbEntity
  8
image
100
AcDbPolyline
 90
       16
 70
     1
 43
0.0
 10
4.987229399281803
 20
5.532766524312775
 42
0.1833035428166229
 10
4.981714377471286
 20
5.523318722073618
 42
0.1024612315138192
 10
4.982449254398527
 20
5.504199154928508
 42
0.0615734602679465
 10
4.989884374272465
 20
5.484777737043561
 42
0.0478438451985803
 10
5.004623899681361
 20
5.462486449225334
 42
0.0478438451985776
 10
5.023331562426623
 20
5.44340298841543
 42
0.061573460267943
 10
5.040763728664424
 20
5.432063144480888
 42
0.1024612315138217
 10
5.059304797329842
 20
5.427338034465385
 42
0.1833035428166229
 10
5.069698519671289
 20
5.430750800002236
 42
0.1833035428166234
 10
5.075213541481808
 20
5.440198602241393
 42
0.102461231513819
 10
5.074478664554561
 20
5.459318169386486
 42
0.0615734602679484
 10
5.067043544680629
 20
5.47873958727146
 42
0.0478438451985819
 10
5.052304019271733
 20
5.50103087508968
 42
0.0478438451985799
 10
5.03359635652646
 20
5.520114335899572
 42
0.0615734602679431
 10
5.016164190288668
 20
5.531454179834126
 42
0.1024612315138189
 10
4.997623121623249
 20
5.536179289849632
 42
0.183303542816622
  0
LWPOLYLINE
  5
BA8
330
18
100
AcDbEntity
  8
image
100
AcDbPolyline
 90
       16
 70
     1
 43
0.0
 10
5.668488642172686
 20
5.71875721476637
 42
0.1833035428166229
 10
5.662973620362169
 20
5.709309412527213
 42
0.1024612315138192
 10
5.663708497289411
 20
5.69018984538212
 42
0.0615734602679465
 10
5.671143617163343
 20
5.670768427497167
 42
0.0478438451985803
 10
5.685883142572242
 20
5.648477139678943
 42
0.0478438451985776
 10
5.704590805317511
 20
5.629393678869019
 42
0.061573460267943
 10
5.722022971555304
 20
5.618053834934478
 42
0.1024612315138217
 10
5.740564040220723
 20
5.613328724918975
 42
0.1833035428166229
 10
5.750957762562169
 20
5.616741490455847
 42
0.1833035428166234
 10
5.756472784372686
 20
5.626189292694988
 42
0.102461231513819
 10
5.75573790744545
 20
5.645308859840097
 42
0.0615734602679484
 10
5.748302787571512
 20
5.66473027772505
 42
0.0478438451985819
 10
5.733563262162622
 20
5.68702156554327
 42
0.0478438451985799
 10
5.714855599417342
 20
5.706105026353178
 42
0.0615734602679431
 10
5.697423433179551
 20
5.717444870287737
 42
0.1024612315138189
 10
5.678882364514135
 20
5.722169980303222
 42
0.183303542816622
  0
LWPOLYLINE
  5
BA9
330
18
100
AcDbEntity
  8
image
100
AcDbPolyline
 90
       16
 70
     1
 43
0.0
 10
5.61664044443099
 20
5.597873044905831
 42
0.1615511064879552
 10
5.60338943626578
 20
5.580241671603712
 42
0.1061532262602322
 10
5.599670804580442
 20
5.547370605177947
 42
0.0703450477663066
 10
5.608084034053403
 20
5.512890231083636
 42
0.0566056099584688
 10
5.628917275556341
 20
5.474100745105163
 42
0.0566056099584683
 10
5.657918726185604
 20
5.440971241103554
 42
0.0703450477663069
 10
5.687247671312563
 20
5.420983955004915
 42
0.1061532262602343
 10
5.719330720855056
 20
5.412920881048171
 42
0.1615511064879549
 10
5.740492837113697
 20
5.419135330128218
 42
0.1615511064879543
 10
5.753743845278904
 20
5.436766703430327
 42
0.106153226260232
 10
5.757462476964244
 20
5.469637769856104
 42
0.0703450477663075
 10
5.74904924749128
 20
5.504118143950414
 42
0.0566056099584687
 10
5.728216005988345
 20
5.542907629928896
 42
0.05660560995847
 10
5.699214555359084
 20
5.576037133930475
 42
0.0703450477663058
 10
5.669885610232123
 20
5.596024420029134
 42
0.1061532262602316
 10
5.637802560689626
 20
5.604087493985884
 42
0.1615511064879538
  0
LWPOLYLINE
  5
BAA
330
18
100
AcDbEntity
  8
image
100
AcDbPolyline
 90
       16
 70
     1
 43
0.0
 10
5.213069941112312
 20
5.683658898289428
 42
0.1833035428166229
 10
5.207554919301793
 20
5.67421109605028
 42
0.1024612315138192
 10
5.208289796229033
 20
5.655091528905161
 42
0.0615734602679465
 10
5.215724916102972
 20
5.635670111020212
 42
0.0478438451985803
 10
5.230464441511864
 20
5.61337882320199
 42
0.0478438451985776
 10
5.249172104257137
 20
5.594295362392077
 42
0.061573460267943
 10
5.26660427049493
 20
5.582955518457522
 42
0.1024612315138217
 10
5.285145339160346
 20
5.578230408442035
 42
0.1833035428166229
 10
5.295539061501795
 20
5.581643173978898
 42
0.1833035428166234
 10
5.301054083312314
 20
5.591090976218046
 42
0.102461231513819
 10
5.30031920638507
 20
5.610210543363139
 42
0.0615734602679484
 10
5.292884086511142
 20
5.629631961248108
 42
0.0478438451985819
 10
5.278144561102243
 20
5.651923249066335
 42
0.0478438451985799
 10
5.25943689835697
 20
5.671006709876243
 42
0.0615734602679431
 10
5.242004732119177
 20
5.682346553810781
 42
0.1024612315138189
 10
5.223463663453761
 20
5.68707166382628
 42
0.183303542816622
  0
LWPOLYLINE
  5
BAB
330
18
100
AcDbEntity
  8
image
100
AcDbPolyline
 90
       16
 70
     1
 43
0.0
 10
5.448944595069837
 20
5.509623023977368
 42
0.0846731520301792
 10
5.443551250302899
 20
5.54124270992909
 42
0.0916544813065032
 10
5.428791525097294
 20
5.566980209956993
 42
0.1036340346640379
 10
5.405883218842198
 20
5.584788196342838
 42
0.1140536254072521
 10
5.380137710246112
 20
5.590738334289293
 42
0.1140536254072534
 10
5.35439220165002
 20
5.584788196342838
 42
0.1036340346640368
 10
5.33148389539493
 20
5.566980209956993
 42
0.0916544813065076
 10
5.316724170189322
 20
5.54124270992909
 42
0.0846731520301862
 10
5.311330825422382
 20
5.509623023977368
 42
0.0846731520301835
 10
5.316724170189322
 20
5.478003338025668
 42
0.091654481306508
 10
5.33148389539493
 20
5.452265837997767
 42
0.103634034664036
 10
5.35439220165002
 20
5.434457851611901
 42
0.1140536254072547
 10
5.380137710246112
 20
5.428507713665448
 42
0.1140536254072534
 10
5.405883218842198
 20
5.434457851611901
 42
0.1036340346640367
 10
5.428791525097294
 20
5.452265837997767
 42
0.0916544813065066
 10
5.443551250302899
 20
5.478003338025668
 42
0.0846731520301858
  0
LWPOLYLINE
  5
BAC
330
18
100
AcDbEntity
  8
image
100
AcDbPolyline
 90
       16
 70
     1
 43
0.0
 10
5.478026999010429
 20
5.663784150465536
 42
0.1833035428166229
 10
5.472511977199909
 20
5.654336348226379
 42
0.1024612315138192
 10
5.47324685412715
 20
5.63521678108127
 42
0.0615734602679465
 10
5.480681974001088
 20
5.615795363196317
 42
0.0478438451985803
 10
5.49542149940998
 20
5.59350407537809
 42
0.0478438451985776
 10
5.514129162155256
 20
5.574420614568182
 42
0.061573460267943
 10
5.531561328393049
 20
5.563080770633648
 42
0.1024612315138217
 10
5.550102397058468
 20
5.55835566061814
 42
0.1833035428166229
 10
5.560496119399914
 20
5.561768426154998
 42
0.1833035428166234
 10
5.566011141210431
 20
5.571216228394154
 42
0.102461231513819
 10
5.565276264283184
 20
5.590335795539248
 42
0.0615734602679484
 10
5.557841144409252
 20
5.609757213424217
 42
0.0478438451985819
 10
5.543101619000358
 20
5.632048501242437
 42
0.0478438451985799
 10
5.524393956255083
 20
5.651131962052343
 42
0.0615734602679431
 10
5.506961790017294
 20
5.662471805986887
 42
0.1024612315138189
 10
5.488420721351872
 20
5.667196916002385
 42
0.183303542816622
  0
LWPOLYLINE
  5
BAD
330
18
100
AcDbEntity
  8
image
100
AcDbPolyline
 90
       16
 70
     1
 43
0.0
 10
6.055988307963245
 20
5.765262704066556
 42
0.1096021439183502
 10
6.023476534623378
 20
5.759719369479414
 42
0.1024204874116924
 10
5.994220105960787
 20
5.740073715988897
 42
0.0936695383243779
 10
5.974336519043596
 20
5.71028256421871
 42
0.0882994724157594
 10
5.965845632781654
 20
5.673285763375774
 42
0.088299472415759
 10
5.970641671361716
 20
5.635631328895053
 42
0.0936695383243767
 10
5.987486269988984
 20
5.604022323064866
 42
0.1024204874116938
 10
6.014659745116102
 20
5.581583682984081
 42
0.1096021439183517
 10
6.04646522580513
 20
5.572856979013636
 42
0.109602143918351
 10
6.078976999144988
 20
5.578400313600798
 42
0.1024204874116929
 10
6.108233427807588
 20
5.598045967091309
 42
0.0936695383243769
 10
6.128117014724773
 20
5.627837118861481
 42
0.0882994724157586
 10
6.136607900986717
 20
5.664833919704419
 42
0.0882994724157589
 10
6.131811862406651
 20
5.702488354185161
 42
0.0936695383243761
 10
6.114967263779378
 20
5.734097360015342
 42
0.102420487411692
 10
6.087793788652268
 20
5.756536000096128
 42
0.1096021439183503
  0
LWPOLYLINE
  5
BAE
330
18
100
AcDbEntity
  8
image
100
AcDbPolyline
 90
       16
 70
     1
 43
0.0
 10
6.200269336692477
 20
5.681715791058394
 42
0.1615511064879552
 10
6.187018328527271
 20
5.664084417756271
 42
0.1061532262602322
 10
6.183299696841926
 20
5.63121335133049
 42
0.0703450477663066
 10
6.191712926314894
 20
5.596732977236195
 42
0.0566056099584688
 10
6.212546167817828
 20
5.557943491257717
 42
0.0566056099584683
 10
6.241547618447087
 20
5.524813987256113
 42
0.0703450477663069
 10
6.27087656357405
 20
5.504826701157474
 42
0.1061532262602343
 10
6.302959613116543
 20
5.496763627200708
 42
0.1615511064879549
 10
6.324121729375184
 20
5.502978076280783
 42
0.1615511064879543
 10
6.337372737540391
 20
5.520609449582886
 42
0.106153226260232
 10
6.341091369225731
 20
5.553480516008646
 42
0.0703450477663075
 10
6.332678139752774
 20
5.587960890102973
 42
0.0566056099584687
 10
6.311844898249828
 20
5.626750376081435
 42
0.05660560995847
 10
6.282843447620566
 20
5.659879880083039
 42
0.0703450477663058
 10
6.253514502493612
 20
5.679867166181677
 42
0.1061532262602316
 10
6.221431452951113
 20
5.687930240138427
 42
0.1615511064879538
  0
LWPOLYLINE
  5
BAF
330
18
100
AcDbEntity
  8
image
100
AcDbPolyline
 90
       16
 70
     1
 43
0.0
 10
5.952503964916564
 20
5.638947141476524
 42
0.0846731520301792
 10
5.947110620149627
 20
5.670566827428226
 42
0.0916544813065032
 10
5.932350894944015
 20
5.696304327456147
 42
0.1036340346640379
 10
5.909442588688925
 20
5.714112313841996
 42
0.1140536254072521
 10
5.883697080092835
 20
5.720062451788445
 42
0.1140536254072534
 10
5.857951571496746
 20
5.714112313841996
 42
0.1036340346640368
 10
5.83504326524166
 20
5.696304327456147
 42
0.0916544813065076
 10
5.820283540036051
 20
5.670566827428226
 42
0.0846731520301862
 10
5.814890195269116
 20
5.638947141476524
 42
0.0846731520301835
 10
5.820283540036051
 20
5.607327455524808
 42
0.091654481306508
 10
5.83504326524166
 20
5.581589955496903
 42
0.103634034664036
 10
5.857951571496746
 20
5.563781969111055
 42
0.1140536254072547
 10
5.883697080092835
 20
5.5578318311646
 42
0.1140536254072534
 10
5.909442588688925
 20
5.563781969111055
 42
0.1036340346640367
 10
5.932350894944015
 20
5.581589955496903
 42
0.0916544813065066
 10
5.947110620149627
 20
5.607327455524808
 42
0.0846731520301858
  0
LINE
  5
BB0
330
18
100
AcDbEntity
  8
image
100
AcDbLine
 10
3.045548626994465
 20
5.484718952331697
 30
0.0
 11
2.265954248081371
 21
5.484718952331689
 31
0.0
  0
LWPOLYLINE
  5
BB1
330
18
100
AcDbEntity
  8
image
100
AcDbPolyline
 90
        2
 70
     0
 43
0.0
 10
2.265954248081371
 20
5.484718952331695
 10
3.045548626994465
 20
5.136446942478565
  0
LWPOLYLINE
  5
BB2
330
18
100
AcDbEntity
  8
image
100
AcDbPolyline
 90
        2
 70
     0
 43
0.0
 10
2.265954248081371
 20
5.136446942478565
 10
3.045548626994465
 20
5.484718952331697
  0
LINE
  5
BB3
330
18
100
AcDbEntity
  8
image
100
AcDbLine
 10
2.265954248081371
 20
5.484718952331695
 30
0.0
 11
2.265954248081371
 21
5.136446942478565
 31
0.0
  0
LINE
  5
BB4
330
18
100
AcDbEntity
  8
image
100
AcDbLine
 10
2.265954248081371
 20
5.136446942478565
 30
0.0
 11
3.045548626994465
 21
5.136446942478565
 31
0.0
  0
LINE
  5
BB5
330
18
100
AcDbEntity
  8
image
100
AcDbLine
 10
3.045548626994465
 20
5.136446942478565
 30
0.0
 11
3.045548626994465
 21
5.484718952331695
 31
0.0
  0
LINE
  5
BB6
330
18
100
AcDbEntity
  8
image
100
AcDbLine
 10
7.521768561947789
 20
5.136446942478565
 30
0.0
 11
7.521768561947789
 21
5.484718952331695
 31
0.0
  0
LINE
  5
BB7
330
18
100
AcDbEntity
  8
image
100
AcDbLine
 10
6.742174183034695
 20
5.136446942478565
 30
0.0
 11
7.521768561947789
 21
5.136446942478565
 31
0.0
  0
LINE
  5
BB8
330
18
100
AcDbEntity
  8
image
100
AcDbLine
 10
2.548309872461004
 20
5.719274105587038
 30
0.0
 11
2.548309872461004
 21
5.484718952331695
 31
0.0
  0
LINE
  5
BB9
330
18
100
AcDbEntity
  8
image
100
AcDbLine
 10
2.868452419467264
 20
6.885905035774655
 30
0.0
 11
2.763193002614833
 21
5.484718952331695
 31
0.0
  0
LINE
  5
BBA
330
18
100
AcDbEntity
  8
image
100
AcDbLine
 10
2.763193002614833
 20
5.484718952331695
 30
0.0
 11
2.548309872461004
 21
5.484718952331695
 31
0.0
  0
LWPOLYLINE
  5
BBB
330
18
100
AcDbEntity
  8
image
100
AcDbPolyline
 90
       16
 70
     1
 43
0.0
 10
3.619381166566299
 20
5.477970668401216
 42
0.0708989349029243
 10
3.599753545768683
 20
5.459776097414156
 42
0.0824870853856804
 10
3.588361178543829
 20
5.439744727456657
 42
0.1068139206260733
 10
3.585297064168955
 20
5.417951573157544
 42
0.1340008839894652
 10
3.591177657612634
 20
5.40130362173059
 42
0.1340008839894659
 10
3.60469974645065
 20
5.389950702307785
 42
0.106813920626075
 10
3.626180748532346
 20
5.385165629604752
 42
0.0824870853856831
 10
3.648937170931469
 20
5.388797027813755
 42
0.0708989349029243
 10
3.672866115367172
 20
5.400784167996956
 42
0.0708989349029259
 10
3.692493736164783
 20
5.41897873898403
 42
0.0824870853856834
 10
3.70388610338964
 20
5.439010108941522
 42
0.1068139206260768
 10
3.706950217764514
 20
5.460803263240631
 42
0.1340008839894672
 10
3.701069624320838
 20
5.477451214667585
 42
0.1340008839894638
 10
3.687547535482822
 20
5.488804134090408
 42
0.1068139206260751
 10
3.666066533401128
 20
5.493589206793442
 42
0.082487085385683
 10
3.643310111002005
 20
5.489957808584419
 42
0.0708989349029251
  0
LWPOLYLINE
  5
BBC
330
18
100
AcDbEntity
  8
image
100
AcDbPolyline
 90
       16
 70
     1
 43
0.0
 10
3.824185617753311
 20
5.536411776285181
 42
0.0708989349029243
 10
3.804557996955702
 20
5.518217205298116
 42
0.0824870853856804
 10
3.793165629730848
 20
5.498185835340617
 42
0.1068139206260733
 10
3.790101515355976
 20
5.476392681041508
 42
0.1340008839894652
 10
3.795982108799652
 20
5.45974472961455
 42
0.1340008839894659
 10
3.809504197637664
 20
5.448391810191745
 42
0.106813920626075
 10
3.830985199719362
 20
5.443606737488712
 42
0.0824870853856831
 10
3.853741622118489
 20
5.447238135697714
 42
0.0708989349029243
 10
3.877670566554193
 20
5.45922527588091
 42
0.0708989349029259
 10
3.8972981873518
 20
5.47741984686799
 42
0.0824870853856834
 10
3.908690554576658
 20
5.497451216825478
 42
0.1068139206260768
 10
3.911754668951532
 20
5.519244371124591
 42
0.1340008839894672
 10
3.905874075507851
 20
5.535892322551548
 42
0.1340008839894638
 10
3.89235198666984
 20
5.547245241974367
 42
0.1068139206260751
 10
3.87087098458814
 20
5.5520303146774
 42
0.082487085385683
 10
3.848114562189017
 20
5.548398916468379
 42
0.0708989349029251
  0
LWPOLYLINE
  5
BBD
330
18
100
AcDbEntity
  8
image
100
AcDbPolyline
 90
       16
 70
     1
 43
0.0
 10
4.186464818898135
 20
5.54156848444005
 42
0.0708989349029243
 10
4.166837198100525
 20
5.523373913452985
 42
0.0824870853856804
 10
4.155444830875675
 20
5.503342543495497
 42
0.1068139206260733
 10
4.152380716500799
 20
5.481549389196377
 42
0.1340008839894652
 10
4.158261309944476
 20
5.46490143776942
 42
0.1340008839894659
 10
4.171783398782489
 20
5.453548518346615
 42
0.106813920626075
 10
4.193264400864187
 20
5.448763445643582
 42
0.0824870853856831
 10
4.216020823263315
 20
5.452394843852584
 42
0.0708989349029243
 10
4.239949767699016
 20
5.464381984035801
 42
0.0708989349029259
 10
4.259577388496632
 20
5.482576555022859
 42
0.0824870853856834
 10
4.27096975572148
 20
5.502607924980347
 42
0.1068139206260768
 10
4.274033870096355
 20
5.52440107927946
 42
0.1340008839894672
 10
4.268153276652677
 20
5.541049030706417
 42
0.1340008839894638
 10
4.254631187814664
 20
5.552401950129237
 42
0.1068139206260751
 10
4.233150185732968
 20
5.55718702283227
 42
0.082487085385683
 10
4.210393763333842
 20
5.553555624623248
 42
0.0708989349029251
  0
LWPOLYLINE
  5
BBE
330
18
100
AcDbEntity
  8
image
100
AcDbPolyline
 90
       16
 70
     1
 43
0.0
 10
4.654458120905804
 20
5.522271859338987
 42
0.0708989349029243
 10
4.634830500108195
 20
5.504077288351924
 42
0.0824870853856804
 10
4.623438132883338
 20
5.484045918394425
 42
0.1068139206260733
 10
4.620374018508469
 20
5.462252764095312
 42
0.1340008839894652
 10
4.626254611952139
 20
5.445604812668353
 42
0.1340008839894659
 10
4.639776700790157
 20
5.434251893245551
 42
0.106813920626075
 10
4.661257702871852
 20
5.429466820542513
 42
0.0824870853856831
 10
4.68401412527098
 20
5.433098218751522
 42
0.0708989349029243
 10
4.707943069706685
 20
5.445085358934717
 42
0.0708989349029259
 10
4.727570690504292
 20
5.463279929921798
 42
0.0824870853856834
 10
4.738963057729149
 20
5.483311299879286
 42
0.1068139206260768
 10
4.742027172104021
 20
5.5051044541784
 42
0.1340008839894672
 10
4.73614657866034
 20
5.521752405605353
 42
0.1340008839894638
 10
4.722624489822333
 20
5.533105325028177
 42
0.1068139206260751
 10
4.701143487740633
 20
5.53789039773121
 42
0.082487085385683
 10
4.67838706534151
 20
5.534258999522185
 42
0.0708989349029251
  0
LWPOLYLINE
  5
BBF
330
18
100
AcDbEntity
  8
image
100
AcDbPolyline
 90
       16
 70
     1
 43
0.0
 10
3.110080224280505
 20
5.489048592943223
 42
0.0708989349029243
 10
3.0904526034829
 20
5.47085402195616
 42
0.0824870853856804
 10
3.07906023625804
 20
5.450822651998663
 42
0.1068139206260733
 10
3.07599612188317
 20
5.429029497699549
 42
0.1340008839894652
 10
3.081876715326847
 20
5.412381546272595
 42
0.1340008839894659
 10
3.095398804164858
 20
5.401028626849788
 42
0.106813920626075
 10
3.116879806246558
 20
5.396243554146755
 42
0.0824870853856831
 10
3.139636228645683
 20
5.399874952355759
 42
0.0708989349029243
 10
3.163565173081382
 20
5.411862092538958
 42
0.0708989349029259
 10
3.183192793878996
 20
5.430056663526039
 42
0.0824870853856834
 10
3.194585161103852
 20
5.450088033483524
 42
0.1068139206260768
 10
3.197649275478726
 20
5.471881187782653
 42
0.1340008839894672
 10
3.191768682035045
 20
5.488529139209591
 42
0.1340008839894638
 10
3.178246593197034
 20
5.49988205863241
 42
0.1068139206260751
 10
3.156765591115334
 20
5.504667131335462
 42
0.082487085385683
 10
3.134009168716211
 20
5.501035733126427
 42
0.0708989349029251
  0
LWPOLYLINE
  5
BC0
330
18
100
AcDbEntity
  8
image
100
AcDbPolyline
 90
       16
 70
     1
 43
0.0
 10
4.021881834798863
 20
5.653894253334588
 42
0.0846731520301792
 10
4.016488490031928
 20
5.685513939286297
 42
0.0916544813065032
 10
4.001728764826316
 20
5.711251439314191
 42
0.1036340346640379
 10
3.978820458571222
 20
5.729059425700059
 42
0.1140536254072521
 10
3.953074949975137
 20
5.735009563646514
 42
0.1140536254072534
 10
3.927329441379054
 20
5.729059425700059
 42
0.1036340346640368
 10
3.904421135123955
 20
5.711251439314191
 42
0.0916544813065076
 10
3.889661409918348
 20
5.685513939286297
 42
0.0846731520301862
 10
3.884268065151411
 20
5.653894253334588
 42
0.0846731520301835
 10
3.889661409918348
 20
5.622274567382891
 42
0.091654481306508
 10
3.904421135123955
 20
5.596537067354967
 42
0.103634034664036
 10
3.927329441379054
 20
5.578729080969099
 42
0.1140536254072547
 10
3.953074949975137
 20
5.572778943022672
 42
0.1140536254072534
 10
3.978820458571226
 20
5.578729080969099
 42
0.1036340346640367
 10
4.001728764826316
 20
5.596537067354967
 42
0.0916544813065066
 10
4.016488490031923
 20
5.622274567382891
 42
0.0846731520301858
  0
LWPOLYLINE
  5
BC1
330
18
100
AcDbEntity
  8
image
100
AcDbPolyline
 90
       16
 70
     1
 43
0.0
 10
4.269647206574775
 20
5.696662902916441
 42
0.1615511064879552
 10
4.256396198409568
 20
5.679031529614336
 42
0.1061532262602322
 10
4.252677566724228
 20
5.646160463188577
 42
0.0703450477663066
 10
4.261090796197191
 20
5.611680089094246
 42
0.0566056099584688
 10
4.281924037700127
 20
5.572890603115785
 42
0.0566056099584683
 10
4.310925488329397
 20
5.539761099114185
 42
0.0703450477663069
 10
4.340254433456353
 20
5.519773813015527
 42
0.1061532262602343
 10
4.372337482998849
 20
5.511710739058781
 42
0.1615511064879549
 10
4.393499599257483
 20
5.51792518813885
 42
0.1615511064879543
 10
4.406750607422688
 20
5.535556561440953
 42
0.106153226260232
 10
4.410469239108033
 20
5.568427627866718
 42
0.0703450477663075
 10
4.402056009635071
 20
5.602908001961028
 42
0.0566056099584687
 10
4.381222768132134
 20
5.641697487939508
 42
0.05660560995847
 10
4.352221317502865
 20
5.674826991941106
 42
0.0703450477663058
 10
4.322892372375909
 20
5.694814278039745
 42
0.1061532262602316
 10
4.29080932283341
 20
5.702877351996495
 42
0.1615511064879538
  0
LWPOLYLINE
  5
BC2
330
18
100
AcDbEntity
  8
image
100
AcDbPolyline
 90
       16
 70
     1
 43
0.0
 10
4.804451713763624
 20
5.776692763846847
 42
0.1833035428166229
 10
4.798936691953111
 20
5.767244961607696
 42
0.1024612315138192
 10
4.799671568880349
 20
5.748125394462602
 42
0.0615734602679465
 10
4.80710668875429
 20
5.728703976577635
 42
0.0478438451985803
 10
4.821846214163176
 20
5.706412688759417
 42
0.0478438451985776
 10
4.840553876908453
 20
5.687329227949515
 42
0.061573460267943
 10
4.857986043146247
 20
5.675989384014961
 42
0.1024612315138217
 10
4.876527111811663
 20
5.671264273999456
 42
0.1833035428166229
 10
4.886920834153112
 20
5.674677039536314
 42
0.1833035428166234
 10
4.892435855963631
 20
5.684124841775465
 42
0.102461231513819
 10
4.891700979036384
 20
5.703244408920559
 42
0.0615734602679484
 10
4.88426585916245
 20
5.722665826805524
 42
0.0478438451985819
 10
4.86952633375356
 20
5.744957114623742
 42
0.0478438451985799
 10
4.850818671008287
 20
5.764040575433661
 42
0.0615734602679431
 10
4.833386504770494
 20
5.775380419368197
 42
0.1024612315138189
 10
4.814845436105072
 20
5.780105529383705
 42
0.183303542816622
  0
LWPOLYLINE
  5
BC3
330
18
100
AcDbEntity
  8
image
100
AcDbPolyline
 90
       16
 70
     1
 43
0.0
 10
4.752603516021929
 20
5.645655040761164
 42
0.1615511064879552
 10
4.739352507856724
 20
5.628023667459061
 42
0.1061532262602322
 10
4.73563387617138
 20
5.5951526010333
 42
0.0703450477663066
 10
4.744047105644343
 20
5.560672226938965
 42
0.0566056099584688
 10
4.764880347147284
 20
5.521882740960517
 42
0.0566056099584683
 10
4.793881797776544
 20
5.488753236958908
 42
0.0703450477663069
 10
4.823210742903503
 20
5.468765950860269
 42
0.1061532262602343
 10
4.855293792446
 20
5.460702876903525
 42
0.1615511064879549
 10
4.87645590870464
 20
5.466917325983573
 42
0.1615511064879543
 10
4.889706916869846
 20
5.484548699285682
 42
0.106153226260232
 10
4.893425548555187
 20
5.517419765711435
 42
0.0703450477663075
 10
4.885012319082225
 20
5.551900139805768
 42
0.0566056099584687
 10
4.864179077579279
 20
5.590689625784246
 42
0.05660560995847
 10
4.835177626950022
 20
5.623819129785845
 42
0.0703450477663058
 10
4.805848681823063
 20
5.643806415884467
 42
0.1061532262602316
 10
4.77376563228057
 20
5.651869489841239
 42
0.1615511064879538
  0
LWPOLYLINE
  5
BC4
330
18
100
AcDbEntity
  8
image
100
AcDbPolyline
 90
       16
 70
     1
 43
0.0
 10
4.58102280151092
 20
5.589143125104106
 42
0.0846731520301792
 10
4.575629456743984
 20
5.620762811055826
 42
0.0916544813065032
 10
4.560869731538371
 20
5.646500311083721
 42
0.1036340346640379
 10
4.537961425283276
 20
5.664308297469576
 42
0.1140536254072521
 10
4.512215916687194
 20
5.670258435416025
 42
0.1140536254072534
 10
4.486470408091108
 20
5.664308297469576
 42
0.1036340346640368
 10
4.463562101836012
 20
5.646500311083721
 42
0.0916544813065076
 10
4.448802376630402
 20
5.620762811055826
 42
0.0846731520301862
 10
4.443409031863465
 20
5.589143125104106
 42
0.0846731520301835
 10
4.448802376630396
 20
5.557523439152401
 42
0.091654481306508
 10
4.463562101836012
 20
5.531785939124484
 42
0.103634034664036
 10
4.486470408091108
 20
5.513977952738629
 42
0.1140536254072547
 10
4.512215916687194
 20
5.50802781479218
 42
0.1140536254072534
 10
4.537961425283276
 20
5.513977952738629
 42
0.1036340346640367
 10
4.560869731538371
 20
5.531785939124484
 42
0.0916544813065066
 10
4.575629456743984
 20
5.557523439152401
 42
0.0846731520301858
  0
LWPOLYLINE
  5
BC5
330
18
100
AcDbEntity
  8
image
100
AcDbPolyline
 90
       16
 70
     1
 43
0.0
 10
4.125366177845538
 20
5.780209815924628
 42
0.1096021439183502
 10
4.092854404505681
 20
5.774666481337465
 42
0.1024204874116924
 10
4.063597975843086
 20
5.755020827846948
 42
0.0936695383243779
 10
4.043714388925893
 20
5.725229676076782
 42
0.0882994724157594
 10
4.035223502663955
 20
5.688232875233843
 42
0.088299472415759
 10
4.040019541244015
 20
5.650578440753122
 42
0.0936695383243767
 10
4.056864139871287
 20
5.618969434922917
 42
0.1024204874116938
 10
4.084037614998402
 20
5.596530794842136
 42
0.1096021439183517
 10
4.115843095687425
 20
5.587804090871703
 42
0.109602143918351
 10
4.14835486902729
 20
5.593347425458865
 42
0.1024204874116929
 10
4.177611297689884
 20
5.612993078949363
 42
0.0936695383243769
 10
4.197494884607078
 20
5.642784230719549
 42
0.0882994724157586
 10
4.205985770869014
 20
5.679781031562484
 42
0.0882994724157589
 10
4.201189732288957
 20
5.717435466043211
 42
0.0936695383243761
 10
4.184345133661684
 20
5.749044471873395
 42
0.102420487411692
 10
4.157171658534567
 20
5.771483111954191
 42
0.1096021439183503
  0
LWPOLYLINE
  5
BC6
330
18
100
AcDbEntity
  8
image
100
AcDbPolyline
 90
       16
 70
     1
 43
0.0
 10
4.613990070601369
 20
5.711566146320885
 42
0.1833035428166229
 10
4.608475048790849
 20
5.702118344081734
 42
0.1024612315138192
 10
4.609209925718094
 20
5.682998776936635
 42
0.0615734602679465
 10
4.616645045592026
 20
5.663577359051672
 42
0.0478438451985803
 10
4.631384571000923
 20
5.64128607123346
 42
0.0478438451985776
 10
4.650092233746191
 20
5.622202610423537
 42
0.061573460267943
 10
4.667524399983991
 20
5.610862766488999
 42
0.1024612315138217
 10
4.686065468649406
 20
5.606137656473494
 42
0.1833035428166229
 10
4.696459190990855
 20
5.609550422010352
 42
0.1833035428166234
 10
4.701974212801369
 20
5.618998224249503
 42
0.102461231513819
 10
4.701239335874129
 20
5.638117791394597
 42
0.0615734602679484
 10
4.693804216000193
 20
5.657539209279562
 42
0.0478438451985819
 10
4.6790646905913
 20
5.679830497097775
 42
0.0478438451985799
 10
4.66035702784603
 20
5.698913957907683
 42
0.0615734602679431
 10
4.642924861608229
 20
5.710253801842236
 42
0.1024612315138189
 10
4.624383792942815
 20
5.714978911857739
 42
0.183303542816622
  0
LWPOLYLINE
  5
BC7
330
18
100
AcDbEntity
  8
image
100
AcDbPolyline
 90
       16
 70
     1
 43
0.0
 10
3.616469918445559
 20
5.698875234567898
 42
0.1833035428166229
 10
3.610954896635044
 20
5.689427432328765
 42
0.1024612315138192
 10
3.611689773562284
 20
5.670307865183648
 42
0.0615734602679465
 10
3.619124893436222
 20
5.650886447298697
 42
0.0478438451985803
 10
3.633864418845117
 20
5.628595159480477
 42
0.0478438451985776
 10
3.65257208159039
 20
5.609511698670564
 42
0.061573460267943
 10
3.670004247828183
 20
5.598171854736007
 42
0.1024612315138217
 10
3.688545316493597
 20
5.59344674472052
 42
0.1833035428166229
 10
3.698939038835048
 20
5.59685951025736
 42
0.1833035428166234
 10
3.704454060645568
 20
5.606307312496532
 42
0.102461231513819
 10
3.703719183718323
 20
5.625426879641626
 42
0.0615734602679484
 10
3.696284063844386
 20
5.644848297526579
 42
0.0478438451985819
 10
3.681544538435495
 20
5.667139585344804
 42
0.0478438451985799
 10
3.662836875690217
 20
5.686223046154728
 42
0.0615734602679431
 10
3.645404709452423
 20
5.697562890089265
 42
0.1024612315138189
 10
3.626863640787011
 20
5.702288000104756
 42
0.183303542816622
  0
LWPOLYLINE
  5
BC8
330
18
100
AcDbEntity
  8
image
100
AcDbPolyline
 90
       16
 70
     1
 43
0.0
 10
3.058780976136898
 20
5.731784877952485
 42
0.1096021439183502
 10
3.02626920279704
 20
5.726241543365322
 42
0.1024204874116924
 10
2.997012774134445
 20
5.706595889874824
 42
0.0936695383243779
 10
2.977129187217252
 20
5.676804738104639
 42
0.0882994724157594
 10
2.968638300955314
 20
5.639807937261704
 42
0.088299472415759
 10
2.973434339535375
 20
5.602153502780973
 42
0.0936695383243767
 10
2.990278938162646
 20
5.570544496950773
 42
0.1024204874116938
 10
3.017452413289761
 20
5.548105856870011
 42
0.1096021439183517
 10
3.049257893978785
 20
5.539379152899559
 42
0.109602143918351
 10
3.081769667318649
 20
5.544922487486722
 42
0.1024204874116929
 10
3.111026095981243
 20
5.564568140977222
 42
0.0936695383243769
 10
3.130909682898437
 20
5.594359292747407
 42
0.0882994724157586
 10
3.13940056916037
 20
5.631356093590335
 42
0.0882994724157589
 10
3.134604530580313
 20
5.669010528071064
 42
0.0936695383243761
 10
3.117759931953044
 20
5.700619533901271
 42
0.102420487411692
 10
3.090586456825926
 20
5.723058173982035
 42
0.1096021439183503
  0
LWPOLYLINE
  5
BC9
330
18
100
AcDbEntity
  8
image
100
AcDbPolyline
 90
       16
 70
     1
 43
0.0
 10
3.556939168757866
 20
5.558585200241546
 42
0.0846731520301792
 10
3.551545823990934
 20
5.590204886193268
 42
0.0916544813065032
 10
3.536786098785322
 20
5.615942386221167
 42
0.1036340346640379
 10
3.513877792530232
 20
5.633750372607021
 42
0.1140536254072521
 10
3.488132283934143
 20
5.63970051055347
 42
0.1140536254072534
 10
3.462386775338051
 20
5.633750372607021
 42
0.1036340346640368
 10
3.439478469082962
 20
5.615942386221167
 42
0.0916544813065076
 10
3.424718743877354
 20
5.590204886193268
 42
0.0846731520301862
 10
3.419325399110414
 20
5.558585200241546
 42
0.0846731520301835
 10
3.424718743877354
 20
5.526965514289846
 42
0.091654481306508
 10
3.439478469082962
 20
5.501228014261945
 42
0.103634034664036
 10
3.462386775338051
 20
5.483420027876075
 42
0.1140536254072547
 10
3.488132283934143
 20
5.47746988992962
 42
0.1140536254072534
 10
3.513877792530232
 20
5.483420027876075
 42
0.1036340346640367
 10
3.536786098785322
 20
5.501228014261945
 42
0.0916544813065066
 10
3.551545823990934
 20
5.526965514289846
 42
0.0846731520301858
  0
LWPOLYLINE
  5
BCA
330
18
100
AcDbEntity
  8
image
100
AcDbPolyline
 90
       16
 70
     1
 43
0.0
 10
3.767005424591356
 20
5.656728317503196
 42
0.1847277609904711
 10
3.778491656285494
 20
5.650214873083209
 42
0.1021404146396031
 10
3.801792896444201
 20
5.651452424864352
 42
0.0610262113808276
 10
3.825374639371984
 20
5.660831298413729
 42
0.0473278026433084
 10
3.852434308271702
 20
5.679146792442626
 42
0.0473278026433059
 10
3.875567134557458
 20
5.702223953241082
 42
0.0610262113808241
 10
3.889264607843044
 20
5.723588435311992
 42
0.1021404146396033
 10
3.894916296499607
 20
5.746227731738214
 42
0.1847277609904728
 10
3.890709105175586
 20
5.758744041813727
 42
0.1847277609904705
 10
3.879222873481459
 20
5.765257486233707
 42
0.1021404146396031
 10
3.855921633322747
 20
5.764019934452566
 42
0.0610262113808276
 10
3.832339890394964
 20
5.754641060903209
 42
0.0473278026433085
 10
3.805280221495243
 20
5.736325566874308
 42
0.0473278026433093
 10
3.782147395209486
 20
5.713248406075836
 42
0.0610262113808288
 10
3.768449921923904
 20
5.691883924004944
 42
0.1021404146396033
 10
3.762798233267345
 20
5.669244627578724
 42
0.1847277609904759
  0
LWPOLYLINE
  5
BCB
330
18
100
AcDbEntity
  8
image
100
AcDbPolyline
 90
       10
 70
     0
 43
0.0
 10
3.29216088790414
 20
5.773311948341692
 42
0.0281275789019787
 10
3.283844993614698
 20
5.777963343551332
 42
0.1024612315138189
 10
3.265303924949281
 20
5.782688453566818
 42
0.183303542816622
 10
3.254910202607833
 20
5.77927568802996
 42
0.1833035428166236
 10
3.249395180797316
 20
5.769827885790826
 42
0.1024612315138192
 10
3.250130057724556
 20
5.750708318645715
 42
0.0615734602679465
 10
3.257565177598491
 20
5.731286900760748
 42
0.0478438451985803
 10
3.272304703007387
 20
5.708995612942539
 42
0.0478438451985776
 10
3.29101236575266
 20
5.689912152132631
 42
0.0043960359784704
 10
3.29216088790414
 20
5.688962428334335
 42
0.0043960359784704
  0
LWPOLYLINE
  5
BCC
330
18
100
AcDbEntity
  8
image
100
AcDbPolyline
 90
       12
 70
     0
 43
0.0
 10
3.29216088790414
 20
5.620178635337109
 42
0.0115566908760495
 10
3.285636115794224
 20
5.626402053968957
 42
0.0703450477663058
 10
3.256307170667268
 20
5.646389340067605
 42
0.1061532262602316
 10
3.224224121124775
 20
5.654452414024355
 42
0.1615511064879538
 10
3.203062004866135
 20
5.648237964944298
 42
0.1615511064879548
 10
3.189810996700927
 20
5.630606591642179
 42
0.1061532262602322
 10
3.186092365015587
 20
5.597735525216419
 42
0.0703450477663066
 10
3.194505594488548
 20
5.563255151122087
 42
0.0566056099584688
 10
3.215338835991486
 20
5.52446566514363
 42
0.0566056099584683
 10
3.244340286620749
 20
5.491336161142029
 42
0.0703450477663069
 10
3.273669231747712
 20
5.471348875043403
 42
0.0623337939756112
 10
3.29216088790414
 20
5.464948267981288
 42
0.0623337939756112
  0
LWPOLYLINE
  5
BCD
330
18
100
AcDbEntity
  8
image
100
AcDbPolyline
 90
       16
 70
     1
 43
0.0
 10
2.955296633090222
 20
5.605469315362432
 42
0.0846731520301792
 10
2.949903288323287
 20
5.637089001314155
 42
0.0916544813065032
 10
2.935143563117675
 20
5.662826501342033
 42
0.1036340346640379
 10
2.912235256862581
 20
5.680634487727925
 42
0.1140536254072521
 10
2.886489748266496
 20
5.686584625674353
 42
0.1140536254072534
 10
2.860744239670413
 20
5.680634487727925
 42
0.1036340346640368
 10
2.837835933415314
 20
5.662826501342033
 42
0.0916544813065076
 10
2.823076208209704
 20
5.637089001314155
 42
0.0846731520301862
 10
2.817682863442767
 20
5.605469315362432
 42
0.0846731520301835
 10
2.823076208209704
 20
5.573849629410734
 42
0.091654481306508
 10
2.837835933415314
 20
5.548112129382833
 42
0.103634034664036
 10
2.860744239670413
 20
5.530304142996962
 42
0.1140536254072547
 10
2.886489748266496
 20
5.524354005050506
 42
0.1140536254072534
 10
2.912235256862581
 20
5.530304142996962
 42
0.1036340346640367
 10
2.935143563117675
 20
5.548112129382833
 42
0.0916544813065066
 10
2.949903288323282
 20
5.573849629410734
 42
0.0846731520301858
  0
LINE
  5
BCE
330
18
100
AcDbEntity
  8
image
100
AcDbLine
 10
5.55926799135063
 20
5.955828260711964
 30
0.0
 11
2.926496462880582
 21
5.955828260711964
 31
0.0
  0
LINE
  5
BCF
330
18
100
AcDbEntity
  8
image
100
AcDbLine
 10
3.178676846834916
 20
7.639694422865233
 30
0.0
 11
3.134697755599539
 21
7.639694422865229
 31
0.0
  0
LINE
  5
BD0
330
18
100
AcDbEntity
  8
image
100
AcDbLine
 10
3.178676846834916
 20
7.90356897027749
 30
0.0
 11
3.076058967285701
 21
7.90356897027749
 31
0.0
  0
LINE
  5
BD1
330
18
100
AcDbEntity
  8
image
100
AcDbLine
 10
3.108259345215879
 20
7.930897843474134
 30
0.0
 11
6.675471547606976
 21
7.930897843474134
 31
0.0
  0
LINE
  5
BD2
330
18
100
AcDbEntity
  8
image
100
AcDbLine
 10
3.108259345215879
 20
8.29938079139589
 30
0.0
 11
3.108259345215879
 21
7.930897843474134
 31
0.0
  0
LWPOLYLINE
  5
BD3
330
18
100
AcDbEntity
  8
image
100
AcDbPolyline
 90
        4
 70
     0
 43
0.0
 10
2.926496462880582
 20
6.247039248086961
 42
0.6579550248282814
 10
2.926496462880582
 20
6.101433754399463
 42
-0.6579550248282905
 10
2.926496462880582
 20
5.955828260711964
 42
-0.7034136138651875
 10
2.926496462880582
 20
6.101433754399463
 42
-0.7034136138651875
  0
LINE
  5
BD4
330
18
100
AcDbEntity
  8
image
100
AcDbLine
 10
5.55926799135063
 20
6.247039248086964
 30
0.0
 11
4.337150793713435
 21
6.247039248086959
 31
0.0
  0
LINE
  5
BD5
330
18
100
AcDbEntity
  8
image
100
AcDbLine
 10
3.017420178971866
 20
8.29938079139589
 30
0.0
 11
3.017420178971866
 21
7.771631696571359
 31
0.0
  0
LINE
  5
BD6
330
18
100
AcDbEntity
  8
image
100
AcDbLine
 10
3.017420178971866
 20
7.771631696571359
 30
0.0
 11
2.958781390658025
 21
7.537076543316011
 31
0.0
  0
LINE
  5
BD7
330
18
100
AcDbEntity
  8
image
100
AcDbLine
 10
2.958781390658025
 20
7.537076543316011
 30
0.0
 11
2.824811020276726
 21
6.892049871863784
 31
0.0
  0
LINE
  5
BD8
330
18
100
AcDbEntity
  8
image
100
AcDbLine
 10
2.824811020276726
 20
6.892049871863784
 30
0.0
 11
2.789570677908031
 21
6.42293956535309
 31
0.0
  0
LINE
  5
BD9
330
18
100
AcDbEntity
  8
image
100
AcDbLine
 10
3.001661763329133
 20
7.527267595518292
 30
0.0
 11
2.868452419467264
 21
6.885905035774655
 31
0.0
  0
LINE
  5
BDA
330
18
100
AcDbEntity
  8
image
100
AcDbLine
 10
3.084742334210092
 20
7.859589879042108
 30
0.0
 11
3.001661763329133
 21
7.527267595518292
 31
0.0
  0
LINE
  5
BDB
330
18
100
AcDbEntity
  8
image
100
AcDbLine
 10
3.076058967285701
 20
8.29938079139589
 30
0.0
 11
3.076058967285701
 21
7.90356897027749
 31
0.0
  0
LINE
  5
BDC
330
18
100
AcDbEntity
  8
image
100
AcDbLine
 10
3.178676846834916
 20
7.90356897027749
 30
0.0
 11
3.178676846834916
 21
7.639694422865229
 31
0.0
  0
LINE
  5
BDD
330
18
100
AcDbEntity
  8
image
100
AcDbLine
 10
3.134697755599539
 20
7.859589879042108
 30
0.0
 11
3.134697755599539
 21
7.639694422865229
 31
0.0
  0
LINE
  5
BDE
330
18
100
AcDbEntity
  8
image
100
AcDbLine
 10
3.134697755599539
 20
7.859589879042108
 30
0.0
 11
3.084742334210092
 21
7.859589879042108
 31
0.0
  0
LINE
  5
BDF
330
18
100
AcDbEntity
  8
image
100
AcDbLine
 10
2.789570677908031
 20
6.42293956535309
 30
0.0
 11
2.701364659019645
 21
6.42293956535309
 31
0.0
  0
LINE
  5
BE0
330
18
100
AcDbEntity
  8
image
100
AcDbLine
 10
2.701364659019645
 20
6.42293956535309
 30
0.0
 11
2.548309872461004
 21
5.719274105587038
 31
0.0
  0
LINE
  5
BE1
330
18
100
AcDbEntity
  8
image
100
AcDbLine
 10
2.830369905255157
 20
6.378960474117718
 30
0.0
 11
2.701364659019645
 21
6.378960474117718
 31
0.0
  0
LINE
  5
BE4
330
18
100
AcDbEntity
  8
image
100
AcDbLine
 10
6.675471547606976
 20
8.299380791395897
 30
0.0
 11
3.108259345215877
 21
8.29938079139589
 31
0.0
  0
LINE
  5
BE5
330
18
100
AcDbEntity
  8
image
100
AcDbLine
 10
6.675471547606976
 20
7.930897843474134
 30
0.0
 11
6.675471547606976
 21
8.29938079139589
 31
0.0
  0
LINE
  5
BE6
330
18
100
AcDbEntity
  8
image
100
AcDbLine
 10
6.770302631057464
 20
8.29938079139589
 30
0.0
 11
6.711663842743629
 21
8.299380791395897
 31
0.0
  0
LINE
  5
BE7
330
18
100
AcDbEntity
  8
image
100
AcDbLine
 10
6.711663842743629
 20
7.90356897027749
 30
0.0
 11
6.609045963194406
 21
7.90356897027749
 31
0.0
  0
LINE
  5
BE8
330
18
100
AcDbEntity
  8
image
100
AcDbLine
 10
6.653025054429782
 20
7.859589879042108
 30
0.0
 11
6.702980475819243
 21
7.859589879042108
 31
0.0
  0
LINE
  5
BE9
330
18
100
AcDbEntity
  8
image
100
AcDbLine
 10
6.653025054429782
 20
7.859589879042108
 30
0.0
 11
6.653025054429782
 21
7.639694422865229
 31
0.0
  0
LINE
  5
BEA
330
18
100
AcDbEntity
  8
image
100
AcDbLine
 10
6.609045963194406
 20
7.90356897027749
 30
0.0
 11
6.609045963194406
 21
7.639694422865229
 31
0.0
  0
LINE
  5
BEB
330
18
100
AcDbEntity
  8
image
100
AcDbLine
 10
6.711663842743629
 20
8.29938079139589
 30
0.0
 11
6.711663842743629
 21
7.90356897027749
 31
0.0
  0
LINE
  5
BEC
330
18
100
AcDbEntity
  8
image
100
AcDbLine
 10
6.702980475819243
 20
7.859589879042108
 30
0.0
 11
6.786061046700192
 21
7.527267595518292
 31
0.0
  0
LINE
  5
BED
330
18
100
AcDbEntity
  8
image
100
AcDbLine
 10
6.770302631057464
 20
7.771631696571359
 30
0.0
 11
6.8289414193713
 21
7.537076543316011
 31
0.0
  0
LINE
  5
BEE
330
18
100
AcDbEntity
  8
image
100
AcDbLine
 10
6.770302631057464
 20
8.29938079139589
 30
0.0
 11
6.770302631057464
 21
7.771631696571359
 31
0.0
  0
LINE
  5
BEF
330
18
100
AcDbEntity
  8
image
100
AcDbLine
 10
6.653025054429782
 20
7.639694422865229
 30
0.0
 11
6.609045963194406
 21
7.639694422865233
 31
0.0
  0
LINE
  5
BF0
330
18
100
AcDbEntity
  8
image
100
AcDbLine
 10
6.770302631057464
 20
8.29938079139589
 30
0.0
 11
7.429631386819734
 21
8.29938079139589
 31
0.0
  0
LINE
  5
BF1
330
18
100
AcDbEntity
  8
image
100
AcDbLine
 10
3.017420178971866
 20
8.29938079139589
 30
0.0
 11
2.352765499170384
 21
8.29938079139589
 31
0.0
  0
LINE
  5
BF2
330
18
100
AcDbEntity
  8
image
100
AcDbLine
 10
3.076058967285701
 20
8.29938079139589
 30
0.0
 11
3.017420178971866
 21
8.29938079139589
 31
0.0
  0
INSERT
  5
C50
330
18
100
AcDbEntity
  8
image
100
AcDbBlockReference
  2
*X0
 10
1.604591162754383
 20
0.1802268693652953
 30
0.0
 41
1.5
 42
1.5
 43
1.5
1001
ACAD
1000
HATCH
1002
{
1070
    16
1000
AR-PARQ1
1040
0.02
1040
0.7853981633974483
1002
}
  0
LINE
  5
CA2
330
18
100
AcDbEntity
  8
image
100
AcDbLine
 10
6.319559019368938
 20
5.955828260711965
 30
0.0
 11
7.636618391950287
 21
5.955828260711965
 31
0.0
  0
LWPOLYLINE
  5
CA3
330
18
100
AcDbEntity
  8
image
100
AcDbPolyline
 90
        4
 70
     0
 43
0.0
 10
7.636618391950287
 20
6.247039248086961
 42
-0.6579550248282814
 10
7.636618391950287
 20
6.101433754399463
 42
0.6579550248282905
 10
7.636618391950287
 20
5.955828260711964
 42
0.7034136138651875
 10
7.636618391950287
 20
6.101433754399463
 42
0.7034136138651875
  0
LINE
  5
CA4
330
18
100
AcDbEntity
  8
image
100
AcDbLine
 10
6.319559019368938
 20
6.247039248086965
 30
0.0
 11
7.636618391950294
 21
6.247039248086958
 31
0.0
  0
LWPOLYLINE
  5
CAC
330
18
100
AcDbEntity
  8
image
 62
     3
100
AcDbPolyline
 90
        4
 70
     1
 43
0.0
 10
4.514326394837478
 20
7.046785186550776
 10
3.957257271598422
 20
7.046785186550776
 10
3.957257271598422
 20
7.34111723076962
 10
4.514326394837478
 20
7.34111723076962
  0
LWPOLYLINE
  5
CAD
330
18
100
AcDbEntity
  8
image
 62
     3
100
AcDbPolyline
 90
        2
 70
     0
 43
0.0
 10
4.507382455256735
 20
7.046785186550776
 10
4.507382455256735
 20
7.34111723076962
  0
LINE
  5
CAE
330
18
100
AcDbEntity
  8
image
100
AcDbLine
 10
3.149912804127444
 20
8.817251374153395
 30
0.0
 11
2.985192949439703
 21
8.29938079139589
 31
0.0
  0
LINE
  5
CAF
330
18
100
AcDbEntity
  8
image
100
AcDbLine
 10
3.07419707551273
 20
8.80686325789984
 30
0.0
 11
2.951917046283762
 21
8.29938079139589
 31
0.0
  0
LINE
  5
CB0
330
18
100
AcDbEntity
  8
image
100
AcDbLine
 10
3.017420178971866
 20
8.29938079139589
 30
0.0
 11
2.28650921914158
 21
8.297479216190053
 31
0.0
  0
LINE
  5
CB1
330
18
100
AcDbEntity
  8
image
100
AcDbLine
 10
2.5483441532538
 20
8.80686325789984
 30
0.0
 11
2.426064124024822
 21
8.29938079139589
 31
0.0
  0
LINE
  5
CB2
330
18
100
AcDbEntity
  8
image
100
AcDbLine
 10
2.508862484915264
 20
8.742639268086712
 30
0.0
 11
2.627154429076803
 21
8.29938079139589
 31
0.0
  0
LINE
  5
CB3
330
18
100
AcDbEntity
  8
image
100
AcDbLine
 10
2.556346910859021
 20
8.773031093466229
 30
0.0
 11
2.516841055261968
 21
8.299380791395901
 31
0.0
  0
LINE
  5
CB4
330
18
100
AcDbEntity
  8
image
100
AcDbLine
 10
2.751517124895826
 20
8.789947175683048
 30
0.0
 11
2.51770695911729
 21
8.29938079139589
 31
0.0
  0
LINE
  5
CB5
330
18
100
AcDbEntity
  8
image
100
AcDbLine
 10
2.313517780109574
 20
8.752384527851141
 30
0.0
 11
2.467784333476629
 21
8.29938079139589
 31
0.0
  0
LINE
  5
CB6
330
18
100
AcDbEntity
  8
image
100
AcDbLine
 10
2.396583618340612
 20
8.735537888982648
 30
0.0
 11
2.437473346239377
 21
8.29938079139589
 31
0.0
  0
LINE
  5
CB7
330
18
100
AcDbEntity
  8
image
100
AcDbLine
 10
2.45294638064835
 20
8.763943405398883
 30
0.0
 11
2.509600357965801
 21
8.29938079139589
 31
0.0
  0
LINE
  5
CB8
330
18
100
AcDbEntity
  8
image
100
AcDbLine
 10
2.326015179972976
 20
8.771129518260382
 30
0.0
 11
2.286509324375918
 21
8.297479216190053
 31
0.0
  0
LINE
  5
CB9
330
18
100
AcDbEntity
  8
image
100
AcDbLine
 10
2.387036101157361
 20
8.823779340116631
 30
0.0
 11
2.387036101157361
 21
8.29938079139589
 31
0.0
  0
LINE
  5
CBA
330
18
100
AcDbEntity
  8
image
100
AcDbLine
 10
2.304612408776524
 20
8.735537888982648
 30
0.0
 11
2.345502136675284
 21
8.29938079139589
 31
0.0
  0
LINE
  5
CBB
330
18
100
AcDbEntity
  8
image
100
AcDbLine
 10
2.294377938701289
 20
8.739198929032641
 30
0.0
 11
2.399645094298417
 21
8.299380791395901
 31
0.0
  0
LINE
  5
CBC
330
18
100
AcDbEntity
  8
image
100
AcDbLine
 10
2.262394589678445
 20
8.709257040460503
 30
0.0
 11
2.330146488659993
 21
8.29938079139589
 31
0.0
  0
LINE
  5
CBD
330
18
100
AcDbEntity
  8
image
100
AcDbLine
 10
2.430747314770622
 20
8.700030993462359
 30
0.0
 11
2.540603015337239
 21
8.29938079139589
 31
0.0
  0
LINE
  5
CBE
330
18
100
AcDbEntity
  8
image
100
AcDbLine
 10
2.903798113306914
 20
8.742639268086707
 30
0.0
 11
3.017420178971866
 21
8.29938079139589
 31
0.0
  0
LINE
  5
CBF
330
18
100
AcDbEntity
  8
image
100
AcDbLine
 10
2.951282539250666
 20
8.773031093466224
 30
0.0
 11
2.911776683653624
 21
8.299380791395895
 31
0.0
  0
LINE
  5
CC0
330
18
100
AcDbEntity
  8
image
100
AcDbLine
 10
3.009185900569264
 20
8.728436509878584
 30
0.0
 11
2.968599548820902
 21
8.29938079139589
 31
0.0
  0
LINE
  5
CC1
330
18
100
AcDbEntity
  8
image
100
AcDbLine
 10
3.008735340676114
 20
8.823779340116626
 30
0.0
 11
3.008735340676114
 21
8.29938079139589
 31
0.0
  0
LINE
  5
CC2
330
18
100
AcDbEntity
  8
image
100
AcDbLine
 10
2.615175161052802
 20
8.823779340116631
 30
0.0
 11
2.615175161052802
 21
8.29938079139589
 31
0.0
  0
LINE
  5
CC3
330
18
100
AcDbEntity
  8
image
100
AcDbLine
 10
2.602523612358323
 20
8.728436509878584
 30
0.0
 11
2.561937260609967
 21
8.29938079139589
 31
0.0
  0
LINE
  5
CC4
330
18
100
AcDbEntity
  8
image
100
AcDbLine
 10
2.691266285098169
 20
8.823779340116626
 30
0.0
 11
2.691266285098169
 21
8.29938079139589
 31
0.0
  0
LINE
  5
CC5
330
18
100
AcDbEntity
  8
image
100
AcDbLine
 10
2.619742949144566
 20
8.763943405398878
 30
0.0
 11
2.676396926462006
 21
8.29938079139589
 31
0.0
  0
LINE
  5
CC6
330
18
100
AcDbEntity
  8
image
100
AcDbLine
 10
2.781971729549011
 20
8.823779340116626
 30
0.0
 11
2.781971729549011
 21
8.29938079139589
 31
0.0
  0
LINE
  5
CC7
330
18
100
AcDbEntity
  8
image
100
AcDbLine
 10
2.744728263304169
 20
8.823779340116626
 30
0.0
 11
2.744728263304169
 21
8.29938079139589
 31
0.0
  0
LINE
  5
CC8
330
18
100
AcDbEntity
  8
image
100
AcDbLine
 10
2.664092308483262
 20
8.700030993462348
 30
0.0
 11
2.773948009049885
 21
8.29938079139589
 31
0.0
  0
LINE
  5
CC9
330
18
100
AcDbEntity
  8
image
100
AcDbLine
 10
2.618070360041166
 20
8.739198929032635
 30
0.0
 11
2.723337515638293
 21
8.29938079139589
 31
0.0
  0
LINE
  5
CCA
330
18
100
AcDbEntity
  8
image
100
AcDbLine
 10
2.846506560271668
 20
8.763943405398878
 30
0.0
 11
2.903160537589114
 21
8.29938079139589
 31
0.0
  0
LINE
  5
CCB
330
18
100
AcDbEntity
  8
image
100
AcDbLine
 10
2.825682943162282
 20
8.700030993462354
 30
0.0
 11
2.935538643728895
 21
8.29938079139589
 31
0.0
  0
LINE
  5
CCC
330
18
100
AcDbEntity
  8
image
100
AcDbLine
 10
2.813092668856072
 20
8.742639268086707
 30
0.0
 11
2.926714734521024
 21
8.309455142739123
 31
0.0
  0
LINE
  5
CCD
330
18
100
AcDbEntity
  8
image
100
AcDbLine
 10
2.860577094799834
 20
8.773031093466224
 30
0.0
 11
2.821071239202781
 21
8.299380791395895
 31
0.0
  0
LINE
  5
CCE
330
18
100
AcDbEntity
  8
image
100
AcDbLine
 10
2.734977498711424
 20
8.700030993462354
 30
0.0
 11
2.844833199278047
 21
8.29938079139589
 31
0.0
  0
LINE
  5
CCF
330
18
100
AcDbEntity
  8
image
100
AcDbLine
 10
2.561867676936829
 20
8.671534600165452
 30
0.0
 11
2.862719961868274
 21
8.29938079139589
 31
0.0
  0
LINE
  5
CD0
330
18
100
AcDbEntity
  8
image
100
AcDbLine
 10
3.29216088790414
 20
6.800697148128049
 30
0.0
 11
3.29216088790414
 21
6.565458597710465
 31
0.0
  0
LINE
  5
CD1
330
18
100
AcDbEntity
  8
image
100
AcDbLine
 10
3.421259647807174
 20
6.565458597710465
 30
0.0
 11
3.421259647807174
 21
6.800697148128049
 31
0.0
  0
LINE
  5
CD2
330
18
100
AcDbEntity
  8
image
100
AcDbLine
 10
3.29216088790414
 20
4.305159653092241
 30
0.0
 11
3.421259647807174
 21
4.30515965309224
 31
0.0
  0
LINE
  5
CD3
330
18
100
AcDbEntity
  8
image
100
AcDbLine
 10
3.421259647807174
 20
4.305159653092241
 30
0.0
 11
3.356999576344128
 21
4.178614716231273
 31
0.0
  0
LINE
  5
CD4
330
18
100
AcDbEntity
  8
image
100
AcDbLine
 10
3.508265833394068
 20
6.46377747852381
 30
0.0
 11
3.206575184546705
 21
6.46377747852381
 31
0.0
  0
LINE
  5
CD5
330
18
100
AcDbEntity
  8
image
100
AcDbLine
 10
3.206575184546705
 20
6.565458597710465
 30
0.0
 11
3.508265833394068
 21
6.565458597710465
 31
0.0
  0
LINE
  5
CD6
330
18
100
AcDbEntity
  8
image
100
AcDbLine
 10
3.29216088790414
 20
6.46377747852381
 30
0.0
 11
3.292160887904138
 21
6.247039248086956
 31
0.0
  0
LINE
  5
CD7
330
18
100
AcDbEntity
  8
image
100
AcDbLine
 10
3.29216088790414
 20
5.053849955133047
 30
0.0
 11
3.29216088790414
 21
4.305159653092241
 31
0.0
  0
LINE
  5
CD8
330
18
100
AcDbEntity
  8
image
100
AcDbLine
 10
3.29216088790414
 20
4.305159653092241
 30
0.0
 11
3.356999576344128
 21
4.178614716231273
 31
0.0
  0
LINE
  5
CD9
330
18
100
AcDbEntity
  8
image
100
AcDbLine
 10
3.206575184546705
 20
6.46377747852381
 30
0.0
 11
3.206575184546705
 21
6.565458597710465
 31
0.0
  0
LINE
  5
CDA
330
18
100
AcDbEntity
  8
image
100
AcDbLine
 10
3.421259647807174
 20
4.30515965309224
 30
0.0
 11
3.421259647807174
 21
5.955828260711965
 31
0.0
  0
LWPOLYLINE
  5
CDB
330
18
100
AcDbEntity
  8
image
100
AcDbPolyline
 90
        5
 70
     0
 43
0.0
 10
3.575598305434166
 20
6.560235495538851
 10
3.575598305434166
 20
6.473669193667442
 10
3.5986943971266
 20
6.473669193667442
 10
3.5986943971266
 20
6.560235495538851
 10
3.575598305434166
 20
6.560235495538851
  0
LINE
  5
CDC
330
18
100
AcDbEntity
  8
image
100
AcDbLine
 10
3.508265833394068
 20
6.565458597710465
 30
0.0
 11
3.508265833394068
 21
6.46377747852381
 31
0.0
  0
LINE
  5
CDD
330
18
100
AcDbEntity
  8
image
100
AcDbLine
 10
3.508265833394068
 20
6.464401032984515
 30
0.0
 11
3.55737826083541
 21
6.488944743608269
 31
0.0
  0
LINE
  5
CDE
330
18
100
AcDbEntity
  8
image
100
AcDbLine
 10
3.5753973059693
 20
6.538450563069461
 30
0.0
 11
3.598906062234766
 21
6.538450563069461
 31
0.0
  0
LINE
  5
CDF
330
18
100
AcDbEntity
  8
image
100
AcDbLine
 10
3.5753973059693
 20
6.495282038811076
 30
0.0
 11
3.598906062234766
 21
6.495282038811076
 31
0.0
  0
LINE
  5
CE0
330
18
100
AcDbEntity
  8
image
100
AcDbLine
 10
3.508265833394068
 20
6.565458597710465
 30
0.0
 11
3.55737826083541
 21
6.540914887086712
 31
0.0
  0
LINE
  5
CE1
330
18
100
AcDbEntity
  8
image
100
AcDbLine
 10
3.557409248007525
 20
6.525547738630274
 30
0.0
 11
3.575598305434166
 21
6.525547738630274
 31
0.0
  0
LINE
  5
CE2
330
18
100
AcDbEntity
  8
image
100
AcDbLine
 10
3.575598305434166
 20
6.503910965371725
 30
0.0
 11
3.557409248007525
 21
6.503910965371725
 31
0.0
  0
LINE
  5
CE3
330
18
100
AcDbEntity
  8
image
100
AcDbLine
 10
3.55737826083541
 20
6.540914887086712
 30
0.0
 11
3.55737826083541
 21
6.488944743608269
 31
0.0
  0
LINE
  5
CE4
330
18
100
AcDbEntity
  8
image
100
AcDbLine
 10
3.421259647807174
 20
7.124172153510248
 30
0.0
 11
3.29216088790414
 21
7.124172153510248
 31
0.0
  0
LINE
  5
CE5
330
18
100
AcDbEntity
  8
image
100
AcDbLine
 10
3.206575184546705
 20
6.902378267314705
 30
0.0
 11
3.508265833394068
 21
6.902378267314705
 31
0.0
  0
LINE
  5
CE6
330
18
100
AcDbEntity
  8
image
100
AcDbLine
 10
3.508265833394068
 20
6.800697148128049
 30
0.0
 11
3.206575184546705
 21
6.800697148128049
 31
0.0
  0
LINE
  5
CE7
330
18
100
AcDbEntity
  8
image
100
AcDbLine
 10
3.29216088790414
 20
7.124172153510248
 30
0.0
 11
3.29216088790414
 21
6.902378267314705
 31
0.0
  0
LINE
  5
CE8
330
18
100
AcDbEntity
  8
image
100
AcDbLine
 10
3.206575184546705
 20
6.800697148128049
 30
0.0
 11
3.206575184546705
 21
6.902378267314705
 31
0.0
  0
LINE
  5
CE9
330
18
100
AcDbEntity
  8
image
100
AcDbLine
 10
3.421259647807174
 20
6.902378267314705
 30
0.0
 11
3.421259647807174
 21
7.124172153510248
 31
0.0
  0
LINE
  5
CEA
330
18
100
AcDbEntity
  8
image
100
AcDbLine
 10
3.5753973059693
 20
6.832201708415316
 30
0.0
 11
3.598906062234766
 21
6.832201708415316
 31
0.0
  0
LINE
  5
CEB
330
18
100
AcDbEntity
  8
image
100
AcDbLine
 10
3.5753973059693
 20
6.8753702326737
 30
0.0
 11
3.598906062234766
 21
6.8753702326737
 31
0.0
  0
LWPOLYLINE
  5
CEC
330
18
100
AcDbEntity
  8
image
100
AcDbPolyline
 90
        5
 70
     0
 43
0.0
 10
3.575598305434166
 20
6.897155165143092
 10
3.575598305434166
 20
6.81058886327168
 10
3.5986943971266
 20
6.81058886327168
 10
3.5986943971266
 20
6.897155165143092
 10
3.575598305434166
 20
6.897155165143092
  0
LINE
  5
CED
330
18
100
AcDbEntity
  8
image
100
AcDbLine
 10
3.508265833394068
 20
6.902378267314705
 30
0.0
 11
3.508265833394068
 21
6.800697148128049
 31
0.0
  0
LINE
  5
CEE
330
18
100
AcDbEntity
  8
image
100
AcDbLine
 10
3.55737826083541
 20
6.877834556690952
 30
0.0
 11
3.55737826083541
 21
6.825864413212507
 31
0.0
  0
LINE
  5
CEF
330
18
100
AcDbEntity
  8
image
100
AcDbLine
 10
3.508265833394068
 20
6.801320702588755
 30
0.0
 11
3.55737826083541
 21
6.825864413212507
 31
0.0
  0
LINE
  5
CF0
330
18
100
AcDbEntity
  8
image
100
AcDbLine
 10
3.557409248007525
 20
6.862467408234512
 30
0.0
 11
3.575598305434166
 21
6.862467408234512
 31
0.0
  0
LINE
  5
CF1
330
18
100
AcDbEntity
  8
image
100
AcDbLine
 10
3.575598305434166
 20
6.840830634975964
 30
0.0
 11
3.557409248007525
 21
6.840830634975964
 31
0.0
  0
LINE
  5
CF2
330
18
100
AcDbEntity
  8
image
100
AcDbLine
 10
3.508265833394068
 20
6.902378267314705
 30
0.0
 11
3.55737826083541
 21
6.877834556690952
 31
0.0
  0
LINE
  5
CF3
330
18
100
AcDbEntity
  8
image
100
AcDbLine
 10
6.770302631057464
 20
8.29938079139589
 30
0.0
 11
7.501213485653414
 21
8.297479216190053
 31
0.0
  0
LINE
  5
CF6
330
18
100
AcDbEntity
  8
image
100
AcDbLine
 10
6.883924696722417
 20
8.742639268086707
 30
0.0
 11
6.770302631057464
 21
8.29938079139589
 31
0.0
  0
LINE
  5
CF9
330
18
100
AcDbEntity
  8
image
100
AcDbLine
 10
7.23937865677553
 20
8.80686325789984
 30
0.0
 11
7.361658686004508
 21
8.29938079139589
 31
0.0
  0
LINE
  5
CFA
330
18
100
AcDbEntity
  8
image
100
AcDbLine
 10
7.356975495258708
 20
8.700030993462359
 30
0.0
 11
7.247119794692091
 21
8.29938079139589
 31
0.0
  0
LINE
  5
CFB
330
18
100
AcDbEntity
  8
image
100
AcDbLine
 10
7.278860325114067
 20
8.742639268086712
 30
0.0
 11
7.160568380952527
 21
8.29938079139589
 31
0.0
  0
LINE
  5
CFC
330
18
100
AcDbEntity
  8
image
100
AcDbLine
 10
7.231375899170309
 20
8.773031093466229
 30
0.0
 11
7.270881754767362
 21
8.299380791395901
 31
0.0
  0
LINE
  5
CFD
330
18
100
AcDbEntity
  8
image
100
AcDbLine
 10
7.036205685133504
 20
8.789947175683048
 30
0.0
 11
7.27001585091204
 21
8.29938079139589
 31
0.0
  0
LINE
  5
CFE
330
18
100
AcDbEntity
  8
image
100
AcDbLine
 10
7.172547648976529
 20
8.823779340116631
 30
0.0
 11
7.172547648976529
 21
8.29938079139589
 31
0.0
  0
LINE
  5
CFF
330
18
100
AcDbEntity
  8
image
100
AcDbLine
 10
7.185199197671007
 20
8.728436509878584
 30
0.0
 11
7.225785549419363
 21
8.29938079139589
 31
0.0
  0
LINE
  5
D00
330
18
100
AcDbEntity
  8
image
100
AcDbLine
 10
7.096456524931161
 20
8.823779340116626
 30
0.0
 11
7.096456524931161
 21
8.29938079139589
 31
0.0
  0
LINE
  5
D01
330
18
100
AcDbEntity
  8
image
100
AcDbLine
 10
7.167979860884765
 20
8.763943405398878
 30
0.0
 11
7.111325883567324
 21
8.29938079139589
 31
0.0
  0
LINE
  5
D02
330
18
100
AcDbEntity
  8
image
100
AcDbLine
 10
7.052745311317906
 20
8.700030993462354
 30
0.0
 11
6.942889610751283
 21
8.29938079139589
 31
0.0
  0
LINE
  5
D03
330
18
100
AcDbEntity
  8
image
100
AcDbLine
 10
7.005751080480319
 20
8.823779340116626
 30
0.0
 11
7.005751080480319
 21
8.29938079139589
 31
0.0
  0
LINE
  5
D04
330
18
100
AcDbEntity
  8
image
100
AcDbLine
 10
7.042994546725161
 20
8.823779340116626
 30
0.0
 11
7.042994546725161
 21
8.29938079139589
 31
0.0
  0
LINE
  5
D05
330
18
100
AcDbEntity
  8
image
100
AcDbLine
 10
6.846723612474516
 20
8.659661925922955
 30
0.0
 11
6.875946126375707
 21
8.299380791395895
 31
0.0
  0
LINE
  5
D06
330
18
100
AcDbEntity
  8
image
100
AcDbLine
 10
6.941216249757662
 20
8.763943405398878
 30
0.0
 11
6.884562272440216
 21
8.29938079139589
 31
0.0
  0
LINE
  5
D07
330
18
100
AcDbEntity
  8
image
100
AcDbLine
 10
6.962039866867048
 20
8.700030993462354
 30
0.0
 11
6.852184166300435
 21
8.29938079139589
 31
0.0
  0
LINE
  5
D09
330
18
100
AcDbEntity
  8
image
100
AcDbLine
 10
6.927145715229496
 20
8.773031093466224
 30
0.0
 11
6.966651570826549
 21
8.299380791395895
 31
0.0
  0
LINE
  5
D0A
330
18
100
AcDbEntity
  8
image
100
AcDbLine
 10
7.123630501546069
 20
8.700030993462348
 30
0.0
 11
7.013774800979446
 21
8.29938079139589
 31
0.0
  0
LINE
  5
D0B
330
18
100
AcDbEntity
  8
image
100
AcDbLine
 10
7.169652449988165
 20
8.739198929032635
 30
0.0
 11
7.064385294391037
 21
8.29938079139589
 31
0.0
  0
LINE
  5
D0C
330
18
100
AcDbEntity
  8
image
100
AcDbLine
 10
7.225855133092501
 20
8.671534600165452
 30
0.0
 11
6.925002848161057
 21
8.29938079139589
 31
0.0
  0
LINE
  5
D0D
330
18
100
AcDbEntity
  8
image
100
AcDbLine
 10
7.474205029919756
 20
8.752384527851141
 30
0.0
 11
7.319938476552701
 21
8.29938079139589
 31
0.0
  0
LINE
  5
D0E
330
18
100
AcDbEntity
  8
image
100
AcDbLine
 10
7.33477642938098
 20
8.763943405398883
 30
0.0
 11
7.278122452063529
 21
8.29938079139589
 31
0.0
  0
LINE
  5
D0F
330
18
100
AcDbEntity
  8
image
100
AcDbLine
 10
7.525328220350884
 20
8.709257040460503
 30
0.0
 11
7.457576321369337
 21
8.29938079139589
 31
0.0
  0
LINE
  5
D10
330
18
100
AcDbEntity
  8
image
100
AcDbLine
 10
7.391139191688719
 20
8.735537888982648
 30
0.0
 11
7.350249463789953
 21
8.29938079139589
 31
0.0
  0
LINE
  5
D11
330
18
100
AcDbEntity
  8
image
100
AcDbLine
 10
7.400686708871969
 20
8.823779340116631
 30
0.0
 11
7.400686708871969
 21
8.29938079139589
 31
0.0
  0
LINE
  5
D12
330
18
100
AcDbEntity
  8
image
100
AcDbLine
 10
7.483110401252806
 20
8.735537888982648
 30
0.0
 11
7.442220673354047
 21
8.29938079139589
 31
0.0
  0
LINE
  5
D13
330
18
100
AcDbEntity
  8
image
100
AcDbLine
 10
7.461707630056354
 20
8.771129518260382
 30
0.0
 11
7.501213485653414
 21
8.297479216190053
 31
0.0
  0
LINE
  5
D14
330
18
100
AcDbEntity
  8
image
100
AcDbLine
 10
7.493344871328039
 20
8.739198929032641
 30
0.0
 11
7.388077715730913
 21
8.299380791395901
 31
0.0
  0
LINE
  5
D15
330
18
100
AcDbEntity
  8
image
100
AcDbLine
 10
3.29216088790414
 20
5.955828260711964
 30
0.0
 11
3.29216088790414
 21
5.060423594932635
 31
0.0
  0
LINE
  5
D16
330
18
100
AcDbEntity
  8
image
100
AcDbLine
 10
3.421259647807174
 20
6.247039248086957
 30
0.0
 11
3.421259647807174
 21
6.46377747852381
 31
0.0
  0
LINE
  5
D17
330
18
100
AcDbEntity
  8
image
100
AcDbLine
 10
7.187959871029798
 20
5.955828260711966
 30
0.0
 11
7.239412937568326
 21
5.719274105587038
 31
0.0
  0
LINE
  5
D18
330
18
100
AcDbEntity
  8
image
100
AcDbLine
 10
6.989139296718001
 20
5.955828260711966
 30
0.0
 11
7.024529807414486
 21
5.484718952331695
 31
0.0
  0
POINT
  5
D1B
330
18
100
AcDbEntity
  8
image
100
AcDbPoint
 10
3.186062611009537
 20
7.793943169128338
 30
0.0
  0
LEADER
  5
D4D
330
18
100
AcDbEntity
  8
text_bubbles
100
AcDbLeader
  3
STANDARD
 76
     2
 10
7.460003663962417
 20
5.484863728728779
 30
0.0
 10
8.014382566740723
 20
5.882341092297917
 30
0.0
1001
ACAD
1000
DSTYLE
1002
{
1070
   147
1040
0.09
1070
    77
1070
     0
1002
}
  0
LEADER
  5
D4E
330
18
100
AcDbEntity
  8
text_bubbles
100
AcDbLeader
  3
STANDARD
 76
     2
 10
7.229847928791095
 20
6.246698177674872
 30
0.0
 10
7.993632256612028
 20
6.757951435272945
 30
0.0
1001
ACAD
1000
DSTYLE
1002
{
1070
   147
1040
0.09
1070
    77
1070
     0
1002
}
  0
LEADER
  5
D4F
330
18
100
AcDbEntity
  8
text_bubbles
100
AcDbLeader
  3
STANDARD
 76
     2
 10
6.044511081005257
 20
5.43112790196642
 30
0.0
 10
6.45361804606601
 20
4.316145530319587
 30
0.0
1001
ACAD
1000
DSTYLE
1002
{
1070
   147
1040
0.09
1070
    77
1070
     0
1002
}
  0
LINE
  5
DA7
330
18
100
AcDbEntity
  8
image
100
AcDbLine
 10
5.545890939968913
 20
6.887945836973013
 30
0.0
 11
5.545890939968913
 21
6.852097133974596
 31
0.0
  0
LINE
  5
DA8
330
18
100
AcDbEntity
  8
image
100
AcDbLine
 10
5.457464139239494
 20
6.887945836973013
 30
0.0
 11
5.457464139239494
 21
6.852097133974596
 31
0.0
  0
LINE
  5
DA9
330
18
100
AcDbEntity
  8
image
100
AcDbLine
 10
5.467023793372401
 20
6.887945836973013
 30
0.0
 11
5.467023793372401
 21
6.852097133974596
 31
0.0
  0
LINE
  5
DAA
330
18
100
AcDbEntity
  8
image
100
AcDbLine
 10
5.349918030244253
 20
6.887945836973013
 30
0.0
 11
5.349918030244253
 21
6.852097133974596
 31
0.0
  0
LINE
  5
DAB
330
18
100
AcDbEntity
  8
image
100
AcDbLine
 10
5.340358376111346
 20
6.887945836973013
 30
0.0
 11
5.340358376111346
 21
6.852097133974596
 31
0.0
  0
LINE
  5
DAC
330
18
100
AcDbEntity
  8
image
100
AcDbLine
 10
5.271050883647742
 20
6.887945836973013
 30
0.0
 11
5.271050883647742
 21
6.852097133974596
 31
0.0
  0
LINE
  5
E04
330
18
100
AcDbEntity
  8
image
100
AcDbLine
 10
5.333547122541645
 20
6.770840073844865
 30
0.0
 11
5.473835046942095
 21
6.770840073844865
 31
0.0
  0
LINE
  5
E05
330
18
100
AcDbEntity
  8
image
100
AcDbLine
 10
5.230422353582877
 20
6.852097133974596
 30
0.0
 11
5.57695981590087
 21
6.852097133974596
 31
0.0
  0
LINE
  5
E06
330
18
100
AcDbEntity
  8
image
100
AcDbLine
 10
5.230422353582877
 20
6.841342523075072
 30
0.0
 11
5.57695981590087
 21
6.841342523075072
 31
0.0
  0
LINE
  5
E07
330
18
100
AcDbEntity
  8
image
100
AcDbLine
 10
5.268899961467843
 20
6.830587912175548
 30
0.0
 11
5.268899961467843
 21
6.841342523075072
 31
0.0
  0
LINE
  5
E08
330
18
100
AcDbEntity
  8
image
100
AcDbLine
 10
5.230422353582877
 20
6.830587912175548
 30
0.0
 11
5.230422353582877
 21
6.852097133974596
 31
0.0
  0
LINE
  5
E09
330
18
100
AcDbEntity
  8
image
100
AcDbLine
 10
5.230422353582877
 20
6.830587912175548
 30
0.0
 11
5.268899961467843
 21
6.830587912175548
 31
0.0
  0
LINE
  5
E0A
330
18
100
AcDbEntity
  8
image
100
AcDbLine
 10
5.333547122541645
 20
6.770840073844865
 30
0.0
 11
5.268899961467843
 21
6.830587912175548
 31
0.0
  0
LINE
  5
E0B
330
18
100
AcDbEntity
  8
image
100
AcDbLine
 10
5.333547122541645
 20
6.770840073844865
 30
0.0
 11
5.333547122541645
 21
6.348661848200209
 31
0.0
  0
LINE
  5
E0C
330
18
100
AcDbEntity
  8
image
100
AcDbLine
 10
5.57695981590087
 20
6.852097133974596
 30
0.0
 11
5.57695981590087
 21
6.830587912175548
 31
0.0
  0
LINE
  5
E0D
330
18
100
AcDbEntity
  8
image
100
AcDbLine
 10
5.473835046942095
 20
6.770840073844865
 30
0.0
 11
5.538482208015903
 21
6.830587912175548
 31
0.0
  0
LINE
  5
E0E
330
18
100
AcDbEntity
  8
image
100
AcDbLine
 10
5.538482208015903
 20
6.830587912175548
 30
0.0
 11
5.538482208015903
 21
6.841342523075072
 31
0.0
  0
LINE
  5
E0F
330
18
100
AcDbEntity
  8
image
100
AcDbLine
 10
5.538482208015903
 20
6.830587912175548
 30
0.0
 11
5.57695981590087
 21
6.830587912175548
 31
0.0
  0
LINE
  5
E10
330
18
100
AcDbEntity
  8
image
100
AcDbLine
 10
5.473835046942095
 20
6.770840073844863
 30
0.0
 11
5.473835046942095
 21
6.348661848200221
 31
0.0
  0
LINE
  5
E11
330
18
100
AcDbEntity
  8
image
100
AcDbLine
 10
5.457464139239494
 20
6.887945836973013
 30
0.0
 11
5.545890939968913
 21
6.887945836973013
 31
0.0
  0
LINE
  5
E12
330
18
100
AcDbEntity
  8
image
100
AcDbLine
 10
5.271050883647742
 20
6.887945836973013
 30
0.0
 11
5.349918030244253
 21
6.887945836973013
 31
0.0
  0
ARC
  5
E13
330
18
100
AcDbEntity
  8
image
100
AcDbCircle
 10
5.403691084741872
 20
6.348661848200221
 30
0.0
 40
0.070143962200227
100
AcDbArc
 50
180.0
 51
0.0
  0
LINE
  5
E14
330
18
100
AcDbEntity
  8
image
100
AcDbLine
 10
5.133206283955523
 20
6.887387324594058
 30
0.0
 11
5.19785344502933
 21
6.947135162924743
 31
0.0
  0
LINE
  5
E15
330
18
100
AcDbEntity
  8
image
100
AcDbLine
 10
4.992918359555071
 20
6.887387324594058
 30
0.0
 11
4.928271198481271
 21
6.947135162924743
 31
0.0
  0
ARC
  5
E16
330
18
100
AcDbEntity
  8
image
100
AcDbCircle
 10
5.0630623217553
 20
6.465209098949416
 30
0.0
 40
0.070143962200227
100
AcDbArc
 50
180.0
 51
0.0
  0
LINE
  5
E17
330
18
100
AcDbEntity
  8
image
100
AcDbLine
 10
4.992918359555071
 20
6.887387324594058
 30
0.0
 11
4.992918359555071
 21
6.87730051315833
 31
0.0
  0
LINE
  5
E18
330
18
100
AcDbEntity
  8
image
100
AcDbLine
 10
5.133206283955523
 20
6.887387324594057
 30
0.0
 11
5.133206283955523
 21
6.875855847600146
 31
0.0
  0
LINE
  5
E19
330
18
100
AcDbEntity
  8
image
100
AcDbLine
 10
4.992918359555071
 20
6.887387324594058
 30
0.0
 11
5.133206283955523
 21
6.887387324594058
 31
0.0
  0
LINE
  5
E1A
330
18
100
AcDbEntity
  8
image
100
AcDbLine
 10
5.133206283955523
 20
6.863338237502714
 30
0.0
 11
5.133206283955523
 21
6.465209098949416
 31
0.0
  0
LINE
  5
E1B
330
18
100
AcDbEntity
  8
image
100
AcDbLine
 10
4.992918359555071
 20
6.864921471587413
 30
0.0
 11
4.992918359555071
 21
6.465209098949404
 31
0.0
  0
LINE
  5
E1C
330
18
100
AcDbEntity
  8
image
100
AcDbLine
 10
5.116835376252922
 20
7.004493087722208
 30
0.0
 11
5.205262176982339
 21
7.004493087722208
 31
0.0
  0
LINE
  5
E1D
330
18
100
AcDbEntity
  8
image
100
AcDbLine
 10
4.889793590596305
 20
6.968644384723791
 30
0.0
 11
5.236331052914295
 21
6.968644384723791
 31
0.0
  0
LINE
  5
E1E
330
18
100
AcDbEntity
  8
image
100
AcDbLine
 10
4.889793590596305
 20
6.957889773824266
 30
0.0
 11
5.236331052914295
 21
6.957889773824266
 31
0.0
  0
LINE
  5
ECD
330
18
100
AcDbEntity
  8
image
100
AcDbLine
 10
5.116835376252922
 20
7.004493087722208
 30
0.0
 11
5.116835376252922
 21
6.968644384723791
 31
0.0
  0
LINE
  5
ECE
330
18
100
AcDbEntity
  8
image
100
AcDbLine
 10
5.126395030385829
 20
7.004493087722208
 30
0.0
 11
5.126395030385829
 21
6.968644384723791
 31
0.0
  0
LINE
  5
ECF
330
18
100
AcDbEntity
  8
image
100
AcDbLine
 10
4.928271198481271
 20
6.947135162924743
 30
0.0
 11
4.928271198481271
 21
6.957889773824266
 31
0.0
  0
LINE
  5
ED0
330
18
100
AcDbEntity
  8
image
100
AcDbLine
 10
4.93042212066117
 20
7.004493087722208
 30
0.0
 11
5.009289267257679
 21
7.004493087722208
 31
0.0
  0
LINE
  5
ED1
330
18
100
AcDbEntity
  8
image
100
AcDbLine
 10
5.009289267257679
 20
7.004493087722208
 30
0.0
 11
5.009289267257679
 21
6.968644384723791
 31
0.0
  0
LINE
  5
ED2
330
18
100
AcDbEntity
  8
image
100
AcDbLine
 10
4.99972961312477
 20
7.004493087722208
 30
0.0
 11
4.99972961312477
 21
6.968644384723791
 31
0.0
  0
LINE
  5
ED3
330
18
100
AcDbEntity
  8
image
100
AcDbLine
 10
4.93042212066117
 20
7.004493087722208
 30
0.0
 11
4.93042212066117
 21
6.968644384723791
 31
0.0
  0
LINE
  5
ED4
330
18
100
AcDbEntity
  8
image
100
AcDbLine
 10
4.889793590596305
 20
6.947135162924743
 30
0.0
 11
4.928271198481271
 21
6.947135162924743
 31
0.0
  0
LINE
  5
ED5
330
18
100
AcDbEntity
  8
image
100
AcDbLine
 10
5.236331052914295
 20
6.968644384723791
 30
0.0
 11
5.236331052914295
 21
6.947135162924743
 31
0.0
  0
LINE
  5
ED6
330
18
100
AcDbEntity
  8
image
100
AcDbLine
 10
5.205262176982339
 20
7.004493087722208
 30
0.0
 11
5.205262176982339
 21
6.968644384723791
 31
0.0
  0
LINE
  5
ED7
330
18
100
AcDbEntity
  8
image
100
AcDbLine
 10
5.19785344502933
 20
6.947135162924743
 30
0.0
 11
5.19785344502933
 21
6.957889773824266
 31
0.0
  0
LINE
  5
ED8
330
18
100
AcDbEntity
  8
image
100
AcDbLine
 10
5.19785344502933
 20
6.947135162924743
 30
0.0
 11
5.236331052914295
 21
6.947135162924743
 31
0.0
  0
LINE
  5
FA5
330
18
100
AcDbEntity
  8
image
100
AcDbLine
 10
4.889793590596305
 20
6.968644384723791
 30
0.0
 11
4.889793590596305
 21
6.947135162924743
 31
0.0
  0
POLYLINE
  5
FA6
330
18
100
AcDbEntity
  8
image
 62
     5
100
AcDb2dPolyline
 66
     1
 10
0.0
 20
0.0
 30
0.0
 70
     4
 40
0.0123
 41
0.0123
  0
VERTEX
  5
FA7
330
FA6
100
AcDbEntity
  8
image
 62
     5
100
AcDbVertex
100
AcDb2dVertex
 10
3.793737867432509
 20
6.672330240343692
 30
0.0
 70
    16
  0
VERTEX
  5
FA8
330
FA6
100
AcDbEntity
  8
image
 62
     5
100
AcDbVertex
100
AcDb2dVertex
 10
3.793737867432509
 20
6.672330240343692
 30
0.0
 70
     8
  0
VERTEX
  5
FA9
330
FA6
100
AcDbEntity
  8
image
 62
     5
100
AcDbVertex
100
AcDb2dVertex
 10
3.782043852412941
 20
6.670363633461745
 30
0.0
 70
     8
  0
VERTEX
  5
FAA
330
FA6
100
AcDbEntity
  8
image
 62
     5
100
AcDbVertex
100
AcDb2dVertex
 10
3.77154822315204
 20
6.668285422396293
 30
0.0
 70
     8
  0
VERTEX
  5
FAB
330
FA6
100
AcDbEntity
  8
image
 62
     5
100
AcDbVertex
100
AcDb2dVertex
 10
3.762198679970923
 20
6.66598400296383
 30
0.0
 70
     8
  0
VERTEX
  5
FAC
330
FA6
100
AcDbEntity
  8
image
 62
     5
100
AcDbVertex
100
AcDb2dVertex
 10
3.753942923190711
 20
6.66334777098085
 30
0.0
 70
     8
  0
VERTEX
  5
FAD
330
FA6
100
AcDbEntity
  8
image
 62
     5
100
AcDbVertex
100
AcDb2dVertex
 10
3.746728653132519
 20
6.660265122263846
 30
0.0
 70
     8
  0
VERTEX
  5
FAE
330
FA6
100
AcDbEntity
  8
image
 62
     5
100
AcDbVertex
100
AcDb2dVertex
 10
3.74050357011747
 20
6.656624452629314
 30
0.0
 70
     8
  0
VERTEX
  5
FAF
330
FA6
100
AcDbEntity
  8
image
 62
     5
100
AcDbVertex
100
AcDb2dVertex
 10
3.735215374466681
 20
6.652314157893747
 30
0.0
 70
     8
  0
VERTEX
  5
FB0
330
FA6
100
AcDbEntity
  8
image
 62
     5
100
AcDbVertex
100
AcDb2dVertex
 10
3.73081176650127
 20
6.647222633873639
 30
0.0
 70
     8
  0
VERTEX
  5
FB1
330
FA6
100
AcDbEntity
  8
image
 62
     5
100
AcDbVertex
100
AcDb2dVertex
 10
3.727240282052791
 20
6.641261104456404
 30
0.0
 70
     8
  0
VERTEX
  5
FB2
330
FA6
100
AcDbEntity
  8
image
 62
     5
100
AcDbVertex
100
AcDb2dVertex
 10
3.724447798994562
 20
6.63443210581312
 30
0.0
 70
     8
  0
VERTEX
  5
FB3
330
FA6
100
AcDbEntity
  8
image
 62
     5
100
AcDbVertex
100
AcDb2dVertex
 10
3.722381030710335
 20
6.626761002185785
 30
0.0
 70
     8
  0
VERTEX
  5
FB4
330
FA6
100
AcDbEntity
  8
image
 62
     5
100
AcDbVertex
100
AcDb2dVertex
 10
3.720986690583861
 20
6.618273157816398
 30
0.0
 70
     8
  0
VERTEX
  5
FB5
330
FA6
100
AcDbEntity
  8
image
 62
     5
100
AcDbVertex
100
AcDb2dVertex
 10
3.720211491998894
 20
6.608993936946954
 30
0.0
 70
     8
  0
VERTEX
  5
FB6
330
FA6
100
AcDbEntity
  8
image
 62
     5
100
AcDbVertex
100
AcDb2dVertex
 10
3.720002148339181
 20
6.598948703819454
 30
0.0
 70
     8
  0
VERTEX
  5
FB7
330
FA6
100
AcDbEntity
  8
image
 62
     5
100
AcDbVertex
100
AcDb2dVertex
 10
3.720305372988484
 20
6.588162822675893
 30
0.0
 70
     8
  0
VERTEX
  5
FB8
330
FA6
100
AcDbEntity
  8
image
 62
     5
100
AcDbVertex
100
AcDb2dVertex
 10
3.721067879330549
 20
6.576661657758271
 30
0.0
 70
     8
  0
VERTEX
  5
FB9
330
FA6
100
AcDbEntity
  8
image
 62
     5
100
AcDbVertex
100
AcDb2dVertex
 10
3.722253720040923
 20
6.56445873660607
 30
0.0
 70
     8
  0
VERTEX
  5
FBA
330
FA6
100
AcDbEntity
  8
image
 62
     5
100
AcDbVertex
100
AcDb2dVertex
 10
3.723896304962329
 20
6.551520239948716
 30
0.0
 70
     8
  0
VERTEX
  5
FBB
330
FA6
100
AcDbEntity
  8
image
 62
     5
100
AcDbVertex
100
AcDb2dVertex
 10
3.726046383229284
 20
6.537800511813122
 30
0.0
 70
     8
  0
VERTEX
  5
FBC
330
FA6
100
AcDbEntity
  8
image
 62
     5
100
AcDbVertex
100
AcDb2dVertex
 10
3.728754703976308
 20
6.523253896226197
 30
0.0
 70
     8
  0
VERTEX
  5
FBD
330
FA6
100
AcDbEntity
  8
image
 62
     5
100
AcDbVertex
100
AcDb2dVertex
 10
3.732072016337914
 20
6.507834737214857
 30
0.0
 70
     8
  0
VERTEX
  5
FBE
330
FA6
100
AcDbEntity
  8
image
 62
     5
100
AcDbVertex
100
AcDb2dVertex
 10
3.736049069448618
 20
6.491497378806009
 30
0.0
 70
     8
  0
VERTEX
  5
FBF
330
FA6
100
AcDbEntity
  8
image
 62
     5
100
AcDbVertex
100
AcDb2dVertex
 10
3.740736612442942
 20
6.474196165026569
 30
0.0
 70
     8
  0
VERTEX
  5
FC0
330
FA6
100
AcDbEntity
  8
image
 62
     5
100
AcDbVertex
100
AcDb2dVertex
 10
3.746185394455402
 20
6.455885439903445
 30
0.0
 70
     8
  0
VERTEX
  5
FC1
330
FA6
100
AcDbEntity
  8
image
 62
     5
100
AcDbVertex
100
AcDb2dVertex
 10
3.752436860604182
 20
6.436535611624106
 30
0.0
 70
     8
  0
VERTEX
  5
FC2
330
FA6
100
AcDbEntity
  8
image
 62
     5
100
AcDbVertex
100
AcDb2dVertex
 10
3.759495239942152
 20
6.416181345018228
 30
0.0
 70
     8
  0
VERTEX
  5
FC3
330
FA6
100
AcDbEntity
  8
image
 62
     5
100
AcDbVertex
100
AcDb2dVertex
 10
3.767355457505852
 20
6.39487336907605
 30
0.0
 70
     8
  0
VERTEX
  5
FC4
330
FA6
100
AcDbEntity
  8
image
 62
     5
100
AcDbVertex
100
AcDb2dVertex
 10
3.776012438331818
 20
6.3726624127878
 30
0.0
 70
     8
  0
VERTEX
  5
FC5
330
FA6
100
AcDbEntity
  8
image
 62
     5
100
AcDbVertex
100
AcDb2dVertex
 10
3.785461107456592
 20
6.349599205143719
 30
0.0
 70
     8
  0
VERTEX
  5
FC6
330
FA6
100
AcDbEntity
  8
image
 62
     5
100
AcDbVertex
100
AcDb2dVertex
 10
3.795696389916711
 20
6.325734475134035
 30
0.0
 70
     8
  0
VERTEX
  5
FC7
330
FA6
100
AcDbEntity
  8
image
 62
     5
100
AcDbVertex
100
AcDb2dVertex
 10
3.806713210748716
 20
6.301118951748986
 30
0.0
 70
     8
  0
VERTEX
  5
FC8
330
FA6
100
AcDbEntity
  8
image
 62
     5
100
AcDbVertex
100
AcDb2dVertex
 10
3.81850649498914
 20
6.275803363978805
 30
0.0
 70
     8
  0
VERTEX
  5
FC9
330
FA6
100
AcDbEntity
  8
image
 62
     5
100
AcDbVertex
100
AcDb2dVertex
 10
3.831061017789281
 20
6.249774183862141
 30
0.0
 70
     8
  0
VERTEX
  5
FCA
330
FA6
100
AcDbEntity
  8
image
 62
     5
100
AcDbVertex
100
AcDb2dVertex
 10
3.844320954759437
 20
6.222760855631316
 30
0.0
 70
     8
  0
VERTEX
  5
FCB
330
FA6
100
AcDbEntity
  8
image
 62
     5
100
AcDbVertex
100
AcDb2dVertex
 10
3.858220331624655
 20
6.194428566567066
 30
0.0
 70
     8
  0
VERTEX
  5
FCC
330
FA6
100
AcDbEntity
  8
image
 62
     5
100
AcDbVertex
100
AcDb2dVertex
 10
3.872693174109995
 20
6.164442503950127
 30
0.0
 70
     8
  0
VERTEX
  5
FCD
330
FA6
100
AcDbEntity
  8
image
 62
     5
100
AcDbVertex
100
AcDb2dVertex
 10
3.887673507940503
 20
6.132467855061235
 30
0.0
 70
     8
  0
VERTEX
  5
FCE
330
FA6
100
AcDbEntity
  8
image
 62
     5
100
AcDbVertex
100
AcDb2dVertex
 10
3.903095358841232
 20
6.098169807181127
 30
0.0
 70
     8
  0
VERTEX
  5
FCF
330
FA6
100
AcDbEntity
  8
image
 62
     5
100
AcDbVertex
100
AcDb2dVertex
 10
3.918892752537235
 20
6.061213547590542
 30
0.0
 70
     8
  0
VERTEX
  5
FD0
330
FA6
100
AcDbEntity
  8
image
 62
     5
100
AcDbVertex
100
AcDb2dVertex
 10
3.934999714753566
 20
6.021264263570212
 30
0.0
 70
     8
  0
VERTEX
  5
FD1
330
FA6
100
AcDbEntity
  8
image
 62
     5
100
AcDbVertex
100
AcDb2dVertex
 10
3.951319938164999
 20
5.978190543591525
 30
0.0
 70
     8
  0
VERTEX
  5
FD2
330
FA6
100
AcDbEntity
  8
image
 62
     5
100
AcDbVertex
100
AcDb2dVertex
 10
3.967635783245226
 20
5.932674580888449
 30
0.0
 70
     8
  0
VERTEX
  5
FD3
330
FA6
100
AcDbEntity
  8
image
 62
     5
100
AcDbVertex
100
AcDb2dVertex
 10
3.983699277417656
 20
5.885601969885608
 30
0.0
 70
     8
  0
VERTEX
  5
FD4
330
FA6
100
AcDbEntity
  8
image
 62
     5
100
AcDbVertex
100
AcDb2dVertex
 10
3.999262448105708
 20
5.837858305007618
 30
0.0
 70
     8
  0
VERTEX
  5
FD5
330
FA6
100
AcDbEntity
  8
image
 62
     5
100
AcDbVertex
100
AcDb2dVertex
 10
4.01407732273279
 20
5.790329180679099
 30
0.0
 70
     8
  0
VERTEX
  5
FD6
330
FA6
100
AcDbEntity
  8
image
 62
     5
100
AcDbVertex
100
AcDb2dVertex
 10
4.027895928722321
 20
5.743900191324673
 30
0.0
 70
     8
  0
VERTEX
  5
FD7
330
FA6
100
AcDbEntity
  8
image
 62
     5
100
AcDbVertex
100
AcDb2dVertex
 10
4.040470293497714
 20
5.699456931368954
 30
0.0
 70
     8
  0
VERTEX
  5
FD8
330
FA6
100
AcDbEntity
  8
image
 62
     5
100
AcDbVertex
100
AcDb2dVertex
 10
4.051552444482382
 20
5.657884995236566
 30
0.0
 70
     8
  0
VERTEX
  5
FD9
330
FA6
100
AcDbEntity
  8
image
 62
     5
100
AcDbVertex
100
AcDb2dVertex
 10
4.060966800426273
 20
5.619807268901693
 30
0.0
 70
     8
  0
VERTEX
  5
FDA
330
FA6
100
AcDbEntity
  8
image
 62
     5
100
AcDbVertex
100
AcDb2dVertex
 10
4.068827345385457
 20
5.584795804536774
 30
0.0
 70
     8
  0
VERTEX
  5
FDB
330
FA6
100
AcDbEntity
  8
image
 62
     5
100
AcDbVertex
100
AcDb2dVertex
 10
4.075320454742554
 20
5.552159945863817
 30
0.0
 70
     8
  0
VERTEX
  5
FDC
330
FA6
100
AcDbEntity
  8
image
 62
     5
100
AcDbVertex
100
AcDb2dVertex
 10
4.080632503880163
 20
5.52120903660483
 30
0.0
 70
     8
  0
VERTEX
  5
FDD
330
FA6
100
AcDbEntity
  8
image
 62
     5
100
AcDbVertex
100
AcDb2dVertex
 10
4.084949868180901
 20
5.491252420481819
 30
0.0
 70
     8
  0
VERTEX
  5
FDE
330
FA6
100
AcDbEntity
  8
image
 62
     5
100
AcDbVertex
100
AcDb2dVertex
 10
4.088458923027372
 20
5.461599441216791
 30
0.0
 70
     8
  0
VERTEX
  5
FDF
330
FA6
100
AcDbEntity
  8
image
 62
     5
100
AcDbVertex
100
AcDb2dVertex
 10
4.091346043802184
 20
5.431559442531753
 30
0.0
 70
     8
  0
VERTEX
  5
FE0
330
FA6
100
AcDbEntity
  8
image
 62
     5
100
AcDbVertex
100
AcDb2dVertex
 10
4.093797605887955
 20
5.400441768148711
 30
0.0
 70
     8
  0
VERTEX
  5
FE1
330
FA6
100
AcDbEntity
  8
image
 62
     5
100
AcDbVertex
100
AcDb2dVertex
 10
4.096002871340305
 20
5.36772969407127
 30
0.0
 70
     8
  0
VERTEX
  5
FE2
330
FA6
100
AcDbEntity
  8
image
 62
     5
100
AcDbVertex
100
AcDb2dVertex
 10
4.098162648906965
 20
5.33360222542943
 30
0.0
 70
     8
  0
VERTEX
  5
FE3
330
FA6
100
AcDbEntity
  8
image
 62
     5
100
AcDbVertex
100
AcDb2dVertex
 10
4.100480634008684
 20
5.298412299634785
 30
0.0
 70
     8
  0
VERTEX
  5
FE4
330
FA6
100
AcDbEntity
  8
image
 62
     5
100
AcDbVertex
100
AcDb2dVertex
 10
4.103160522066213
 20
5.262512854098929
 30
0.0
 70
     8
  0
VERTEX
  5
FE5
330
FA6
100
AcDbEntity
  8
image
 62
     5
100
AcDbVertex
100
AcDb2dVertex
 10
4.106406008500291
 20
5.226256826233463
 30
0.0
 70
     8
  0
VERTEX
  5
FE6
330
FA6
100
AcDbEntity
  8
image
 62
     5
100
AcDbVertex
100
AcDb2dVertex
 10
4.110420788731671
 20
5.189997153449978
 30
0.0
 70
     8
  0
VERTEX
  5
FE7
330
FA6
100
AcDbEntity
  8
image
 62
     5
100
AcDbVertex
100
AcDb2dVertex
 10
4.115408558181101
 20
5.154086773160072
 30
0.0
 70
     8
  0
VERTEX
  5
FE8
330
FA6
100
AcDbEntity
  8
image
 62
     5
100
AcDbVertex
100
AcDb2dVertex
 10
4.121573012269328
 20
5.118878622775341
 30
0.0
 70
     8
  0
VERTEX
  5
FE9
330
FA6
100
AcDbEntity
  8
image
 62
     5
100
AcDbVertex
100
AcDb2dVertex
 10
4.12910546560832
 20
5.084682458355194
 30
0.0
 70
     8
  0
VERTEX
  5
FEA
330
FA6
100
AcDbEntity
  8
image
 62
     5
100
AcDbVertex
100
AcDb2dVertex
 10
4.138147709574928
 20
5.051635310550299
 30
0.0
 70
     8
  0
VERTEX
  5
FEB
330
FA6
100
AcDbEntity
  8
image
 62
     5
100
AcDbVertex
100
AcDb2dVertex
 10
4.148829154737226
 20
5.019831028659133
 30
0.0
 70
     8
  0
VERTEX
  5
FEC
330
FA6
100
AcDbEntity
  8
image
 62
     5
100
AcDbVertex
100
AcDb2dVertex
 10
4.161279211663277
 20
4.989363461980182
 30
0.0
 70
     8
  0
VERTEX
  5
FED
330
FA6
100
AcDbEntity
  8
image
 62
     5
100
AcDbVertex
100
AcDb2dVertex
 10
4.175627290921157
 20
4.960326459811923
 30
0.0
 70
     8
  0
VERTEX
  5
FEE
330
FA6
100
AcDbEntity
  8
image
 62
     5
100
AcDbVertex
100
AcDb2dVertex
 10
4.192002803078933
 20
4.932813871452836
 30
0.0
 70
     8
  0
VERTEX
  5
FEF
330
FA6
100
AcDbEntity
  8
image
 62
     5
100
AcDbVertex
100
AcDb2dVertex
 10
4.210535158704681
 20
4.906919546201402
 30
0.0
 70
     8
  0
VERTEX
  5
FF0
330
FA6
100
AcDbEntity
  8
image
 62
     5
100
AcDbVertex
100
AcDb2dVertex
 10
4.231353768366467
 20
4.882737333356104
 30
0.0
 70
     8
  0
VERTEX
  5
FF1
330
FA6
100
AcDbEntity
  8
image
 62
     5
100
AcDbVertex
100
AcDb2dVertex
 10
4.254966345576637
 20
4.860499672882558
 30
0.0
 70
     8
  0
VERTEX
  5
FF2
330
FA6
100
AcDbEntity
  8
image
 62
     5
100
AcDbVertex
100
AcDb2dVertex
 10
4.28339381562465
 20
4.840993367414951
 30
0.0
 70
     8
  0
VERTEX
  5
FF3
330
FA6
100
AcDbEntity
  8
image
 62
     5
100
AcDbVertex
100
AcDb2dVertex
 10
4.319035406744236
 20
4.825143810254603
 30
0.0
 70
     8
  0
VERTEX
  5
FF4
330
FA6
100
AcDbEntity
  8
image
 62
     5
100
AcDbVertex
100
AcDb2dVertex
 10
4.364290347169122
 20
4.813876394702837
 30
0.0
 70
     8
  0
VERTEX
  5
FF5
330
FA6
100
AcDbEntity
  8
image
 62
     5
100
AcDbVertex
100
AcDb2dVertex
 10
4.421557865133046
 20
4.808116514060976
 30
0.0
 70
     8
  0
VERTEX
  5
FF6
330
FA6
100
AcDbEntity
  8
image
 62
     5
100
AcDbVertex
100
AcDb2dVertex
 10
4.493237188869736
 20
4.808789561630344
 30
0.0
 70
     8
  0
VERTEX
  5
FF7
330
FA6
100
AcDbEntity
  8
image
 62
     5
100
AcDbVertex
100
AcDb2dVertex
 10
4.581727546612924
 20
4.816820930712262
 30
0.0
 70
     8
  0
VERTEX
  5
FF8
330
FA6
100
AcDbEntity
  8
image
 62
     5
100
AcDbVertex
100
AcDb2dVertex
 10
4.689428166596341
 20
4.833136014608054
 30
0.0
 70
     8
  0
VERTEX
  5
FF9
330
FA6
100
AcDbEntity
  8
image
 62
     5
100
AcDbVertex
100
AcDb2dVertex
 10
3.760909491098653
 20
6.667135557184504
 30
0.0
 70
    16
  0
VERTEX
  5
FFA
330
FA6
100
AcDbEntity
  8
image
 62
     5
100
AcDbVertex
100
AcDb2dVertex
 10
3.721934027765309
 20
6.65674619086613
 30
0.0
 70
    16
  0
VERTEX
  5
FFB
330
FA6
100
AcDbEntity
  8
image
 62
     5
100
AcDbVertex
100
AcDb2dVertex
 10
3.716737265181048
 20
6.584020799433623
 30
0.0
 70
    16
  0
VERTEX
  5
FFC
330
FA6
100
AcDbEntity
  8
image
 62
     5
100
AcDbVertex
100
AcDb2dVertex
 10
3.737524187493784
 20
6.467140557948999
 30
0.0
 70
    16
  0
VERTEX
  5
FFD
330
FA6
100
AcDbEntity
  8
image
 62
     5
100
AcDbVertex
100
AcDb2dVertex
 10
3.810278351576213
 20
6.282729608191053
 30
0.0
 70
    16
  0
VERTEX
  5
FFE
330
FA6
100
AcDbEntity
  8
image
 62
     5
100
AcDbVertex
100
AcDb2dVertex
 10
3.932401376136203
 20
6.05676119315961
 30
0.0
 70
    16
  0
VERTEX
  5
FFF
330
FA6
100
AcDbEntity
  8
image
 62
     5
100
AcDbVertex
100
AcDb2dVertex
 10
4.070114432400366
 20
5.617811200591779
 30
0.0
 70
    16
  0
VERTEX
  5
1000
330
FA6
100
AcDbEntity
  8
image
 62
     5
100
AcDbVertex
100
AcDb2dVertex
 10
4.096455561156627
 20
5.419303975892676
 30
0.0
 70
    16
  0
VERTEX
  5
1001
330
FA6
100
AcDbEntity
  8
image
 62
     5
100
AcDbVertex
100
AcDb2dVertex
 10
4.106848958300844
 20
5.107623504729787
 30
0.0
 70
    16
  0
VERTEX
  5
1002
330
FA6
100
AcDbEntity
  8
image
 62
     5
100
AcDbVertex
100
AcDb2dVertex
 10
4.205586679255965
 20
4.863473741840218
 30
0.0
 70
    16
  0
VERTEX
  5
1003
330
FA6
100
AcDbEntity
  8
image
 62
     5
100
AcDbVertex
100
AcDb2dVertex
 10
4.374480183001386
 20
4.777761599310715
 30
0.0
 70
    16
  0
VERTEX
  5
1004
330
FA6
100
AcDbEntity
  8
image
 62
     5
100
AcDbVertex
100
AcDb2dVertex
 10
4.689428166596341
 20
4.833136014608054
 30
0.0
 70
    16
  0
SEQEND
  5
1005
330
FA6
100
AcDbEntity
  8
image
 62
     5
  0
LINE
  5
1066
330
18
100
AcDbEntity
  8
image
100
AcDbLine
 10
3.856234106326409
 20
6.578367751868102
 30
0.0
 11
3.996522030726863
 21
6.578367751868102
 31
0.0
  0
LINE
  5
1067
330
18
100
AcDbEntity
  8
image
100
AcDbLine
 10
3.753109337367645
 20
6.659624811997834
 30
0.0
 11
4.099646799685633
 21
6.659624811997834
 31
0.0
  0
LINE
  5
1068
330
18
100
AcDbEntity
  8
image
100
AcDbLine
 10
3.753109337367645
 20
6.64887020109831
 30
0.0
 11
4.099646799685633
 21
6.64887020109831
 31
0.0
  0
LINE
  5
1069
330
18
100
AcDbEntity
  8
image
100
AcDbLine
 10
3.856234106326409
 20
6.578367751868102
 30
0.0
 11
3.856234106326409
 21
6.156189526223447
 31
0.0
  0
LINE
  5
106A
330
18
100
AcDbEntity
  8
image
100
AcDbLine
 10
3.872605014029018
 20
6.695473514996251
 30
0.0
 11
3.872605014029018
 21
6.659624811997834
 31
0.0
  0
LINE
  5
106B
330
18
100
AcDbEntity
  8
image
100
AcDbLine
 10
3.863045359896108
 20
6.695473514996251
 30
0.0
 11
3.863045359896108
 21
6.659624811997834
 31
0.0
  0
LINE
  5
106C
330
18
100
AcDbEntity
  8
image
100
AcDbLine
 10
3.791586945252609
 20
6.638115590198786
 30
0.0
 11
3.791586945252609
 21
6.64887020109831
 31
0.0
  0
LINE
  5
106D
330
18
100
AcDbEntity
  8
image
100
AcDbLine
 10
3.793737867432509
 20
6.695473514996251
 30
0.0
 11
3.793737867432509
 21
6.659624811997834
 31
0.0
  0
LINE
  5
106E
330
18
100
AcDbEntity
  8
image
100
AcDbLine
 10
3.753109337367645
 20
6.638115590198786
 30
0.0
 11
3.753109337367645
 21
6.659624811997834
 31
0.0
  0
LINE
  5
106F
330
18
100
AcDbEntity
  8
image
100
AcDbLine
 10
3.753109337367645
 20
6.638115590198786
 30
0.0
 11
3.791586945252609
 21
6.638115590198786
 31
0.0
  0
LINE
  5
1070
330
18
100
AcDbEntity
  8
image
100
AcDbLine
 10
3.856234106326409
 20
6.578367751868102
 30
0.0
 11
3.791586945252609
 21
6.638115590198786
 31
0.0
  0
LINE
  5
1071
330
18
100
AcDbEntity
  8
image
100
AcDbLine
 10
3.793737867432509
 20
6.695473514996251
 30
0.0
 11
3.872605014029018
 21
6.695473514996251
 31
0.0
  0
LINE
  5
1072
330
18
100
AcDbEntity
  8
image
100
AcDbLine
 10
3.996522030726863
 20
6.5783677518681
 30
0.0
 11
3.996522030726863
 21
6.156189526223458
 31
0.0
  0
LINE
  5
1073
330
18
100
AcDbEntity
  8
image
100
AcDbLine
 10
3.996522030726863
 20
6.578367751868102
 30
0.0
 11
4.061169191800665
 21
6.638115590198786
 31
0.0
  0
LINE
  5
1074
330
18
100
AcDbEntity
  8
image
100
AcDbLine
 10
3.980151123024256
 20
6.695473514996251
 30
0.0
 11
3.980151123024256
 21
6.659624811997834
 31
0.0
  0
LINE
  5
1075
330
18
100
AcDbEntity
  8
image
100
AcDbLine
 10
3.989710777157169
 20
6.695473514996251
 30
0.0
 11
3.989710777157169
 21
6.659624811997834
 31
0.0
  0
LINE
  5
1076
330
18
100
AcDbEntity
  8
image
100
AcDbLine
 10
3.980151123024256
 20
6.695473514996251
 30
0.0
 11
4.068577923753677
 21
6.695473514996251
 31
0.0
  0
POLYLINE
  5
1077
330
18
100
AcDbEntity
  8
image
 62
     5
100
AcDb2dPolyline
 66
     1
 10
0.0
 20
0.0
 30
0.0
 70
     4
 40
0.0123
 41
0.0123
 75
     6
  0
VERTEX
  5
1078
330
1077
100
AcDbEntity
  8
image
 62
     5
100
AcDbVertex
100
AcDb2dVertex
 10
4.134366630419082
 20
6.585159525820952
 30
0.0
 70
    16
  0
VERTEX
  5
1079
330
1077
100
AcDbEntity
  8
image
 62
     5
100
AcDbVertex
100
AcDb2dVertex
 10
4.134366630419082
 20
6.585159525820952
 30
0.0
 70
     8
  0
VERTEX
  5
107A
330
1077
100
AcDbEntity
  8
image
 62
     5
100
AcDbVertex
100
AcDb2dVertex
 10
4.117178608092885
 20
6.584148462138747
 30
0.0
 70
     8
  0
VERTEX
  5
107B
330
1077
100
AcDbEntity
  8
image
 62
     5
100
AcDbVertex
100
AcDb2dVertex
 10
4.103585104671495
 20
6.582382334199115
 30
0.0
 70
     8
  0
VERTEX
  5
107C
330
1077
100
AcDbEntity
  8
image
 62
     5
100
AcDbVertex
100
AcDb2dVertex
 10
4.093096803760182
 20
6.57988717962578
 30
0.0
 70
     8
  0
VERTEX
  5
107D
330
1077
100
AcDbEntity
  8
image
 62
     5
100
AcDbVertex
100
AcDb2dVertex
 10
4.085224388964222
 20
6.576689036042468
 30
0.0
 70
     8
  0
VERTEX
  5
107E
330
1077
100
AcDbEntity
  8
image
 62
     5
100
AcDbVertex
100
AcDb2dVertex
 10
4.07947854388888
 20
6.572813941072907
 30
0.0
 70
     8
  0
VERTEX
  5
107F
330
1077
100
AcDbEntity
  8
image
 62
     5
100
AcDbVertex
100
AcDb2dVertex
 10
4.075369952139434
 20
6.568287932340826
 30
0.0
 70
     8
  0
VERTEX
  5
1080
330
1077
100
AcDbEntity
  8
image
 62
     5
100
AcDbVertex
100
AcDb2dVertex
 10
4.072409297321145
 20
6.563137047469947
 30
0.0
 70
     8
  0
VERTEX
  5
1081
330
1077
100
AcDbEntity
  8
image
 62
     5
100
AcDbVertex
100
AcDb2dVertex
 10
4.070107263039291
 20
6.557387324084001
 30
0.0
 70
     8
  0
VERTEX
  5
1082
330
1077
100
AcDbEntity
  8
image
 62
     5
100
AcDbVertex
100
AcDb2dVertex
 10
4.068044418833366
 20
6.551023575193328
 30
0.0
 70
     8
  0
VERTEX
  5
1083
330
1077
100
AcDbEntity
  8
image
 62
     5
100
AcDbVertex
100
AcDb2dVertex
 10
4.06608087797978
 20
6.54386571535473
 30
0.0
 70
     8
  0
VERTEX
  5
1084
330
1077
100
AcDbEntity
  8
image
 62
     5
100
AcDbVertex
100
AcDb2dVertex
 10
4.064146639689168
 20
6.53569243451162
 30
0.0
 70
     8
  0
VERTEX
  5
1085
330
1077
100
AcDbEntity
  8
image
 62
     5
100
AcDbVertex
100
AcDb2dVertex
 10
4.062171703172161
 20
6.526282422607417
 30
0.0
 70
     8
  0
VERTEX
  5
1086
330
1077
100
AcDbEntity
  8
image
 62
     5
100
AcDbVertex
100
AcDb2dVertex
 10
4.060086067639398
 20
6.515414369585537
 30
0.0
 70
     8
  0
VERTEX
  5
1087
330
1077
100
AcDbEntity
  8
image
 62
     5
100
AcDbVertex
100
AcDb2dVertex
 10
4.057819732301508
 20
6.502866965389392
 30
0.0
 70
     8
  0
VERTEX
  5
1088
330
1077
100
AcDbEntity
  8
image
 62
     5
100
AcDbVertex
100
AcDb2dVertex
 10
4.05530269636913
 20
6.488418899962404
 30
0.0
 70
     8
  0
VERTEX
  5
1089
330
1077
100
AcDbEntity
  8
image
 62
     5
100
AcDbVertex
100
AcDb2dVertex
 10
4.052464959052899
 20
6.471848863247983
 30
0.0
 70
     8
  0
VERTEX
  5
108A
330
1077
100
AcDbEntity
  8
image
 62
     5
100
AcDbVertex
100
AcDb2dVertex
 10
4.049265550908264
 20
6.453039691057999
 30
0.0
 70
     8
  0
VERTEX
  5
108B
330
1077
100
AcDbEntity
  8
image
 62
     5
100
AcDbVertex
100
AcDb2dVertex
 10
4.045779627869938
 20
6.432290802678107
 30
0.0
 70
     8
  0
VERTEX
  5
108C
330
1077
100
AcDbEntity
  8
image
 62
     5
100
AcDbVertex
100
AcDb2dVertex
 10
4.042111377217457
 20
6.410005763262415
 30
0.0
 70
     8
  0
VERTEX
  5
108D
330
1077
100
AcDbEntity
  8
image
 62
     5
100
AcDbVertex
100
AcDb2dVertex
 10
4.038364986230352
 20
6.386588137965031
 30
0.0
 70
     8
  0
VERTEX
  5
108E
330
1077
100
AcDbEntity
  8
image
 62
     5
100
AcDbVertex
100
AcDb2dVertex
 10
4.034644642188151
 20
6.36244149194006
 30
0.0
 70
     8
  0
VERTEX
  5
108F
330
1077
100
AcDbEntity
  8
image
 62
     5
100
AcDbVertex
100
AcDb2dVertex
 10
4.03105453237039
 20
6.337969390341613
 30
0.0
 70
     8
  0
VERTEX
  5
1090
330
1077
100
AcDbEntity
  8
image
 62
     5
100
AcDbVertex
100
AcDb2dVertex
 10
4.027698844056597
 20
6.313575398323795
 30
0.0
 70
     8
  0
VERTEX
  5
1091
330
1077
100
AcDbEntity
  8
image
 62
     5
100
AcDbVertex
100
AcDb2dVertex
 10
4.024681764526311
 20
6.289663081040713
 30
0.0
 70
     8
  0
VERTEX
  5
1092
330
1077
100
AcDbEntity
  8
image
 62
     5
100
AcDbVertex
100
AcDb2dVertex
 10
4.022096041512304
 20
6.266555726548974
 30
0.0
 70
     8
  0
VERTEX
  5
1093
330
1077
100
AcDbEntity
  8
image
 62
     5
100
AcDbVertex
100
AcDb2dVertex
 10
4.019988664560349
 20
6.244255514515176
 30
0.0
 70
     8
  0
VERTEX
  5
1094
330
1077
100
AcDbEntity
  8
image
 62
     5
100
AcDbVertex
100
AcDb2dVertex
 10
4.018395183669479
 20
6.222684347508415
 30
0.0
 70
     8
  0
VERTEX
  5
1095
330
1077
100
AcDbEntity
  8
image
 62
     5
100
AcDbVertex
100
AcDb2dVertex
 10
4.017351148838708
 20
6.201764128097792
 30
0.0
 70
     8
  0
VERTEX
  5
1096
330
1077
100
AcDbEntity
  8
image
 62
     5
100
AcDbVertex
100
AcDb2dVertex
 10
4.016892110067063
 20
6.181416758852403
 30
0.0
 70
     8
  0
VERTEX
  5
1097
330
1077
100
AcDbEntity
  8
image
 62
     5
100
AcDbVertex
100
AcDb2dVertex
 10
4.017053617353564
 20
6.161564142341344
 30
0.0
 70
     8
  0
VERTEX
  5
1098
330
1077
100
AcDbEntity
  8
image
 62
     5
100
AcDbVertex
100
AcDb2dVertex
 10
4.017871220697237
 20
6.142128181133712
 30
0.0
 70
     8
  0
VERTEX
  5
1099
330
1077
100
AcDbEntity
  8
image
 62
     5
100
AcDbVertex
100
AcDb2dVertex
 10
4.019380470097104
 20
6.123030777798609
 30
0.0
 70
     8
  0
VERTEX
  5
109A
330
1077
100
AcDbEntity
  8
image
 62
     5
100
AcDbVertex
100
AcDb2dVertex
 10
4.021602093404927
 20
6.10418550820804
 30
0.0
 70
     8
  0
VERTEX
  5
109B
330
1077
100
AcDbEntity
  8
image
 62
     5
100
AcDbVertex
100
AcDb2dVertex
 10
4.024497529883444
 20
6.085472641445666
 30
0.0
 70
     8
  0
VERTEX
  5
109C
330
1077
100
AcDbEntity
  8
image
 62
     5
100
AcDbVertex
100
AcDb2dVertex
 10
4.028013396648132
 20
6.066764119898057
 30
0.0
 70
     8
  0
VERTEX
  5
109D
330
1077
100
AcDbEntity
  8
image
 62
     5
100
AcDbVertex
100
AcDb2dVertex
 10
4.032096310814461
 20
6.047931885951787
 30
0.0
 70
     8
  0
VERTEX
  5
109E
330
1077
100
AcDbEntity
  8
image
 62
     5
100
AcDbVertex
100
AcDb2dVertex
 10
4.036692889497915
 20
6.028847881993424
 30
0.0
 70
     8
  0
VERTEX
  5
109F
330
1077
100
AcDbEntity
  8
image
 62
     5
100
AcDbVertex
100
AcDb2dVertex
 10
4.041749749813963
 20
6.00938405040954
 30
0.0
 70
     8
  0
VERTEX
  5
10A0
330
1077
100
AcDbEntity
  8
image
 62
     5
100
AcDbVertex
100
AcDb2dVertex
 10
4.047213508878089
 20
5.989412333586704
 30
0.0
 70
     8
  0
VERTEX
  5
10A1
330
1077
100
AcDbEntity
  8
image
 62
     5
100
AcDbVertex
100
AcDb2dVertex
 10
4.053030783805761
 20
5.968804673911493
 30
0.0
 70
     8
  0
VERTEX
  5
10A2
330
1077
100
AcDbEntity
  8
image
 62
     5
100
AcDbVertex
100
AcDb2dVertex
 10
4.059142888038914
 20
5.947438696383281
 30
0.0
 70
     8
  0
VERTEX
  5
10A3
330
1077
100
AcDbEntity
  8
image
 62
     5
100
AcDbVertex
100
AcDb2dVertex
 10
4.065469920325286
 20
5.925214756452692
 30
0.0
 70
     8
  0
VERTEX
  5
10A4
330
1077
100
AcDbEntity
  8
image
 62
     5
100
AcDbVertex
100
AcDb2dVertex
 10
4.071926675739067
 20
5.902038892183149
 30
0.0
 70
     8
  0
VERTEX
  5
10A5
330
1077
100
AcDbEntity
  8
image
 62
     5
100
AcDbVertex
100
AcDb2dVertex
 10
4.078427949354447
 20
5.877817141638086
 30
0.0
 70
     8
  0
VERTEX
  5
10A6
330
1077
100
AcDbEntity
  8
image
 62
     5
100
AcDbVertex
100
AcDb2dVertex
 10
4.084888536245616
 20
5.852455542880925
 30
0.0
 70
     8
  0
VERTEX
  5
10A7
330
1077
100
AcDbEntity
  8
image
 62
     5
100
AcDbVertex
100
AcDb2dVertex
 10
4.091223231486766
 20
5.825860133975098
 30
0.0
 70
     8
  0
VERTEX
  5
10A8
330
1077
100
AcDbEntity
  8
image
 62
     5
100
AcDbVertex
100
AcDb2dVertex
 10
4.097346830152092
 20
5.797936952984031
 30
0.0
 70
     8
  0
VERTEX
  5
10A9
330
1077
100
AcDbEntity
  8
image
 62
     5
100
AcDbVertex
100
AcDb2dVertex
 10
4.10317412731578
 20
5.768592037971155
 30
0.0
 70
     8
  0
VERTEX
  5
10AA
330
1077
100
AcDbEntity
  8
image
 62
     5
100
AcDbVertex
100
AcDb2dVertex
 10
4.108646819034065
 20
5.73773818300731
 30
0.0
 70
     8
  0
VERTEX
  5
10AB
330
1077
100
AcDbEntity
  8
image
 62
     5
100
AcDbVertex
100
AcDb2dVertex
 10
4.113814205291349
 20
5.705315206193008
 30
0.0
 70
     8
  0
VERTEX
  5
10AC
330
1077
100
AcDbEntity
  8
image
 62
     5
100
AcDbVertex
100
AcDb2dVertex
 10
4.118752487054075
 20
5.671269681636174
 30
0.0
 70
     8
  0
VERTEX
  5
10AD
330
1077
100
AcDbEntity
  8
image
 62
     5
100
AcDbVertex
100
AcDb2dVertex
 10
4.123537865288691
 20
5.635548183444734
 30
0.0
 70
     8
  0
VERTEX
  5
10AE
330
1077
100
AcDbEntity
  8
image
 62
     5
100
AcDbVertex
100
AcDb2dVertex
 10
4.128246540961635
 20
5.598097285726614
 30
0.0
 70
     8
  0
VERTEX
  5
10AF
330
1077
100
AcDbEntity
  8
image
 62
     5
100
AcDbVertex
100
AcDb2dVertex
 10
4.132954715039351
 20
5.55886356258974
 30
0.0
 70
     8
  0
VERTEX
  5
10B0
330
1077
100
AcDbEntity
  8
image
 62
     5
100
AcDbVertex
100
AcDb2dVertex
 10
4.137738588488286
 20
5.517793588142036
 30
0.0
 70
     8
  0
VERTEX
  5
10B1
330
1077
100
AcDbEntity
  8
image
 62
     5
100
AcDbVertex
100
AcDb2dVertex
 10
4.142674362274886
 20
5.47483393649143
 30
0.0
 70
     8
  0
VERTEX
  5
10B2
330
1077
100
AcDbEntity
  8
image
 62
     5
100
AcDbVertex
100
AcDb2dVertex
 10
4.147842237708372
 20
5.430052047874154
 30
0.0
 70
     8
  0
VERTEX
  5
10B3
330
1077
100
AcDbEntity
  8
image
 62
     5
100
AcDbVertex
100
AcDb2dVertex
 10
4.153338417469099
 20
5.38399882703967
 30
0.0
 70
     8
  0
VERTEX
  5
10B4
330
1077
100
AcDbEntity
  8
image
 62
     5
100
AcDbVertex
100
AcDb2dVertex
 10
4.159263104580206
 20
5.337346044865752
 30
0.0
 70
     8
  0
VERTEX
  5
10B5
330
1077
100
AcDbEntity
  8
image
 62
     5
100
AcDbVertex
100
AcDb2dVertex
 10
4.16571650206483
 20
5.29076547223017
 30
0.0
 70
     8
  0
VERTEX
  5
10B6
330
1077
100
AcDbEntity
  8
image
 62
     5
100
AcDbVertex
100
AcDb2dVertex
 10
4.172798812946107
 20
5.244928880010693
 30
0.0
 70
     8
  0
VERTEX
  5
10B7
330
1077
100
AcDbEntity
  8
image
 62
     5
100
AcDbVertex
100
AcDb2dVertex
 10
4.180610240247172
 20
5.200508039085093
 30
0.0
 70
     8
  0
VERTEX
  5
10B8
330
1077
100
AcDbEntity
  8
image
 62
     5
100
AcDbVertex
100
AcDb2dVertex
 10
4.189250986991165
 20
5.158174720331141
 30
0.0
 70
     8
  0
VERTEX
  5
10B9
330
1077
100
AcDbEntity
  8
image
 62
     5
100
AcDbVertex
100
AcDb2dVertex
 10
4.198821256201222
 20
5.118600694626606
 30
0.0
 70
     8
  0
VERTEX
  5
10BA
330
1077
100
AcDbEntity
  8
image
 62
     5
100
AcDbVertex
100
AcDb2dVertex
 10
4.209435537446054
 20
5.082308839452918
 30
0.0
 70
     8
  0
VERTEX
  5
10BB
330
1077
100
AcDbEntity
  8
image
 62
     5
100
AcDbVertex
100
AcDb2dVertex
 10
4.221265466476678
 20
5.04922645870612
 30
0.0
 70
     8
  0
VERTEX
  5
10BC
330
1077
100
AcDbEntity
  8
image
 62
     5
100
AcDbVertex
100
AcDb2dVertex
 10
4.23449696558969
 20
5.019131962885916
 30
0.0
 70
     8
  0
VERTEX
  5
10BD
330
1077
100
AcDbEntity
  8
image
 62
     5
100
AcDbVertex
100
AcDb2dVertex
 10
4.249315957081675
 20
4.991803762492003
 30
0.0
 70
     8
  0
VERTEX
  5
10BE
330
1077
100
AcDbEntity
  8
image
 62
     5
100
AcDbVertex
100
AcDb2dVertex
 10
4.265908363249232
 20
4.967020268024088
 30
0.0
 70
     8
  0
VERTEX
  5
10BF
330
1077
100
AcDbEntity
  8
image
 62
     5
100
AcDbVertex
100
AcDb2dVertex
 10
4.284460106388952
 20
4.944559889981866
 30
0.0
 70
     8
  0
VERTEX
  5
10C0
330
1077
100
AcDbEntity
  8
image
 62
     5
100
AcDbVertex
100
AcDb2dVertex
 10
4.305157108797427
 20
4.924201038865042
 30
0.0
 70
     8
  0
VERTEX
  5
10C1
330
1077
100
AcDbEntity
  8
image
 62
     5
100
AcDbVertex
100
AcDb2dVertex
 10
4.328185292771253
 20
4.905722125173319
 30
0.0
 70
     8
  0
VERTEX
  5
10C2
330
1077
100
AcDbEntity
  8
image
 62
     5
100
AcDbVertex
100
AcDb2dVertex
 10
4.353868830978287
 20
4.888968274624562
 30
0.0
 70
     8
  0
VERTEX
  5
10C3
330
1077
100
AcDbEntity
  8
image
 62
     5
100
AcDbVertex
100
AcDb2dVertex
 10
4.383084897571484
 20
4.8740514738093
 30
0.0
 70
     8
  0
VERTEX
  5
10C4
330
1077
100
AcDbEntity
  8
image
 62
     5
100
AcDbVertex
100
AcDb2dVertex
 10
4.416848917075059
 20
4.861150424536226
 30
0.0
 70
     8
  0
VERTEX
  5
10C5
330
1077
100
AcDbEntity
  8
image
 62
     5
100
AcDbVertex
100
AcDb2dVertex
 10
4.456176314013235
 20
4.85044382861404
 30
0.0
 70
     8
  0
VERTEX
  5
10C6
330
1077
100
AcDbEntity
  8
image
 62
     5
100
AcDbVertex
100
AcDb2dVertex
 10
4.502082512910229
 20
4.842110387851435
 30
0.0
 70
     8
  0
VERTEX
  5
10C7
330
1077
100
AcDbEntity
  8
image
 62
     5
100
AcDbVertex
100
AcDb2dVertex
 10
4.555582938290266
 20
4.836328804057105
 30
0.0
 70
     8
  0
VERTEX
  5
10C8
330
1077
100
AcDbEntity
  8
image
 62
     5
100
AcDbVertex
100
AcDb2dVertex
 10
4.617693014677564
 20
4.833277779039747
 30
0.0
 70
     8
  0
VERTEX
  5
10C9
330
1077
100
AcDbEntity
  8
image
 62
     5
100
AcDbVertex
100
AcDb2dVertex
 10
4.689428166596341
 20
4.833136014608055
 30
0.0
 70
     8
  0
VERTEX
  5
10CA
330
1077
100
AcDbEntity
  8
image
 62
     5
100
AcDbVertex
100
AcDb2dVertex
 10
4.083304264436382
 20
6.583493252899403
 30
0.0
 70
    16
  0
VERTEX
  5
10CB
330
1077
100
AcDbEntity
  8
image
 62
     5
100
AcDbVertex
100
AcDb2dVertex
 10
4.068301352194454
 20
6.563497200258316
 30
0.0
 70
    16
  0
VERTEX
  5
10CC
330
1077
100
AcDbEntity
  8
image
 62
     5
100
AcDbVertex
100
AcDb2dVertex
 10
4.056632448900581
 20
6.496843864250802
 30
0.0
 70
    16
  0
VERTEX
  5
10CD
330
1077
100
AcDbEntity
  8
image
 62
     5
100
AcDbVertex
100
AcDb2dVertex
 10
4.019958606520619
 20
6.280220522226381
 30
0.0
 70
    16
  0
VERTEX
  5
10CE
330
1077
100
AcDbEntity
  8
image
 62
     5
100
AcDbVertex
100
AcDb2dVertex
 10
4.011623712174795
 20
6.120252533087958
 30
0.0
 70
    16
  0
VERTEX
  5
10CF
330
1077
100
AcDbEntity
  8
image
 62
     5
100
AcDbVertex
100
AcDb2dVertex
 10
4.049829365362812
 20
5.97695401221344
 30
0.0
 70
    16
  0
VERTEX
  5
10D0
330
1077
100
AcDbEntity
  8
image
 62
     5
100
AcDbVertex
100
AcDb2dVertex
 10
4.107243529208526
 20
5.784759461527242
 30
0.0
 70
    16
  0
VERTEX
  5
10D1
330
1077
100
AcDbEntity
  8
image
 62
     5
100
AcDbVertex
100
AcDb2dVertex
 10
4.140241281697758
 20
5.495560369504522
 30
0.0
 70
    16
  0
VERTEX
  5
10D2
330
1077
100
AcDbEntity
  8
image
 62
     5
100
AcDbVertex
100
AcDb2dVertex
 10
4.187837517649754
 20
5.082002679403251
 30
0.0
 70
    16
  0
VERTEX
  5
10D3
330
1077
100
AcDbEntity
  8
image
 62
     5
100
AcDbVertex
100
AcDb2dVertex
 10
4.301336184910555
 20
4.888033080642117
 30
0.0
 70
    16
  0
VERTEX
  5
10D4
330
1077
100
AcDbEntity
  8
image
 62
     5
100
AcDbVertex
100
AcDb2dVertex
 10
4.484398394527213
 20
4.829476192926172
 30
0.0
 70
    16
  0
VERTEX
  5
10D5
330
1077
100
AcDbEntity
  8
image
 62
     5
100
AcDbVertex
100
AcDb2dVertex
 10
4.689428166596341
 20
4.833136014608054
 30
0.0
 70
    16
  0
SEQEND
  5
10D6
330
1077
100
AcDbEntity
  8
image
 62
     5
  0
LINE
  5
1137
330
18
100
AcDbEntity
  8
image
100
AcDbLine
 10
4.196862869312981
 20
6.489927677096301
 30
0.0
 11
4.196862869312981
 21
6.067749451451646
 31
0.0
  0
LINE
  5
1138
330
18
100
AcDbEntity
  8
image
100
AcDbLine
 10
4.337150793713435
 20
6.4899276770963
 30
0.0
 11
4.337150793713435
 21
6.067749451451659
 31
0.0
  0
LINE
  5
1139
330
18
100
AcDbEntity
  8
image
100
AcDbLine
 10
4.093738100354217
 20
6.560430126326508
 30
0.0
 11
4.440275562672205
 21
6.560430126326508
 31
0.0
  0
LINE
  5
113A
330
18
100
AcDbEntity
  8
image
100
AcDbLine
 10
4.093738100354217
 20
6.571184737226033
 30
0.0
 11
4.440275562672205
 21
6.571184737226033
 31
0.0
  0
LINE
  5
113B
330
18
100
AcDbEntity
  8
image
100
AcDbLine
 10
4.196862869312981
 20
6.489927677096301
 30
0.0
 11
4.337150793713435
 21
6.489927677096301
 31
0.0
  0
LINE
  5
113C
330
18
100
AcDbEntity
  8
image
100
AcDbLine
 10
4.093738100354217
 20
6.549675515426985
 30
0.0
 11
4.132215708239181
 21
6.549675515426985
 31
0.0
  0
LINE
  5
113D
330
18
100
AcDbEntity
  8
image
100
AcDbLine
 10
4.134366630419082
 20
6.60703344022445
 30
0.0
 11
4.21323377701559
 21
6.60703344022445
 31
0.0
  0
LINE
  5
113E
330
18
100
AcDbEntity
  8
image
100
AcDbLine
 10
4.196862869312981
 20
6.489927677096301
 30
0.0
 11
4.132215708239181
 21
6.549675515426985
 31
0.0
  0
LINE
  5
113F
330
18
100
AcDbEntity
  8
image
100
AcDbLine
 10
4.134366630419082
 20
6.60703344022445
 30
0.0
 11
4.134366630419082
 21
6.571184737226033
 31
0.0
  0
LINE
  5
1140
330
18
100
AcDbEntity
  8
image
100
AcDbLine
 10
4.132215708239181
 20
6.549675515426985
 30
0.0
 11
4.132215708239181
 21
6.560430126326508
 31
0.0
  0
LINE
  5
1141
330
18
100
AcDbEntity
  8
image
100
AcDbLine
 10
4.203674122882681
 20
6.60703344022445
 30
0.0
 11
4.203674122882681
 21
6.571184737226033
 31
0.0
  0
LINE
  5
1142
330
18
100
AcDbEntity
  8
image
100
AcDbLine
 10
4.21323377701559
 20
6.60703344022445
 30
0.0
 11
4.21323377701559
 21
6.571184737226033
 31
0.0
  0
LINE
  5
1143
330
18
100
AcDbEntity
  8
image
100
AcDbLine
 10
4.099646799685633
 20
6.659624811997834
 30
0.0
 11
4.099646799685633
 21
6.638115590198786
 31
0.0
  0
LINE
  5
1144
330
18
100
AcDbEntity
  8
image
100
AcDbLine
 10
4.068577923753677
 20
6.695473514996251
 30
0.0
 11
4.068577923753677
 21
6.659624811997834
 31
0.0
  0
LINE
  5
1145
330
18
100
AcDbEntity
  8
image
100
AcDbLine
 10
4.061169191800665
 20
6.638115590198786
 30
0.0
 11
4.061169191800665
 21
6.64887020109831
 31
0.0
  0
LINE
  5
1146
330
18
100
AcDbEntity
  8
image
100
AcDbLine
 10
4.093738100354217
 20
6.549675515426985
 30
0.0
 11
4.093738100354217
 21
6.571184737226033
 31
0.0
  0
LINE
  5
1147
330
18
100
AcDbEntity
  8
image
100
AcDbLine
 10
4.061169191800665
 20
6.638115590198786
 30
0.0
 11
4.099646799685633
 21
6.638115590198786
 31
0.0
  0
LINE
  5
1148
330
18
100
AcDbEntity
  8
image
100
AcDbLine
 10
4.337150793713435
 20
6.489927677096301
 30
0.0
 11
4.401797954787239
 21
6.549675515426985
 31
0.0
  0
LINE
  5
1149
330
18
100
AcDbEntity
  8
image
100
AcDbLine
 10
4.330339540143741
 20
6.60703344022445
 30
0.0
 11
4.330339540143741
 21
6.571184737226033
 31
0.0
  0
LINE
  5
114A
330
18
100
AcDbEntity
  8
image
100
AcDbLine
 10
4.32077988601083
 20
6.60703344022445
 30
0.0
 11
4.32077988601083
 21
6.571184737226033
 31
0.0
  0
LINE
  5
114B
330
18
100
AcDbEntity
  8
image
100
AcDbLine
 10
4.32077988601083
 20
6.60703344022445
 30
0.0
 11
4.409206686740249
 21
6.60703344022445
 31
0.0
  0
ARC
  5
114C
330
18
100
AcDbEntity
  8
image
100
AcDbCircle
 10
4.267006831513208
 20
6.067749451451659
 30
0.0
 40
0.070143962200227
100
AcDbArc
 50
180.0
 51
0.0
  0
ARC
  5
114D
330
18
100
AcDbEntity
  8
image
100
AcDbCircle
 10
3.926378068526636
 20
6.156189526223458
 30
0.0
 40
0.070143962200227
100
AcDbArc
 50
180.0
 51
0.0
  0
LINE
  5
114E
330
18
100
AcDbEntity
  8
image
100
AcDbLine
 10
4.440275562672205
 20
6.571184737226033
 30
0.0
 11
4.440275562672205
 21
6.549675515426985
 31
0.0
  0
LINE
  5
114F
330
18
100
AcDbEntity
  8
image
100
AcDbLine
 10
4.401797954787239
 20
6.549675515426985
 30
0.0
 11
4.440275562672205
 21
6.549675515426985
 31
0.0
  0
LINE
  5
1150
330
18
100
AcDbEntity
  8
image
100
AcDbLine
 10
4.401797954787239
 20
6.549675515426985
 30
0.0
 11
4.401797954787239
 21
6.560430126326508
 31
0.0
  0
LINE
  5
1151
330
18
100
AcDbEntity
  8
image
100
AcDbLine
 10
4.409206686740249
 20
6.60703344022445
 30
0.0
 11
4.409206686740249
 21
6.571184737226033
 31
0.0
  0
LINE
  5
12D5
330
18
100
AcDbEntity
  8
image
100
AcDbLine
 10
3.856234106326409
 20
6.247039248086958
 30
0.0
 11
2.926496462880569
 21
6.247039248086956
 31
0.0
  0
LINE
  5
12D6
330
18
100
AcDbEntity
  8
image
100
AcDbLine
 10
4.196862869312981
 20
6.247039248086959
 30
0.0
 11
3.996522030726863
 21
6.247039248086958
 31
0.0
  0
LEADER
  5
12DB
330
18
100
AcDbEntity
  8
text_bubbles
100
AcDbLeader
  3
STANDARD
 76
     2
 10
4.838174120816608
 20
7.039466307807709
 30
0.0
 10
4.428665202674707
 20
8.705629630582048
 30
0.0
1001
ACAD
1000
DSTYLE
1002
{
1070
   147
1040
0.09
1070
    77
1070
     0
1002
}
  0
LEADER
  5
12DC
330
18
100
AcDbEntity
  8
text_bubbles
100
AcDbLeader
  3
STANDARD
 76
     2
 10
6.079676449050309
 20
8.299380791395895
 30
0.0
 10
5.966717822262635
 20
8.710413532463375
 30
0.0
1001
ACAD
1000
DSTYLE
1002
{
1070
   147
1040
0.09
1070
    77
1070
     0
1002
}
  0
LWPOLYLINE
  5
12DD
330
18
100
AcDbEntity
  8
image
100
AcDbPolyline
 90
        2
 70
     0
 43
0.0246
 10
4.689428166596341
 20
4.833136014608055
 10
6.866279448967079
 20
4.827587531406675
  0
MTEXT
  5
12DE
102
{ACAD_XDICTIONARY
360
1965
102
}
330
18
100
AcDbEntity
  8
text_bubbles
100
AcDbMText
 10
9.799815352649977
 20
9.811474494301016
 30
0.0
 40
0.125
 41
5.877240374690064
 71
     1
 72
     5
  3
GREEN/YELLOW WIRE FROM SD-210TURF TO GROUNDING ROD BRASS CLAMP (1 OF 2)\P\PSENSOR DECODER:\P RAIN BIRD SD-210TURF M13009 SENSOR DECODER\P\PRED WIRE FROM SD-210TURF TO FLOW SENSOR\P\PDB SERIES WIRE CONNECTOR:\P  RAIN BIRD DBTWC25 (1 OF 6)\P\P12-INCH V
  3
ALVE BOX WITH COVER: \P  RAIN BIRD VB-STD\P\PFINISH GRADE OR TOP OF MULCH\P\P\pi-0.25,l0.25;GROUND WIRE FROM SD-210TURF TO DB SERIES WIRE   CONNECTOR (1 OF 2)\P\pi0,l0;\PFLOW SENSOR WIRE (1 OF 2)\P\PFLOW SENSOR\P\PPVC MAINLINE PIPE\P\PBRICK (1 OF 4)\
  3
P\P3-INCH MINIMUM DEPTH OF 3/4-INCH \P  WASHED GRAVEL\P\PBLACK WIRE FROM SD-210TURF TO FLOW SENSOR\P\PBLUE WIRE FROM SD-210TURF (1 OF 2)\P\PTWO-WIRE CABLE TO NEXT DEVICE\P\pi-0.25,l0.25;  (FIELD DECODER, SENSOR DECODER, LINE SURGE PROTECTOR OR ESP-LX
  1
D CONTROLLER)\P\pi0,l0;\PCOMMUNICATION WIRE TO NEXT DEVICE\P\pi-0.25,l0.25;  (FIELD DECODER, SENSOR DECODER, LINE SURGE PROTECTOR, OR ESP-LXD CONTROLLER)\P\pi0,l0;\PGROUNDING ROD
  7
ROMANS
 73
     1
 44
1.0
  0
INSERT
  5
12DF
330
18
100
AcDbEntity
  8
text_bubbles
100
AcDbBlockReference
 66
     1
  2
bubble
 10
9.51986618781987
 20
9.72910474366024
 30
0.0
  0
ATTRIB
  5
12E0
330
12DF
100
AcDbEntity
  8
text_bubbles
100
AcDbText
 10
9.469270949724633
 20
9.66660474366024
 30
0.0
 40
0.125
  1
1
  7
ROMANS
 72
     4
 11
9.51986618781987
 21
9.72910474366024
 31
0.0
100
AcDbAttribute
  2
XX
 70
     0
  0
SEQEND
  5
12E1
330
12DF
100
AcDbEntity
  8
text_bubbles
  0
INSERT
  5
12E2
330
18
100
AcDbEntity
  8
text_bubbles
100
AcDbBlockReference
 66
     1
  2
bubble
 10
9.51986618781987
 20
9.072362122334791
 30
0.0
  0
ATTRIB
  5
12E3
330
12E2
100
AcDbEntity
  8
text_bubbles
100
AcDbText
 10
9.46034237829606
 20
9.009862122334791
 30
0.0
 40
0.125
  1
2
  7
ROMANS
 72
     4
 11
9.51986618781987
 21
9.072362122334791
 31
0.0
100
AcDbAttribute
  2
XX
 70
     0
  0
SEQEND
  5
12E4
330
12E2
100
AcDbEntity
  8
text_bubbles
  0
INSERT
  5
12E5
330
18
100
AcDbEntity
  8
text_bubbles
100
AcDbBlockReference
 66
     1
  2
bubble
 10
9.51986618781987
 20
8.458801683376076
 30
0.0
  0
ATTRIB
  5
12E6
330
12E5
100
AcDbEntity
  8
text_bubbles
100
AcDbText
 10
9.46034237829606
 20
8.396301683376076
 30
0.0
 40
0.125
  1
3
  7
ROMANS
 72
     4
 11
9.51986618781987
 21
8.458801683376076
 31
0.0
100
AcDbAttribute
  2
XX
 70
     0
  0
SEQEND
  5
12E7
330
12E5
100
AcDbEntity
  8
text_bubbles
  0
INSERT
  5
12E8
330
18
100
AcDbEntity
  8
text_bubbles
100
AcDbBlockReference
 66
     1
  2
bubble
 10
9.51986618781987
 20
8.030351849253861
 30
0.0
  0
ATTRIB
  5
12E9
330
12E8
100
AcDbEntity
  8
text_bubbles
100
AcDbText
 10
9.45736618781987
 20
7.967851849253861
 30
0.0
 40
0.125
  1
4
  7
ROMANS
 72
     4
 11
9.51986618781987
 21
8.030351849253861
 31
0.0
100
AcDbAttribute
  2
XX
 70
     0
  0
SEQEND
  5
12EA
330
12E8
100
AcDbEntity
  8
text_bubbles
  0
INSERT
  5
12EB
330
18
100
AcDbEntity
  8
text_bubbles
100
AcDbBlockReference
 66
     1
  2
bubble
 10
9.51986618781987
 20
7.380117329674881
 30
0.0
  0
ATTRIB
  5
12EC
330
12EB
100
AcDbEntity
  8
text_bubbles
100
AcDbText
 10
9.46034237829606
 20
7.317617329674881
 30
0.0
 40
0.125
  1
5
  7
ROMANS
 72
     4
 11
9.51986618781987
 21
7.380117329674881
 31
0.0
100
AcDbAttribute
  2
XX
 70
     0
  0
SEQEND
  5
12ED
330
12EB
100
AcDbEntity
  8
text_bubbles
  0
INSERT
  5
12EE
330
18
100
AcDbEntity
  8
text_bubbles
100
AcDbBlockReference
 66
     1
  2
bubble
 10
9.51986618781987
 20
6.76574883468726
 30
0.0
  0
ATTRIB
  5
12EF
330
12EE
100
AcDbEntity
  8
text_bubbles
100
AcDbText
 10
9.45736618781987
 20
6.70324883468726
 30
0.0
 40
0.125
  1
6
  7
ROMANS
 72
     4
 11
9.51986618781987
 21
6.76574883468726
 31
0.0
100
AcDbAttribute
  2
XX
 70
     0
  0
SEQEND
  5
12F0
330
12EE
100
AcDbEntity
  8
text_bubbles
  0
INSERT
  5
12F1
330
18
100
AcDbEntity
  8
text_bubbles
100
AcDbBlockReference
 66
     1
  2
bubble
 10
9.51986618781987
 20
6.346536837293686
 30
0.0
  0
ATTRIB
  5
12F2
330
12F1
100
AcDbEntity
  8
text_bubbles
100
AcDbText
 10
9.46034237829606
 20
6.284036837293686
 30
0.0
 40
0.125
  1
7
  7
ROMANS
 72
     4
 11
9.51986618781987
 21
6.346536837293686
 31
0.0
100
AcDbAttribute
  2
XX
 70
     0
  0
SEQEND
  5
12F3
330
12F1
100
AcDbEntity
  8
text_bubbles
  0
INSERT
  5
12F4
330
18
100
AcDbEntity
  8
text_bubbles
100
AcDbBlockReference
 66
     1
  2
bubble
 10
9.51986618781987
 20
5.665804677251352
 30
0.0
  0
ATTRIB
  5
12F5
330
12F4
100
AcDbEntity
  8
text_bubbles
100
AcDbText
 10
9.46034237829606
 20
5.603304677251352
 30
0.0
 40
0.125
  1
8
  7
ROMANS
 72
     4
 11
9.51986618781987
 21
5.665804677251352
 31
0.0
100
AcDbAttribute
  2
XX
 70
     0
  0
SEQEND
  5
12F6
330
12F4
100
AcDbEntity
  8
text_bubbles
  0
INSERT
  5
12F7
330
18
100
AcDbEntity
  8
text_bubbles
100
AcDbBlockReference
 66
     1
  2
bubble
 10
9.51986618781987
 20
5.252767572395088
 30
0.0
  0
ATTRIB
  5
12F8
330
12F7
100
AcDbEntity
  8
text_bubbles
100
AcDbText
 10
9.463318568772251
 20
5.190267572395088
 30
0.0
 40
0.125
  1
9
  7
ROMANS
 72
     4
 11
9.51986618781987
 21
5.252767572395088
 31
0.0
100
AcDbAttribute
  2
XX
 70
     0
  0
SEQEND
  5
12F9
330
12F7
100
AcDbEntity
  8
text_bubbles
  0
INSERT
  5
12FA
330
18
100
AcDbEntity
  8
text_bubbles
100
AcDbBlockReference
 66
     1
  2
bubble
 10
9.51986618781987
 20
4.832780299535777
 30
0.0
  0
ATTRIB
  5
12FB
330
12FA
100
AcDbEntity
  8
text_bubbles
100
AcDbText
 10
9.39188999734368
 20
4.770280299535777
 30
0.0
 40
0.125
  1
10
  7
ROMANS
 72
     4
 11
9.51986618781987
 21
4.832780299535777
 31
0.0
100
AcDbAttribute
  2
XX
 70
     0
  0
SEQEND
  5
12FC
330
12FA
100
AcDbEntity
  8
text_bubbles
  0
INSERT
  5
12FD
330
18
100
AcDbEntity
  8
text_bubbles
100
AcDbBlockReference
 66
     1
  2
bubble
 10
9.51986618781987
 20
4.415292392705334
 30
0.0
  0
ATTRIB
  5
12FE
330
12FD
100
AcDbEntity
  8
text_bubbles
100
AcDbText
 10
9.409747140200822
 20
4.352792392705334
 30
0.0
 40
0.125
  1
11
  7
ROMANS
 72
     4
 11
9.51986618781987
 21
4.415292392705334
 31
0.0
100
AcDbAttribute
  2
XX
 70
     0
  0
SEQEND
  5
12FF
330
12FD
100
AcDbEntity
  8
text_bubbles
  0
INSERT
  5
1300
330
18
100
AcDbEntity
  8
text_bubbles
100
AcDbBlockReference
 66
     1
  2
bubble
 10
9.51986618781987
 20
3.958860064151529
 30
0.0
  0
ATTRIB
  5
1301
330
1300
100
AcDbEntity
  8
text_bubbles
100
AcDbText
 10
9.39188999734368
 20
3.896360064151529
 30
0.0
 40
0.125
  1
12
  7
ROMANS
 72
     4
 11
9.51986618781987
 21
3.958860064151529
 31
0.0
100
AcDbAttribute
  2
XX
 70
     0
  0
SEQEND
  5
1302
330
1300
100
AcDbEntity
  8
text_bubbles
  0
INSERT
  5
1303
330
18
100
AcDbEntity
  8
text_bubbles
100
AcDbBlockReference
 66
     1
  2
bubble
 10
9.51986618781987
 20
3.331948628317863
 30
0.0
  0
ATTRIB
  5
1304
330
1303
100
AcDbEntity
  8
text_bubbles
100
AcDbText
 10
9.39188999734368
 20
3.269448628317863
 30
0.0
 40
0.125
  1
13
  7
ROMANS
 72
     4
 11
9.51986618781987
 21
3.331948628317863
 31
0.0
100
AcDbAttribute
  2
XX
 70
     0
  0
SEQEND
  5
1305
330
1303
100
AcDbEntity
  8
text_bubbles
  0
INSERT
  5
1306
330
18
100
AcDbEntity
  8
text_bubbles
100
AcDbBlockReference
 66
     1
  2
bubble
 10
9.51986618781987
 20
2.902631385874158
 30
0.0
  0
ATTRIB
  5
1307
330
1306
100
AcDbEntity
  8
text_bubbles
100
AcDbText
 10
9.388913806867488
 20
2.840131385874158
 30
0.0
 40
0.125
  1
14
  7
ROMANS
 72
     4
 11
9.51986618781987
 21
2.902631385874158
 31
0.0
100
AcDbAttribute
  2
XX
 70
     0
  0
SEQEND
  5
1308
330
1306
100
AcDbEntity
  8
text_bubbles
  0
INSERT
  5
1309
330
18
100
AcDbEntity
  8
text_bubbles
100
AcDbBlockReference
 66
     1
  2
bubble
 10
9.51986618781987
 20
2.472470274295009
 30
0.0
  0
ATTRIB
  5
130A
330
1309
100
AcDbEntity
  8
text_bubbles
100
AcDbText
 10
9.39188999734368
 20
2.409970274295009
 30
0.0
 40
0.125
  1
15
  7
ROMANS
 72
     4
 11
9.51986618781987
 21
2.472470274295009
 31
0.0
100
AcDbAttribute
  2
XX
 70
     0
  0
SEQEND
  5
130B
330
1309
100
AcDbEntity
  8
text_bubbles
  0
INSERT
  5
130C
330
18
100
AcDbEntity
  8
text_bubbles
100
AcDbBlockReference
 66
     1
  2
bubble
 10
9.51986618781987
 20
1.608111003478467
 30
0.0
  0
ATTRIB
  5
130D
330
130C
100
AcDbEntity
  8
text_bubbles
100
AcDbText
 10
9.39188999734368
 20
1.545611003478467
 30
0.0
 40
0.125
  1
16
  7
ROMANS
 72
     4
 11
9.51986618781987
 21
1.608111003478467
 31
0.0
100
AcDbAttribute
  2
XX
 70
     0
  0
SEQEND
  5
130E
330
130C
100
AcDbEntity
  8
text_bubbles
  0
LWPOLYLINE
  5
1312
330
18
100
AcDbEntity
  8
image
100
AcDbPolyline
 90
       16
 70
     1
 43
0.0
 10
6.570219929126364
 20
5.713273539572217
 42
0.1615511064879552
 10
6.556968920961159
 20
5.695642166270094
 42
0.1061532262602322
 10
6.553250289275814
 20
5.662771099844313
 42
0.0703450477663066
 10
6.561663518748781
 20
5.628290725750018
 42
0.0566056099584688
 10
6.582496760251716
 20
5.589501239771539
 42
0.0566056099584683
 10
6.611498210880975
 20
5.556371735769936
 42
0.0703450477663069
 10
6.640827156007938
 20
5.536384449671297
 42
0.1061532262602343
 10
6.672910205550431
 20
5.528321375714531
 42
0.1615511064879549
 10
6.694072321809072
 20
5.534535824794605
 42
0.1615511064879543
 10
6.707323329974279
 20
5.552167198096709
 42
0.106153226260232
 10
6.711041961659619
 20
5.585038264522468
 42
0.0703450477663075
 10
6.702628732186662
 20
5.619518638616796
 42
0.0566056099584687
 10
6.681795490683716
 20
5.658308124595258
 42
0.05660560995847
 10
6.652794040054454
 20
5.691437628596862
 42
0.0703450477663058
 10
6.6234650949275
 20
5.7114249146955
 42
0.1061532262602316
 10
6.591382045385001
 20
5.71948798865225
 42
0.1615511064879538
  0
LWPOLYLINE
  5
1313
330
18
100
AcDbEntity
  8
image
100
AcDbPolyline
 90
       16
 70
     1
 43
0.0
 10
6.425938900397133
 20
5.796820452580378
 42
0.1096021439183502
 10
6.393427127057266
 20
5.791277117993237
 42
0.1024204874116924
 10
6.364170698394675
 20
5.77163146450272
 42
0.0936695383243779
 10
6.344287111477484
 20
5.741840312732533
 42
0.0882994724157594
 10
6.335796225215542
 20
5.704843511889597
 42
0.088299472415759
 10
6.340592263795604
 20
5.667189077408876
 42
0.0936695383243767
 10
6.357436862422872
 20
5.635580071578688
 42
0.1024204874116938
 10
6.38461033754999
 20
5.613141431497904
 42
0.1096021439183517
 10
6.416415818239018
 20
5.604414727527458
 42
0.109602143918351
 10
6.448927591578875
 20
5.609958062114621
 42
0.1024204874116929
 10
6.478184020241476
 20
5.629603715605131
 42
0.0936695383243769
 10
6.498067607158661
 20
5.659394867375304
 42
0.0882994724157586
 10
6.506558493420605
 20
5.696391668218241
 42
0.0882994724157589
 10
6.501762454840539
 20
5.734046102698984
 42
0.0936695383243761
 10
6.484917856213266
 20
5.765655108529164
 42
0.102420487411692
 10
6.457744381086156
 20
5.78809374860995
 42
0.1096021439183503
  0
LWPOLYLINE
  5
1314
330
18
100
AcDbEntity
  8
image
100
AcDbPolyline
 90
       16
 70
     1
 43
0.0
 10
6.388121964539637
 20
5.54873581572426
 42
0.0708989349029243
 10
6.368494343742025
 20
5.530541244737197
 42
0.0824870853856804
 10
6.357101976517167
 20
5.510509874779698
 42
0.1068139206260733
 10
6.354037862142298
 20
5.48871672048059
 42
0.1340008839894652
 10
6.359918455585972
 20
5.472068769053636
 42
0.1340008839894659
 10
6.373440544423985
 20
5.46071584963083
 42
0.106813920626075
 10
6.394921546505679
 20
5.455930776927797
 42
0.0824870853856831
 10
6.41767796890481
 20
5.459562175136801
 42
0.0708989349029243
 10
6.441606913340514
 20
5.471549315319995
 42
0.0708989349029259
 10
6.461234534138123
 20
5.489743886307076
 42
0.0824870853856834
 10
6.47262690136298
 20
5.509775256264566
 42
0.1068139206260768
 10
6.475691015737853
 20
5.531568410563687
 42
0.1340008839894672
 10
6.469810422294173
 20
5.548216361990631
 42
0.1340008839894638
 10
6.456288333456161
 20
5.559569281413452
 42
0.1068139206260751
 10
6.434807331374461
 20
5.564354354116501
 42
0.082487085385683
 10
6.412050908975338
 20
5.560722955907463
 42
0.0708989349029251
  0
LWPOLYLINE
  5
1315
330
18
100
AcDbEntity
  8
image
100
AcDbPolyline
 90
       16
 70
     1
 43
0.0
 10
6.515148717941718
 20
5.519790878072669
 42
0.0708989349029243
 10
6.495521097144106
 20
5.501596307085604
 42
0.0824870853856804
 10
6.484128729919248
 20
5.481564937128105
 42
0.1068139206260733
 10
6.481064615544378
 20
5.459771782828996
 42
0.1340008839894652
 10
6.486945208988053
 20
5.443123831402038
 42
0.1340008839894659
 10
6.500467297826066
 20
5.431770911979233
 42
0.106813920626075
 10
6.521948299907764
 20
5.4269858392762
 42
0.0824870853856831
 10
6.544704722306894
 20
5.430617237485202
 42
0.0708989349029243
 10
6.568633666742595
 20
5.442604377668404
 42
0.0708989349029259
 10
6.588261287540207
 20
5.460798948655483
 42
0.0824870853856834
 10
6.599653654765059
 20
5.480830318612969
 42
0.1068139206260768
 10
6.602717769139934
 20
5.502623472912082
 42
0.1340008839894672
 10
6.596837175696256
 20
5.519271424339036
 42
0.1340008839894638
 10
6.583315086858242
 20
5.530624343761857
 42
0.1068139206260751
 10
6.561834084776547
 20
5.53540941646489
 42
0.082487085385683
 10
6.539077662377419
 20
5.531778018255872
 42
0.0708989349029251
  0
LEADER
  5
1316
330
18
100
AcDbEntity
  8
text_bubbles
100
AcDbLeader
  3
STANDARD
 76
     2
 10
4.129285113858722
 20
7.34111723076962
 30
0.0
 10
3.808955360038073
 20
8.720547108700396
 30
0.0
1001
ACAD
1000
DSTYLE
1002
{
1070
   147
1040
0.09
1070
    77
1070
     0
1002
}
  0
LEADER
  5
1317
330
18
100
AcDbEntity
  8
text_bubbles
100
AcDbLeader
  3
STANDARD
 76
     2
 10
5.030180685007293
 20
4.829837081218955
 30
0.0
 10
5.228800553696038
 20
4.319566807900956
 30
0.0
1001
ACAD
1000
DSTYLE
1002
{
1070
   147
1040
0.09
1070
    77
1070
     0
1002
}
  0
LEADER
  5
1319
330
18
100
AcDbEntity
  8
text_bubbles
100
AcDbLeader
  3
STANDARD
 76
     2
 10
3.830318353467669
 20
5.011816506806329
 30
0.0
 10
4.179701088399383
 20
4.294788422765626
 30
0.0
1001
ACAD
1000
DSTYLE
1002
{
1070
   147
1040
0.09
1070
    77
1070
     0
1002
}
  0
LEADER
  5
131A
330
18
100
AcDbEntity
  8
text_bubbles
100
AcDbLeader
  3
STANDARD
 76
     2
 10
3.421259647807174
 20
4.626329337601257
 30
0.0
 10
3.649684802528723
 20
4.232823016499587
 30
0.0
1001
ACAD
1000
DSTYLE
1002
{
1070
   147
1040
0.09
1070
    77
1070
     0
1002
}
  0
LEADER
  5
131D
330
18
100
AcDbEntity
  8
text_bubbles
100
AcDbLeader
  3
STANDARD
 76
     2
 10
4.557985258712289
 20
6.589688271786678
 30
0.0
 10
5.623604768233864
 20
4.285582745485775
 30
0.0
1001
ACAD
1000
DSTYLE
1002
{
1070
   147
1040
0.09
1070
    77
1070
     0
1002
}
  0
INSERT
  5
131E
330
18
100
AcDbEntity
  8
text_bubbles
100
AcDbBlockReference
 66
     1
  2
bubble
 10
3.734745760872494
 20
8.839142831185164
 30
0.0
  0
ATTRIB
  5
131F
330
131E
100
AcDbEntity
  8
text_bubbles
100
AcDbText
 10
3.675221951348684
 20
8.776642831185164
 30
0.0
 40
0.125
  1
2
  7
ROMANS
 72
     4
 11
3.734745760872494
 21
8.839142831185164
 31
0.0
100
AcDbAttribute
  2
XX
 70
     0
  0
SEQEND
  5
1320
330
131E
100
AcDbEntity
  8
text_bubbles
  0
INSERT
  5
1324
330
18
100
AcDbEntity
  8
text_bubbles
100
AcDbBlockReference
 66
     1
  2
bubble
 10
4.386877222767655
 20
8.839142831185164
 30
0.0
  0
ATTRIB
  5
1325
330
1324
100
AcDbEntity
  8
text_bubbles
100
AcDbText
 10
4.327353413243845
 20
8.776642831185164
 30
0.0
 40
0.125
  1
3
  7
ROMANS
 72
     4
 11
4.386877222767655
 21
8.839142831185164
 31
0.0
100
AcDbAttribute
  2
XX
 70
     0
  0
SEQEND
  5
1326
330
1324
100
AcDbEntity
  8
text_bubbles
  0
INSERT
  5
1330
330
18
100
AcDbEntity
  8
text_bubbles
100
AcDbBlockReference
 66
     1
  2
bubble
 10
5.911938468025875
 20
8.839142831185164
 30
0.0
  0
ATTRIB
  5
1331
330
1330
100
AcDbEntity
  8
text_bubbles
100
AcDbText
 10
5.852414658502065
 20
8.776642831185164
 30
0.0
 40
0.125
  1
5
  7
ROMANS
 72
     4
 11
5.911938468025875
 21
8.839142831185164
 31
0.0
100
AcDbAttribute
  2
XX
 70
     0
  0
SEQEND
  5
1332
330
1330
100
AcDbEntity
  8
text_bubbles
  0
INSERT
  5
1336
330
18
100
AcDbEntity
  8
text_bubbles
100
AcDbBlockReference
 66
     1
  2
bubble
 10
8.133213125379056
 20
6.807786061206632
 30
0.0
  0
ATTRIB
  5
1337
330
1336
100
AcDbEntity
  8
text_bubbles
100
AcDbText
 10
8.005236934902866
 20
6.745286061206632
 30
0.0
 40
0.125
  1
10
  7
ROMANS
 72
     4
 11
8.133213125379056
 21
6.807786061206632
 31
0.0
100
AcDbAttribute
  2
XX
 70
     0
  0
SEQEND
  5
1338
330
1336
100
AcDbEntity
  8
text_bubbles
  0
INSERT
  5
1339
330
18
100
AcDbEntity
  8
text_bubbles
100
AcDbBlockReference
 66
     1
  2
bubble
 10
8.128226089852093
 20
5.963653220824911
 30
0.0
  0
ATTRIB
  5
133A
330
1339
100
AcDbEntity
  8
text_bubbles
100
AcDbText
 10
8.018107042233046
 20
5.901153220824911
 30
0.0
 40
0.125
  1
11
  7
ROMANS
 72
     4
 11
8.128226089852093
 21
5.963653220824911
 31
0.0
100
AcDbAttribute
  2
XX
 70
     0
  0
SEQEND
  5
133B
330
1339
100
AcDbEntity
  8
text_bubbles
  0
INSERT
  5
133C
330
18
100
AcDbEntity
  8
text_bubbles
100
AcDbBlockReference
 66
     1
  2
bubble
 10
3.783857572964159
 20
4.193203858587289
 30
0.0
  0
ATTRIB
  5
133D
330
133C
100
AcDbEntity
  8
text_bubbles
100
AcDbText
 10
3.655881382487968
 20
4.130703858587289
 30
0.0
 40
0.125
  1
17
  7
ROMANS
 72
     4
 11
3.783857572964159
 21
4.193203858587289
 31
0.0
100
AcDbAttribute
  2
XX
 70
     0
  0
SEQEND
  5
133E
330
133C
100
AcDbEntity
  8
text_bubbles
  0
INSERT
  5
133F
330
18
100
AcDbEntity
  8
text_bubbles
100
AcDbBlockReference
 66
     1
  2
bubble
 10
4.275875723949127
 20
4.193203858587289
 30
0.0
  0
ATTRIB
  5
1340
330
133F
100
AcDbEntity
  8
text_bubbles
100
AcDbText
 10
4.147899533472936
 20
4.130703858587289
 30
0.0
 40
0.125
  1
16
  7
ROMANS
 72
     4
 11
4.275875723949127
 21
4.193203858587289
 31
0.0
100
AcDbAttribute
  2
XX
 70
     0
  0
SEQEND
  5
1341
330
133F
100
AcDbEntity
  8
text_bubbles
  0
INSERT
  5
1345
330
18
100
AcDbEntity
  8
text_bubbles
100
AcDbBlockReference
 66
     1
  2
bubble
 10
5.728667374595008
 20
4.193203858587289
 30
0.0
  0
ATTRIB
  5
1346
330
1345
100
AcDbEntity
  8
text_bubbles
100
AcDbText
 10
5.597714993642627
 20
4.130703858587289
 30
0.0
 40
0.125
  1
14
  7
ROMANS
 72
     4
 11
5.728667374595008
 21
4.193203858587289
 31
0.0
100
AcDbAttribute
  2
XX
 70
     0
  0
SEQEND
  5
1347
330
1345
100
AcDbEntity
  8
text_bubbles
  0
INSERT
  5
1348
330
18
100
AcDbEntity
  8
text_bubbles
100
AcDbBlockReference
 66
     1
  2
bubble
 10
5.28883733442878
 20
4.193203858587289
 30
0.0
  0
ATTRIB
  5
1349
330
1348
100
AcDbEntity
  8
text_bubbles
100
AcDbText
 10
5.160861143952589
 20
4.130703858587289
 30
0.0
 40
0.125
  1
15
  7
ROMANS
 72
     4
 11
5.28883733442878
 21
4.193203858587289
 31
0.0
100
AcDbAttribute
  2
XX
 70
     0
  0
SEQEND
  5
134A
330
1348
100
AcDbEntity
  8
text_bubbles
  0
INSERT
  5
134B
330
18
100
AcDbEntity
  8
text_bubbles
100
AcDbBlockReference
 66
     1
  2
bubble
 10
6.520381474315822
 20
4.193203858587289
 30
0.0
  0
ATTRIB
  5
134C
330
134B
100
AcDbEntity
  8
text_bubbles
100
AcDbText
 10
6.392405283839631
 20
4.130703858587289
 30
0.0
 40
0.125
  1
12
  7
ROMANS
 72
     4
 11
6.520381474315822
 21
4.193203858587289
 31
0.0
100
AcDbAttribute
  2
XX
 70
     0
  0
SEQEND
  5
134D
330
134B
100
AcDbEntity
  8
text_bubbles
  0
LWPOLYLINE
  5
13D5
330
18
100
AcDbEntity
  8
image
100
AcDbPolyline
 90
        7
 70
     0
 43
0.0
 10
5.939413505359784
 20
5.958088841562671
 10
6.061906553961676
 20
5.958088841562671
 10
6.061906553961676
 20
5.934383189788812
 10
6.319559019368938
 20
5.934383189788812
 10
6.319559019368938
 20
6.290446868452715
 10
6.112572026775573
 20
6.290446868452715
 10
6.112572026775573
 20
6.536123623199969
  0
LWPOLYLINE
  5
13D6
330
18
100
AcDbEntity
  8
image
100
AcDbPolyline
 90
        3
 70
     0
 43
0.0
 10
6.061906553961676
 20
5.958088841562671
 10
6.061906553961676
 20
6.185806769208515
 42
-0.2398162149919381
 10
6.112572026775573
 20
6.290446868452715
 42
0.89232783326
  0
LWPOLYLINE
  5
13D7
330
18
100
AcDbEntity
  8
image
100
AcDbPolyline
 90
        7
 70
     0
 43
0.0
 10
5.939413505359784
 20
5.958088841562671
 10
5.816920456757891
 20
5.958088841562671
 10
5.816920456757891
 20
5.934383189788812
 10
5.55926799135063
 20
5.934383189788812
 10
5.55926799135063
 20
6.290446868452715
 10
5.766254983943994
 20
6.290446868452715
 10
5.766254983943994
 20
6.536123623199969
  0
LWPOLYLINE
  5
13D8
330
18
100
AcDbEntity
  8
image
100
AcDbPolyline
 90
        3
 70
     0
 43
0.0
 10
5.816920456757891
 20
5.958088841562671
 10
5.816920456757891
 20
6.185806769208515
 42
0.2398162149919381
 10
5.766254983943994
 20
6.290446868452715
 42
-0.89232783326
  0
LWPOLYLINE
  5
13DB
330
18
100
AcDbEntity
  8
image
100
AcDbPolyline
 90
        3
 70
     0
 43
0.0
 10
6.112572026775573
 20
6.550490684881094
 10
6.112572026775573
 20
6.663990472161988
 10
5.939413505359784
 20
6.663990472161988
  0
LWPOLYLINE
  5
13DC
330
18
100
AcDbEntity
  8
image
100
AcDbPolyline
 90
        3
 70
     0
 43
0.0
 10
5.766254983943994
 20
6.550490684881094
 10
5.766254983943994
 20
6.663990472161988
 10
5.939413505359784
 20
6.663990472161988
  0
ARC
  5
13DD
330
18
100
AcDbEntity
  8
image
100
AcDbCircle
 10
5.939876909074545
 20
6.587605594224002
 30
0.0
 40
0.0444111230689792
100
AcDbArc
 50
112.9185922251302
 51
68.39357669245548
  0
ARC
  5
13DE
330
18
100
AcDbEntity
  8
image
100
AcDbCircle
 10
5.939876909074545
 20
6.587605594224002
 30
0.0
 40
0.0367633613710598
100
AcDbArc
 50
115.2407117714066
 51
66.07145714617961
  0
LWPOLYLINE
  5
13DF
330
18
100
AcDbEntity
  8
image
100
AcDbPolyline
 90
        2
 70
     0
 43
0.0
 10
5.766254983943994
 20
6.536123623199969
 10
6.112572026775573
 20
6.536123623199969
  0
LWPOLYLINE
  5
13E0
330
18
100
AcDbEntity
  8
image
100
AcDbPolyline
 90
        2
 70
     0
 43
0.0
 10
5.766254983943994
 20
6.550490684881094
 10
6.112572026775573
 20
6.550490684881094
  0
LWPOLYLINE
  5
13E1
330
18
100
AcDbEntity
  8
image
100
AcDbPolyline
 90
        2
 70
     0
 43
0.0
 10
5.776681567526122
 20
6.550490684881094
 10
5.776681567526122
 20
6.536123623199969
  0
LWPOLYLINE
  5
13E2
330
18
100
AcDbEntity
  8
image
100
AcDbPolyline
 90
        2
 70
     0
 43
0.0
 10
6.102145443193446
 20
6.550490684881094
 10
6.102145443193446
 20
6.536123623199969
  0
CIRCLE
  5
13E3
330
18
100
AcDbEntity
  8
image
100
AcDbCircle
 10
5.939413505359784
 20
6.628072817959173
 30
0.0
 40
0.0168370016363256
  0
LWPOLYLINE
  5
13E4
330
18
100
AcDbEntity
  8
image
100
AcDbPolyline
 90
        2
 70
     0
 43
0.0
 10
5.777685608908104
 20
6.679554788983208
 10
6.10114140181146
 20
6.679554788983208
  0
LWPOLYLINE
  5
13E5
330
18
100
AcDbEntity
  8
image
100
AcDbPolyline
 90
        4
 70
     0
 43
0.0
 10
6.10114140181146
 20
6.663990472161988
 10
6.10114140181146
 20
6.679554788983208
 10
6.080442702552126
 20
6.701584283560935
 10
5.939413505359784
 20
6.701584283560935
  0
LWPOLYLINE
  5
13E6
330
18
100
AcDbEntity
  8
image
100
AcDbPolyline
 90
        4
 70
     0
 43
0.0
 10
5.777685608908104
 20
6.663990472161988
 10
5.777685608908104
 20
6.679554788983208
 10
5.798384308167442
 20
6.701584283560935
 10
5.939413505359784
 20
6.701584283560935
  0
POLYLINE
  5
1451
330
18
100
AcDbEntity
  8
image
100
AcDb2dPolyline
 66
     1
 10
0.0
 20
0.0
 30
0.0
  0
VERTEX
  5
1452
330
1451
100
AcDbEntity
  8
image
100
AcDbVertex
100
AcDb2dVertex
 10
5.205262176982339
 20
6.992746235136937
 30
0.0
  0
VERTEX
  5
1453
330
1451
100
AcDbEntity
  8
image
100
AcDbVertex
100
AcDb2dVertex
 10
5.236271829335716
 20
6.994420497839714
 30
0.0
  0
VERTEX
  5
1454
330
1451
100
AcDbEntity
  8
image
100
AcDbVertex
100
AcDb2dVertex
 10
5.266301932054165
 20
6.995871525429205
 30
0.0
  0
VERTEX
  5
1455
330
1451
100
AcDbEntity
  8
image
100
AcDbVertex
100
AcDb2dVertex
 10
5.295322270068815
 20
6.997099317821039
 30
0.0
  0
VERTEX
  5
1456
330
1451
100
AcDbEntity
  8
image
100
AcDbVertex
100
AcDb2dVertex
 10
5.323302628310807
 20
6.998103874930841
 30
0.0
  0
VERTEX
  5
1457
330
1451
100
AcDbEntity
  8
image
100
AcDbVertex
100
AcDb2dVertex
 10
5.350212791711278
 20
6.998885196674239
 30
0.0
  0
VERTEX
  5
1458
330
1451
100
AcDbEntity
  8
image
100
AcDbVertex
100
AcDb2dVertex
 10
5.376022545201365
 20
6.99944328296686
 30
0.0
  0
VERTEX
  5
1459
330
1451
100
AcDbEntity
  8
image
100
AcDbVertex
100
AcDb2dVertex
 10
5.400701673712202
 20
6.99977813372433
 30
0.0
  0
VERTEX
  5
145A
330
1451
100
AcDbEntity
  8
image
100
AcDbVertex
100
AcDb2dVertex
 10
5.42421996217493
 20
6.999889748862277
 30
0.0
  0
VERTEX
  5
145B
330
1451
100
AcDbEntity
  8
image
100
AcDbVertex
100
AcDb2dVertex
 10
5.446551455947449
 20
6.999778128352577
 30
0.0
  0
VERTEX
  5
145C
330
1451
100
AcDbEntity
  8
image
100
AcDbVertex
100
AcDb2dVertex
 10
5.467687242094736
 20
6.999443272392098
 30
0.0
  0
VERTEX
  5
145D
330
1451
100
AcDbEntity
  8
image
100
AcDbVertex
100
AcDb2dVertex
 10
5.487622668108528
 20
6.998885181233962
 30
0.0
  0
VERTEX
  5
145E
330
1451
100
AcDbEntity
  8
image
100
AcDbVertex
100
AcDb2dVertex
 10
5.506353081480565
 20
6.998103855131287
 30
0.0
  0
VERTEX
  5
145F
330
1451
100
AcDbEntity
  8
image
100
AcDbVertex
100
AcDb2dVertex
 10
5.523873829702591
 20
6.997099294337192
 30
0.0
  0
VERTEX
  5
1460
330
1451
100
AcDbEntity
  8
image
100
AcDbVertex
100
AcDb2dVertex
 10
5.540180260266341
 20
6.995871499104797
 30
0.0
  0
VERTEX
  5
1461
330
1451
100
AcDbEntity
  8
image
100
AcDbVertex
100
AcDb2dVertex
 10
5.555267720663557
 20
6.994420469687222
 30
0.0
  0
VERTEX
  5
1462
330
1451
100
AcDbEntity
  8
image
100
AcDbVertex
100
AcDb2dVertex
 10
5.569131558385983
 20
6.992746206337585
 30
0.0
  0
VERTEX
  5
1463
330
1451
100
AcDbEntity
  8
image
100
AcDbVertex
100
AcDb2dVertex
 10
5.581784955748727
 20
6.990844833644615
 30
0.0
  0
VERTEX
  5
1464
330
1451
100
AcDbEntity
  8
image
100
AcDbVertex
100
AcDb2dVertex
 10
5.593312434360367
 20
6.988696973539487
 30
0.0
  0
VERTEX
  5
1465
330
1451
100
AcDbEntity
  8
image
100
AcDbVertex
100
AcDb2dVertex
 10
5.603816350652861
 20
6.986279372288981
 30
0.0
  0
VERTEX
  5
1466
330
1451
100
AcDbEntity
  8
image
100
AcDbVertex
100
AcDb2dVertex
 10
5.61339906105816
 20
6.983568776159877
 30
0.0
  0
VERTEX
  5
1467
330
1451
100
AcDbEntity
  8
image
100
AcDbVertex
100
AcDb2dVertex
 10
5.622162922008218
 20
6.980541931418959
 30
0.0
  0
VERTEX
  5
1468
330
1451
100
AcDbEntity
  8
image
100
AcDbVertex
100
AcDb2dVertex
 10
5.630210289934986
 20
6.977175584333008
 30
0.0
  0
VERTEX
  5
1469
330
1451
100
AcDbEntity
  8
image
100
AcDbVertex
100
AcDb2dVertex
 10
5.637643521270419
 20
6.973446481168807
 30
0.0
  0
VERTEX
  5
146A
330
1451
100
AcDbEntity
  8
image
100
AcDbVertex
100
AcDb2dVertex
 10
5.644564972446467
 20
6.969331368193136
 30
0.0
  0
VERTEX
  5
146B
330
1451
100
AcDbEntity
  8
image
100
AcDbVertex
100
AcDb2dVertex
 10
5.650858026576056
 20
6.964963894340491
 30
0.0
  0
SEQEND
  5
146C
330
1451
100
AcDbEntity
  8
image
  0
POLYLINE
  5
146D
330
18
100
AcDbEntity
  8
image
100
AcDb2dPolyline
 66
     1
 10
0.0
 20
0.0
 30
0.0
  0
VERTEX
  5
146E
330
146D
100
AcDbEntity
  8
image
100
AcDbVertex
100
AcDb2dVertex
 10
5.205959222338055
 20
6.980455652259056
 30
0.0
  0
VERTEX
  5
146F
330
146D
100
AcDbEntity
  8
image
100
AcDbVertex
100
AcDb2dVertex
 10
5.236904346260514
 20
6.982126678343316
 30
0.0
  0
VERTEX
  5
1470
330
146D
100
AcDbEntity
  8
image
100
AcDbVertex
100
AcDb2dVertex
 10
5.266853298092946
 20
6.983574571433955
 30
0.0
  0
VERTEX
  5
1471
330
146D
100
AcDbEntity
  8
image
100
AcDbVertex
100
AcDb2dVertex
 10
5.2957756873662
 20
6.984799619664507
 30
0.0
  0
VERTEX
  5
1472
330
146D
100
AcDbEntity
  8
image
100
AcDbVertex
100
AcDb2dVertex
 10
5.323641123611128
 20
6.985802111168505
 30
0.0
  0
VERTEX
  5
1473
330
146D
100
AcDbEntity
  8
image
100
AcDbVertex
100
AcDb2dVertex
 10
5.35041921635857
 20
6.986582334079484
 30
0.0
  0
VERTEX
  5
1474
330
146D
100
AcDbEntity
  8
image
100
AcDbVertex
100
AcDb2dVertex
 10
5.376079575139385
 20
6.987140576530977
 30
0.0
  0
VERTEX
  5
1475
330
146D
100
AcDbEntity
  8
image
100
AcDbVertex
100
AcDb2dVertex
 10
5.400591809484414
 20
6.98747712665652
 30
0.0
  0
VERTEX
  5
1476
330
146D
100
AcDbEntity
  8
image
100
AcDbVertex
100
AcDb2dVertex
 10
5.423925528924504
 20
6.987592272589649
 30
0.0
  0
VERTEX
  5
1477
330
146D
100
AcDbEntity
  8
image
100
AcDbVertex
100
AcDb2dVertex
 10
5.446054104869133
 20
6.987486687098076
 30
0.0
  0
VERTEX
  5
1478
330
146D
100
AcDbEntity
  8
image
100
AcDbVertex
100
AcDb2dVertex
 10
5.466965956242272
 20
6.987162581486241
 30
0.0
  0
VERTEX
  5
1479
330
146D
100
AcDbEntity
  8
image
100
AcDbVertex
100
AcDb2dVertex
 10
5.486653263846516
 20
6.986622551692762
 30
0.0
  0
VERTEX
  5
147A
330
146D
100
AcDbEntity
  8
image
100
AcDbVertex
100
AcDb2dVertex
 10
5.505108208484461
 20
6.985869193656259
 30
0.0
  0
VERTEX
  5
147B
330
146D
100
AcDbEntity
  8
image
100
AcDbVertex
100
AcDb2dVertex
 10
5.522322970958704
 20
6.984905103315349
 30
0.0
  0
VERTEX
  5
147C
330
146D
100
AcDbEntity
  8
image
100
AcDbVertex
100
AcDb2dVertex
 10
5.538289732071845
 20
6.983732876608653
 30
0.0
  0
VERTEX
  5
147D
330
146D
100
AcDbEntity
  8
image
100
AcDbVertex
100
AcDb2dVertex
 10
5.553000672626472
 20
6.98235510947479
 30
0.0
  0
VERTEX
  5
147E
330
146D
100
AcDbEntity
  8
image
100
AcDbVertex
100
AcDb2dVertex
 10
5.566447973425191
 20
6.980774397852377
 30
0.0
  0
VERTEX
  5
147F
330
146D
100
AcDbEntity
  8
image
100
AcDbVertex
100
AcDb2dVertex
 10
5.578643866690704
 20
6.978988983059657
 30
0.0
  0
VERTEX
  5
1480
330
146D
100
AcDbEntity
  8
image
100
AcDbVertex
100
AcDb2dVertex
 10
5.589680790326177
 20
6.976979687933377
 30
0.0
  0
VERTEX
  5
1481
330
146D
100
AcDbEntity
  8
image
100
AcDbVertex
100
AcDb2dVertex
 10
5.599671233654875
 20
6.974722980689904
 30
0.0
  0
VERTEX
  5
1482
330
146D
100
AcDbEntity
  8
image
100
AcDbVertex
100
AcDb2dVertex
 10
5.608727686000076
 20
6.972195329545604
 30
0.0
  0
VERTEX
  5
1483
330
146D
100
AcDbEntity
  8
image
100
AcDbVertex
100
AcDb2dVertex
 10
5.61696263668505
 20
6.969373202716847
 30
0.0
  0
VERTEX
  5
1484
330
146D
100
AcDbEntity
  8
image
100
AcDbVertex
100
AcDb2dVertex
 10
5.624488575033069
 20
6.966233068420002
 30
0.0
  0
VERTEX
  5
1485
330
146D
100
AcDbEntity
  8
image
100
AcDbVertex
100
AcDb2dVertex
 10
5.63141799036741
 20
6.962751394871435
 30
0.0
  0
VERTEX
  5
1486
330
146D
100
AcDbEntity
  8
image
100
AcDbVertex
100
AcDb2dVertex
 10
5.637863372011338
 20
6.958904650287516
 30
0.0
  0
VERTEX
  5
1487
330
146D
100
AcDbEntity
  8
image
100
AcDbVertex
100
AcDb2dVertex
 10
5.643334618731881
 20
6.955994997115057
 30
0.0
  0
VERTEX
  5
1488
330
146D
100
AcDbEntity
  8
image
100
AcDbVertex
100
AcDb2dVertex
 10
5.648781063321745
 20
6.952779004926911
 30
0.0
  0
SEQEND
  5
1489
330
146D
100
AcDbEntity
  8
image
  0
POLYLINE
  5
148A
330
18
100
AcDbEntity
  8
image
100
AcDb2dPolyline
 66
     1
 10
0.0
 20
0.0
 30
0.0
  0
VERTEX
  5
148B
330
148A
100
AcDbEntity
  8
image
100
AcDbVertex
100
AcDb2dVertex
 10
5.545890939968913
 20
6.876535764012766
 30
0.0
  0
VERTEX
  5
148C
330
148A
100
AcDbEntity
  8
image
100
AcDbVertex
100
AcDb2dVertex
 10
5.560573160542379
 20
6.877940672927077
 30
0.0
  0
VERTEX
  5
148D
330
148A
100
AcDbEntity
  8
image
100
AcDbVertex
100
AcDb2dVertex
 10
5.573876995263475
 20
6.878622395091958
 30
0.0
  0
VERTEX
  5
148E
330
148A
100
AcDbEntity
  8
image
100
AcDbVertex
100
AcDb2dVertex
 10
5.58593289106437
 20
6.878639064334213
 30
0.0
  0
VERTEX
  5
148F
330
148A
100
AcDbEntity
  8
image
100
AcDbVertex
100
AcDb2dVertex
 10
5.596871294877228
 20
6.878048814480653
 30
0.0
  0
VERTEX
  5
1490
330
148A
100
AcDbEntity
  8
image
100
AcDbVertex
100
AcDb2dVertex
 10
5.606822653634214
 20
6.876909779358082
 30
0.0
  0
VERTEX
  5
1491
330
148A
100
AcDbEntity
  8
image
100
AcDbVertex
100
AcDb2dVertex
 10
5.615917414267492
 20
6.875280092793306
 30
0.0
  0
VERTEX
  5
1492
330
148A
100
AcDbEntity
  8
image
100
AcDbVertex
100
AcDb2dVertex
 10
5.624286023709224
 20
6.873217888613134
 30
0.0
  0
VERTEX
  5
1493
330
148A
100
AcDbEntity
  8
image
100
AcDbVertex
100
AcDb2dVertex
 10
5.632058928891581
 20
6.870781300644371
 30
0.0
  0
VERTEX
  5
1494
330
148A
100
AcDbEntity
  8
image
100
AcDbVertex
100
AcDb2dVertex
 10
5.63934910046353
 20
6.868023036904612
 30
0.0
  0
VERTEX
  5
1495
330
148A
100
AcDbEntity
  8
image
100
AcDbVertex
100
AcDb2dVertex
 10
5.64384053224532
 20
6.866040968498561
 30
0.0
  0
SEQEND
  5
1496
330
148A
100
AcDbEntity
  8
image
  0
POLYLINE
  5
1497
330
18
100
AcDbEntity
  8
image
100
AcDb2dPolyline
 66
     1
 10
0.0
 20
0.0
 30
0.0
  0
VERTEX
  5
1498
330
1497
100
AcDbEntity
  8
image
100
AcDbVertex
100
AcDb2dVertex
 10
5.547307667499762
 20
6.864307224328513
 30
0.0
  0
VERTEX
  5
1499
330
1497
100
AcDbEntity
  8
image
100
AcDbVertex
100
AcDb2dVertex
 10
5.56136960855146
 20
6.865666425280237
 30
0.0
  0
VERTEX
  5
149A
330
1497
100
AcDbEntity
  8
image
100
AcDbVertex
100
AcDb2dVertex
 10
5.574006760869282
 20
6.866346891693408
 30
0.0
  0
VERTEX
  5
149B
330
1497
100
AcDbEntity
  8
image
100
AcDbVertex
100
AcDb2dVertex
 10
5.585361956352407
 20
6.866404472461147
 30
0.0
  0
VERTEX
  5
149C
330
1497
100
AcDbEntity
  8
image
100
AcDbVertex
100
AcDb2dVertex
 10
5.595578026900014
 20
6.865895016476577
 30
0.0
  0
VERTEX
  5
149D
330
1497
100
AcDbEntity
  8
image
100
AcDbVertex
100
AcDb2dVertex
 10
5.604797804411287
 20
6.864874372632814
 30
0.0
  0
VERTEX
  5
149E
330
1497
100
AcDbEntity
  8
image
100
AcDbVertex
100
AcDb2dVertex
 10
5.613164120785402
 20
6.863398389822983
 30
0.0
  0
VERTEX
  5
149F
330
1497
100
AcDbEntity
  8
image
100
AcDbVertex
100
AcDb2dVertex
 10
5.620819807921535
 20
6.861522916940203
 30
0.0
  0
VERTEX
  5
14A0
330
1497
100
AcDbEntity
  8
image
100
AcDbVertex
100
AcDb2dVertex
 10
5.627907697718871
 20
6.859303802877595
 30
0.0
  0
VERTEX
  5
14A1
330
1497
100
AcDbEntity
  8
image
100
AcDbVertex
100
AcDb2dVertex
 10
5.634550394484289
 20
6.856791910357389
 30
0.0
  0
VERTEX
  5
14A2
330
1497
100
AcDbEntity
  8
image
100
AcDbVertex
100
AcDb2dVertex
 10
5.63834550331688
 20
6.855104723184695
 30
0.0
  0
SEQEND
  5
14A3
330
1497
100
AcDbEntity
  8
image
  0
LWPOLYLINE
  5
14A4
330
18
100
AcDbEntity
  8
image
100
AcDbPolyline
 90
        2
 70
     0
 43
0.0
 10
5.63834550331688
 20
6.855104723184695
 42
-0.10372381763091
 10
5.831200405167123
 20
6.701584283560935
 42
-0.10372381763091
  0
LWPOLYLINE
  5
14A5
330
18
100
AcDbEntity
  8
image
100
AcDbPolyline
 90
        2
 70
     0
 43
0.0
 10
5.64384053224532
 20
6.866040968498561
 42
-0.1078781991622857
 10
5.846985472632091
 20
6.701584283560935
 42
-0.1078781991622857
  0
LWPOLYLINE
  5
14A6
330
18
100
AcDbEntity
  8
image
100
AcDbPolyline
 90
        2
 70
     0
 43
0.0
 10
5.648781063321745
 20
6.952779004926911
 42
-0.1074545432294315
 10
5.908807048059637
 20
6.701584283560935
 42
-0.1074545432294315
  0
LWPOLYLINE
  5
14A7
330
18
100
AcDbEntity
  8
image
100
AcDbPolyline
 90
        2
 70
     0
 43
0.0
 10
5.650858026576056
 20
6.964963894340491
 42
-0.1126097625550446
 10
5.923576750157415
 20
6.701584283560935
 42
-0.1126097625550446
  0
ARC
  5
14B9
330
18
100
AcDbEntity
  8
image
100
AcDbCircle
 10
5.760623046183008
 20
7.752782322310445
 30
0.0
 40
0.070143962200227
100
AcDbArc
 50
0.0
 51
180.0
  0
LINE
  5
14BA
330
18
100
AcDbEntity
  8
image
100
AcDbLine
 10
5.830767008383231
 20
7.330604096665804
 30
0.0
 11
5.830767008383231
 21
7.752782322310445
 31
0.0
  0
LINE
  5
14BB
330
18
100
AcDbEntity
  8
image
100
AcDbLine
 10
5.690479083982781
 20
7.330604096665802
 30
0.0
 11
5.690479083982781
 21
7.752782322310458
 31
0.0
  0
LINE
  5
14CB
330
18
100
AcDbEntity
  8
image
100
AcDbLine
 10
5.627982845088878
 20
7.213498333537653
 30
0.0
 11
5.706849991685389
 21
7.213498333537653
 31
0.0
  0
LINE
  5
14CC
330
18
100
AcDbEntity
  8
image
100
AcDbLine
 10
5.81439610068063
 20
7.213498333537653
 30
0.0
 11
5.902822901410049
 21
7.213498333537653
 31
0.0
  0
LINE
  5
14CD
330
18
100
AcDbEntity
  8
image
100
AcDbLine
 10
5.895414169457039
 20
7.270856258335118
 30
0.0
 11
5.933891777342006
 21
7.270856258335118
 31
0.0
  0
LINE
  5
14CE
330
18
100
AcDbEntity
  8
image
100
AcDbLine
 10
5.895414169457039
 20
7.270856258335118
 30
0.0
 11
5.895414169457039
 21
7.260101647435595
 31
0.0
  0
LINE
  5
14CF
330
18
100
AcDbEntity
  8
image
100
AcDbLine
 10
5.830767008383231
 20
7.330604096665802
 30
0.0
 11
5.895414169457039
 21
7.270856258335118
 31
0.0
  0
LINE
  5
14D0
330
18
100
AcDbEntity
  8
image
100
AcDbLine
 10
5.933891777342006
 20
7.249347036536071
 30
0.0
 11
5.933891777342006
 21
7.270856258335118
 31
0.0
  0
LINE
  5
14D1
330
18
100
AcDbEntity
  8
image
100
AcDbLine
 10
5.690479083982781
 20
7.330604096665802
 30
0.0
 11
5.625831922908979
 21
7.270856258335118
 31
0.0
  0
LINE
  5
14D2
330
18
100
AcDbEntity
  8
image
100
AcDbLine
 10
5.587354315024013
 20
7.270856258335118
 30
0.0
 11
5.625831922908979
 21
7.270856258335118
 31
0.0
  0
LINE
  5
14D3
330
18
100
AcDbEntity
  8
image
100
AcDbLine
 10
5.587354315024013
 20
7.270856258335118
 30
0.0
 11
5.587354315024013
 21
7.249347036536071
 31
0.0
  0
LINE
  5
14D4
330
18
100
AcDbEntity
  8
image
100
AcDbLine
 10
5.625831922908979
 20
7.270856258335118
 30
0.0
 11
5.625831922908979
 21
7.260101647435595
 31
0.0
  0
LINE
  5
14D5
330
18
100
AcDbEntity
  8
image
100
AcDbLine
 10
5.587354315024013
 20
7.260101647435595
 30
0.0
 11
5.933891777342006
 21
7.260101647435595
 31
0.0
  0
LINE
  5
14D6
330
18
100
AcDbEntity
  8
image
100
AcDbLine
 10
5.587354315024013
 20
7.249347036536071
 30
0.0
 11
5.933891777342006
 21
7.249347036536071
 31
0.0
  0
LINE
  5
14D7
330
18
100
AcDbEntity
  8
image
100
AcDbLine
 10
5.690479083982781
 20
7.330604096665802
 30
0.0
 11
5.830767008383231
 21
7.330604096665802
 31
0.0
  0
LINE
  5
14D8
330
18
100
AcDbEntity
  8
image
100
AcDbLine
 10
5.627982845088878
 20
7.213498333537653
 30
0.0
 11
5.627982845088878
 21
7.249347036536071
 31
0.0
  0
LINE
  5
14D9
330
18
100
AcDbEntity
  8
image
100
AcDbLine
 10
5.697290337552482
 20
7.213498333537653
 30
0.0
 11
5.697290337552482
 21
7.249347036536071
 31
0.0
  0
LINE
  5
14DA
330
18
100
AcDbEntity
  8
image
100
AcDbLine
 10
5.706849991685389
 20
7.213498333537653
 30
0.0
 11
5.706849991685389
 21
7.249347036536071
 31
0.0
  0
LINE
  5
14DB
330
18
100
AcDbEntity
  8
image
100
AcDbLine
 10
5.823955754813537
 20
7.213498333537653
 30
0.0
 11
5.823955754813537
 21
7.249347036536071
 31
0.0
  0
LINE
  5
14DC
330
18
100
AcDbEntity
  8
image
100
AcDbLine
 10
5.81439610068063
 20
7.213498333537653
 30
0.0
 11
5.81439610068063
 21
7.249347036536071
 31
0.0
  0
LINE
  5
14DD
330
18
100
AcDbEntity
  8
image
100
AcDbLine
 10
5.902822901410049
 20
7.213498333537653
 30
0.0
 11
5.902822901410049
 21
7.249347036536071
 31
0.0
  0
LINE
  5
14DE
330
18
100
AcDbEntity
  8
image
100
AcDbLine
 10
5.409949764742497
 20
7.282977905609047
 30
0.0
 11
5.409949764742497
 21
7.318826608607464
 31
0.0
  0
LINE
  5
14DF
330
18
100
AcDbEntity
  8
image
100
AcDbLine
 10
5.321522964013079
 20
7.282977905609047
 30
0.0
 11
5.321522964013079
 21
7.318826608607464
 31
0.0
  0
LINE
  5
14E0
330
18
100
AcDbEntity
  8
image
100
AcDbLine
 10
5.331082618145986
 20
7.282977905609047
 30
0.0
 11
5.331082618145986
 21
7.318826608607464
 31
0.0
  0
LINE
  5
14E1
330
18
100
AcDbEntity
  8
image
100
AcDbLine
 10
5.213976855017838
 20
7.282977905609047
 30
0.0
 11
5.213976855017838
 21
7.318826608607464
 31
0.0
  0
LINE
  5
14E2
330
18
100
AcDbEntity
  8
image
100
AcDbLine
 10
5.204417200884931
 20
7.282977905609047
 30
0.0
 11
5.204417200884931
 21
7.318826608607464
 31
0.0
  0
LINE
  5
14E3
330
18
100
AcDbEntity
  8
image
100
AcDbLine
 10
5.135109708421326
 20
7.282977905609047
 30
0.0
 11
5.135109708421326
 21
7.318826608607464
 31
0.0
  0
LINE
  5
14E4
330
18
100
AcDbEntity
  8
image
100
AcDbLine
 10
5.19760594731523
 20
7.400083668737195
 30
0.0
 11
5.33789387171568
 21
7.400083668737195
 31
0.0
  0
LINE
  5
14E5
330
18
100
AcDbEntity
  8
image
100
AcDbLine
 10
5.094481178356462
 20
7.318826608607464
 30
0.0
 11
5.441018640674455
 21
7.318826608607464
 31
0.0
  0
LINE
  5
14E6
330
18
100
AcDbEntity
  8
image
100
AcDbLine
 10
5.094481178356462
 20
7.329581219506988
 30
0.0
 11
5.441018640674455
 21
7.329581219506988
 31
0.0
  0
LINE
  5
14E7
330
18
100
AcDbEntity
  8
image
100
AcDbLine
 10
5.132958786241427
 20
7.340335830406512
 30
0.0
 11
5.132958786241427
 21
7.329581219506988
 31
0.0
  0
LINE
  5
14E8
330
18
100
AcDbEntity
  8
image
100
AcDbLine
 10
5.094481178356462
 20
7.340335830406512
 30
0.0
 11
5.094481178356462
 21
7.318826608607464
 31
0.0
  0
LINE
  5
14E9
330
18
100
AcDbEntity
  8
image
100
AcDbLine
 10
5.094481178356462
 20
7.340335830406512
 30
0.0
 11
5.132958786241427
 21
7.340335830406512
 31
0.0
  0
LINE
  5
14EA
330
18
100
AcDbEntity
  8
image
100
AcDbLine
 10
5.19760594731523
 20
7.400083668737195
 30
0.0
 11
5.132958786241427
 21
7.340335830406512
 31
0.0
  0
LINE
  5
14EB
330
18
100
AcDbEntity
  8
image
100
AcDbLine
 10
5.441018640674455
 20
7.318826608607464
 30
0.0
 11
5.441018640674455
 21
7.340335830406512
 31
0.0
  0
LINE
  5
14EC
330
18
100
AcDbEntity
  8
image
100
AcDbLine
 10
5.33789387171568
 20
7.400083668737195
 30
0.0
 11
5.402541032789487
 21
7.340335830406512
 31
0.0
  0
LINE
  5
14ED
330
18
100
AcDbEntity
  8
image
100
AcDbLine
 10
5.402541032789487
 20
7.340335830406512
 30
0.0
 11
5.402541032789487
 21
7.329581219506988
 31
0.0
  0
LINE
  5
14EE
330
18
100
AcDbEntity
  8
image
100
AcDbLine
 10
5.402541032789487
 20
7.340335830406512
 30
0.0
 11
5.441018640674455
 21
7.340335830406512
 31
0.0
  0
LINE
  5
14EF
330
18
100
AcDbEntity
  8
image
100
AcDbLine
 10
5.321522964013079
 20
7.282977905609047
 30
0.0
 11
5.409949764742497
 21
7.282977905609047
 31
0.0
  0
LINE
  5
14F0
330
18
100
AcDbEntity
  8
image
100
AcDbLine
 10
5.135109708421326
 20
7.282977905609047
 30
0.0
 11
5.213976855017838
 21
7.282977905609047
 31
0.0
  0
LINE
  5
14F1
330
18
100
AcDbEntity
  8
image
100
AcDbLine
 10
5.19760594731523
 20
7.400083668737195
 30
0.0
 11
5.19760594731523
 21
7.822261894381851
 31
0.0
  0
LINE
  5
14F2
330
18
100
AcDbEntity
  8
image
100
AcDbLine
 10
5.33789387171568
 20
7.400083668737197
 30
0.0
 11
5.33789387171568
 21
7.822261894381838
 31
0.0
  0
ARC
  5
14F3
330
18
100
AcDbEntity
  8
image
100
AcDbCircle
 10
5.267749909515456
 20
7.822261894381838
 30
0.0
 40
0.070143962200227
100
AcDbArc
 50
0.0
 51
180.0
  0
LWPOLYLINE
  5
15AC
330
18
100
AcDbEntity
  8
image
 62
     3
100
AcDbPolyline
 90
        6
 70
   128
 43
0.0123
 10
3.233600839598755
 20
6.565458597710465
 42
-0.2592117252280208
 10
3.028156915346766
 20
7.153422481982175
 42
-0.2620182665050982
 10
3.336322829087219
 20
7.607552818322723
 42
-0.1112829853256566
 10
3.709857296518041
 20
7.67909387730413
 42
-0.0767761786416526
 10
4.702836400548335
 20
7.470691614139557
 42
0.0253663935013742
 10
5.135109708421326
 20
7.302725602997413
 42
-1.750057822507489
  0
LWPOLYLINE
  5
15AE
330
18
100
AcDbEntity
  8
image
 62
     3
100
AcDbPolyline
 90
        6
 70
   128
 43
0.0123
 10
3.246052021348079
 20
6.902378267314705
 42
-0.3338610406401083
 10
3.295323070763677
 20
7.402338694240632
 42
-0.2838920739029521
 10
3.803240913375747
 20
7.576447981606154
 42
-0.0514074492904603
 10
4.712181340171484
 20
7.355663673883642
 42
0.1058235197249896
 10
5.378311272932352
 20
7.206300650836677
 10
5.627982845088878
 20
7.224963540963582
  0
LWPOLYLINE
  5
15B5
330
18
100
AcDbEntity
  8
image
100
AcDbPolyline
 90
        4
 70
   128
 43
0.0123
 10
4.514326394837478
 20
7.204922011379231
 42
-0.3886505675531464
 10
4.778714166887949
 20
7.070022100295437
 42
0.2956589420239794
 10
4.919301927030923
 20
6.897300528452777
 42
0.0676880048650953
 10
5.271050883647742
 20
6.873911031761896
 42
128.1290642110985
  0
LWPOLYLINE
  5
15B6
330
18
100
AcDbEntity
  8
image
 62
     1
100
AcDbPolyline
 90
        3
 70
   128
 43
0.0123
 10
4.514326394837478
 20
7.229687290798769
 42
-0.3197419825651732
 10
4.78617235487205
 20
7.120671217242088
 42
0.2341830223105803
 10
4.93042212066117
 20
6.988808574251779
 42
0.364708013638186
  0
LWPOLYLINE
  5
15BA
330
18
100
AcDbEntity
  8
image
 62
     3
100
AcDbPolyline
 90
        5
 70
   128
 43
0.0123
 10
4.684271292492894
 20
7.236530882180935
 42
0.0814550843745963
 10
5.280845449429206
 20
7.12101682190998
 42
0.0027049744987775
 10
6.022920843276262
 20
7.087480462632869
 42
0.6388789101535402
 10
6.060211017047651
 20
7.180636959971614
 42
0.2355930335544051
 10
5.902822901410049
 20
7.232804606813438
 42
3.209349443486407
  0
LWPOLYLINE
  5
15BB
330
18
100
AcDbEntity
  8
image
 62
     3
100
AcDbPolyline
 90
        5
 70
   128
 43
0.0123
 10
4.679198292534948
 20
7.266835209928074
 10
4.900485195381596
 20
7.202994522903825
 42
0.0654799187970678
 10
5.385258056383955
 20
7.162005672406902
 42
0.5765978815825301
 10
5.45238043484238
 20
7.292424774632665
 10
5.409949764742497
 20
7.303603541219974
  0
LWPOLYLINE
  5
15BC
330
18
100
AcDbEntity
  8
image
 62
     3
100
AcDbPolyline
 90
        2
 70
   128
 43
0.0123
 10
4.679198292534948
 20
7.266835209928074
 42
0.0679948803247794
 10
4.514326394837478
 20
7.28098678966564
 42
14.03424337757019
  0
LWPOLYLINE
  5
15BE
330
18
100
AcDbEntity
  8
image
 62
     3
100
AcDbPolyline
 90
        2
 70
   128
 43
0.0123
 10
4.684271292492894
 20
7.236530882180935
 42
0.0864411450241684
 10
4.514326394837478
 20
7.252683600432916
 42
25.72989550770898
  0
LWPOLYLINE
  5
15C2
330
18
100
AcDbEntity
  8
image
 62
     5
100
AcDbPolyline
 90
        5
 70
   128
 43
0.0123
 10
4.068577923753677
 20
6.674237503402165
 10
4.206539015148047
 20
6.674237503402165
 42
0.2576114553852749
 10
4.511023691853504
 20
6.847594429581334
 42
0.3145545046139882
 10
4.56413145184897
 20
7.139470932774793
 42
0.3228105693049985
 10
4.514326394837478
 20
7.167774092249926
 42
18.5465841043997
  0
LWPOLYLINE
  5
15C4
330
18
100
AcDbEntity
  8
image
 62
     5
100
AcDbPolyline
 90
        5
 70
   128
 43
0.0123
 10
4.409206686740249
 20
6.585790085405988
 10
4.541118083711776
 20
6.585790085405988
 42
0.395116878997502
 10
4.739387130976426
 20
6.859977069291102
 42
0.1858598155844006
 10
4.633171556260558
 20
7.144777752858186
 42
0.3102908352678098
 10
4.514326394837478
 20
7.187232521828478
 42
7.689514103087621
  0
INSERT
  5
15D1
330
18
100
AcDbEntity
  8
text_bubbles
100
AcDbBlockReference
 66
     1
  2
bubble
 10
9.51986618781987
 20
0.7220102533729364
 30
0.0
  0
ATTRIB
  5
15D2
330
15D1
100
AcDbEntity
  8
text_bubbles
100
AcDbText
 10
9.39188999734368
 20
0.6595102533729364
 30
0.0
 40
0.125
  1
17
  7
ROMANS
 72
     4
 11
9.51986618781987
 21
0.7220102533729364
 31
0.0
100
AcDbAttribute
  2
XX
 70
     0
  0
SEQEND
  5
15D3
330
15D1
100
AcDbEntity
  8
text_bubbles
  0
INSERT
  5
15D9
330
18
100
AcDbEntity
  8
text_bubbles
100
AcDbBlockReference
 66
     1
  2
bubble
 10
8.133213125379056
 20
8.203561336317525
 30
0.0
  0
ATTRIB
  5
15DA
330
15D9
100
AcDbEntity
  8
text_bubbles
100
AcDbText
 10
8.073689315855245
 20
8.141061336317525
 30
0.0
 40
0.125
  1
8
  7
ROMANS
 72
     4
 11
8.133213125379056
 21
8.203561336317525
 31
0.0
100
AcDbAttribute
  2
XX
 70
     0
  0
SEQEND
  5
15DB
330
15D9
100
AcDbEntity
  8
text_bubbles
  0
LEADER
  5
15DC
330
18
100
AcDbEntity
  8
text_bubbles
100
AcDbLeader
  3
STANDARD
 76
     2
 10
5.848287320158776
 20
6.800326226665325
 30
0.0
 10
8.029390417819998
 20
8.109791109725573
 30
0.0
1001
ACAD
1000
DSTYLE
1002
{
1070
   147
1040
0.09
1070
    77
1070
     0
1002
}
  0
LEADER
  5
15DD
330
18
100
AcDbEntity
  8
text_bubbles
100
AcDbLeader
  3
STANDARD
 76
     2
 10
6.112531824153755
 20
6.415108516972281
 30
0.0
 10
8.029390417819998
 20
7.562310626918983
 30
0.0
1001
ACAD
1000
DSTYLE
1002
{
1070
   147
1040
0.09
1070
    77
1070
     0
1002
}
  0
INSERT
  5
15DE
330
18
100
AcDbEntity
  8
text_bubbles
100
AcDbBlockReference
 66
     1
  2
bubble
 10
8.133213125379056
 20
7.656080853510935
 30
0.0
  0
ATTRIB
  5
15DF
330
15DE
100
AcDbEntity
  8
text_bubbles
100
AcDbText
 10
8.076665506331437
 20
7.593580853510935
 30
0.0
 40
0.125
  1
9
  7
ROMANS
 72
     4
 11
8.133213125379056
 21
7.656080853510935
 31
0.0
100
AcDbAttribute
  2
XX
 70
     0
  0
SEQEND
  5
15E0
330
15DE
100
AcDbEntity
  8
text_bubbles
  0
INSERT
  5
15E8
330
18
100
AcDbEntity
  8
text_bubbles
100
AcDbBlockReference
 66
     1
  2
bubble
 10
5.347228395240856
 20
8.839142831185164
 30
0.0
  0
ATTRIB
  5
15E9
330
15E8
100
AcDbEntity
  8
text_bubbles
100
AcDbText
 10
5.284728395240856
 20
8.776642831185164
 30
0.0
 40
0.125
  1
4
  7
ROMANS
 72
     4
 11
5.347228395240856
 21
8.839142831185164
 31
0.0
100
AcDbAttribute
  2
XX
 70
     0
  0
SEQEND
  5
15EA
330
15E8
100
AcDbEntity
  8
text_bubbles
  0
LEADER
  5
15EB
330
18
100
AcDbEntity
  8
text_bubbles
100
AcDbLeader
  3
STANDARD
 76
     2
 10
5.690479083982781
 20
7.687782358235796
 30
0.0
 10
5.402007749477617
 20
8.710413532463375
 30
0.0
1001
ACAD
1000
DSTYLE
1002
{
1070
   147
1040
0.09
1070
    77
1070
     0
1002
}
  0
LEADER
  5
15ED
330
18
100
AcDbEntity
  8
text_bubbles
100
AcDbLeader
  3
STANDARD
 76
     2
 10
4.82394473214329
 20
6.962302978931308
 30
0.0
 10
6.023617510643443
 20
4.318281292125155
 30
0.0
1001
ACAD
1000
DSTYLE
1002
{
1070
   147
1040
0.09
1070
    77
1070
     0
1070
    43
1040
0.3799999999999999
1002
}
  0
LEADER
  5
15F9
330
18
100
AcDbEntity
  8
text_bubbles
100
AcDbLeader
  3
STANDARD
 76
     2
 10
6.012632362342106
 20
7.205554267270273
 30
0.0
 10
8.010209792330455
 20
8.509589046292445
 30
0.0
1001
ACAD
1000
DSTYLE
1002
{
1070
   147
1040
0.09
1070
    77
1070
     0
1070
    43
1040
0.3799999999999999
1002
}
  0
INSERT
  5
15FA
330
18
100
AcDbEntity
  8
text_bubbles
100
AcDbBlockReference
 66
     1
  2
bubble
 10
8.133213125379056
 20
8.576216099816996
 30
0.0
  0
ATTRIB
  5
15FB
330
15FA
100
AcDbEntity
  8
text_bubbles
100
AcDbText
 10
8.073689315855245
 20
8.513716099816996
 30
0.0
 40
0.125
  1
7
  7
ROMANS
 72
     4
 11
8.133213125379056
 21
8.576216099816996
 31
0.0
100
AcDbAttribute
  2
XX
 70
     0
  0
SEQEND
  5
15FC
330
15FA
100
AcDbEntity
  8
text_bubbles
  0
INSERT
  5
15FE
330
18
100
AcDbEntity
  8
text_bubbles
100
AcDbBlockReference
 66
     1
  2
bubble
 10
3.352252415707091
 20
8.839142831185164
 30
0.0
  0
ATTRIB
  5
15FF
330
15FE
100
AcDbEntity
  8
text_bubbles
100
AcDbText
 10
3.301657177611853
 20
8.776642831185164
 30
0.0
 40
0.125
  1
1
  7
ROMANS
 72
     4
 11
3.352252415707091
 21
8.839142831185164
 31
0.0
100
AcDbAttribute
  2
XX
 70
     0
  0
SEQEND
  5
1600
330
15FE
100
AcDbEntity
  8
text_bubbles
  0
LEADER
  5
1601
330
18
100
AcDbEntity
  8
text_bubbles
100
AcDbLeader
  3
STANDARD
 76
     2
 10
3.651476177612709
 20
7.679016095696486
 30
0.0
 10
3.42646201487267
 20
8.720547108700396
 30
0.0
1001
ACAD
1000
DSTYLE
1002
{
1070
   147
1040
0.09
1070
    77
1070
     0
1002
}
  0
INSERT
  5
1602
330
18
100
AcDbEntity
  8
text_bubbles
100
AcDbBlockReference
 66
     1
  2
bubble
 10
6.679763377599602
 20
8.839142831185164
 30
0.0
  0
ATTRIB
  5
1603
330
1602
100
AcDbEntity
  8
text_bubbles
100
AcDbText
 10
6.617263377599602
 20
8.776642831185164
 30
0.0
 40
0.125
  1
6
  7
ROMANS
 72
     4
 11
6.679763377599602
 21
8.839142831185164
 31
0.0
100
AcDbAttribute
  2
XX
 70
     0
  0
SEQEND
  5
1604
330
1602
100
AcDbEntity
  8
text_bubbles
  0
LEADER
  5
1605
330
18
100
AcDbEntity
  8
text_bubbles
100
AcDbLeader
  3
STANDARD
 76
     2
 10
6.847501358624036
 20
8.299380791395895
 30
0.0
 10
6.734542731836363
 20
8.710413532463375
 30
0.0
1001
ACAD
1000
DSTYLE
1002
{
1070
   147
1040
0.09
1070
    77
1070
     0
1002
}
  0
INSERT
  5
1606
330
18
100
AcDbEntity
  8
text_bubbles
100
AcDbBlockReference
 66
     1
  2
bubble
 10
6.086264296849995
 20
4.193203858587289
 30
0.0
  0
ATTRIB
  5
1607
330
1606
100
AcDbEntity
  8
text_bubbles
100
AcDbText
 10
5.958288106373804
 20
4.130703858587289
 30
0.0
 40
0.125
  1
13
  7
ROMANS
 72
     4
 11
6.086264296849995
 21
4.193203858587289
 31
0.0
100
AcDbAttribute
  2
XX
 70
     0
  0
SEQEND
  5
1608
330
1606
100
AcDbEntity
  8
text_bubbles
  0
LEADER
  5
160C
330
18
100
AcDbEntity
  8
text_bubbles
100
AcDbLeader
  3
STANDARD
 76
     2
 10
3.738367511991347
 20
4.840541343525796
 30
0.0
 10
4.179701088399383
 20
4.294788422765626
 30
0.0
1001
ACAD
1000
DSTYLE
1002
{
1070
   147
1040
0.09
1070
    77
1070
     0
1002
}
  0
MTEXT
  5
1616
102
{ACAD_XDICTIONARY
360
1967
102
}
330
18
100
AcDbEntity
  8
text_bubbles
100
AcDbMText
 10
1.08672889815782
 20
3.875085281727412
 30
0.0
 40
0.125
 41
7.553740100685708
 71
     1
 72
     5
  3
{\Fromans|c0;NOTES:\P\pi-0.375,l0.375;1. MAXIMUM LENGTH OF SECONDARY WIRE PATH (14 AWG) FROM DECODER TO RELAY IS 450 FEET.\P\P\pi0,l0;2. PLACE 3-FEET OF EXTRA WIRE IN VALVE BOX FOR EASY SERVICING.\P\P\pi-0.375,l0.375;3. IN A SITE CONTROL DECODER SYST
  1
EM A PULSE TRANSMITTER (PT322) SHOULD BE INSTALLED BETWEEN THE SENSOR DECODER AND THE FLOW SENSOR.  THIS IS NOT NEEDED IN AN ESP-LXD CONTROLLER SYSTEM.\P\pi0,l0;\P4. GROUNDING SHOULD BE TO 10 OHMS OR LESS.}
  7
SIMPLEX
 73
     1
 44
1.0
  0
LWPOLYLINE
  5
1617
330
18
100
AcDbEntity
  8
image
100
AcDbPolyline
 90
        2
 70
     0
 43
0.0246
 10
3.597198104554214
 20
4.833136014608055
 10
2.047191758312989
 20
4.827587531406675
  0
LWPOLYLINE
  5
16AB
330
18
100
AcDbEntity
  8
image
 62
     5
100
AcDbPolyline
 90
        2
 70
   128
 43
0.0123
 10
3.763035591214121
 20
4.905887084505981
 42
-0.2513461607290476
 10
3.598299762870508
 20
4.832641226175573
 42
-4.620098598982868
  0
POLYLINE
  5
16AC
330
18
100
AcDbEntity
  8
image
 62
     5
100
AcDb2dPolyline
 66
     1
 10
0.0
 20
0.0
 30
0.0
 40
0.0123
 41
0.0123
  0
VERTEX
  5
16AD
330
16AC
100
AcDbEntity
  8
image
 62
     5
100
AcDbVertex
100
AcDb2dVertex
 10
3.793737867432509
 20
6.682443564870904
 30
0.0
  0
VERTEX
  5
16AE
330
16AC
100
AcDbEntity
  8
image
 62
     5
100
AcDbVertex
100
AcDb2dVertex
 10
3.770187345690816
 20
6.68096777484463
 30
0.0
  0
VERTEX
  5
16AF
330
16AC
100
AcDbEntity
  8
image
 62
     5
100
AcDbVertex
100
AcDb2dVertex
 10
3.751221329673908
 20
6.676685613518462
 30
0.0
  0
VERTEX
  5
16B0
330
16AC
100
AcDbEntity
  8
image
 62
     5
100
AcDbVertex
100
AcDb2dVertex
 10
3.736207528718969
 20
6.669814894021392
 30
0.0
  0
VERTEX
  5
16B1
330
16AC
100
AcDbEntity
  8
image
 62
     5
100
AcDbVertex
100
AcDb2dVertex
 10
3.724513652163185
 20
6.660573429482408
 30
0.0
  0
VERTEX
  5
16B2
330
16AC
100
AcDbEntity
  8
image
 62
     5
100
AcDbVertex
100
AcDb2dVertex
 10
3.715507409343748
 20
6.649179033030494
 30
0.0
  0
VERTEX
  5
16B3
330
16AC
100
AcDbEntity
  8
image
 62
     5
100
AcDbVertex
100
AcDb2dVertex
 10
3.708556509597842
 20
6.635849517794643
 30
0.0
  0
VERTEX
  5
16B4
330
16AC
100
AcDbEntity
  8
image
 62
     5
100
AcDbVertex
100
AcDb2dVertex
 10
3.703028662262653
 20
6.620802696903844
 30
0.0
  0
VERTEX
  5
16B5
330
16AC
100
AcDbEntity
  8
image
 62
     5
100
AcDbVertex
100
AcDb2dVertex
 10
3.698291576675371
 20
6.60425638348708
 30
0.0
  0
VERTEX
  5
16B6
330
16AC
100
AcDbEntity
  8
image
 62
     5
100
AcDbVertex
100
AcDb2dVertex
 10
3.693845056125679
 20
6.586370187182479
 30
0.0
  0
VERTEX
  5
16B7
330
16AC
100
AcDbEntity
  8
image
 62
     5
100
AcDbVertex
100
AcDb2dVertex
 10
3.689717279713265
 20
6.567070903664703
 30
0.0
  0
VERTEX
  5
16B8
330
16AC
100
AcDbEntity
  8
image
 62
     5
100
AcDbVertex
100
AcDb2dVertex
 10
3.686068520490318
 20
6.546227125117555
 30
0.0
  0
VERTEX
  5
16B9
330
16AC
100
AcDbEntity
  8
image
 62
     5
100
AcDbVertex
100
AcDb2dVertex
 10
3.683059051509028
 20
6.523707443724834
 30
0.0
  0
VERTEX
  5
16BA
330
16AC
100
AcDbEntity
  8
image
 62
     5
100
AcDbVertex
100
AcDb2dVertex
 10
3.68084914582158
 20
6.499380451670338
 30
0.0
  0
VERTEX
  5
16BB
330
16AC
100
AcDbEntity
  8
image
 62
     5
100
AcDbVertex
100
AcDb2dVertex
 10
3.67959907648016
 20
6.473114741137871
 30
0.0
  0
VERTEX
  5
16BC
330
16AC
100
AcDbEntity
  8
image
 62
     5
100
AcDbVertex
100
AcDb2dVertex
 10
3.679469116536962
 20
6.444778904311231
 30
0.0
  0
VERTEX
  5
16BD
330
16AC
100
AcDbEntity
  8
image
 62
     5
100
AcDbVertex
100
AcDb2dVertex
 10
3.680619539044165
 20
6.414241533374218
 30
0.0
  0
VERTEX
  5
16BE
330
16AC
100
AcDbEntity
  8
image
 62
     5
100
AcDbVertex
100
AcDb2dVertex
 10
3.683154491502923
 20
6.381460925950756
 30
0.0
  0
VERTEX
  5
16BF
330
16AC
100
AcDbEntity
  8
image
 62
     5
100
AcDbVertex
100
AcDb2dVertex
 10
3.686953619210216
 20
6.346754201425262
 30
0.0
  0
VERTEX
  5
16C0
330
16AC
100
AcDbEntity
  8
image
 62
     5
100
AcDbVertex
100
AcDb2dVertex
 10
3.691840441911983
 20
6.310528184622274
 30
0.0
  0
VERTEX
  5
16C1
330
16AC
100
AcDbEntity
  8
image
 62
     5
100
AcDbVertex
100
AcDb2dVertex
 10
3.697638479354163
 20
6.273189700366332
 30
0.0
  0
VERTEX
  5
16C2
330
16AC
100
AcDbEntity
  8
image
 62
     5
100
AcDbVertex
100
AcDb2dVertex
 10
3.704171251282703
 20
6.235145573481975
 30
0.0
  0
VERTEX
  5
16C3
330
16AC
100
AcDbEntity
  8
image
 62
     5
100
AcDbVertex
100
AcDb2dVertex
 10
3.711262277443539
 20
6.196802628793744
 30
0.0
  0
VERTEX
  5
16C4
330
16AC
100
AcDbEntity
  8
image
 62
     5
100
AcDbVertex
100
AcDb2dVertex
 10
3.718735077582616
 20
6.158567691126178
 30
0.0
  0
VERTEX
  5
16C5
330
16AC
100
AcDbEntity
  8
image
 62
     5
100
AcDbVertex
100
AcDb2dVertex
 10
3.726413171445871
 20
6.120847585303814
 30
0.0
  0
VERTEX
  5
16C6
330
16AC
100
AcDbEntity
  8
image
 62
     5
100
AcDbVertex
100
AcDb2dVertex
 10
3.734144689951577
 20
6.08398253208053
 30
0.0
  0
VERTEX
  5
16C7
330
16AC
100
AcDbEntity
  8
image
 62
     5
100
AcDbVertex
100
AcDb2dVertex
 10
3.741876208707331
 20
6.048046335927534
 30
0.0
  0
VERTEX
  5
16C8
330
16AC
100
AcDbEntity
  8
image
 62
     5
100
AcDbVertex
100
AcDb2dVertex
 10
3.749578914493058
 20
6.013046197245374
 30
0.0
  0
VERTEX
  5
16C9
330
16AC
100
AcDbEntity
  8
image
 62
     5
100
AcDbVertex
100
AcDb2dVertex
 10
3.757223994088688
 20
5.978989316434594
 30
0.0
  0
VERTEX
  5
16CA
330
16AC
100
AcDbEntity
  8
image
 62
     5
100
AcDbVertex
100
AcDb2dVertex
 10
3.764782634274149
 20
5.945882893895741
 30
0.0
  0
VERTEX
  5
16CB
330
16AC
100
AcDbEntity
  8
image
 62
     5
100
AcDbVertex
100
AcDb2dVertex
 10
3.772226021829363
 20
5.913734130029361
 30
0.0
  0
VERTEX
  5
16CC
330
16AC
100
AcDbEntity
  8
image
 62
     5
100
AcDbVertex
100
AcDb2dVertex
 10
3.779525343534265
 20
5.882550225235998
 30
0.0
  0
VERTEX
  5
16CD
330
16AC
100
AcDbEntity
  8
image
 62
     5
100
AcDbVertex
100
AcDb2dVertex
 10
3.786651786168775
 20
5.852338379916201
 30
0.0
  0
VERTEX
  5
16CE
330
16AC
100
AcDbEntity
  8
image
 62
     5
100
AcDbVertex
100
AcDb2dVertex
 10
3.793561463067858
 20
5.823098142392627
 30
0.0
  0
VERTEX
  5
16CF
330
16AC
100
AcDbEntity
  8
image
 62
     5
100
AcDbVertex
100
AcDb2dVertex
 10
3.800150193786613
 20
5.794798452676388
 30
0.0
  0
VERTEX
  5
16D0
330
16AC
100
AcDbEntity
  8
image
 62
     5
100
AcDbVertex
100
AcDb2dVertex
 10
3.806298724435171
 20
5.767400598700715
 30
0.0
  0
VERTEX
  5
16D1
330
16AC
100
AcDbEntity
  8
image
 62
     5
100
AcDbVertex
100
AcDb2dVertex
 10
3.81188780112367
 20
5.740865868398831
 30
0.0
  0
VERTEX
  5
16D2
330
16AC
100
AcDbEntity
  8
image
 62
     5
100
AcDbVertex
100
AcDb2dVertex
 10
3.816798169962241
 20
5.715155549703965
 30
0.0
  0
VERTEX
  5
16D3
330
16AC
100
AcDbEntity
  8
image
 62
     5
100
AcDbVertex
100
AcDb2dVertex
 10
3.82091057706102
 20
5.690230930549341
 30
0.0
  0
VERTEX
  5
16D4
330
16AC
100
AcDbEntity
  8
image
 62
     5
100
AcDbVertex
100
AcDb2dVertex
 10
3.824105768530136
 20
5.666053298868187
 30
0.0
  0
VERTEX
  5
16D5
330
16AC
100
AcDbEntity
  8
image
 62
     5
100
AcDbVertex
100
AcDb2dVertex
 10
3.826264490479728
 20
5.642583942593732
 30
0.0
  0
VERTEX
  5
16D6
330
16AC
100
AcDbEntity
  8
image
 62
     5
100
AcDbVertex
100
AcDb2dVertex
 10
3.82731272844178
 20
5.619716378483534
 30
0.0
  0
VERTEX
  5
16D7
330
16AC
100
AcDbEntity
  8
image
 62
     5
100
AcDbVertex
100
AcDb2dVertex
 10
3.827357425635693
 20
5.597073038592501
 30
0.0
  0
VERTEX
  5
16D8
330
16AC
100
AcDbEntity
  8
image
 62
     5
100
AcDbVertex
100
AcDb2dVertex
 10
3.826550764702728
 20
5.574208583799867
 30
0.0
  0
VERTEX
  5
16D9
330
16AC
100
AcDbEntity
  8
image
 62
     5
100
AcDbVertex
100
AcDb2dVertex
 10
3.825044928284134
 20
5.550677674984875
 30
0.0
  0
VERTEX
  5
16DA
330
16AC
100
AcDbEntity
  8
image
 62
     5
100
AcDbVertex
100
AcDb2dVertex
 10
3.822992099021172
 20
5.526034973026761
 30
0.0
  0
VERTEX
  5
16DB
330
16AC
100
AcDbEntity
  8
image
 62
     5
100
AcDbVertex
100
AcDb2dVertex
 10
3.820544459555099
 20
5.499835138804765
 30
0.0
  0
VERTEX
  5
16DC
330
16AC
100
AcDbEntity
  8
image
 62
     5
100
AcDbVertex
100
AcDb2dVertex
 10
3.817854192527169
 20
5.471632833198127
 30
0.0
  0
VERTEX
  5
16DD
330
16AC
100
AcDbEntity
  8
image
 62
     5
100
AcDbVertex
100
AcDb2dVertex
 10
3.815073480578638
 20
5.440982717086084
 30
0.0
  0
VERTEX
  5
16DE
330
16AC
100
AcDbEntity
  8
image
 62
     5
100
AcDbVertex
100
AcDb2dVertex
 10
3.812324564416408
 20
5.40758875661152
 30
0.0
  0
VERTEX
  5
16DF
330
16AC
100
AcDbEntity
  8
image
 62
     5
100
AcDbVertex
100
AcDb2dVertex
 10
3.809609917009963
 20
5.371752138971892
 30
0.0
  0
VERTEX
  5
16E0
330
16AC
100
AcDbEntity
  8
image
 62
     5
100
AcDbVertex
100
AcDb2dVertex
 10
3.806902069394427
 20
5.333923356628298
 30
0.0
  0
VERTEX
  5
16E1
330
16AC
100
AcDbEntity
  8
image
 62
     5
100
AcDbVertex
100
AcDb2dVertex
 10
3.804173552604934
 20
5.294552902041839
 30
0.0
  0
VERTEX
  5
16E2
330
16AC
100
AcDbEntity
  8
image
 62
     5
100
AcDbVertex
100
AcDb2dVertex
 10
3.801396897676614
 20
5.254091267673617
 30
0.0
  0
VERTEX
  5
16E3
330
16AC
100
AcDbEntity
  8
image
 62
     5
100
AcDbVertex
100
AcDb2dVertex
 10
3.79854463564459
 20
5.212988945984729
 30
0.0
  0
VERTEX
  5
16E4
330
16AC
100
AcDbEntity
  8
image
 62
     5
100
AcDbVertex
100
AcDb2dVertex
 10
3.795589297543994
 20
5.171696429436279
 30
0.0
  0
VERTEX
  5
16E5
330
16AC
100
AcDbEntity
  8
image
 62
     5
100
AcDbVertex
100
AcDb2dVertex
 10
3.792503414409951
 20
5.130664210489365
 30
0.0
  0
VERTEX
  5
16E6
330
16AC
100
AcDbEntity
  8
image
 62
     5
100
AcDbVertex
100
AcDb2dVertex
 10
3.789237759521975
 20
5.090333513276053
 30
0.0
  0
VERTEX
  5
16E7
330
16AC
100
AcDbEntity
  8
image
 62
     5
100
AcDbVertex
100
AcDb2dVertex
 10
3.78565607513708
 20
5.051108488612279
 30
0.0
  0
VERTEX
  5
16E8
330
16AC
100
AcDbEntity
  8
image
 62
     5
100
AcDbVertex
100
AcDb2dVertex
 10
3.78160034575667
 20
5.013384018984943
 30
0.0
  0
VERTEX
  5
16E9
330
16AC
100
AcDbEntity
  8
image
 62
     5
100
AcDbVertex
100
AcDb2dVertex
 10
3.776912555882146
 20
4.977554986880948
 30
0.0
  0
VERTEX
  5
16EA
330
16AC
100
AcDbEntity
  8
image
 62
     5
100
AcDbVertex
100
AcDb2dVertex
 10
3.771434690014901
 20
4.944016274787194
 30
0.0
  0
VERTEX
  5
16EB
330
16AC
100
AcDbEntity
  8
image
 62
     5
100
AcDbVertex
100
AcDb2dVertex
 10
3.765008732656339
 20
4.91316276519058
 30
0.0
  0
VERTEX
  5
16EC
330
16AC
100
AcDbEntity
  8
image
 62
     5
100
AcDbVertex
100
AcDb2dVertex
 10
3.763035591214121
 20
4.905887084505982
 30
0.0
  0
SEQEND
  5
16ED
330
16AC
100
AcDbEntity
  8
image
 62
     5
  0
LWPOLYLINE
  5
16EE
330
18
100
AcDbEntity
  8
image
 62
     5
100
AcDbPolyline
 90
        2
 70
   128
 43
0.0123
 10
3.818499617035952
 20
4.924298588585411
 42
-0.391953835854203
 10
3.644859532609094
 20
4.832641226175573
 42
0.1314577922503826
  0
POLYLINE
  5
16EF
330
18
100
AcDbEntity
  8
image
 62
     5
100
AcDb2dPolyline
 66
     1
 10
0.0
 20
0.0
 30
0.0
 40
0.0123
 41
0.0123
  0
VERTEX
  5
16F0
330
16EF
100
AcDbEntity
  8
image
 62
     5
100
AcDbVertex
100
AcDb2dVertex
 10
4.134366630419082
 20
6.591884923350722
 30
0.0
  0
VERTEX
  5
16F1
330
16EF
100
AcDbEntity
  8
image
 62
     5
100
AcDbVertex
100
AcDb2dVertex
 10
4.113357532552219
 20
6.591138184102918
 30
0.0
  0
VERTEX
  5
16F2
330
16EF
100
AcDbEntity
  8
image
 62
     5
100
AcDbVertex
100
AcDb2dVertex
 10
4.096319476321474
 20
6.588937668291517
 30
0.0
  0
VERTEX
  5
16F3
330
16EF
100
AcDbEntity
  8
image
 62
     5
100
AcDbVertex
100
AcDb2dVertex
 10
4.082781292027195
 20
6.585342928814531
 30
0.0
  0
VERTEX
  5
16F4
330
16EF
100
AcDbEntity
  8
image
 62
     5
100
AcDbVertex
100
AcDb2dVertex
 10
4.072271809969729
 20
6.580413518569974
 30
0.0
  0
VERTEX
  5
16F5
330
16EF
100
AcDbEntity
  8
image
 62
     5
100
AcDbVertex
100
AcDb2dVertex
 10
4.064319860449426
 20
6.574208990455858
 30
0.0
  0
VERTEX
  5
16F6
330
16EF
100
AcDbEntity
  8
image
 62
     5
100
AcDbVertex
100
AcDb2dVertex
 10
4.058454273766626
 20
6.566788897370198
 30
0.0
  0
VERTEX
  5
16F7
330
16EF
100
AcDbEntity
  8
image
 62
     5
100
AcDbVertex
100
AcDb2dVertex
 10
4.054203880221683
 20
6.558212792211006
 30
0.0
  0
VERTEX
  5
16F8
330
16EF
100
AcDbEntity
  8
image
 62
     5
100
AcDbVertex
100
AcDb2dVertex
 10
4.05109751011494
 20
6.548540227876295
 30
0.0
  0
VERTEX
  5
16F9
330
16EF
100
AcDbEntity
  8
image
 62
     5
100
AcDbVertex
100
AcDb2dVertex
 10
4.048719159052987
 20
6.537847104721386
 30
0.0
  0
VERTEX
  5
16FA
330
16EF
100
AcDbEntity
  8
image
 62
     5
100
AcDbVertex
100
AcDb2dVertex
 10
4.046873483867388
 20
6.526274712930826
 30
0.0
  0
VERTEX
  5
16FB
330
16EF
100
AcDbEntity
  8
image
 62
     5
100
AcDbVertex
100
AcDb2dVertex
 10
4.045420306695939
 20
6.513980690146468
 30
0.0
  0
VERTEX
  5
16FC
330
16EF
100
AcDbEntity
  8
image
 62
     5
100
AcDbVertex
100
AcDb2dVertex
 10
4.044219449676447
 20
6.501122674010165
 30
0.0
  0
VERTEX
  5
16FD
330
16EF
100
AcDbEntity
  8
image
 62
     5
100
AcDbVertex
100
AcDb2dVertex
 10
4.043130734946712
 20
6.487858302163772
 30
0.0
  0
VERTEX
  5
16FE
330
16EF
100
AcDbEntity
  8
image
 62
     5
100
AcDbVertex
100
AcDb2dVertex
 10
4.042013984644539
 20
6.474345212249142
 30
0.0
  0
VERTEX
  5
16FF
330
16EF
100
AcDbEntity
  8
image
 62
     5
100
AcDbVertex
100
AcDb2dVertex
 10
4.040729020907727
 20
6.460741041908127
 30
0.0
  0
VERTEX
  5
1700
330
16EF
100
AcDbEntity
  8
image
 62
     5
100
AcDbVertex
100
AcDb2dVertex
 10
4.039135665874082
 20
6.447203428782581
 30
0.0
  0
VERTEX
  5
1701
330
16EF
100
AcDbEntity
  8
image
 62
     5
100
AcDbVertex
100
AcDb2dVertex
 10
4.037112432021357
 20
6.433797179289854
 30
0.0
  0
VERTEX
  5
1702
330
16EF
100
AcDbEntity
  8
image
 62
     5
100
AcDbVertex
100
AcDb2dVertex
 10
4.034612593187111
 20
6.420215774949277
 30
0.0
  0
VERTEX
  5
1703
330
16EF
100
AcDbEntity
  8
image
 62
     5
100
AcDbVertex
100
AcDb2dVertex
 10
4.031608113548861
 20
6.406059866055678
 30
0.0
  0
VERTEX
  5
1704
330
16EF
100
AcDbEntity
  8
image
 62
     5
100
AcDbVertex
100
AcDb2dVertex
 10
4.028070957284116
 20
6.390930102903884
 30
0.0
  0
VERTEX
  5
1705
330
16EF
100
AcDbEntity
  8
image
 62
     5
100
AcDbVertex
100
AcDb2dVertex
 10
4.023973088570391
 20
6.374427135788723
 30
0.0
  0
VERTEX
  5
1706
330
16EF
100
AcDbEntity
  8
image
 62
     5
100
AcDbVertex
100
AcDb2dVertex
 10
4.019286471585202
 20
6.356151615005019
 30
0.0
  0
VERTEX
  5
1707
330
16EF
100
AcDbEntity
  8
image
 62
     5
100
AcDbVertex
100
AcDb2dVertex
 10
4.013983070506055
 20
6.335704190847603
 30
0.0
  0
VERTEX
  5
1708
330
16EF
100
AcDbEntity
  8
image
 62
     5
100
AcDbVertex
100
AcDb2dVertex
 10
4.008034849510467
 20
6.3126855136113
 30
0.0
  0
VERTEX
  5
1709
330
16EF
100
AcDbEntity
  8
image
 62
     5
100
AcDbVertex
100
AcDb2dVertex
 10
4.001445312888717
 20
6.286864380887029
 30
0.0
  0
VERTEX
  5
170A
330
16EF
100
AcDbEntity
  8
image
 62
     5
100
AcDbVertex
100
AcDb2dVertex
 10
3.994344125382124
 20
6.258682179450074
 30
0.0
  0
VERTEX
  5
170B
330
16EF
100
AcDbEntity
  8
image
 62
     5
100
AcDbVertex
100
AcDb2dVertex
 10
3.986892491844773
 20
6.228748443371813
 30
0.0
  0
VERTEX
  5
170C
330
16EF
100
AcDbEntity
  8
image
 62
     5
100
AcDbVertex
100
AcDb2dVertex
 10
3.979251617130755
 20
6.197672706723615
 30
0.0
  0
VERTEX
  5
170D
330
16EF
100
AcDbEntity
  8
image
 62
     5
100
AcDbVertex
100
AcDb2dVertex
 10
3.971582706094157
 20
6.166064503576861
 30
0.0
  0
VERTEX
  5
170E
330
16EF
100
AcDbEntity
  8
image
 62
     5
100
AcDbVertex
100
AcDb2dVertex
 10
3.964046963589064
 20
6.134533368002922
 30
0.0
  0
VERTEX
  5
170F
330
16EF
100
AcDbEntity
  8
image
 62
     5
100
AcDbVertex
100
AcDb2dVertex
 10
3.956805594469559
 20
6.103688834073174
 30
0.0
  0
VERTEX
  5
1710
330
16EF
100
AcDbEntity
  8
image
 62
     5
100
AcDbVertex
100
AcDb2dVertex
 10
3.950019803589734
 20
6.074140435858994
 30
0.0
  0
VERTEX
  5
1711
330
16EF
100
AcDbEntity
  8
image
 62
     5
100
AcDbVertex
100
AcDb2dVertex
 10
3.943805237946364
 20
6.046266504797681
 30
0.0
  0
VERTEX
  5
1712
330
16EF
100
AcDbEntity
  8
image
 62
     5
100
AcDbVertex
100
AcDb2dVertex
 10
3.938095313107004
 20
6.019520561790223
 30
0.0
  0
VERTEX
  5
1713
330
16EF
100
AcDbEntity
  8
image
 62
     5
100
AcDbVertex
100
AcDb2dVertex
 10
3.932777886781886
 20
5.993124925103542
 30
0.0
  0
VERTEX
  5
1714
330
16EF
100
AcDbEntity
  8
image
 62
     5
100
AcDbVertex
100
AcDb2dVertex
 10
3.927740816681263
 20
5.966301913004553
 30
0.0
  0
VERTEX
  5
1715
330
16EF
100
AcDbEntity
  8
image
 62
     5
100
AcDbVertex
100
AcDb2dVertex
 10
3.922871960515371
 20
5.938273843760175
 30
0.0
  0
VERTEX
  5
1716
330
16EF
100
AcDbEntity
  8
image
 62
     5
100
AcDbVertex
100
AcDb2dVertex
 10
3.918059175994452
 20
5.908263035637321
 30
0.0
  0
VERTEX
  5
1717
330
16EF
100
AcDbEntity
  8
image
 62
     5
100
AcDbVertex
100
AcDb2dVertex
 10
3.913190320828748
 20
5.875491806902909
 30
0.0
  0
VERTEX
  5
1718
330
16EF
100
AcDbEntity
  8
image
 62
     5
100
AcDbVertex
100
AcDb2dVertex
 10
3.908153252728501
 20
5.839182475823859
 30
0.0
  0
VERTEX
  5
1719
330
16EF
100
AcDbEntity
  8
image
 62
     5
100
AcDbVertex
100
AcDb2dVertex
 10
3.902868537571803
 20
5.798793234167977
 30
0.0
  0
VERTEX
  5
171A
330
16EF
100
AcDbEntity
  8
image
 62
     5
100
AcDbVertex
100
AcDb2dVertex
 10
3.897387573908124
 20
5.754725767706642
 30
0.0
  0
VERTEX
  5
171B
330
16EF
100
AcDbEntity
  8
image
 62
     5
100
AcDbVertex
100
AcDb2dVertex
 10
3.891794468454778
 20
5.707617635712128
 30
0.0
  0
VERTEX
  5
171C
330
16EF
100
AcDbEntity
  8
image
 62
     5
100
AcDbVertex
100
AcDb2dVertex
 10
3.886173327929091
 20
5.658106397456704
 30
0.0
  0
VERTEX
  5
171D
330
16EF
100
AcDbEntity
  8
image
 62
     5
100
AcDbVertex
100
AcDb2dVertex
 10
3.880608259048377
 20
5.60682961221264
 30
0.0
  0
VERTEX
  5
171E
330
16EF
100
AcDbEntity
  8
image
 62
     5
100
AcDbVertex
100
AcDb2dVertex
 10
3.875183368529954
 20
5.554424839252213
 30
0.0
  0
VERTEX
  5
171F
330
16EF
100
AcDbEntity
  8
image
 62
     5
100
AcDbVertex
100
AcDb2dVertex
 10
3.869982763091142
 20
5.501529637847691
 30
0.0
  0
VERTEX
  5
1720
330
16EF
100
AcDbEntity
  8
image
 62
     5
100
AcDbVertex
100
AcDb2dVertex
 10
3.865090549449261
 20
5.448781567271344
 30
0.0
  0
VERTEX
  5
1721
330
16EF
100
AcDbEntity
  8
image
 62
     5
100
AcDbVertex
100
AcDb2dVertex
 10
3.86056863948303
 20
5.396749292923159
 30
0.0
  0
VERTEX
  5
1722
330
16EF
100
AcDbEntity
  8
image
 62
     5
100
AcDbVertex
100
AcDb2dVertex
 10
3.856390165716764
 20
5.345725904713969
 30
0.0
  0
VERTEX
  5
1723
330
16EF
100
AcDbEntity
  8
image
 62
     5
100
AcDbVertex
100
AcDb2dVertex
 10
3.852506065836182
 20
5.295935598682319
 30
0.0
  0
VERTEX
  5
1724
330
16EF
100
AcDbEntity
  8
image
 62
     5
100
AcDbVertex
100
AcDb2dVertex
 10
3.848867277527007
 20
5.247602570866758
 30
0.0
  0
VERTEX
  5
1725
330
16EF
100
AcDbEntity
  8
image
 62
     5
100
AcDbVertex
100
AcDb2dVertex
 10
3.845424738474955
 20
5.200951017305829
 30
0.0
  0
VERTEX
  5
1726
330
16EF
100
AcDbEntity
  8
image
 62
     5
100
AcDbVertex
100
AcDb2dVertex
 10
3.842129386365748
 20
5.156205134038083
 30
0.0
  0
VERTEX
  5
1727
330
16EF
100
AcDbEntity
  8
image
 62
     5
100
AcDbVertex
100
AcDb2dVertex
 10
3.838932158885103
 20
5.113589117102062
 30
0.0
  0
VERTEX
  5
1728
330
16EF
100
AcDbEntity
  8
image
 62
     5
100
AcDbVertex
100
AcDb2dVertex
 10
3.835783993718736
 20
5.073327162536314
 30
0.0
  0
VERTEX
  5
1729
330
16EF
100
AcDbEntity
  8
image
 62
     5
100
AcDbVertex
100
AcDb2dVertex
 10
3.832607792938258
 20
5.03559208813813
 30
0.0
  0
VERTEX
  5
172A
330
16EF
100
AcDbEntity
  8
image
 62
     5
100
AcDbVertex
100
AcDb2dVertex
 10
3.829214316158816
 20
5.000351198739778
 30
0.0
  0
VERTEX
  5
172B
330
16EF
100
AcDbEntity
  8
image
 62
     5
100
AcDbVertex
100
AcDb2dVertex
 10
3.825386287381439
 20
4.967520420932268
 30
0.0
  0
VERTEX
  5
172C
330
16EF
100
AcDbEntity
  8
image
 62
     5
100
AcDbVertex
100
AcDb2dVertex
 10
3.820906430607168
 20
4.937015681306611
 30
0.0
  0
VERTEX
  5
172D
330
16EF
100
AcDbEntity
  8
image
 62
     5
100
AcDbVertex
100
AcDb2dVertex
 10
3.818499617035953
 20
4.924298588585418
 30
0.0
  0
SEQEND
  5
172E
330
16EF
100
AcDbEntity
  8
image
 62
     5
  0
INSERT
  5
1739
330
18
100
AcDbEntity
  8
text_bubbles
100
AcDbBlockReference
 66
     1
  2
bubble
 10
2.957739700107925
 20
4.193203858587289
 30
0.0
  0
ATTRIB
  5
173A
330
1739
100
AcDbEntity
  8
text_bubbles
100
AcDbText
 10
2.829763509631734
 20
4.130703858587289
 30
0.0
 40
0.125
  1
15
  7
ROMANS
 72
     4
 11
2.957739700107925
 21
4.193203858587289
 31
0.0
100
AcDbAttribute
  2
XX
 70
     0
  0
SEQEND
  5
173B
330
1739
100
AcDbEntity
  8
text_bubbles
  0
LEADER
  5
173C
330
18
100
AcDbEntity
  8
text_bubbles
100
AcDbLeader
  3
STANDARD
 76
     2
 10
2.699083050686438
 20
4.829837081218955
 30
0.0
 10
2.897702919375182
 20
4.319566807900956
 30
0.0
1001
ACAD
1000
DSTYLE
1002
{
1070
   147
1040
0.09
1070
    77
1070
     0
1002
}
  0
LEADER
  5
173D
330
18
100
AcDbEntity
  8
text_bubbles
100
AcDbLeader
  3
STANDARD
 76
     2
 10
4.265798002137421
 20
4.840541343525796
 30
0.0
 10
4.707131578545457
 20
4.294788422765626
 30
0.0
1001
ACAD
1000
DSTYLE
1002
{
1070
   147
1040
0.09
1070
    77
1070
     0
1002
}
  0
INSERT
  5
173E
330
18
100
AcDbEntity
  8
text_bubbles
100
AcDbBlockReference
 66
     1
  2
bubble
 10
4.803306214095201
 20
4.193203858587289
 30
0.0
  0
ATTRIB
  5
173F
330
173E
100
AcDbEntity
  8
text_bubbles
100
AcDbText
 10
4.67533002361901
 20
4.130703858587289
 30
0.0
 40
0.125
  1
16
  7
ROMANS
 72
     4
 11
4.803306214095201
 21
4.193203858587289
 31
0.0
100
AcDbAttribute
  2
XX
 70
     0
  0
SEQEND
  5
1740
330
173E
100
AcDbEntity
  8
text_bubbles
  0
LEADER
  5
1741
330
18
100
AcDbEntity
  8
text_bubbles
100
AcDbLeader
  3
STANDARD
 76
     2
 10
4.395917687841974
 20
4.872802876939944
 30
0.0
 10
4.707131578545457
 20
4.294788422765626
 30
0.0
1001
ACAD
1000
DSTYLE
1002
{
1070
   147
1040
0.09
1070
    77
1070
     0
1002
}
  0
POLYLINE
  5
1774
330
18
100
AcDbEntity
  8
image
 62
     5
100
AcDb2dPolyline
 66
     1
 10
0.0
 20
0.0
 30
0.0
 40
0.0128125
 41
0.0128125
  0
VERTEX
  5
1775
330
1774
100
AcDbEntity
  8
image
 62
     5
100
AcDbVertex
100
AcDb2dVertex
 10
7.207261708820423
 20
4.808097334091055
 30
0.0
  0
VERTEX
  5
1776
330
1774
100
AcDbEntity
  8
image
 62
     5
100
AcDbVertex
100
AcDb2dVertex
 10
7.204964677537097
 20
4.807525427338739
 30
0.0
  0
VERTEX
  5
1777
330
1774
100
AcDbEntity
  8
image
 62
     5
100
AcDbVertex
100
AcDb2dVertex
 10
7.145311012991342
 20
4.801525551670135
 30
0.0
  0
VERTEX
  5
1778
330
1774
100
AcDbEntity
  8
image
 62
     5
100
AcDbVertex
100
AcDb2dVertex
 10
7.070645050765625
 20
4.802226642888226
 30
0.0
  0
VERTEX
  5
1779
330
1774
100
AcDbEntity
  8
image
 62
     5
100
AcDbVertex
100
AcDb2dVertex
 10
6.978467594783138
 20
4.810592652348557
 30
0.0
  0
VERTEX
  5
177A
330
1774
100
AcDbEntity
  8
image
 62
     5
100
AcDbVertex
100
AcDb2dVertex
 10
6.866279448967079
 20
4.827587531406673
 30
0.0
  0
SEQEND
  5
177B
330
1774
100
AcDbEntity
  8
image
 62
     5
  0
POLYLINE
  5
177C
330
18
100
AcDbEntity
  8
image
 62
     5
100
AcDb2dPolyline
 66
     1
 10
0.0
 20
0.0
 30
0.0
 40
0.0128125
 41
0.0128125
  0
VERTEX
  5
177D
330
177C
100
AcDbEntity
  8
image
 62
     5
100
AcDbVertex
100
AcDb2dVertex
 10
7.207261708820423
 20
4.881376326166151
 30
0.0
  0
VERTEX
  5
177E
330
177C
100
AcDbEntity
  8
image
 62
     5
100
AcDbVertex
100
AcDb2dVertex
 10
7.185387020867972
 20
4.870207801407971
 30
0.0
  0
VERTEX
  5
177F
330
177C
100
AcDbEntity
  8
image
 62
     5
100
AcDbVertex
100
AcDb2dVertex
 10
7.150216167218413
 20
4.856769208415187
 30
0.0
  0
VERTEX
  5
1780
330
177C
100
AcDbEntity
  8
image
 62
     5
100
AcDbVertex
100
AcDb2dVertex
 10
7.109250128741146
 20
4.845616504329576
 30
0.0
  0
VERTEX
  5
1781
330
177C
100
AcDbEntity
  8
image
 62
     5
100
AcDbVertex
100
AcDb2dVertex
 10
7.061431171556776
 20
4.836935836868529
 30
0.0
  0
VERTEX
  5
1782
330
177C
100
AcDbEntity
  8
image
 62
     5
100
AcDbVertex
100
AcDb2dVertex
 10
7.005701561785905
 20
4.830913353749435
 30
0.0
  0
VERTEX
  5
1783
330
177C
100
AcDbEntity
  8
image
 62
     5
100
AcDbVertex
100
AcDb2dVertex
 10
6.941003565549138
 20
4.827735202689686
 30
0.0
  0
VERTEX
  5
1784
330
177C
100
AcDbEntity
  8
image
 62
     5
100
AcDbVertex
100
AcDb2dVertex
 10
6.866279448967079
 20
4.827587531406675
 30
0.0
  0
SEQEND
  5
1785
330
177C
100
AcDbEntity
  8
image
 62
     5
  0
POLYLINE
  5
1786
330
18
100
AcDbEntity
  8
image
 62
     5
100
AcDb2dPolyline
 66
     1
 10
0.0
 20
0.0
 30
0.0
 40
0.0128125
 41
0.0128125
  0
VERTEX
  5
1787
330
1786
100
AcDbEntity
  8
image
 62
     5
100
AcDbVertex
100
AcDb2dVertex
 10
1.706209498459644
 20
4.881376326166151
 30
0.0
  0
VERTEX
  5
1788
330
1786
100
AcDbEntity
  8
image
 62
     5
100
AcDbVertex
100
AcDb2dVertex
 10
1.728084186412095
 20
4.870207801407971
 30
0.0
  0
VERTEX
  5
1789
330
1786
100
AcDbEntity
  8
image
 62
     5
100
AcDbVertex
100
AcDb2dVertex
 10
1.763255040061654
 20
4.856769208415187
 30
0.0
  0
VERTEX
  5
178A
330
1786
100
AcDbEntity
  8
image
 62
     5
100
AcDbVertex
100
AcDb2dVertex
 10
1.804221078538921
 20
4.845616504329576
 30
0.0
  0
VERTEX
  5
178B
330
1786
100
AcDbEntity
  8
image
 62
     5
100
AcDbVertex
100
AcDb2dVertex
 10
1.852040035723291
 20
4.836935836868529
 30
0.0
  0
VERTEX
  5
178C
330
1786
100
AcDbEntity
  8
image
 62
     5
100
AcDbVertex
100
AcDb2dVertex
 10
1.907769645494163
 20
4.830913353749435
 30
0.0
  0
VERTEX
  5
178D
330
1786
100
AcDbEntity
  8
image
 62
     5
100
AcDbVertex
100
AcDb2dVertex
 10
1.972467641730929
 20
4.827735202689686
 30
0.0
  0
VERTEX
  5
178E
330
1786
100
AcDbEntity
  8
image
 62
     5
100
AcDbVertex
100
AcDb2dVertex
 10
2.047191758312989
 20
4.827587531406675
 30
0.0
  0
SEQEND
  5
178F
330
1786
100
AcDbEntity
  8
image
 62
     5
  0
POLYLINE
  5
1790
330
18
100
AcDbEntity
  8
image
 62
     5
100
AcDb2dPolyline
 66
     1
 10
0.0
 20
0.0
 30
0.0
 40
0.0128125
 41
0.0128125
  0
VERTEX
  5
1791
330
1790
100
AcDbEntity
  8
image
 62
     5
100
AcDbVertex
100
AcDb2dVertex
 10
1.706209498459644
 20
4.808097334091055
 30
0.0
  0
VERTEX
  5
1792
330
1790
100
AcDbEntity
  8
image
 62
     5
100
AcDbVertex
100
AcDb2dVertex
 10
1.708506529742971
 20
4.807525427338739
 30
0.0
  0
VERTEX
  5
1793
330
1790
100
AcDbEntity
  8
image
 62
     5
100
AcDbVertex
100
AcDb2dVertex
 10
1.768160194288725
 20
4.801525551670135
 30
0.0
  0
VERTEX
  5
1794
330
1790
100
AcDbEntity
  8
image
 62
     5
100
AcDbVertex
100
AcDb2dVertex
 10
1.842826156514442
 20
4.802226642888226
 30
0.0
  0
VERTEX
  5
1795
330
1790
100
AcDbEntity
  8
image
 62
     5
100
AcDbVertex
100
AcDb2dVertex
 10
1.935003612496929
 20
4.810592652348557
 30
0.0
  0
VERTEX
  5
1796
330
1790
100
AcDbEntity
  8
image
 62
     5
100
AcDbVertex
100
AcDb2dVertex
 10
2.047191758312989
 20
4.827587531406673
 30
0.0
  0
SEQEND
  5
1797
330
1790
100
AcDbEntity
  8
image
 62
     5
  0
INSERT
  5
17CF
330
18
100
AcDbEntity
  8
title
100
AcDbBlockReference
 66
     1
  2
titleblock
 10
0.0
 20
0.0
 30
0.0
  0
ATTRIB
  5
17D1
330
17CF
100
AcDbEntity
  8
title
100
AcDbText
 10
0.5055556038023421
 20
0.7842270964783673
 30
0.0
 40
0.2
  1
D
  7
L200
 72
     4
 11
0.6064423705144839
 21
0.8842270964783672
 31
0.0
100
AcDbAttribute
  2
D
 70
     0
  0
ATTRIB
  5
17D2
330
17CF
100
AcDbEntity
  8
title
100
AcDbText
 10
1.231442370514484
 20
1.34371230274675
 30
0.0
 40
0.2
  1

  7
L200
100
AcDbAttribute
  2
TITLE1
 70
     0
  0
ATTRIB
  5
17D3
330
17CF
100
AcDbEntity
  8
title
100
AcDbText
 10
1.231442370514484
 20
0.9842270964783674
 30
0.0
 40
0.2
  1
SENSOR DECODER AND
  7
L200
100
AcDbAttribute
  2
TITLE2
 70
     0
  0
ATTRIB
  5
17D4
330
17CF
100
AcDbEntity
  8
title
100
AcDbText
 10
2.713645751168312
 20
0.5927927664583189
 30
0.0
 40
0.2
  1
FLOW SENSOR
  7
L200
100
AcDbAttribute
  2
TITLE3
 70
     0
  0
ATTRIB
  5
17D5
330
17CF
100
AcDbEntity
  8
title
100
AcDbText
 10
2.713645751168312
 20
0.2692560808167741
 30
0.0
 40
0.2
  1

  7
L200
100
AcDbAttribute
  2
TITLE4
 70
     0
  0
ATTRIB
  5
17D6
330
17CF
100
AcDbEntity
  8
title
 62
     7
100
AcDbText
 10
7.617214829966379
 20
0.9696027915446398
 30
0.0
 40
0.08
  1
11-23-10
  7
L80
 72
     2
 11
8.261024353775903
 21
0.9696027915446398
 31
0.0
100
AcDbAttribute
  2
REVISED
 70
     0
  0
ATTRIB
  5
17D7
330
17CF
100
AcDbEntity
  8
title
 62
     7
100
AcDbText
 10
0.2639423705144838
 20
0.0847116480207214
 30
0.0
 40
0.08
  1
SENSDEC.DWG
  7
L80
100
AcDbAttribute
  2
DWG-NAME
 70
     0
  0
ATTRIB
  5
17D8
330
17CF
100
AcDbEntity
  8
title
 62
     7
100
AcDbText
 10
1.231442370514484
 20
0.7005637793954894
 30
0.0
 40
0.1
  1
N.T.S.
  7
L100
100
AcDbAttribute
  2
SCALE
 70
     0
  0
SEQEND
  5
17D0
330
17CF
100
AcDbEntity
  8
title
  0
ENDSEC
  0
SECTION
  2
OBJECTS
  0
DICTIONARY
  5
C
330
0
100
AcDbDictionary
281
     1
  3
ACAD_COLOR
350
17EA
  3
ACAD_GROUP
350
D
  3
ACAD_LAYOUT
350
21C
  3
ACAD_MATERIAL
350
17E9
  3
ACAD_MLEADERSTYLE
350
1857
  3
ACAD_MLINESTYLE
350
E
  3
ACAD_PLOTSETTINGS
350
21D
  3
ACAD_PLOTSTYLENAME
350
21A
  3
ACAD_SCALELIST
350
1835
  3
ACAD_TABLESTYLE
350
17EB
  3
ACAD_VISUALSTYLE
350
1824
  3
AcadDim
350
15F2
  3
ACDB_RECOMPOSE_DATA
350
18A7
  3
AcDbVariableDictionary
350
24B
  3
ASE_INDEX_DICTIONARY
350
1807
  3
BNS_SELSET
350
300
1001
BBSI_PltSel
1000
1
1000

1001
BBSI_Bookmarks
1000
1
1000
1
1000
0
1000
1
1000
0
1000
0
1000
0
1000
0
1000
0
1000
0
1000
0
1001
BBSI_BookmarksEx
1000
0
1000
0
1000

1000
0
1001
BBSI_Plots
1000

1000
ANSI_A_(11.00_x_8.50_Inches)
1000
279.399993896484
1000
215.899993896484
1000
0
1000
1
1000
1
1000
0
1000
3.556
1000
1
1000
0
1000
1
1000
1.27757700485006
1000
0
1000
1
1000
OKIColorShaded.ctb
1000
0
1000
0
1000
1
1000
1
1000
0
1000
0
1000
9.86161803875578
1000
-0.380845831544185
1000
23.6293092545551
1000
10.2256668955838
1000

1000

  0
DICTIONARY
  5
174A
330
2
100
AcDbDictionary
280
     1
281
     1
  3
ACAD_LAYERFILTERS
360
1940
  3
ACAD_LAYERSTATES
360
174B
  0
DICTIONARY
  5
247
330
18
100
AcDbDictionary
280
     1
281
     1
  3
ACAD_LAYOUTSELFREF
360
2FA
  0
DICTIONARY
  5
245
330
15
100
AcDbDictionary
280
     1
281
     1
  3
ACAD_LAYOUTSELFREF
360
2F9
  0
DICTIONARY
  5
1929
330
17C0
100
AcDbDictionary
280
     1
281
     1
  3
ACAD_SORTENTS
360
192A
  0
DICTIONARY
  5
1965
330
12DE
100
AcDbDictionary
280
     1
281
     1
  3
ACAD_MTEXT_2008_RT
360
1966
  0
DICTIONARY
  5
1967
330
1616
100
AcDbDictionary
280
     1
281
     1
  3
ACAD_MTEXT_2008_RT
360
1968
  0
DICTIONARY
  5
17EA
102
{ACAD_REACTORS
330
C
102
}
330
C
100
AcDbDictionary
281
     1
  0
DICTIONARY
  5
D
102
{ACAD_REACTORS
330
C
102
}
330
C
100
AcDbDictionary
281
     1
  0
DICTIONARY
  5
21C
102
{ACAD_REACTORS
330
C
102
}
330
C
100
AcDbDictionary
281
     1
  3
Layout1
350
21F
  3
Model
350
21E
  0
DICTIONARY
  5
17E9
102
{ACAD_REACTORS
330
C
102
}
330
C
100
AcDbDictionary
281
     1
  3
ByBlock
350
1814
  3
ByLayer
350
180C
  3
Global
350
181C
  0
DICTIONARY
  5
1857
102
{ACAD_REACTORS
330
C
102
}
330
C
100
AcDbDictionary
281
     1
  3
Standard
350
1858
  0
DICTIONARY
  5
E
102
{ACAD_REACTORS
330
C
102
}
330
C
100
AcDbDictionary
281
     1
  3
STANDARD
350
1B
  0
DICTIONARY
  5
21D
102
{ACAD_REACTORS
330
C
102
}
330
C
100
AcDbDictionary
281
     1
  3
1055 B&W Full Shaded Draft
350
338
  3
1055 B&W Full Shaded Final
350
339
  3
1055 B&W Half Shaded Draft
350
33A
  3
1055 B&W Half Shaded Final
350
33B
  3
1055 Color Full Shaded Draft
350
33C
  3
1055 Color Full Shaded Final
350
33D
  3
1055 Color Half Shaded Draft
350
33E
  3
1055 Color Half Shaded Final
350
33F
  3
1055-B&W-Shaded-Draft
350
340
  3
1055-B&W-Shaded-Final
350
341
  3
1055-Color-Shaded-Draft
350
342
  3
1055-Color-Shaded-Final
350
343
  3
8500 B&W Shaded 11x17
350
344
  3
8500 B&W Shaded 8.5x11
350
345
  3
8500 Color Shaded 11x17
350
346
  3
8500 Color Shaded 8.5x11
350
347
  3
8500-B&W-Shaded-11x17
350
348
  3
8500-B&W-Shaded-8.5x11
350
349
  3
8500-Color-Shaded-11x17
350
34A
  3
8500-Color-Shaded-8.5x11
350
34B
  3
Laser Jet 5 Shaded 11x17
350
34C
  3
Laser Jet 5 Shaded 8.5x11
350
34D
  3
LaserJet5-Shaded-11x17
350
34E
  3
LaserJet5-Shaded-8.5x11
350
34F
  0
ACDBDICTIONARYWDFLT
  5
21A
102
{ACAD_REACTORS
330
C
102
}
330
C
100
AcDbDictionary
281
     1
  3
Normal
350
21B
100
AcDbDictionaryWithDefault
340
21B
  0
DICTIONARY
  5
1835
102
{ACAD_REACTORS
330
C
102
}
330
C
100
AcDbDictionary
281
     1
  3
A0
350
1836
  3
A1
350
1837
  3
A2
350
1838
  3
A3
350
1839
  3
A4
350
183A
  3
A5
350
183B
  3
A6
350
183C
  3
A7
350
183D
  3
A8
350
183E
  3
A9
350
183F
  3
B0
350
1840
  3
B1
350
1841
  3
B2
350
1842
  3
B3
350
1843
  3
B4
350
1844
  3
B5
350
1845
  3
B6
350
1846
  3
B7
350
1847
  3
B8
350
1848
  3
B9
350
1849
  3
C0
350
184A
  3
C1
350
184B
  3
C2
350
184C
  3
C3
350
184D
  3
C4
350
184E
  3
C5
350
184F
  3
C6
350
1850
  3
C7
350
1851
  3
C8
350
1852
  3
C9
350
1853
  3
D0
350
1854
  3
D1
350
1855
  3
D2
350
1856
  0
DICTIONARY
  5
17EB
102
{ACAD_REACTORS
330
C
102
}
330
C
100
AcDbDictionary
281
     1
  3
Standard
350
17EC
  0
DICTIONARY
  5
1824
102
{ACAD_REACTORS
330
C
102
}
330
C
100
AcDbDictionary
281
     1
  3
2dWireframe
350
182A
  3
3D Hidden
350
182C
  3
3dWireframe
350
182B
  3
Basic
350
1829
  3
Brighten
350
1830
  3
ColorChange
350
1834
  3
Conceptual
350
182D
  3
Dim
350
182F
  3
Facepattern
350
1833
  3
Flat
350
1825
  3
FlatWithEdges
350
1826
  3
Gouraud
350
1827
  3
GouraudWithEdges
350
1828
  3
Linepattern
350
1832
  3
Realistic
350
182E
  3
Thicken
350
1831
  0
XRECORD
  5
15F2
102
{ACAD_REACTORS
330
C
102
}
330
C
100
AcDbXrecord
280
     1
 90
   990106
  3

 60
     0
 61
     0
 62
     1
 63
     3
 64
     0
 65
     0
 66
     0
 67
     3
 68
     1
 69
     0
 70
     0
 71
     0
 72
     0
 40
0.0
170
     0
  0
XRECORD
  5
18A7
102
{ACAD_REACTORS
330
C
102
}
330
C
100
AcDbXrecord
280
     1
 90
        1
330
12DE
330
1616
330
17EC
  0
DICTIONARY
  5
24B
102
{ACAD_REACTORS
330
C
102
}
330
C
100
AcDbDictionary
281
     1
  3
CANNOSCALE
350
18AA
  3
CMLEADERSTYLE
350
18A8
  3
CTABLESTYLE
350
17F2
  3
DIMASSOC
350
24C
  3
DRAWORDERCTL
350
17F3
  3
LAYEREVAL
350
195B
  3
LAYERNOTIFY
350
18AC
  3
LIGHTINGUNITS
350
18AB
  3
MSLTSCALE
350
18A9
  3
SORTENTS
350
14B0
  0
DICTIONARY
  5
1807
102
{ACAD_REACTORS
330
C
102
}
330
C
100
AcDbDictionary
281
     1
  3
ASEBlockHierarchyIndexRecord
350
1808
1001
DCO15
1040
1548586825.573
  0
DICTIONARY
  5
300
102
{ACAD_REACTORS
330
C
102
}
330
0
100
AcDbDictionary
281
     1
  0
DICTIONARY
  5
1940
102
{ACAD_REACTORS
330
174A
102
}
330
174A
100
AcDbDictionary
281
     1
  3
_0100-
350
1943
  3
_0280-
350
1942
  3
_Add Alternate
350
1945
  3
_Bid Alternate
350
1946
  3
_Color 253
350
1948
  3
_Color 8
350
1944
  3
_Color 84
350
1947
  3
_Contours
350
194E
  3
_Demo
350
1949
  3
_Existing
350
194A
  3
_Hardscape
350
194D
  3
_NoXref
350
1941
  3
_Row
350
194B
  3
_Utility
350
194C
  0
DICTIONARY
  5
174B
102
{ACAD_REACTORS
330
174A
102
}
330
174A
100
AcDbDictionary
281
     1
  0
XRECORD
  5
2FA
102
{ACAD_REACTORS
330
247
102
}
330
247
100
AcDbXrecord
280
     1
340
18
  0
XRECORD
  5
2F9
102
{ACAD_REACTORS
330
245
102
}
330
245
100
AcDbXrecord
280
     1
340
15
  0
SORTENTSTABLE
  5
192A
102
{ACAD_REACTORS
330
1929
102
}
330
1929
100
AcDbSortentsTable
330
17C0
  0
XRECORD
  5
1966
102
{ACAD_REACTORS
330
1965
102
}
330
1965
100
AcDbXrecord
280
     1
 40
29458235.0
  1
GREEN/YELLOW WIRE FROM SD-210TURF TO GROUNDING ROD BRASS CLAMP (1 OF 2)\P\PSENSOR DECODER:\P RAIN BIRD SD-210TURF M13009 SENSOR DECODER\P\PRED WIRE FROM SD-210TURF TO FLOW SENSOR\P\PDB SERIES WIRE CONNECTOR:\P  RAIN BIRD DBTWC25 (1 OF 6)\P\P12-INCH V
  1
ALVE BOX WITH COVER: \P  RAIN BIRD VB-STD\P\PFINISH GRADE OR TOP OF MULCH\P\P\pxi-2,l2;GROUND WIRE FROM SD-210TURF TO DB SERIES WIRE   CONNECTOR (1 OF 2)\P\pi0,l0;\PFLOW SENSOR WIRE (1 OF 2)\P\PFLOW SENSOR\P\PPVC MAINLINE PIPE\P\PBRICK (1 OF 4)\P\P3-
  1
INCH MINIMUM DEPTH OF 3/4-INCH \P  WASHED GRAVEL\P\PBLACK WIRE FROM SD-210TURF TO FLOW SENSOR\P\PBLUE WIRE FROM SD-210TURF (1 OF 2)\P\PTWO-WIRE CABLE TO NEXT DEVICE\P\pi-2,l2;  (FIELD DECODER, SENSOR DECODER, LINE SURGE PROTECTOR OR ESP-LXD CONTROLLE
  1
R)\P\pi0,l0;\PCOMMUNICATION WIRE TO NEXT DEVICE\P\pi-2,l2;  (FIELD DECODER, SENSOR DECODER, LINE SURGE PROTECTOR, OR ESP-LXD CONTROLLER)\P\pi0,l0;\PGROUNDING ROD
  0
XRECORD
  5
1968
102
{ACAD_REACTORS
330
1967
102
}
330
1967
100
AcDbXrecord
280
     1
 40
7040070.0
  1
{\Fromans|c0;NOTES:\P\pxi-3,l3;1. MAXIMUM LENGTH OF SECONDARY WIRE PATH (14 AWG) FROM DECODER TO RELAY IS 450 FEET.\P\P\pi0,l0;2. PLACE 3-FEET OF EXTRA WIRE IN VALVE BOX FOR EASY SERVICING.\P\P\pi-3,l3;3. IN A SITE CONTROL DECODER SYSTEM A PULSE TRAN
  1
SMITTER (PT322) SHOULD BE INSTALLED BETWEEN THE SENSOR DECODER AND THE FLOW SENSOR.  THIS IS NOT NEEDED IN AN ESP-LXD CONTROLLER SYSTEM.\P\pi0,l0;\P4. GROUNDING SHOULD BE TO 10 OHMS OR LESS.}
  0
LAYOUT
  5
21F
102
{ACAD_REACTORS
330
21C
102
}
330
21C
100
AcDbPlotSettings
  1

  2
None
  4

  6

 40
0.0
 41
0.0
 42
0.0
 43
0.0
 44
0.0
 45
0.0
 46
0.0
 47
0.0
 48
0.0
 49
0.0
140
0.0
141
0.0
142
1.0
143
1.0
 70
   688
 72
     0
 73
     0
 74
     5
  7
OKIColorShaded.ctb
 75
    16
147
1.0
 76
     0
 77
     2
 78
   300
148
0.0
149
0.0
100
AcDbLayout
  1
Layout1
 70
     0
 71
     1
 10
0.0
 20
0.0
 11
12.0
 21
9.0
 12
0.0
 22
0.0
 32
0.0
 14
1.000000000000000E+20
 24
1.000000000000000E+20
 34
1.000000000000000E+20
 15
-1.000000000000000E+20
 25
-1.000000000000000E+20
 35
-1.000000000000000E+20
146
0.0
 13
0.0
 23
0.0
 33
0.0
 16
1.0
 26
0.0
 36
0.0
 17
0.0
 27
1.0
 37
0.0
 76
     0
330
15
  0
LAYOUT
  5
21E
102
{ACAD_REACTORS
330
21C
102
}
330
21C
100
AcDbPlotSettings
  1

  2
OKI DOKI Color Laser.pc3
  4
Letter
  6

 40
5.027082920074462
 41
5.027070522308349
 42
5.027099609375
 43
5.027084350585937
 44
279.3999938964844
 45
215.8999938964844
 46
69.51127562268418
 47
-0.0000000000000019
 48
9.861618038755779
 49
-0.3808458315441854
140
23.62930925455509
141
10.22566689558383
142
1.0
143
2.034755727814345
 70
 11956
 72
     0
 73
     1
 74
     1
  7
OKIColorShaded.ctb
 75
     0
147
0.4914594839716512
 76
     1
 77
     2
 78
   300
148
0.0
149
0.0
100
AcDbLayout
  1
Model
 70
     1
 71
     0
 10
0.0
 20
0.0
 11
12.0
 21
9.0
 12
0.0
 22
0.0
 32
0.0
 14
0.0
 24
0.0
 34
0.0
 15
0.0
 25
0.0
 35
0.0
146
0.0
 13
0.0
 23
0.0
 33
0.0
 16
1.0
 26
0.0
 36
0.0
 17
0.0
 27
1.0
 37
0.0
 76
     0
330
18
331
180A
1001
ACAD_PSEXT
1000
OKI DOKI Color Laser.pc3
1000
OKI C9500(PCL)
1000
Front
1000

1070
     0
  0
MATERIAL
  5
1814
102
{ACAD_XDICTIONARY
360
1815
102
}
102
{ACAD_REACTORS
330
17E9
102
}
330
17E9
100
AcDbMaterial
  1
ByBlock
 72
     0
 43
0.0208333333333333
 43
0.0
 43
0.0
 43
0.0
 43
0.0
 43
0.0208333333333333
 43
0.0
 43
0.0
 43
0.0
 43
0.0
 43
1.0
 43
0.0
 43
0.0
 43
0.0
 43
0.0
 43
1.0
 77
     0
 47
0.0208333333333333
 47
0.0
 47
0.0
 47
0.0
 47
0.0
 47
0.0208333333333333
 47
0.0
 47
0.0
 47
0.0
 47
0.0
 47
1.0
 47
0.0
 47
0.0
 47
0.0
 47
0.0
 47
1.0
171
     0
 49
0.0208333333333333
 49
0.0
 49
0.0
 49
0.0
 49
0.0
 49
0.0208333333333333
 49
0.0
 49
0.0
 49
0.0
 49
0.0
 49
1.0
 49
0.0
 49
0.0
 49
0.0
 49
0.0
 49
1.0
175
     0
142
0.0208333333333333
142
0.0
142
0.0
142
0.0
142
0.0
142
0.0208333333333333
142
0.0
142
0.0
142
0.0
142
0.0
142
1.0
142
0.0
142
0.0
142
0.0
142
0.0
142
1.0
179
     0
144
0.0208333333333333
144
0.0
144
0.0
144
0.0
144
0.0
144
0.0208333333333333
144
0.0
144
0.0
144
0.0
144
0.0
144
1.0
144
0.0
144
0.0
144
0.0
144
0.0
144
1.0
147
0.0208333333333333
147
0.0
147
0.0
147
0.0
147
0.0
147
0.0208333333333333
147
0.0
147
0.0
147
0.0
147
0.0
147
1.0
147
0.0
147
0.0
147
0.0
147
0.0
147
1.0
  0
MATERIAL
  5
180C
102
{ACAD_XDICTIONARY
360
180D
102
}
102
{ACAD_REACTORS
330
17E9
102
}
330
17E9
100
AcDbMaterial
  1
ByLayer
 72
     0
 43
0.0208333333333333
 43
0.0
 43
0.0
 43
0.0
 43
0.0
 43
0.0208333333333333
 43
0.0
 43
0.0
 43
0.0
 43
0.0
 43
1.0
 43
0.0
 43
0.0
 43
0.0
 43
0.0
 43
1.0
 77
     0
 47
0.0208333333333333
 47
0.0
 47
0.0
 47
0.0
 47
0.0
 47
0.0208333333333333
 47
0.0
 47
0.0
 47
0.0
 47
0.0
 47
1.0
 47
0.0
 47
0.0
 47
0.0
 47
0.0
 47
1.0
171
     0
 49
0.0208333333333333
 49
0.0
 49
0.0
 49
0.0
 49
0.0
 49
0.0208333333333333
 49
0.0
 49
0.0
 49
0.0
 49
0.0
 49
1.0
 49
0.0
 49
0.0
 49
0.0
 49
0.0
 49
1.0
175
     0
142
0.0208333333333333
142
0.0
142
0.0
142
0.0
142
0.0
142
0.0208333333333333
142
0.0
142
0.0
142
0.0
142
0.0
142
1.0
142
0.0
142
0.0
142
0.0
142
0.0
142
1.0
179
     0
144
0.0208333333333333
144
0.0
144
0.0
144
0.0
144
0.0
144
0.0208333333333333
144
0.0
144
0.0
144
0.0
144
0.0
144
1.0
144
0.0
144
0.0
144
0.0
144
0.0
144
1.0
147
0.0208333333333333
147
0.0
147
0.0
147
0.0
147
0.0
147
0.0208333333333333
147
0.0
147
0.0
147
0.0
147
0.0
147
1.0
147
0.0
147
0.0
147
0.0
147
0.0
147
1.0
  0
MATERIAL
  5
181C
102
{ACAD_XDICTIONARY
360
181D
102
}
102
{ACAD_REACTORS
330
17E9
102
}
330
17E9
100
AcDbMaterial
  1
Global
 72
     0
 43
0.0208333333333333
 43
0.0
 43
0.0
 43
0.0
 43
0.0
 43
0.0208333333333333
 43
0.0
 43
0.0
 43
0.0
 43
0.0
 43
1.0
 43
0.0
 43
0.0
 43
0.0
 43
0.0
 43
1.0
 77
     0
 47
0.0208333333333333
 47
0.0
 47
0.0
 47
0.0
 47
0.0
 47
0.0208333333333333
 47
0.0
 47
0.0
 47
0.0
 47
0.0
 47
1.0
 47
0.0
 47
0.0
 47
0.0
 47
0.0
 47
1.0
171
     0
 49
0.0208333333333333
 49
0.0
 49
0.0
 49
0.0
 49
0.0
 49
0.0208333333333333
 49
0.0
 49
0.0
 49
0.0
 49
0.0
 49
1.0
 49
0.0
 49
0.0
 49
0.0
 49
0.0
 49
1.0
175
     0
142
0.0208333333333333
142
0.0
142
0.0
142
0.0
142
0.0
142
0.0208333333333333
142
0.0
142
0.0
142
0.0
142
0.0
142
1.0
142
0.0
142
0.0
142
0.0
142
0.0
142
1.0
179
     0
144
0.0208333333333333
144
0.0
144
0.0
144
0.0
144
0.0
144
0.0208333333333333
144
0.0
144
0.0
144
0.0
144
0.0
144
1.0
144
0.0
144
0.0
144
0.0
144
0.0
144
1.0
147
0.0208333333333333
147
0.0
147
0.0
147
0.0
147
0.0
147
0.0208333333333333
147
0.0
147
0.0
147
0.0
147
0.0
147
1.0
147
0.0
147
0.0
147
0.0
147
0.0
147
1.0
  0
MLEADERSTYLE
  5
1858
102
{ACAD_REACTORS
330
1857
102
}
330
1857
100
AcDbMLeaderStyle
170
     2
171
     1
172
     0
 90
        2
 40
0.0
 41
0.0
173
     1
 91
-1056964608
340
12
 92
       -2
290
     1
 42
0.09
291
     1
 43
0.36
  3
Standard
 44
0.18
300

342
10
174
     1
178
     6
175
     1
176
     0
 93
-1056964608
 45
0.18
292
     0
297
     0
 46
0.18
 94
-1056964608
 47
1.0
 49
1.0
140
1.0
293
     1
141
0.0
294
     1
177
     0
142
1.0
295
     0
296
     0
143
0.125
1001
ACAD_MLEADERVER
1070
     2
  0
MLINESTYLE
  5
1B
102
{ACAD_REACTORS
330
E
102
}
330
E
100
AcDbMlineStyle
  2
STANDARD
 70
     0
  3

 62
     0
 51
90.0
 52
90.0
 71
     2
 49
0.5
 62
   256
  6
BYLAYER
 49
-0.5
 62
   256
  6
BYLAYER
  0
PLOTSETTINGS
  5
338
102
{ACAD_REACTORS
330
21D
102
}
330
21D
100
AcDbPlotSettings
  1
1055 B&W Full Shaded Draft
  2
1055B&WDraftShaded.pc3
  4
User607
  6

 40
0.0
 41
0.0
 42
0.0
 43
0.0
 44
901.7000122070312
 45
1155.700073242187
 46
0.0
 47
0.0
 48
180377.877572
 49
80019.819395
140
180380.839082
141
80022.26069
142
1.0
143
1.0
 70
   688
 72
     0
 73
     2
 74
     5
  7
1055B&WFullDraftShaded.ctb
 75
    16
147
1.0
 76
     0
 77
     2
 78
   300
148
-4581114.014650871
149
-2032337.53763678
  0
PLOTSETTINGS
  5
339
102
{ACAD_REACTORS
330
21D
102
}
330
21D
100
AcDbPlotSettings
  1
1055 B&W Full Shaded Final
  2
1055B&WFinalShaded.pc3
  4
User258
  6

 40
4.995333194732666
 41
8.297393798828125
 42
4.99530029296875
 43
8.29736328125
 44
761.9576416015624
 45
1066.757690429687
 46
0.0
 47
0.0
 48
180377.877572
 49
80019.819395
140
180380.839082
141
80022.26069
142
1.0
143
1.0
 70
   688
 72
     0
 73
     3
 74
     5
  7
1055B&WFullFinalShaded.ctb
 75
    16
147
1.0
 76
     0
 77
     2
 78
   300
148
-4581114.014650871
149
-2032337.53763678
  0
PLOTSETTINGS
  5
33A
102
{ACAD_REACTORS
330
21D
102
}
330
21D
100
AcDbPlotSettings
  1
1055 B&W Half Shaded Draft
  2
1055B&WDraftShaded.pc3
  4
User607
  6

 40
0.0
 41
0.0
 42
0.0
 43
0.0
 44
901.7000122070312
 45
1155.700073242187
 46
0.0
 47
0.0
 48
180377.877572
 49
80019.819395
140
180380.839082
141
80022.26069
142
1.0
143
2.0
 70
   688
 72
     0
 73
     2
 74
     5
  7
1055B&WHalfDraftShaded.ctb
 75
    17
147
0.5
 76
     0
 77
     2
 78
   300
148
-4581114.014650871
149
-2032337.53763678
  0
PLOTSETTINGS
  5
33B
102
{ACAD_REACTORS
330
21D
102
}
330
21D
100
AcDbPlotSettings
  1
1055 B&W Half Shaded Final
  2
1055B&WFinalShaded.pc3
  4
User258
  6

 40
4.995333194732666
 41
8.297393798828125
 42
4.99530029296875
 43
8.29736328125
 44
761.9576416015624
 45
1066.757690429687
 46
0.0
 47
0.0
 48
180377.877572
 49
80019.819395
140
180380.839082
141
80022.26069
142
1.0
143
2.0
 70
   688
 72
     0
 73
     3
 74
     5
  7
1055B&WHalfFinalShaded.ctb
 75
    17
147
0.5
 76
     0
 77
     2
 78
   300
148
-4581114.014650871
149
-2032337.53763678
  0
PLOTSETTINGS
  5
33C
102
{ACAD_REACTORS
330
21D
102
}
330
21D
100
AcDbPlotSettings
  1
1055 Color Full Shaded Draft
  2
1055ColorDraftShaded.pc3
  4
User607
  6

 40
0.0
 41
0.0
 42
0.0
 43
0.0
 44
901.7000122070312
 45
1155.700073242187
 46
0.0
 47
0.0
 48
180377.877572
 49
80019.819395
140
180380.839082
141
80022.26069
142
1.0
143
1.0
 70
   688
 72
     0
 73
     2
 74
     5
  7
1055ColorFullDraftShaded.ctb
 75
    16
147
1.0
 76
     0
 77
     2
 78
   300
148
-4581114.014650871
149
-2032337.53763678
  0
PLOTSETTINGS
  5
33D
102
{ACAD_REACTORS
330
21D
102
}
330
21D
100
AcDbPlotSettings
  1
1055 Color Full Shaded Final
  2
1055ColorFinalShaded.pc3
  4
User607
  6

 40
0.0
 41
0.0
 42
0.0
 43
0.0
 44
901.7000122070312
 45
1155.700073242187
 46
0.0
 47
0.0
 48
180377.877572
 49
80019.819395
140
180380.839082
141
80022.26069
142
1.0
143
1.0
 70
   688
 72
     0
 73
     2
 74
     5
  7
1055ColorFullFinalShaded.ctb
 75
    16
147
1.0
 76
     0
 77
     2
 78
   300
148
-4581114.014650871
149
-2032337.53763678
  0
PLOTSETTINGS
  5
33E
102
{ACAD_REACTORS
330
21D
102
}
330
21D
100
AcDbPlotSettings
  1
1055 Color Half Shaded Draft
  2
1055ColorDraftShaded.pc3
  4
User607
  6

 40
0.0
 41
0.0
 42
0.0
 43
0.0
 44
901.7000122070312
 45
1155.700073242187
 46
0.0
 47
0.0
 48
180377.877572
 49
80019.819395
140
180380.839082
141
80022.26069
142
1.0
143
1.0
 70
   688
 72
     0
 73
     2
 74
     5
  7
1055ColorHalfDraftShaded.ctb
 75
    16
147
1.0
 76
     0
 77
     2
 78
   300
148
-4581114.014650871
149
-2032337.53763678
  0
PLOTSETTINGS
  5
33F
102
{ACAD_REACTORS
330
21D
102
}
330
21D
100
AcDbPlotSettings
  1
1055 Color Half Shaded Final
  2
1055ColorFinalShaded.pc3
  4
User607
  6

 40
0.0
 41
0.0
 42
0.0
 43
0.0
 44
901.7000122070312
 45
1155.700073242187
 46
0.0
 47
0.0
 48
180377.877572
 49
80019.819395
140
180380.839082
141
80022.26069
142
1.0
143
1.0
 70
   688
 72
     0
 73
     2
 74
     5
  7
1055ColorHalfFinalShaded.ctb
 75
    16
147
1.0
 76
     0
 77
     2
 78
   300
148
-4581114.014650871
149
-2032337.53763678
  0
PLOTSETTINGS
  5
340
102
{ACAD_REACTORS
330
21D
102
}
330
21D
100
AcDbPlotSettings
  1
1055-B&W-Shaded-Draft
  2
1055B&WDraftShaded.pc3
  4
User257
  6

 40
4.995333194732666
 41
8.297393798828125
 42
4.99530029296875
 43
8.29736328125
 44
901.6152954101562
 45
1155.615356445312
 46
0.0
 47
0.0
 48
180360.0524337165
 49
80033.77936194791
140
180369.1574725906
141
80037.61796031875
142
1.0
143
1.0
 70
  1712
 72
     0
 73
     1
 74
     4
  7
1055B&WFullDraftShaded.ctb
 75
    16
147
1.0
 76
     0
 77
     2
 78
   300
148
-4581145.331816398
149
-2032857.995793477
  0
PLOTSETTINGS
  5
341
102
{ACAD_REACTORS
330
21D
102
}
330
21D
100
AcDbPlotSettings
  1
1055-B&W-Shaded-Final
  2
1055B&WFinalShaded.pc3
  4
User607
  6

 40
0.0
 41
0.0
 42
0.0
 43
0.0
 44
901.7000122070312
 45
1155.700073242187
 46
0.0
 47
0.0
 48
180360.0524337165
 49
80033.77936194791
140
180369.1574725906
141
80037.61796031875
142
1.0
143
1.0
 70
  1712
 72
     0
 73
     1
 74
     4
  7
1055B&WFullFinalShaded.ctb
 75
    16
147
1.0
 76
     0
 77
     2
 78
   300
148
-4581145.331816398
149
-2032857.995793477
  0
PLOTSETTINGS
  5
342
102
{ACAD_REACTORS
330
21D
102
}
330
21D
100
AcDbPlotSettings
  1
1055-Color-Shaded-Draft
  2
1055ColorDraftShaded.pc3
  4
User257
  6

 40
4.995333194732666
 41
8.297393798828125
 42
4.99530029296875
 43
8.29736328125
 44
901.6152954101562
 45
1155.615356445312
 46
0.0
 47
0.0
 48
180360.0524337165
 49
80033.77936194791
140
180369.1574725906
141
80037.61796031875
142
1.0
143
1.0
 70
  1712
 72
     0
 73
     1
 74
     4
  7
1055ColorFullDraftShaded.ctb
 75
    16
147
1.0
 76
     0
 77
     2
 78
   300
148
-4581145.331816398
149
-2032857.995793477
  0
PLOTSETTINGS
  5
343
102
{ACAD_REACTORS
330
21D
102
}
330
21D
100
AcDbPlotSettings
  1
1055-Color-Shaded-Final
  2
1055ColorDraftShaded.pc3
  4
User257
  6

 40
4.995333194732666
 41
8.297393798828125
 42
4.99530029296875
 43
8.29736328125
 44
901.6152954101562
 45
1155.615356445312
 46
0.0
 47
0.0
 48
180360.0524337165
 49
80033.77936194791
140
180369.1574725906
141
80037.61796031875
142
1.0
143
1.0
 70
  1712
 72
     0
 73
     1
 74
     4
  7
1055ColorFullFinalShaded.ctb
 75
    16
147
1.0
 76
     0
 77
     2
 78
   300
148
-4581145.331816398
149
-2032857.995793477
  0
PLOTSETTINGS
  5
344
102
{ACAD_REACTORS
330
21D
102
}
330
21D
100
AcDbPlotSettings
  1
8500 B&W Shaded 11x17
  2
8500B&WShaded.pc3
  4
11x17
  6

 40
5.027083396911621
 41
5.027085304260253
 42
5.027099609375
 43
5.027069091796875
 44
279.3999938964844
 45
431.7999877929687
 46
0.0
 47
5.588
 48
180377.877572
 49
80019.819395
140
180380.839082
141
80022.26069
142
1.0
143
0.8480629150589166
 70
   692
 72
     0
 73
     1
 74
     0
  7
8500B&WShaded.ctb
 75
     0
147
1.179157798605694
 76
     0
 77
     2
 78
   300
148
-4581114.014650871
149
-2032337.53763678
  0
PLOTSETTINGS
  5
345
102
{ACAD_REACTORS
330
21D
102
}
330
21D
100
AcDbPlotSettings
  1
8500 B&W Shaded 8.5x11
  2
8500B&WShaded.pc3
  4
Letter
  6

 40
5.027083396911621
 41
5.027085304260253
 42
5.027084350585937
 43
5.027069091796875
 44
215.8999938964844
 45
279.3999938964844
 46
14.478
 47
0.0
 48
180377.877572
 49
80019.819395
140
180380.839082
141
80022.26069
142
1.0
143
1.292286209488803
 70
   692
 72
     0
 73
     1
 74
     0
  7
8500B&WShaded.ctb
 75
     0
147
0.7738223875309912
 76
     0
 77
     2
 78
   300
148
-4581114.014650871
149
-2032337.53763678
  0
PLOTSETTINGS
  5
346
102
{ACAD_REACTORS
330
21D
102
}
330
21D
100
AcDbPlotSettings
  1
8500 Color Shaded 11x17
  2
8500ColorShaded.pc3
  4
11x17
  6

 40
5.027083396911621
 41
5.027085304260253
 42
5.027099609375
 43
5.027069091796875
 44
279.3999938964844
 45
431.7999877929687
 46
0.0
 47
5.588
 48
180377.877572
 49
80019.819395
140
180380.839082
141
80022.26069
142
1.0
143
0.8480629150589166
 70
   692
 72
     0
 73
     1
 74
     0
  7
8500ColorShaded.ctb
 75
     0
147
1.179157798605694
 76
     0
 77
     2
 78
   300
148
-4581114.014650871
149
-2032337.53763678
  0
PLOTSETTINGS
  5
347
102
{ACAD_REACTORS
330
21D
102
}
330
21D
100
AcDbPlotSettings
  1
8500 Color Shaded 8.5x11
  2
8500ColorShaded.pc3
  4
Letter
  6

 40
5.027083396911621
 41
5.027085304260253
 42
5.027084350585937
 43
5.027069091796875
 44
215.8999938964844
 45
279.3999938964844
 46
14.478
 47
0.0
 48
180377.877572
 49
80019.819395
140
180380.839082
141
80022.26069
142
1.0
143
1.292286209488803
 70
   692
 72
     0
 73
     1
 74
     0
  7
8500ColorShaded.ctb
 75
     0
147
0.7738223875309912
 76
     0
 77
     2
 78
   300
148
-4581114.014650871
149
-2032337.53763678
  0
PLOTSETTINGS
  5
348
102
{ACAD_REACTORS
330
21D
102
}
330
21D
100
AcDbPlotSettings
  1
8500-B&W-Shaded-11x17
  2
8500B&WShaded.pc3
  4
11x17
  6

 40
5.027083396911621
 41
5.027085304260253
 42
5.027099609375
 43
5.027069091796875
 44
279.3999938964844
 45
431.7999877929687
 46
0.0
 47
0.0
 48
180360.0524337165
 49
80033.77936194791
140
180369.1574725906
141
80037.61796031875
142
1.0
143
4.787622939151733
 70
  1712
 72
     0
 73
     1
 74
     0
  7
8500B&WShaded.ctb
 75
     0
147
0.2088719209322652
 76
     0
 77
     2
 78
   300
148
-4580581.320935756
149
-2032339.826086972
  0
PLOTSETTINGS
  5
349
102
{ACAD_REACTORS
330
21D
102
}
330
21D
100
AcDbPlotSettings
  1
8500-B&W-Shaded-8.5x11
  2
8500B&WShaded.pc3
  4
Letter
  6

 40
5.027083396911621
 41
5.027085304260253
 42
5.027084350585937
 43
5.027069091796875
 44
215.8999938964844
 45
279.3999938964844
 46
0.0
 47
0.0
 48
180360.0524337165
 49
80033.77936194791
140
180369.1574725906
141
80037.61796031875
142
1.0
143
1.400341199009821
 70
  1712
 72
     0
 73
     1
 74
     0
  7
8500B&WShaded.ctb
 75
     0
147
0.7141116755738516
 76
     0
 77
     2
 78
   300
148
0.0
149
0.0
  0
PLOTSETTINGS
  5
34A
102
{ACAD_REACTORS
330
21D
102
}
330
21D
100
AcDbPlotSettings
  1
8500-Color-Shaded-11x17
  2
8500ColorShaded.pc3
  4
11x17
  6

 40
5.027083396911621
 41
5.027085304260253
 42
5.027099609375
 43
5.027069091796875
 44
279.3999938964844
 45
431.7999877929687
 46
0.0
 47
0.0
 48
180360.0524337165
 49
80033.77936194791
140
180369.1574725906
141
80037.61796031875
142
1.0
143
4.787622939151733
 70
  1712
 72
     0
 73
     1
 74
     0
  7
8500ColorShaded.ctb
 75
     0
147
0.2088719209322652
 76
     0
 77
     2
 78
   300
148
-4580581.320935756
149
-2032339.826086972
  0
PLOTSETTINGS
  5
34B
102
{ACAD_REACTORS
330
21D
102
}
330
21D
100
AcDbPlotSettings
  1
8500-Color-Shaded-8.5x11
  2
8500ColorShaded.pc3
  4
Letter
  6

 40
5.027083396911621
 41
5.027085304260253
 42
5.027084350585937
 43
5.027069091796875
 44
215.8999938964844
 45
279.3999938964844
 46
0.0
 47
0.0
 48
180360.0524337165
 49
80033.77936194791
140
180369.1574725906
141
80037.61796031875
142
1.0
143
1.400341199009821
 70
  1712
 72
     0
 73
     1
 74
     0
  7
8500ColorShaded.ctb
 75
     0
147
0.7141116755738516
 76
     0
 77
     2
 78
   300
148
0.0
149
0.0
  0
PLOTSETTINGS
  5
34C
102
{ACAD_REACTORS
330
21D
102
}
330
21D
100
AcDbPlotSettings
  1
Laser Jet 5 Shaded 11x17
  2
LaserJet5Shaded.pc3
  4
11x17
  6

 40
7.143749713897705
 41
5.873736858367919
 42
7.143768310546875
 43
7.14373779296875
 44
279.3999938964844
 45
431.7999877929687
 46
0.0
 47
7.365999999999998
 48
180377.877572
 49
80019.819395
140
180380.839082
141
80022.26069
142
1.0
143
0.8616048444762743
 70
   692
 72
     0
 73
     1
 74
     0
  7
LaserJet5Shaded.ctb
 75
     0
147
1.160624857683859
 76
     0
 77
     2
 78
   300
148
-4581114.014650871
149
-2032337.53763678
  0
PLOTSETTINGS
  5
34D
102
{ACAD_REACTORS
330
21D
102
}
330
21D
100
AcDbPlotSettings
  1
Laser Jet 5 Shaded 8.5x11
  2
LaserJet5Shaded.pc3
  4
Letter
  6

 40
7.143749713897705
 41
6.974400997161865
 42
7.14373779296875
 43
6.297088623046875
 44
215.8999938964844
 45
279.3999938964844
 46
13.462
 47
0.0
 48
180377.877572
 49
80019.819395
140
180380.839082
141
80022.26069
142
1.0
143
1.307909180627428
 70
   692
 72
     0
 73
     1
 74
     0
  7
LaserJet5Shaded.ctb
 75
     0
147
0.7645790814927086
 76
     0
 77
     2
 78
   300
148
-4581114.014650871
149
-2032337.53763678
  0
PLOTSETTINGS
  5
34E
102
{ACAD_REACTORS
330
21D
102
}
330
21D
100
AcDbPlotSettings
  1
LaserJet5-Shaded-11x17
  2
LaserJet5Shaded.pc3
  4
11x17
  6

 40
7.143749713897705
 41
5.873736858367919
 42
7.143768310546875
 43
7.14373779296875
 44
279.3999938964844
 45
431.7999877929687
 46
0.0
 47
0.0
 48
180360.0524337165
 49
80033.77936194791
140
180369.1574725906
141
80037.61796031875
142
1.0
143
4.864072045424008
 70
  1712
 72
     0
 73
     1
 74
     0
  7
LaserJet5Shaded.ctb
 75
     0
147
0.205589060084086
 76
     0
 77
     2
 78
   300
148
-4580581.320935756
149
-2032339.826086972
  0
PLOTSETTINGS
  5
34F
102
{ACAD_REACTORS
330
21D
102
}
330
21D
100
AcDbPlotSettings
  1
LaserJet5-Shaded-8.5x11
  2
LaserJet5Shaded.pc3
  4
Letter
  6

 40
7.143749713897705
 41
6.974400997161865
 42
7.14373779296875
 43
6.297088623046875
 44
215.8999938964844
 45
279.3999938964844
 46
0.0
 47
0.0
 48
180360.0524337165
 49
80033.77936194791
140
180369.1574725906
141
80037.61796031875
142
1.0
143
1.417270490660323
 70
  1712
 72
     0
 73
     1
 74
     0
  7
LaserJet5Shaded.ctb
 75
     0
147
0.7055816138061886
 76
     0
 77
     2
 78
   300
148
0.0
149
0.0
  0
ACDBPLACEHOLDER
  5
21B
102
{ACAD_REACTORS
330
21A
102
}
330
21A
  0
SCALE
  5
1836
102
{ACAD_REACTORS
330
1835
102
}
330
1835
100
AcDbScale
 70
     0
300
1:1
140
1.0
141
1.0
290
     1
  0
SCALE
  5
1837
102
{ACAD_REACTORS
330
1835
102
}
330
1835
100
AcDbScale
 70
     0
300
1:2
140
1.0
141
2.0
290
     0
  0
SCALE
  5
1838
102
{ACAD_REACTORS
330
1835
102
}
330
1835
100
AcDbScale
 70
     0
300
1:4
140
1.0
141
4.0
290
     0
  0
SCALE
  5
1839
102
{ACAD_REACTORS
330
1835
102
}
330
1835
100
AcDbScale
 70
     0
300
1:5
140
1.0
141
5.0
290
     0
  0
SCALE
  5
183A
102
{ACAD_REACTORS
330
1835
102
}
330
1835
100
AcDbScale
 70
     0
300
1:8
140
1.0
141
8.0
290
     0
  0
SCALE
  5
183B
102
{ACAD_REACTORS
330
1835
102
}
330
1835
100
AcDbScale
 70
     0
300
1:10
140
1.0
141
10.0
290
     0
  0
SCALE
  5
183C
102
{ACAD_REACTORS
330
1835
102
}
330
1835
100
AcDbScale
 70
     0
300
1:16
140
1.0
141
16.0
290
     0
  0
SCALE
  5
183D
102
{ACAD_REACTORS
330
1835
102
}
330
1835
100
AcDbScale
 70
     0
300
1:20
140
1.0
141
20.0
290
     0
  0
SCALE
  5
183E
102
{ACAD_REACTORS
330
1835
102
}
330
1835
100
AcDbScale
 70
     0
300
1:30
140
1.0
141
30.0
290
     0
  0
SCALE
  5
183F
102
{ACAD_REACTORS
330
1835
102
}
330
1835
100
AcDbScale
 70
     0
300
1:40
140
1.0
141
40.0
290
     0
  0
SCALE
  5
1840
102
{ACAD_REACTORS
330
1835
102
}
330
1835
100
AcDbScale
 70
     0
300
1:50
140
1.0
141
50.0
290
     0
  0
SCALE
  5
1841
102
{ACAD_REACTORS
330
1835
102
}
330
1835
100
AcDbScale
 70
     0
300
1:100
140
1.0
141
100.0
290
     0
  0
SCALE
  5
1842
102
{ACAD_REACTORS
330
1835
102
}
330
1835
100
AcDbScale
 70
     0
300
2:1
140
2.0
141
1.0
290
     0
  0
SCALE
  5
1843
102
{ACAD_REACTORS
330
1835
102
}
330
1835
100
AcDbScale
 70
     0
300
4:1
140
4.0
141
1.0
290
     0
  0
SCALE
  5
1844
102
{ACAD_REACTORS
330
1835
102
}
330
1835
100
AcDbScale
 70
     0
300
8:1
140
8.0
141
1.0
290
     0
  0
SCALE
  5
1845
102
{ACAD_REACTORS
330
1835
102
}
330
1835
100
AcDbScale
 70
     0
300
10:1
140
10.0
141
1.0
290
     0
  0
SCALE
  5
1846
102
{ACAD_REACTORS
330
1835
102
}
330
1835
100
AcDbScale
 70
     0
300
100:1
140
100.0
141
1.0
290
     0
  0
SCALE
  5
1847
102
{ACAD_REACTORS
330
1835
102
}
330
1835
100
AcDbScale
 70
     0
300
1/128" = 1'-0"
140
0.0078125
141
12.0
290
     0
  0
SCALE
  5
1848
102
{ACAD_REACTORS
330
1835
102
}
330
1835
100
AcDbScale
 70
     0
300
1/64" = 1'-0"
140
0.015625
141
12.0
290
     0
  0
SCALE
  5
1849
102
{ACAD_REACTORS
330
1835
102
}
330
1835
100
AcDbScale
 70
     0
300
1/32" = 1'-0"
140
0.03125
141
12.0
290
     0
  0
SCALE
  5
184A
102
{ACAD_REACTORS
330
1835
102
}
330
1835
100
AcDbScale
 70
     0
300
1/16" = 1'-0"
140
0.0625
141
12.0
290
     0
  0
SCALE
  5
184B
102
{ACAD_REACTORS
330
1835
102
}
330
1835
100
AcDbScale
 70
     0
300
3/32" = 1'-0"
140
0.09375
141
12.0
290
     0
  0
SCALE
  5
184C
102
{ACAD_REACTORS
330
1835
102
}
330
1835
100
AcDbScale
 70
     0
300
1/8" = 1'-0"
140
0.125
141
12.0
290
     0
  0
SCALE
  5
184D
102
{ACAD_REACTORS
330
1835
102
}
330
1835
100
AcDbScale
 70
     0
300
3/16" = 1'-0"
140
0.1875
141
12.0
290
     0
  0
SCALE
  5
184E
102
{ACAD_REACTORS
330
1835
102
}
330
1835
100
AcDbScale
 70
     0
300
1/4" = 1'-0"
140
0.25
141
12.0
290
     0
  0
SCALE
  5
184F
102
{ACAD_REACTORS
330
1835
102
}
330
1835
100
AcDbScale
 70
     0
300
3/8" = 1'-0"
140
0.375
141
12.0
290
     0
  0
SCALE
  5
1850
102
{ACAD_REACTORS
330
1835
102
}
330
1835
100
AcDbScale
 70
     0
300
1/2" = 1'-0"
140
0.5
141
12.0
290
     0
  0
SCALE
  5
1851
102
{ACAD_REACTORS
330
1835
102
}
330
1835
100
AcDbScale
 70
     0
300
3/4" = 1'-0"
140
0.75
141
12.0
290
     0
  0
SCALE
  5
1852
102
{ACAD_REACTORS
330
1835
102
}
330
1835
100
AcDbScale
 70
     0
300
1" = 1'-0"
140
1.0
141
12.0
290
     0
  0
SCALE
  5
1853
102
{ACAD_REACTORS
330
1835
102
}
330
1835
100
AcDbScale
 70
     0
300
1-1/2" = 1'-0"
140
1.5
141
12.0
290
     0
  0
SCALE
  5
1854
102
{ACAD_REACTORS
330
1835
102
}
330
1835
100
AcDbScale
 70
     0
300
3" = 1'-0"
140
3.0
141
12.0
290
     0
  0
SCALE
  5
1855
102
{ACAD_REACTORS
330
1835
102
}
330
1835
100
AcDbScale
 70
     0
300
6" = 1'-0"
140
6.0
141
12.0
290
     0
  0
SCALE
  5
1856
102
{ACAD_REACTORS
330
1835
102
}
330
1835
100
AcDbScale
 70
     0
300
1'-0" = 1'-0"
140
12.0
141
12.0
290
     0
  0
TABLESTYLE
  5
17EC
102
{ACAD_XDICTIONARY
360
18A5
102
}
102
{ACAD_REACTORS
330
17EB
102
}
330
17EB
100
AcDbTableStyle
  3
Standard
 70
     0
 71
     0
 40
0.06
 41
0.06
280
     0
281
     0
  7
STANDARD
140
0.18
170
     2
 62
     0
 63
     7
283
     0
274
    -2
284
     1
 64
     0
275
    -2
285
     1
 65
     0
276
    -2
286
     1
 66
     0
277
    -2
287
     1
 67
     0
278
    -2
288
     1
 68
     0
279
    -2
289
     1
 69
     0
  7
STANDARD
140
0.25
170
     5
 62
     0
 63
     7
283
     0
274
    -2
284
     1
 64
     0
275
    -2
285
     1
 65
     0
276
    -2
286
     1
 66
     0
277
    -2
287
     1
 67
     0
278
    -2
288
     1
 68
     0
279
    -2
289
     1
 69
     0
  7
STANDARD
140
0.18
170
     5
 62
     0
 63
     7
283
     0
274
    -2
284
     1
 64
     0
275
    -2
285
     1
 65
     0
276
    -2
286
     1
 66
     0
277
    -2
287
     1
 67
     0
278
    -2
288
     1
 68
     0
279
    -2
289
     1
 69
     0
  0
VISUALSTYLE
  5
182A
102
{ACAD_REACTORS
330
1824
102
}
330
1824
100
AcDbVisualStyle
  2
2dWireframe
 70
     4
 71
     0
 72
     2
 73
     0
 90
        0
 40
-0.6
 41
-30.0
 62
     5
 63
     7
421
 16777215
 74
     1
 91
        4
 64
     7
 65
   257
 75
     1
175
     1
 42
1.0
 92
        0
 66
   257
 43
1.0
 76
     1
 77
     6
 78
     2
 67
     7
 79
     5
170
     0
171
     0
290
     0
174
     0
 93
        1
 44
0.0
173
     0
291
     0
 45
0.0
1001
ACAD
1000
AcDbSavedByObjectVersion
1070
     0
  0
VISUALSTYLE
  5
182C
102
{ACAD_REACTORS
330
1824
102
}
330
1824
100
AcDbVisualStyle
  2
3D Hidden
 70
     6
 71
     1
 72
     2
 73
     2
 90
        0
 40
-0.6
 41
-30.0
 62
     5
 63
     7
421
 16777215
 74
     2
 91
        2
 64
     7
 65
   257
 75
     2
175
     1
 42
40.0
 92
        0
 66
   257
 43
1.0
 76
     1
 77
     6
 78
     2
 67
     7
 79
     3
170
     0
171
     0
290
     0
174
     0
 93
        1
 44
0.0
173
     0
291
     0
 45
0.0
1001
ACAD
1000
AcDbSavedByObjectVersion
1070
     0
  0
VISUALSTYLE
  5
182B
102
{ACAD_REACTORS
330
1824
102
}
330
1824
100
AcDbVisualStyle
  2
3dWireframe
 70
     5
 71
     0
 72
     2
 73
     0
 90
        0
 40
-0.6
 41
-30.0
 62
     5
 63
     7
421
 16777215
 74
     1
 91
        4
 64
     7
 65
   257
 75
     1
175
     1
 42
1.0
 92
        0
 66
   257
 43
1.0
 76
     1
 77
     6
 78
     2
 67
     7
 79
     5
170
     0
171
     0
290
     0
174
     0
 93
        1
 44
0.0
173
     0
291
     0
 45
0.0
1001
ACAD
1000
AcDbSavedByObjectVersion
1070
     0
  0
VISUALSTYLE
  5
1829
102
{ACAD_REACTORS
330
1824
102
}
330
1824
100
AcDbVisualStyle
  2
Basic
 70
     7
 71
     1
 72
     0
 73
     1
 90
        0
 40
-0.6
 41
-30.0
 62
     5
 63
     7
421
 16777215
 74
     0
 91
        4
 64
     7
 65
   257
 75
     1
175
     1
 42
1.0
 92
        8
 66
     7
 43
1.0
 76
     1
 77
     6
 78
     2
 67
     7
 79
     5
170
     0
171
     0
290
     0
174
     0
 93
        1
 44
0.0
173
     0
291
     1
 45
0.0
1001
ACAD
1000
AcDbSavedByObjectVersion
1070
     0
  0
VISUALSTYLE
  5
1830
102
{ACAD_REACTORS
330
1824
102
}
330
1824
100
AcDbVisualStyle
  2
Brighten
 70
    12
 71
     2
 72
     2
 73
     0
 90
        0
 40
-0.6
 41
-30.0
 62
     5
 63
     7
421
 16777215
 74
     1
 91
        4
 64
     7
 65
   257
 75
     1
175
     1
 42
1.0
 92
        8
 66
     7
 43
1.0
 76
     1
 77
     6
 78
     2
 67
     7
 79
     5
170
     0
171
     0
290
     0
174
     0
 93
        1
 44
50.0
173
     0
291
     1
 45
0.0
1001
ACAD
1000
AcDbSavedByObjectVersion
1070
     0
  0
VISUALSTYLE
  5
1834
102
{ACAD_REACTORS
330
1824
102
}
330
1824
100
AcDbVisualStyle
  2
ColorChange
 70
    16
 71
     2
 72
     2
 73
     3
 90
        0
 40
-0.6
 41
-30.0
 62
     5
 63
     8
421
  8421504
 74
     1
 91
        4
 64
     7
 65
   257
 75
     1
175
     1
 42
1.0
 92
        8
 66
     8
424
  8421504
 43
1.0
 76
     1
 77
     6
 78
     2
 67
     7
 79
     5
170
     0
171
     0
290
     0
174
     0
 93
        1
 44
0.0
173
     0
291
     1
 45
0.0
1001
ACAD
1000
AcDbSavedByObjectVersion
1070
     0
  0
VISUALSTYLE
  5
182D
102
{ACAD_REACTORS
330
1824
102
}
330
1824
100
AcDbVisualStyle
  2
Conceptual
 70
     9
 71
     3
 72
     2
 73
     0
 90
        0
 40
-0.6
 41
-30.0
 62
     5
 63
     7
421
 16777215
 74
     2
 91
        2
 64
     7
 65
   257
 75
     1
175
     1
 42
40.0
 92
        8
 66
     7
 43
1.0
 76
     1
 77
     6
 78
     2
 67
     7
 79
     3
170
     0
171
     0
290
     0
174
     0
 93
        1
 44
0.0
173
     0
291
     0
 45
0.0
1001
ACAD
1000
AcDbSavedByObjectVersion
1070
     0
  0
VISUALSTYLE
  5
182F
102
{ACAD_REACTORS
330
1824
102
}
330
1824
100
AcDbVisualStyle
  2
Dim
 70
    11
 71
     2
 72
     2
 73
     0
 90
        0
 40
-0.6
 41
-30.0
 62
     5
 63
     7
421
 16777215
 74
     1
 91
        4
 64
     7
 65
   257
 75
     1
175
     1
 42
1.0
 92
        8
 66
     7
 43
1.0
 76
     1
 77
     6
 78
     2
 67
     7
 79
     5
170
     0
171
     0
290
     0
174
     0
 93
        1
 44
-50.0
173
     0
291
     1
 45
0.0
1001
ACAD
1000
AcDbSavedByObjectVersion
1070
     0
  0
VISUALSTYLE
  5
1833
102
{ACAD_REACTORS
330
1824
102
}
330
1824
100
AcDbVisualStyle
  2
Facepattern
 70
    15
 71
     2
 72
     2
 73
     0
 90
        0
 40
-0.6
 41
-30.0
 62
     5
 63
     7
421
 16777215
 74
     1
 91
        4
 64
     7
 65
   257
 75
     1
175
     1
 42
1.0
 92
        8
 66
     7
 43
1.0
 76
     1
 77
     6
 78
     2
 67
     7
 79
     5
170
     0
171
     0
290
     0
174
     0
 93
        1
 44
0.0
173
     0
291
     1
 45
0.0
1001
ACAD
1000
AcDbSavedByObjectVersion
1070
     0
  0
VISUALSTYLE
  5
1825
102
{ACAD_REACTORS
330
1824
102
}
330
1824
100
AcDbVisualStyle
  2
Flat
 70
     0
 71
     2
 72
     1
 73
     1
 90
        2
 40
-0.6
 41
30.0
 62
     5
 63
     7
421
 16777215
 74
     0
 91
        4
 64
     7
 65
   257
 75
     1
175
     1
 42
1.0
 92
        8
 66
     7
 43
1.0
 76
     1
 77
     6
 78
     2
 67
     7
 79
     5
170
     0
171
     0
290
     0
174
     0
 93
       13
 44
0.0
173
     0
291
     1
 45
0.0
1001
ACAD
1000
AcDbSavedByObjectVersion
1070
     0
  0
VISUALSTYLE
  5
1826
102
{ACAD_REACTORS
330
1824
102
}
330
1824
100
AcDbVisualStyle
  2
FlatWithEdges
 70
     1
 71
     2
 72
     1
 73
     1
 90
        2
 40
-0.6
 41
30.0
 62
     5
 63
     7
421
 16777215
 74
     1
 91
        4
 64
     7
 65
   257
 75
     1
175
     1
 42
1.0
 92
        0
 66
   257
 43
1.0
 76
     1
 77
     6
 78
     2
 67
     7
 79
     5
170
     0
171
     0
290
     0
174
     0
 93
       13
 44
0.0
173
     0
291
     1
 45
0.0
1001
ACAD
1000
AcDbSavedByObjectVersion
1070
     0
  0
VISUALSTYLE
  5
1827
102
{ACAD_REACTORS
330
1824
102
}
330
1824
100
AcDbVisualStyle
  2
Gouraud
 70
     2
 71
     2
 72
     2
 73
     1
 90
        2
 40
-0.6
 41
30.0
 62
     5
 63
     7
421
 16777215
 74
     0
 91
        4
 64
     7
 65
   257
 75
     1
175
     1
 42
1.0
 92
        0
 66
     7
 43
1.0
 76
     1
 77
     6
 78
     2
 67
     7
 79
     5
170
     0
171
     0
290
     0
174
     0
 93
       13
 44
0.0
173
     0
291
     1
 45
0.0
1001
ACAD
1000
AcDbSavedByObjectVersion
1070
     0
  0
VISUALSTYLE
  5
1828
102
{ACAD_REACTORS
330
1824
102
}
330
1824
100
AcDbVisualStyle
  2
GouraudWithEdges
 70
     3
 71
     2
 72
     2
 73
     1
 90
        2
 40
-0.6
 41
30.0
 62
     5
 63
     7
421
 16777215
 74
     1
 91
        4
 64
     7
 65
   257
 75
     1
175
     1
 42
1.0
 92
        0
 66
   257
 43
1.0
 76
     1
 77
     6
 78
     2
 67
     7
 79
     5
170
     0
171
     0
290
     0
174
     0
 93
       13
 44
0.0
173
     0
291
     1
 45
0.0
1001
ACAD
1000
AcDbSavedByObjectVersion
1070
     0
  0
VISUALSTYLE
  5
1832
102
{ACAD_REACTORS
330
1824
102
}
330
1824
100
AcDbVisualStyle
  2
Linepattern
 70
    14
 71
     2
 72
     2
 73
     0
 90
        0
 40
-0.6
 41
-30.0
 62
     5
 63
     7
421
 16777215
 74
     1
 91
        4
 64
     7
 65
   257
 75
     7
175
     7
 42
1.0
 92
        8
 66
     7
 43
1.0
 76
     1
 77
     6
 78
     2
 67
     7
 79
     5
170
     0
171
     0
290
     0
174
     0
 93
        1
 44
0.0
173
     0
291
     1
 45
0.0
1001
ACAD
1000
AcDbSavedByObjectVersion
1070
     0
  0
VISUALSTYLE
  5
182E
102
{ACAD_REACTORS
330
1824
102
}
330
1824
100
AcDbVisualStyle
  2
Realistic
 70
     8
 71
     2
 72
     2
 73
     0
 90
        0
 40
-0.6
 41
-30.0
 62
     5
 63
     7
421
 16777215
 74
     1
 91
        0
 64
     7
 65
   257
 75
     1
175
     1
 42
1.0
 92
        8
 66
     8
424
  7895160
 43
1.0
 76
     1
 77
     6
 78
     2
 67
     7
 79
     5
170
     0
171
     0
290
     0
174
     0
 93
       13
 44
0.0
173
     0
291
     0
 45
0.0
1001
ACAD
1000
AcDbSavedByObjectVersion
1070
     0
  0
VISUALSTYLE
  5
1831
102
{ACAD_REACTORS
330
1824
102
}
330
1824
100
AcDbVisualStyle
  2
Thicken
 70
    13
 71
     2
 72
     2
 73
     0
 90
        0
 40
-0.6
 41
-30.0
 62
     5
 63
     7
421
 16777215
 74
     1
 91
        4
 64
     7
 65
   257
 75
     1
175
     1
 42
1.0
 92
       12
 66
     7
 43
1.0
 76
     1
 77
     6
 78
     2
 67
     7
 79
     5
170
     0
171
     0
290
     0
174
     0
 93
        1
 44
0.0
173
     0
291
     1
 45
0.0
1001
ACAD
1000
AcDbSavedByObjectVersion
1070
     0
  0
DICTIONARYVAR
  5
18AA
102
{ACAD_REACTORS
330
24B
102
}
330
24B
100
DictionaryVariables
280
     0
  1
1:1
  0
DICTIONARYVAR
  5
18A8
102
{ACAD_REACTORS
330
24B
102
}
330
24B
100
DictionaryVariables
280
     0
  1
STANDARD
  0
DICTIONARYVAR
  5
17F2
102
{ACAD_REACTORS
330
24B
102
}
330
24B
100
DictionaryVariables
280
     0
  1
STANDARD
  0
DICTIONARYVAR
  5
24C
102
{ACAD_REACTORS
330
24B
102
}
330
24B
100
DictionaryVariables
280
     0
  1
1
  0
DICTIONARYVAR
  5
17F3
102
{ACAD_REACTORS
330
24B
102
}
330
24B
100
DictionaryVariables
280
     0
  1
3
  0
DICTIONARYVAR
  5
195B
102
{ACAD_REACTORS
330
24B
102
}
330
24B
100
DictionaryVariables
280
     0
  1
0
  0
DICTIONARYVAR
  5
18AC
102
{ACAD_REACTORS
330
24B
102
}
330
24B
100
DictionaryVariables
280
     0
  1
15
  0
DICTIONARYVAR
  5
18AB
102
{ACAD_REACTORS
330
24B
102
}
330
24B
100
DictionaryVariables
280
     0
  1
0
  0
DICTIONARYVAR
  5
18A9
102
{ACAD_REACTORS
330
24B
102
}
330
24B
100
DictionaryVariables
280
     0
  1
0
  0
DICTIONARYVAR
  5
14B0
102
{ACAD_REACTORS
330
24B
102
}
330
24B
100
DictionaryVariables
280
     0
  1
1
  0
XRECORD
  5
1808
102
{ACAD_REACTORS
330
1807
102
}
330
1807
100
AcDbXrecord
280
     1
330
15D1
330
15D9
330
15DE
330
15E8
330
15FA
330
15FE
330
1602
330
1606
330
1739
330
173E
330
17CF
330
12DF
330
12E2
330
12E5
330
12E8
330
12EB
330
12EE
330
12F1
330
12F4
330
12F7
330
12FA
330
12FD
330
1300
330
1303
330
1306
330
1309
330
130C
330
131E
330
1324
330
1330
330
1336
330
1339
330
133C
330
133F
330
1345
330
1348
330
134B
330
C50
  0
XRECORD
  5
1943
102
{ACAD_REACTORS
330
1940
102
}
330
1940
100
AcDbXrecord
280
     1
  1
_0100-
  1
*0100-*
  1
*
  1
*
 70
     0
  1
*
  1
*
  0
XRECORD
  5
1942
102
{ACAD_REACTORS
330
1940
102
}
330
1940
100
AcDbXrecord
280
     1
  1
_0280-
  1
*0280-*
  1
*
  1
*
 70
     0
  1
*
  1
*
  0
XRECORD
  5
1945
102
{ACAD_REACTORS
330
1940
102
}
330
1940
100
AcDbXrecord
280
     1
  1
_Add Alternate
  1
*add*alt*
  1
*
  1
*
 70
     0
  1
*
  1
*
  0
XRECORD
  5
1946
102
{ACAD_REACTORS
330
1940
102
}
330
1940
100
AcDbXrecord
280
     1
  1
_Bid Alternate
  1
*bid*alt*
  1
*
  1
*
 70
     0
  1
*
  1
*
  0
XRECORD
  5
1948
102
{ACAD_REACTORS
330
1940
102
}
330
1940
100
AcDbXrecord
280
     1
  1
_Color 253
  1
*
  1
253
  1
*
 70
     0
  1
*
  1
*
  0
XRECORD
  5
1944
102
{ACAD_REACTORS
330
1940
102
}
330
1940
100
AcDbXrecord
280
     1
  1
_Color 8
  1
*
  1
8
  1
*
 70
     0
  1
*
  1
*
  0
XRECORD
  5
1947
102
{ACAD_REACTORS
330
1940
102
}
330
1940
100
AcDbXrecord
280
     1
  1
_Color 84
  1
*
  1
84
  1
*
 70
     0
  1
*
  1
*
  0
XRECORD
  5
194E
102
{ACAD_REACTORS
330
1940
102
}
330
1940
100
AcDbXrecord
280
     1
  1
_Contours
  1
*contour*,*cont-*,*cp cont*,*p-cont*
  1
*
  1
*
 70
     0
  1
*
  1
*
  0
XRECORD
  5
1949
102
{ACAD_REACTORS
330
1940
102
}
330
1940
100
AcDbXrecord
280
     1
  1
_Demo
  1
*demo*
  1
*
  1
*
 70
     0
  1
*
  1
*
  0
XRECORD
  5
194A
102
{ACAD_REACTORS
330
1940
102
}
330
1940
100
AcDbXrecord
280
     1
  1
_Existing
  1
*exist*,*ex*
  1
*
  1
*
 70
     0
  1
*
  1
*
  0
XRECORD
  5
194D
102
{ACAD_REACTORS
330
1940
102
}
330
1940
100
AcDbXrecord
280
     1
  1
_Hardscape
  1
*sidewalk*,*sw*,*curb*,*walk*,*-lip*,*tbc*
  1
*
  1
*
 70
     0
  1
*
  1
*
  0
XRECORD
  5
1941
102
{ACAD_REACTORS
330
1940
102
}
330
1940
100
AcDbXrecord
280
     1
  1
_NoXref
  1
~*|*
  1
*
  1
*
 70
     0
  1
*
  1
*
  0
XRECORD
  5
194B
102
{ACAD_REACTORS
330
1940
102
}
330
1940
100
AcDbXrecord
280
     1
  1
_Row
  1
*row*
  1
*
  1
*
 70
     0
  1
*
  1
*
  0
XRECORD
  5
194C
102
{ACAD_REACTORS
330
1940
102
}
330
1940
100
AcDbXrecord
280
     1
  1
_Utility
  1
*ut-*,*utility*,*wat*
  1
*
  1
*
 70
     0
  1
*
  1
*
  0
DICTIONARY
  5
1815
330
1814
100
AcDbDictionary
280
     1
281
     1
  3
ACAD_XREC_ROUNDTRIP
360
196C
  3
BUMPTILE
360
1817
  3
DIFFUSETILE
360
1816
  3
OPACITYTILE
360
181A
  3
REFLECTIONTILE
360
1819
  3
REFRACTIONTILE
360
181B
  3
SPECULARTILE
360
1818
  0
DICTIONARY
  5
180D
330
180C
100
AcDbDictionary
280
     1
281
     1
  3
ACAD_XREC_ROUNDTRIP
360
196B
  3
BUMPTILE
360
180F
  3
DIFFUSETILE
360
180E
  3
OPACITYTILE
360
1812
  3
REFLECTIONTILE
360
1811
  3
REFRACTIONTILE
360
1813
  3
SPECULARTILE
360
1810
  0
DICTIONARY
  5
181D
330
181C
100
AcDbDictionary
280
     1
281
     1
  3
ACAD_XREC_ROUNDTRIP
360
196D
  3
BUMPTILE
360
181F
  3
DIFFUSETILE
360
181E
  3
OPACITYTILE
360
1822
  3
REFLECTIONTILE
360
1821
  3
REFRACTIONTILE
360
1823
  3
SPECULARTILE
360
1820
  0
DICTIONARY
  5
18A5
330
17EC
100
AcDbDictionary
280
     1
281
     1
  3
ACAD_ROUNDTRIP_2008_TABLESTYLE_CELLSTYLEMAP
360
1969
  3
ACAD_XREC_ROUNDTRIP
360
196A
  0
XRECORD
  5
196C
102
{ACAD_REACTORS
330
1815
102
}
330
1815
100
AcDbXrecord
280
     1
102
MATERIAL
148
0.0
149
0.0
149
0.0
 93
        0
 94
      127
282
     0
 72
     0
 77
     0
171
     0
175
     0
179
     0
273
     0
  0
XRECORD
  5
1817
102
{ACAD_REACTORS
330
1815
102
}
330
1815
100
AcDbXrecord
280
     1
270
     1
271
     1
  0
XRECORD
  5
1816
102
{ACAD_REACTORS
330
1815
102
}
330
1815
100
AcDbXrecord
280
     1
270
     1
271
     1
  0
XRECORD
  5
181A
102
{ACAD_REACTORS
330
1815
102
}
330
1815
100
AcDbXrecord
280
     1
270
     1
271
     1
  0
XRECORD
  5
1819
102
{ACAD_REACTORS
330
1815
102
}
330
1815
100
AcDbXrecord
280
     1
270
     1
271
     1
  0
XRECORD
  5
181B
102
{ACAD_REACTORS
330
1815
102
}
330
1815
100
AcDbXrecord
280
     1
270
     1
271
     1
  0
XRECORD
  5
1818
102
{ACAD_REACTORS
330
1815
102
}
330
1815
100
AcDbXrecord
280
     1
270
     1
271
     1
  0
XRECORD
  5
196B
102
{ACAD_REACTORS
330
180D
102
}
330
180D
100
AcDbXrecord
280
     1
102
MATERIAL
148
0.0
149
0.0
149
0.0
 93
        0
 94
      127
282
     0
 72
     0
 77
     0
171
     0
175
     0
179
     0
273
     0
  0
XRECORD
  5
180F
102
{ACAD_REACTORS
330
180D
102
}
330
180D
100
AcDbXrecord
280
     1
270
     1
271
     1
  0
XRECORD
  5
180E
102
{ACAD_REACTORS
330
180D
102
}
330
180D
100
AcDbXrecord
280
     1
270
     1
271
     1
  0
XRECORD
  5
1812
102
{ACAD_REACTORS
330
180D
102
}
330
180D
100
AcDbXrecord
280
     1
270
     1
271
     1
  0
XRECORD
  5
1811
102
{ACAD_REACTORS
330
180D
102
}
330
180D
100
AcDbXrecord
280
     1
270
     1
271
     1
  0
XRECORD
  5
1813
102
{ACAD_REACTORS
330
180D
102
}
330
180D
100
AcDbXrecord
280
     1
270
     1
271
     1
  0
XRECORD
  5
1810
102
{ACAD_REACTORS
330
180D
102
}
330
180D
100
AcDbXrecord
280
     1
270
     1
271
     1
  0
XRECORD
  5
196D
102
{ACAD_REACTORS
330
181D
102
}
330
181D
100
AcDbXrecord
280
     1
102
MATERIAL
148
0.0
149
0.0
149
0.0
 93
        0
 94
      127
282
     0
 72
     0
 77
     0
171
     0
175
     0
179
     0
273
     0
  0
XRECORD
  5
181F
102
{ACAD_REACTORS
330
181D
102
}
330
181D
100
AcDbXrecord
280
     1
270
     1
271
     1
  0
XRECORD
  5
181E
102
{ACAD_REACTORS
330
181D
102
}
330
181D
100
AcDbXrecord
280
     1
270
     1
271
     1
  0
XRECORD
  5
1822
102
{ACAD_REACTORS
330
181D
102
}
330
181D
100
AcDbXrecord
280
     1
270
     1
271
     1
  0
XRECORD
  5
1821
102
{ACAD_REACTORS
330
181D
102
}
330
181D
100
AcDbXrecord
280
     1
270
     1
271
     1
  0
XRECORD
  5
1823
102
{ACAD_REACTORS
330
181D
102
}
330
181D
100
AcDbXrecord
280
     1
270
     1
271
     1
  0
XRECORD
  5
1820
102
{ACAD_REACTORS
330
181D
102
}
330
181D
100
AcDbXrecord
280
     1
270
     1
271
     1
  0
CELLSTYLEMAP
  5
1969
102
{ACAD_REACTORS
330
18A5
102
}
330
18A5
100
AcDbCellStyleMap
 90
        3
300
CELLSTYLE
  1
TABLEFORMAT_BEGIN
 90
        5
170
     1
 91
        0
 92
    32768
 62
   257
 93
        1
300
CONTENTFORMAT
  1
CONTENTFORMAT_BEGIN
 90
        0
 91
        0
 92
        4
 93
        0
300

 40
0.0
140
1.0
 94
        5
 62
     0
340
10
144
0.25
309
CONTENTFORMAT_END
171
     0
 94
        6
 95
        1
302
GRIDFORMAT
  1
GRIDFORMAT_BEGIN
 90
        0
 91
        1
 62
     0
 92
       -2
340
0
 93
        0
 40
0.045
309
GRIDFORMAT_END
 95
        2
302
GRIDFORMAT
  1
GRIDFORMAT_BEGIN
 90
        0
 91
        1
 62
     0
 92
       -2
340
0
 93
        0
 40
0.045
309
GRIDFORMAT_END
 95
        4
302
GRIDFORMAT
  1
GRIDFORMAT_BEGIN
 90
        0
 91
        1
 62
     0
 92
       -2
340
0
 93
        0
 40
0.045
309
GRIDFORMAT_END
 95
        8
302
GRIDFORMAT
  1
GRIDFORMAT_BEGIN
 90
        0
 91
        1
 62
     0
 92
       -2
340
0
 93
        0
 40
0.045
309
GRIDFORMAT_END
 95
       16
302
GRIDFORMAT
  1
GRIDFORMAT_BEGIN
 90
        0
 91
        1
 62
     0
 92
       -2
340
0
 93
        0
 40
0.045
309
GRIDFORMAT_END
 95
       32
302
GRIDFORMAT
  1
GRIDFORMAT_BEGIN
 90
        0
 91
        1
 62
     0
 92
       -2
340
0
 93
        0
 40
0.045
309
GRIDFORMAT_END
309
TABLEFORMAT_END
  1
CELLSTYLE_BEGIN
 90
        1
 91
        1
300
_TITLE
309
CELLSTYLE_END
300
CELLSTYLE
  1
TABLEFORMAT_BEGIN
 90
        5
170
     1
 91
        0
 92
        0
 62
   257
 93
        1
300
CONTENTFORMAT
  1
CONTENTFORMAT_BEGIN
 90
        0
 91
        0
 92
        4
 93
        0
300

 40
0.0
140
1.0
 94
        5
 62
     0
340
10
144
0.18
309
CONTENTFORMAT_END
171
     0
 94
        6
 95
        1
302
GRIDFORMAT
  1
GRIDFORMAT_BEGIN
 90
        0
 91
        1
 62
     0
 92
       -2
340
0
 93
        0
 40
0.045
309
GRIDFORMAT_END
 95
        2
302
GRIDFORMAT
  1
GRIDFORMAT_BEGIN
 90
        0
 91
        1
 62
     0
 92
       -2
340
0
 93
        0
 40
0.045
309
GRIDFORMAT_END
 95
        4
302
GRIDFORMAT
  1
GRIDFORMAT_BEGIN
 90
        0
 91
        1
 62
     0
 92
       -2
340
0
 93
        0
 40
0.045
309
GRIDFORMAT_END
 95
        8
302
GRIDFORMAT
  1
GRIDFORMAT_BEGIN
 90
        0
 91
        1
 62
     0
 92
       -2
340
0
 93
        0
 40
0.045
309
GRIDFORMAT_END
 95
       16
302
GRIDFORMAT
  1
GRIDFORMAT_BEGIN
 90
        0
 91
        1
 62
     0
 92
       -2
340
0
 93
        0
 40
0.045
309
GRIDFORMAT_END
 95
       32
302
GRIDFORMAT
  1
GRIDFORMAT_BEGIN
 90
        0
 91
        1
 62
     0
 92
       -2
340
0
 93
        0
 40
0.045
309
GRIDFORMAT_END
309
TABLEFORMAT_END
  1
CELLSTYLE_BEGIN
 90
        2
 91
        1
300
_HEADER
309
CELLSTYLE_END
300
CELLSTYLE
  1
TABLEFORMAT_BEGIN
 90
        5
170
     1
 91
        0
 92
        0
 62
   257
 93
        1
300
CONTENTFORMAT
  1
CONTENTFORMAT_BEGIN
 90
        0
 91
        0
 92
        4
 93
        0
300

 40
0.0
140
1.0
 94
        2
 62
     0
340
10
144
0.18
309
CONTENTFORMAT_END
171
     0
 94
        6
 95
        1
302
GRIDFORMAT
  1
GRIDFORMAT_BEGIN
 90
        0
 91
        1
 62
     0
 92
       -2
340
0
 93
        0
 40
0.045
309
GRIDFORMAT_END
 95
        2
302
GRIDFORMAT
  1
GRIDFORMAT_BEGIN
 90
        0
 91
        1
 62
     0
 92
       -2
340
0
 93
        0
 40
0.045
309
GRIDFORMAT_END
 95
        4
302
GRIDFORMAT
  1
GRIDFORMAT_BEGIN
 90
        0
 91
        1
 62
     0
 92
       -2
340
0
 93
        0
 40
0.045
309
GRIDFORMAT_END
 95
        8
302
GRIDFORMAT
  1
GRIDFORMAT_BEGIN
 90
        0
 91
        1
 62
     0
 92
       -2
340
0
 93
        0
 40
0.045
309
GRIDFORMAT_END
 95
       16
302
GRIDFORMAT
  1
GRIDFORMAT_BEGIN
 90
        0
 91
        1
 62
     0
 92
       -2
340
0
 93
        0
 40
0.045
309
GRIDFORMAT_END
 95
       32
302
GRIDFORMAT
  1
GRIDFORMAT_BEGIN
 90
        0
 91
        1
 62
     0
 92
       -2
340
0
 93
        0
 40
0.045
309
GRIDFORMAT_END
309
TABLEFORMAT_END
  1
CELLSTYLE_BEGIN
 90
        3
 91
        2
300
_DATA
309
CELLSTYLE_END
  0
XRECORD
  5
196A
102
{ACAD_REACTORS
330
18A5
102
}
330
18A5
100
AcDbXrecord
280
     1
102
ACAD_ROUNDTRIP_PRE2007_TABLESTYLE
 90
        4
 91
        0
  1

 92
        4
 93
        0
  2

 94
        4
 95
        0
  3

  0
ENDSEC
  0
EOF
