  0
SECTION
  2
HEADER
  9
$ACADVER
  1
AC1018
  9
$ACADMAINTVER
 70
   104
  9
$DWGCODEPAGE
  3
ANSI_1252
  9
$LASTSAVEDBY
  1
dweyer
  9
$INSBASE
 10
0.0
 20
0.0
 30
0.0
  9
$EXTMIN
 10
0.0
 20
0.0
 30
0.0
  9
$EXTMAX
 10
16.48999999999999
 20
10.44
 30
0.03
  9
$LIMMIN
 10
0.0
 20
0.0
  9
$LIMMAX
 10
34.0
 20
22.0
  9
$ORTHOMODE
 70
     1
  9
$REGENMODE
 70
     1
  9
$FILLMODE
 70
     1
  9
$QTEXTMODE
 70
     0
  9
$MIRRTEXT
 70
     0
  9
$LTSCALE
 40
1.0
  9
$ATTMODE
 70
     1
  9
$TEXTSIZE
 40
0.125
  9
$TRACEWID
 40
0.05
  9
$TEXTSTYLE
  7
ROMANS
  9
$CLAYER
  8
title
  9
$CELTYPE
  6
ByLayer
  9
$CECOLOR
 62
   256
  9
$CELTSCALE
 40
1.0
  9
$DISPSILH
 70
     0
  9
$DIMSCALE
 40
1.0
  9
$DIMASZ
 40
0.13
  9
$DIMEXO
 40
0.1
  9
$DIMDLI
 40
0.38
  9
$DIMRND
 40
0.0
  9
$DIMDLE
 40
0.0
  9
$DIMEXE
 40
0.125
  9
$DIMTP
 40
0.0
  9
$DIMTM
 40
0.0
  9
$DIMTXT
 40
0.125
  9
$DIMCEN
 40
0.09
  9
$DIMTSZ
 40
0.0
  9
$DIMTOL
 70
     0
  9
$DIMLIM
 70
     0
  9
$DIMTIH
 70
     1
  9
$DIMTOH
 70
     1
  9
$DIMSE1
 70
     0
  9
$DIMSE2
 70
     0
  9
$DIMTAD
 70
     1
  9
$DIMZIN
 70
     1
  9
$DIMBLK
  1

  9
$DIMASO
 70
     1
  9
$DIMSHO
 70
     1
  9
$DIMPOST
  1

  9
$DIMAPOST
  1

  9
$DIMALT
 70
     0
  9
$DIMALTD
 70
     2
  9
$DIMALTF
 40
25.4
  9
$DIMLFAC
 40
2.0
  9
$DIMTOFL
 70
     0
  9
$DIMTVP
 40
0.0
  9
$DIMTIX
 70
     0
  9
$DIMSOXD
 70
     0
  9
$DIMSAH
 70
     0
  9
$DIMBLK1
  1

  9
$DIMBLK2
  1

  9
$DIMSTYLE
  2
Standard
  9
$DIMCLRD
 70
   256
  9
$DIMCLRE
 70
   256
  9
$DIMCLRT
 70
   256
  9
$DIMTFAC
 40
1.0
  9
$DIMGAP
 40
0.06
  9
$DIMJUST
 70
     0
  9
$DIMSD1
 70
     0
  9
$DIMSD2
 70
     0
  9
$DIMTOLJ
 70
     1
  9
$DIMTZIN
 70
     1
  9
$DIMALTZ
 70
     0
  9
$DIMALTTZ
 70
     0
  9
$DIMUPT
 70
     0
  9
$DIMDEC
 70
     4
  9
$DIMTDEC
 70
     4
  9
$DIMALTU
 70
     2
  9
$DIMALTTD
 70
     2
  9
$DIMTXSTY
  7
Arial
  9
$DIMAUNIT
 70
     0
  9
$DIMADEC
 70
     0
  9
$DIMALTRND
 40
0.0
  9
$DIMAZIN
 70
     0
  9
$DIMDSEP
 70
    46
  9
$DIMATFIT
 70
     3
  9
$DIMFRAC
 70
     0
  9
$DIMLDRBLK
  1

  9
$DIMLUNIT
 70
     2
  9
$DIMLWD
 70
    -1
  9
$DIMLWE
 70
    -1
  9
$DIMTMOVE
 70
     0
  9
$LUNITS
 70
     2
  9
$LUPREC
 70
     3
  9
$SKETCHINC
 40
0.1
  9
$FILLETRAD
 40
0.0
  9
$AUNITS
 70
     0
  9
$AUPREC
 70
     0
  9
$MENU
  1
.
  9
$ELEVATION
 40
0.0
  9
$PELEVATION
 40
0.0
  9
$THICKNESS
 40
0.0
  9
$LIMCHECK
 70
     0
  9
$CHAMFERA
 40
0.5
  9
$CHAMFERB
 40
0.5
  9
$CHAMFERC
 40
1.0
  9
$CHAMFERD
 40
0.0
  9
$SKPOLY
 70
     0
  9
$TDCREATE
 40
2455513.513676111
  9
$TDUCREATE
 40
2455513.805342778
  9
$TDUPDATE
 40
2455572.544285625
  9
$TDUUPDATE
 40
2455572.835952292
  9
$TDINDWG
 40
0.2479966898
  9
$TDUSRTIMER
 40
0.2479966898
  9
$USRTIMER
 70
     1
  9
$ANGBASE
 50
0.0
  9
$ANGDIR
 70
     0
  9
$PDMODE
 70
     0
  9
$PDSIZE
 40
-1.0
  9
$PLINEWID
 40
0.0
  9
$SPLFRAME
 70
     0
  9
$SPLINETYPE
 70
     6
  9
$SPLINESEGS
 70
     8
  9
$HANDSEED
  5
1BBF
  9
$SURFTAB1
 70
     6
  9
$SURFTAB2
 70
     6
  9
$SURFTYPE
 70
     6
  9
$SURFU
 70
     6
  9
$SURFV
 70
     6
  9
$UCSBASE
  2

  9
$UCSNAME
  2

  9
$UCSORG
 10
0.0
 20
0.0
 30
0.0
  9
$UCSXDIR
 10
1.0
 20
0.0
 30
0.0
  9
$UCSYDIR
 10
0.0
 20
1.0
 30
0.0
  9
$UCSORTHOREF
  2

  9
$UCSORTHOVIEW
 70
     0
  9
$UCSORGTOP
 10
0.0
 20
0.0
 30
0.0
  9
$UCSORGBOTTOM
 10
0.0
 20
0.0
 30
0.0
  9
$UCSORGLEFT
 10
0.0
 20
0.0
 30
0.0
  9
$UCSORGRIGHT
 10
0.0
 20
0.0
 30
0.0
  9
$UCSORGFRONT
 10
0.0
 20
0.0
 30
0.0
  9
$UCSORGBACK
 10
0.0
 20
0.0
 30
0.0
  9
$PUCSBASE
  2

  9
$PUCSNAME
  2

  9
$PUCSORG
 10
0.0
 20
0.0
 30
0.0
  9
$PUCSXDIR
 10
1.0
 20
0.0
 30
0.0
  9
$PUCSYDIR
 10
0.0
 20
1.0
 30
0.0
  9
$PUCSORTHOREF
  2

  9
$PUCSORTHOVIEW
 70
     0
  9
$PUCSORGTOP
 10
0.0
 20
0.0
 30
0.0
  9
$PUCSORGBOTTOM
 10
0.0
 20
0.0
 30
0.0
  9
$PUCSORGLEFT
 10
0.0
 20
0.0
 30
0.0
  9
$PUCSORGRIGHT
 10
0.0
 20
0.0
 30
0.0
  9
$PUCSORGFRONT
 10
0.0
 20
0.0
 30
0.0
  9
$PUCSORGBACK
 10
0.0
 20
0.0
 30
0.0
  9
$USERI1
 70
     0
  9
$USERI2
 70
     0
  9
$USERI3
 70
     0
  9
$USERI4
 70
     0
  9
$USERI5
 70
     0
  9
$USERR1
 40
0.0
  9
$USERR2
 40
0.0
  9
$USERR3
 40
0.0
  9
$USERR4
 40
0.0
  9
$USERR5
 40
0.0
  9
$WORLDVIEW
 70
     1
  9
$SHADEDGE
 70
     3
  9
$SHADEDIF
 70
    70
  9
$TILEMODE
 70
     1
  9
$MAXACTVP
 70
    64
  9
$PINSBASE
 10
0.0
 20
0.0
 30
0.0
  9
$PLIMCHECK
 70
     0
  9
$PEXTMIN
 10
1.000000000000000E+20
 20
1.000000000000000E+20
 30
1.000000000000000E+20
  9
$PEXTMAX
 10
-1.000000000000000E+20
 20
-1.000000000000000E+20
 30
-1.000000000000000E+20
  9
$PLIMMIN
 10
0.0
 20
0.0
  9
$PLIMMAX
 10
12.0
 20
9.0
  9
$UNITMODE
 70
     0
  9
$VISRETAIN
 70
     1
  9
$PLINEGEN
 70
     1
  9
$PSLTSCALE
 70
     1
  9
$TREEDEPTH
 70
  3020
  9
$CMLSTYLE
  2
Standard
  9
$CMLJUST
 70
     0
  9
$CMLSCALE
 40
1.0
  9
$PROXYGRAPHICS
 70
     1
  9
$MEASUREMENT
 70
     0
  9
$CELWEIGHT
370
    -1
  9
$ENDCAPS
280
     0
  9
$JOINSTYLE
280
     0
  9
$LWDISPLAY
290
     0
  9
$INSUNITS
 70
     0
  9
$HYPERLINKBASE
  1

  9
$STYLESHEET
  1
LaserJet5Shaded.ctb
  9
$XEDIT
290
     1
  9
$CEPSNTYPE
380
     0
  9
$PSTYLEMODE
290
     1
  9
$FINGERPRINTGUID
  2
{48E80890-3C56-429F-924E-F9482EE24750}
  9
$VERSIONGUID
  2
{5A8B7151-B63B-44FD-B33A-FD91BB41A9AE}
  9
$EXTNAMES
290
     1
  9
$PSVPSCALE
 40
0.0
  9
$OLESTARTUP
290
     1
  9
$SORTENTS
280
    48
  9
$INDEXCTL
280
     0
  9
$HIDETEXT
280
     0
  9
$XCLIPFRAME
290
     0
  9
$HALOGAP
280
     0
  9
$OBSCOLOR
 70
   257
  9
$OBSLTYPE
280
     0
  9
$INTERSECTIONDISPLAY
280
     0
  9
$INTERSECTIONCOLOR
 70
   257
  9
$DIMASSOC
280
     1
  9
$PROJECTNAME
  1

  0
ENDSEC
  0
SECTION
  2
CLASSES
  0
CLASS
  1
ACDBDICTIONARYWDFLT
  2
AcDbDictionaryWithDefault
  3
ObjectDBX Classes
 90
        0
 91
        1
280
     0
281
     0
  0
CLASS
  1
VISUALSTYLE
  2
AcDbVisualStyle
  3
ObjectDBX Classes
 90
     4095
 91
       16
280
     0
281
     0
  0
CLASS
  1
MATERIAL
  2
AcDbMaterial
  3
ObjectDBX Classes
 90
     1153
 91
        3
280
     0
281
     0
  0
CLASS
  1
TABLESTYLE
  2
AcDbTableStyle
  3
ObjectDBX Classes
 90
     4095
 91
        1
280
     0
281
     0
  0
CLASS
  1
SCALE
  2
AcDbScale
  3
ObjectDBX Classes
 90
     1153
 91
        1
280
     0
281
     0
  0
CLASS
  1
MLEADERSTYLE
  2
AcDbMLeaderStyle
  3
ACDB_MLEADERSTYLE_CLASS
 90
     4095
 91
        1
280
     0
281
     0
  0
CLASS
  1
EXACXREFPANELOBJECT
  2
ExAcXREFPanelObject
  3
EXAC_ESW
 90
     1025
 91
        0
280
     0
281
     0
  0
CLASS
  1
NPOCOLLECTION
  2
AcDbImpNonPersistentObjectsCollection
  3
ObjectDBX Classes
 90
     1153
 91
        0
280
     0
281
     0
  0
CLASS
  1
CELLSTYLEMAP
  2
AcDbCellStyleMap
  3
ObjectDBX Classes
 90
     1152
 91
        4
280
     0
281
     0
  0
CLASS
  1
DICTIONARYVAR
  2
AcDbDictionaryVar
  3
ObjectDBX Classes
 90
        0
 91
        9
280
     0
281
     0
  0
CLASS
  1
SORTENTSTABLE
  2
AcDbSortentsTable
  3
ObjectDBX Classes
 90
        0
 91
        2
280
     0
281
     0
  0
CLASS
  1
PLOTSETTINGS
  2
AcDbPlotSettings
  3
ObjectDBX Classes
 90
        0
 91
       78
280
     0
281
     0
  0
ENDSEC
  0
SECTION
  2
TABLES
  0
TABLE
  2
VPORT
  5
8
330
0
100
AcDbSymbolTable
 70
     1
  0
VPORT
  5
29
330
8
100
AcDbSymbolTableRecord
100
AcDbViewportTableRecord
  2
*Active
 70
     0
 10
0.0
 20
0.0
 11
1.0
 21
1.0
 12
8.244999999999995
 22
5.219999999999999
 13
0.0
 23
0.0
 14
0.5
 24
0.5
 15
0.5
 25
0.5
 16
0.0
 26
0.0
 36
1.0
 17
0.0
 27
0.0
 37
0.0
 40
10.52010230179028
 41
1.676056338028169
 42
50.0
 43
0.0
 44
0.0
 50
0.0
 51
0.0
 71
     0
 72
  1000
 73
     1
 74
     1
 75
     0
 76
     0
 77
     0
 78
     0
281
     0
 65
     1
110
0.0
120
0.0
130
0.0
111
1.0
121
0.0
131
0.0
112
0.0
122
1.0
132
0.0
 79
     0
146
0.0
  0
ENDTAB
  0
TABLE
  2
LTYPE
  5
5
330
0
100
AcDbSymbolTable
 70
     1
  0
LTYPE
  5
14
330
5
100
AcDbSymbolTableRecord
100
AcDbLinetypeTableRecord
  2
ByBlock
 70
     0
  3

 72
    65
 73
     0
 40
0.0
  0
LTYPE
  5
15
330
5
100
AcDbSymbolTableRecord
100
AcDbLinetypeTableRecord
  2
ByLayer
 70
     0
  3

 72
    65
 73
     0
 40
0.0
  0
LTYPE
  5
16
330
5
100
AcDbSymbolTableRecord
100
AcDbLinetypeTableRecord
  2
Continuous
 70
     0
  3
Solid line
 72
    65
 73
     0
 40
0.0
  0
ENDTAB
  0
TABLE
  2
LAYER
  5
2
102
{ACAD_XDICTIONARY
360
309
102
}
330
0
100
AcDbSymbolTable
 70
     4
  0
LAYER
  5
10
330
2
100
AcDbSymbolTableRecord
100
AcDbLayerTableRecord
  2
0
 70
     0
 62
     7
  6
Continuous
370
    -3
390
F
  0
LAYER
  5
337
330
2
100
AcDbSymbolTableRecord
100
AcDbLayerTableRecord
  2
image
 70
     0
 62
     7
  6
Continuous
370
     0
390
F
  0
LAYER
  5
B91
330
2
100
AcDbSymbolTableRecord
100
AcDbLayerTableRecord
  2
text_bubbles
 70
     0
 62
     6
  6
Continuous
370
    -3
390
F
  0
LAYER
  5
B92
330
2
100
AcDbSymbolTableRecord
100
AcDbLayerTableRecord
  2
title
 70
     0
 62
     4
  6
Continuous
370
    -3
390
F
  0
ENDTAB
  0
TABLE
  2
STYLE
  5
3
330
0
100
AcDbSymbolTable
 70
     7
  0
STYLE
  5
11
330
3
100
AcDbSymbolTableRecord
100
AcDbTextStyleTableRecord
  2
Standard
 70
     0
 40
0.0
 41
1.0
 50
0.0
 71
     0
 42
0.125
  3
txt
  4

  0
STYLE
  5
338
330
3
100
AcDbSymbolTableRecord
100
AcDbTextStyleTableRecord
  2
ROMANS
 70
     0
 40
0.0
 41
1.0
 50
0.0
 71
     0
 42
0.125
  3
romans.shx
  4

  0
STYLE
  5
339
330
3
100
AcDbSymbolTableRecord
100
AcDbTextStyleTableRecord
  2
Arial
 70
     0
 40
0.0
 41
1.0
 50
0.0
 71
     0
 42
0.2
  3
ARIAL.TTF
  4

1001
ACAD
1000
Arial
1071
       34
  0
STYLE
  5
B93
330
3
100
AcDbSymbolTableRecord
100
AcDbTextStyleTableRecord
  2
L100
 70
     0
 40
0.1
 41
1.0
 50
0.0
 71
     0
 42
0.1
  3
romans.shx
  4

  0
STYLE
  5
B94
330
3
100
AcDbSymbolTableRecord
100
AcDbTextStyleTableRecord
  2
L200
 70
     0
 40
0.2
 41
1.0
 50
0.0
 71
     0
 42
0.081
  3
ARIAL.TTF
  4

1001
ACAD
1000
Arial
1071
       34
  0
STYLE
  5
B95
330
3
100
AcDbSymbolTableRecord
100
AcDbTextStyleTableRecord
  2
L80
 70
     0
 40
0.08
 41
1.0
 50
0.0
 71
     0
 42
0.08
  3
romans__.ttf
  4

1001
ACAD
1000
RomanS
1071
        2
  0
STYLE
  5
B96
330
3
100
AcDbSymbolTableRecord
100
AcDbTextStyleTableRecord
  2
WIDFlagNote
 70
     0
 40
0.0
 41
1.0
 50
0.0
 71
     0
 42
0.2
  3
romans.shx
  4

  0
ENDTAB
  0
TABLE
  2
VIEW
  5
6
330
0
100
AcDbSymbolTable
 70
     0
  0
ENDTAB
  0
TABLE
  2
UCS
  5
7
330
0
100
AcDbSymbolTable
 70
     0
  0
ENDTAB
  0
TABLE
  2
APPID
  5
9
330
0
100
AcDbSymbolTable
 70
     8
  0
APPID
  5
12
330
9
100
AcDbSymbolTableRecord
100
AcDbRegAppTableRecord
  2
ACAD
 70
     0
  0
APPID
  5
33A
330
9
100
AcDbSymbolTableRecord
100
AcDbRegAppTableRecord
  2
ACAD_PSEXT
 70
     0
  0
APPID
  5
33B
330
9
100
AcDbSymbolTableRecord
100
AcDbRegAppTableRecord
  2
BBSI_PltSel
 70
     0
  0
APPID
  5
33C
330
9
100
AcDbSymbolTableRecord
100
AcDbRegAppTableRecord
  2
BBSI_Plots
 70
     0
  0
APPID
  5
33D
330
9
100
AcDbSymbolTableRecord
100
AcDbRegAppTableRecord
  2
BBSI_Bookmarks
 70
     0
  0
APPID
  5
33E
330
9
100
AcDbSymbolTableRecord
100
AcDbRegAppTableRecord
  2
BBSI_BookmarksEx
 70
     0
  0
APPID
  5
1B66
330
9
100
AcDbSymbolTableRecord
100
AcDbRegAppTableRecord
  2
ACAD_MLEADERVER
 70
     0
  0
APPID
  5
1B7C
330
9
100
AcDbSymbolTableRecord
100
AcDbRegAppTableRecord
  2
ACAD_EXEMPT_FROM_CAD_STANDARDS
 70
     0
  0
ENDTAB
  0
TABLE
  2
DIMSTYLE
  5
A
330
0
100
AcDbSymbolTable
 70
     1
100
AcDbDimStyleTable
 71
     1
340
27
  0
DIMSTYLE
105
27
102
{ACAD_REACTORS
330
12F1
102
}
330
A
100
AcDbSymbolTableRecord
100
AcDbDimStyleTableRecord
  2
Standard
 70
     0
340
11
  0
ENDTAB
  0
TABLE
  2
BLOCK_RECORD
  5
1
330
0
100
AcDbSymbolTable
 70
     3
  0
BLOCK_RECORD
  5
1F
102
{ACAD_XDICTIONARY
360
642
102
}
330
1
100
AcDbSymbolTableRecord
100
AcDbBlockTableRecord
  2
*Model_Space
340
22
  0
BLOCK_RECORD
  5
1B
330
1
100
AcDbSymbolTableRecord
100
AcDbBlockTableRecord
  2
*Paper_Space
340
1E
  0
BLOCK_RECORD
  5
23
330
1
100
AcDbSymbolTableRecord
100
AcDbBlockTableRecord
  2
*Paper_Space0
340
26
  0
BLOCK_RECORD
  5
B7C
102
{ACAD_XDICTIONARY
360
B7D
102
}
330
1
100
AcDbSymbolTableRecord
100
AcDbBlockTableRecord
  2
titleblock
340
0
102
{BLKREFS
331
1816
102
}
  0
BLOCK_RECORD
  5
B8C
330
1
100
AcDbSymbolTableRecord
100
AcDbBlockTableRecord
  2
WID_FlagNote
340
0
102
{BLKREFS
331
D91
331
D94
331
D97
331
D9A
331
D9D
331
DA0
331
DA9
331
DB0
331
DB4
331
DB8
331
DBC
331
E17
331
E1B
331
12E9
331
12EC
331
1418
331
142A
331
146D
331
1847
331
184A
331
1882
331
1885
102
}
  0
ENDTAB
  0
ENDSEC
  0
SECTION
  2
BLOCKS
  0
BLOCK
  5
20
330
1F
100
AcDbEntity
  8
0
100
AcDbBlockBegin
  2
*Model_Space
 70
     0
 10
0.0
 20
0.0
 30
0.0
  3
*Model_Space
  1

  0
ENDBLK
  5
21
330
1F
100
AcDbEntity
  8
0
100
AcDbBlockEnd
  0
BLOCK
  5
1C
330
1B
100
AcDbEntity
 67
     1
  8
0
100
AcDbBlockBegin
  2
*Paper_Space
 70
     0
 10
0.0
 20
0.0
 30
0.0
  3
*Paper_Space
  1

  0
ENDBLK
  5
1D
330
1B
100
AcDbEntity
 67
     1
  8
0
100
AcDbBlockEnd
  0
BLOCK
  5
24
330
23
100
AcDbEntity
 67
     1
  8
0
100
AcDbBlockBegin
  2
*Paper_Space0
 70
     0
 10
0.0
 20
0.0
 30
0.0
  3
*Paper_Space0
  1

  0
ENDBLK
  5
25
330
23
100
AcDbEntity
 67
     1
  8
0
100
AcDbBlockEnd
  0
BLOCK
  5
B7F
330
B7C
100
AcDbEntity
  8
0
100
AcDbBlockBegin
  2
titleblock
 70
     2
 10
0.0
 20
0.0
 30
0.0
  3
titleblock
  1

  0
LWPOLYLINE
  5
B80
330
B7C
100
AcDbEntity
  8
title
100
AcDbPolyline
 90
        4
 70
     1
 43
0.0
 10
0.0
 20
0.0
 10
16.48999999999999
 20
0.0000000000000001
 10
16.48999999999999
 20
10.44
 10
0.0
 20
10.44
  0
ATTDEF
  5
B81
330
B7C
100
AcDbEntity
  8
title
100
AcDbText
 10
0.5055556038023421
 20
0.7842270964783673
 30
0.0
 40
0.2
  1
D
  7
L200
 72
     4
 11
0.6064423705144839
 21
0.8842270964783672
 31
0.0
100
AcDbAttributeDefinition
  3
#
  2
D
 70
     0
  0
ATTDEF
  5
B82
330
B7C
100
AcDbEntity
  8
title
100
AcDbText
 10
1.231442370514484
 20
1.34371230274675
 30
0.0
 40
0.2
  1

  7
L200
100
AcDbAttributeDefinition
  3
DETAIL TITLE TOP LINE
  2
TITLE1
 70
     0
  0
ATTDEF
  5
B83
330
B7C
100
AcDbEntity
  8
title
100
AcDbText
 10
1.231442370514484
 20
0.9842270964783674
 30
0.0
 40
0.2
  1
TITLE
  7
L200
100
AcDbAttributeDefinition
  3
DETAIL TITLE TOP 2ND LINE
  2
TITLE2
 70
     0
  0
ATTDEF
  5
B84
330
B7C
100
AcDbEntity
  8
title
100
AcDbText
 10
2.713645751168312
 20
0.5927927664583189
 30
0.0
 40
0.2
  1
TITLE2
  7
L200
100
AcDbAttributeDefinition
  3
DETAIL TITLE BOTTOM 1
  2
TITLE3
 70
     0
  0
ATTDEF
  5
B85
330
B7C
100
AcDbEntity
  8
title
100
AcDbText
 10
2.713645751168312
 20
0.2692560808167742
 30
0.0
 40
0.2
  1

  7
L200
100
AcDbAttributeDefinition
  3
DETAIL TITLE BOTTOM 2
  2
TITLE4
 70
     0
  0
ATTDEF
  5
B86
330
B7C
100
AcDbEntity
  8
title
 62
     7
100
AcDbText
 10
8.161366009492066
 20
0.9696027915446398
 30
0.0
 40
0.08
  1
-
  7
L80
 72
     2
 11
8.261024353775903
 21
0.9696027915446398
 31
0.0
100
AcDbAttributeDefinition
  3
REVISION DATE
  2
REVISED
 70
     0
  0
ATTDEF
  5
B87
330
B7C
100
AcDbEntity
  8
title
 62
     7
100
AcDbText
 10
0.2639423705144838
 20
0.0847116480207214
 30
0.0
 40
0.08
  1
-
  7
L80
100
AcDbAttributeDefinition
  3
DWG-NAME
  2
DWG-NAME
 70
     0
  0
LWPOLYLINE
  5
B88
330
B7C
100
AcDbEntity
  8
title
 62
     3
100
AcDbPolyline
 90
        2
 70
     1
 43
0.03
 10
0.6064423705144839
 20
0.5417270964783675
 42
0.9999999999999998
 10
0.6064423705144839
 20
1.226727096478367
 42
0.9999999999999998
  0
ATTDEF
  5
B89
330
B7C
100
AcDbEntity
  8
title
 62
     7
100
AcDbText
 10
1.231442370514484
 20
0.7005637793954894
 30
0.0
 40
0.1
  1
N.T.S.
  7
L100
100
AcDbAttributeDefinition
  3
SCALE
  2
SCALE
 70
     0
  0
LWPOLYLINE
  5
B8A
330
B7C
100
AcDbEntity
  8
title
 62
     3
100
AcDbPolyline
 90
        2
 70
     0
 43
0.04
 39
0.03
 10
0.9489423705144833
 20
0.8842270964783672
 10
9.549043953889972
 20
0.8842270964783672
  0
ENDBLK
  5
B8B
330
B7C
100
AcDbEntity
  8
0
100
AcDbBlockEnd
  0
BLOCK
  5
B8D
330
B8C
100
AcDbEntity
  8
0
100
AcDbBlockBegin
  2
WID_FlagNote
 70
     2
 10
0.0
 20
0.0
 30
0.0
  3
WID_FlagNote
  1

  0
ATTDEF
  5
B8E
330
B8C
100
AcDbEntity
  8
0
100
AcDbText
 10
-0.1952382215798419
 20
-0.4028965029082807
 30
0.0
 40
0.5
  1
1
  7
WIDFlagNote
 72
     4
 11
0.0071427308011105
 21
-0.1528965029082807
 31
0.0
100
AcDbAttributeDefinition
  3
NUMBER
  2
NO.
 70
     0
  0
CIRCLE
  5
B8F
330
B8C
100
AcDbEntity
  8
0
100
AcDbCircle
 10
0.0071427308011105
 20
-0.1528965029082807
 30
0.0
 40
0.562531146117974
  0
ENDBLK
  5
B90
330
B8C
100
AcDbEntity
  8
0
100
AcDbBlockEnd
  0
ENDSEC
  0
SECTION
  2
ENTITIES
  0
CIRCLE
  5
41
330
1F
100
AcDbEntity
  8
image
100
AcDbCircle
 10
4.875558673482288
 20
8.610287617194083
 30
0.0
 40
0.0556207653373929
  0
CIRCLE
  5
42
330
1F
100
AcDbEntity
  8
image
100
AcDbCircle
 10
4.118348610861503
 20
7.558110665424138
 30
0.0
 40
0.0556207653373927
  0
SPLINE
  5
43
330
1F
100
AcDbEntity
  8
image
100
AcDbSpline
210
0.0
220
0.0
230
1.0
 70
    24
 71
     1
 72
     4
 73
     2
 74
     0
 42
0.0000000001
 43
0.0000000001
 40
0.0
 40
0.0
 40
1.0
 40
1.0
 10
3.182589683927176
 20
8.317053614216113
 30
0.0
 10
3.182589683927176
 20
8.305173327126899
 30
0.0
  0
SPLINE
  5
44
330
1F
100
AcDbEntity
  8
image
100
AcDbSpline
210
0.0
220
0.0
230
1.0
 70
    24
 71
     1
 72
     4
 73
     2
 74
     0
 42
0.0000000001
 43
0.0000000001
 40
0.0
 40
0.0
 40
1.0
 40
1.0
 10
3.182589683927176
 20
8.279949162272258
 30
0.0
 10
3.182589683927176
 20
8.2316963622638
 30
0.0
  0
SPLINE
  5
45
330
1F
100
AcDbEntity
  8
image
100
AcDbSpline
210
0.0
220
0.0
230
1.0
 70
    24
 71
     1
 72
     4
 73
     2
 74
     0
 42
0.0000000001
 43
0.0000000001
 40
0.0
 40
0.0
 40
1.0
 40
1.0
 10
3.182589683927176
 20
8.206472197409159
 30
0.0
 10
3.182589683927176
 20
8.193612255771505
 30
0.0
  0
SPLINE
  5
46
330
1F
100
AcDbEntity
  8
image
100
AcDbSpline
210
0.0
220
0.0
230
1.0
 70
    24
 71
     1
 72
     4
 73
     2
 74
     0
 42
0.0000000001
 43
0.0000000001
 40
0.0
 40
0.0
 40
1.0
 40
1.0
 10
3.182589683927176
 20
9.136830494488483
 30
0.0
 10
3.182589683927176
 20
9.124950207399272
 30
0.0
  0
SPLINE
  5
47
330
1F
100
AcDbEntity
  8
image
100
AcDbSpline
210
0.0
220
0.0
230
1.0
 70
    24
 71
     1
 72
     4
 73
     2
 74
     0
 42
0.0000000001
 43
0.0000000001
 40
0.0
 40
0.0
 40
1.0
 40
1.0
 10
3.182589683927176
 20
9.099726329917629
 30
0.0
 10
3.182589683927176
 20
9.05147352990917
 30
0.0
  0
SPLINE
  5
48
330
1F
100
AcDbEntity
  8
image
100
AcDbSpline
210
0.0
220
0.0
230
1.0
 70
    24
 71
     1
 72
     4
 73
     2
 74
     0
 42
0.0000000001
 43
0.0000000001
 40
0.0
 40
0.0
 40
1.0
 40
1.0
 10
3.182589683927176
 20
9.026249365054528
 30
0.0
 10
3.182589683927176
 20
9.013389423416874
 30
0.0
  0
SPLINE
  5
49
330
1F
100
AcDbEntity
  8
image
100
AcDbSpline
210
0.0
220
0.0
230
1.0
 70
    24
 71
     1
 72
     4
 73
     2
 74
     0
 42
0.0000000001
 43
0.0000000001
 40
0.0
 40
0.0
 40
1.0
 40
1.0
 10
3.180140453261803
 20
8.193612255771505
 30
0.0
 10
3.180140453261803
 20
8.071150839248335
 30
0.0
  0
SPLINE
  5
4A
330
1F
100
AcDbEntity
  8
image
100
AcDbSpline
210
0.0
220
0.0
230
1.0
 70
    24
 71
     1
 72
     4
 73
     2
 74
     0
 42
0.0000000001
 43
0.0000000001
 40
0.0
 40
0.0
 40
1.0
 40
1.0
 10
3.18014045326181
 20
9.005409650022587
 30
0.0
 10
3.180140453261803
 20
8.882948233499416
 30
0.0
  0
ARC
  5
4B
330
1F
100
AcDbEntity
  8
image
100
AcDbCircle
 10
3.206235935840948
 20
8.223754040383855
 30
0.0
 40
0.0249444707352412
100
AcDbArc
 50
133.4530041701574
 51
180.0
  0
ARC
  5
4C
330
1F
100
AcDbEntity
  8
image
100
AcDbCircle
 10
3.206235935840948
 20
8.214414677999931
 30
0.0
 40
0.0249444707352412
100
AcDbArc
 50
180.0
 51
226.5469958298425
  0
LINE
  5
4D
330
1F
100
AcDbEntity
  8
image
100
AcDbLine
 10
3.181291465185512
 20
8.223753947359185
 30
0.0
 11
3.181291465185512
 21
8.214414612313772
 31
0.0
  0
ARC
  5
4E
330
1F
100
AcDbEntity
  8
image
100
AcDbCircle
 10
3.206235935840954
 20
9.117007947539526
 30
0.0
 40
0.0249444707352409
100
AcDbArc
 50
133.4530041701559
 51
180.0
  0
ARC
  5
4F
330
1F
100
AcDbEntity
  8
image
100
AcDbCircle
 10
3.206235935840954
 20
9.107668585155602
 30
0.0
 40
0.0249444707352412
100
AcDbArc
 50
180.0
 51
226.5469958298425
  0
LINE
  5
50
330
1F
100
AcDbEntity
  8
image
100
AcDbLine
 10
3.181291465185512
 20
9.117008079867655
 30
0.0
 11
3.181291465185512
 21
9.107668457449246
 31
0.0
  0
ARC
  5
51
330
1F
100
AcDbEntity
  8
image
100
AcDbCircle
 10
3.206235935840954
 20
9.043531048243451
 30
0.0
 40
0.0249444707352413
100
AcDbArc
 50
133.4530041701574
 51
180.0
  0
ARC
  5
52
330
1F
100
AcDbEntity
  8
image
100
AcDbCircle
 10
3.206235935840954
 20
9.034191685859525
 30
0.0
 40
0.0249444707352413
100
AcDbArc
 50
180.0
 51
226.5469958298425
  0
LINE
  5
53
330
1F
100
AcDbEntity
  8
image
100
AcDbLine
 10
3.181291465185512
 20
9.043531115004554
 30
0.0
 11
3.181291465185512
 21
9.034191779959144
 31
0.0
  0
ARC
  5
54
330
1F
100
AcDbEntity
  8
image
100
AcDbCircle
 10
3.206235935840954
 20
8.297230939679931
 30
0.0
 40
0.0249444707352413
100
AcDbArc
 50
133.4530041701574
 51
180.0
  0
ARC
  5
55
330
1F
100
AcDbEntity
  8
image
100
AcDbCircle
 10
3.206235935840954
 20
8.287891577296006
 30
0.0
 40
0.0249444707352413
100
AcDbArc
 50
180.0
 51
226.5469958298425
  0
LINE
  5
56
330
1F
100
AcDbEntity
  8
image
100
AcDbLine
 10
3.181291465185512
 20
8.297230912222286
 30
0.0
 11
3.181291465185512
 21
8.287891577176873
 31
0.0
  0
LINE
  5
57
330
1F
100
AcDbEntity
  8
image
100
AcDbLine
 10
5.019818259234708
 20
7.687919980478261
 30
0.0
 11
3.216878902578102
 21
7.687919980478266
 31
0.0
  0
LINE
  5
58
330
1F
100
AcDbEntity
  8
image
100
AcDbLine
 10
5.019818259234708
 20
7.687919980478261
 30
0.0
 11
5.019818259234708
 21
7.650568962502561
 31
0.0
  0
LINE
  5
59
330
1F
100
AcDbEntity
  8
image
100
AcDbLine
 10
3.216878902578102
 20
7.650568962502566
 30
0.0
 11
3.216878902578102
 21
7.687919980478266
 31
0.0
  0
LINE
  5
5A
330
1F
100
AcDbEntity
  8
image
100
AcDbLine
 10
5.019818259234708
 20
7.650568962502561
 30
0.0
 11
3.216878902578102
 21
7.650568962502566
 31
0.0
  0
LINE
  5
5B
330
1F
100
AcDbEntity
  8
image
100
AcDbLine
 10
5.019818259234708
 20
7.697079994773238
 30
0.0
 11
5.019818259234708
 21
7.687919980478261
 31
0.0
  0
LINE
  5
5C
330
1F
100
AcDbEntity
  8
image
100
AcDbLine
 10
3.216878902578102
 20
7.697079994773243
 30
0.0
 11
5.019818259234708
 21
7.697079994773238
 31
0.0
  0
LINE
  5
5D
330
1F
100
AcDbEntity
  8
image
100
AcDbLine
 10
3.216878902578102
 20
7.687919980478266
 30
0.0
 11
3.216878902578102
 21
7.697079994773243
 31
0.0
  0
LINE
  5
5E
330
1F
100
AcDbEntity
  8
image
100
AcDbLine
 10
4.88327369791006
 20
4.778234650491596
 30
0.0
 11
5.019818259234694
 21
4.778234650491596
 31
0.0
  0
LINE
  5
5F
330
1F
100
AcDbEntity
  8
image
100
AcDbLine
 10
3.353423474566962
 20
4.778234650491601
 30
0.0
 11
4.88327369791006
 21
4.778234650491596
 31
0.0
  0
LINE
  5
60
330
1F
100
AcDbEntity
  8
image
100
AcDbLine
 10
3.216878902578095
 20
4.778234650491601
 30
0.0
 11
3.353423474566962
 21
4.778234650491601
 31
0.0
  0
LINE
  5
61
330
1F
100
AcDbEntity
  8
image
100
AcDbLine
 10
4.88327369791006
 20
4.778234650491596
 30
0.0
 11
4.88327369791006
 21
4.769074528431744
 31
0.0
  0
LINE
  5
62
330
1F
100
AcDbEntity
  8
image
100
AcDbLine
 10
3.353423474566962
 20
4.769074528431749
 30
0.0
 11
3.353423474566962
 21
4.778234650491601
 31
0.0
  0
LINE
  5
63
330
1F
100
AcDbEntity
  8
image
100
AcDbLine
 10
3.216878902578095
 20
4.778234650491601
 30
0.0
 11
3.207718782763343
 21
4.778234650491601
 31
0.0
  0
LINE
  5
64
330
1F
100
AcDbEntity
  8
image
100
AcDbLine
 10
3.207718782763357
 20
7.687919980478264
 30
0.0
 11
3.207718782763343
 21
4.778234650491601
 31
0.0
  0
LINE
  5
65
330
1F
100
AcDbEntity
  8
image
100
AcDbLine
 10
3.207718782763357
 20
7.687919980478264
 30
0.0
 11
3.216878902578102
 21
7.687919980478264
 31
0.0
  0
LINE
  5
66
330
1F
100
AcDbEntity
  8
image
100
AcDbLine
 10
5.019818259234708
 20
7.687919980478261
 30
0.0
 11
5.028978417216184
 21
7.687919980478261
 31
0.0
  0
LINE
  5
67
330
1F
100
AcDbEntity
  8
image
100
AcDbLine
 10
5.028978417216184
 20
7.687919980478261
 30
0.0
 11
5.02897841721617
 21
4.778234650491596
 31
0.0
  0
LINE
  5
68
330
1F
100
AcDbEntity
  8
image
100
AcDbLine
 10
5.02897841721617
 20
4.778234650491596
 30
0.0
 11
5.019818259234694
 21
4.778234650491596
 31
0.0
  0
LINE
  5
69
330
1F
100
AcDbEntity
  8
image
100
AcDbLine
 10
3.215286903143748
 20
7.82720766075044
 30
0.0
 11
3.215286903143748
 21
7.821451866983723
 31
0.0
  0
LINE
  5
6A
330
1F
100
AcDbEntity
  8
image
100
AcDbLine
 10
5.013817767360627
 20
7.827207660750433
 30
0.0
 11
5.013817767360627
 21
7.821451866983716
 31
0.0
  0
LINE
  5
6B
330
1F
100
AcDbEntity
  8
image
100
AcDbLine
 10
3.344826675425453
 20
7.821451866983723
 30
0.0
 11
4.883788095575574
 21
7.821451866983718
 31
0.0
  0
LINE
  5
6C
330
1F
100
AcDbEntity
  8
image
100
AcDbLine
 10
5.013572781880262
 20
7.821451866983716
 30
0.0
 11
5.013817767360627
 21
7.821451866983716
 31
0.0
  0
LINE
  5
6D
330
1F
100
AcDbEntity
  8
image
100
AcDbLine
 10
3.344826675425453
 20
7.649253368920058
 30
0.0
 11
4.883788095575574
 21
7.649253368920053
 31
0.0
  0
LINE
  5
6E
330
1F
100
AcDbEntity
  8
image
100
AcDbLine
 10
4.883788095575574
 20
7.649253368920053
 30
0.0
 11
4.883788095575574
 21
7.62451745078815
 31
0.0
  0
LINE
  5
6F
330
1F
100
AcDbEntity
  8
image
100
AcDbLine
 10
3.344826675425453
 20
7.624517450788154
 30
0.0
 11
3.344826675425453
 21
7.649253368920058
 31
0.0
  0
LINE
  5
70
330
1F
100
AcDbEntity
  8
image
100
AcDbLine
 10
4.883788095575574
 20
7.650568962502561
 30
0.0
 11
4.883788095575574
 21
7.649253368920053
 31
0.0
  0
LINE
  5
71
330
1F
100
AcDbEntity
  8
image
100
AcDbLine
 10
3.344826675425453
 20
7.650568962502566
 30
0.0
 11
3.344826675425453
 21
7.649253368920058
 31
0.0
  0
LINE
  5
72
330
1F
100
AcDbEntity
  8
image
100
AcDbLine
 10
3.345096087610582
 20
4.399853102728016
 30
0.0
 11
3.345096087610582
 21
4.401690025727042
 31
0.0
  0
LINE
  5
73
330
1F
100
AcDbEntity
  8
image
100
AcDbLine
 10
3.345096087610588
 20
4.769074528431747
 30
0.0
 11
3.345096087610588
 21
4.778234650491597
 31
0.0
  0
LINE
  5
74
330
1F
100
AcDbEntity
  8
image
100
AcDbLine
 10
4.88351868339041
 20
4.778234650491594
 30
0.0
 11
4.88351868339041
 21
4.769074528431742
 31
0.0
  0
LINE
  5
75
330
1F
100
AcDbEntity
  8
image
100
AcDbLine
 10
4.88351868339041
 20
4.401690025727036
 30
0.0
 11
4.88351868339041
 21
4.399853102728009
 31
0.0
  0
LINE
  5
76
330
1F
100
AcDbEntity
  8
image
100
AcDbLine
 10
5.013572781880256
 20
4.769074528431744
 30
0.0
 11
3.215041980140345
 21
4.769074528431749
 31
0.0
  0
LINE
  5
77
330
1F
100
AcDbEntity
  8
image
100
AcDbLine
 10
5.013572781880256
 20
4.40169002572704
 30
0.0
 11
5.013572781880256
 21
4.769074528431744
 31
0.0
  0
LINE
  5
78
330
1F
100
AcDbEntity
  8
image
100
AcDbLine
 10
4.878865108755564
 20
4.40169002572704
 30
0.0
 11
5.013572781880256
 21
4.40169002572704
 31
0.0
  0
LINE
  5
79
330
1F
100
AcDbEntity
  8
image
100
AcDbLine
 10
3.349749626323807
 20
4.401690025727043
 30
0.0
 11
4.878865108755564
 21
4.40169002572704
 31
0.0
  0
LINE
  5
7A
330
1F
100
AcDbEntity
  8
image
100
AcDbLine
 10
3.215041980140345
 20
4.769074528431749
 30
0.0
 11
3.215041980140338
 21
4.401690025727045
 31
0.0
  0
LINE
  5
7B
330
1F
100
AcDbEntity
  8
image
100
AcDbLine
 10
3.215041980140338
 20
4.401690025727045
 30
0.0
 11
3.349749626323807
 21
4.401690025727043
 31
0.0
  0
LINE
  5
7C
330
1F
100
AcDbEntity
  8
image
100
AcDbLine
 10
4.878865108755564
 20
4.40169002572704
 30
0.0
 11
4.878865108755564
 21
4.392529905351011
 31
0.0
  0
LINE
  5
7D
330
1F
100
AcDbEntity
  8
image
100
AcDbLine
 10
3.349749626323807
 20
4.392529905351016
 30
0.0
 11
4.878865108755564
 21
4.392529905351011
 31
0.0
  0
LINE
  5
7E
330
1F
100
AcDbEntity
  8
image
100
AcDbLine
 10
3.349749626323807
 20
4.392529905351016
 30
0.0
 11
3.349749626323807
 21
4.401690025727043
 31
0.0
  0
LINE
  5
7F
330
1F
100
AcDbEntity
  8
image
100
AcDbLine
 10
5.013572781880262
 20
7.821451866983716
 30
0.0
 11
4.883788095575574
 21
7.821451866983718
 31
0.0
  0
LINE
  5
80
330
1F
100
AcDbEntity
  8
image
100
AcDbLine
 10
5.013572781880262
 20
7.698990450460547
 30
0.0
 11
5.013572781880262
 21
7.821451866983716
 31
0.0
  0
LINE
  5
81
330
1F
100
AcDbEntity
  8
image
100
AcDbLine
 10
4.883788095575574
 20
7.698990450460549
 30
0.0
 11
5.013572781880262
 21
7.698990450460547
 31
0.0
  0
LINE
  5
82
330
1F
100
AcDbEntity
  8
image
100
AcDbLine
 10
3.344826675425453
 20
7.698990450460552
 30
0.0
 11
4.883788095575574
 21
7.698990450460549
 31
0.0
  0
LINE
  5
83
330
1F
100
AcDbEntity
  8
image
100
AcDbLine
 10
3.215041980140379
 20
7.821451866983723
 30
0.0
 11
3.215041980140379
 21
7.698990450460552
 31
0.0
  0
LINE
  5
84
330
1F
100
AcDbEntity
  8
image
100
AcDbLine
 10
3.344826675425453
 20
7.821451866983723
 30
0.0
 11
3.215041980140379
 21
7.821451866983723
 31
0.0
  0
LINE
  5
85
330
1F
100
AcDbEntity
  8
image
100
AcDbLine
 10
3.344826675425453
 20
7.821451866983723
 30
0.0
 11
3.344826675425453
 21
7.812291852688744
 31
0.0
  0
LINE
  5
86
330
1F
100
AcDbEntity
  8
image
100
AcDbLine
 10
4.883788095575574
 20
7.812291852688741
 30
0.0
 11
3.344826675425453
 21
7.812291852688744
 31
0.0
  0
LINE
  5
87
330
1F
100
AcDbEntity
  8
image
100
AcDbLine
 10
4.883788095575574
 20
7.812291852688741
 30
0.0
 11
4.883788095575574
 21
7.821451866983718
 31
0.0
  0
LINE
  5
88
330
1F
100
AcDbEntity
  8
image
100
AcDbLine
 10
3.215041980140379
 20
7.698990450460552
 30
0.0
 11
3.344826675425453
 21
7.698990450460552
 31
0.0
  0
LINE
  5
89
330
1F
100
AcDbEntity
  8
image
100
AcDbLine
 10
4.883788095575574
 20
7.698990450460549
 30
0.0
 11
4.883788095575574
 21
7.697079994773238
 31
0.0
  0
LINE
  5
8A
330
1F
100
AcDbEntity
  8
image
100
AcDbLine
 10
3.344826675425453
 20
7.697079994773243
 30
0.0
 11
3.344826675425453
 21
7.698990450460552
 31
0.0
  0
LINE
  5
8B
330
1F
100
AcDbEntity
  8
image
100
AcDbLine
 10
3.344826675425439
 20
4.39252990535102
 30
0.0
 11
3.344826675425439
 21
4.401690025727043
 31
0.0
  0
LINE
  5
8C
330
1F
100
AcDbEntity
  8
image
100
AcDbLine
 10
3.344826675425439
 20
4.769074528431749
 30
0.0
 11
3.344826675425446
 21
4.778234650491601
 31
0.0
  0
LINE
  5
8D
330
1F
100
AcDbEntity
  8
image
100
AcDbLine
 10
3.224202100516366
 20
4.39252990535102
 30
0.0
 11
3.224202100516366
 21
4.401690025727045
 31
0.0
  0
LINE
  5
8E
330
1F
100
AcDbEntity
  8
image
100
AcDbLine
 10
3.224202100516366
 20
4.39252990535102
 30
0.0
 11
3.344826675425439
 21
4.39252990535102
 31
0.0
  0
LINE
  5
8F
330
1F
100
AcDbEntity
  8
image
100
AcDbLine
 10
3.215041980140345
 20
4.769074528431749
 30
0.0
 11
3.215041980140345
 21
4.778234650491601
 31
0.0
  0
LINE
  5
90
330
1F
100
AcDbEntity
  8
image
100
AcDbLine
 10
3.215041980140352
 20
7.687919980478264
 30
0.0
 11
3.215041980140352
 21
7.698990450460552
 31
0.0
  0
LINE
  5
91
330
1F
100
AcDbEntity
  8
image
100
AcDbLine
 10
4.883788095575559
 20
4.778234650491596
 30
0.0
 11
4.883788095575559
 21
4.769074528431744
 31
0.0
  0
LINE
  5
92
330
1F
100
AcDbEntity
  8
image
100
AcDbLine
 10
4.883788095575559
 20
4.40169002572704
 30
0.0
 11
4.883788095575559
 21
4.392529905351015
 31
0.0
  0
LINE
  5
93
330
1F
100
AcDbEntity
  8
image
100
AcDbLine
 10
5.004412623898772
 20
4.392529905351013
 30
0.0
 11
5.004412623898772
 21
4.40169002572704
 31
0.0
  0
LINE
  5
94
330
1F
100
AcDbEntity
  8
image
100
AcDbLine
 10
4.883788095575559
 20
4.392529905351015
 30
0.0
 11
5.004412623898772
 21
4.392529905351013
 31
0.0
  0
LINE
  5
95
330
1F
100
AcDbEntity
  8
image
100
AcDbLine
 10
5.013572781880262
 20
7.698990450460547
 30
0.0
 11
5.013572781880262
 21
7.697079994773236
 31
0.0
  0
LINE
  5
96
330
1F
100
AcDbEntity
  8
image
100
AcDbLine
 10
5.013572781880256
 20
4.778234650491596
 30
0.0
 11
5.013572781880256
 21
4.769074528431744
 31
0.0
  0
ARC
  5
97
330
1F
100
AcDbEntity
  8
image
100
AcDbCircle
 10
3.224202100252582
 20
4.401690025463265
 30
0.0
 40
0.0091601201122442
100
AcDbArc
 50
179.9999999999972
 51
269.9999999999972
  0
ARC
  5
98
330
1F
100
AcDbEntity
  8
image
100
AcDbCircle
 10
3.224202100252582
 20
4.401690025463265
 30
0.0
 40
0.001836922482402
100
AcDbArc
 50
180.0
 51
269.9999999999931
  0
ARC
  5
99
330
1F
100
AcDbEntity
  8
image
100
AcDbCircle
 10
5.004412662547825
 20
4.401690025463258
 30
0.0
 40
0.001836922482402
100
AcDbArc
 50
270.0
 51
0.0000000000008142
  0
ARC
  5
9A
330
1F
100
AcDbEntity
  8
image
100
AcDbCircle
 10
5.004412662547825
 20
4.401690025463258
 30
0.0
 40
0.0091601201122458
100
AcDbArc
 50
270.0000000000102
 51
359.9999999999966
  0
LINE
  5
9B
330
1F
100
AcDbEntity
  8
image
100
AcDbLine
 10
3.348235862118316
 20
4.392529905351016
 30
0.0
 11
3.348235862118316
 21
4.399853102728016
 31
0.0
  0
LINE
  5
9C
330
1F
100
AcDbEntity
  8
image
100
AcDbLine
 10
3.344826675425439
 20
4.392529905351016
 30
0.0
 11
3.348235862118316
 21
4.392529905351016
 31
0.0
  0
LINE
  5
9D
330
1F
100
AcDbEntity
  8
image
100
AcDbLine
 10
3.344826675425439
 20
4.399853102728016
 30
0.0
 11
3.348235862118316
 21
4.399853102728016
 31
0.0
  0
LINE
  5
9E
330
1F
100
AcDbEntity
  8
image
100
AcDbLine
 10
4.880378846019847
 20
4.399853102728011
 30
0.0
 11
4.880378846019847
 21
4.392529905351011
 31
0.0
  0
LINE
  5
9F
330
1F
100
AcDbEntity
  8
image
100
AcDbLine
 10
4.880378846019847
 20
4.392529905351011
 30
0.0
 11
4.878865108755564
 21
4.392529905351011
 31
0.0
  0
LINE
  5
A0
330
1F
100
AcDbEntity
  8
image
100
AcDbLine
 10
3.349749626323807
 20
4.392529905351016
 30
0.0
 11
3.348235862118316
 21
4.392529905351016
 31
0.0
  0
LINE
  5
A1
330
1F
100
AcDbEntity
  8
image
100
AcDbLine
 10
4.880378846019847
 20
4.399853102728011
 30
0.0
 11
4.878865108755564
 21
4.399853102728011
 31
0.0
  0
LINE
  5
A2
330
1F
100
AcDbEntity
  8
image
100
AcDbLine
 10
3.349749626323807
 20
4.399853102728016
 30
0.0
 11
3.348235862118316
 21
4.399853102728016
 31
0.0
  0
LINE
  5
A3
330
1F
100
AcDbEntity
  8
image
100
AcDbLine
 10
4.880378846019847
 20
4.392529905351011
 30
0.0
 11
4.883788095575559
 21
4.392529905351011
 31
0.0
  0
LINE
  5
A4
330
1F
100
AcDbEntity
  8
image
100
AcDbLine
 10
4.880378846019847
 20
4.399853102728011
 30
0.0
 11
4.883788095575559
 21
4.399853102728011
 31
0.0
  0
CIRCLE
  5
A5
330
1F
100
AcDbEntity
  8
image
100
AcDbCircle
 10
4.875558673482288
 20
8.610287617194083
 30
0.0
 40
0.0370446033951056
  0
CIRCLE
  5
A6
330
1F
100
AcDbEntity
  8
image
100
AcDbCircle
 10
4.875558673482288
 20
8.610287617194083
 30
0.0
 40
0.0376569108892396
  0
LINE
  5
A7
330
1F
100
AcDbEntity
  8
image
100
AcDbLine
 10
4.869741734517784
 20
8.632636869377149
 30
0.0
 11
4.869741734517784
 21
8.58793829860164
 31
0.0
  0
LINE
  5
A8
330
1F
100
AcDbEntity
  8
image
100
AcDbLine
 10
4.869741734517784
 20
8.58793829860164
 30
0.0
 11
4.881375599261657
 21
8.58793829860164
 31
0.0
  0
LINE
  5
A9
330
1F
100
AcDbEntity
  8
image
100
AcDbLine
 10
4.881375599261657
 20
8.58793829860164
 30
0.0
 11
4.881375599261657
 21
8.632636869377149
 31
0.0
  0
LINE
  5
AA
330
1F
100
AcDbEntity
  8
image
100
AcDbLine
 10
4.881375599261657
 20
8.632636869377149
 30
0.0
 11
4.869741734517784
 21
8.632636869377149
 31
0.0
  0
CIRCLE
  5
AB
330
1F
100
AcDbEntity
  8
image
100
AcDbCircle
 10
4.875558673482288
 20
8.610287617194083
 30
0.0
 40
0.0555541291112233
  0
LINE
  5
AC
330
1F
100
AcDbEntity
  8
image
100
AcDbLine
 10
4.112531703258827
 20
7.580460009170041
 30
0.0
 11
4.112531703258827
 21
7.53576143839453
 31
0.0
  0
LINE
  5
AD
330
1F
100
AcDbEntity
  8
image
100
AcDbLine
 10
4.112531703258827
 20
7.53576143839453
 30
0.0
 11
4.124165496159438
 21
7.53576143839453
 31
0.0
  0
LINE
  5
AE
330
1F
100
AcDbEntity
  8
image
100
AcDbLine
 10
4.124165496159438
 20
7.53576143839453
 30
0.0
 11
4.124165496159438
 21
7.580460009170041
 31
0.0
  0
LINE
  5
AF
330
1F
100
AcDbEntity
  8
image
100
AcDbLine
 10
4.124165496159438
 20
7.580460009170041
 30
0.0
 11
4.112531703258827
 21
7.580460009170041
 31
0.0
  0
CIRCLE
  5
B0
330
1F
100
AcDbEntity
  8
image
100
AcDbCircle
 10
4.118348610861503
 20
7.558110665424138
 30
0.0
 40
0.0370446033951058
  0
CIRCLE
  5
B1
330
1F
100
AcDbEntity
  8
image
100
AcDbCircle
 10
4.118348610861503
 20
7.558110665424138
 30
0.0
 40
0.0376569108892401
  0
CIRCLE
  5
B2
330
1F
100
AcDbEntity
  8
image
100
AcDbCircle
 10
4.118348610861503
 20
7.558110665424138
 30
0.0
 40
0.0555541291112235
  0
LINE
  5
B3
330
1F
100
AcDbEntity
  8
image
100
AcDbLine
 10
4.19215974344669
 20
8.159232387216844
 30
0.0
 11
4.191620272487152
 21
8.162468781914572
 31
0.0
  0
LINE
  5
B4
330
1F
100
AcDbEntity
  8
image
100
AcDbLine
 10
4.193778084482055
 20
8.156535679008404
 30
0.0
 11
4.19215974344669
 21
8.159232387216844
 31
0.0
  0
LINE
  5
B5
330
1F
100
AcDbEntity
  8
image
100
AcDbLine
 10
4.195935537260701
 20
8.153838970799963
 30
0.0
 11
4.193778084482055
 21
8.156535679008404
 31
0.0
  0
LINE
  5
B6
330
1F
100
AcDbEntity
  8
image
100
AcDbLine
 10
4.198093277412355
 20
8.151681086961815
 30
0.0
 11
4.195935537260701
 21
8.153838970799963
 31
0.0
  0
LINE
  5
B7
330
1F
100
AcDbEntity
  8
image
100
AcDbLine
 10
4.200790488523541
 20
8.150063176985948
 30
0.0
 11
4.198093277412355
 21
8.151681086961815
 31
0.0
  0
LINE
  5
B8
330
1F
100
AcDbEntity
  8
image
100
AcDbLine
 10
4.203487699634727
 20
8.147905867893795
 30
0.0
 11
4.200790488523541
 21
8.150063176985948
 31
0.0
  0
LINE
  5
B9
330
1F
100
AcDbEntity
  8
image
100
AcDbLine
 10
4.207263493448738
 20
8.14682678228822
 30
0.0
 11
4.203487699634727
 21
8.147905867893795
 31
0.0
  0
LINE
  5
BA
330
1F
100
AcDbEntity
  8
image
100
AcDbLine
 10
4.211579045595289
 20
8.146287670544932
 30
0.0
 11
4.207263493448738
 21
8.14682678228822
 31
0.0
  0
LINE
  5
BB
330
1F
100
AcDbEntity
  8
image
100
AcDbLine
 10
4.215354839409299
 20
8.145748271428644
 30
0.0
 11
4.211579045595289
 21
8.146287670544932
 31
0.0
  0
LINE
  5
BC
330
1F
100
AcDbEntity
  8
image
100
AcDbLine
 10
4.219670391555851
 20
8.144669473196067
 30
0.0
 11
4.215354839409299
 21
8.145748271428644
 31
0.0
  0
LINE
  5
BD
330
1F
100
AcDbEntity
  8
image
100
AcDbLine
 10
4.223446472742864
 20
8.143590962336491
 30
0.0
 11
4.219670391555851
 21
8.144669473196067
 31
0.0
  0
LINE
  5
BE
330
1F
100
AcDbEntity
  8
image
100
AcDbLine
 10
4.227222266556882
 20
8.141433365871339
 30
0.0
 11
4.223446472742864
 21
8.143590962336491
 31
0.0
  0
LINE
  5
BF
330
1F
100
AcDbEntity
  8
image
100
AcDbLine
 10
4.230458876784357
 20
8.138196971173611
 30
0.0
 11
4.227222266556882
 21
8.141433365871339
 31
0.0
  0
LINE
  5
C0
330
1F
100
AcDbEntity
  8
image
100
AcDbLine
 10
4.232077217819716
 20
8.134960576475886
 30
0.0
 11
4.230458876784357
 21
8.138196971173611
 31
0.0
  0
LINE
  5
C1
330
1F
100
AcDbEntity
  8
image
100
AcDbLine
 10
4.233156087895543
 20
8.131724756524153
 30
0.0
 11
4.232077217819716
 21
8.134960576475886
 31
0.0
  0
LINE
  5
C2
330
1F
100
AcDbEntity
  8
image
100
AcDbLine
 10
4.234234670598368
 20
8.128488361826427
 30
0.0
 11
4.233156087895543
 21
8.131724756524153
 31
0.0
  0
LINE
  5
C3
330
1F
100
AcDbEntity
  8
image
100
AcDbLine
 10
4.234774141557906
 20
8.124712855385411
 30
0.0
 11
4.234234670598368
 21
8.128488361826427
 31
0.0
  0
LINE
  5
C4
330
1F
100
AcDbEntity
  8
image
100
AcDbLine
 10
4.234774141557906
 20
8.121476460687683
 30
0.0
 11
4.234774141557906
 21
8.124712855385411
 31
0.0
  0
LINE
  5
C5
330
1F
100
AcDbEntity
  8
image
100
AcDbLine
 10
4.235313540674188
 20
8.117700954246666
 30
0.0
 11
4.234774141557906
 21
8.121476460687683
 31
0.0
  0
LINE
  5
C6
330
1F
100
AcDbEntity
  8
image
100
AcDbLine
 10
4.236392482593265
 20
8.116082756897803
 30
0.0
 11
4.235313540674188
 21
8.117700954246666
 31
0.0
  0
LINE
  5
C7
330
1F
100
AcDbEntity
  8
image
100
AcDbLine
 10
4.238550222744919
 20
8.11446455954894
 30
0.0
 11
4.236392482593265
 21
8.116082756897803
 31
0.0
  0
LINE
  5
C8
330
1F
100
AcDbEntity
  8
image
100
AcDbLine
 10
4.240707962896567
 20
8.112307250456787
 30
0.0
 11
4.238550222744919
 21
8.11446455954894
 31
0.0
  0
LINE
  5
C9
330
1F
100
AcDbEntity
  8
image
100
AcDbLine
 10
4.243404886634757
 20
8.110149653991635
 30
0.0
 11
4.240707962896567
 21
8.112307250456787
 31
0.0
  0
LINE
  5
CA
330
1F
100
AcDbEntity
  8
image
100
AcDbLine
 10
4.245562626786405
 20
8.108531456642772
 30
0.0
 11
4.243404886634757
 21
8.110149653991635
 31
0.0
  0
LINE
  5
CB
330
1F
100
AcDbEntity
  8
image
100
AcDbLine
 10
4.247720438781302
 20
8.106913546666907
 30
0.0
 11
4.245562626786405
 21
8.108531456642772
 31
0.0
  0
LINE
  5
CC
330
1F
100
AcDbEntity
  8
image
100
AcDbLine
 10
4.249338779816667
 20
8.105834461061334
 30
0.0
 11
4.247720438781302
 21
8.106913546666907
 31
0.0
  0
LINE
  5
CD
330
1F
100
AcDbEntity
  8
image
100
AcDbLine
 10
4.249878178932957
 20
8.105295349318042
 30
0.0
 11
4.249338779816667
 21
8.105834461061334
 31
0.0
  0
LINE
  5
CE
330
1F
100
AcDbEntity
  8
image
100
AcDbLine
 10
4.233695271482079
 20
8.107992344899482
 30
0.0
 11
4.249878178932957
 21
8.105295349318042
 31
0.0
  0
LINE
  5
CF
330
1F
100
AcDbEntity
  8
image
100
AcDbLine
 10
4.233695271482079
 20
8.096665250830437
 30
0.0
 11
4.233695271482079
 21
8.107992344899482
 31
0.0
  0
LINE
  5
D0
330
1F
100
AcDbEntity
  8
image
100
AcDbLine
 10
4.228301136632702
 20
8.102598641109603
 30
0.0
 11
4.233695271482079
 21
8.096665250830437
 31
0.0
  0
LINE
  5
D1
330
1F
100
AcDbEntity
  8
image
100
AcDbLine
 10
4.222367602667037
 20
8.108531456642772
 30
0.0
 11
4.228301136632702
 21
8.102598641109603
 31
0.0
  0
LINE
  5
D2
330
1F
100
AcDbEntity
  8
image
100
AcDbLine
 10
4.215354839409299
 20
8.113925160432653
 30
0.0
 11
4.222367602667037
 21
8.108531456642772
 31
0.0
  0
LINE
  5
D3
330
1F
100
AcDbEntity
  8
image
100
AcDbLine
 10
4.207802964408283
 20
8.118240065989958
 30
0.0
 11
4.215354839409299
 21
8.113925160432653
 31
0.0
  0
LINE
  5
D4
330
1F
100
AcDbEntity
  8
image
100
AcDbLine
 10
4.200251017564003
 20
8.122015859803971
 30
0.0
 11
4.207802964408283
 21
8.118240065989958
 31
0.0
  0
LINE
  5
D5
330
1F
100
AcDbEntity
  8
image
100
AcDbLine
 10
4.192699142562979
 20
8.125251967128701
 30
0.0
 11
4.200251017564003
 21
8.122015859803971
 31
0.0
  0
LINE
  5
D6
330
1F
100
AcDbEntity
  8
image
100
AcDbLine
 10
4.187844191300138
 20
8.126330765361277
 30
0.0
 11
4.192699142562979
 21
8.125251967128701
 31
0.0
  0
LINE
  5
D7
330
1F
100
AcDbEntity
  8
image
100
AcDbLine
 10
4.177595105187922
 20
8.126330765361277
 30
0.0
 11
4.187844191300138
 21
8.126330765361277
 31
0.0
  0
LINE
  5
D8
330
1F
100
AcDbEntity
  8
image
100
AcDbLine
 10
4.17274044129809
 20
8.125251967128701
 30
0.0
 11
4.177595105187922
 21
8.126330765361277
 31
0.0
  0
LINE
  5
D9
330
1F
100
AcDbEntity
  8
image
100
AcDbLine
 10
4.168424889151539
 20
8.123094658036547
 30
0.0
 11
4.17274044129809
 21
8.125251967128701
 31
0.0
  0
LINE
  5
DA
330
1F
100
AcDbEntity
  8
image
100
AcDbLine
 10
4.161412413266798
 20
8.117700954246666
 30
0.0
 11
4.168424889151539
 21
8.123094658036547
 31
0.0
  0
LINE
  5
DB
330
1F
100
AcDbEntity
  8
image
100
AcDbLine
 10
4.155478879301131
 20
8.1117678513405
 30
0.0
 11
4.161412413266798
 21
8.117700954246666
 31
0.0
  0
LINE
  5
DC
330
1F
100
AcDbEntity
  8
image
100
AcDbLine
 10
4.15008445707876
 20
8.105295349318042
 30
0.0
 11
4.155478879301131
 21
8.1117678513405
 31
0.0
  0
LINE
  5
DD
330
1F
100
AcDbEntity
  8
image
100
AcDbLine
 10
4.145229793188922
 20
8.098283735552298
 30
0.0
 11
4.15008445707876
 21
8.105295349318042
 31
0.0
  0
LINE
  5
DE
330
1F
100
AcDbEntity
  8
image
100
AcDbLine
 10
4.140374770082833
 20
8.091271547040555
 30
0.0
 11
4.145229793188922
 21
8.098283735552298
 31
0.0
  0
LINE
  5
DF
330
1F
100
AcDbEntity
  8
image
100
AcDbLine
 10
4.135520106192994
 20
8.084799045018099
 30
0.0
 11
4.140374770082833
 21
8.091271547040555
 31
0.0
  0
LINE
  5
E0
330
1F
100
AcDbEntity
  8
image
100
AcDbLine
 10
4.130125683970622
 20
8.078326830368641
 30
0.0
 11
4.135520106192994
 21
8.084799045018099
 31
0.0
  0
LINE
  5
E1
330
1F
100
AcDbEntity
  8
image
100
AcDbLine
 10
4.124731620964495
 20
8.072393440089475
 30
0.0
 11
4.130125683970622
 21
8.078326830368641
 31
0.0
  0
LINE
  5
E2
330
1F
100
AcDbEntity
  8
image
100
AcDbLine
 10
4.117718857706758
 20
8.066999736299596
 30
0.0
 11
4.124731620964495
 21
8.072393440089475
 31
0.0
  0
LINE
  5
E3
330
1F
100
AcDbEntity
  8
image
100
AcDbLine
 10
4.110166982705734
 20
8.066460624556306
 30
0.0
 11
4.117718857706758
 21
8.066999736299596
 31
0.0
  0
LINE
  5
E4
330
1F
100
AcDbEntity
  8
image
100
AcDbLine
 10
4.10261510770471
 20
8.066999736299596
 30
0.0
 11
4.110166982705734
 21
8.066460624556306
 31
0.0
  0
LINE
  5
E5
330
1F
100
AcDbEntity
  8
image
100
AcDbLine
 10
4.09506316086043
 20
8.069157332764746
 30
0.0
 11
4.10261510770471
 21
8.066999736299596
 31
0.0
  0
LINE
  5
E6
330
1F
100
AcDbEntity
  8
image
100
AcDbLine
 10
4.088590227778483
 20
8.071854040973189
 30
0.0
 11
4.09506316086043
 21
8.069157332764746
 31
0.0
  0
LINE
  5
E7
330
1F
100
AcDbEntity
  8
image
100
AcDbLine
 10
4.081577464520745
 20
8.075090435670915
 30
0.0
 11
4.088590227778483
 21
8.071854040973189
 31
0.0
  0
LINE
  5
E8
330
1F
100
AcDbEntity
  8
image
100
AcDbLine
 10
4.075104459595542
 20
8.07886622948493
 30
0.0
 11
4.081577464520745
 21
8.075090435670915
 31
0.0
  0
LINE
  5
E9
330
1F
100
AcDbEntity
  8
image
100
AcDbLine
 10
4.068631454670338
 20
8.083181135042234
 30
0.0
 11
4.075104459595542
 21
8.07886622948493
 31
0.0
  0
LINE
  5
EA
330
1F
100
AcDbEntity
  8
image
100
AcDbLine
 10
4.062697561488429
 20
8.088035439715827
 30
0.0
 11
4.068631454670338
 21
8.083181135042234
 31
0.0
  0
LINE
  5
EB
330
1F
100
AcDbEntity
  8
image
100
AcDbLine
 10
4.056224556563225
 20
8.092350345273134
 30
0.0
 11
4.062697561488429
 21
8.088035439715827
 31
0.0
  0
LINE
  5
EC
330
1F
100
AcDbEntity
  8
image
100
AcDbLine
 10
4.049751551638028
 20
8.096125851714148
 30
0.0
 11
4.056224556563225
 21
8.092350345273134
 31
0.0
  0
LINE
  5
ED
330
1F
100
AcDbEntity
  8
image
100
AcDbLine
 10
4.038963066409522
 20
8.104216551085468
 30
0.0
 11
4.049751551638028
 21
8.096125851714148
 31
0.0
  0
LINE
  5
EE
330
1F
100
AcDbEntity
  8
image
100
AcDbLine
 10
4.027635038378236
 20
8.111767851340502
 30
0.0
 11
4.038963066409522
 21
8.104216551085468
 31
0.0
  0
LINE
  5
EF
330
1F
100
AcDbEntity
  8
image
100
AcDbLine
 10
4.016307082190198
 20
8.118779465106246
 30
0.0
 11
4.027635038378236
 21
8.111767851340502
 31
0.0
  0
LINE
  5
F0
330
1F
100
AcDbEntity
  8
image
100
AcDbLine
 10
4.005518525118444
 20
8.125251967128701
 30
0.0
 11
4.016307082190198
 21
8.118779465106246
 31
0.0
  0
LINE
  5
F1
330
1F
100
AcDbEntity
  8
image
100
AcDbLine
 10
3.994190568930407
 20
8.132263868267445
 30
0.0
 11
4.005518525118444
 21
8.125251967128701
 31
0.0
  0
LINE
  5
F2
330
1F
100
AcDbEntity
  8
image
100
AcDbLine
 10
4.001203332188143
 20
8.13334266650002
 30
0.0
 11
3.994190568930407
 21
8.132263868267445
 31
0.0
  0
LINE
  5
F3
330
1F
100
AcDbEntity
  8
image
100
AcDbLine
 10
4.007676337113347
 20
8.13334266650002
 30
0.0
 11
4.001203332188143
 21
8.13334266650002
 31
0.0
  0
LINE
  5
F4
330
1F
100
AcDbEntity
  8
image
100
AcDbLine
 10
4.014688741154841
 20
8.132263868267445
 30
0.0
 11
4.007676337113347
 21
8.13334266650002
 31
0.0
  0
LINE
  5
F5
330
1F
100
AcDbEntity
  8
image
100
AcDbLine
 10
4.021161746080037
 20
8.130645670918582
 30
0.0
 11
4.014688741154841
 21
8.132263868267445
 31
0.0
  0
LINE
  5
F6
330
1F
100
AcDbEntity
  8
image
100
AcDbLine
 10
4.027095639261954
 20
8.128488361826429
 30
0.0
 11
4.021161746080037
 21
8.130645670918582
 31
0.0
  0
LINE
  5
F7
330
1F
100
AcDbEntity
  8
image
100
AcDbLine
 10
4.03356864418715
 20
8.125791366244991
 30
0.0
 11
4.027095639261954
 21
8.128488361826429
 31
0.0
  0
LINE
  5
F8
330
1F
100
AcDbEntity
  8
image
100
AcDbLine
 10
4.04004193648535
 20
8.123634057152836
 30
0.0
 11
4.03356864418715
 21
8.125791366244991
 31
0.0
  0
LINE
  5
F9
330
1F
100
AcDbEntity
  8
image
100
AcDbLine
 10
4.045975470451015
 20
8.121476460687686
 30
0.0
 11
4.04004193648535
 21
8.123634057152836
 31
0.0
  0
LINE
  5
FA
330
1F
100
AcDbEntity
  8
image
100
AcDbLine
 10
4.043817730299367
 20
8.124712855385411
 30
0.0
 11
4.045975470451015
 21
8.121476460687686
 31
0.0
  0
LINE
  5
FB
330
1F
100
AcDbEntity
  8
image
100
AcDbLine
 10
4.041120519188181
 20
8.126870164477566
 30
0.0
 11
4.043817730299367
 21
8.124712855385411
 31
0.0
  0
LINE
  5
FC
330
1F
100
AcDbEntity
  8
image
100
AcDbLine
 10
4.038423595449991
 20
8.129027760942715
 30
0.0
 11
4.041120519188181
 21
8.126870164477566
 31
0.0
  0
LINE
  5
FD
330
1F
100
AcDbEntity
  8
image
100
AcDbLine
 10
4.034108043303439
 20
8.134421464732595
 30
0.0
 11
4.038423595449991
 21
8.129027760942715
 31
0.0
  0
LINE
  5
FE
330
1F
100
AcDbEntity
  8
image
100
AcDbLine
 10
4.032489702268074
 20
8.137657572057324
 30
0.0
 11
4.034108043303439
 21
8.134421464732595
 31
0.0
  0
LINE
  5
FF
330
1F
100
AcDbEntity
  8
image
100
AcDbLine
 10
4.037344725374164
 20
8.138196971173613
 30
0.0
 11
4.032489702268074
 21
8.137657572057324
 31
0.0
  0
LINE
  5
100
330
1F
100
AcDbEntity
  8
image
100
AcDbLine
 10
4.042199389264002
 20
8.137657572057324
 30
0.0
 11
4.037344725374164
 21
8.138196971173613
 31
0.0
  0
LINE
  5
101
330
1F
100
AcDbEntity
  8
image
100
AcDbLine
 10
4.047054340526842
 20
8.13603966208146
 30
0.0
 11
4.042199389264002
 21
8.137657572057324
 31
0.0
  0
LINE
  5
102
330
1F
100
AcDbEntity
  8
image
100
AcDbLine
 10
4.051369605300391
 20
8.134421464732595
 30
0.0
 11
4.047054340526842
 21
8.13603966208146
 31
0.0
  0
LINE
  5
103
330
1F
100
AcDbEntity
  8
image
100
AcDbLine
 10
4.055685157446935
 20
8.132263868267445
 30
0.0
 11
4.051369605300391
 21
8.134421464732595
 31
0.0
  0
LINE
  5
104
330
1F
100
AcDbEntity
  8
image
100
AcDbLine
 10
4.060000350377243
 20
8.130106271802292
 30
0.0
 11
4.055685157446935
 21
8.132263868267445
 31
0.0
  0
LINE
  5
105
330
1F
100
AcDbEntity
  8
image
100
AcDbLine
 10
4.064855373483331
 20
8.128488361826427
 30
0.0
 11
4.060000350377243
 21
8.130106271802292
 31
0.0
  0
LINE
  5
106
330
1F
100
AcDbEntity
  8
image
100
AcDbLine
 10
4.069710037373163
 20
8.12740985096685
 30
0.0
 11
4.064855373483331
 21
8.128488361826427
 31
0.0
  0
LINE
  5
107
330
1F
100
AcDbEntity
  8
image
100
AcDbLine
 10
4.068091983710807
 20
8.130106271802292
 30
0.0
 11
4.069710037373163
 21
8.12740985096685
 31
0.0
  0
LINE
  5
108
330
1F
100
AcDbEntity
  8
image
100
AcDbLine
 10
4.066473642675441
 20
8.132263868267445
 30
0.0
 11
4.068091983710807
 21
8.130106271802292
 31
0.0
  0
LINE
  5
109
330
1F
100
AcDbEntity
  8
image
100
AcDbLine
 10
4.063776431564256
 20
8.134960576475886
 30
0.0
 11
4.066473642675441
 21
8.132263868267445
 31
0.0
  0
LINE
  5
10A
330
1F
100
AcDbEntity
  8
image
100
AcDbLine
 10
4.061618691412602
 20
8.137657572057324
 30
0.0
 11
4.063776431564256
 21
8.134960576475886
 31
0.0
  0
LINE
  5
10B
330
1F
100
AcDbEntity
  8
image
100
AcDbLine
 10
4.05892176767441
 20
8.139815168522476
 30
0.0
 11
4.061618691412602
 21
8.137657572057324
 31
0.0
  0
LINE
  5
10C
330
1F
100
AcDbEntity
  8
image
100
AcDbLine
 10
4.057303498482301
 20
8.143051275847206
 30
0.0
 11
4.05892176767441
 21
8.139815168522476
 31
0.0
  0
LINE
  5
10D
330
1F
100
AcDbEntity
  8
image
100
AcDbLine
 10
4.056224556563225
 20
8.145748271428644
 30
0.0
 11
4.057303498482301
 21
8.143051275847206
 31
0.0
  0
LINE
  5
10E
330
1F
100
AcDbEntity
  8
image
100
AcDbLine
 10
4.062697561488429
 20
8.145208872312355
 30
0.0
 11
4.056224556563225
 21
8.145748271428644
 31
0.0
  0
LINE
  5
10F
330
1F
100
AcDbEntity
  8
image
100
AcDbLine
 10
4.069170925629876
 20
8.144130361452777
 30
0.0
 11
4.062697561488429
 21
8.145208872312355
 31
0.0
  0
LINE
  5
110
330
1F
100
AcDbEntity
  8
image
100
AcDbLine
 10
4.075643858711831
 20
8.141972477614631
 30
0.0
 11
4.069170925629876
 21
8.144130361452777
 31
0.0
  0
LINE
  5
111
330
1F
100
AcDbEntity
  8
image
100
AcDbLine
 10
4.081577464520745
 20
8.139815168522476
 30
0.0
 11
4.075643858711831
 21
8.141972477614631
 31
0.0
  0
LINE
  5
112
330
1F
100
AcDbEntity
  8
image
100
AcDbLine
 10
4.088050756818938
 20
8.138196971173611
 30
0.0
 11
4.081577464520745
 21
8.139815168522476
 31
0.0
  0
LINE
  5
113
330
1F
100
AcDbEntity
  8
image
100
AcDbLine
 10
4.094523761744148
 20
8.137118172941036
 30
0.0
 11
4.088050756818938
 21
8.138196971173611
 31
0.0
  0
LINE
  5
114
330
1F
100
AcDbEntity
  8
image
100
AcDbLine
 10
4.095602631819969
 20
8.138736370289901
 30
0.0
 11
4.094523761744148
 21
8.137118172941036
 31
0.0
  0
LINE
  5
115
330
1F
100
AcDbEntity
  8
image
100
AcDbLine
 10
4.093444891668314
 20
8.141433365871339
 30
0.0
 11
4.095602631819969
 21
8.138736370289901
 31
0.0
  0
LINE
  5
116
330
1F
100
AcDbEntity
  8
image
100
AcDbLine
 10
4.090747680557128
 20
8.144130361452777
 30
0.0
 11
4.093444891668314
 21
8.141433365871339
 31
0.0
  0
LINE
  5
117
330
1F
100
AcDbEntity
  8
image
100
AcDbLine
 10
4.088590227778483
 20
8.146287670544932
 30
0.0
 11
4.090747680557128
 21
8.144130361452777
 31
0.0
  0
LINE
  5
118
330
1F
100
AcDbEntity
  8
image
100
AcDbLine
 10
4.085893016667297
 20
8.14952377786966
 30
0.0
 11
4.088590227778483
 21
8.146287670544932
 31
0.0
  0
LINE
  5
119
330
1F
100
AcDbEntity
  8
image
100
AcDbLine
 10
4.083735204672393
 20
8.1522207734511
 30
0.0
 11
4.085893016667297
 21
8.14952377786966
 31
0.0
  0
LINE
  5
11A
330
1F
100
AcDbEntity
  8
image
100
AcDbLine
 10
4.088590227778483
 20
8.1522207734511
 30
0.0
 11
4.083735204672393
 21
8.1522207734511
 31
0.0
  0
LINE
  5
11B
330
1F
100
AcDbEntity
  8
image
100
AcDbLine
 10
4.092905420708783
 20
8.151681086961815
 30
0.0
 11
4.088590227778483
 21
8.1522207734511
 31
0.0
  0
LINE
  5
11C
330
1F
100
AcDbEntity
  8
image
100
AcDbLine
 10
4.097760371971623
 20
8.150602576102235
 30
0.0
 11
4.092905420708783
 21
8.151681086961815
 31
0.0
  0
LINE
  5
11D
330
1F
100
AcDbEntity
  8
image
100
AcDbLine
 10
4.102075636745166
 20
8.14898466612637
 30
0.0
 11
4.097760371971623
 21
8.150602576102235
 31
0.0
  0
LINE
  5
11E
330
1F
100
AcDbEntity
  8
image
100
AcDbLine
 10
4.106391188891716
 20
8.147905867893795
 30
0.0
 11
4.102075636745166
 21
8.14898466612637
 31
0.0
  0
LINE
  5
11F
330
1F
100
AcDbEntity
  8
image
100
AcDbLine
 10
4.110706381822017
 20
8.146287670544932
 30
0.0
 11
4.106391188891716
 21
8.147905867893795
 31
0.0
  0
LINE
  5
120
330
1F
100
AcDbEntity
  8
image
100
AcDbLine
 10
4.111245852781562
 20
8.147905867893795
 30
0.0
 11
4.110706381822017
 21
8.146287670544932
 31
0.0
  0
LINE
  5
121
330
1F
100
AcDbEntity
  8
image
100
AcDbLine
 10
4.110706381822017
 20
8.14952377786966
 30
0.0
 11
4.111245852781562
 21
8.147905867893795
 31
0.0
  0
LINE
  5
122
330
1F
100
AcDbEntity
  8
image
100
AcDbLine
 10
4.110166982705734
 20
8.151141975218525
 30
0.0
 11
4.110706381822017
 21
8.14952377786966
 31
0.0
  0
LINE
  5
123
330
1F
100
AcDbEntity
  8
image
100
AcDbLine
 10
4.109088040786658
 20
8.152760172567386
 30
0.0
 11
4.110166982705734
 21
8.151141975218525
 31
0.0
  0
LINE
  5
124
330
1F
100
AcDbEntity
  8
image
100
AcDbLine
 10
4.108548641670376
 20
8.154378082543253
 30
0.0
 11
4.109088040786658
 21
8.152760172567386
 31
0.0
  0
LINE
  5
125
330
1F
100
AcDbEntity
  8
image
100
AcDbLine
 10
4.108548641670376
 20
8.155996567265114
 30
0.0
 11
4.108548641670376
 21
8.154378082543253
 31
0.0
  0
LINE
  5
126
330
1F
100
AcDbEntity
  8
image
100
AcDbLine
 10
4.111245852781562
 20
8.156535679008404
 30
0.0
 11
4.108548641670376
 21
8.155996567265114
 31
0.0
  0
LINE
  5
127
330
1F
100
AcDbEntity
  8
image
100
AcDbLine
 10
4.113943063892747
 20
8.155996567265114
 30
0.0
 11
4.111245852781562
 21
8.156535679008404
 31
0.0
  0
LINE
  5
128
330
1F
100
AcDbEntity
  8
image
100
AcDbLine
 10
4.116640275003933
 20
8.15491748165954
 30
0.0
 11
4.113943063892747
 21
8.155996567265114
 31
0.0
  0
LINE
  5
129
330
1F
100
AcDbEntity
  8
image
100
AcDbLine
 10
4.119337198742123
 20
8.153299571683675
 30
0.0
 11
4.116640275003933
 21
8.15491748165954
 31
0.0
  0
LINE
  5
12A
330
1F
100
AcDbEntity
  8
image
100
AcDbLine
 10
4.124731620964495
 20
8.1522207734511
 30
0.0
 11
4.119337198742123
 21
8.153299571683675
 31
0.0
  0
LINE
  5
12B
330
1F
100
AcDbEntity
  8
image
100
AcDbLine
 10
4.127428472859437
 20
8.152760172567386
 30
0.0
 11
4.124731620964495
 21
8.1522207734511
 31
0.0
  0
LINE
  5
12C
330
1F
100
AcDbEntity
  8
image
100
AcDbLine
 10
4.112324722857382
 20
8.172177391261758
 30
0.0
 11
4.127428472859437
 21
8.152760172567386
 31
0.0
  0
LINE
  5
12D
330
1F
100
AcDbEntity
  8
image
100
AcDbLine
 10
4.10423337689682
 20
8.181346888865652
 30
0.0
 11
4.112324722857382
 21
8.172177391261758
 31
0.0
  0
LINE
  5
12E
330
1F
100
AcDbEntity
  8
image
100
AcDbLine
 10
4.095602631819969
 20
8.19051609909655
 30
0.0
 11
4.10423337689682
 21
8.181346888865652
 31
0.0
  0
LINE
  5
12F
330
1F
100
AcDbEntity
  8
image
100
AcDbLine
 10
4.086971886743117
 20
8.199146197584155
 30
0.0
 11
4.095602631819969
 21
8.19051609909655
 31
0.0
  0
LINE
  5
130
330
1F
100
AcDbEntity
  8
image
100
AcDbLine
 10
4.077801670706728
 20
8.206697497839186
 30
0.0
 11
4.086971886743117
 21
8.199146197584155
 31
0.0
  0
LINE
  5
131
330
1F
100
AcDbEntity
  8
image
100
AcDbLine
 10
3.982323429155834
 20
8.250386527274516
 30
0.0
 11
4.077801670706728
 21
8.206697497839186
 31
0.0
  0
LINE
  5
132
330
1F
100
AcDbEntity
  8
image
100
AcDbLine
 10
4.028174509337774
 20
8.241756428786912
 30
0.0
 11
3.982323429155834
 21
8.250386527274516
 31
0.0
  0
LINE
  5
133
330
1F
100
AcDbEntity
  8
image
100
AcDbLine
 10
4.029253379413601
 20
8.242835514392483
 30
0.0
 11
4.028174509337774
 21
8.241756428786912
 31
0.0
  0
LINE
  5
134
330
1F
100
AcDbEntity
  8
image
100
AcDbLine
 10
4.022780087115402
 20
8.250925926390806
 30
0.0
 11
4.029253379413601
 21
8.242835514392483
 31
0.0
  0
LINE
  5
135
330
1F
100
AcDbEntity
  8
image
100
AcDbLine
 10
4.026556168302409
 20
8.250386527274516
 30
0.0
 11
4.022780087115402
 21
8.250925926390806
 31
0.0
  0
LINE
  5
136
330
1F
100
AcDbEntity
  8
image
100
AcDbLine
 10
4.030332249489429
 20
8.248768329925654
 30
0.0
 11
4.026556168302409
 21
8.250386527274516
 31
0.0
  0
LINE
  5
137
330
1F
100
AcDbEntity
  8
image
100
AcDbLine
 10
4.034647514262978
 20
8.247150419949788
 30
0.0
 11
4.030332249489429
 21
8.248768329925654
 31
0.0
  0
LINE
  5
138
330
1F
100
AcDbEntity
  8
image
100
AcDbLine
 10
4.038963066409522
 20
8.246071334344215
 30
0.0
 11
4.034647514262978
 21
8.247150419949788
 31
0.0
  0
LINE
  5
139
330
1F
100
AcDbEntity
  8
image
100
AcDbLine
 10
4.043278259339829
 20
8.244992823484636
 30
0.0
 11
4.038963066409522
 21
8.246071334344215
 31
0.0
  0
LINE
  5
13A
330
1F
100
AcDbEntity
  8
image
100
AcDbLine
 10
4.043817730299367
 20
8.246071334344215
 30
0.0
 11
4.043278259339829
 21
8.244992823484636
 31
0.0
  0
LINE
  5
13B
330
1F
100
AcDbEntity
  8
image
100
AcDbLine
 10
4.043817730299367
 20
8.247150419949788
 30
0.0
 11
4.043817730299367
 21
8.246071334344215
 31
0.0
  0
LINE
  5
13C
330
1F
100
AcDbEntity
  8
image
100
AcDbLine
 10
4.043278259339829
 20
8.248229218182364
 30
0.0
 11
4.043817730299367
 21
8.247150419949788
 31
0.0
  0
LINE
  5
13D
330
1F
100
AcDbEntity
  8
image
100
AcDbLine
 10
4.042199389264002
 20
8.249307729041941
 30
0.0
 11
4.043278259339829
 21
8.248229218182364
 31
0.0
  0
LINE
  5
13E
330
1F
100
AcDbEntity
  8
image
100
AcDbLine
 10
4.041659918304464
 20
8.250386527274516
 30
0.0
 11
4.042199389264002
 21
8.249307729041941
 31
0.0
  0
LINE
  5
13F
330
1F
100
AcDbEntity
  8
image
100
AcDbLine
 10
4.041659918304464
 20
8.251465325507094
 30
0.0
 11
4.041659918304464
 21
8.250386527274516
 31
0.0
  0
LINE
  5
140
330
1F
100
AcDbEntity
  8
image
100
AcDbLine
 10
4.044357129415656
 20
8.250925926390806
 30
0.0
 11
4.041659918304464
 21
8.251465325507094
 31
0.0
  0
LINE
  5
141
330
1F
100
AcDbEntity
  8
image
100
AcDbLine
 10
4.046514941410553
 20
8.250386527274516
 30
0.0
 11
4.044357129415656
 21
8.250925926390806
 31
0.0
  0
LINE
  5
142
330
1F
100
AcDbEntity
  8
image
100
AcDbLine
 10
4.048672681562201
 20
8.250386527274516
 30
0.0
 11
4.046514941410553
 21
8.250386527274516
 31
0.0
  0
LINE
  5
143
330
1F
100
AcDbEntity
  8
image
100
AcDbLine
 10
4.050830134340853
 20
8.249847128158229
 30
0.0
 11
4.048672681562201
 21
8.250386527274516
 31
0.0
  0
LINE
  5
144
330
1F
100
AcDbEntity
  8
image
100
AcDbLine
 10
4.05298794633575
 20
8.249847128158229
 30
0.0
 11
4.050830134340853
 21
8.249847128158229
 31
0.0
  0
LINE
  5
145
330
1F
100
AcDbEntity
  8
image
100
AcDbLine
 10
4.049751551638028
 20
8.255780231064399
 30
0.0
 11
4.05298794633575
 21
8.249847128158229
 31
0.0
  0
LINE
  5
146
330
1F
100
AcDbEntity
  8
image
100
AcDbLine
 10
4.057303498482301
 20
8.255241119321107
 30
0.0
 11
4.049751551638028
 21
8.255780231064399
 31
0.0
  0
LINE
  5
147
330
1F
100
AcDbEntity
  8
image
100
AcDbLine
 10
4.057303498482301
 20
8.25739842841326
 30
0.0
 11
4.057303498482301
 21
8.255241119321107
 31
0.0
  0
LINE
  5
148
330
1F
100
AcDbEntity
  8
image
100
AcDbLine
 10
4.056764027522762
 20
8.259556024878412
 30
0.0
 11
4.057303498482301
 21
8.25739842841326
 31
0.0
  0
LINE
  5
149
330
1F
100
AcDbEntity
  8
image
100
AcDbLine
 10
4.055685157446935
 20
8.261173934854278
 30
0.0
 11
4.056764027522762
 21
8.259556024878412
 31
0.0
  0
LINE
  5
14A
330
1F
100
AcDbEntity
  8
image
100
AcDbLine
 10
4.054606287371115
 20
8.26333153131943
 30
0.0
 11
4.055685157446935
 21
8.261173934854278
 31
0.0
  0
LINE
  5
14B
330
1F
100
AcDbEntity
  8
image
100
AcDbLine
 10
4.05298794633575
 20
8.264949728668293
 30
0.0
 11
4.054606287371115
 21
8.26333153131943
 31
0.0
  0
LINE
  5
14C
330
1F
100
AcDbEntity
  8
image
100
AcDbLine
 10
4.052448475376219
 20
8.267107037760448
 30
0.0
 11
4.05298794633575
 21
8.264949728668293
 31
0.0
  0
LINE
  5
14D
330
1F
100
AcDbEntity
  8
image
100
AcDbLine
 10
4.054606287371115
 20
8.266567638644159
 30
0.0
 11
4.052448475376219
 21
8.267107037760448
 31
0.0
  0
LINE
  5
14E
330
1F
100
AcDbEntity
  8
image
100
AcDbLine
 10
4.056224556563225
 20
8.266028239527869
 30
0.0
 11
4.054606287371115
 21
8.266567638644159
 31
0.0
  0
LINE
  5
14F
330
1F
100
AcDbEntity
  8
image
100
AcDbLine
 10
4.058382368558128
 20
8.265488840411581
 30
0.0
 11
4.056224556563225
 21
8.266028239527869
 31
0.0
  0
LINE
  5
150
330
1F
100
AcDbEntity
  8
image
100
AcDbLine
 10
4.060539821336781
 20
8.265488840411581
 30
0.0
 11
4.058382368558128
 21
8.265488840411581
 31
0.0
  0
LINE
  5
151
330
1F
100
AcDbEntity
  8
image
100
AcDbLine
 10
4.058382368558128
 20
8.271961629807035
 30
0.0
 11
4.060539821336781
 21
8.265488840411581
 31
0.0
  0
LINE
  5
152
330
1F
100
AcDbEntity
  8
image
100
AcDbLine
 10
4.056224556563225
 20
8.278433844456493
 30
0.0
 11
4.058382368558128
 21
8.271961629807035
 31
0.0
  0
LINE
  5
153
330
1F
100
AcDbEntity
  8
image
100
AcDbLine
 10
4.053527345452039
 20
8.284906346478949
 30
0.0
 11
4.056224556563225
 21
8.278433844456493
 31
0.0
  0
LINE
  5
154
330
1F
100
AcDbEntity
  8
image
100
AcDbLine
 10
4.050290735224564
 20
8.290839449385117
 30
0.0
 11
4.053527345452039
 21
8.284906346478949
 31
0.0
  0
LINE
  5
155
330
1F
100
AcDbEntity
  8
image
100
AcDbLine
 10
4.047593811486374
 20
8.297311951407573
 30
0.0
 11
4.050290735224564
 21
8.290839449385117
 31
0.0
  0
LINE
  5
156
330
1F
100
AcDbEntity
  8
image
100
AcDbLine
 10
4.057303498482301
 20
8.285985144711526
 30
0.0
 11
4.047593811486374
 21
8.297311951407573
 31
0.0
  0
LINE
  5
157
330
1F
100
AcDbEntity
  8
image
100
AcDbLine
 10
4.067013113634973
 20
8.2735795397829
 30
0.0
 11
4.057303498482301
 21
8.285985144711526
 31
0.0
  0
LINE
  5
158
330
1F
100
AcDbEntity
  8
image
100
AcDbLine
 10
4.076183329671369
 20
8.261173934854276
 30
0.0
 11
4.067013113634973
 21
8.2735795397829
 31
0.0
  0
LINE
  5
159
330
1F
100
AcDbEntity
  8
image
100
AcDbLine
 10
4.08481407474822
 20
8.248229218182363
 30
0.0
 11
4.076183329671369
 21
8.261173934854276
 31
0.0
  0
LINE
  5
15A
330
1F
100
AcDbEntity
  8
image
100
AcDbLine
 10
4.094523761744148
 20
8.235823613253739
 30
0.0
 11
4.08481407474822
 21
8.248229218182363
 31
0.0
  0
LINE
  5
15B
330
1F
100
AcDbEntity
  8
image
100
AcDbLine
 10
4.103693977780531
 20
8.223418008325115
 30
0.0
 11
4.094523761744148
 21
8.235823613253739
 31
0.0
  0
LINE
  5
15C
330
1F
100
AcDbEntity
  8
image
100
AcDbLine
 10
4.151163327154588
 20
8.195370403770141
 30
0.0
 11
4.103693977780531
 21
8.223418008325115
 31
0.0
  0
LINE
  5
15D
330
1F
100
AcDbEntity
  8
image
100
AcDbLine
 10
4.153321139149484
 20
8.195370403770141
 30
0.0
 11
4.151163327154588
 21
8.195370403770141
 31
0.0
  0
LINE
  5
15E
330
1F
100
AcDbEntity
  8
image
100
AcDbLine
 10
4.152781668189946
 20
8.198067399351581
 30
0.0
 11
4.153321139149484
 21
8.195370403770141
 31
0.0
  0
LINE
  5
15F
330
1F
100
AcDbEntity
  8
image
100
AcDbLine
 10
4.151702798114126
 20
8.201303794049307
 30
0.0
 11
4.152781668189946
 21
8.198067399351581
 31
0.0
  0
LINE
  5
160
330
1F
100
AcDbEntity
  8
image
100
AcDbLine
 10
4.15008445707876
 20
8.204539901374035
 30
0.0
 11
4.151702798114126
 21
8.201303794049307
 31
0.0
  0
LINE
  5
161
330
1F
100
AcDbEntity
  8
image
100
AcDbLine
 10
4.148466116043395
 20
8.207776008698765
 30
0.0
 11
4.15008445707876
 21
8.204539901374035
 31
0.0
  0
LINE
  5
162
330
1F
100
AcDbEntity
  8
image
100
AcDbLine
 10
4.147926716927113
 20
8.211012403396491
 30
0.0
 11
4.148466116043395
 21
8.207776008698765
 31
0.0
  0
LINE
  5
163
330
1F
100
AcDbEntity
  8
image
100
AcDbLine
 10
4.158175803039322
 20
8.207776008698765
 30
0.0
 11
4.147926716927113
 21
8.211012403396491
 31
0.0
  0
LINE
  5
164
330
1F
100
AcDbEntity
  8
image
100
AcDbLine
 10
4.157096932963502
 20
8.212090914256069
 30
0.0
 11
4.158175803039322
 21
8.207776008698765
 31
0.0
  0
LINE
  5
165
330
1F
100
AcDbEntity
  8
image
100
AcDbLine
 10
4.154939408341601
 20
8.216945218929662
 30
0.0
 11
4.157096932963502
 21
8.212090914256069
 31
0.0
  0
LINE
  5
166
330
1F
100
AcDbEntity
  8
image
100
AcDbLine
 10
4.152781668189946
 20
8.221260411859963
 30
0.0
 11
4.154939408341601
 21
8.216945218929662
 31
0.0
  0
LINE
  5
167
330
1F
100
AcDbEntity
  8
image
100
AcDbLine
 10
4.15008445707876
 20
8.226115003906553
 30
0.0
 11
4.152781668189946
 21
8.221260411859963
 31
0.0
  0
LINE
  5
168
330
1F
100
AcDbEntity
  8
image
100
AcDbLine
 10
4.147926716927113
 20
8.230429909463857
 30
0.0
 11
4.15008445707876
 21
8.226115003906553
 31
0.0
  0
LINE
  5
169
330
1F
100
AcDbEntity
  8
image
100
AcDbLine
 10
4.14576926414846
 20
8.235284214137452
 30
0.0
 11
4.147926716927113
 21
8.230429909463857
 31
0.0
  0
LINE
  5
16A
330
1F
100
AcDbEntity
  8
image
100
AcDbLine
 10
4.145229793188922
 20
8.237980922345892
 30
0.0
 11
4.14576926414846
 21
8.235284214137452
 31
0.0
  0
LINE
  5
16B
330
1F
100
AcDbEntity
  8
image
100
AcDbLine
 10
4.14900558700294
 20
8.236362724997029
 30
0.0
 11
4.145229793188922
 21
8.237980922345892
 31
0.0
  0
LINE
  5
16C
330
1F
100
AcDbEntity
  8
image
100
AcDbLine
 10
4.155478879301131
 20
8.232047819439724
 30
0.0
 11
4.14900558700294
 21
8.236362724997029
 31
0.0
  0
LINE
  5
16D
330
1F
100
AcDbEntity
  8
image
100
AcDbLine
 10
4.158715202155612
 20
8.229350823858286
 30
0.0
 11
4.155478879301131
 21
8.232047819439724
 31
0.0
  0
LINE
  5
16E
330
1F
100
AcDbEntity
  8
image
100
AcDbLine
 10
4.161951884226335
 20
8.227193514766133
 30
0.0
 11
4.158715202155612
 21
8.229350823858286
 31
0.0
  0
LINE
  5
16F
330
1F
100
AcDbEntity
  8
image
100
AcDbLine
 10
4.163570225261694
 20
8.228811712114996
 30
0.0
 11
4.161951884226335
 21
8.227193514766133
 31
0.0
  0
LINE
  5
170
330
1F
100
AcDbEntity
  8
image
100
AcDbLine
 10
4.160873014150508
 20
8.235284214137452
 30
0.0
 11
4.163570225261694
 21
8.228811712114996
 31
0.0
  0
LINE
  5
171
330
1F
100
AcDbEntity
  8
image
100
AcDbLine
 10
4.157636332079791
 20
8.241217029670622
 30
0.0
 11
4.160873014150508
 21
8.235284214137452
 31
0.0
  0
LINE
  5
172
330
1F
100
AcDbEntity
  8
image
100
AcDbLine
 10
4.154939408341601
 20
8.247689819066074
 30
0.0
 11
4.157636332079791
 21
8.241217029670622
 31
0.0
  0
LINE
  5
173
330
1F
100
AcDbEntity
  8
image
100
AcDbLine
 10
4.152242197230415
 20
8.254162033715534
 30
0.0
 11
4.154939408341601
 21
8.247689819066074
 31
0.0
  0
LINE
  5
174
330
1F
100
AcDbEntity
  8
image
100
AcDbLine
 10
4.15008445707876
 20
8.260634535737988
 30
0.0
 11
4.152242197230415
 21
8.254162033715534
 31
0.0
  0
LINE
  5
175
330
1F
100
AcDbEntity
  8
image
100
AcDbLine
 10
4.152781668189946
 20
8.259556024878412
 30
0.0
 11
4.15008445707876
 21
8.260634535737988
 31
0.0
  0
LINE
  5
176
330
1F
100
AcDbEntity
  8
image
100
AcDbLine
 10
4.155478879301131
 20
8.258476939272838
 30
0.0
 11
4.152781668189946
 21
8.259556024878412
 31
0.0
  0
LINE
  5
177
330
1F
100
AcDbEntity
  8
image
100
AcDbLine
 10
4.158175803039322
 20
8.256319630180684
 30
0.0
 11
4.155478879301131
 21
8.258476939272838
 31
0.0
  0
LINE
  5
178
330
1F
100
AcDbEntity
  8
image
100
AcDbLine
 10
4.160873014150508
 20
8.254701432831822
 30
0.0
 11
4.158175803039322
 21
8.256319630180684
 31
0.0
  0
LINE
  5
179
330
1F
100
AcDbEntity
  8
image
100
AcDbLine
 10
4.163570225261694
 20
8.253083235482957
 30
0.0
 11
4.160873014150508
 21
8.254701432831822
 31
0.0
  0
LINE
  5
17A
330
1F
100
AcDbEntity
  8
image
100
AcDbLine
 10
4.163570225261694
 20
8.256859029296972
 30
0.0
 11
4.163570225261694
 21
8.253083235482957
 31
0.0
  0
LINE
  5
17B
330
1F
100
AcDbEntity
  8
image
100
AcDbLine
 10
4.160873014150508
 20
8.262252733086853
 30
0.0
 11
4.163570225261694
 21
8.256859029296972
 31
0.0
  0
LINE
  5
17C
330
1F
100
AcDbEntity
  8
image
100
AcDbLine
 10
4.158175803039322
 20
8.267646436876733
 30
0.0
 11
4.160873014150508
 21
8.262252733086853
 31
0.0
  0
LINE
  5
17D
330
1F
100
AcDbEntity
  8
image
100
AcDbLine
 10
4.155478879301131
 20
8.273040140666614
 30
0.0
 11
4.158175803039322
 21
8.267646436876733
 31
0.0
  0
LINE
  5
17E
330
1F
100
AcDbEntity
  8
image
100
AcDbLine
 10
4.153321139149484
 20
8.278433844456493
 30
0.0
 11
4.155478879301131
 21
8.273040140666614
 31
0.0
  0
LINE
  5
17F
330
1F
100
AcDbEntity
  8
image
100
AcDbLine
 10
4.152242197230415
 20
8.284367234735659
 30
0.0
 11
4.153321139149484
 21
8.278433844456493
 31
0.0
  0
LINE
  5
180
330
1F
100
AcDbEntity
  8
image
100
AcDbLine
 10
4.154939408341601
 20
8.2827487500138
 30
0.0
 11
4.152242197230415
 21
8.284367234735659
 31
0.0
  0
LINE
  5
181
330
1F
100
AcDbEntity
  8
image
100
AcDbLine
 10
4.158175803039322
 20
8.280591440921645
 30
0.0
 11
4.154939408341601
 21
8.2827487500138
 31
0.0
  0
LINE
  5
182
330
1F
100
AcDbEntity
  8
image
100
AcDbLine
 10
4.160873014150508
 20
8.278433844456493
 30
0.0
 11
4.158175803039322
 21
8.280591440921645
 31
0.0
  0
LINE
  5
183
330
1F
100
AcDbEntity
  8
image
100
AcDbLine
 10
4.164109624377983
 20
8.27627653536434
 30
0.0
 11
4.160873014150508
 21
8.278433844456493
 31
0.0
  0
LINE
  5
184
330
1F
100
AcDbEntity
  8
image
100
AcDbLine
 10
4.167346019075711
 20
8.275197449758767
 30
0.0
 11
4.164109624377983
 21
8.27627653536434
 31
0.0
  0
LINE
  5
185
330
1F
100
AcDbEntity
  8
image
100
AcDbLine
 10
4.164109624377983
 20
8.28167023915422
 30
0.0
 11
4.167346019075711
 21
8.275197449758767
 31
0.0
  0
LINE
  5
186
330
1F
100
AcDbEntity
  8
image
100
AcDbLine
 10
4.160873014150508
 20
8.288142741176676
 30
0.0
 11
4.164109624377983
 21
8.28167023915422
 31
0.0
  0
LINE
  5
187
330
1F
100
AcDbEntity
  8
image
100
AcDbLine
 10
4.157636332079791
 20
8.295154354942424
 30
0.0
 11
4.160873014150508
 21
8.288142741176676
 31
0.0
  0
LINE
  5
188
330
1F
100
AcDbEntity
  8
image
100
AcDbLine
 10
4.154939408341601
 20
8.302166256081164
 30
0.0
 11
4.157636332079791
 21
8.295154354942424
 31
0.0
  0
LINE
  5
189
330
1F
100
AcDbEntity
  8
image
100
AcDbLine
 10
4.152242197230415
 20
8.309178157219909
 30
0.0
 11
4.154939408341601
 21
8.302166256081164
 31
0.0
  0
LINE
  5
18A
330
1F
100
AcDbEntity
  8
image
100
AcDbLine
 10
4.15008445707876
 20
8.316189770985655
 30
0.0
 11
4.152242197230415
 21
8.309178157219909
 31
0.0
  0
LINE
  5
18B
330
1F
100
AcDbEntity
  8
image
100
AcDbLine
 10
4.151702798114126
 20
8.319965564799669
 30
0.0
 11
4.15008445707876
 21
8.316189770985655
 31
0.0
  0
LINE
  5
18C
330
1F
100
AcDbEntity
  8
image
100
AcDbLine
 10
4.163570225261694
 20
8.305942049895179
 30
0.0
 11
4.151702798114126
 21
8.319965564799669
 31
0.0
  0
LINE
  5
18D
330
1F
100
AcDbEntity
  8
image
100
AcDbLine
 10
4.175976764152563
 20
8.293536444966555
 30
0.0
 11
4.163570225261694
 21
8.305942049895179
 31
0.0
  0
LINE
  5
18E
330
1F
100
AcDbEntity
  8
image
100
AcDbLine
 10
4.188383662259677
 20
8.281130840037933
 30
0.0
 11
4.175976764152563
 21
8.293536444966555
 31
0.0
  0
LINE
  5
18F
330
1F
100
AcDbEntity
  8
image
100
AcDbLine
 10
4.200790488523541
 20
8.269264634225597
 30
0.0
 11
4.188383662259677
 21
8.281130840037933
 31
0.0
  0
LINE
  5
190
330
1F
100
AcDbEntity
  8
image
100
AcDbLine
 10
4.213197386630654
 20
8.256319630180684
 30
0.0
 11
4.200790488523541
 21
8.269264634225597
 31
0.0
  0
LINE
  5
191
330
1F
100
AcDbEntity
  8
image
100
AcDbLine
 10
4.225603925521516
 20
8.242835514392481
 30
0.0
 11
4.213197386630654
 21
8.256319630180684
 31
0.0
  0
LINE
  5
192
330
1F
100
AcDbEntity
  8
image
100
AcDbLine
 10
4.227222266556882
 20
8.235284214137452
 30
0.0
 11
4.225603925521516
 21
8.242835514392481
 31
0.0
  0
LINE
  5
193
330
1F
100
AcDbEntity
  8
image
100
AcDbLine
 10
4.227761665673171
 20
8.228272312998708
 30
0.0
 11
4.227222266556882
 21
8.235284214137452
 31
0.0
  0
LINE
  5
194
330
1F
100
AcDbEntity
  8
image
100
AcDbLine
 10
4.226682795597344
 20
8.221260411859963
 30
0.0
 11
4.227761665673171
 21
8.228272312998708
 31
0.0
  0
LINE
  5
195
330
1F
100
AcDbEntity
  8
image
100
AcDbLine
 10
4.223985584486151
 20
8.214787909837509
 30
0.0
 11
4.226682795597344
 21
8.221260411859963
 31
0.0
  0
LINE
  5
196
330
1F
100
AcDbEntity
  8
image
100
AcDbLine
 10
4.22020979067214
 20
8.20885480693134
 30
0.0
 11
4.223985584486151
 21
8.214787909837509
 31
0.0
  0
LINE
  5
197
330
1F
100
AcDbEntity
  8
image
100
AcDbLine
 10
4.216433709485134
 20
8.202921704025174
 30
0.0
 11
4.22020979067214
 21
8.20885480693134
 31
0.0
  0
LINE
  5
198
330
1F
100
AcDbEntity
  8
image
100
AcDbLine
 10
4.211579045595289
 20
8.196988601119004
 30
0.0
 11
4.216433709485134
 21
8.202921704025174
 31
0.0
  0
LINE
  5
199
330
1F
100
AcDbEntity
  8
image
100
AcDbLine
 10
4.206724022489207
 20
8.191055498212836
 30
0.0
 11
4.211579045595289
 21
8.196988601119004
 31
0.0
  0
LINE
  5
19A
330
1F
100
AcDbEntity
  8
image
100
AcDbLine
 10
4.202408829558907
 20
8.184582996190382
 30
0.0
 11
4.206724022489207
 21
8.191055498212836
 31
0.0
  0
LINE
  5
19B
330
1F
100
AcDbEntity
  8
image
100
AcDbLine
 10
4.198093277412355
 20
8.178649893284212
 30
0.0
 11
4.202408829558907
 21
8.184582996190382
 31
0.0
  0
LINE
  5
19C
330
1F
100
AcDbEntity
  8
image
100
AcDbLine
 10
4.194856954557875
 20
8.172177391261758
 30
0.0
 11
4.198093277412355
 21
8.178649893284212
 31
0.0
  0
LINE
  5
19D
330
1F
100
AcDbEntity
  8
image
100
AcDbLine
 10
4.19215974344669
 20
8.165705176612298
 30
0.0
 11
4.194856954557875
 21
8.172177391261758
 31
0.0
  0
LINE
  5
19E
330
1F
100
AcDbEntity
  8
image
100
AcDbLine
 10
4.191620272487152
 20
8.162468781914572
 30
0.0
 11
4.19215974344669
 21
8.165705176612298
 31
0.0
  0
LINE
  5
19F
330
1F
100
AcDbEntity
  8
image
100
AcDbLine
 10
3.548085946785614
 20
8.170559481285891
 30
0.0
 11
3.555098710043351
 21
8.171098593029183
 31
0.0
  0
LINE
  5
1A0
330
1F
100
AcDbEntity
  8
image
100
AcDbLine
 10
3.555098710043351
 20
8.171098593029183
 30
0.0
 11
3.561571714968548
 21
8.172717077751045
 31
0.0
  0
LINE
  5
1A1
330
1F
100
AcDbEntity
  8
image
100
AcDbLine
 10
3.561571714968548
 20
8.172717077751045
 30
0.0
 11
3.568044719893752
 21
8.174874386843198
 31
0.0
  0
LINE
  5
1A2
330
1F
100
AcDbEntity
  8
image
100
AcDbLine
 10
3.568044719893752
 20
8.174874386843198
 30
0.0
 11
3.57397857715404
 21
8.178649893284216
 31
0.0
  0
LINE
  5
1A3
330
1F
100
AcDbEntity
  8
image
100
AcDbLine
 10
3.57397857715404
 20
8.178649893284216
 30
0.0
 11
3.578833241043872
 21
8.182965086214515
 31
0.0
  0
LINE
  5
1A4
330
1F
100
AcDbEntity
  8
image
100
AcDbLine
 10
3.578833241043872
 20
8.182965086214515
 30
0.0
 11
3.583148793190423
 21
8.189437588236973
 31
0.0
  0
LINE
  5
1A5
330
1F
100
AcDbEntity
  8
image
100
AcDbLine
 10
3.583148793190423
 20
8.189437588236973
 30
0.0
 11
3.584227663266251
 21
8.192134296445415
 31
0.0
  0
LINE
  5
1A6
330
1F
100
AcDbEntity
  8
image
100
AcDbLine
 10
3.584227663266251
 20
8.192134296445415
 30
0.0
 11
3.585306569263699
 21
8.195370403770143
 31
0.0
  0
LINE
  5
1A7
330
1F
100
AcDbEntity
  8
image
100
AcDbLine
 10
3.585306569263699
 20
8.195370403770143
 30
0.0
 11
3.585306569263699
 21
8.202382304908887
 31
0.0
  0
LINE
  5
1A8
330
1F
100
AcDbEntity
  8
image
100
AcDbLine
 10
3.585306569263699
 20
8.202382304908887
 30
0.0
 11
3.583688228228333
 21
8.206158098722902
 31
0.0
  0
LINE
  5
1A9
330
1F
100
AcDbEntity
  8
image
100
AcDbLine
 10
3.583688228228333
 20
8.206158098722902
 30
0.0
 11
3.581530452155065
 21
8.208854806931343
 31
0.0
  0
LINE
  5
1AA
330
1F
100
AcDbEntity
  8
image
100
AcDbLine
 10
3.581530452155065
 20
8.208854806931343
 30
0.0
 11
3.579372676081789
 21
8.210473004280206
 31
0.0
  0
LINE
  5
1AB
330
1F
100
AcDbEntity
  8
image
100
AcDbLine
 10
3.579372676081789
 20
8.210473004280206
 30
0.0
 11
3.577214935930141
 21
8.211551802512783
 31
0.0
  0
LINE
  5
1AC
330
1F
100
AcDbEntity
  8
image
100
AcDbLine
 10
3.577214935930141
 20
8.211551802512783
 30
0.0
 11
3.574518012191951
 21
8.212630313372359
 31
0.0
  0
LINE
  5
1AD
330
1F
100
AcDbEntity
  8
image
100
AcDbLine
 10
3.574518012191951
 20
8.212630313372359
 30
0.0
 11
3.553480404929607
 21
8.212630313372359
 31
0.0
  0
LINE
  5
1AE
330
1F
100
AcDbEntity
  8
image
100
AcDbLine
 10
3.553480404929607
 20
8.212630313372359
 30
0.0
 11
3.532996493590189
 21
8.170559481285891
 31
0.0
  0
LINE
  5
1AF
330
1F
100
AcDbEntity
  8
image
100
AcDbLine
 10
3.532996493590189
 20
8.170559481285891
 30
0.0
 11
3.548085946785614
 21
8.170559481285891
 31
0.0
  0
LINE
  5
1B0
330
1F
100
AcDbEntity
  8
image
100
AcDbLine
 10
3.598252543192478
 20
8.249847128158231
 30
0.0
 11
3.590700668191454
 21
8.251465325507096
 31
0.0
  0
LINE
  5
1B1
330
1F
100
AcDbEntity
  8
image
100
AcDbLine
 10
3.605265306450215
 20
8.24715041994979
 30
0.0
 11
3.598252543192478
 21
8.249847128158231
 31
0.0
  0
LINE
  5
1B2
330
1F
100
AcDbEntity
  8
image
100
AcDbLine
 10
3.612277746413329
 20
8.243374913508773
 30
0.0
 11
3.605265306450215
 21
8.24715041994979
 31
0.0
  0
LINE
  5
1B3
330
1F
100
AcDbEntity
  8
image
100
AcDbLine
 10
3.618211316300615
 20
8.23905972057847
 30
0.0
 11
3.612277746413329
 21
8.243374913508773
 31
0.0
  0
LINE
  5
1B4
330
1F
100
AcDbEntity
  8
image
100
AcDbLine
 10
3.623605738522987
 20
8.233666016788589
 30
0.0
 11
3.618211316300615
 21
8.23905972057847
 31
0.0
  0
LINE
  5
1B5
330
1F
100
AcDbEntity
  8
image
100
AcDbLine
 10
3.627920967374922
 20
8.227193514766133
 30
0.0
 11
3.623605738522987
 21
8.233666016788589
 31
0.0
  0
LINE
  5
1B6
330
1F
100
AcDbEntity
  8
image
100
AcDbLine
 10
3.631157613524018
 20
8.22018161362739
 30
0.0
 11
3.627920967374922
 21
8.227193514766133
 31
0.0
  0
LINE
  5
1B7
330
1F
100
AcDbEntity
  8
image
100
AcDbLine
 10
3.633315389597294
 20
8.212630313372359
 30
0.0
 11
3.631157613524018
 21
8.22018161362739
 31
0.0
  0
LINE
  5
1B8
330
1F
100
AcDbEntity
  8
image
100
AcDbLine
 10
3.634933407338029
 20
8.205079013117329
 30
0.0
 11
3.633315389597294
 21
8.212630313372359
 31
0.0
  0
LINE
  5
1B9
330
1F
100
AcDbEntity
  8
image
100
AcDbLine
 10
3.634933407338029
 20
8.198606798467869
 30
0.0
 11
3.634933407338029
 21
8.205079013117329
 31
0.0
  0
LINE
  5
1BA
330
1F
100
AcDbEntity
  8
image
100
AcDbLine
 10
3.634394259673114
 20
8.192134296445415
 30
0.0
 11
3.634933407338029
 21
8.198606798467869
 31
0.0
  0
LINE
  5
1BB
330
1F
100
AcDbEntity
  8
image
100
AcDbLine
 10
3.632775954559384
 20
8.186201193539245
 30
0.0
 11
3.634394259673114
 21
8.192134296445415
 31
0.0
  0
LINE
  5
1BC
330
1F
100
AcDbEntity
  8
image
100
AcDbLine
 10
3.630618178486108
 20
8.179728691516791
 30
0.0
 11
3.632775954559384
 21
8.186201193539245
 31
0.0
  0
LINE
  5
1BD
330
1F
100
AcDbEntity
  8
image
100
AcDbLine
 10
3.627920967374922
 20
8.173795588610621
 30
0.0
 11
3.630618178486108
 21
8.179728691516791
 31
0.0
  0
LINE
  5
1BE
330
1F
100
AcDbEntity
  8
image
100
AcDbLine
 10
3.624145173560904
 20
8.167323086588167
 30
0.0
 11
3.627920967374922
 21
8.173795588610621
 31
0.0
  0
LINE
  5
1BF
330
1F
100
AcDbEntity
  8
image
100
AcDbLine
 10
3.618750751338526
 20
8.159232387216848
 30
0.0
 11
3.624145173560904
 21
8.167323086588167
 31
0.0
  0
LINE
  5
1C0
330
1F
100
AcDbEntity
  8
image
100
AcDbLine
 10
3.612817181451239
 20
8.15276017256739
 30
0.0
 11
3.618750751338526
 21
8.159232387216848
 31
0.0
  0
LINE
  5
1C1
330
1F
100
AcDbEntity
  8
image
100
AcDbLine
 10
3.60634388915304
 20
8.146826782288224
 30
0.0
 11
3.612817181451239
 21
8.15276017256739
 31
0.0
  0
LINE
  5
1C2
330
1F
100
AcDbEntity
  8
image
100
AcDbLine
 10
3.599331449189926
 20
8.142511876730919
 30
0.0
 11
3.60634388915304
 21
8.146826782288224
 31
0.0
  0
LINE
  5
1C3
330
1F
100
AcDbEntity
  8
image
100
AcDbLine
 10
3.591779574188902
 20
8.138736370289903
 30
0.0
 11
3.599331449189926
 21
8.142511876730919
 31
0.0
  0
LINE
  5
1C4
330
1F
100
AcDbEntity
  8
image
100
AcDbLine
 10
3.583688228228333
 20
8.13603966208146
 30
0.0
 11
3.591779574188902
 21
8.138736370289903
 31
0.0
  0
LINE
  5
1C5
330
1F
100
AcDbEntity
  8
image
100
AcDbLine
 10
3.575596918189399
 20
8.13388206561631
 30
0.0
 11
3.583688228228333
 21
8.13603966208146
 31
0.0
  0
LINE
  5
1C6
330
1F
100
AcDbEntity
  8
image
100
AcDbLine
 10
3.56696613719092
 20
8.132263868267445
 30
0.0
 11
3.575596918189399
 21
8.13388206561631
 31
0.0
  0
LINE
  5
1C7
330
1F
100
AcDbEntity
  8
image
100
AcDbLine
 10
3.558335068819452
 20
8.131724756524155
 30
0.0
 11
3.56696613719092
 21
8.132263868267445
 31
0.0
  0
LINE
  5
1C8
330
1F
100
AcDbEntity
  8
image
100
AcDbLine
 10
3.576675788265226
 20
8.060527234277142
 30
0.0
 11
3.558335068819452
 21
8.131724756524155
 31
0.0
  0
LINE
  5
1C9
330
1F
100
AcDbEntity
  8
image
100
AcDbLine
 10
3.529893475884914
 20
8.060527234277142
 30
0.0
 11
3.576675788265226
 21
8.060527234277142
 31
0.0
  0
LINE
  5
1CA
330
1F
100
AcDbEntity
  8
image
100
AcDbLine
 10
3.511405118561678
 20
8.12794896271014
 30
0.0
 11
3.529893475884914
 21
8.060527234277142
 31
0.0
  0
LINE
  5
1CB
330
1F
100
AcDbEntity
  8
image
100
AcDbLine
 10
3.47688204845022
 20
8.060527234277142
 30
0.0
 11
3.511405118561678
 21
8.12794896271014
 31
0.0
  0
LINE
  5
1CC
330
1F
100
AcDbEntity
  8
image
100
AcDbLine
 10
3.583148793190423
 20
8.252004724623382
 30
0.0
 11
3.516799540784056
 21
8.252004724623382
 31
0.0
  0
LINE
  5
1CD
330
1F
100
AcDbEntity
  8
image
100
AcDbLine
 10
3.590700668191454
 20
8.251465325507096
 30
0.0
 11
3.583148793190423
 21
8.252004724623382
 31
0.0
  0
LINE
  5
1CE
330
1F
100
AcDbEntity
  8
image
100
AcDbLine
 10
3.422399917857615
 20
8.060527234277145
 30
0.0
 11
3.47688204845022
 21
8.060527234277142
 31
0.0
  0
LINE
  5
1CF
330
1F
100
AcDbEntity
  8
image
100
AcDbLine
 10
3.516799540784056
 20
8.252004724623382
 30
0.0
 11
3.422399917857615
 21
8.060527234277145
 31
0.0
  0
LINE
  5
1D0
330
1F
100
AcDbEntity
  8
image
100
AcDbLine
 10
3.856637400227834
 20
8.203461103141462
 30
0.0
 11
3.809167727559161
 21
8.203461103141462
 31
0.0
  0
LINE
  5
1D1
330
1F
100
AcDbEntity
  8
image
100
AcDbLine
 10
3.787870873931459
 20
8.060527234277142
 30
0.0
 11
3.856637400227834
 21
8.203461103141462
 31
0.0
  0
LINE
  5
1D2
330
1F
100
AcDbEntity
  8
image
100
AcDbLine
 10
3.740942647911677
 20
8.060527234277142
 30
0.0
 11
3.787870873931459
 21
8.060527234277142
 31
0.0
  0
LINE
  5
1D3
330
1F
100
AcDbEntity
  8
image
100
AcDbLine
 10
3.809167727559161
 20
8.203461103141462
 30
0.0
 11
3.740942647911677
 21
8.060527234277142
 31
0.0
  0
LINE
  5
1D4
330
1F
100
AcDbEntity
  8
image
100
AcDbLine
 10
3.678682138513591
 20
8.117161555130381
 30
0.0
 11
3.700743512079488
 21
8.117161555130381
 31
0.0
  0
LINE
  5
1D5
330
1F
100
AcDbEntity
  8
image
100
AcDbLine
 10
3.700743512079488
 20
8.117161555130381
 30
0.0
 11
3.707755952042595
 21
8.154378082543257
 31
0.0
  0
LINE
  5
1D6
330
1F
100
AcDbEntity
  8
image
100
AcDbLine
 10
3.707755952042595
 20
8.154378082543257
 30
0.0
 11
3.678682138513591
 21
8.117161555130381
 31
0.0
  0
LINE
  5
1D7
330
1F
100
AcDbEntity
  8
image
100
AcDbLine
 10
3.759001418525286
 20
8.203461103141462
 30
0.0
 11
3.693730748821751
 21
8.203461103141462
 31
0.0
  0
LINE
  5
1D8
330
1F
100
AcDbEntity
  8
image
100
AcDbLine
 10
3.733108824078488
 20
8.060527234277142
 30
0.0
 11
3.759001418525286
 21
8.203461103141462
 31
0.0
  0
LINE
  5
1D9
330
1F
100
AcDbEntity
  8
image
100
AcDbLine
 10
3.689954990929361
 20
8.060527234277142
 30
0.0
 11
3.733108824078488
 21
8.060527234277142
 31
0.0
  0
LINE
  5
1DA
330
1F
100
AcDbEntity
  8
image
100
AcDbLine
 10
3.693191313783841
 20
8.082102336809661
 30
0.0
 11
3.689954990929361
 21
8.060527234277142
 31
0.0
  0
LINE
  5
1DB
330
1F
100
AcDbEntity
  8
image
100
AcDbLine
 10
3.651293516163484
 20
8.082102336809661
 30
0.0
 11
3.693191313783841
 21
8.082102336809661
 31
0.0
  0
LINE
  5
1DC
330
1F
100
AcDbEntity
  8
image
100
AcDbLine
 10
3.634439089860721
 20
8.060527234277142
 30
0.0
 11
3.651293516163484
 21
8.082102336809661
 31
0.0
  0
LINE
  5
1DD
330
1F
100
AcDbEntity
  8
image
100
AcDbLine
 10
3.582069887192975
 20
8.060527234277142
 30
0.0
 11
3.634439089860721
 21
8.060527234277142
 31
0.0
  0
LINE
  5
1DE
330
1F
100
AcDbEntity
  8
image
100
AcDbLine
 10
3.693730748821751
 20
8.203461103141462
 30
0.0
 11
3.582069887192975
 21
8.060527234277142
 31
0.0
  0
LINE
  5
1DF
330
1F
100
AcDbEntity
  8
image
100
AcDbLine
 10
4.476436584261226
 20
8.204539901374035
 30
0.0
 11
4.406851009000379
 21
8.061606319882713
 31
0.0
  0
LINE
  5
1E0
330
1F
100
AcDbEntity
  8
image
100
AcDbLine
 10
4.52336675004874
 20
8.204539901374035
 30
0.0
 11
4.476436584261226
 21
8.204539901374035
 31
0.0
  0
LINE
  5
1E1
330
1F
100
AcDbEntity
  8
image
100
AcDbLine
 10
4.452702017339071
 20
8.061606319882713
 30
0.0
 11
4.52336675004874
 21
8.204539901374035
 31
0.0
  0
LINE
  5
1E2
330
1F
100
AcDbEntity
  8
image
100
AcDbLine
 10
4.406851009000379
 20
8.061606319882713
 30
0.0
 11
4.452702017339071
 21
8.061606319882713
 31
0.0
  0
LINE
  5
1E3
330
1F
100
AcDbEntity
  8
image
100
AcDbLine
 10
3.929999056675694
 20
8.203461103141462
 30
0.0
 11
3.884148048337003
 21
8.203461103141462
 31
0.0
  0
LINE
  5
1E4
330
1F
100
AcDbEntity
  8
image
100
AcDbLine
 10
3.939169272712084
 20
8.134421464732595
 30
0.0
 11
3.929999056675694
 21
8.203461103141462
 31
0.0
  0
LINE
  5
1E5
330
1F
100
AcDbEntity
  8
image
100
AcDbLine
 10
3.973692396705987
 20
8.203461103141462
 30
0.0
 11
3.939169272712084
 21
8.134421464732595
 31
0.0
  0
LINE
  5
1E6
330
1F
100
AcDbEntity
  8
image
100
AcDbLine
 10
4.019543764260923
 20
8.203461103141462
 30
0.0
 11
3.973692396705987
 21
8.203461103141462
 31
0.0
  0
LINE
  5
1E7
330
1F
100
AcDbEntity
  8
image
100
AcDbLine
 10
3.947800089632177
 20
8.061066633393428
 30
0.0
 11
4.019543764260923
 21
8.203461103141462
 31
0.0
  0
LINE
  5
1E8
330
1F
100
AcDbEntity
  8
image
100
AcDbLine
 10
3.906264274223793
 20
8.061066633393428
 30
0.0
 11
3.947800089632177
 21
8.061066633393428
 31
0.0
  0
LINE
  5
1E9
330
1F
100
AcDbEntity
  8
image
100
AcDbLine
 10
3.897094058187403
 20
8.134421464732596
 30
0.0
 11
3.906264274223793
 21
8.061066633393428
 31
0.0
  0
LINE
  5
1EA
330
1F
100
AcDbEntity
  8
image
100
AcDbLine
 10
3.860413194041852
 20
8.06106663339343
 30
0.0
 11
3.897094058187403
 21
8.134421464732596
 31
0.0
  0
LINE
  5
1EB
330
1F
100
AcDbEntity
  8
image
100
AcDbLine
 10
3.815641019857353
 20
8.06106663339343
 30
0.0
 11
3.860413194041852
 21
8.06106663339343
 31
0.0
  0
LINE
  5
1EC
330
1F
100
AcDbEntity
  8
image
100
AcDbLine
 10
3.884148048337003
 20
8.203461103141462
 30
0.0
 11
3.815641019857353
 21
8.06106663339343
 31
0.0
  0
LINE
  5
1ED
330
1F
100
AcDbEntity
  8
image
100
AcDbLine
 10
4.594031339071912
 20
8.144669473196065
 30
0.0
 11
4.598346819375207
 21
8.14628767054493
 31
0.0
  0
LINE
  5
1EE
330
1F
100
AcDbEntity
  8
image
100
AcDbLine
 10
4.598346819375207
 20
8.14628767054493
 30
0.0
 11
4.602122613189225
 21
8.14952377786966
 31
0.0
  0
LINE
  5
1EF
330
1F
100
AcDbEntity
  8
image
100
AcDbLine
 10
4.602122613189225
 20
8.14952377786966
 30
0.0
 11
4.604819896143659
 21
8.153299571683675
 31
0.0
  0
LINE
  5
1F0
330
1F
100
AcDbEntity
  8
image
100
AcDbLine
 10
4.604819896143659
 20
8.153299571683675
 30
0.0
 11
4.606977636295314
 21
8.157075078124689
 31
0.0
  0
LINE
  5
1F1
330
1F
100
AcDbEntity
  8
image
100
AcDbLine
 10
4.606977636295314
 20
8.157075078124689
 30
0.0
 11
4.608056434527886
 21
8.161389983681994
 31
0.0
  0
LINE
  5
1F2
330
1F
100
AcDbEntity
  8
image
100
AcDbLine
 10
4.608056434527886
 20
8.161389983681994
 30
0.0
 11
4.607517035411596
 21
8.165705176612298
 31
0.0
  0
LINE
  5
1F3
330
1F
100
AcDbEntity
  8
image
100
AcDbLine
 10
4.607517035411596
 20
8.165705176612298
 30
0.0
 11
4.605359295259948
 21
8.169480683053313
 31
0.0
  0
LINE
  5
1F4
330
1F
100
AcDbEntity
  8
image
100
AcDbLine
 10
4.605359295259948
 20
8.169480683053313
 30
0.0
 11
4.603201555108294
 21
8.171637992145468
 31
0.0
  0
LINE
  5
1F5
330
1F
100
AcDbEntity
  8
image
100
AcDbLine
 10
4.603201555108294
 20
8.171637992145468
 30
0.0
 11
4.599965160410572
 21
8.172717077751043
 31
0.0
  0
LINE
  5
1F6
330
1F
100
AcDbEntity
  8
image
100
AcDbLine
 10
4.599965160410572
 20
8.172717077751043
 30
0.0
 11
4.598076545071072
 21
8.173256476867328
 31
0.0
  0
LINE
  5
1F7
330
1F
100
AcDbEntity
  8
image
100
AcDbLine
 10
4.598076545071072
 20
8.173256476867328
 30
0.0
 11
4.583782181116446
 21
8.173256476867328
 31
0.0
  0
LINE
  5
1F8
330
1F
100
AcDbEntity
  8
image
100
AcDbLine
 10
4.583782181116446
 20
8.173256476867328
 30
0.0
 11
4.567599489195321
 21
8.144130361452777
 31
0.0
  0
LINE
  5
1F9
330
1F
100
AcDbEntity
  8
image
100
AcDbLine
 10
4.567599489195321
 20
8.144130361452777
 30
0.0
 11
4.591604617794614
 21
8.144130361452777
 31
0.0
  0
LINE
  5
1FA
330
1F
100
AcDbEntity
  8
image
100
AcDbLine
 10
4.591604617794614
 20
8.144130361452777
 30
0.0
 11
4.594031339071912
 21
8.144669473196065
 31
0.0
  0
LINE
  5
1FB
330
1F
100
AcDbEntity
  8
image
100
AcDbLine
 10
4.611832228341904
 20
8.204539901374035
 30
0.0
 11
4.548998697186823
 21
8.204539901374035
 31
0.0
  0
LINE
  5
1FC
330
1F
100
AcDbEntity
  8
image
100
AcDbLine
 10
4.61884499159964
 20
8.204000502257747
 30
0.0
 11
4.611832228341904
 21
8.204539901374035
 31
0.0
  0
LINE
  5
1FD
330
1F
100
AcDbEntity
  8
image
100
AcDbLine
 10
4.625318068368086
 20
8.202382304908883
 30
0.0
 11
4.61884499159964
 21
8.204000502257747
 31
0.0
  0
LINE
  5
1FE
330
1F
100
AcDbEntity
  8
image
100
AcDbLine
 10
4.631251602333752
 20
8.199685596700442
 30
0.0
 11
4.625318068368086
 21
8.202382304908883
 31
0.0
  0
LINE
  5
1FF
330
1F
100
AcDbEntity
  8
image
100
AcDbLine
 10
4.636646024556131
 20
8.195909802886427
 30
0.0
 11
4.631251602333752
 21
8.199685596700442
 31
0.0
  0
LINE
  5
200
330
1F
100
AcDbEntity
  8
image
100
AcDbLine
 10
4.64096121748643
 20
8.191055498212836
 30
0.0
 11
4.636646024556131
 21
8.195909802886427
 31
0.0
  0
LINE
  5
201
330
1F
100
AcDbEntity
  8
image
100
AcDbLine
 10
4.644737298673437
 20
8.185661794422957
 30
0.0
 11
4.64096121748643
 21
8.191055498212836
 31
0.0
  0
LINE
  5
202
330
1F
100
AcDbEntity
  8
image
100
AcDbLine
 10
4.647434581627878
 20
8.178649893284212
 30
0.0
 11
4.644737298673437
 21
8.185661794422957
 31
0.0
  0
LINE
  5
203
330
1F
100
AcDbEntity
  8
image
100
AcDbLine
 10
4.649592034406524
 20
8.172177391261756
 30
0.0
 11
4.647434581627878
 21
8.178649893284212
 31
0.0
  0
LINE
  5
204
330
1F
100
AcDbEntity
  8
image
100
AcDbLine
 10
4.649592034406524
 20
8.165705176612298
 30
0.0
 11
4.649592034406524
 21
8.172177391261756
 31
0.0
  0
LINE
  5
205
330
1F
100
AcDbEntity
  8
image
100
AcDbLine
 10
4.649052491603744
 20
8.159232387216844
 30
0.0
 11
4.649592034406524
 21
8.165705176612298
 31
0.0
  0
LINE
  5
206
330
1F
100
AcDbEntity
  8
image
100
AcDbLine
 10
4.647973980744168
 20
8.152760172567385
 30
0.0
 11
4.649052491603744
 21
8.159232387216844
 31
0.0
  0
LINE
  5
207
330
1F
100
AcDbEntity
  8
image
100
AcDbLine
 10
4.645816240592512
 20
8.14682678228822
 30
0.0
 11
4.647973980744168
 21
8.152760172567385
 31
0.0
  0
LINE
  5
208
330
1F
100
AcDbEntity
  8
image
100
AcDbLine
 10
4.643118957638078
 20
8.140893966755051
 30
0.0
 11
4.645816240592512
 21
8.14682678228822
 31
0.0
  0
LINE
  5
209
330
1F
100
AcDbEntity
  8
image
100
AcDbLine
 10
4.639882275567354
 20
8.135500262965171
 30
0.0
 11
4.643118957638078
 21
8.140893966755051
 31
0.0
  0
LINE
  5
20A
330
1F
100
AcDbEntity
  8
image
100
AcDbLine
 10
4.635027683520765
 20
8.129567160059002
 30
0.0
 11
4.639882275567354
 21
8.135500262965171
 31
0.0
  0
LINE
  5
20B
330
1F
100
AcDbEntity
  8
image
100
AcDbLine
 10
4.630172660414682
 20
8.124712855385409
 30
0.0
 11
4.635027683520765
 21
8.129567160059002
 31
0.0
  0
LINE
  5
20C
330
1F
100
AcDbEntity
  8
image
100
AcDbLine
 10
4.624778525565306
 20
8.120937061571394
 30
0.0
 11
4.630172660414682
 21
8.124712855385409
 31
0.0
  0
LINE
  5
20D
330
1F
100
AcDbEntity
  8
image
100
AcDbLine
 10
4.61884499159964
 20
8.117700954246666
 30
0.0
 11
4.624778525565306
 21
8.120937061571394
 31
0.0
  0
LINE
  5
20E
330
1F
100
AcDbEntity
  8
image
100
AcDbLine
 10
4.61237177114469
 20
8.115543357781515
 30
0.0
 11
4.61884499159964
 21
8.117700954246666
 31
0.0
  0
LINE
  5
20F
330
1F
100
AcDbEntity
  8
image
100
AcDbLine
 10
4.605898694376238
 20
8.113385761316363
 30
0.0
 11
4.61237177114469
 21
8.115543357781515
 31
0.0
  0
LINE
  5
210
330
1F
100
AcDbEntity
  8
image
100
AcDbLine
 10
4.598886218491497
 20
8.112307250456785
 30
0.0
 11
4.605898694376238
 21
8.113385761316363
 31
0.0
  0
LINE
  5
211
330
1F
100
AcDbEntity
  8
image
100
AcDbLine
 10
4.617226650564275
 20
8.062684830742291
 30
0.0
 11
4.598886218491497
 21
8.112307250456785
 31
0.0
  0
LINE
  5
212
330
1F
100
AcDbEntity
  8
image
100
AcDbLine
 10
4.572454224928409
 20
8.062684830742291
 30
0.0
 11
4.617226650564275
 21
8.062684830742291
 31
0.0
  0
LINE
  5
213
330
1F
100
AcDbEntity
  8
image
100
AcDbLine
 10
4.552495451820272
 20
8.112846649573073
 30
0.0
 11
4.572454224928409
 21
8.062684830742291
 31
0.0
  0
LINE
  5
214
330
1F
100
AcDbEntity
  8
image
100
AcDbLine
 10
4.526603144746468
 20
8.062145718999001
 30
0.0
 11
4.552495451820272
 21
8.112846649573073
 31
0.0
  0
LINE
  5
215
330
1F
100
AcDbEntity
  8
image
100
AcDbLine
 10
4.480212665448239
 20
8.062145718999001
 30
0.0
 11
4.526603144746468
 21
8.062145718999001
 31
0.0
  0
LINE
  5
216
330
1F
100
AcDbEntity
  8
image
100
AcDbLine
 10
4.548998697186823
 20
8.204539901374035
 30
0.0
 11
4.480212665448239
 21
8.062145718999001
 31
0.0
  0
LINE
  5
217
330
1F
100
AcDbEntity
  8
image
100
AcDbLine
 10
4.386352764932704
 20
8.180807202376367
 30
0.0
 11
4.390128558746721
 21
8.184043597074092
 31
0.0
  0
LINE
  5
218
330
1F
100
AcDbEntity
  8
image
100
AcDbLine
 10
4.390128558746721
 20
8.184043597074092
 30
0.0
 11
4.393904639933728
 21
8.18727999177182
 31
0.0
  0
LINE
  5
219
330
1F
100
AcDbEntity
  8
image
100
AcDbLine
 10
4.393904639933728
 20
8.18727999177182
 30
0.0
 11
4.397141322004459
 21
8.191055498212836
 31
0.0
  0
LINE
  5
21A
330
1F
100
AcDbEntity
  8
image
100
AcDbLine
 10
4.397141322004459
 20
8.191055498212836
 30
0.0
 11
4.399298774783104
 21
8.195370403770141
 31
0.0
  0
LINE
  5
21B
330
1F
100
AcDbEntity
  8
image
100
AcDbLine
 10
4.399298774783104
 20
8.195370403770141
 30
0.0
 11
4.400377644858931
 21
8.199146197584155
 31
0.0
  0
LINE
  5
21C
330
1F
100
AcDbEntity
  8
image
100
AcDbLine
 10
4.400377644858931
 20
8.199146197584155
 30
0.0
 11
4.400377644858931
 21
8.20346110314146
 31
0.0
  0
LINE
  5
21D
330
1F
100
AcDbEntity
  8
image
100
AcDbLine
 10
4.400377644858931
 20
8.20346110314146
 30
0.0
 11
4.399298774783104
 21
8.207236609582478
 31
0.0
  0
LINE
  5
21E
330
1F
100
AcDbEntity
  8
image
100
AcDbLine
 10
4.399298774783104
 20
8.207236609582478
 30
0.0
 11
4.397141322004459
 21
8.210473004280204
 31
0.0
  0
LINE
  5
21F
330
1F
100
AcDbEntity
  8
image
100
AcDbLine
 10
4.397141322004459
 20
8.210473004280204
 30
0.0
 11
4.394444110893273
 21
8.212090914256069
 31
0.0
  0
LINE
  5
220
330
1F
100
AcDbEntity
  8
image
100
AcDbLine
 10
4.394444110893273
 20
8.212090914256069
 30
0.0
 11
4.391207428822542
 21
8.213709398977931
 31
0.0
  0
LINE
  5
221
330
1F
100
AcDbEntity
  8
image
100
AcDbLine
 10
4.391207428822542
 20
8.213709398977931
 30
0.0
 11
4.387971105968062
 21
8.214248798094219
 31
0.0
  0
LINE
  5
222
330
1F
100
AcDbEntity
  8
image
100
AcDbLine
 10
4.387971105968062
 20
8.214248798094219
 30
0.0
 11
4.371788126673942
 21
8.214248798094219
 31
0.0
  0
LINE
  5
223
330
1F
100
AcDbEntity
  8
image
100
AcDbLine
 10
4.371788126673942
 20
8.214248798094219
 30
0.0
 11
4.351289954449516
 21
8.175413785959483
 31
0.0
  0
LINE
  5
224
330
1F
100
AcDbEntity
  8
image
100
AcDbLine
 10
4.351289954449516
 20
8.175413785959483
 30
0.0
 11
4.367472933743642
 21
8.175413785959483
 31
0.0
  0
LINE
  5
225
330
1F
100
AcDbEntity
  8
image
100
AcDbLine
 10
4.367472933743642
 20
8.175413785959483
 30
0.0
 11
4.372867068593018
 21
8.175952897702773
 31
0.0
  0
LINE
  5
226
330
1F
100
AcDbEntity
  8
image
100
AcDbLine
 10
4.372867068593018
 20
8.175952897702773
 30
0.0
 11
4.377722019855852
 21
8.176492296819063
 31
0.0
  0
LINE
  5
227
330
1F
100
AcDbEntity
  8
image
100
AcDbLine
 10
4.377722019855852
 20
8.176492296819063
 30
0.0
 11
4.382037284629401
 21
8.178110781540922
 31
0.0
  0
LINE
  5
228
330
1F
100
AcDbEntity
  8
image
100
AcDbLine
 10
4.382037284629401
 20
8.178110781540922
 30
0.0
 11
4.386352764932704
 21
8.180807202376367
 31
0.0
  0
LINE
  5
229
330
1F
100
AcDbEntity
  8
image
100
AcDbLine
 10
4.338343944599116
 20
8.251465325507092
 30
0.0
 11
4.244483756710585
 21
8.062684830742291
 31
0.0
  0
LINE
  5
22A
330
1F
100
AcDbEntity
  8
image
100
AcDbLine
 10
4.397680792963989
 20
8.251465325507092
 30
0.0
 11
4.338343944599116
 21
8.251465325507092
 31
0.0
  0
LINE
  5
22B
330
1F
100
AcDbEntity
  8
image
100
AcDbLine
 10
4.402535456853835
 20
8.250925926390804
 30
0.0
 11
4.397680792963989
 21
8.251465325507092
 31
0.0
  0
LINE
  5
22C
330
1F
100
AcDbEntity
  8
image
100
AcDbLine
 10
4.407929519859956
 20
8.250386527274516
 30
0.0
 11
4.402535456853835
 21
8.250925926390804
 31
0.0
  0
LINE
  5
22D
330
1F
100
AcDbEntity
  8
image
100
AcDbLine
 10
4.413863413041872
 20
8.249307729041941
 30
0.0
 11
4.407929519859956
 21
8.250386527274516
 31
0.0
  0
LINE
  5
22E
330
1F
100
AcDbEntity
  8
image
100
AcDbLine
 10
4.419796947007538
 20
8.247689819066074
 30
0.0
 11
4.413863413041872
 21
8.249307729041941
 31
0.0
  0
LINE
  5
22F
330
1F
100
AcDbEntity
  8
image
100
AcDbLine
 10
4.425191369229909
 20
8.244992823484636
 30
0.0
 11
4.419796947007538
 21
8.247689819066074
 31
0.0
  0
LINE
  5
230
330
1F
100
AcDbEntity
  8
image
100
AcDbLine
 10
4.430585504079285
 20
8.241217029670622
 30
0.0
 11
4.425191369229909
 21
8.244992823484636
 31
0.0
  0
LINE
  5
231
330
1F
100
AcDbEntity
  8
image
100
AcDbLine
 10
4.435440527185368
 20
8.236902124113317
 30
0.0
 11
4.430585504079285
 21
8.241217029670622
 31
0.0
  0
LINE
  5
232
330
1F
100
AcDbEntity
  8
image
100
AcDbLine
 10
4.439755720115668
 20
8.230969308580148
 30
0.0
 11
4.435440527185368
 21
8.236902124113317
 31
0.0
  0
LINE
  5
233
330
1F
100
AcDbEntity
  8
image
100
AcDbLine
 10
4.442992402186399
 20
8.224496519184693
 30
0.0
 11
4.439755720115668
 21
8.230969308580148
 31
0.0
  0
LINE
  5
234
330
1F
100
AcDbEntity
  8
image
100
AcDbLine
 10
4.444610743221764
 20
8.218024304535234
 30
0.0
 11
4.442992402186399
 21
8.224496519184693
 31
0.0
  0
LINE
  5
235
330
1F
100
AcDbEntity
  8
image
100
AcDbLine
 10
4.445150142338047
 20
8.211012403396491
 30
0.0
 11
4.444610743221764
 21
8.218024304535234
 31
0.0
  0
LINE
  5
236
330
1F
100
AcDbEntity
  8
image
100
AcDbLine
 10
4.445150142338047
 20
8.204000502257748
 30
0.0
 11
4.445150142338047
 21
8.211012403396491
 31
0.0
  0
LINE
  5
237
330
1F
100
AcDbEntity
  8
image
100
AcDbLine
 10
4.444071200418977
 20
8.197528000235291
 30
0.0
 11
4.445150142338047
 21
8.204000502257748
 31
0.0
  0
LINE
  5
238
330
1F
100
AcDbEntity
  8
image
100
AcDbLine
 10
4.442453003070109
 20
8.191594897329125
 30
0.0
 11
4.444071200418977
 21
8.197528000235291
 31
0.0
  0
LINE
  5
239
330
1F
100
AcDbEntity
  8
image
100
AcDbLine
 10
4.440295119231957
 20
8.185661794422957
 30
0.0
 11
4.442453003070109
 21
8.191594897329125
 31
0.0
  0
LINE
  5
23A
330
1F
100
AcDbEntity
  8
image
100
AcDbLine
 10
4.437597979964027
 20
8.178649893284212
 30
0.0
 11
4.440295119231957
 21
8.185661794422957
 31
0.0
  0
LINE
  5
23B
330
1F
100
AcDbEntity
  8
image
100
AcDbLine
 10
4.43328278703372
 20
8.172177391261758
 30
0.0
 11
4.437597979964027
 21
8.178649893284212
 31
0.0
  0
LINE
  5
23C
330
1F
100
AcDbEntity
  8
image
100
AcDbLine
 10
4.428427763927631
 20
8.166783687471879
 30
0.0
 11
4.43328278703372
 21
8.172177391261758
 31
0.0
  0
LINE
  5
23D
330
1F
100
AcDbEntity
  8
image
100
AcDbLine
 10
4.423033629078254
 20
8.161929382798284
 30
0.0
 11
4.428427763927631
 21
8.166783687471879
 31
0.0
  0
LINE
  5
23E
330
1F
100
AcDbEntity
  8
image
100
AcDbLine
 10
4.416560624153058
 20
8.157614477240979
 30
0.0
 11
4.423033629078254
 21
8.161929382798284
 31
0.0
  0
LINE
  5
23F
330
1F
100
AcDbEntity
  8
image
100
AcDbLine
 10
4.409547860895321
 20
8.154378082543253
 30
0.0
 11
4.416560624153058
 21
8.157614477240979
 31
0.0
  0
LINE
  5
240
330
1F
100
AcDbEntity
  8
image
100
AcDbLine
 10
4.402535456853835
 20
8.151681086961815
 30
0.0
 11
4.409547860895321
 21
8.154378082543253
 31
0.0
  0
LINE
  5
241
330
1F
100
AcDbEntity
  8
image
100
AcDbLine
 10
4.406311538040841
 20
8.145208872312355
 30
0.0
 11
4.402535456853835
 21
8.151681086961815
 31
0.0
  0
LINE
  5
242
330
1F
100
AcDbEntity
  8
image
100
AcDbLine
 10
4.409547860895321
 20
8.138196971173611
 30
0.0
 11
4.406311538040841
 21
8.145208872312355
 31
0.0
  0
LINE
  5
243
330
1F
100
AcDbEntity
  8
image
100
AcDbLine
 10
4.411166201930686
 20
8.130645670918582
 30
0.0
 11
4.409547860895321
 21
8.138196971173611
 31
0.0
  0
LINE
  5
244
330
1F
100
AcDbEntity
  8
image
100
AcDbLine
 10
4.411705672890217
 20
8.122555258920259
 30
0.0
 11
4.411166201930686
 21
8.130645670918582
 31
0.0
  0
LINE
  5
245
330
1F
100
AcDbEntity
  8
image
100
AcDbLine
 10
4.411166201930686
 20
8.11446455954894
 30
0.0
 11
4.411705672890217
 21
8.122555258920259
 31
0.0
  0
LINE
  5
246
330
1F
100
AcDbEntity
  8
image
100
AcDbLine
 10
4.409547860895321
 20
8.105834461061334
 30
0.0
 11
4.411166201930686
 21
8.11446455954894
 31
0.0
  0
LINE
  5
247
330
1F
100
AcDbEntity
  8
image
100
AcDbLine
 10
4.406851009000379
 20
8.097744049063011
 30
0.0
 11
4.409547860895321
 21
8.105834461061334
 31
0.0
  0
LINE
  5
248
330
1F
100
AcDbEntity
  8
image
100
AcDbLine
 10
4.403614326929655
 20
8.090193036180979
 30
0.0
 11
4.406851009000379
 21
8.097744049063011
 31
0.0
  0
LINE
  5
249
330
1F
100
AcDbEntity
  8
image
100
AcDbLine
 10
4.399298774783104
 20
8.083720534158523
 30
0.0
 11
4.403614326929655
 21
8.090193036180979
 31
0.0
  0
LINE
  5
24A
330
1F
100
AcDbEntity
  8
image
100
AcDbLine
 10
4.393904639933728
 20
8.078326830368641
 30
0.0
 11
4.399298774783104
 21
8.083720534158523
 31
0.0
  0
LINE
  5
24B
330
1F
100
AcDbEntity
  8
image
100
AcDbLine
 10
4.387971105968062
 20
8.07347252569505
 30
0.0
 11
4.393904639933728
 21
8.078326830368641
 31
0.0
  0
LINE
  5
24C
330
1F
100
AcDbEntity
  8
image
100
AcDbLine
 10
4.380958342710332
 20
8.069696731881036
 30
0.0
 11
4.387971105968062
 21
8.07347252569505
 31
0.0
  0
LINE
  5
24D
330
1F
100
AcDbEntity
  8
image
100
AcDbLine
 10
4.373406467709308
 20
8.065921225440018
 30
0.0
 11
4.380958342710332
 21
8.069696731881036
 31
0.0
  0
LINE
  5
24E
330
1F
100
AcDbEntity
  8
image
100
AcDbLine
 10
4.370169857481832
 20
8.065381826323731
 30
0.0
 11
4.373406467709308
 21
8.065921225440018
 31
0.0
  0
LINE
  5
24F
330
1F
100
AcDbEntity
  8
image
100
AcDbLine
 10
4.365854592708277
 20
8.064303028091156
 30
0.0
 11
4.370169857481832
 21
8.065381826323731
 31
0.0
  0
LINE
  5
250
330
1F
100
AcDbEntity
  8
image
100
AcDbLine
 10
4.354256434059347
 20
8.063014447570411
 30
0.0
 11
4.365854592708277
 21
8.064303028091156
 31
0.0
  0
LINE
  5
251
330
1F
100
AcDbEntity
  8
image
100
AcDbLine
 10
4.344816662151317
 20
8.062684830742291
 30
0.0
 11
4.354256434059347
 21
8.063014447570411
 31
0.0
  0
LINE
  5
252
330
1F
100
AcDbEntity
  8
image
100
AcDbLine
 10
4.331331181341378
 20
8.097744049063011
 30
0.0
 11
4.33672560356375
 21
8.098283735552298
 31
0.0
  0
LINE
  5
253
330
1F
100
AcDbEntity
  8
image
100
AcDbLine
 10
4.33672560356375
 20
8.098283735552298
 30
0.0
 11
4.341580339296837
 21
8.098822847295588
 31
0.0
  0
LINE
  5
254
330
1F
100
AcDbEntity
  8
image
100
AcDbLine
 10
4.341580339296837
 20
8.098822847295588
 30
0.0
 11
4.346974761519208
 21
8.099901645528163
 31
0.0
  0
LINE
  5
255
330
1F
100
AcDbEntity
  8
image
100
AcDbLine
 10
4.346974761519208
 20
8.099901645528163
 30
0.0
 11
4.351289954449516
 21
8.102058954620316
 31
0.0
  0
LINE
  5
256
330
1F
100
AcDbEntity
  8
image
100
AcDbLine
 10
4.351289954449516
 20
8.102058954620316
 30
0.0
 11
4.35560550659606
 21
8.105295349318042
 31
0.0
  0
LINE
  5
257
330
1F
100
AcDbEntity
  8
image
100
AcDbLine
 10
4.35560550659606
 20
8.105295349318042
 30
0.0
 11
4.358842188666791
 21
8.109610254875347
 31
0.0
  0
LINE
  5
258
330
1F
100
AcDbEntity
  8
image
100
AcDbLine
 10
4.358842188666791
 20
8.109610254875347
 30
0.0
 11
4.361539040561726
 21
8.113385761316365
 31
0.0
  0
LINE
  5
259
330
1F
100
AcDbEntity
  8
image
100
AcDbLine
 10
4.361539040561726
 20
8.113385761316365
 30
0.0
 11
4.363157381597091
 21
8.11716155513038
 31
0.0
  0
LINE
  5
25A
330
1F
100
AcDbEntity
  8
image
100
AcDbLine
 10
4.363157381597091
 20
8.11716155513038
 30
0.0
 11
4.364775722632456
 21
8.120397662455108
 31
0.0
  0
LINE
  5
25B
330
1F
100
AcDbEntity
  8
image
100
AcDbLine
 10
4.364775722632456
 20
8.120397662455108
 30
0.0
 11
4.365854592708277
 21
8.124173456269122
 31
0.0
  0
LINE
  5
25C
330
1F
100
AcDbEntity
  8
image
100
AcDbLine
 10
4.365854592708277
 20
8.124173456269122
 30
0.0
 11
4.365315121748746
 21
8.12794896271014
 31
0.0
  0
LINE
  5
25D
330
1F
100
AcDbEntity
  8
image
100
AcDbLine
 10
4.365315121748746
 20
8.12794896271014
 30
0.0
 11
4.364236251672911
 21
8.132263868267445
 31
0.0
  0
LINE
  5
25E
330
1F
100
AcDbEntity
  8
image
100
AcDbLine
 10
4.364236251672911
 20
8.132263868267445
 30
0.0
 11
4.362078511521271
 21
8.136039662081458
 31
0.0
  0
LINE
  5
25F
330
1F
100
AcDbEntity
  8
image
100
AcDbLine
 10
4.362078511521271
 20
8.136039662081458
 30
0.0
 11
4.359381300410078
 21
8.138196971173611
 31
0.0
  0
LINE
  5
260
330
1F
100
AcDbEntity
  8
image
100
AcDbLine
 10
4.359381300410078
 20
8.138196971173611
 30
0.0
 11
4.356144977555605
 21
8.140354567638762
 31
0.0
  0
LINE
  5
261
330
1F
100
AcDbEntity
  8
image
100
AcDbLine
 10
4.356144977555605
 20
8.140354567638762
 30
0.0
 11
4.34859274333833
 21
8.141433365871339
 31
0.0
  0
LINE
  5
262
330
1F
100
AcDbEntity
  8
image
100
AcDbLine
 10
4.34859274333833
 20
8.141433365871339
 30
0.0
 11
4.33510733437164
 21
8.141433365871339
 31
0.0
  0
LINE
  5
263
330
1F
100
AcDbEntity
  8
image
100
AcDbLine
 10
4.33510733437164
 20
8.141433365871339
 30
0.0
 11
4.313259514864502
 21
8.097744049063011
 31
0.0
  0
LINE
  5
264
330
1F
100
AcDbEntity
  8
image
100
AcDbLine
 10
4.313259514864502
 20
8.097744049063011
 30
0.0
 11
4.331331181341378
 21
8.097744049063011
 31
0.0
  0
LINE
  5
265
330
1F
100
AcDbEntity
  8
image
100
AcDbLine
 10
4.244483756710585
 20
8.062684830742291
 30
0.0
 11
4.344816662151317
 21
8.062684830742291
 31
0.0
  0
LINE
  5
266
330
1F
100
AcDbEntity
  8
image
100
AcDbLine
 10
4.727808642117224
 20
8.102058954620314
 30
0.0
 11
4.735900347294037
 21
8.105834461061332
 31
0.0
  0
LINE
  5
267
330
1F
100
AcDbEntity
  8
image
100
AcDbLine
 10
4.735900347294037
 20
8.105834461061332
 30
0.0
 11
4.742373280375985
 21
8.110688765734924
 31
0.0
  0
LINE
  5
268
330
1F
100
AcDbEntity
  8
image
100
AcDbLine
 10
4.742373280375985
 20
8.110688765734924
 30
0.0
 11
4.747767415225362
 21
8.116622156014088
 31
0.0
  0
LINE
  5
269
330
1F
100
AcDbEntity
  8
image
100
AcDbLine
 10
4.747767415225362
 20
8.116622156014088
 30
0.0
 11
4.752082895528664
 21
8.123094658036546
 31
0.0
  0
LINE
  5
26A
330
1F
100
AcDbEntity
  8
image
100
AcDbLine
 10
4.752082895528664
 20
8.123094658036546
 30
0.0
 11
4.755319290226386
 21
8.130106271802292
 31
0.0
  0
LINE
  5
26B
330
1F
100
AcDbEntity
  8
image
100
AcDbLine
 10
4.755319290226386
 20
8.130106271802292
 30
0.0
 11
4.756937631261751
 21
8.137657572057323
 31
0.0
  0
LINE
  5
26C
330
1F
100
AcDbEntity
  8
image
100
AcDbLine
 10
4.756937631261751
 20
8.137657572057323
 30
0.0
 11
4.756937631261751
 21
8.144669473196065
 31
0.0
  0
LINE
  5
26D
330
1F
100
AcDbEntity
  8
image
100
AcDbLine
 10
4.756937631261751
 20
8.144669473196065
 30
0.0
 11
4.755858689342675
 21
8.152220773451098
 31
0.0
  0
LINE
  5
26E
330
1F
100
AcDbEntity
  8
image
100
AcDbLine
 10
4.755858689342675
 20
8.152220773451098
 30
0.0
 11
4.75316183744774
 21
8.159232387216842
 31
0.0
  0
LINE
  5
26F
330
1F
100
AcDbEntity
  8
image
100
AcDbLine
 10
4.75316183744774
 20
8.159232387216842
 30
0.0
 11
4.751004097296085
 21
8.16246878191457
 31
0.0
  0
LINE
  5
270
330
1F
100
AcDbEntity
  8
image
100
AcDbLine
 10
4.751004097296085
 20
8.16246878191457
 30
0.0
 11
4.748306814341651
 21
8.165165777496008
 31
0.0
  0
LINE
  5
271
330
1F
100
AcDbEntity
  8
image
100
AcDbLine
 10
4.748306814341651
 20
8.165165777496008
 30
0.0
 11
4.745609962446709
 21
8.166244288355587
 31
0.0
  0
LINE
  5
272
330
1F
100
AcDbEntity
  8
image
100
AcDbLine
 10
4.745609962446709
 20
8.166244288355587
 30
0.0
 11
4.741833881259696
 21
8.167323086588162
 31
0.0
  0
LINE
  5
273
330
1F
100
AcDbEntity
  8
image
100
AcDbLine
 10
4.741833881259696
 20
8.167323086588162
 30
0.0
 11
4.725651189338572
 21
8.167323086588162
 31
0.0
  0
LINE
  5
274
330
1F
100
AcDbEntity
  8
image
100
AcDbLine
 10
4.725651189338572
 20
8.167323086588162
 30
0.0
 11
4.695982801077756
 21
8.098822847295584
 31
0.0
  0
LINE
  5
275
330
1F
100
AcDbEntity
  8
image
100
AcDbLine
 10
4.695982801077756
 20
8.098822847295584
 30
0.0
 11
4.7116259501961
 21
8.098822847295584
 31
0.0
  0
LINE
  5
276
330
1F
100
AcDbEntity
  8
image
100
AcDbLine
 10
4.7116259501961
 20
8.098822847295584
 30
0.0
 11
4.717020085045476
 21
8.099362246411873
 31
0.0
  0
LINE
  5
277
330
1F
100
AcDbEntity
  8
image
100
AcDbLine
 10
4.717020085045476
 20
8.099362246411873
 30
0.0
 11
4.722414507267848
 21
8.100441044644449
 31
0.0
  0
LINE
  5
278
330
1F
100
AcDbEntity
  8
image
100
AcDbLine
 10
4.722414507267848
 20
8.100441044644449
 30
0.0
 11
4.727808642117224
 21
8.102058954620314
 31
0.0
  0
LINE
  5
279
330
1F
100
AcDbEntity
  8
image
100
AcDbLine
 10
4.765028905379065
 20
8.202382304908882
 30
0.0
 11
4.758016573180827
 21
8.204000502257747
 31
0.0
  0
LINE
  5
27A
330
1F
100
AcDbEntity
  8
image
100
AcDbLine
 10
4.771502269520512
 20
8.199685596700442
 30
0.0
 11
4.765028905379065
 21
8.202382304908882
 31
0.0
  0
LINE
  5
27B
330
1F
100
AcDbEntity
  8
image
100
AcDbLine
 10
4.776896404369888
 20
8.196449202002714
 30
0.0
 11
4.771502269520512
 21
8.199685596700442
 31
0.0
  0
LINE
  5
27C
330
1F
100
AcDbEntity
  8
image
100
AcDbLine
 10
4.781751427475978
 20
8.192134296445409
 30
0.0
 11
4.776896404369888
 21
8.196449202002714
 31
0.0
  0
LINE
  5
27D
330
1F
100
AcDbEntity
  8
image
100
AcDbLine
 10
4.786066620406278
 20
8.187279991771818
 30
0.0
 11
4.781751427475978
 21
8.192134296445409
 31
0.0
  0
LINE
  5
27E
330
1F
100
AcDbEntity
  8
image
100
AcDbLine
 10
4.789303302477001
 20
8.181886287981937
 30
0.0
 11
4.786066620406278
 21
8.187279991771818
 31
0.0
  0
LINE
  5
27F
330
1F
100
AcDbEntity
  8
image
100
AcDbLine
 10
4.792539840861228
 20
8.175952897702771
 30
0.0
 11
4.789303302477001
 21
8.181886287981937
 31
0.0
  0
LINE
  5
280
330
1F
100
AcDbEntity
  8
image
100
AcDbLine
 10
4.79523683644266
 20
8.170559481285888
 30
0.0
 11
4.792539840861228
 21
8.175952897702771
 31
0.0
  0
LINE
  5
281
330
1F
100
AcDbEntity
  8
image
100
AcDbLine
 10
4.797933975710604
 20
8.161389983681994
 30
0.0
 11
4.79523683644266
 21
8.170559481285888
 31
0.0
  0
LINE
  5
282
330
1F
100
AcDbEntity
  8
image
100
AcDbLine
 10
4.79955231674597
 20
8.151681086961811
 30
0.0
 11
4.797933975710604
 21
8.161389983681994
 31
0.0
  0
LINE
  5
283
330
1F
100
AcDbEntity
  8
image
100
AcDbLine
 10
4.800091715862252
 20
8.141972477614627
 30
0.0
 11
4.79955231674597
 21
8.151681086961811
 31
0.0
  0
LINE
  5
284
330
1F
100
AcDbEntity
  8
image
100
AcDbLine
 10
4.798473518513391
 20
8.131724756524151
 30
0.0
 11
4.800091715862252
 21
8.141972477614627
 31
0.0
  0
LINE
  5
285
330
1F
100
AcDbEntity
  8
image
100
AcDbLine
 10
4.796315634675239
 20
8.121476460687683
 30
0.0
 11
4.798473518513391
 21
8.131724756524151
 31
0.0
  0
LINE
  5
286
330
1F
100
AcDbEntity
  8
image
100
AcDbLine
 10
4.792539840861228
 20
8.111767851340497
 30
0.0
 11
4.796315634675239
 21
8.121476460687683
 31
0.0
  0
LINE
  5
287
330
1F
100
AcDbEntity
  8
image
100
AcDbLine
 10
4.787145418638856
 20
8.102058954620314
 30
0.0
 11
4.792539840861228
 21
8.111767851340497
 31
0.0
  0
LINE
  5
288
330
1F
100
AcDbEntity
  8
image
100
AcDbLine
 10
4.781211884673191
 20
8.093429143505705
 30
0.0
 11
4.787145418638856
 21
8.102058954620314
 31
0.0
  0
LINE
  5
289
330
1F
100
AcDbEntity
  8
image
100
AcDbLine
 10
4.77366000967216
 20
8.085338444134386
 30
0.0
 11
4.781211884673191
 21
8.093429143505705
 31
0.0
  0
LINE
  5
28A
330
1F
100
AcDbEntity
  8
image
100
AcDbLine
 10
4.765028905379065
 20
8.077787431252351
 30
0.0
 11
4.77366000967216
 21
8.085338444134386
 31
0.0
  0
LINE
  5
28B
330
1F
100
AcDbEntity
  8
image
100
AcDbLine
 10
4.758016573180827
 20
8.073472525695047
 30
0.0
 11
4.765028905379065
 21
8.077787431252351
 31
0.0
  0
LINE
  5
28C
330
1F
100
AcDbEntity
  8
image
100
AcDbLine
 10
4.751004097296085
 20
8.069696731881032
 30
0.0
 11
4.758016573180827
 21
8.073472525695047
 31
0.0
  0
LINE
  5
28D
330
1F
100
AcDbEntity
  8
image
100
AcDbLine
 10
4.744531020527633
 20
8.066999736299594
 30
0.0
 11
4.751004097296085
 21
8.069696731881032
 31
0.0
  0
LINE
  5
28E
330
1F
100
AcDbEntity
  8
image
100
AcDbLine
 10
4.738057800072683
 20
8.064842139834443
 30
0.0
 11
4.744531020527633
 21
8.066999736299594
 31
0.0
  0
LINE
  5
28F
330
1F
100
AcDbEntity
  8
image
100
AcDbLine
 10
4.730505925071659
 20
8.063763628974864
 30
0.0
 11
4.738057800072683
 21
8.064842139834443
 31
0.0
  0
LINE
  5
290
330
1F
100
AcDbEntity
  8
image
100
AcDbLine
 10
4.722414507267848
 20
8.063224229858578
 30
0.0
 11
4.730505925071659
 21
8.063763628974864
 31
0.0
  0
LINE
  5
291
330
1F
100
AcDbEntity
  8
image
100
AcDbLine
 10
4.712704892115169
 20
8.06268483074229
 30
0.0
 11
4.722414507267848
 21
8.063224229858578
 31
0.0
  0
LINE
  5
292
330
1F
100
AcDbEntity
  8
image
100
AcDbLine
 10
4.631791001450034
 20
8.062684830742291
 30
0.0
 11
4.712704892115169
 21
8.06268483074229
 31
0.0
  0
LINE
  5
293
330
1F
100
AcDbEntity
  8
image
100
AcDbLine
 10
4.695443401961473
 20
8.205079013117323
 30
0.0
 11
4.631791001450034
 21
8.062684830742291
 31
0.0
  0
LINE
  5
294
330
1F
100
AcDbEntity
  8
image
100
AcDbLine
 10
4.74938575626072
 20
8.205079013117323
 30
0.0
 11
4.695443401961473
 21
8.205079013117323
 31
0.0
  0
LINE
  5
295
330
1F
100
AcDbEntity
  8
image
100
AcDbLine
 10
4.758016573180827
 20
8.204000502257747
 30
0.0
 11
4.74938575626072
 21
8.205079013117323
 31
0.0
  0
LINE
  5
296
330
1F
100
AcDbEntity
  8
image
100
AcDbLine
 10
3.182589683927176
 20
8.317053614216113
 30
0.0
 11
3.189080142271773
 21
8.317053614216113
 31
0.0
  0
LINE
  5
297
330
1F
100
AcDbEntity
  8
image
100
AcDbLine
 10
3.182589683927176
 20
9.136830494488483
 30
0.0
 11
3.189080142271773
 21
9.136830494488483
 31
0.0
  0
LINE
  5
298
330
1F
100
AcDbEntity
  8
image
100
AcDbLine
 10
3.182589683927176
 20
9.013389423416874
 30
0.0
 11
3.189080142271773
 21
9.013389423416874
 31
0.0
  0
LINE
  5
299
330
1F
100
AcDbEntity
  8
image
100
AcDbLine
 10
3.196672755762847
 20
9.390061280892243
 30
0.0
 11
3.198024183411079
 21
9.390061280892243
 31
0.0
  0
LINE
  5
29A
330
1F
100
AcDbEntity
  8
image
100
AcDbLine
 10
5.024467523274596
 20
9.390061280892238
 30
0.0
 11
5.025818894795286
 21
9.390061280892238
 31
0.0
  0
LINE
  5
29B
330
1F
100
AcDbEntity
  8
image
100
AcDbLine
 10
5.025818894795286
 20
9.390061280892238
 30
0.0
 11
5.025818894795286
 21
9.388710053058042
 31
0.0
  0
LINE
  5
29C
330
1F
100
AcDbEntity
  8
image
100
AcDbLine
 10
5.025818894795286
 20
7.836151570551299
 30
0.0
 11
5.025818894795286
 21
7.834800055344107
 31
0.0
  0
LINE
  5
29D
330
1F
100
AcDbEntity
  8
image
100
AcDbLine
 10
5.024953039953849
 20
7.834800055344107
 30
0.0
 11
5.025818894795286
 21
7.834800055344107
 31
0.0
  0
LINE
  5
29E
330
1F
100
AcDbEntity
  8
image
100
AcDbLine
 10
3.19667275576284
 20
7.834800055344114
 30
0.0
 11
3.19667275576284
 21
7.836151570551306
 31
0.0
  0
LINE
  5
29F
330
1F
100
AcDbEntity
  8
image
100
AcDbLine
 10
3.196672755762847
 20
9.389195138677811
 30
0.0
 11
3.196672755762847
 21
9.390061280892243
 31
0.0
  0
LINE
  5
2A0
330
1F
100
AcDbEntity
  8
image
100
AcDbLine
 10
3.19667275576284
 20
7.834800055344114
 30
0.0
 11
3.198024183411079
 21
7.834800055344114
 31
0.0
  0
LINE
  5
2A1
330
1F
100
AcDbEntity
  8
image
100
AcDbLine
 10
5.023982006595336
 20
9.388224392692285
 30
0.0
 11
3.198509677639322
 21
9.388224392692292
 31
0.0
  0
LINE
  5
2A2
330
1F
100
AcDbEntity
  8
image
100
AcDbLine
 10
5.023982006595329
 20
7.836637230917055
 30
0.0
 11
5.023982006595336
 21
9.388224392692285
 31
0.0
  0
LINE
  5
2A3
330
1F
100
AcDbEntity
  8
image
100
AcDbLine
 10
3.198509677639322
 20
7.836637230917062
 30
0.0
 11
5.023982006595329
 21
7.836637230917055
 31
0.0
  0
LINE
  5
2A4
330
1F
100
AcDbEntity
  8
image
100
AcDbLine
 10
3.198509677639322
 20
9.388224392692292
 30
0.0
 11
3.198509677639322
 21
7.836637230917062
 31
0.0
  0
SPLINE
  5
2A5
330
1F
100
AcDbEntity
  8
image
100
AcDbSpline
210
0.0
220
0.0
230
1.0
 70
     8
 71
     3
 72
    11
 73
     7
 74
     0
 42
0.0000000001
 43
0.0000000001
 40
0.0
 40
0.0
 40
0.0
 40
0.0
 40
0.2500054845424645
 40
0.499998545752974
 40
0.7500145325296649
 40
1.0
 40
1.0
 40
1.0
 40
1.0
 10
3.197538689182836
 20
9.397653675485917
 30
0.0
 10
3.197619603104051
 20
9.397511883773834
 30
0.0
 10
3.197781426925688
 20
9.397228307395623
 30
0.0
 10
3.198024200169567
 20
9.395048085777252
 30
0.0
 10
3.1982669109043
 20
9.391931071602929
 30
0.0
 10
3.198428758687295
 20
9.389459902050395
 30
0.0
 10
3.198509677639322
 20
9.388224392692292
 30
0.0
  0
LINE
  5
2A6
330
1F
100
AcDbEntity
  8
image
100
AcDbLine
 10
3.197538689182836
 20
9.397653675485917
 30
0.0
 11
5.024953039953855
 21
9.39765367548591
 31
0.0
  0
SPLINE
  5
2A7
330
1F
100
AcDbEntity
  8
image
100
AcDbSpline
210
0.0
220
0.0
230
1.0
 70
     8
 71
     3
 72
    11
 73
     7
 74
     0
 42
0.0000000001
 43
0.0000000001
 40
0.0
 40
0.0
 40
0.0
 40
0.0
 40
0.2499851467606308
 40
0.5000014542348357
 40
0.7499941947423366
 40
1.0
 40
1.0
 40
1.0
 40
1.0
 10
5.023982006595336
 20
9.388224392692285
 30
0.0
 10
5.024062888312095
 20
9.38945990288426
 30
0.0
 10
5.024224661827522
 20
9.391931077274874
 30
0.0
 10
5.024467567621632
 20
9.395048080849006
 30
0.0
 10
5.024710168256417
 20
9.397228310111371
 30
0.0
 10
5.024872081311134
 20
9.397511884557836
 30
0.0
 10
5.024953039953855
 20
9.39765367548591
 30
0.0
  0
SPLINE
  5
2A8
330
1F
100
AcDbEntity
  8
image
100
AcDbSpline
210
0.0
220
0.0
230
1.0
 70
     8
 71
     3
 72
    11
 73
     7
 74
     0
 42
0.0000000001
 43
0.0000000001
 40
0.0
 40
0.0
 40
0.0
 40
0.0
 40
0.2500014168941653
 40
0.50000121162887
 40
0.749999531400859
 40
1.0
 40
1.0
 40
1.0
 40
1.0
 10
5.033411576761961
 20
9.389195138677806
 30
0.0
 10
5.033269808492692
 20
9.389114274062714
 30
0.0
 10
5.032986272874052
 20
9.388952545357236
 30
0.0
 10
5.030805669842578
 20
9.388710259247835
 30
0.0
 10
5.027688889303414
 20
9.388466739169892
 30
0.0
 10
5.0252176377049
 20
9.388305175082937
 30
0.0
 10
5.023982006595336
 20
9.388224392692285
 30
0.0
  0
LINE
  5
2A9
330
1F
100
AcDbEntity
  8
image
100
AcDbLine
 10
5.033411576761955
 20
7.835666197558541
 30
0.0
 11
5.033411576761961
 21
9.389195138677806
 31
0.0
  0
SPLINE
  5
2AA
330
1F
100
AcDbEntity
  8
image
100
AcDbSpline
210
0.0
220
0.0
230
1.0
 70
     8
 71
     3
 72
    11
 73
     7
 74
     0
 42
0.0000000001
 43
0.0000000001
 40
0.0
 40
0.0
 40
0.0
 40
0.0
 40
0.2500014307995728
 40
0.499998146390961
 40
0.7499989033304172
 40
1.0
 40
1.0
 40
1.0
 40
1.0
 10
5.023982006595329
 20
7.836637230917055
 30
0.0
 10
5.025217634372197
 20
7.836556286312644
 30
0.0
 10
5.027688866621094
 20
7.836394398630492
 30
0.0
 10
5.030805689513554
 20
7.836151588343902
 30
0.0
 10
5.032986265922805
 20
7.835908663557386
 30
0.0
 10
5.033269806418021
 20
7.835747019594764
 30
0.0
 10
5.033411576761955
 20
7.835666197558541
 30
0.0
  0
SPLINE
  5
2AB
330
1F
100
AcDbEntity
  8
image
100
AcDbSpline
210
0.0
220
0.0
230
1.0
 70
    24
 71
     1
 72
     4
 73
     2
 74
     0
 42
0.0000000001
 43
0.0000000001
 40
0.0
 40
0.0
 40
1.0
 40
1.0
 10
5.024953039953855
 20
9.39765367548591
 30
0.0
 10
5.024953039953855
 20
9.390061280892238
 30
0.0
  0
SPLINE
  5
2AC
330
1F
100
AcDbEntity
  8
image
100
AcDbSpline
210
0.0
220
0.0
230
1.0
 70
    24
 71
     1
 72
     4
 73
     2
 74
     0
 42
0.0000000001
 43
0.0000000001
 40
0.0
 40
0.0
 40
1.0
 40
1.0
 10
5.025818894795286
 20
9.389195138677806
 30
0.0
 10
5.033411576761961
 20
9.389195138677806
 30
0.0
  0
SPLINE
  5
2AD
330
1F
100
AcDbEntity
  8
image
100
AcDbSpline
210
0.0
220
0.0
230
1.0
 70
     8
 71
     3
 72
    11
 73
     7
 74
     0
 42
0.0000000001
 43
0.0000000001
 40
0.0
 40
0.0
 40
0.0
 40
0.0
 40
0.249998016975573
 40
0.5000074841903195
 40
0.7500048273129786
 40
1.0
 40
1.0
 40
1.0
 40
1.0
 10
3.198509677639322
 20
7.836637230917062
 30
0.0
 10
3.198428760674242
 20
7.835401612970523
 30
0.0
 10
3.198266923037994
 20
7.832930320484511
 30
0.0
 10
3.198024191342218
 20
7.829813302027446
 30
0.0
 10
3.197781436524609
 20
7.827632621404122
 30
0.0
 10
3.197619604729258
 20
7.827349313891726
 30
0.0
 10
3.197538689182829
 20
7.82720766075044
 30
0.0
  0
SPLINE
  5
2AE
330
1F
100
AcDbEntity
  8
image
100
AcDbSpline
210
0.0
220
0.0
230
1.0
 70
    24
 71
     1
 72
     4
 73
     2
 74
     0
 42
0.0000000001
 43
0.0000000001
 40
0.0
 40
0.0
 40
1.0
 40
1.0
 10
3.197538689182829
 20
7.82720766075044
 30
0.0
 10
3.197538689182836
 20
7.834800055344114
 30
0.0
  0
SPLINE
  5
2AF
330
1F
100
AcDbEntity
  8
image
100
AcDbSpline
210
0.0
220
0.0
230
1.0
 70
     8
 71
     3
 72
    11
 73
     7
 74
     0
 42
0.0000000001
 43
0.0000000001
 40
0.0
 40
0.0
 40
0.0
 40
0.0
 40
0.2499954933920637
 40
0.4999925158214193
 40
0.7500023037171364
 40
1.0
 40
1.0
 40
1.0
 40
1.0
 10
5.024953039953849
 20
7.827207660750435
 30
0.0
 10
5.024872079686778
 20
7.827349313107657
 30
0.0
 10
5.024710158657461
 20
7.827632618688484
 30
0.0
 10
5.024467576449181
 20
7.829813306955763
 30
0.0
 10
5.024224649692587
 20
7.832930314812692
 30
0.0
 10
5.024062886323783
 20
7.835401612136617
 30
0.0
 10
5.023982006595336
 20
7.836637230917055
 30
0.0
  0
LINE
  5
2B0
330
1F
100
AcDbEntity
  8
image
100
AcDbLine
 10
3.197538689182829
 20
7.82720766075044
 30
0.0
 11
5.024953039953849
 21
7.827207660750435
 31
0.0
  0
SPLINE
  5
2B1
330
1F
100
AcDbEntity
  8
image
100
AcDbSpline
210
0.0
220
0.0
230
1.0
 70
     8
 71
     3
 72
    11
 73
     7
 74
     0
 42
0.0000000001
 43
0.0000000001
 40
0.0
 40
0.0
 40
0.0
 40
0.0
 40
0.2499997156143347
 40
0.4999994239648943
 40
0.7500000599921046
 40
0.9999999999999998
 40
0.9999999999999998
 40
0.9999999999999998
 40
0.9999999999999998
 10
3.189080142271766
 20
7.835666197558545
 30
0.0
 10
3.189221883032004
 20
7.83574701947743
 30
0.0
 10
3.189505364548363
 20
7.835908663312853
 30
0.0
 10
3.191685944259896
 20
7.836151591684631
 30
0.0
 10
3.194802817570144
 20
7.836394395131582
 30
0.0
 10
3.197274058762945
 20
7.836556285730356
 30
0.0
 10
3.198509677639322
 20
7.836637230917062
 30
0.0
  0
SPLINE
  5
2B2
330
1F
100
AcDbEntity
  8
image
100
AcDbSpline
210
0.0
220
0.0
230
1.0
 70
    24
 71
     1
 72
     4
 73
     2
 74
     0
 42
0.0000000001
 43
0.0000000001
 40
0.0
 40
0.0
 40
1.0
 40
1.0
 10
3.189080142271766
 20
7.835666197558545
 30
0.0
 10
3.19667275576284
 20
7.835666197558545
 30
0.0
  0
LINE
  5
2B3
330
1F
100
AcDbEntity
  8
image
100
AcDbLine
 10
3.189080142271773
 20
9.389195138677811
 30
0.0
 11
3.189080142271766
 21
7.835666197558545
 31
0.0
  0
SPLINE
  5
2B4
330
1F
100
AcDbEntity
  8
image
100
AcDbSpline
210
0.0
220
0.0
230
1.0
 70
     8
 71
     3
 72
    11
 73
     7
 74
     0
 42
0.0000000001
 43
0.0000000001
 40
0.0
 40
0.0
 40
0.0
 40
0.0
 40
0.249998977809072
 40
0.5000012180052675
 40
0.7499999641555184
 40
1.0
 40
1.0
 40
1.0
 40
1.0
 10
3.198509677639322
 20
9.388224392692292
 30
0.0
 10
3.197274055430303
 20
9.388305175666424
 30
0.0
 10
3.194802794887893
 20
9.388466742668878
 30
0.0
 10
3.191685963930776
 20
9.388710255907783
 30
0.0
 10
3.189505357597316
 20
9.388952545602883
 30
0.0
 10
3.189221880957354
 20
9.389114274180444
 30
0.0
 10
3.189080142271773
 20
9.389195138677811
 30
0.0
  0
SPLINE
  5
2B5
330
1F
100
AcDbEntity
  8
image
100
AcDbSpline
210
0.0
220
0.0
230
1.0
 70
    24
 71
     1
 72
     4
 73
     2
 74
     0
 42
0.0000000001
 43
0.0000000001
 40
0.0
 40
0.0
 40
1.0
 40
1.0
 10
3.196672755762847
 20
9.389195138677811
 30
0.0
 10
3.189080142271773
 20
9.389195138677811
 30
0.0
  0
SPLINE
  5
2B6
330
1F
100
AcDbEntity
  8
image
100
AcDbSpline
210
0.0
220
0.0
230
1.0
 70
    24
 71
     1
 72
     4
 73
     2
 74
     0
 42
0.0000000001
 43
0.0000000001
 40
0.0
 40
0.0
 40
1.0
 40
1.0
 10
3.197538689182836
 20
9.390061280892243
 30
0.0
 10
3.197538689182836
 20
9.397653675485917
 30
0.0
  0
SPLINE
  5
2B7
330
1F
100
AcDbEntity
  8
image
100
AcDbSpline
210
0.0
220
0.0
230
1.0
 70
    24
 71
     1
 72
     4
 73
     2
 74
     0
 42
0.0000000001
 43
0.0000000001
 40
0.0
 40
0.0
 40
1.0
 40
1.0
 10
5.033411576761955
 20
7.835666197558541
 30
0.0
 10
5.025818894795286
 20
7.835666197558541
 30
0.0
  0
SPLINE
  5
2B8
330
1F
100
AcDbEntity
  8
image
100
AcDbSpline
210
0.0
220
0.0
230
1.0
 70
    24
 71
     1
 72
     4
 73
     2
 74
     0
 42
0.0000000001
 43
0.0000000001
 40
0.0
 40
0.0
 40
1.0
 40
1.0
 10
5.024953039953849
 20
7.834800055344107
 30
0.0
 10
5.024953039953849
 20
7.827207660750435
 30
0.0
  0
LINE
  5
2B9
330
1F
100
AcDbEntity
  8
image
100
AcDbLine
 10
3.180140453261803
 20
8.071150839248335
 30
0.0
 11
3.189080142271766
 21
8.071150839248335
 31
0.0
  0
LINE
  5
2BA
330
1F
100
AcDbEntity
  8
image
100
AcDbLine
 10
3.180140453261803
 20
8.193612255771505
 30
0.0
 11
3.189080142271766
 21
8.193612255771505
 31
0.0
  0
LINE
  5
2BB
330
1F
100
AcDbEntity
  8
image
100
AcDbLine
 10
3.180140453261803
 20
8.882948233499416
 30
0.0
 11
3.189080142271773
 21
8.882948233499416
 31
0.0
  0
LINE
  5
2BC
330
1F
100
AcDbEntity
  8
image
100
AcDbLine
 10
3.18014045326181
 20
9.005409650022587
 30
0.0
 11
3.189080142271773
 21
9.005409650022587
 31
0.0
  0
LINE
  5
2BD
330
1F
100
AcDbEntity
  8
image
100
AcDbLine
 10
5.019818259234694
 20
4.778234650491596
 30
0.0
 11
5.019818259234708
 21
7.650568962502561
 31
0.0
  0
LINE
  5
2BE
330
1F
100
AcDbEntity
  8
image
100
AcDbLine
 10
3.216878902578102
 20
7.650568962502566
 30
0.0
 11
3.216878902578095
 21
4.778234650491601
 31
0.0
  0
LINE
  5
2BF
330
1F
100
AcDbEntity
  8
image
100
AcDbLine
 10
3.224202100516373
 20
4.769074528431749
 30
0.0
 11
3.224202100516373
 21
4.778234650491601
 31
0.0
  0
LINE
  5
2C0
330
1F
100
AcDbEntity
  8
image
100
AcDbLine
 10
3.224202100516379
 20
7.697079994773243
 30
0.0
 11
3.224202100516379
 21
7.698990450460552
 31
0.0
  0
LINE
  5
2C1
330
1F
100
AcDbEntity
  8
image
100
AcDbLine
 10
5.00441262389878
 20
4.769074528431744
 30
0.0
 11
5.00441262389878
 21
4.778234650491596
 31
0.0
  0
LINE
  5
2C2
330
1F
100
AcDbEntity
  8
image
100
AcDbLine
 10
5.004412623898787
 20
7.697079994773236
 30
0.0
 11
5.004412623898787
 21
7.698990450460547
 31
0.0
  0
LINE
  5
549
330
1F
100
AcDbEntity
  8
image
100
AcDbLine
 10
6.49132309030983
 20
4.311387473587794
 30
0.0
 11
5.748341774841028
 21
4.311387473587799
 31
0.0
  0
LINE
  5
54C
102
{ACAD_REACTORS
330
D8A
102
}
330
1F
100
AcDbEntity
  8
image
100
AcDbLine
 10
2.480272987179573
 20
3.657760912390243
 30
0.0
 11
3.369692006804502
 21
3.657760912390243
 31
0.0
  0
LINE
  5
54D
102
{ACAD_REACTORS
330
D8A
102
}
330
1F
100
AcDbEntity
  8
image
100
AcDbLine
 10
2.480272987179573
 20
4.392529905351015
 30
0.0
 11
2.480272987179573
 21
3.657760912390243
 31
0.0
  0
LINE
  5
54E
102
{ACAD_REACTORS
330
D68
330
D8A
102
}
330
1F
100
AcDbEntity
  8
image
100
AcDbLine
 10
5.748341774841028
 20
4.392529905351015
 30
0.0
 11
2.480272987179573
 21
4.392529905351015
 31
0.0
  0
LINE
  5
54F
102
{ACAD_REACTORS
330
D68
102
}
330
1F
100
AcDbEntity
  8
image
100
AcDbLine
 10
5.748341774841028
 20
4.392529905351015
 30
0.0
 11
5.748341774841028
 21
3.657760912390243
 31
0.0
  0
LINE
  5
550
102
{ACAD_REACTORS
330
12DE
102
}
330
1F
100
AcDbEntity
  8
image
100
AcDbLine
 10
4.447013043857294
 20
4.392529905351015
 30
0.0
 11
4.447013043857294
 21
3.371871103829203
 31
0.0
  0
LINE
  5
551
102
{ACAD_REACTORS
330
D68
330
12DE
102
}
330
1F
100
AcDbEntity
  8
image
100
AcDbLine
 10
4.814397540337677
 20
4.392529905351015
 30
0.0
 11
4.814397540337677
 21
3.371871103829203
 31
0.0
  0
LINE
  5
552
330
1F
100
AcDbEntity
  8
image
100
AcDbLine
 10
6.092490419701713
 20
1.726393727984792
 30
0.0
 11
6.427107858428152
 21
1.726393727984792
 31
0.0
  0
LINE
  5
553
330
1F
100
AcDbEntity
  8
image
100
AcDbLine
 10
6.092490419701713
 20
2.093778224465178
 30
0.0
 11
6.427107858428152
 21
2.093778224465178
 31
0.0
  0
ARC
  5
554
102
{ACAD_REACTORS
330
12DE
102
}
330
1F
100
AcDbEntity
  8
image
100
AcDbCircle
 10
6.092490419701713
 20
3.371871103829203
 30
0.0
 40
1.645477375844413
100
AcDbArc
 50
180.0
 51
270.0
  0
ARC
  5
555
102
{ACAD_REACTORS
330
12DE
102
}
330
1F
100
AcDbEntity
  8
image
100
AcDbCircle
 10
6.092490419701713
 20
3.371871103829203
 30
0.0
 40
1.278092879364028
100
AcDbArc
 50
180.0
 51
270.0
  0
LWPOLYLINE
  5
55C
330
1F
100
AcDbEntity
  8
image
100
AcDbPolyline
 90
        4
 70
     0
 43
0.0
 10
6.427107858428152
 20
2.093778224465178
 42
-0.4382970929487832
 10
6.433358466241737
 20
1.9029520947546
 42
0.3982693145649637
 10
6.427107858428152
 20
1.726393727984792
 42
0.273849480091109
 10
6.433358466241739
 20
1.902952094754601
 42
0.0963716821349509
  0
LINE
  5
560
330
1F
100
AcDbEntity
  8
image
100
AcDbLine
 10
6.137699113144515
 20
4.70034127830517
 30
0.0
 11
6.044516110040854
 21
4.311012102913505
 31
0.0
  0
LINE
  5
561
330
1F
100
AcDbEntity
  8
image
100
AcDbLine
 10
6.362511253499522
 20
4.775212273572794
 30
0.0
 11
6.362511253499522
 21
4.311012102913494
 31
0.0
  0
LINE
  5
562
330
1F
100
AcDbEntity
  8
image
100
AcDbLine
 10
6.557348441807222
 20
4.640444482091062
 30
0.0
 11
6.291032521694333
 21
4.311012102913494
 31
0.0
  0
LINE
  5
563
330
1F
100
AcDbEntity
  8
image
100
AcDbLine
 10
6.212636493262847
 20
4.730289676412208
 30
0.0
 11
6.247607270651406
 21
4.311012102913505
 31
0.0
  0
LINE
  5
564
330
1F
100
AcDbEntity
  8
image
100
AcDbLine
 10
5.91288697278953
 20
4.760238074519275
 30
0.0
 11
6.021129855182659
 21
4.311012102913494
 31
0.0
  0
LINE
  5
565
330
1F
100
AcDbEntity
  8
image
100
AcDbLine
 10
6.04722614359366
 20
4.697100507673471
 30
0.0
 11
6.011030355647415
 21
4.311012102913494
 31
0.0
  0
LINE
  5
566
330
1F
100
AcDbEntity
  8
image
100
AcDbLine
 10
6.25466994030524
 20
4.703386683331391
 30
0.0
 11
6.154091129778403
 21
4.319929968197866
 31
0.0
  0
LINE
  5
567
330
1F
100
AcDbEntity
  8
image
100
AcDbLine
 10
6.467729254596009
 20
4.722245210305182
 30
0.0
 11
6.417578875645811
 21
4.311012102913494
 31
0.0
  0
LINE
  5
568
330
1F
100
AcDbEntity
  8
image
100
AcDbLine
 10
6.323817872542452
 20
4.665669629383845
 30
0.0
 11
6.226573066897347
 21
4.311012102913494
 31
0.0
  0
LINE
  5
569
330
1F
100
AcDbEntity
  8
image
100
AcDbLine
 10
5.864927049513773
 20
4.690814332015543
 30
0.0
 11
5.900854287401809
 21
4.311012102913494
 31
0.0
  0
LINE
  5
56A
330
1F
100
AcDbEntity
  8
image
100
AcDbLine
 10
6.40579529415156
 20
4.690814332015543
 30
0.0
 11
6.441722532039575
 21
4.311012102913494
 31
0.0
  0
LINE
  5
56B
330
1F
100
AcDbEntity
  8
image
100
AcDbLine
 10
6.039870861312692
 20
4.745263875465751
 30
0.0
 11
6.246840768306199
 21
4.311012102913494
 31
0.0
  0
LINE
  5
56C
330
1F
100
AcDbEntity
  8
image
100
AcDbLine
 10
6.444532713951702
 20
4.70034127830517
 30
0.0
 11
6.351349710848027
 21
4.311012102913505
 31
0.0
  0
LINE
  5
56D
330
1F
100
AcDbEntity
  8
image
100
AcDbLine
 10
6.219720573596716
 20
4.760238074519275
 30
0.0
 11
6.327963455989846
 21
4.311012102913494
 31
0.0
  0
LINE
  5
56E
330
1F
100
AcDbEntity
  8
image
100
AcDbLine
 10
6.35405974440086
 20
4.697100507673471
 30
0.0
 11
6.317863956454601
 21
4.311012102913494
 31
0.0
  0
LINE
  5
56F
330
1F
100
AcDbEntity
  8
image
100
AcDbLine
 10
6.171760650320973
 20
4.690814332015543
 30
0.0
 11
6.20768788820901
 21
4.311012102913494
 31
0.0
  0
LINE
  5
570
330
1F
100
AcDbEntity
  8
image
100
AcDbLine
 10
5.807615126231999
 20
4.697100507673471
 30
0.0
 11
5.771419338285753
 21
4.311012102913494
 31
0.0
  0
LINE
  5
571
330
1F
100
AcDbEntity
  8
image
100
AcDbLine
 10
5.935749296929623
 20
4.70034127830517
 30
0.0
 11
5.842566293825941
 21
4.311012102913505
 31
0.0
  0
LINE
  5
572
330
1F
100
AcDbEntity
  8
image
100
AcDbLine
 10
6.160561437284623
 20
4.775212273572794
 30
0.0
 11
6.160561437284623
 21
4.311012102913494
 31
0.0
  0
LINE
  5
573
330
1F
100
AcDbEntity
  8
image
100
AcDbLine
 10
6.355398625592302
 20
4.640444482091062
 30
0.0
 11
6.089082705479426
 21
4.311012102913494
 31
0.0
  0
LINE
  5
574
330
1F
100
AcDbEntity
  8
image
100
AcDbLine
 10
6.010686677047954
 20
4.730289676412208
 30
0.0
 11
6.0456574544365
 21
4.311012102913505
 31
0.0
  0
LINE
  5
575
330
1F
100
AcDbEntity
  8
image
100
AcDbLine
 10
5.845276327378733
 20
4.697100507673471
 30
0.0
 11
5.809080539432502
 21
4.311012102913494
 31
0.0
  0
LINE
  5
576
330
1F
100
AcDbEntity
  8
image
100
AcDbLine
 10
6.052720124090341
 20
4.703386683331391
 30
0.0
 11
5.952141313563503
 21
4.319929968197866
 31
0.0
  0
LINE
  5
577
330
1F
100
AcDbEntity
  8
image
100
AcDbLine
 10
6.304167150407419
 20
4.722245210305182
 30
0.0
 11
6.254016771457195
 21
4.311012102913494
 31
0.0
  0
LINE
  5
578
330
1F
100
AcDbEntity
  8
image
100
AcDbLine
 10
6.121868056327512
 20
4.665669629383845
 30
0.0
 11
6.024623250682447
 21
4.311012102913494
 31
0.0
  0
LINE
  5
57A
330
1F
100
AcDbEntity
  8
image
100
AcDbLine
 10
1.938855204405917
 20
4.722245210305182
 30
0.0
 11
1.888704825455679
 21
4.311012102913494
 31
0.0
  0
LINE
  5
57E
330
1F
100
AcDbEntity
  8
image
100
AcDbLine
 10
1.795249491283114
 20
4.775212273572794
 30
0.0
 11
1.795249491283114
 21
4.311012102913494
 31
0.0
  0
LINE
  5
580
330
1F
100
AcDbEntity
  8
image
100
AcDbLine
 10
2.028978466182892
 20
4.665669629383845
 30
0.0
 11
1.931733660537773
 21
4.311012102913494
 31
0.0
  0
LINE
  5
581
330
1F
100
AcDbEntity
  8
image
100
AcDbLine
 10
2.211277560262751
 20
4.722245210305182
 30
0.0
 11
2.161127181312554
 21
4.311012102913494
 31
0.0
  0
LINE
  5
585
330
1F
100
AcDbEntity
  8
image
100
AcDbLine
 10
1.917797086903293
 20
4.730289676412208
 30
0.0
 11
1.952767864291846
 21
4.311012102913505
 31
0.0
  0
LINE
  5
586
330
1F
100
AcDbEntity
  8
image
100
AcDbLine
 10
2.262509035447649
 20
4.640444482091062
 30
0.0
 11
1.996193115334793
 21
4.311012102913494
 31
0.0
  0
LINE
  5
587
330
1F
100
AcDbEntity
  8
image
100
AcDbLine
 10
2.067671847139976
 20
4.775212273572794
 30
0.0
 11
2.067671847139976
 21
4.311012102913494
 31
0.0
  0
LINE
  5
588
330
1F
100
AcDbEntity
  8
image
100
AcDbLine
 10
1.842859706784962
 20
4.70034127830517
 30
0.0
 11
1.74967670368128
 21
4.311012102913505
 31
0.0
  0
LINE
  5
589
330
1F
100
AcDbEntity
  8
image
100
AcDbLine
 10
1.770819905364531
 20
4.690814332015543
 30
0.0
 11
1.806747143252566
 21
4.311012102913494
 31
0.0
  0
LINE
  5
58A
330
1F
100
AcDbEntity
  8
image
100
AcDbLine
 10
2.229710728393203
 20
4.665669629383845
 30
0.0
 11
2.13246592274809
 21
4.311012102913494
 31
0.0
  0
LINE
  5
58B
330
1F
100
AcDbEntity
  8
image
100
AcDbLine
 10
2.412009822473069
 20
4.722245210305182
 30
0.0
 11
2.361859443522858
 21
4.311012102913494
 31
0.0
  0
LINE
  5
58C
330
1F
100
AcDbEntity
  8
image
100
AcDbLine
 10
2.160562796156018
 20
4.703386683331391
 30
0.0
 11
2.05998398562916
 21
4.319929968197866
 31
0.0
  0
LINE
  5
58E
330
1F
100
AcDbEntity
  8
image
100
AcDbLine
 10
1.818779828640273
 20
4.760238074519275
 30
0.0
 11
1.927022711033424
 21
4.311012102913494
 31
0.0
  0
LINE
  5
58F
330
1F
100
AcDbEntity
  8
image
100
AcDbLine
 10
2.118529349113638
 20
4.730289676412208
 30
0.0
 11
2.15350012650217
 21
4.311012102913505
 31
0.0
  0
LINE
  5
590
330
1F
100
AcDbEntity
  8
image
100
AcDbLine
 10
2.463241297657973
 20
4.640444482091062
 30
0.0
 11
2.196925377545097
 21
4.311012102913494
 31
0.0
  0
LINE
  5
592
330
1F
100
AcDbEntity
  8
image
100
AcDbLine
 10
2.043591968995293
 20
4.70034127830517
 30
0.0
 11
1.950408965891618
 21
4.311012102913505
 31
0.0
  0
LINE
  5
593
330
1F
100
AcDbEntity
  8
image
100
AcDbLine
 10
1.638930116356243
 20
4.745263875465751
 30
0.0
 11
1.845900023349777
 21
4.311012102913494
 31
0.0
  0
LINE
  5
594
330
1F
100
AcDbEntity
  8
image
100
AcDbLine
 10
1.851112810248671
 20
4.690814332015543
 30
0.0
 11
1.887040048136707
 21
4.311012102913494
 31
0.0
  0
LINE
  5
595
330
1F
100
AcDbEntity
  8
image
100
AcDbLine
 10
2.310003633277337
 20
4.665669629383845
 30
0.0
 11
2.212758827632231
 21
4.311012102913494
 31
0.0
  0
LINE
  5
596
330
1F
100
AcDbEntity
  8
image
100
AcDbLine
 10
2.49230272735721
 20
4.722245210305182
 30
0.0
 11
2.442152348406998
 21
4.311012102913494
 31
0.0
  0
LINE
  5
597
330
1F
100
AcDbEntity
  8
image
100
AcDbLine
 10
2.240855701040139
 20
4.703386683331391
 30
0.0
 11
2.140276890513287
 21
4.319929968197866
 31
0.0
  0
LINE
  5
598
330
1F
100
AcDbEntity
  8
image
100
AcDbLine
 10
2.033411904328544
 20
4.697100507673471
 30
0.0
 11
1.997216116382313
 21
4.311012102913494
 31
0.0
  0
LINE
  5
59A
330
1F
100
AcDbEntity
  8
image
100
AcDbLine
 10
2.198822253997779
 20
4.730289676412208
 30
0.0
 11
2.23379303138629
 21
4.311012102913505
 31
0.0
  0
LINE
  5
59B
330
1F
100
AcDbEntity
  8
image
100
AcDbLine
 10
2.543534202542107
 20
4.640444482091062
 30
0.0
 11
2.277218282429223
 21
4.311012102913494
 31
0.0
  0
LINE
  5
59C
330
1F
100
AcDbEntity
  8
image
100
AcDbLine
 10
2.348697014234434
 20
4.775212273572794
 30
0.0
 11
2.348697014234434
 21
4.311012102913494
 31
0.0
  0
LINE
  5
59D
330
1F
100
AcDbEntity
  8
image
100
AcDbLine
 10
2.123884873879406
 20
4.70034127830517
 30
0.0
 11
2.030701870775738
 21
4.311012102913505
 31
0.0
  0
LINE
  5
59E
330
1F
100
AcDbEntity
  8
image
100
AcDbLine
 10
1.719223021240383
 20
4.745263875465751
 30
0.0
 11
1.926192928233897
 21
4.311012102913494
 31
0.0
  0
LINE
  5
5EE
330
1F
100
AcDbEntity
  8
image
100
AcDbLine
 10
5.825849010595201
 20
4.690814332015543
 30
0.0
 11
5.861776248483203
 21
4.311012102913494
 31
0.0
  0
LINE
  5
5EF
330
1F
100
AcDbEntity
  8
image
100
AcDbLine
 10
5.821104759823897
 20
4.65942616395772
 30
0.0
 11
5.987163323927694
 21
4.311012102913494
 31
0.0
  0
LINE
  5
61C
330
1F
100
AcDbEntity
  8
image
100
AcDbLine
 10
1.737291671710764
 20
4.311387473587794
 30
0.0
 11
2.480272987179573
 21
4.311387473587799
 31
0.0
  0
HATCH
  5
641
330
1F
100
AcDbEntity
  8
image
100
AcDbHatch
 10
0.0
 20
0.0
 30
0.0
210
0.0
220
0.0
230
1.0
  2
EARTH
 70
     0
 71
     0
 91
        1
 92
        7
 72
     0
 73
     1
 93
        6
 10
2.480272987179573
 20
4.311387473587799
 10
1.769575070845325
 20
4.311387473587796
 10
1.894662582988205
 20
4.113288330668973
 10
1.957579583402306
 20
4.062592607832511
 10
2.292745160618346
 20
3.990381710699977
 10
2.480272987179573
 20
4.015721644562397
 97
        0
 75
     0
 76
     1
 52
45.0
 41
0.8723753600931134
 77
     0
 78
     6
 53
45.0
 43
1.627866779052462
 44
4.491239938253109
 45
0.0
 46
0.3084312664309484
 79
     2
 49
0.2180938400232783
 49
-0.2180938400232783
 53
45.0
 43
1.570035916596663
 44
4.549070800708911
 45
0.0
 46
0.3084312664309484
 79
     2
 49
0.2180938400232783
 49
-0.2180938400232783
 53
45.0
 43
1.512205054140864
 44
4.606901663164714
 45
0.0
 46
0.3084312664309484
 79
     2
 49
0.2180938400232783
 49
-0.2180938400232783
 53
135.0
 43
1.512205054140864
 44
4.645455571468582
 45
-0.3084312664309484
 46
0.0
 79
     2
 49
0.2180938400232783
 49
-0.2180938400232783
 53
135.0
 43
1.570035916596663
 44
4.703286433924386
 45
-0.3084312664309484
 46
0.0
 79
     2
 49
0.2180938400232783
 49
-0.2180938400232783
 53
135.0
 43
1.627866779052462
 44
4.761117296380188
 45
-0.3084312664309484
 46
0.0
 79
     2
 49
0.2180938400232783
 49
-0.2180938400232783
 47
0.0551791124963485
 98
        1
 10
2.193966513779662
 20
4.17170701022326
1001
ACAD
1010
0.0
1020
0.0
1030
0.0
  0
HATCH
  5
64E
330
1F
100
AcDbEntity
  8
image
100
AcDbHatch
 10
0.0
 20
0.0
 30
0.0
210
0.0
220
0.0
230
1.0
  2
EARTH
 70
     0
 71
     0
 91
        1
 92
        7
 72
     0
 73
     1
 93
        9
 10
6.367136596536506
 20
4.219311860703761
 10
6.465834321868757
 20
4.311387473587794
 10
5.748341774841028
 20
4.311387473587799
 10
5.748341774841028
 20
4.039535552864025
 10
5.829346891460051
 20
4.018277609429961
 10
5.987603591782804
 20
4.064194764932922
 10
6.08034541825918
 20
4.051439996300691
 10
6.249663073599996
 20
4.067596033567758
 10
6.320340261951478
 20
4.134280093396997
 97
        0
 75
     0
 76
     1
 52
45.0
 41
0.8723753600931134
 77
     0
 78
     6
 53
45.0
 43
2.52713217992242
 44
4.491239938253109
 45
0.0
 46
0.3084312664309484
 79
     2
 49
0.2180938400232783
 49
-0.2180938400232783
 53
45.0
 43
2.469301317466615
 44
4.549070800708911
 45
0.0
 46
0.3084312664309484
 79
     2
 49
0.2180938400232783
 49
-0.2180938400232783
 53
45.0
 43
2.411470455010816
 44
4.606901663164714
 45
0.0
 46
0.3084312664309484
 79
     2
 49
0.2180938400232783
 49
-0.2180938400232783
 53
135.0
 43
2.411470455010816
 44
4.645455571468582
 45
-0.3084312664309484
 46
0.0
 79
     2
 49
0.2180938400232783
 49
-0.2180938400232783
 53
135.0
 43
2.469301317466615
 44
4.703286433924386
 45
-0.3084312664309484
 46
0.0
 79
     2
 49
0.2180938400232783
 49
-0.2180938400232783
 53
135.0
 43
2.52713217992242
 44
4.761117296380188
 45
-0.3084312664309484
 46
0.0
 79
     2
 49
0.2180938400232783
 49
-0.2180938400232783
 47
0.0277742038506549
 98
        1
 10
5.878980634734666
 20
4.170402641180359
1001
ACAD
1010
0.0
1020
0.0
1030
0.0
  0
LINE
  5
B46
102
{ACAD_REACTORS
330
12DE
102
}
330
1F
100
AcDbEntity
  8
image
100
AcDbLine
 10
3.492153505631295
 20
4.392529905351015
 30
0.0
 11
3.492153505631295
 21
3.464714056779241
 31
0.0
  0
LINE
  5
B47
102
{ACAD_REACTORS
330
D8A
102
}
330
1F
100
AcDbEntity
  8
image
100
AcDbLine
 10
3.369692006804502
 20
4.392529905351015
 30
0.0
 11
3.369692006804502
 21
3.464714056779241
 31
0.0
  0
ARC
  5
B48
102
{ACAD_REACTORS
330
12DE
102
}
330
1F
100
AcDbEntity
  8
image
100
AcDbCircle
 10
2.645129090622967
 20
3.423111670267572
 30
0.0
 40
0.848045469408122
100
AcDbArc
 50
280.4817609202173
 51
2.811875487337516
  0
ARC
  5
B49
330
1F
100
AcDbEntity
  8
image
100
AcDbCircle
 10
2.644778157479599
 20
3.42369423942098
 30
0.0
 40
0.7262207003257268
100
AcDbArc
 50
280.5006244881192
 51
3.238015571633245
  0
LINE
  5
B4A
330
1F
100
AcDbEntity
  8
image
100
AcDbLine
 10
2.799407655055321
 20
2.589217646580908
 30
0.0
 11
1.923596043277857
 21
2.589217646580908
 31
0.0
  0
LINE
  5
B4B
330
1F
100
AcDbEntity
  8
image
100
AcDbLine
 10
2.799407655055321
 20
2.711679145407697
 30
0.0
 11
1.923596043277857
 21
2.711679145407697
 31
0.0
  0
LWPOLYLINE
  5
B4C
330
1F
100
AcDbEntity
  8
image
100
AcDbPolyline
 90
        4
 70
     0
 43
0.0
 10
1.923596043277857
 20
2.711679145407697
 42
0.4191275615498479
 10
1.923830534345246
 20
2.643557980961363
 42
-0.423695105068607
 10
1.923596043277857
 20
2.589217646580908
 42
-0.1868068958260236
 10
1.919522654659267
 20
2.632571109474278
 42
-0.1868068958260236
  0
LINE
  5
B50
102
{ACAD_REACTORS
330
D68
102
}
330
1F
100
AcDbEntity
  8
image
100
AcDbLine
 10
4.814397540337677
 20
3.657760912390243
 30
0.0
 11
5.748341774841028
 21
3.657760912390243
 31
0.0
  0
LWPOLYLINE
  5
BDC
330
1F
100
AcDbEntity
  8
image
100
AcDbPolyline
 90
        3
 70
   128
 43
0.0
 10
1.709410342698916
 20
2.668635455250723
 10
1.816657874337402
 20
2.664540135026113
 10
1.911927838541693
 20
2.662510535433565
  0
LWPOLYLINE
  5
BDD
330
1F
100
AcDbEntity
  8
image
100
AcDbPolyline
 90
        4
 70
   128
 43
0.0
 10
1.708263683093072
 20
2.638606933520563
 10
1.815764461677559
 20
2.634501942888401
 10
1.916087693943617
 20
2.632364690155804
 10
1.931300398968081
 20
2.633278877089287
  0
LWPOLYLINE
  5
BE8
330
1F
100
AcDbEntity
  8
image
100
AcDbPolyline
 90
        4
 70
     0
 43
0.0
 10
1.709410342698916
 20
2.668635455250723
 42
0.75
 10
1.708837012895994
 20
2.653621194385646
 42
-0.75
 10
1.708263683093072
 20
2.638606933520563
 42
-0.75
 10
1.708837012895994
 20
2.653621194385646
  0
HATCH
  5
D68
330
1F
100
AcDbEntity
  8
image
100
AcDbHatch
 10
0.0
 20
0.0
 30
0.0
210
0.0
220
0.0
230
1.0
  2
AR-CONC
 70
     0
 71
     1
 91
        1
 92
        7
 72
     0
 73
     1
 93
        4
 10
5.748341774841028
 20
4.392529905351015
 10
4.814397540337677
 20
4.392529905351015
 10
4.814397540337677
 20
3.657760912390243
 10
5.748341774841028
 20
3.657760912390243
 97
        4
330
54E
330
551
330
B50
330
54F
 75
     0
 76
     1
 52
0.0
 41
0.06
 77
     0
 78
    13
 53
50.0
 43
0.0
 44
0.0
 45
0.430356109560452
 46
-0.0376512809895571
 79
     2
 49
0.045
 49
-0.4950000000000001
 53
355.0
 43
0.0
 44
0.0
 45
-0.0832508001678
 46
0.4513152802200072
 79
     2
 49
0.036
 49
-0.3959999999999999
 53
100.4514
 43
0.035863008
 44
-0.003137604
 45
0.3471056290284129
 46
0.4136637252365722
 79
     2
 49
0.038244114
 49
-0.4206852672
 53
46.1842
 43
0.0
 44
0.12
 45
0.6403446291753867
 46
-0.0993114085974109
 79
     2
 49
0.0675
 49
-0.7424999999999999
 53
96.6356
 43
0.053362047
 44
0.1117240158
 45
0.560797623329222
 46
0.584470722540265
 79
     2
 49
0.0573661728
 49
-0.6310278
 53
351.1842000000001
 43
0.0
 44
0.12
 45
0.5607971670801763
 46
0.5844711605551949
 79
     2
 49
0.054
 49
-0.594
 53
21.0
 43
0.06
 44
0.09
 45
0.358144231271077
 46
-0.2415713343992032
 79
     2
 49
0.045
 49
-0.4950000000000001
 53
326.0
 43
0.06
 44
0.09
 45
0.145989199152949
 46
0.4350900270281118
 79
     2
 49
0.036
 49
-0.3959999999999999
 53
71.45140000000001
 43
0.0898453398
 44
0.0698690364
 45
0.504133577148894
 46
0.1935182980259714
 79
     2
 49
0.038244114
 49
-0.4206852672
 53
37.5
 43
0.0
 44
0.0
 45
0.0072959131903744
 46
0.1997363122987868
 79
     6
 49
0.0
 49
-0.3911999999999999
 49
0.0
 49
-0.402
 49
0.0
 49
-0.3975
 53
7.499999999999999
 43
0.0
 44
0.0
 45
0.1578417224652892
 46
0.2366470271294161
 79
     6
 49
0.0
 49
-0.2292
 49
0.0
 49
-0.3822
 49
0.0
 49
-0.1515
 53
327.5
 43
-0.1338
 44
0.0
 45
0.3202934617034454
 46
-0.0135329230406279
 79
     6
 49
0.0
 49
-0.15
 49
0.0
 49
-0.468
 49
0.0
 49
-0.621
 53
317.5
 43
-0.1938
 44
0.0
 45
0.3499117016054317
 46
0.0600629893993906
 79
     6
 49
0.0
 49
-0.195
 49
0.0
 49
-0.3108
 49
0.0
 49
-0.441
 47
0.0097202275425133
 98
        1
 10
5.165055050275438
 20
3.804950630023149
1001
ACAD
1010
0.0
1020
0.0
1030
0.0
  0
HATCH
  5
D8A
330
1F
100
AcDbEntity
  8
image
100
AcDbHatch
 10
0.0
 20
0.0
 30
0.0
210
0.0
220
0.0
230
1.0
  2
AR-CONC
 70
     0
 71
     1
 91
        1
 92
        7
 72
     0
 73
     1
 93
        4
 10
3.369692006804502
 20
4.392529905351015
 10
2.480272987179573
 20
4.392529905351015
 10
2.480272987179573
 20
3.657760912390243
 10
3.369692006804502
 20
3.657760912390243
 97
        4
330
54E
330
54D
330
54C
330
B47
 75
     0
 76
     1
 52
0.0
 41
0.06
 77
     0
 78
    13
 53
50.0
 43
0.0
 44
0.0
 45
0.430356109560452
 46
-0.0376512809895571
 79
     2
 49
0.045
 49
-0.4950000000000001
 53
355.0
 43
0.0
 44
0.0
 45
-0.0832508001678
 46
0.4513152802200072
 79
     2
 49
0.036
 49
-0.3959999999999999
 53
100.4514
 43
0.035863008
 44
-0.003137604
 45
0.3471056290284129
 46
0.4136637252365722
 79
     2
 49
0.038244114
 49
-0.4206852672
 53
46.1842
 43
0.0
 44
0.12
 45
0.6403446291753867
 46
-0.0993114085974109
 79
     2
 49
0.0675
 49
-0.7424999999999999
 53
96.6356
 43
0.053362047
 44
0.1117240158
 45
0.560797623329222
 46
0.584470722540265
 79
     2
 49
0.0573661728
 49
-0.6310278
 53
351.1842000000001
 43
0.0
 44
0.12
 45
0.5607971670801763
 46
0.5844711605551949
 79
     2
 49
0.054
 49
-0.594
 53
21.0
 43
0.06
 44
0.09
 45
0.358144231271077
 46
-0.2415713343992032
 79
     2
 49
0.045
 49
-0.4950000000000001
 53
326.0
 43
0.06
 44
0.09
 45
0.145989199152949
 46
0.4350900270281118
 79
     2
 49
0.036
 49
-0.3959999999999999
 53
71.45140000000001
 43
0.0898453398
 44
0.0698690364
 45
0.504133577148894
 46
0.1935182980259714
 79
     2
 49
0.038244114
 49
-0.4206852672
 53
37.5
 43
0.0
 44
0.0
 45
0.0072959131903744
 46
0.1997363122987868
 79
     6
 49
0.0
 49
-0.3911999999999999
 49
0.0
 49
-0.402
 49
0.0
 49
-0.3975
 53
7.499999999999999
 43
0.0
 44
0.0
 45
0.1578417224652892
 46
0.2366470271294161
 79
     6
 49
0.0
 49
-0.2292
 49
0.0
 49
-0.3822
 49
0.0
 49
-0.1515
 53
327.5
 43
-0.1338
 44
0.0
 45
0.3202934617034454
 46
-0.0135329230406279
 79
     6
 49
0.0
 49
-0.15
 49
0.0
 49
-0.468
 49
0.0
 49
-0.621
 53
317.5
 43
-0.1938
 44
0.0
 45
0.3499117016054317
 46
0.0600629893993906
 79
     6
 49
0.0
 49
-0.195
 49
0.0
 49
-0.3108
 49
0.0
 49
-0.441
 47
0.0097202275425133
 98
        1
 10
2.947475430155917
 20
3.824391169899494
1001
ACAD
1010
0.0
1020
0.0
1030
0.0
  0
INSERT
  5
D91
330
1F
100
AcDbEntity
  8
text_bubbles
100
AcDbBlockReference
 66
     1
  2
WID_FlagNote
 10
8.369841868098005
 20
9.969025332664264
 30
0.0
 41
0.2499994999999942
 42
0.2499994999999977
 43
0.2499994999999975
  0
ATTRIB
  5
D92
330
D91
100
AcDbEntity
  8
0
100
AcDbText
 10
8.321032410322152
 20
9.868301408385448
 30
0.0
 40
0.1249997499999987
  1
1
  7
WIDFlagNote
 72
     4
 11
8.371627547226912
 21
9.930801283385447
 31
0.0
100
AcDbAttribute
  2
NO.
 70
     0
  0
SEQEND
  5
D93
330
D91
100
AcDbEntity
  8
text_bubbles
  0
INSERT
  5
D94
330
1F
100
AcDbEntity
  8
text_bubbles
100
AcDbBlockReference
 66
     1
  2
WID_FlagNote
 10
8.369841868098005
 20
8.688857208158832
 30
0.0
 41
0.2499994999999942
 42
0.2499994999999977
 43
0.2499994999999975
  0
ATTRIB
  5
D95
330
D94
100
AcDbEntity
  8
0
100
AcDbText
 10
8.312103856750722
 20
8.588133283880017
 30
0.0
 40
0.1249997499999987
  1
2
  7
WIDFlagNote
 72
     4
 11
8.371627547226912
 21
8.650633158880015
 31
0.0
100
AcDbAttribute
  2
NO.
 70
     0
  0
SEQEND
  5
D96
330
D94
100
AcDbEntity
  8
text_bubbles
  0
INSERT
  5
D97
330
1F
100
AcDbEntity
  8
text_bubbles
100
AcDbBlockReference
 66
     1
  2
WID_FlagNote
 10
8.369841868098005
 20
7.832592906272095
 30
0.0
 41
0.2499994999999942
 42
0.2499994999999977
 43
0.2499994999999975
  0
ATTRIB
  5
D98
330
D97
100
AcDbEntity
  8
0
100
AcDbText
 10
8.312103856750722
 20
7.731868981993279
 30
0.0
 40
0.1249997499999987
  1
3
  7
WIDFlagNote
 72
     4
 11
8.371627547226912
 21
7.794368856993278
 31
0.0
100
AcDbAttribute
  2
NO.
 70
     0
  0
SEQEND
  5
D99
330
D97
100
AcDbEntity
  8
text_bubbles
  0
INSERT
  5
D9A
330
1F
100
AcDbEntity
  8
text_bubbles
100
AcDbBlockReference
 66
     1
  2
WID_FlagNote
 10
8.369841868098005
 20
7.207015542264803
 30
0.0
 41
0.2499994999999942
 42
0.2499994999999977
 43
0.2499994999999975
  0
ATTRIB
  5
D9B
330
D9A
100
AcDbEntity
  8
0
100
AcDbText
 10
8.309127672226914
 20
7.106291617985987
 30
0.0
 40
0.1249997499999987
  1
4
  7
WIDFlagNote
 72
     4
 11
8.371627547226912
 21
7.168791492985986
 31
0.0
100
AcDbAttribute
  2
NO.
 70
     0
  0
SEQEND
  5
D9C
330
D9A
100
AcDbEntity
  8
text_bubbles
  0
INSERT
  5
D9D
330
1F
100
AcDbEntity
  8
text_bubbles
100
AcDbBlockReference
 66
     1
  2
WID_FlagNote
 10
8.369841868098005
 20
6.787817328906443
 30
0.0
 41
0.2499994999999942
 42
0.2499994999999977
 43
0.2499994999999975
  0
ATTRIB
  5
D9E
330
D9D
100
AcDbEntity
  8
0
100
AcDbText
 10
8.312103856750722
 20
6.687093404627627
 30
0.0
 40
0.1249997499999987
  1
5
  7
WIDFlagNote
 72
     4
 11
8.371627547226912
 21
6.749593279627626
 31
0.0
100
AcDbAttribute
  2
NO.
 70
     0
  0
SEQEND
  5
D9F
330
D9D
100
AcDbEntity
  8
text_bubbles
  0
INSERT
  5
DA0
330
1F
100
AcDbEntity
  8
text_bubbles
100
AcDbBlockReference
 66
     1
  2
WID_FlagNote
 10
8.369841868098005
 20
6.373931399111757
 30
0.0
 41
0.2499994999999942
 42
0.2499994999999977
 43
0.2499994999999975
  0
ATTRIB
  5
DA1
330
DA0
100
AcDbEntity
  8
0
100
AcDbText
 10
8.309127672226914
 20
6.273207474832941
 30
0.0
 40
0.1249997499999987
  1
6
  7
WIDFlagNote
 72
     4
 11
8.371627547226912
 21
6.33570734983294
 31
0.0
100
AcDbAttribute
  2
NO.
 70
     0
  0
SEQEND
  5
DA2
330
DA0
100
AcDbEntity
  8
text_bubbles
  0
INSERT
  5
DA9
330
1F
100
AcDbEntity
  8
text_bubbles
100
AcDbBlockReference
 66
     1
  2
WID_FlagNote
 10
5.554294202450232
 20
4.931608884268697
 30
0.0
 41
0.2499994999999942
 42
0.2499994999999977
 43
0.2499994999999975
  0
ATTRIB
  5
DAA
330
DA9
100
AcDbEntity
  8
0
100
AcDbText
 10
5.49655619110295
 20
4.83088495998988
 30
0.0
 40
0.1249997499999987
  1
3
  7
WIDFlagNote
 72
     4
 11
5.556079881579139
 21
4.89338483498988
 31
0.0
100
AcDbAttribute
  2
NO.
 70
     0
  0
SEQEND
  5
DAB
330
DA9
100
AcDbEntity
  8
text_bubbles
  0
LEADER
  5
DAF
330
1F
100
AcDbEntity
  8
text_bubbles
100
AcDbLeader
  3
Standard
 76
     2
 10
5.149633682206068
 20
4.392529905351015
 30
0.0
 10
5.454561993829297
 20
4.795910721579932
 30
0.0
1001
ACAD
1000
DSTYLE
1002
{
1070
    44
1040
0.125
1070
   140
1040
0.125
1070
   176
1070
   256
1070
   177
1070
   256
1070
   178
1070
   256
1070
   371
1070
    -1
1070
   372
1070
    -1
1002
}
  0
INSERT
  5
DB0
330
1F
100
AcDbEntity
  8
text_bubbles
100
AcDbBlockReference
 66
     1
  2
WID_FlagNote
 10
6.884333337782167
 20
4.850466452505476
 30
0.0
 41
0.2499994999999942
 42
0.2499994999999977
 43
0.2499994999999975
  0
ATTRIB
  5
DB1
330
DB0
100
AcDbEntity
  8
0
100
AcDbText
 10
6.823619141911075
 20
4.74974252822666
 30
0.0
 40
0.1249997499999987
  1
4
  7
WIDFlagNote
 72
     4
 11
6.886119016911075
 21
4.812242403226659
 31
0.0
100
AcDbAttribute
  2
NO.
 70
     0
  0
SEQEND
  5
DB2
330
DB0
100
AcDbEntity
  8
text_bubbles
  0
LEADER
  5
DB3
330
1F
100
AcDbEntity
  8
text_bubbles
100
AcDbLeader
  3
Standard
 76
     2
 10
6.479672817538003
 20
4.311387473587794
 30
0.0
 10
6.784601129161232
 20
4.714768289816712
 30
0.0
1001
ACAD
1000
DSTYLE
1002
{
1070
    44
1040
0.125
1070
   140
1040
0.125
1070
   176
1070
   256
1070
   177
1070
   256
1070
   178
1070
   256
1070
   371
1070
    -1
1070
   372
1070
    -1
1002
}
  0
INSERT
  5
DB4
330
1F
100
AcDbEntity
  8
text_bubbles
100
AcDbBlockReference
 66
     1
  2
WID_FlagNote
 10
5.65573133938177
 20
2.948903065149735
 30
0.0
 41
0.2499994999999942
 42
0.2499994999999977
 43
0.2499994999999975
  0
ATTRIB
  5
DB5
330
DB4
100
AcDbEntity
  8
0
100
AcDbText
 10
5.529541083986869
 20
2.848179140870919
 30
0.0
 40
0.1249997499999987
  1
10
  7
WIDFlagNote
 72
     4
 11
5.657517018510677
 21
2.910679015870918
 31
0.0
100
AcDbAttribute
  2
NO.
 70
     0
  0
SEQEND
  5
DB6
330
DB4
100
AcDbEntity
  8
text_bubbles
  0
LEADER
  5
DB7
330
1F
100
AcDbEntity
  8
text_bubbles
100
AcDbLeader
  3
Standard
 76
     2
 10
5.251070819137606
 20
2.409824086232053
 30
0.0
 10
5.555999130760834
 20
2.813204902460971
 30
0.0
1001
ACAD
1000
DSTYLE
1002
{
1070
    44
1040
0.125
1070
   140
1040
0.125
1070
   176
1070
   256
1070
   177
1070
   256
1070
   178
1070
   256
1070
   371
1070
    -1
1070
   372
1070
    -1
1002
}
  0
INSERT
  5
DB8
330
1F
100
AcDbEntity
  8
text_bubbles
100
AcDbBlockReference
 66
     1
  2
WID_FlagNote
 10
7.262638441246902
 20
2.563058422819223
 30
0.0
 41
0.2499994999999942
 42
0.2499994999999977
 43
0.2499994999999975
  0
ATTRIB
  5
DB9
330
DB8
100
AcDbEntity
  8
0
100
AcDbText
 10
7.154305292994858
 20
2.462334498540406
 30
0.0
 40
0.1249997499999987
  1
11
  7
WIDFlagNote
 72
     4
 11
7.264424120375809
 21
2.524834373540405
 31
0.0
100
AcDbAttribute
  2
NO.
 70
     0
  0
SEQEND
  5
DBA
330
DB8
100
AcDbEntity
  8
text_bubbles
  0
LEADER
  5
DBB
330
1F
100
AcDbEntity
  8
text_bubbles
100
AcDbLeader
  3
Standard
 76
     2
 10
6.868871596054255
 20
2.03791980900818
 30
0.0
 10
7.162906232625966
 20
2.427360260130458
 30
0.0
1001
ACAD
1000
DSTYLE
1002
{
1070
    44
1040
0.125
1070
   140
1040
0.125
1070
   176
1070
   256
1070
   177
1070
   256
1070
   178
1070
   256
1070
   371
1070
    -1
1070
   372
1070
    -1
1002
}
  0
INSERT
  5
DBC
330
1F
100
AcDbEntity
  8
text_bubbles
100
AcDbBlockReference
 66
     1
  2
WID_FlagNote
 10
2.155586549653695
 20
3.250758124325379
 30
0.0
 41
-0.2499994999999946
 42
0.2499994999999977
 43
0.2499994999999975
  0
ATTRIB
  5
DBD
330
DBC
100
AcDbEntity
  8
0
100
AcDbText
 10
2.091300995524788
 20
3.150034200046562
 30
0.0
 40
0.1249997499999988
  1
6
  7
WIDFlagNote
 72
     4
 11
2.153800870524788
 21
3.212534075046562
 31
0.0
100
AcDbAttribute
  2
NO.
 70
     0
  0
SEQEND
  5
DBE
330
DBC
100
AcDbEntity
  8
text_bubbles
  0
LEADER
  5
DBF
330
1F
100
AcDbEntity
  8
text_bubbles
100
AcDbLeader
  3
Standard
 76
     2
 10
2.560247069897859
 20
2.711679145407697
 30
0.0
 10
2.255318758274631
 20
3.115059961636614
 30
0.0
211
-1.0
221
0.0
231
0.0
1001
ACAD
1000
DSTYLE
1002
{
1070
    44
1040
0.125
1070
   140
1040
0.125
1070
   176
1070
   256
1070
   177
1070
   256
1070
   178
1070
   256
1070
   371
1070
    -1
1070
   372
1070
    -1
1002
}
  0
INSERT
  5
E17
330
1F
100
AcDbEntity
  8
text_bubbles
100
AcDbBlockReference
 66
     1
  2
WID_FlagNote
 10
1.411997354093238
 20
3.203619113943795
 30
0.0
 41
-0.2499994999999946
 42
0.2499994999999977
 43
0.2499994999999975
  0
ATTRIB
  5
E18
330
E17
100
AcDbEntity
  8
0
100
AcDbText
 10
1.35068798448814
 20
3.102895189664979
 30
0.0
 40
0.1249997499999988
  1
5
  7
WIDFlagNote
 72
     4
 11
1.41021167496433
 21
3.165395064664978
 31
0.0
100
AcDbAttribute
  2
NO.
 70
     0
  0
SEQEND
  5
E19
330
E17
100
AcDbEntity
  8
text_bubbles
  0
LEADER
  5
E1A
330
1F
100
AcDbEntity
  8
text_bubbles
100
AcDbLeader
  3
Standard
 76
     2
 10
1.816657874337402
 20
2.664540135026113
 30
0.0
 10
1.511729562714173
 20
3.067920951255031
 30
0.0
211
-1.0
221
0.0
231
0.0
1001
ACAD
1000
DSTYLE
1002
{
1070
    44
1040
0.125
1070
   140
1040
0.125
1070
   176
1070
   256
1070
   177
1070
   256
1070
   178
1070
   256
1070
   371
1070
    -1
1070
   372
1070
    -1
1002
}
  0
INSERT
  5
E1B
330
1F
100
AcDbEntity
  8
text_bubbles
100
AcDbBlockReference
 66
     1
  2
WID_FlagNote
 10
8.369841868098005
 20
5.743980438203657
 30
0.0
 41
0.2499994999999942
 42
0.2499994999999977
 43
0.2499994999999975
  0
ATTRIB
  5
E1C
330
E1B
100
AcDbEntity
  8
0
100
AcDbText
 10
8.312103856750722
 20
5.64325651392484
 30
0.0
 40
0.1249997499999987
  1
7
  7
WIDFlagNote
 72
     4
 11
8.371627547226912
 21
5.705756388924839
 31
0.0
100
AcDbAttribute
  2
NO.
 70
     0
  0
SEQEND
  5
E1D
330
E1B
100
AcDbEntity
  8
text_bubbles
  0
LINE
  5
E61
330
1F
100
AcDbEntity
  8
image
100
AcDbLine
 10
3.492153505631295
 20
3.657760912390243
 30
0.0
 11
3.677509920878971
 21
3.657760912390243
 31
0.0
  0
HATCH
  5
FDF
330
1F
100
AcDbEntity
  8
image
100
AcDbHatch
 10
0.0
 20
0.0
 30
0.0
210
0.0
220
0.0
230
1.0
  2
AR-CONC
 70
     0
 71
     0
 91
        2
 92
        5
 93
        4
 72
     1
 10
3.677509920878972
 20
3.657760912390243
 11
3.677509920878972
 21
4.392529905351015
 72
     1
 10
3.677509920878972
 20
4.392529905351015
 11
3.492153505631295
 21
4.392529905351015
 72
     1
 10
3.492153505631295
 20
4.392529905351015
 11
3.492153505631295
 21
3.657760912390243
 72
     1
 10
3.492153505631295
 20
3.657760912390243
 11
3.677509920878972
 21
3.657760912390243
 97
        0
 92
        5
 93
        4
 72
     1
 10
3.799971419705764
 20
4.392529905351015
 11
3.799971419705755
 21
3.657760912390243
 72
     1
 10
3.799971419705755
 20
3.657760912390243
 11
4.447013043857294
 21
3.657760912390243
 72
     1
 10
4.447013043857294
 20
3.657760912390243
 11
4.447013043857294
 21
4.392529905351015
 72
     1
 10
4.447013043857294
 20
4.392529905351015
 11
3.799971419705764
 21
4.392529905351015
 97
        0
 75
     0
 76
     1
 52
0.0
 41
0.06
 77
     0
 78
    13
 53
50.0
 43
0.0
 44
0.0
 45
0.430356109560452
 46
-0.0376512809895571
 79
     2
 49
0.045
 49
-0.4950000000000001
 53
355.0
 43
0.0
 44
0.0
 45
-0.0832508001678
 46
0.4513152802200072
 79
     2
 49
0.036
 49
-0.3959999999999999
 53
100.4514
 43
0.035863008
 44
-0.003137604
 45
0.3471056290284129
 46
0.4136637252365722
 79
     2
 49
0.038244114
 49
-0.4206852672
 53
46.1842
 43
0.0
 44
0.12
 45
0.6403446291753867
 46
-0.0993114085974109
 79
     2
 49
0.0675
 49
-0.7424999999999999
 53
96.6356
 43
0.053362047
 44
0.1117240158
 45
0.560797623329222
 46
0.584470722540265
 79
     2
 49
0.0573661728
 49
-0.6310278
 53
351.1842000000001
 43
0.0
 44
0.12
 45
0.5607971670801763
 46
0.5844711605551949
 79
     2
 49
0.054
 49
-0.594
 53
21.0
 43
0.06
 44
0.09
 45
0.358144231271077
 46
-0.2415713343992032
 79
     2
 49
0.045
 49
-0.4950000000000001
 53
326.0
 43
0.06
 44
0.09
 45
0.145989199152949
 46
0.4350900270281118
 79
     2
 49
0.036
 49
-0.3959999999999999
 53
71.45140000000001
 43
0.0898453398
 44
0.0698690364
 45
0.504133577148894
 46
0.1935182980259714
 79
     2
 49
0.038244114
 49
-0.4206852672
 53
37.5
 43
0.0
 44
0.0
 45
0.0072959131903744
 46
0.1997363122987868
 79
     6
 49
0.0
 49
-0.3911999999999999
 49
0.0
 49
-0.402
 49
0.0
 49
-0.3975
 53
7.499999999999999
 43
0.0
 44
0.0
 45
0.1578417224652892
 46
0.2366470271294161
 79
     6
 49
0.0
 49
-0.2292
 49
0.0
 49
-0.3822
 49
0.0
 49
-0.1515
 53
327.5
 43
-0.1338
 44
0.0
 45
0.3202934617034454
 46
-0.0135329230406279
 79
     6
 49
0.0
 49
-0.15
 49
0.0
 49
-0.468
 49
0.0
 49
-0.621
 53
317.5
 43
-0.1938
 44
0.0
 45
0.3499117016054317
 46
0.0600629893993906
 79
     6
 49
0.0
 49
-0.195
 49
0.0
 49
-0.3108
 49
0.0
 49
-0.441
 47
0.0123664218410425
 98
        2
 10
4.063577767688439
 20
4.018482521047166
 10
4.063577767688439
 20
4.018482521047166
1001
ACAD
1010
0.0
1020
0.0
1030
0.0
  0
CIRCLE
  5
10C3
102
{ACAD_REACTORS
330
1117
102
}
330
1F
100
AcDbEntity
  8
image
 62
     5
100
AcDbCircle
 10
7.580508811611998
 20
1.883757300033586
 30
0.0
 40
0.0131
  0
CIRCLE
  5
10C4
102
{ACAD_REACTORS
330
1116
102
}
330
1F
100
AcDbEntity
  8
image
 62
     5
100
AcDbCircle
 10
7.580508811611998
 20
1.766506937682137
 30
0.0
 40
0.0131
  0
POLYLINE
  5
10C5
330
1F
100
AcDbEntity
  8
image
100
AcDb2dPolyline
 66
     1
 10
0.0
 20
0.0
 30
0.0
 70
     4
 40
0.0262
 41
0.0262
 75
     6
  0
VERTEX
  5
10C6
330
10C5
100
AcDbEntity
  8
image
100
AcDbVertex
100
AcDb2dVertex
 10
6.397556357936359
 20
1.792535865331668
 30
0.0
 40
0.0524
 41
0.0524
 70
    16
  0
VERTEX
  5
10C7
330
10C5
100
AcDbEntity
  8
image
100
AcDbVertex
100
AcDb2dVertex
 10
6.397556357936359
 20
1.792535865331668
 30
0.0
 40
0.0524
 41
0.0524
 70
     8
  0
VERTEX
  5
10C8
330
10C5
100
AcDbEntity
  8
image
100
AcDbVertex
100
AcDb2dVertex
 10
6.41665467050867
 20
1.795716663263072
 30
0.0
 40
0.0524
 41
0.0524
 70
     8
  0
VERTEX
  5
10C9
330
10C5
100
AcDbEntity
  8
image
100
AcDbVertex
100
AcDb2dVertex
 10
6.432981376982977
 20
1.797972507795929
 30
0.0
 40
0.0524
 41
0.0524
 70
     8
  0
VERTEX
  5
10CA
330
10C5
100
AcDbEntity
  8
image
100
AcDbVertex
100
AcDb2dVertex
 10
6.446954964621362
 20
1.799477081981133
 30
0.0
 40
0.0524
 41
0.0524
 70
     8
  0
VERTEX
  5
10CB
330
10C5
100
AcDbEntity
  8
image
100
AcDbVertex
100
AcDb2dVertex
 10
6.458993920685903
 20
1.800404068869578
 30
0.0
 40
0.0524
 41
0.0524
 70
     8
  0
VERTEX
  5
10CC
330
10C5
100
AcDbEntity
  8
image
100
AcDbVertex
100
AcDb2dVertex
 10
6.46951673243868
 20
1.800927151512159
 30
0.0
 40
0.0524
 41
0.0524
 70
     8
  0
VERTEX
  5
10CD
330
10C5
100
AcDbEntity
  8
image
100
AcDbVertex
100
AcDb2dVertex
 10
6.478941887141775
 20
1.801220012959769
 30
0.0
 40
0.0524
 41
0.0524
 70
     8
  0
VERTEX
  5
10CE
330
10C5
100
AcDbEntity
  8
image
100
AcDbVertex
100
AcDb2dVertex
 10
6.487687872057268
 20
1.801456336263301
 30
0.0
 40
0.0524
 41
0.0524
 70
     8
  0
VERTEX
  5
10CF
330
10C5
100
AcDbEntity
  8
image
100
AcDbVertex
100
AcDb2dVertex
 10
6.496173174447233
 20
1.801809804473651
 30
0.0
 40
0.0524
 41
0.0524
 70
     8
  0
VERTEX
  5
10D0
330
10C5
100
AcDbEntity
  8
image
100
AcDbVertex
100
AcDb2dVertex
 10
6.504735296622437
 20
1.802420165783191
 30
0.0
 40
0.0524
 41
0.0524
 70
     8
  0
VERTEX
  5
10D1
330
10C5
100
AcDbEntity
  8
image
100
AcDbVertex
100
AcDb2dVertex
 10
6.513387801088345
 20
1.803291428950211
 30
0.0
 40
0.0524
 41
0.0524
 70
     8
  0
VERTEX
  5
10D2
330
10C5
100
AcDbEntity
  8
image
100
AcDbVertex
100
AcDb2dVertex
 10
6.522063265399107
 20
1.80439366787448
 30
0.0
 40
0.0524
 41
0.0524
 70
     8
  0
VERTEX
  5
10D3
330
10C5
100
AcDbEntity
  8
image
100
AcDbVertex
100
AcDb2dVertex
 10
6.53069426710887
 20
1.805696956455768
 30
0.0
 40
0.0524
 41
0.0524
 70
     8
  0
VERTEX
  5
10D4
330
10C5
100
AcDbEntity
  8
image
100
AcDbVertex
100
AcDb2dVertex
 10
6.539213383771783
 20
1.807171368593843
 30
0.0
 40
0.0524
 41
0.0524
 70
     8
  0
VERTEX
  5
10D5
330
10C5
100
AcDbEntity
  8
image
100
AcDbVertex
100
AcDb2dVertex
 10
6.547553192941993
 20
1.808786978188476
 30
0.0
 40
0.0524
 41
0.0524
 70
     8
  0
VERTEX
  5
10D6
330
10C5
100
AcDbEntity
  8
image
100
AcDbVertex
100
AcDb2dVertex
 10
6.55564627217365
 20
1.810513859139434
 30
0.0
 40
0.0524
 41
0.0524
 70
     8
  0
VERTEX
  5
10D7
330
10C5
100
AcDbEntity
  8
image
100
AcDbVertex
100
AcDb2dVertex
 10
6.5634251990209
 20
1.812322085346488
 30
0.0
 40
0.0524
 41
0.0524
 70
     8
  0
VERTEX
  5
10D8
330
10C5
100
AcDbEntity
  8
image
100
AcDbVertex
100
AcDb2dVertex
 10
6.571626925119308
 20
1.814118829409417
 30
0.0
 40
0.0524
 41
0.0524
 70
     8
  0
VERTEX
  5
10D9
330
10C5
100
AcDbEntity
  8
image
100
AcDbVertex
100
AcDb2dVertex
 10
6.584205898430107
 20
1.815559658728034
 30
0.0
 40
0.0524
 41
0.0524
 70
     8
  0
VERTEX
  5
10DA
330
10C5
100
AcDbEntity
  8
image
100
AcDbVertex
100
AcDb2dVertex
 10
6.605920940995943
 20
1.816237239402167
 30
0.0
 40
0.0524
 41
0.0524
 70
     8
  0
VERTEX
  5
10DB
330
10C5
100
AcDbEntity
  8
image
100
AcDbVertex
100
AcDb2dVertex
 10
6.641530874859466
 20
1.815744237531639
 30
0.0
 40
0.0524
 41
0.0524
 70
     8
  0
VERTEX
  5
10DC
330
10C5
100
AcDbEntity
  8
image
100
AcDbVertex
100
AcDb2dVertex
 10
6.695794522063322
 20
1.813673319216277
 30
0.0
 40
0.0524
 41
0.0524
 70
     8
  0
VERTEX
  5
10DD
330
10C5
100
AcDbEntity
  8
image
100
AcDbVertex
100
AcDb2dVertex
 10
6.77347070465016
 20
1.809617150555904
 30
0.0
 40
0.0524
 41
0.0524
 70
     8
  0
VERTEX
  5
10DE
330
10C5
100
AcDbEntity
  8
image
100
AcDbVertex
100
AcDb2dVertex
 10
6.879318244662628
 20
1.803168397650347
 30
0.0
 40
0.0524
 41
0.0524
 70
     8
  0
VERTEX
  5
10DF
330
10C5
100
AcDbEntity
  8
image
100
AcDbVertex
100
AcDb2dVertex
 10
7.018095964143374
 20
1.79391972659943
 30
0.0
 40
0.0524
 41
0.0524
 70
     8
  0
VERTEX
  5
10E0
330
10C5
100
AcDbEntity
  8
image
100
AcDbVertex
100
AcDb2dVertex
 10
6.452552654937264
 20
1.802405649280935
 30
0.0
 40
0.0524
 41
0.0524
 70
    16
  0
VERTEX
  5
10E1
330
10C5
100
AcDbEntity
  8
image
100
AcDbVertex
100
AcDb2dVertex
 10
6.494489923923959
 20
1.798707639591402
 30
0.0
 40
0.0524
 41
0.0524
 70
    16
  0
VERTEX
  5
10E2
330
10C5
100
AcDbEntity
  8
image
100
AcDbVertex
100
AcDb2dVertex
 10
6.567495330543652
 20
1.811773614350599
 30
0.0
 40
0.0524
 41
0.0524
 70
    16
  0
VERTEX
  5
10E3
330
10C5
100
AcDbEntity
  8
image
100
AcDbVertex
100
AcDb2dVertex
 10
6.599885075532439
 20
1.822678148173622
 30
0.0
 40
0.0524
 41
0.0524
 70
    16
  0
VERTEX
  5
10E4
330
10C5
100
AcDbEntity
  8
image
100
AcDbVertex
100
AcDb2dVertex
 10
7.018095964143373
 20
1.79391972659943
 30
0.0
 40
0.0524
 41
0.0524
 70
    16
  0
SEQEND
  5
10E5
330
10C5
100
AcDbEntity
  8
image
  0
POLYLINE
  5
10E6
330
1F
100
AcDbEntity
  8
image
 62
     5
100
AcDb2dPolyline
 66
     1
 10
0.0
 20
0.0
 30
0.0
 70
     4
 40
0.0262
 41
0.0262
 75
     6
  0
VERTEX
  5
10E7
330
10E6
100
AcDbEntity
  8
image
 62
     5
100
AcDbVertex
100
AcDb2dVertex
 10
7.018095964143373
 20
1.79391972659943
 30
0.0
 70
    16
  0
VERTEX
  5
10E8
330
10E6
100
AcDbEntity
  8
image
 62
     5
100
AcDbVertex
100
AcDb2dVertex
 10
7.018095964143373
 20
1.79391972659943
 30
0.0
 70
     8
  0
VERTEX
  5
10E9
330
10E6
100
AcDbEntity
  8
image
 62
     5
100
AcDbVertex
100
AcDb2dVertex
 10
7.059150146619217
 20
1.782687535111973
 30
0.0
 70
     8
  0
VERTEX
  5
10EA
330
10E6
100
AcDbEntity
  8
image
 62
     5
100
AcDbVertex
100
AcDb2dVertex
 10
7.095057594995086
 20
1.773558914959684
 30
0.0
 70
     8
  0
VERTEX
  5
10EB
330
10E6
100
AcDbEntity
  8
image
 62
     5
100
AcDbVertex
100
AcDb2dVertex
 10
7.126693076004666
 20
1.766297723884733
 30
0.0
 70
     8
  0
VERTEX
  5
10EC
330
10E6
100
AcDbEntity
  8
image
 62
     5
100
AcDbVertex
100
AcDb2dVertex
 10
7.15493135638164
 20
1.760667819629286
 30
0.0
 70
     8
  0
VERTEX
  5
10ED
330
10E6
100
AcDbEntity
  8
image
 62
     5
100
AcDbVertex
100
AcDb2dVertex
 10
7.180647202859695
 20
1.756433059935515
 30
0.0
 70
     8
  0
VERTEX
  5
10EE
330
10E6
100
AcDbEntity
  8
image
 62
     5
100
AcDbVertex
100
AcDb2dVertex
 10
7.204715382172516
 20
1.753357302545587
 30
0.0
 70
     8
  0
VERTEX
  5
10EF
330
10E6
100
AcDbEntity
  8
image
 62
     5
100
AcDbVertex
100
AcDb2dVertex
 10
7.228010661053788
 20
1.751204405201669
 30
0.0
 70
     8
  0
VERTEX
  5
10F0
330
10E6
100
AcDbEntity
  8
image
 62
     5
100
AcDbVertex
100
AcDb2dVertex
 10
7.251407806237198
 20
1.749738225645931
 30
0.0
 70
     8
  0
VERTEX
  5
10F1
330
10E6
100
AcDbEntity
  8
image
 62
     5
100
AcDbVertex
100
AcDb2dVertex
 10
7.275846593536485
 20
1.748785343063991
 30
0.0
 70
     8
  0
VERTEX
  5
10F2
330
10E6
100
AcDbEntity
  8
image
 62
     5
100
AcDbVertex
100
AcDb2dVertex
 10
7.302526835085611
 20
1.748423222415279
 30
0.0
 70
     8
  0
VERTEX
  5
10F3
330
10E6
100
AcDbEntity
  8
image
 62
     5
100
AcDbVertex
100
AcDb2dVertex
 10
7.332713352098595
 20
1.748792050102679
 30
0.0
 70
     8
  0
VERTEX
  5
10F4
330
10E6
100
AcDbEntity
  8
image
 62
     5
100
AcDbVertex
100
AcDb2dVertex
 10
7.367670965789455
 20
1.750032012529066
 30
0.0
 70
     8
  0
VERTEX
  5
10F5
330
10E6
100
AcDbEntity
  8
image
 62
     5
100
AcDbVertex
100
AcDb2dVertex
 10
7.408664497372207
 20
1.752283296097326
 30
0.0
 70
     8
  0
VERTEX
  5
10F6
330
10E6
100
AcDbEntity
  8
image
 62
     5
100
AcDbVertex
100
AcDb2dVertex
 10
7.45695876806087
 20
1.755686087210337
 30
0.0
 70
     8
  0
VERTEX
  5
10F7
330
10E6
100
AcDbEntity
  8
image
 62
     5
100
AcDbVertex
100
AcDb2dVertex
 10
7.513818599069461
 20
1.760380572270982
 30
0.0
 70
     8
  0
VERTEX
  5
10F8
330
10E6
100
AcDbEntity
  8
image
 62
     5
100
AcDbVertex
100
AcDb2dVertex
 10
7.580508811611998
 20
1.766506937682137
 30
0.0
 70
     8
  0
VERTEX
  5
10F9
330
10E6
100
AcDbEntity
  8
image
 62
     5
100
AcDbVertex
100
AcDb2dVertex
 10
7.135213666642203
 20
1.760952549956801
 30
0.0
 70
    16
  0
VERTEX
  5
10FA
330
10E6
100
AcDbEntity
  8
image
 62
     5
100
AcDbVertex
100
AcDb2dVertex
 10
7.240990387188428
 20
1.744932086655555
 30
0.0
 70
    16
  0
VERTEX
  5
10FB
330
10E6
100
AcDbEntity
  8
image
 62
     5
100
AcDbVertex
100
AcDb2dVertex
 10
7.388436783929735
 20
1.748136179315807
 30
0.0
 70
    16
  0
VERTEX
  5
10FC
330
10E6
100
AcDbEntity
  8
image
 62
     5
100
AcDbVertex
100
AcDb2dVertex
 10
7.580508811611998
 20
1.766506937682137
 30
0.0
 70
    16
  0
SEQEND
  5
10FD
330
10E6
100
AcDbEntity
  8
image
 62
     5
  0
POLYLINE
  5
10FE
330
1F
100
AcDbEntity
  8
image
 62
     5
100
AcDb2dPolyline
 66
     1
 10
0.0
 20
0.0
 30
0.0
 70
     4
 40
0.0262
 41
0.0262
 75
     6
  0
VERTEX
  5
10FF
330
10FE
100
AcDbEntity
  8
image
 62
     5
100
AcDbVertex
100
AcDb2dVertex
 10
7.018095964143373
 20
1.79391972659943
 30
0.0
 70
    16
  0
VERTEX
  5
1100
330
10FE
100
AcDbEntity
  8
image
 62
     5
100
AcDbVertex
100
AcDb2dVertex
 10
7.018095964143373
 20
1.79391972659943
 30
0.0
 70
     8
  0
VERTEX
  5
1101
330
10FE
100
AcDbEntity
  8
image
 62
     5
100
AcDbVertex
100
AcDb2dVertex
 10
7.038714091711938
 20
1.806575271863877
 30
0.0
 70
     8
  0
VERTEX
  5
1102
330
10FE
100
AcDbEntity
  8
image
 62
     5
100
AcDbVertex
100
AcDb2dVertex
 10
7.062231540015845
 20
1.816818836942903
 30
0.0
 70
     8
  0
VERTEX
  5
1103
330
10FE
100
AcDbEntity
  8
image
 62
     5
100
AcDbVertex
100
AcDb2dVertex
 10
7.088242716616827
 20
1.825012176082438
 30
0.0
 70
     8
  0
VERTEX
  5
1104
330
10FE
100
AcDbEntity
  8
image
 62
     5
100
AcDbVertex
100
AcDb2dVertex
 10
7.116342029076614
 20
1.831517043528396
 30
0.0
 70
     8
  0
VERTEX
  5
1105
330
10FE
100
AcDbEntity
  8
image
 62
     5
100
AcDbVertex
100
AcDb2dVertex
 10
7.14612388495694
 20
1.836695193526704
 30
0.0
 70
     8
  0
VERTEX
  5
1106
330
10FE
100
AcDbEntity
  8
image
 62
     5
100
AcDbVertex
100
AcDb2dVertex
 10
7.177182691819535
 20
1.840908380323282
 30
0.0
 70
     8
  0
VERTEX
  5
1107
330
10FE
100
AcDbEntity
  8
image
 62
     5
100
AcDbVertex
100
AcDb2dVertex
 10
7.209112857226132
 20
1.844518358164052
 30
0.0
 70
     8
  0
VERTEX
  5
1108
330
10FE
100
AcDbEntity
  8
image
 62
     5
100
AcDbVertex
100
AcDb2dVertex
 10
7.241508788738464
 20
1.847886881294936
 30
0.0
 70
     8
  0
VERTEX
  5
1109
330
10FE
100
AcDbEntity
  8
image
 62
     5
100
AcDbVertex
100
AcDb2dVertex
 10
7.274183128456465
 20
1.851325321332433
 30
0.0
 70
     8
  0
VERTEX
  5
110A
330
10FE
100
AcDbEntity
  8
image
 62
     5
100
AcDbVertex
100
AcDb2dVertex
 10
7.307821456632892
 20
1.854943519375368
 30
0.0
 70
     8
  0
VERTEX
  5
110B
330
10FE
100
AcDbEntity
  8
image
 62
     5
100
AcDbVertex
100
AcDb2dVertex
 10
7.343327588058699
 20
1.858800933893139
 30
0.0
 70
     8
  0
VERTEX
  5
110C
330
10FE
100
AcDbEntity
  8
image
 62
     5
100
AcDbVertex
100
AcDb2dVertex
 10
7.381605337524845
 20
1.862957023355148
 30
0.0
 70
     8
  0
VERTEX
  5
110D
330
10FE
100
AcDbEntity
  8
image
 62
     5
100
AcDbVertex
100
AcDb2dVertex
 10
7.423558519822291
 20
1.867471246230797
 30
0.0
 70
     8
  0
VERTEX
  5
110E
330
10FE
100
AcDbEntity
  8
image
 62
     5
100
AcDbVertex
100
AcDb2dVertex
 10
7.470090949741992
 20
1.872403060989485
 30
0.0
 70
     8
  0
VERTEX
  5
110F
330
10FE
100
AcDbEntity
  8
image
 62
     5
100
AcDbVertex
100
AcDb2dVertex
 10
7.522106442074909
 20
1.877811926100616
 30
0.0
 70
     8
  0
VERTEX
  5
1110
330
10FE
100
AcDbEntity
  8
image
 62
     5
100
AcDbVertex
100
AcDb2dVertex
 10
7.580508811611998
 20
1.883757300033586
 30
0.0
 70
     8
  0
VERTEX
  5
1111
330
10FE
100
AcDbEntity
  8
image
 62
     5
100
AcDbVertex
100
AcDb2dVertex
 10
7.068851350067296
 20
1.831205380214882
 30
0.0
 70
    16
  0
VERTEX
  5
1112
330
10FE
100
AcDbEntity
  8
image
 62
     5
100
AcDbVertex
100
AcDb2dVertex
 10
7.240866936285497
 20
1.846603686243891
 30
0.0
 70
    16
  0
VERTEX
  5
1113
330
10FE
100
AcDbEntity
  8
image
 62
     5
100
AcDbVertex
100
AcDb2dVertex
 10
7.415449932315569
 20
1.867134772477072
 30
0.0
 70
    16
  0
VERTEX
  5
1114
330
10FE
100
AcDbEntity
  8
image
 62
     5
100
AcDbVertex
100
AcDb2dVertex
 10
7.580508811611998
 20
1.883757300033586
 30
0.0
 70
    16
  0
SEQEND
  5
1115
330
10FE
100
AcDbEntity
  8
image
 62
     5
  0
HATCH
  5
1116
330
1F
100
AcDbEntity
  8
image
 62
     5
100
AcDbHatch
 10
0.0
 20
0.0
 30
0.0
210
0.0
220
0.0
230
1.0
  2
SOLID
 70
     1
 71
     1
 91
        1
 92
        1
 93
        1
 72
     2
 10
7.580508811611998
 20
1.766506937682137
 40
0.0131
 50
0.0
 51
360.0
 73
     1
 97
        1
330
10C4
 75
     0
 76
     1
 98
        1
 10
17.04081773123625
 20
5.259646411138476
450
        0
451
        0
460
0.0
461
0.0
452
        0
462
0.0
453
        0
470

  0
HATCH
  5
1117
330
1F
100
AcDbEntity
  8
image
 62
     5
100
AcDbHatch
 10
0.0
 20
0.0
 30
0.0
210
0.0
220
0.0
230
1.0
  2
SOLID
 70
     1
 71
     1
 91
        1
 92
        1
 93
        1
 72
     2
 10
7.580508811611998
 20
1.883757300033586
 40
0.0131
 50
0.0
 51
360.0
 73
     1
 97
        1
330
10C3
 75
     0
 76
     1
 98
        1
 10
17.04081773123625
 20
5.259646411138476
450
        0
451
        0
460
0.0
461
0.0
452
        0
462
0.0
453
        0
470

  0
CIRCLE
  5
1118
102
{ACAD_REACTORS
330
116C
102
}
330
1F
100
AcDbEntity
  8
image
 62
     5
100
AcDbCircle
 10
7.574366791202555
 20
2.103590746074157
 30
0.0
 40
0.0131
  0
CIRCLE
  5
1119
102
{ACAD_REACTORS
330
116B
102
}
330
1F
100
AcDbEntity
  8
image
 62
     5
100
AcDbCircle
 10
7.574366791202555
 20
1.986340383722708
 30
0.0
 40
0.0131
  0
POLYLINE
  5
113B
330
1F
100
AcDbEntity
  8
image
 62
     5
100
AcDb2dPolyline
 66
     1
 10
0.0
 20
0.0
 30
0.0
 70
     4
 40
0.0262
 41
0.0262
 75
     6
  0
VERTEX
  5
113C
330
113B
100
AcDbEntity
  8
image
 62
     5
100
AcDbVertex
100
AcDb2dVertex
 10
7.01195394373393
 20
2.013753172640001
 30
0.0
 70
    16
  0
VERTEX
  5
113D
330
113B
100
AcDbEntity
  8
image
 62
     5
100
AcDbVertex
100
AcDb2dVertex
 10
7.01195394373393
 20
2.013753172640001
 30
0.0
 70
     8
  0
VERTEX
  5
113E
330
113B
100
AcDbEntity
  8
image
 62
     5
100
AcDbVertex
100
AcDb2dVertex
 10
7.053008126209775
 20
2.002520981152544
 30
0.0
 70
     8
  0
VERTEX
  5
113F
330
113B
100
AcDbEntity
  8
image
 62
     5
100
AcDbVertex
100
AcDb2dVertex
 10
7.088915574585644
 20
1.993392361000255
 30
0.0
 70
     8
  0
VERTEX
  5
1140
330
113B
100
AcDbEntity
  8
image
 62
     5
100
AcDbVertex
100
AcDb2dVertex
 10
7.120551055595223
 20
1.986131169925304
 30
0.0
 70
     8
  0
VERTEX
  5
1141
330
113B
100
AcDbEntity
  8
image
 62
     5
100
AcDbVertex
100
AcDb2dVertex
 10
7.148789335972198
 20
1.980501265669857
 30
0.0
 70
     8
  0
VERTEX
  5
1142
330
113B
100
AcDbEntity
  8
image
 62
     5
100
AcDbVertex
100
AcDb2dVertex
 10
7.174505182450253
 20
1.976266505976088
 30
0.0
 70
     8
  0
VERTEX
  5
1143
330
113B
100
AcDbEntity
  8
image
 62
     5
100
AcDbVertex
100
AcDb2dVertex
 10
7.198573361763074
 20
1.973190748586159
 30
0.0
 70
     8
  0
VERTEX
  5
1144
330
113B
100
AcDbEntity
  8
image
 62
     5
100
AcDbVertex
100
AcDb2dVertex
 10
7.221868640644347
 20
1.97103785124224
 30
0.0
 70
     8
  0
VERTEX
  5
1145
330
113B
100
AcDbEntity
  8
image
 62
     5
100
AcDbVertex
100
AcDb2dVertex
 10
7.245265785827756
 20
1.969571671686502
 30
0.0
 70
     8
  0
VERTEX
  5
1146
330
113B
100
AcDbEntity
  8
image
 62
     5
100
AcDbVertex
100
AcDb2dVertex
 10
7.269704573127043
 20
1.968618789104562
 30
0.0
 70
     8
  0
VERTEX
  5
1147
330
113B
100
AcDbEntity
  8
image
 62
     5
100
AcDbVertex
100
AcDb2dVertex
 10
7.296384814676169
 20
1.96825666845585
 30
0.0
 70
     8
  0
VERTEX
  5
1148
330
113B
100
AcDbEntity
  8
image
 62
     5
100
AcDbVertex
100
AcDb2dVertex
 10
7.326571331689153
 20
1.96862549614325
 30
0.0
 70
     8
  0
VERTEX
  5
1149
330
113B
100
AcDbEntity
  8
image
 62
     5
100
AcDbVertex
100
AcDb2dVertex
 10
7.361528945380014
 20
1.969865458569637
 30
0.0
 70
     8
  0
VERTEX
  5
114A
330
113B
100
AcDbEntity
  8
image
 62
     5
100
AcDbVertex
100
AcDb2dVertex
 10
7.402522476962765
 20
1.972116742137895
 30
0.0
 70
     8
  0
VERTEX
  5
114B
330
113B
100
AcDbEntity
  8
image
 62
     5
100
AcDbVertex
100
AcDb2dVertex
 10
7.450816747651428
 20
1.975519533250908
 30
0.0
 70
     8
  0
VERTEX
  5
114C
330
113B
100
AcDbEntity
  8
image
 62
     5
100
AcDbVertex
100
AcDb2dVertex
 10
7.507676578660019
 20
1.980214018311553
 30
0.0
 70
     8
  0
VERTEX
  5
114D
330
113B
100
AcDbEntity
  8
image
 62
     5
100
AcDbVertex
100
AcDb2dVertex
 10
7.574366791202555
 20
1.986340383722708
 30
0.0
 70
     8
  0
VERTEX
  5
114E
330
113B
100
AcDbEntity
  8
image
 62
     5
100
AcDbVertex
100
AcDb2dVertex
 10
7.129071646232759
 20
1.980785995997372
 30
0.0
 70
    16
  0
VERTEX
  5
114F
330
113B
100
AcDbEntity
  8
image
 62
     5
100
AcDbVertex
100
AcDb2dVertex
 10
7.234848366778985
 20
1.964765532696127
 30
0.0
 70
    16
  0
VERTEX
  5
1150
330
113B
100
AcDbEntity
  8
image
 62
     5
100
AcDbVertex
100
AcDb2dVertex
 10
7.382294763520292
 20
1.967969625356378
 30
0.0
 70
    16
  0
VERTEX
  5
1151
330
113B
100
AcDbEntity
  8
image
 62
     5
100
AcDbVertex
100
AcDb2dVertex
 10
7.574366791202555
 20
1.986340383722708
 30
0.0
 70
    16
  0
SEQEND
  5
1152
330
113B
100
AcDbEntity
  8
image
 62
     5
  0
POLYLINE
  5
1153
330
1F
100
AcDbEntity
  8
image
 62
     5
100
AcDb2dPolyline
 66
     1
 10
0.0
 20
0.0
 30
0.0
 70
     4
 40
0.0262
 41
0.0262
 75
     6
  0
VERTEX
  5
1154
330
1153
100
AcDbEntity
  8
image
 62
     5
100
AcDbVertex
100
AcDb2dVertex
 10
7.01195394373393
 20
2.013753172640001
 30
0.0
 70
    16
  0
VERTEX
  5
1155
330
1153
100
AcDbEntity
  8
image
 62
     5
100
AcDbVertex
100
AcDb2dVertex
 10
7.01195394373393
 20
2.013753172640001
 30
0.0
 70
     8
  0
VERTEX
  5
1156
330
1153
100
AcDbEntity
  8
image
 62
     5
100
AcDbVertex
100
AcDb2dVertex
 10
7.032572071302496
 20
2.026408717904448
 30
0.0
 70
     8
  0
VERTEX
  5
1157
330
1153
100
AcDbEntity
  8
image
 62
     5
100
AcDbVertex
100
AcDb2dVertex
 10
7.056089519606402
 20
2.036652282983475
 30
0.0
 70
     8
  0
VERTEX
  5
1158
330
1153
100
AcDbEntity
  8
image
 62
     5
100
AcDbVertex
100
AcDb2dVertex
 10
7.082100696207383
 20
2.044845622123009
 30
0.0
 70
     8
  0
VERTEX
  5
1159
330
1153
100
AcDbEntity
  8
image
 62
     5
100
AcDbVertex
100
AcDb2dVertex
 10
7.110200008667172
 20
2.051350489568967
 30
0.0
 70
     8
  0
VERTEX
  5
115A
330
1153
100
AcDbEntity
  8
image
 62
     5
100
AcDbVertex
100
AcDb2dVertex
 10
7.139981864547497
 20
2.056528639567275
 30
0.0
 70
     8
  0
VERTEX
  5
115B
330
1153
100
AcDbEntity
  8
image
 62
     5
100
AcDbVertex
100
AcDb2dVertex
 10
7.171040671410093
 20
2.060741826363853
 30
0.0
 70
     8
  0
VERTEX
  5
115C
330
1153
100
AcDbEntity
  8
image
 62
     5
100
AcDbVertex
100
AcDb2dVertex
 10
7.202970836816691
 20
2.064351804204623
 30
0.0
 70
     8
  0
VERTEX
  5
115D
330
1153
100
AcDbEntity
  8
image
 62
     5
100
AcDbVertex
100
AcDb2dVertex
 10
7.235366768329022
 20
2.067720327335507
 30
0.0
 70
     8
  0
VERTEX
  5
115E
330
1153
100
AcDbEntity
  8
image
 62
     5
100
AcDbVertex
100
AcDb2dVertex
 10
7.268041108047023
 20
2.071158767373004
 30
0.0
 70
     8
  0
VERTEX
  5
115F
330
1153
100
AcDbEntity
  8
image
 62
     5
100
AcDbVertex
100
AcDb2dVertex
 10
7.301679436223448
 20
2.074776965415939
 30
0.0
 70
     8
  0
VERTEX
  5
1160
330
1153
100
AcDbEntity
  8
image
 62
     5
100
AcDbVertex
100
AcDb2dVertex
 10
7.337185567649257
 20
2.07863437993371
 30
0.0
 70
     8
  0
VERTEX
  5
1161
330
1153
100
AcDbEntity
  8
image
 62
     5
100
AcDbVertex
100
AcDb2dVertex
 10
7.375463317115404
 20
2.082790469395719
 30
0.0
 70
     8
  0
VERTEX
  5
1162
330
1153
100
AcDbEntity
  8
image
 62
     5
100
AcDbVertex
100
AcDb2dVertex
 10
7.417416499412849
 20
2.087304692271368
 30
0.0
 70
     8
  0
VERTEX
  5
1163
330
1153
100
AcDbEntity
  8
image
 62
     5
100
AcDbVertex
100
AcDb2dVertex
 10
7.46394892933255
 20
2.092236507030056
 30
0.0
 70
     8
  0
VERTEX
  5
1164
330
1153
100
AcDbEntity
  8
image
 62
     5
100
AcDbVertex
100
AcDb2dVertex
 10
7.515964421665467
 20
2.097645372141187
 30
0.0
 70
     8
  0
VERTEX
  5
1165
330
1153
100
AcDbEntity
  8
image
 62
     5
100
AcDbVertex
100
AcDb2dVertex
 10
7.574366791202555
 20
2.103590746074157
 30
0.0
 70
     8
  0
VERTEX
  5
1166
330
1153
100
AcDbEntity
  8
image
 62
     5
100
AcDbVertex
100
AcDb2dVertex
 10
7.062709329657852
 20
2.051038826255453
 30
0.0
 70
    16
  0
VERTEX
  5
1167
330
1153
100
AcDbEntity
  8
image
 62
     5
100
AcDbVertex
100
AcDb2dVertex
 10
7.234724915876054
 20
2.066437132284463
 30
0.0
 70
    16
  0
VERTEX
  5
1168
330
1153
100
AcDbEntity
  8
image
 62
     5
100
AcDbVertex
100
AcDb2dVertex
 10
7.409307911906125
 20
2.086968218517643
 30
0.0
 70
    16
  0
VERTEX
  5
1169
330
1153
100
AcDbEntity
  8
image
 62
     5
100
AcDbVertex
100
AcDb2dVertex
 10
7.574366791202555
 20
2.103590746074157
 30
0.0
 70
    16
  0
SEQEND
  5
116A
330
1153
100
AcDbEntity
  8
image
 62
     5
  0
HATCH
  5
116B
330
1F
100
AcDbEntity
  8
image
 62
     5
100
AcDbHatch
 10
0.0
 20
0.0
 30
0.0
210
0.0
220
0.0
230
1.0
  2
SOLID
 70
     1
 71
     1
 91
        1
 92
        1
 93
        1
 72
     2
 10
7.574366791202555
 20
1.986340383722708
 40
0.0131
 50
0.0
 51
360.0
 73
     1
 97
        1
330
1119
 75
     0
 76
     1
 98
        1
 10
17.03467571082681
 20
5.479479857179047
450
        0
451
        0
460
0.0
461
0.0
452
        0
462
0.0
453
        0
470

  0
HATCH
  5
116C
330
1F
100
AcDbEntity
  8
image
 62
     5
100
AcDbHatch
 10
0.0
 20
0.0
 30
0.0
210
0.0
220
0.0
230
1.0
  2
SOLID
 70
     1
 71
     1
 91
        1
 92
        1
 93
        1
 72
     2
 10
7.574366791202555
 20
2.103590746074157
 40
0.0131
 50
0.0
 51
360.0
 73
     1
 97
        1
330
1118
 75
     0
 76
     1
 98
        1
 10
17.03467571082681
 20
5.479479857179047
450
        0
451
        0
460
0.0
461
0.0
452
        0
462
0.0
453
        0
470

  0
POLYLINE
  5
119E
330
1F
100
AcDbEntity
  8
image
100
AcDb2dPolyline
 66
     1
 10
0.0
 20
0.0
 30
0.0
 40
0.0262
 41
0.0262
  0
VERTEX
  5
11A0
330
119E
100
AcDbEntity
  8
image
100
AcDbVertex
100
AcDb2dVertex
 10
6.471479481077373
 20
1.993452683801066
 30
0.0
 40
0.0524
 41
0.0524
  0
VERTEX
  5
11A1
330
119E
100
AcDbEntity
  8
image
100
AcDbVertex
100
AcDb2dVertex
 10
6.482853585936442
 20
1.993849908977182
 30
0.0
 40
0.0524
 41
0.0524
  0
VERTEX
  5
11A2
330
119E
100
AcDbEntity
  8
image
100
AcDbVertex
100
AcDb2dVertex
 10
6.499182910132164
 20
1.995477085590085
 30
0.0
 40
0.0524
 41
0.0524
  0
VERTEX
  5
11A3
330
119E
100
AcDbEntity
  8
image
100
AcDbVertex
100
AcDb2dVertex
 10
6.512944521215361
 20
1.99713225547914
 30
0.0
 40
0.0524
 41
0.0524
  0
VERTEX
  5
11A4
330
119E
100
AcDbEntity
  8
image
100
AcDbVertex
100
AcDb2dVertex
 10
6.524575646842489
 20
1.998820103820285
 30
0.0
 40
0.0524
 41
0.0524
  0
VERTEX
  5
11A5
330
119E
100
AcDbEntity
  8
image
100
AcDbVertex
100
AcDb2dVertex
 10
6.534513514669997
 20
2.000545315789468
 30
0.0
 40
0.0524
 41
0.0524
  0
VERTEX
  5
11A6
330
119E
100
AcDbEntity
  8
image
100
AcDbVertex
100
AcDb2dVertex
 10
6.543195352354343
 20
2.00231257656263
 30
0.0
 40
0.0524
 41
0.0524
  0
VERTEX
  5
11A7
330
119E
100
AcDbEntity
  8
image
100
AcDbVertex
100
AcDb2dVertex
 10
6.551058387551977
 20
2.004126571315712
 30
0.0
 40
0.0524
 41
0.0524
  0
VERTEX
  5
11A8
330
119E
100
AcDbEntity
  8
image
100
AcDbVertex
100
AcDb2dVertex
 10
6.559272271445424
 20
2.005978059441279
 30
0.0
 40
0.0524
 41
0.0524
  0
VERTEX
  5
11A9
330
119E
100
AcDbEntity
  8
image
100
AcDbVertex
100
AcDb2dVertex
 10
6.571936349321489
 20
2.007802097198371
 30
0.0
 40
0.0524
 41
0.0524
  0
VERTEX
  5
11AA
330
119E
100
AcDbEntity
  8
image
100
AcDbVertex
100
AcDb2dVertex
 10
6.593882389993048
 20
2.009519815062652
 30
0.0
 40
0.0524
 41
0.0524
  0
VERTEX
  5
11AB
330
119E
100
AcDbEntity
  8
image
100
AcDbVertex
100
AcDb2dVertex
 10
6.629942162272978
 20
2.011052343509781
 30
0.0
 40
0.0524
 41
0.0524
  0
VERTEX
  5
11AC
330
119E
100
AcDbEntity
  8
image
100
AcDbVertex
100
AcDb2dVertex
 10
6.684947434974155
 20
2.012320813015419
 30
0.0
 40
0.0524
 41
0.0524
  0
VERTEX
  5
11AD
330
119E
100
AcDbEntity
  8
image
100
AcDbVertex
100
AcDb2dVertex
 10
6.763729976909456
 20
2.013246354055226
 30
0.0
 40
0.0524
 41
0.0524
  0
VERTEX
  5
11AE
330
119E
100
AcDbEntity
  8
image
100
AcDbVertex
100
AcDb2dVertex
 10
6.871121556891756
 20
2.013750097104868
 30
0.0
 40
0.0524
 41
0.0524
  0
VERTEX
  5
11AF
330
119E
100
AcDbEntity
  8
image
100
AcDbVertex
100
AcDb2dVertex
 10
7.01195394373393
 20
2.013753172640001
 30
0.0
 40
0.0524
 41
0.0524
  0
SEQEND
  5
119F
330
119E
100
AcDbEntity
  8
image
  0
HATCH
  5
12DE
330
1F
100
AcDbEntity
  8
image
100
AcDbHatch
 10
0.0
 20
0.0
 30
0.0
210
0.0
220
0.0
230
1.0
  2
CORK
 70
     0
 71
     0
 91
        1
 92
        7
 72
     1
 73
     1
 93
        5
 10
3.369692006804502
 20
3.657760912390243
 42
0.0
 10
2.480272987179573
 20
3.657760912390243
 42
0.0
 10
2.480272987179573
 20
3.13115536755007
 42
0.0
 10
3.309471706437375
 20
3.13115536755007
 42
0.1192101417463748
 10
3.369692006804502
 20
3.467242105482817
 42
0.0
 97
        0
 75
     0
 76
     1
 52
0.0
 41
0.8
 77
     0
 78
     4
 53
0.0
 43
0.0
 44
0.0
 45
0.0
 46
0.1
 79
     0
 53
135.0
 43
0.05
 44
-0.05
 45
-0.1999999996643937
 46
-0.1999999996643937
 79
     2
 49
0.1414213568
 49
-0.1414213568
 53
135.0
 43
0.075
 44
-0.05
 45
-0.1999999996643937
 46
-0.1999999996643937
 79
     2
 49
0.1414213568
 49
-0.1414213568
 53
135.0
 43
0.1
 44
-0.05
 45
-0.1999999996643937
 46
-0.1999999996643937
 79
     2
 49
0.1414213568
 49
-0.1414213568
 47
0.0061839941561891
 98
        1
 10
3.19197241569099
 20
3.510675480118052
1001
ACAD
1010
0.0
1020
0.0
1030
0.0
  0
HATCH
  5
12DF
330
1F
100
AcDbEntity
  8
image
100
AcDbHatch
 10
0.0
 20
0.0
 30
0.0
210
0.0
220
0.0
230
1.0
  2
CORK
 70
     0
 71
     0
 91
        1
 92
        7
 72
     1
 73
     1
 93
        5
 10
5.748341774841028
 20
3.657760912390243
 42
0.0
 10
4.814397540337677
 20
3.657760912390243
 42
0.0
 10
4.814397540337677
 20
3.371871103829203
 42
0.0474033090574899
 10
4.837270382182933
 20
3.13115536755007
 42
0.0
 10
5.748341774841028
 20
3.13115536755007
 42
0.0
 97
        0
 75
     0
 76
     1
 52
0.0
 41
0.8
 77
     0
 78
     4
 53
0.0
 43
0.0
 44
0.0
 45
0.0
 46
0.1
 79
     0
 53
135.0
 43
0.05
 44
-0.05
 45
-0.1999999996643937
 46
-0.1999999996643937
 79
     2
 49
0.1414213568
 49
-0.1414213568
 53
135.0
 43
0.075
 44
-0.05
 45
-0.1999999996643937
 46
-0.1999999996643937
 79
     2
 49
0.1414213568
 49
-0.1414213568
 53
135.0
 43
0.1
 44
-0.05
 45
-0.1999999996643937
 46
-0.1999999996643937
 79
     2
 49
0.1414213568
 49
-0.1414213568
 47
0.0061839941561891
 98
        1
 10
5.153508506760561
 20
3.461203505572705
1001
ACAD
1010
0.0
1020
0.0
1030
0.0
  0
HATCH
  5
12E0
330
1F
100
AcDbEntity
  8
image
100
AcDbHatch
 10
0.0
 20
0.0
 30
0.0
210
0.0
220
0.0
230
1.0
  2
CORK
 70
     0
 71
     0
 91
        2
 92
        1
 93
        6
 72
     1
 10
3.677509920878971
 20
3.192278872495725
 11
3.677509920878972
 21
3.657760912390243
 72
     1
 10
3.677509920878972
 20
3.657760912390243
 11
3.492153505631295
 21
3.657760912390243
 72
     1
 10
3.492153505631295
 20
3.657760912390243
 11
3.492153505631295
 21
3.464714056779241
 72
     2
 10
2.645129090622981
 20
3.423111670267574
 40
0.8480454694081219
 50
357.1881245126625
 51
380.137217847639
 73
     0
 72
     1
 10
3.4413342372323
 20
3.13115536755007
 11
3.678414103351263
 21
3.13115536755007
 72
     2
 10
2.952759281384194
 20
3.150989404088282
 40
0.7259258293031439
 50
358.4343469036623
 51
363.2606495243365
 73
     1
 97
        0
 92
        1
 93
        6
 72
     1
 10
3.799971419705755
 20
3.657760912390243
 11
3.79997141970575
 21
3.192278872495722
 72
     2
 10
2.952947004697436
 20
3.150676485984054
 40
0.8480454694081222
 50
357.1881245126622
 51
361.3190053323649
 73
     0
 72
     1
 10
3.800767766485403
 20
3.13115536755007
 11
4.464715334278848
 21
3.13115536755007
 72
     2
 10
6.092490419701708
 20
3.371871103829229
 40
1.645477375844413
 50
171.5880530749869
 51
179.9999999999991
 73
     0
 72
     1
 10
4.447013043857294
 20
3.371871103829203
 11
4.447013043857294
 21
3.657760912390243
 72
     1
 10
4.447013043857294
 20
3.657760912390243
 11
3.799971419705755
 21
3.657760912390243
 97
        0
 75
     0
 76
     1
 52
0.0
 41
0.8
 77
     0
 78
     4
 53
0.0
 43
0.0
 44
0.0
 45
0.0
 46
0.1
 79
     0
 53
135.0
 43
0.05
 44
-0.05
 45
-0.1999999996643937
 46
-0.1999999996643937
 79
     2
 49
0.1414213568
 49
-0.1414213568
 53
135.0
 43
0.075
 44
-0.05
 45
-0.1999999996643937
 46
-0.1999999996643937
 79
     2
 49
0.1414213568
 49
-0.1414213568
 53
135.0
 43
0.1
 44
-0.05
 45
-0.1999999996643937
 46
-0.1999999996643937
 79
     2
 49
0.1414213568
 49
-0.1414213568
 98
        1
 10
3.829316950991151
 20
3.455019527115736
1001
ACAD
1010
0.0
1020
0.0
1030
0.0
  0
INSERT
  5
12E9
330
1F
100
AcDbEntity
  8
text_bubbles
100
AcDbBlockReference
 66
     1
  2
WID_FlagNote
 10
8.369841868098005
 20
5.327867777659319
 30
0.0
 41
0.2499994999999942
 42
0.2499994999999977
 43
0.2499994999999975
  0
ATTRIB
  5
12EA
330
12E9
100
AcDbEntity
  8
0
100
AcDbText
 10
8.312103856750722
 20
5.227143853380503
 30
0.0
 40
0.1249997499999987
  1
8
  7
WIDFlagNote
 72
     4
 11
8.371627547226912
 21
5.289643728380502
 31
0.0
100
AcDbAttribute
  2
NO.
 70
     0
  0
SEQEND
  5
12EB
330
12E9
100
AcDbEntity
  8
text_bubbles
  0
INSERT
  5
12EC
330
1F
100
AcDbEntity
  8
text_bubbles
100
AcDbBlockReference
 66
     1
  2
WID_FlagNote
 10
6.523295900574291
 20
3.318694157889797
 30
0.0
 41
0.2499994999999942
 42
0.2499994999999977
 43
0.2499994999999975
  0
ATTRIB
  5
12ED
330
12EC
100
AcDbEntity
  8
0
100
AcDbText
 10
6.465557889227009
 20
3.217970233610981
 30
0.0
 40
0.1249997499999987
  1
7
  7
WIDFlagNote
 72
     4
 11
6.525081579703199
 21
3.28047010861098
 31
0.0
100
AcDbAttribute
  2
NO.
 70
     0
  0
SEQEND
  5
12EE
330
12EC
100
AcDbEntity
  8
text_bubbles
  0
LEADER
  5
12F1
330
1F
100
AcDbEntity
  8
text_bubbles
100
AcDbLeader
  3
Standard
 76
     2
 10
5.606529159770602
 20
3.345546580899912
 30
0.0
 10
6.384800687259036
 20
3.290408556773229
 30
0.0
1001
ACAD
1000
DSTYLE
1002
{
1070
    44
1040
0.125
1070
   140
1040
0.125
1070
   176
1070
   256
1070
   177
1070
   256
1070
   178
1070
   256
1070
   371
1070
    -1
1070
   372
1070
    -1
1002
}
  0
MTEXT
  5
13DA
102
{ACAD_XDICTIONARY
360
1BB7
102
}
330
1F
100
AcDbEntity
  8
image
100
AcDbMText
 10
9.993779744803985
 20
2.788673908917929
 30
0.0
 40
0.125
 41
6.306885967384276
 71
     1
 72
     5
  3
NOTES:\P\pi-0.375,l0.375;1. {\Fc:\program files\autocad 2009\fonts\romans|c0;IQ ESP-LXD CONTROLLER COMES WITH 50 STATIONS AVAILABLE. TWO ADDITIONAL 75 STATION ESPLXD-SUM75 MODULES MAY BE ADDED TO EXPAND THE CONTROLLER UP TO 200 TOTAL STATIONS.\P}2. P
  3
ROVIDE PROPER GROUNDING COMPONENTS TO ACHIEVE GROUND RESISTANCE OF 10 OHMS OR LESS.  \P{\Fc:\program files\autocad 2009\fonts\romans|c0;3. OWNER IS RESPONSIBLE FOR PROVIDING CELLULAR SERVICE CAPABLE OF INTERFACING WITH NCC GPRS CARTRIDGE. INSTALL CON
  1
TROLLER IN A LOCATION TO MAXIMIZE ANTENNA RECEPTION. CONDUCT A SURVEY OF THE SITE TO ASSURE A VIABLE AND CONSISTENT CELLULAR CONNECTION BEFORE INSTALLING CONTROLLER. }
  7
ROMANS
 73
     1
 44
1.0
  0
INSERT
  5
1418
330
1F
100
AcDbEntity
  8
text_bubbles
100
AcDbBlockReference
 66
     1
  2
WID_FlagNote
 10
4.849960617133339
 20
10.07818795267049
 30
0.0
 41
0.2499994999999977
 42
0.2499994999999977
 43
0.2499994999999975
  0
ATTRIB
  5
1419
330
1418
100
AcDbEntity
  8
0
100
AcDbText
 10
4.792222605786061
 20
9.977464028391674
 30
0.0
 40
0.1249997499999987
  1
2
  7
WIDFlagNote
 72
     4
 11
4.85174629626225
 21
10.03996390339167
 31
0.0
100
AcDbAttribute
  2
NO.
 70
     0
  0
SEQEND
  5
141A
330
1418
100
AcDbEntity
  8
text_bubbles
  0
LEADER
  5
141B
330
1F
100
AcDbEntity
  8
text_bubbles
100
AcDbLeader
  3
Standard
 76
     2
 10
4.445300096889173
 20
9.539108973752808
 30
0.0
 10
4.750228408512404
 20
9.942489789981726
 30
0.0
1001
ACAD
1000
DSTYLE
1002
{
1070
    44
1040
0.125
1070
   140
1040
0.125
1070
   176
1070
   256
1070
   177
1070
   256
1070
   178
1070
   256
1070
   371
1070
    -1
1070
   372
1070
    -1
1002
}
  0
INSERT
  5
142A
330
1F
100
AcDbEntity
  8
text_bubbles
100
AcDbBlockReference
 66
     1
  2
WID_FlagNote
 10
3.345561165595169
 20
9.936732654403598
 30
0.0
 41
-0.2499994999999942
 42
0.2499994999999977
 43
0.2499994999999975
  0
ATTRIB
  5
142B
330
142A
100
AcDbEntity
  8
0
100
AcDbText
 10
3.2931803495615
 20
9.836008730124783
 30
0.0
 40
0.1249997499999988
  1
1
  7
WIDFlagNote
 72
     4
 11
3.343775486466261
 21
9.898508605124781
 31
0.0
100
AcDbAttribute
  2
NO.
 70
     0
  0
SEQEND
  5
142C
330
142A
100
AcDbEntity
  8
text_bubbles
  0
LEADER
  5
142D
330
1F
100
AcDbEntity
  8
text_bubbles
100
AcDbLeader
  3
Standard
 76
     2
 10
3.750221685839333
 20
9.397653675485916
 30
0.0
 10
3.445293374216104
 20
9.801034491714833
 30
0.0
211
-1.0
221
0.0
231
0.0
1001
ACAD
1000
DSTYLE
1002
{
1070
    44
1040
0.125
1070
   140
1040
0.125
1070
   176
1070
   256
1070
   177
1070
   256
1070
   178
1070
   256
1070
   371
1070
    -1
1070
   372
1070
    -1
1002
}
  0
INSERT
  5
146D
330
1F
100
AcDbEntity
  8
text_bubbles
100
AcDbBlockReference
 66
     1
  2
WID_FlagNote
 10
8.369841868098005
 20
4.704849183568974
 30
0.0
 41
0.2499994999999942
 42
0.2499994999999977
 43
0.2499994999999975
  0
ATTRIB
  5
146E
330
146D
100
AcDbEntity
  8
0
100
AcDbText
 10
8.315080041274532
 20
4.604125259290158
 30
0.0
 40
0.1249997499999987
  1
9
  7
WIDFlagNote
 72
     4
 11
8.371627547226912
 21
4.666625134290157
 31
0.0
100
AcDbAttribute
  2
NO.
 70
     0
  0
SEQEND
  5
146F
330
146D
100
AcDbEntity
  8
text_bubbles
  0
SPLINE
  5
17EE
330
1F
100
AcDbEntity
  8
image
  6
Continuous
370
    15
100
AcDbSpline
210
0.0
220
0.0
230
1.0
 70
    24
 71
     1
 72
     4
 73
     2
 74
     0
 42
0.0000000001
 43
0.0000000001
 40
0.0
 40
0.0
 40
1.0
 40
1.0
 10
4.458600757950141
 20
9.397653675485914
 30
0.0
 10
4.449928990052956
 20
9.444037115883753
 30
0.0
  0
SPLINE
  5
17EF
330
1F
100
AcDbEntity
  8
image
  6
Continuous
370
    15
100
AcDbSpline
210
0.0
220
0.0
230
1.0
 70
    24
 71
     1
 72
     4
 73
     2
 74
     0
 42
0.0000000001
 43
0.0000000001
 40
0.0
 40
0.0
 40
1.0
 40
1.0
 10
4.268960436070782
 20
9.444037115883753
 30
0.0
 10
4.260288740016849
 20
9.397653675485914
 30
0.0
  0
ARC
  5
17F0
330
1F
100
AcDbEntity
  8
image
  6
Continuous
370
    15
100
AcDbCircle
 10
4.148584561240648
 20
9.466542171418939
 30
0.0
 40
0.1224615034155869
100
AcDbArc
 50
349.4104291419331
 51
358.0487942233418
  0
ARC
  5
17F1
330
1F
100
AcDbEntity
  8
image
  6
Continuous
370
    15
100
AcDbCircle
 10
4.570304900316872
 20
9.466542171418939
 30
0.0
 40
0.1224615034155873
100
AcDbArc
 50
181.9512057766598
 51
190.5895708580685
  0
SPLINE
  5
17F2
330
1F
100
AcDbEntity
  8
image
  6
Continuous
370
    15
100
AcDbSpline
210
0.0
220
0.0
230
1.0
 70
    24
 71
     1
 72
     4
 73
     2
 74
     0
 42
0.0000000001
 43
0.0000000001
 40
0.0
 40
0.0
 40
1.0
 40
1.0
 10
4.447914361578566
 20
9.462372519616126
 30
0.0
 10
4.438525310652769
 20
9.737969125681958
 30
0.0
  0
SPLINE
  5
17F3
330
1F
100
AcDbEntity
  8
image
  6
Continuous
370
    15
100
AcDbSpline
210
0.0
220
0.0
230
1.0
 70
    24
 71
     1
 72
     4
 73
     2
 74
     0
 42
0.0000000001
 43
0.0000000001
 40
0.0
 40
0.0
 40
1.0
 40
1.0
 10
4.28036411547097
 20
9.737969125681958
 30
0.0
 10
4.270975064545174
 20
9.462372519616126
 30
0.0
  0
ARC
  5
17F4
330
1F
100
AcDbEntity
  8
image
  6
Continuous
370
    15
100
AcDbCircle
 10
4.417107002953137
 20
9.737239446498158
 30
0.0
 40
0.021430763097728
100
AcDbArc
 50
1.951205776658967
 51
90.0
  0
ARC
  5
17F5
330
1F
100
AcDbEntity
  8
image
  6
Continuous
370
    15
100
AcDbCircle
 10
4.301782458604382
 20
9.737239446498158
 30
0.0
 40
0.021430763097728
100
AcDbArc
 50
90.0
 51
178.048794223341
  0
LINE
  5
17F6
330
1F
100
AcDbEntity
  8
image
  6
Continuous
370
    15
100
AcDbLine
 10
4.416596091922377
 20
9.758670184018308
 30
0.0
 11
4.417106969287808
 21
9.758670184018308
 31
0.0
  0
LINE
  5
17F7
330
1F
100
AcDbEntity
  8
image
  6
Continuous
370
    15
100
AcDbLine
 10
4.301782456835931
 20
9.758670184018308
 30
0.0
 11
4.416596091922377
 21
9.758670184018308
 31
0.0
  0
LINE
  5
17F8
330
1F
100
AcDbEntity
  8
image
  6
Continuous
370
    15
100
AcDbLine
 10
4.449928990052956
 20
9.444037115883753
 30
0.0
 11
4.268960436070782
 21
9.444037115883753
 31
0.0
  0
LINE
  5
17F9
330
1F
100
AcDbEntity
  8
image
  6
Continuous
370
    15
100
AcDbLine
 10
4.447130551698543
 20
9.462372519616126
 30
0.0
 11
4.447914361578566
 21
9.462372519616126
 31
0.0
  0
LINE
  5
17FA
330
1F
100
AcDbEntity
  8
image
  6
Continuous
370
    15
100
AcDbLine
 10
4.270975064545174
 20
9.462372519616126
 30
0.0
 11
4.447130551698543
 21
9.462372519616126
 31
0.0
  0
LINE
  5
17FB
330
1F
100
AcDbEntity
  8
image
  6
Continuous
370
    15
100
AcDbLine
 10
4.438525310652769
 20
9.737969125681958
 30
0.0
 11
4.28036411547097
 21
9.737969125681958
 31
0.0
  0
MTEXT
  5
1815
102
{ACAD_XDICTIONARY
360
1BB9
102
}
330
1F
100
AcDbEntity
  8
text_bubbles
100
AcDbMText
 10
8.608368594118982
 20
9.987617066533607
 30
0.0
 40
0.125
 41
7.165932797260815
 71
     1
 72
     5
  3
TWO-WIRE DECODER CONTROLLER: \P\pi-0.25,l0.25;  RAIN BIRD IQ ESP-LXD SATELLITE TWO-WIRE DECODER CONTROLLER WITH IQ CONNECTION MODULE AND IQ NCC GPRS CARTRIDGE IN {\Fc:\program files\autocad 2009\fonts\romans|c0;LXMM METAL CABINET AND LXMMPED METAL PE
  3
DESTAL}. {\Fc:\program files\autocad 2009\fonts\romans|c0;INSTALL CONTROLLER, CABINET AND PEDESTAL PER MANUFACTURER'S RECOMMENDATIONS.\P\PCELLULAR ANTENNA:\P  RAIN BIRD IQEXTANGP GPRS/CELLULAR EXTERNAL ANTENNA (FOR USE WITH LXMM METAL CABINET ONLY)\P
  3
}\P{\A1;CONCRETE PAD: \P  6-INCH MINIMUM THICKNESS\P\pi0,l0;\P\pi-0.25,l0.25;FINISH GRADE}\P\PPOWER SUPPLY WIRE\P{\A1;\P1-INCH SCH 40 PVC CONDUIT, FITTINGS AND SWEEP ELL FOR POWER SUPPLY\P\PCOMPACTED SUBGRADE\P}\PPE-CABLE OR Y-CABLE FOR EXTERNAL RADI
  3
O TO CLIENT SATELLITE CONTROLLERS\P\P1-INCH {\A1;SCH 40 PVC CONDUIT, FITTINGS AND SWEEP ELL} FOR COMMUNICATION CABLE TO CLIENT SATELLITE CONTROLLERS\P\P{\A1;3-INCH SCH 40 PVC CONDUIT, FITTINGS AND SWEEP ELL} FOR TWO-WIRE CABLE \P\pi0,l0;\P\pi-0.25,l0
  1
.25;MAXICABLE TWO-WIRE PATH TO DECODERS\P  {\Fc:\program files\autocad 2009\fonts\romans|c0;USE A DIFFERENT CABLE JACKET COLOR FOR EACH PATH}
  7
ROMANS
 73
     1
 44
1.0
  0
INSERT
  5
1816
330
1F
100
AcDbEntity
  8
title
100
AcDbBlockReference
 66
     1
  2
titleblock
 10
0.0
 20
0.0
 30
0.0
  0
ATTRIB
  5
1817
330
1816
100
AcDbEntity
  8
title
100
AcDbText
 10
0.5055556038023443
 20
0.7842270964783671
 30
0.0
 40
0.2
  1
D
  7
L200
 72
     4
 11
0.6064423705144862
 21
0.884227096478367
 31
0.0
100
AcDbAttribute
  2
D
 70
     0
  0
ATTRIB
  5
1818
330
1816
100
AcDbEntity
  8
title
100
AcDbText
 10
1.231442370514486
 20
1.34371230274675
 30
0.0
 40
0.2
  1
IQ ESP-LXD SATELLITE TWO-WIRE DECODER CONTROLLER
  7
L200
100
AcDbAttribute
  2
TITLE1
 70
     0
  0
ATTRIB
  5
1819
330
1816
100
AcDbEntity
  8
title
100
AcDbText
 10
1.231442370514486
 20
0.9842270964783676
 30
0.0
 40
0.2
  1
WITH IQ CONNECTION MODULE 
  7
L200
100
AcDbAttribute
  2
TITLE2
 70
     0
  0
ATTRIB
  5
181A
330
1816
100
AcDbEntity
  8
title
100
AcDbText
 10
2.713645751168314
 20
0.5927927664583187
 30
0.0
 40
0.2
  1
AND IQ NCC GPRS CARTRIDGE
  7
L200
100
AcDbAttribute
  2
TITLE3
 70
     0
  0
ATTRIB
  5
181B
330
1816
100
AcDbEntity
  8
title
100
AcDbText
 10
2.713645751168314
 20
0.2692560808167741
 30
0.0
 40
0.2
  1
IN METAL PEDESTAL
  7
L200
100
AcDbAttribute
  2
TITLE4
 70
     0
  0
ATTRIB
  5
181C
330
1816
100
AcDbEntity
  8
title
 62
     7
100
AcDbText
 10
8.886147244761387
 20
0.96960279154464
 30
0.0
 40
0.08
  1
1-10-11
  7
L80
 72
     2
 11
9.47074645632512
 21
0.96960279154464
 31
0.0
100
AcDbAttribute
  2
REVISED
 70
     0
  0
ATTRIB
  5
181D
330
1816
100
AcDbEntity
  8
title
 62
     7
100
AcDbText
 10
0.263942370514485
 20
0.0847116480207215
 30
0.0
 40
0.08
  1
LXD342.DWG
  7
L80
100
AcDbAttribute
  2
DWG-NAME
 70
     0
  0
ATTRIB
  5
181E
330
1816
100
AcDbEntity
  8
title
 62
     7
100
AcDbText
 10
1.231442370514486
 20
0.7005637793954893
 30
0.0
 40
0.1
  1
N.T.S.
  7
L100
100
AcDbAttribute
  2
SCALE
 70
     0
  0
SEQEND
  5
181F
330
1816
100
AcDbEntity
  8
title
  0
INSERT
  5
1847
330
1F
100
AcDbEntity
  8
text_bubbles
100
AcDbBlockReference
 66
     1
  2
WID_FlagNote
 10
8.369841868098005
 20
4.085619178648915
 30
0.0
 41
0.2499994999999942
 42
0.2499994999999977
 43
0.2499994999999975
  0
ATTRIB
  5
1848
330
1847
100
AcDbEntity
  8
0
100
AcDbText
 10
8.243651612703104
 20
3.984895254370099
 30
0.0
 40
0.1249997499999987
  1
10
  7
WIDFlagNote
 72
     4
 11
8.371627547226912
 21
4.047395129370098
 31
0.0
100
AcDbAttribute
  2
NO.
 70
     0
  0
SEQEND
  5
1849
330
1847
100
AcDbEntity
  8
text_bubbles
  0
INSERT
  5
184A
330
1F
100
AcDbEntity
  8
text_bubbles
100
AcDbBlockReference
 66
     1
  2
WID_FlagNote
 10
8.369841868098005
 20
3.461375434469361
 30
0.0
 41
0.2499994999999942
 42
0.2499994999999977
 43
0.2499994999999975
  0
ATTRIB
  5
184B
330
184A
100
AcDbEntity
  8
0
100
AcDbText
 10
8.261508719845961
 20
3.360651510190545
 30
0.0
 40
0.1249997499999987
  1
11
  7
WIDFlagNote
 72
     4
 11
8.371627547226912
 21
3.423151385190544
 31
0.0
100
AcDbAttribute
  2
NO.
 70
     0
  0
SEQEND
  5
184C
330
184A
100
AcDbEntity
  8
text_bubbles
  0
LWPOLYLINE
  5
187C
102
{ACAD_REACTORS
330
12E0
102
}
330
1F
100
AcDbEntity
  8
image
100
AcDbPolyline
 90
        4
 70
   128
 43
0.0
 10
2.231413957352326
 20
2.316782462297393
 10
3.107225569129708
 20
2.316782462297377
 42
0.3755273144507436
 10
3.79997141970575
 20
3.192278872495722
 10
3.799971419705764
 20
4.392529905351015
  0
LWPOLYLINE
  5
187D
102
{ACAD_REACTORS
330
12E0
102
}
330
1F
100
AcDbEntity
  8
image
100
AcDbPolyline
 90
        4
 70
   128
 43
0.0
 10
2.231413957352326
 20
2.439243961124181
 10
3.095541402356306
 20
2.439243961124181
 42
0.373472960400778
 10
3.677509920878971
 20
3.192278872495725
 10
3.677509920878971
 20
4.392529905351015
  0
LWPOLYLINE
  5
187E
330
1F
100
AcDbEntity
  8
image
100
AcDbPolyline
 90
        4
 70
     0
 43
0.0
 10
2.231413957352326
 20
2.439243961124181
 42
0.4191275615498479
 10
2.231648448419715
 20
2.371122796677847
 42
-0.423695105068607
 10
2.231413957352326
 20
2.316782462297393
 42
-0.1868068958260236
 10
2.227340568733736
 20
2.360135925190761
 42
-0.1868068958260236
  0
LWPOLYLINE
  5
187F
330
1F
100
AcDbEntity
  8
image
100
AcDbPolyline
 90
        3
 70
   128
 43
0.0
 10
2.017228256773385
 20
2.396200270967208
 10
2.124475788411871
 20
2.392104950742597
 10
2.219745752616161
 20
2.390075351150048
  0
LWPOLYLINE
  5
1880
330
1F
100
AcDbEntity
  8
image
100
AcDbPolyline
 90
        4
 70
   128
 43
0.0
 10
2.016081597167541
 20
2.366171749237047
 10
2.123582375752028
 20
2.362066758604885
 10
2.223905608018086
 20
2.359929505872288
 10
2.23911831304255
 20
2.36084369280577
  0
LWPOLYLINE
  5
1881
330
1F
100
AcDbEntity
  8
image
100
AcDbPolyline
 90
        4
 70
     0
 43
0.0
 10
2.017228256773385
 20
2.396200270967208
 42
0.75
 10
2.016654926970463
 20
2.38118601010213
 42
-0.75
 10
2.016081597167541
 20
2.366171749237047
 42
-0.75
 10
2.016654926970463
 20
2.38118601010213
  0
INSERT
  5
1882
330
1F
100
AcDbEntity
  8
text_bubbles
100
AcDbBlockReference
 66
     1
  2
WID_FlagNote
 10
3.104041295772347
 20
1.97605330909782
 30
0.0
 41
-0.2499994999999946
 42
0.2499994999999977
 43
0.2499994999999975
  0
ATTRIB
  5
1883
330
1882
100
AcDbEntity
  8
0
100
AcDbText
 10
3.045708110691059
 20
1.875329384819004
 30
0.0
 40
0.1249997499999988
  1
9
  7
WIDFlagNote
 72
     4
 11
3.102255616643439
 21
1.937829259819003
 31
0.0
100
AcDbAttribute
  2
NO.
 70
     0
  0
SEQEND
  5
1884
330
1882
100
AcDbEntity
  8
text_bubbles
  0
INSERT
  5
1885
330
1F
100
AcDbEntity
  8
text_bubbles
100
AcDbBlockReference
 66
     1
  2
WID_FlagNote
 10
2.414658381244452
 20
1.97605330909782
 30
0.0
 41
-0.2499994999999946
 42
0.2499994999999977
 43
0.2499994999999975
  0
ATTRIB
  5
1886
330
1885
100
AcDbEntity
  8
0
100
AcDbText
 10
2.353349011639354
 20
1.875329384819004
 30
0.0
 40
0.1249997499999988
  1
8
  7
WIDFlagNote
 72
     4
 11
2.412872702115544
 21
1.937829259819003
 31
0.0
100
AcDbAttribute
  2
NO.
 70
     0
  0
SEQEND
  5
1887
330
1885
100
AcDbEntity
  8
text_bubbles
  0
LEADER
  5
1888
330
1F
100
AcDbEntity
  8
text_bubbles
100
AcDbLeader
  3
Standard
 76
     2
 10
2.915856203223732
 20
2.316782462297381
 30
0.0
 10
3.04018395549648
 20
2.064022010875722
 30
0.0
1001
ACAD
1000
DSTYLE
1002
{
1070
    41
1040
0.13
1070
    42
1040
0.1
1070
    44
1040
0.125
1070
    77
1070
     1
1070
    78
1070
     1
1070
   140
1040
0.125
1070
   144
1040
2.0
1070
   147
1040
0.06
1070
   176
1070
   256
1070
   177
1070
   256
1070
   178
1070
   256
1070
   284
1070
     1
1070
   340
1005
339
1070
   371
1070
    -1
1070
   372
1070
    -1
1002
}
  0
LEADER
  5
1889
330
1F
100
AcDbEntity
  8
text_bubbles
100
AcDbLeader
  3
Standard
 76
     2
 10
2.148030320846631
 20
2.361545927723746
 30
0.0
 10
2.338333684178406
 20
2.057082923669524
 30
0.0
1001
ACAD
1000
DSTYLE
1002
{
1070
    41
1040
0.13
1070
    42
1040
0.1
1070
    44
1040
0.125
1070
    77
1070
     1
1070
    78
1070
     1
1070
   140
1040
0.125
1070
   144
1040
2.0
1070
   147
1040
0.06
1070
   176
1070
   256
1070
   177
1070
   256
1070
   178
1070
   256
1070
   284
1070
     1
1070
   340
1005
339
1070
   371
1070
    -1
1070
   372
1070
    -1
1002
}
  0
LINE
  5
189B
330
1F
100
AcDbEntity
  8
image
100
AcDbLine
 10
3.799971419705755
 20
3.657760912390243
 30
0.0
 11
4.447013043857294
 21
3.657760912390243
 31
0.0
  0
ENDSEC
  0
SECTION
  2
OBJECTS
  0
DICTIONARY
  5
C
330
0
100
AcDbDictionary
281
     1
  3
ACAD_COLOR
350
2DF
  3
ACAD_GROUP
350
D
  3
ACAD_LAYOUT
350
1A
  3
ACAD_MATERIAL
350
2C6
  3
ACAD_MLEADERSTYLE
350
2C4
  3
ACAD_MLINESTYLE
350
17
  3
ACAD_PLOTSETTINGS
350
19
  3
ACAD_PLOTSTYLENAME
350
E
  3
ACAD_SCALELIST
350
2E1
  3
ACAD_TABLESTYLE
350
2C3
  3
ACAD_VISUALSTYLE
350
2A
  3
ACDB_RECOMPOSE_DATA
350
31B
  3
AcDbVariableDictionary
350
31C
1001
BBSI_PltSel
1000
1
1000

1001
BBSI_Bookmarks
1000
1
1000
1
1000
0
1000
1
1000
0
1000
0
1000
0
1000
0
1000
0
1000
0
1000
0
1001
BBSI_BookmarksEx
1000
0
1000
0
1000

1000
0
1001
BBSI_Plots
1000

1000
User124
1000
279.399993896484
1000
431.800018310547
1000
1
1000
1
1000
1
1000
25.1321646480571
1000
-6.38898656202258E-15
1000
1
1000
0
1000
1
1000
1.32245154186524
1000
0
1000
1
1000
LaserJet5Shaded.ctb
1000
0
1000
0
1000
1
1000
1
1000
0
1000
0
1000
17.7993251430512
1000
-5.05527778769971
1000
25.8555981645327
1000
8.84478949537031
1000

1000

  0
DICTIONARY
  5
309
330
2
100
AcDbDictionary
280
     1
281
     1
  3
ACAD_LAYERFILTERS
360
1B91
  3
ACAD_LAYERSTATES
360
341
  0
DICTIONARY
  5
642
330
1F
100
AcDbDictionary
280
     1
281
     1
  3
ACAD_SORTENTS
360
643
  0
DICTIONARY
  5
B7D
330
B7C
100
AcDbDictionary
280
     1
281
     1
  3
ACAD_SORTENTS
360
1ADC
  0
DICTIONARY
  5
1BB7
330
13DA
100
AcDbDictionary
280
     1
281
     1
  3
ACAD_MTEXT_2008_RT
360
1BB8
  0
DICTIONARY
  5
1BB9
330
1815
100
AcDbDictionary
280
     1
281
     1
  3
ACAD_MTEXT_2008_RT
360
1BBA
  0
DICTIONARY
  5
2DF
102
{ACAD_REACTORS
330
C
102
}
330
C
100
AcDbDictionary
281
     1
  0
DICTIONARY
  5
D
102
{ACAD_REACTORS
330
C
102
}
330
C
100
AcDbDictionary
281
     1
  0
DICTIONARY
  5
1A
102
{ACAD_REACTORS
330
C
102
}
330
C
100
AcDbDictionary
281
     1
  3
Layout1
350
1E
  3
Layout2
350
26
  3
Model
350
22
  0
DICTIONARY
  5
2C6
102
{ACAD_REACTORS
330
C
102
}
330
C
100
AcDbDictionary
281
     1
  3
ByBlock
350
2CF
  3
ByLayer
350
2C7
  3
Global
350
2D7
  0
DICTIONARY
  5
2C4
102
{ACAD_REACTORS
330
C
102
}
330
C
100
AcDbDictionary
281
     1
  3
Standard
350
1B65
  0
DICTIONARY
  5
17
102
{ACAD_REACTORS
330
C
102
}
330
C
100
AcDbDictionary
281
     1
  3
Standard
350
18
  0
DICTIONARY
  5
19
102
{ACAD_REACTORS
330
C
102
}
330
C
100
AcDbDictionary
281
     1
  3
1055 24x36 BW
350
1A1D
  3
1055 24x36 BW Final
350
1A1E
  3
1055 24x36 Color
350
1A1F
  3
1055 24x36 Color Shaded
350
1A20
  3
1055 30x42 BW
350
1A21
  3
1055 30x42 BW Final
350
1A22
  3
1055 B&W Draft
350
1A23
  3
1055 B&W Final
350
1A24
  3
1055 BW Half
350
1A25
  3
1055 Color Draft
350
1A26
  3
1055 Color Final
350
1A27
  3
1055+ 24x36 BW
350
1A28
  3
1055+ 24x36 BW Final
350
1A29
  3
1055+ 24x36 Color
350
1A2A
  3
1055+ 24x36 Color Shaded
350
1A2B
  3
1055+ 30x42 BW
350
1A2C
  3
1055+ 30x42 BW Final
350
1A2D
  3
1055+ B&W Draft
350
1A2E
  3
1055+ B&W Final
350
1A2F
  3
1055+ BW Half
350
1A30
  3
1055+ Color Draft
350
1A31
  3
1055+ Color Final
350
1A32
  3
_1055 22x34 True Centered BW
350
1A33
  3
_1055 24x36 True Centered BW
350
1A34
  3
_1055 24x36 True Centered BW Final
350
1A35
  3
_1055 24x36 True Centered Color
350
1A36
  3
_1055 30x42 True Centered BW
350
1A37
  3
_1055+ 22x34 True Centered BW
350
1A38
  3
_1055+ 24x36 True Centered BW
350
1A39
  3
_1055+ 24x36 True Centered BW Final
350
1A3A
  3
_1055+ 24x36 True Centered Color
350
1A3B
  3
_1055+ 30x42 True Centered BW
350
1A3C
  3
DWF BW 11x17 Fit
350
1A3D
  3
DWF BW 11x17 Half
350
1A3E
  3
DWF BW 22x34
350
1A3F
  3
DWF BW 24x36
350
1A40
  3
DWF BW 30x42
350
1A41
  3
DWF BW 36x48
350
1A42
  3
JPEG
350
1A43
  3
Laser5 11x17 Fit
350
1A44
  3
Laser5 11x17 Full
350
1A45
  3
Laser5 11x17 Half
350
1A46
  3
Laser5 8x11 Fit
350
1A47
  3
Laser5 8x11 Half
350
1A48
  3
Laser5 8x11 Portrait Fit
350
1A49
  3
LaserJet5 11x17
350
1A4A
  3
LaserJet5 8.5x11
350
1A4B
  3
Oki9500 11x17 BW Fit
350
1A4C
  3
Oki9500 11x17 BW Full
350
1A4D
  3
Oki9500 11x17 BW Half
350
1A4E
  3
Oki9500 11x17 Color Fit
350
1A4F
  3
Oki9500 11x17 Color Full
350
1A50
  3
Oki9500 11x17 Color Half
350
1A51
  3
Oki9500 8x11 BW Fit
350
1A52
  3
Oki9500 8x11 BW Portrait Fit
350
1A53
  3
Oki9500 8x11 Color Fit
350
1A54
  3
Oki9500 8x11 Color Portrait Fit
350
1A55
  3
OKI9500 B&W 11x17
350
1A56
  3
OKI9500 B&W 8.5x11
350
1A57
  3
OKI9500 Color 11x17
350
1A58
  3
OKI9500 Color 8.5x11
350
1A59
  3
Oki9600 11x17 BW Fit
350
1A5A
  3
Oki9600 11x17 BW Full
350
1A5B
  3
Oki9600 11x17 BW Half
350
1A5C
  3
Oki9600 11x17 Color Fit
350
1A5D
  3
Oki9600 11x17 Color Full
350
1A5E
  3
Oki9600 11x17 Color Half
350
1A5F
  3
Oki9600 8x11 BW Fit
350
1A60
  3
Oki9600 8x11 BW Portrait Fit
350
1A61
  3
Oki9600 8x11 Color Fit
350
1A62
  3
Oki9600 8x11 Color Portrait Fit
350
1A63
  3
OKI9600 B&W 11x17
350
1A64
  3
OKI9600 B&W 8.5x11
350
1A65
  3
OKI9600 Color 11x17
350
1A66
  3
OKI9600 Color 8.5x11
350
1A67
  3
PHX Kyocera 11x17 Fit
350
1A68
  3
PHX Oki9500 11x17 BW Fit
350
1A69
  3
PHX Oki9500 11x17 BW Half
350
1A6A
  0
ACDBDICTIONARYWDFLT
  5
E
102
{ACAD_REACTORS
330
C
102
}
330
C
100
AcDbDictionary
281
     1
  3
Normal
350
F
100
AcDbDictionaryWithDefault
340
F
  0
DICTIONARY
  5
2E1
102
{ACAD_REACTORS
330
C
102
}
330
C
100
AcDbDictionary
281
     1
  3
A0
350
2E2
  0
DICTIONARY
  5
2C3
102
{ACAD_REACTORS
330
C
102
}
330
C
100
AcDbDictionary
281
     1
  3
Standard
350
2E0
  0
DICTIONARY
  5
2A
102
{ACAD_REACTORS
330
C
102
}
330
C
100
AcDbDictionary
281
     1
  3
2dWireframe
350
2F
  3
3D Hidden
350
31
  3
3dWireframe
350
30
  3
Basic
350
32
  3
Brighten
350
36
  3
ColorChange
350
3A
  3
Conceptual
350
34
  3
Dim
350
35
  3
Facepattern
350
39
  3
Flat
350
2B
  3
FlatWithEdges
350
2C
  3
Gouraud
350
2D
  3
GouraudWithEdges
350
2E
  3
Linepattern
350
38
  3
Realistic
350
33
  3
Thicken
350
37
  0
XRECORD
  5
31B
102
{ACAD_REACTORS
330
C
102
}
330
C
100
AcDbXrecord
280
     1
 90
        1
330
2E0
330
13DA
330
1815
  0
DICTIONARY
  5
31C
102
{ACAD_REACTORS
330
C
102
}
330
C
100
AcDbDictionary
281
     1
  3
CANNOSCALE
350
320
  3
CMLEADERSTYLE
350
31E
  3
CTABLESTYLE
350
31D
  3
LAYEREVAL
350
1BAC
  3
LAYERNOTIFY
350
322
  3
LIGHTINGUNITS
350
321
  3
MSLTSCALE
350
31F
  3
UPDATETHUMBNAIL
350
1B48
  0
DICTIONARY
  5
1B91
102
{ACAD_REACTORS
330
309
102
}
330
309
100
AcDbDictionary
281
     1
  3
_0100-
350
1B94
  3
_0280-
350
1B93
  3
_Add Alternate
350
1B96
  3
_Bid Alternate
350
1B97
  3
_Color 253
350
1B99
  3
_Color 8
350
1B95
  3
_Color 84
350
1B98
  3
_Contours
350
1B9F
  3
_Demo
350
1B9A
  3
_Existing
350
1B9B
  3
_Hardscape
350
1B9E
  3
_NoXref
350
1B92
  3
_Row
350
1B9C
  3
_Utility
350
1B9D
  0
DICTIONARY
  5
341
102
{ACAD_REACTORS
330
309
102
}
330
309
100
AcDbDictionary
281
     1
  0
SORTENTSTABLE
  5
643
102
{ACAD_REACTORS
330
642
102
}
330
642
100
AcDbSortentsTable
330
1F
331
FDF
  5
554
331
296
  5
296
331
DA0
  5
DB8
331
112
  5
112
331
9C
  5
9C
331
DB
  5
DB
331
151
  5
151
331
188
  5
188
331
245
  5
245
331
190
  5
190
331
E3
  5
E3
331
A4
  5
A4
331
11A
  5
11A
331
159
  5
159
331
1CF
  5
1CF
331
206
  5
206
331
20E
  5
20E
331
161
  5
161
331
EB
  5
EB
331
AC
  5
AC
331
122
  5
122
331
198
  5
198
331
1D7
  5
1D7
331
24D
  5
24D
331
67
  5
67
331
216
  5
216
331
1A0
  5
1A0
331
B4
  5
B4
331
12A
  5
12A
331
1DF
  5
1DF
331
255
  5
255
331
6F
  5
6F
331
21E
  5
21E
331
77
  5
77
331
29E
  5
29E
331
25F
  5
25F
331
DB0
  5
DBF
331
54C
  5
550
331
2A6
  5
2A6
331
267
  5
267
331
10C5
  5
1117
331
1153
  5
12AC
331
1880
  5
1881
331
DB8
  5
E17
331
2AE
  5
2AE
331
26F
  5
26F
331
554
  5
56F
331
58B
  5
5EF
331
B4A
  5
C2C
331
17F1
  5
17F2
331
1888
  5
1889
331
2B6
  5
2B6
331
277
  5
277
331
55C
  5
571
331
593
  5
B48
331
17F9
  5
17FA
331
116B
  5
12AD
331
13DA
  5
1418
331
132
  5
132
331
7D
  5
7D
331
BC
  5
BC
331
F3
  5
F3
331
169
  5
169
331
1A8
  5
1A8
331
1B0
  5
1B0
331
FB
  5
FB
331
C4
  5
C4
331
85
  5
85
331
13A
  5
13A
331
171
  5
171
331
1E7
  5
1E7
331
226
  5
226
331
22E
  5
22E
331
1B8
  5
1B8
331
103
  5
103
331
8D
  5
8D
331
CC
  5
CC
331
142
  5
142
331
179
  5
179
331
1EF
  5
1EF
331
48
  5
48
331
236
  5
236
331
181
  5
181
331
D4
  5
D4
331
95
  5
95
331
10B
  5
10B
331
14A
  5
14A
331
1C0
  5
1C0
331
1F7
  5
1F7
331
50
  5
50
331
1FF
  5
1FF
331
23E
  5
23E
331
58
  5
58
331
2BE
  5
2BE
331
27F
  5
27F
331
564
  5
576
331
59B
  5
B50
331
D91
  5
DAF
331
287
  5
287
331
56C
  5
586
331
28F
  5
28F
331
574
  5
58F
331
142A
  5
142D
331
297
  5
297
331
152
  5
152
331
9D
  5
9D
331
DC
  5
DC
331
113
  5
113
331
189
  5
189
331
1C8
  5
1C8
331
1D0
  5
1D0
331
15A
  5
15A
331
A5
  5
A5
331
E4
  5
E4
331
11B
  5
11B
331
191
  5
191
331
207
  5
207
331
246
  5
246
331
60
  5
60
331
1D8
  5
1D8
331
123
  5
123
331
AD
  5
AD
331
EC
  5
EC
331
162
  5
162
331
199
  5
199
331
20F
  5
20F
331
24E
  5
24E
331
68
  5
68
331
256
  5
256
331
1A1
  5
1A1
331
12B
  5
12B
331
B5
  5
B5
331
217
  5
217
331
70
  5
70
331
21F
  5
21F
331
258
  5
258
331
29F
  5
29F
331
260
  5
260
331
DA9
  5
DBB
331
2A7
  5
2A7
331
268
  5
268
331
54D
  5
55A
331
1881
  5
1882
331
2AF
  5
2AF
331
270
  5
270
331
555
  5
570
331
58C
  5
5F0
331
B4B
  5
C2E
331
17F2
  5
17F3
331
1889
  5
189B
331
2B7
  5
2B7
331
594
  5
B49
331
17FA
  5
17FB
331
116C
  5
12E9
331
16A
  5
16A
331
F4
  5
F4
331
7E
  5
7E
331
BD
  5
BD
331
133
  5
133
331
1A9
  5
1A9
331
1E0
  5
1E0
331
227
  5
227
331
172
  5
172
331
C5
  5
C5
331
86
  5
86
331
FC
  5
FC
331
13B
  5
13B
331
1B1
  5
1B1
331
1E8
  5
1E8
331
41
  5
41
331
1F0
  5
1F0
331
143
  5
143
331
8E
  5
8E
331
CD
  5
CD
331
104
  5
104
331
17A
  5
17A
331
1B9
  5
1B9
331
22F
  5
22F
331
49
  5
49
331
1C1
  5
1C1
331
10C
  5
10C
331
96
  5
96
331
D5
  5
D5
331
14B
  5
14B
331
182
  5
182
331
1F8
  5
1F8
331
237
  5
237
331
51
  5
51
331
23F
  5
23F
331
59
  5
59
331
278
  5
278
331
D8A
  5
54E
331
2BF
  5
2BF
331
280
  5
280
331
565
  5
577
331
59C
  5
B6B
331
E61
  5
555
331
288
  5
288
331
56D
  5
587
331
141B
  5
142A
331
10E6
  5
1118
331
D9A
  5
DB4
331
290
  5
290
331
575
  5
590
331
61C
  5
B70
331
184A
  5
187C
331
10FE
  5
1119
331
1C9
  5
1C9
331
114
  5
114
331
9E
  5
9E
331
DD
  5
DD
331
153
  5
153
331
18A
  5
18A
331
200
  5
200
331
247
  5
247
331
192
  5
192
331
E5
  5
E5
331
A6
  5
A6
331
11C
  5
11C
331
15B
  5
15B
331
1D1
  5
1D1
331
208
  5
208
331
61
  5
61
331
24F
  5
24F
331
210
  5
210
331
163
  5
163
331
AE
  5
AE
331
ED
  5
ED
331
124
  5
124
331
19A
  5
19A
331
1D9
  5
1D9
331
69
  5
69
331
218
  5
218
331
1A2
  5
1A2
331
B6
  5
B6
331
12C
  5
12C
331
257
  5
257
331
71
  5
71
331
298
  5
298
331
259
  5
259
331
2A0
  5
2A0
331
261
  5
261
331
2A8
  5
2A8
331
269
  5
269
331
54E
  5
55B
331
585
  5
59A
331
1882
  5
1885
331
2B0
  5
2B0
331
271
  5
271
331
B4C
  5
C33
331
12EC
  5
12F1
331
17F3
  5
17F4
331
595
  5
B4A
331
17FB
  5
1815
331
1116
  5
116B
331
1E1
  5
1E1
331
134
  5
134
331
7F
  5
7F
331
BE
  5
BE
331
F5
  5
F5
331
16B
  5
16B
331
1AA
  5
1AA
331
220
  5
220
331
1B2
  5
1B2
331
FD
  5
FD
331
87
  5
87
331
C6
  5
C6
331
13C
  5
13C
331
173
  5
173
331
1E9
  5
1E9
331
228
  5
228
331
42
  5
42
331
230
  5
230
331
17B
  5
17B
331
105
  5
105
331
8F
  5
8F
331
CE
  5
CE
331
144
  5
144
331
1BA
  5
1BA
331
1F1
  5
1F1
331
4A
  5
4A
331
238
  5
238
331
183
  5
183
331
97
  5
97
331
D6
  5
D6
331
10D
  5
10D
331
14C
  5
14C
331
1C2
  5
1C2
331
1F9
  5
1F9
331
52
  5
52
331
5A
  5
5A
331
2B8
  5
2B8
331
279
  5
279
331
E1A
  5
10C4
331
2C0
  5
2C0
331
281
  5
281
331
566
  5
578
331
59D
  5
B6C
331
289
  5
289
331
56E
  5
588
331
291
  5
291
331
576
  5
592
331
201
  5
201
331
154
  5
154
331
9F
  5
9F
331
DE
  5
DE
331
115
  5
115
331
18B
  5
18B
331
1CA
  5
1CA
331
240
  5
240
331
1D2
  5
1D2
331
11D
  5
11D
331
A7
  5
A7
331
E6
  5
E6
331
15C
  5
15C
331
193
  5
193
331
209
  5
209
331
248
  5
248
331
62
  5
62
331
250
  5
250
331
1DA
  5
1DA
331
125
  5
125
331
AF
  5
AF
331
EE
  5
EE
331
164
  5
164
331
19B
  5
19B
331
211
  5
211
331
6A
  5
6A
331
1A3
  5
1A3
331
12D
  5
12D
331
B7
  5
B7
331
219
  5
219
331
72
  5
72
331
299
  5
299
331
25A
  5
25A
331
2A1
  5
2A1
331
262
  5
262
331
57E
  5
596
331
DB3
  5
DD3
331
BDC
  5
D9A
331
2A9
  5
2A9
331
26A
  5
26A
331
54F
  5
55C
331
586
  5
59B
331
DBB
  5
E1A
331
2B1
  5
2B1
331
272
  5
272
331
58E
  5
61C
331
17F4
  5
17F5
331
596
  5
B4B
331
1117
  5
116F
331
189B
  5
556
331
78
  5
78
331
221
  5
221
331
16C
  5
16C
331
F6
  5
F6
331
BF
  5
BF
331
80
  5
80
331
135
  5
135
331
1AB
  5
1AB
331
1E2
  5
1E2
331
1EA
  5
1EA
331
174
  5
174
331
C7
  5
C7
331
88
  5
88
331
FE
  5
FE
331
13D
  5
13D
331
1B3
  5
1B3
331
229
  5
229
331
43
  5
43
331
1F2
  5
1F2
331
145
  5
145
331
90
  5
90
331
CF
  5
CF
331
106
  5
106
331
17C
  5
17C
331
1BB
  5
1BB
331
231
  5
231
331
4B
  5
4B
331
1C3
  5
1C3
331
D7
  5
D7
331
10E
  5
10E
331
14D
  5
14D
331
184
  5
184
331
1FA
  5
1FA
331
239
  5
239
331
53
  5
53
331
5B
  5
5B
331
2B9
  5
2B9
331
27A
  5
27A
331
2C1
  5
2C1
331
282
  5
282
331
567
  5
57A
331
59E
  5
B6D
331
E1B
  5
10E6
331
D94
  5
DB0
331
28A
  5
28A
331
56F
  5
589
331
5EE
  5
B6E
331
292
  5
292
331
577
  5
593
331
142D
  5
146D
331
146D
  5
17EE
331
12DE
  5
55D
331
187C
  5
187D
331
98
  5
98
331
241
  5
241
331
18C
  5
18C
331
A0
  5
A0
331
DF
  5
DF
331
116
  5
116
331
155
  5
155
331
1CB
  5
1CB
331
202
  5
202
331
249
  5
249
331
194
  5
194
331
A8
  5
A8
331
E7
  5
E7
331
11E
  5
11E
331
15D
  5
15D
331
1D3
  5
1D3
331
20A
  5
20A
331
63
  5
63
331
212
  5
212
331
165
  5
165
331
B0
  5
B0
331
EF
  5
EF
331
126
  5
126
331
19C
  5
19C
331
1DB
  5
1DB
331
251
  5
251
331
6B
  5
6B
331
21A
  5
21A
331
12E
  5
12E
331
1A4
  5
1A4
331
73
  5
73
331
25B
  5
25B
331
29A
  5
29A
331
263
  5
263
331
2A2
  5
2A2
331
64E
  5
549
331
DB4
  5
DD6
331
BDD
  5
D9D
331
2AA
  5
2AA
331
26B
  5
26B
331
550
  5
568
331
587
  5
59C
331
B46
  5
B73
331
DBC
  5
E1B
331
273
  5
273
331
2B2
  5
2B2
331
58F
  5
61F
331
17F5
  5
17F6
331
597
  5
B4C
331
1118
  5
117A
331
1815
  5
1816
331
79
  5
79
331
B8
  5
B8
331
222
  5
222
331
1E3
  5
1E3
331
136
  5
136
331
81
  5
81
331
C0
  5
C0
331
F7
  5
F7
331
16D
  5
16D
331
1AC
  5
1AC
331
22A
  5
22A
331
1EB
  5
1EB
331
1B4
  5
1B4
331
89
  5
89
331
C8
  5
C8
331
FF
  5
FF
331
13E
  5
13E
331
175
  5
175
331
44
  5
44
331
232
  5
232
331
1F3
  5
1F3
331
17D
  5
17D
331
D0
  5
D0
331
91
  5
91
331
107
  5
107
331
146
  5
146
331
1BC
  5
1BC
331
4C
  5
4C
331
23A
  5
23A
331
1FB
  5
1FB
331
185
  5
185
331
10F
  5
10F
331
14E
  5
14E
331
1C4
  5
1C4
331
54
  5
54
331
5C
  5
5C
331
2BA
  5
2BA
331
27B
  5
27B
331
560
  5
572
331
2C2
  5
2C2
331
283
  5
283
331
568
  5
57E
331
28B
  5
28B
331
570
  5
58A
331
5EF
  5
B6F
331
D9D
  5
DB7
331
293
  5
293
331
12DF
  5
560
331
187D
  5
187E
331
D8
  5
D8
331
99
  5
99
331
242
  5
242
331
203
  5
203
331
156
  5
156
331
A1
  5
A1
331
E0
  5
E0
331
117
  5
117
331
18D
  5
18D
331
1CC
  5
1CC
331
24A
  5
24A
331
20B
  5
20B
331
1D4
  5
1D4
331
11F
  5
11F
331
A9
  5
A9
331
E8
  5
E8
331
15E
  5
15E
331
195
  5
195
331
64
  5
64
331
252
  5
252
331
213
  5
213
331
19D
  5
19D
331
127
  5
127
331
B1
  5
B1
331
166
  5
166
331
1DC
  5
1DC
331
6C
  5
6C
331
21B
  5
21B
331
1A5
  5
1A5
331
12F
  5
12F
331
74
  5
74
331
25C
  5
25C
331
29B
  5
29B
331
578
  5
594
331
264
  5
264
331
2A3
  5
2A3
331
549
  5
54C
331
580
  5
597
331
26C
  5
26C
331
2AB
  5
2AB
331
551
  5
569
331
588
  5
59D
331
B47
  5
BFD
331
17EE
  5
17EF
331
1885
  5
1888
331
274
  5
274
331
2B3
  5
2B3
331
590
  5
B46
331
17F6
  5
17F7
331
1119
  5
118C
331
1816
  5
1820
331
F0
  5
F0
331
7A
  5
7A
331
B9
  5
B9
331
223
  5
223
331
1E4
  5
1E4
331
16E
  5
16E
331
C1
  5
C1
331
82
  5
82
331
F8
  5
F8
331
137
  5
137
331
1AD
  5
1AD
331
22B
  5
22B
331
1EC
  5
1EC
331
13F
  5
13F
331
C9
  5
C9
331
8A
  5
8A
331
100
  5
100
331
176
  5
176
331
1B5
  5
1B5
331
45
  5
45
331
233
  5
233
331
1F4
  5
1F4
331
147
  5
147
331
92
  5
92
331
D1
  5
D1
331
108
  5
108
331
17E
  5
17E
331
1BD
  5
1BD
331
4D
  5
4D
331
23B
  5
23B
331
1FC
  5
1FC
331
1C5
  5
1C5
331
14F
  5
14F
331
186
  5
186
331
55
  5
55
331
5D
  5
5D
331
2BB
  5
2BB
331
27C
  5
27C
331
561
  5
573
331
598
  5
B4E
331
284
  5
284
331
569
  5
580
331
28C
  5
28C
331
571
  5
58B
331
294
  5
294
331
187E
  5
187F
331
110
  5
110
331
D9
  5
D9
331
9A
  5
9A
331
243
  5
243
331
18E
  5
18E
331
E1
  5
E1
331
A2
  5
A2
331
118
  5
118
331
157
  5
157
331
1CD
  5
1CD
331
204
  5
204
331
20C
  5
20C
331
196
  5
196
331
E9
  5
E9
331
AA
  5
AA
331
120
  5
120
331
15F
  5
15F
331
1D5
  5
1D5
331
24B
  5
24B
331
65
  5
65
331
214
  5
214
331
167
  5
167
331
B2
  5
B2
331
128
  5
128
331
19E
  5
19E
331
1DD
  5
1DD
331
253
  5
253
331
6D
  5
6D
331
21C
  5
21C
331
1A6
  5
1A6
331
75
  5
75
331
29C
  5
29C
331
25D
  5
25D
331
2A4
  5
2A4
331
265
  5
265
331
581
  5
598
331
12E0
  5
567
331
10C3
  5
10FE
331
2AC
  5
2AC
331
26D
  5
26D
331
552
  5
56B
331
589
  5
59E
331
B48
  5
C00
331
17EF
  5
17F0
331
2B4
  5
2B4
331
275
  5
275
331
B50
  5
558
331
17F7
  5
17F8
331
130
  5
130
331
7B
  5
7B
331
BA
  5
BA
331
F1
  5
F1
331
1AE
  5
1AE
331
138
  5
138
331
83
  5
83
331
C2
  5
C2
331
F9
  5
F9
331
16F
  5
16F
331
1E5
  5
1E5
331
224
  5
224
331
1B6
  5
1B6
331
101
  5
101
331
8B
  5
8B
331
CA
  5
CA
331
140
  5
140
331
177
  5
177
331
1ED
  5
1ED
331
22C
  5
22C
331
46
  5
46
331
234
  5
234
331
17F
  5
17F
331
D2
  5
D2
331
93
  5
93
331
109
  5
109
331
148
  5
148
331
1BE
  5
1BE
331
1F5
  5
1F5
331
4E
  5
4E
331
1FD
  5
1FD
331
187
  5
187
331
1C6
  5
1C6
331
23C
  5
23C
331
56
  5
56
331
5E
  5
5E
331
2BC
  5
2BC
331
27D
  5
27D
331
562
  5
574
331
285
  5
285
331
56A
  5
581
331
1418
  5
141B
331
D97
  5
DB3
331
28D
  5
28D
331
572
  5
58C
331
295
  5
295
331
641
  5
559
331
1847
  5
184A
331
187F
  5
1880
331
150
  5
150
331
DA
  5
DA
331
9B
  5
9B
331
111
  5
111
331
205
  5
205
331
158
  5
158
331
A3
  5
A3
331
E2
  5
E2
331
119
  5
119
331
18F
  5
18F
331
1CE
  5
1CE
331
244
  5
244
331
1D6
  5
1D6
331
121
  5
121
331
AB
  5
AB
331
EA
  5
EA
331
160
  5
160
331
197
  5
197
331
20D
  5
20D
331
24C
  5
24C
331
66
  5
66
331
254
  5
254
331
19F
  5
19F
331
129
  5
129
331
B3
  5
B3
331
1DE
  5
1DE
331
215
  5
215
331
6E
  5
6E
331
21D
  5
21D
331
1A7
  5
1A7
331
76
  5
76
331
29D
  5
29D
331
25E
  5
25E
331
57A
  5
595
331
DAF
  5
DBC
331
2A5
  5
2A5
331
266
  5
266
331
10C4
  5
1116
331
DB7
  5
DDC
331
BE8
  5
DA3
331
2AD
  5
2AD
331
26E
  5
26E
331
553
  5
56E
331
58A
  5
5EE
331
B49
  5
C28
331
12E9
  5
12EC
331
17F0
  5
17F1
331
DBF
  5
F98
331
D68
  5
557
331
2B5
  5
2B5
331
276
  5
276
331
592
  5
B47
331
12F1
  5
13DA
331
17F8
  5
17F9
331
E17
  5
10C3
331
F2
  5
F2
331
7C
  5
7C
331
BB
  5
BB
331
131
  5
131
331
168
  5
168
331
225
  5
225
331
170
  5
170
331
C3
  5
C3
331
84
  5
84
331
FA
  5
FA
331
139
  5
139
331
1AF
  5
1AF
331
1E6
  5
1E6
331
1EE
  5
1EE
331
141
  5
141
331
8C
  5
8C
331
CB
  5
CB
331
102
  5
102
331
178
  5
178
331
1B7
  5
1B7
331
22D
  5
22D
331
47
  5
47
331
1BF
  5
1BF
331
149
  5
149
331
94
  5
94
331
D3
  5
D3
331
10A
  5
10A
331
180
  5
180
331
1F6
  5
1F6
331
235
  5
235
331
4F
  5
4F
331
1C7
  5
1C7
331
1FE
  5
1FE
331
23D
  5
23D
331
57
  5
57
331
5F
  5
5F
331
2BD
  5
2BD
331
27E
  5
27E
331
563
  5
575
331
59A
  5
B4F
331
286
  5
286
331
56B
  5
585
331
113B
  5
12A4
331
28E
  5
28E
331
573
  5
58E
  0
SORTENTSTABLE
  5
1ADC
102
{ACAD_REACTORS
330
B7D
102
}
330
B7D
100
AcDbSortentsTable
330
B7C
  0
XRECORD
  5
1BB8
102
{ACAD_REACTORS
330
1BB7
102
}
330
1BB7
100
AcDbXrecord
280
     1
 40
15833265.0
  1
NOTES:\P\pxi-3,l3;1. {\Fc:\program files\autocad 2009\fonts\romans|c0;IQ ESP-LXD CONTROLLER COMES WITH 50 STATIONS AVAILABLE. TWO ADDITIONAL 75 STATION ESPLXD-SUM75 MODULES MAY BE ADDED TO EXPAND THE CONTROLLER UP TO 200 TOTAL STATIONS.\P}2. PROVIDE 
  1
PROPER GROUNDING COMPONENTS TO ACHIEVE GROUND RESISTANCE OF 10 OHMS OR LESS.  \P{\Fc:\program files\autocad 2009\fonts\romans|c0;3. OWNER IS RESPONSIBLE FOR PROVIDING CELLULAR SERVICE CAPABLE OF INTERFACING WITH NCC GPRS CARTRIDGE. INSTALL CONTROLLER
  1
 IN A LOCATION TO MAXIMIZE ANTENNA RECEPTION. CONDUCT A SURVEY OF THE SITE TO ASSURE A VIABLE AND CONSISTENT CELLULAR CONNECTION BEFORE INSTALLING CONTROLLER. }
  0
XRECORD
  5
1BBA
102
{ACAD_REACTORS
330
1BB9
102
}
330
1BB9
100
AcDbXrecord
280
     1
 40
47202125.0
  1
TWO-WIRE DECODER CONTROLLER: \P\pxi-2,l2;  RAIN BIRD IQ ESP-LXD SATELLITE TWO-WIRE DECODER CONTROLLER WITH IQ CONNECTION MODULE AND IQ NCC GPRS CARTRIDGE IN {\Fc:\program files\autocad 2009\fonts\romans|c0;LXMM METAL CABINET AND LXMMPED METAL PEDESTA
  1
L}. {\Fc:\program files\autocad 2009\fonts\romans|c0;INSTALL CONTROLLER, CABINET AND PEDESTAL PER MANUFACTURER'S RECOMMENDATIONS.\P\PCELLULAR ANTENNA:\P  RAIN BIRD IQEXTANGP GPRS/CELLULAR EXTERNAL ANTENNA (FOR USE WITH LXMM METAL CABINET ONLY)\P}\P{\
  1
A1;CONCRETE PAD: \P  6-INCH MINIMUM THICKNESS\P\pi0,l0;\P\pi-2,l2;FINISH GRADE}\P\PPOWER SUPPLY WIRE\P{\A1;\P1-INCH SCH 40 PVC CONDUIT, FITTINGS AND SWEEP ELL FOR POWER SUPPLY\P\PCOMPACTED SUBGRADE\P}\PPE-CABLE OR Y-CABLE FOR EXTERNAL RADIO TO CLIENT
  1
 SATELLITE CONTROLLERS\P\P1-INCH {\A1;SCH 40 PVC CONDUIT, FITTINGS AND SWEEP ELL} FOR COMMUNICATION CABLE TO CLIENT SATELLITE CONTROLLERS\P\P{\A1;3-INCH SCH 40 PVC CONDUIT, FITTINGS AND SWEEP ELL} FOR TWO-WIRE CABLE \P\pi0,l0;\P\pi-2,l2;MAXICABLE TWO
  1
-WIRE PATH TO DECODERS\P  {\Fc:\program files\autocad 2009\fonts\romans|c0;USE A DIFFERENT CABLE JACKET COLOR FOR EACH PATH}
  0
LAYOUT
  5
1E
102
{ACAD_REACTORS
330
1A
102
}
330
1A
100
AcDbPlotSettings
  1

  2
none_device
  4

  6

 40
0.0
 41
0.0
 42
0.0
 43
0.0
 44
0.0
 45
0.0
 46
0.0
 47
0.0
 48
0.0
 49
0.0
140
0.0
141
0.0
142
1.0
143
1.0
 70
   688
 72
     0
 73
     0
 74
     5
  7

 75
    16
147
1.0
 76
     0
 77
     2
 78
   300
148
0.0
149
0.0
100
AcDbLayout
  1
Layout1
 70
     1
 71
     1
 10
0.0
 20
0.0
 11
12.0
 21
9.0
 12
0.0
 22
0.0
 32
0.0
 14
1.000000000000000E+20
 24
1.000000000000000E+20
 34
1.000000000000000E+20
 15
-1.000000000000000E+20
 25
-1.000000000000000E+20
 35
-1.000000000000000E+20
146
0.0
 13
0.0
 23
0.0
 33
0.0
 16
1.0
 26
0.0
 36
0.0
 17
0.0
 27
1.0
 37
0.0
 76
     0
330
1B
  0
LAYOUT
  5
26
102
{ACAD_REACTORS
330
1A
102
}
330
1A
100
AcDbPlotSettings
  1

  2
none_device
  4

  6

 40
0.0
 41
0.0
 42
0.0
 43
0.0
 44
0.0
 45
0.0
 46
0.0
 47
0.0
 48
0.0
 49
0.0
140
0.0
141
0.0
142
1.0
143
1.0
 70
   688
 72
     0
 73
     0
 74
     5
  7

 75
    16
147
1.0
 76
     0
 77
     2
 78
   300
148
0.0
149
0.0
100
AcDbLayout
  1
Layout2
 70
     1
 71
     2
 10
0.0
 20
0.0
 11
0.0
 21
0.0
 12
0.0
 22
0.0
 32
0.0
 14
0.0
 24
0.0
 34
0.0
 15
0.0
 25
0.0
 35
0.0
146
0.0
 13
0.0
 23
0.0
 33
0.0
 16
1.0
 26
0.0
 36
0.0
 17
0.0
 27
1.0
 37
0.0
 76
     0
330
23
  0
LAYOUT
  5
22
102
{ACAD_REACTORS
330
1A
102
}
330
1A
100
AcDbPlotSettings
  1
LaserJet5 8.5x11
  2
LaserJet5Shaded-8x11.pc3
  4
Letter
  6

 40
5.873749732971191
 41
5.873734951019287
 42
6.55108642578125
 43
5.027084350585937
 44
279.3999938964844
 45
215.8999938964844
 46
0.0000000000000115
 47
17.98713590926731
 48
0.0
 49
0.0
140
0.0
141
0.0
142
1.0
143
1.568857580417505
 70
 11956
 72
     0
 73
     0
 74
     1
  7
LaserJet5Shaded.ctb
 75
     0
147
0.637406487677409
 76
     0
 77
     2
 78
   300
148
0.0
149
0.0
100
AcDbLayout
  1
Model
 70
     1
 71
     0
 10
0.0
 20
0.0
 11
34.0
 21
22.0
 12
0.0
 22
0.0
 32
0.0
 14
0.0
 24
0.0
 34
0.0
 15
34.0
 25
22.0
 35
0.0
146
0.0
 13
0.0
 23
0.0
 33
0.0
 16
1.0
 26
0.0
 36
0.0
 17
0.0
 27
1.0
 37
0.0
 76
     0
330
1F
331
29
1001
ACAD_PSEXT
1000
LaserJet5Shaded-8x11.pc3
1000
HP LaserJet 5Si
1000
CAD Area
1000

1070
     0
  0
MATERIAL
  5
2CF
102
{ACAD_XDICTIONARY
360
2D0
102
}
102
{ACAD_REACTORS
330
2C6
102
}
330
2C6
100
AcDbMaterial
  1
ByBlock
 72
     0
 43
0.0208333333333333
 43
0.0
 43
0.0
 43
0.0
 43
0.0
 43
0.0208333333333333
 43
0.0
 43
0.0
 43
0.0
 43
0.0
 43
1.0
 43
0.0
 43
0.0
 43
0.0
 43
0.0
 43
1.0
 77
     0
 47
0.0208333333333333
 47
0.0
 47
0.0
 47
0.0
 47
0.0
 47
0.0208333333333333
 47
0.0
 47
0.0
 47
0.0
 47
0.0
 47
1.0
 47
0.0
 47
0.0
 47
0.0
 47
0.0
 47
1.0
171
     0
 49
0.0208333333333333
 49
0.0
 49
0.0
 49
0.0
 49
0.0
 49
0.0208333333333333
 49
0.0
 49
0.0
 49
0.0
 49
0.0
 49
1.0
 49
0.0
 49
0.0
 49
0.0
 49
0.0
 49
1.0
175
     0
142
0.0208333333333333
142
0.0
142
0.0
142
0.0
142
0.0
142
0.0208333333333333
142
0.0
142
0.0
142
0.0
142
0.0
142
1.0
142
0.0
142
0.0
142
0.0
142
0.0
142
1.0
179
     0
144
0.0208333333333333
144
0.0
144
0.0
144
0.0
144
0.0
144
0.0208333333333333
144
0.0
144
0.0
144
0.0
144
0.0
144
1.0
144
0.0
144
0.0
144
0.0
144
0.0
144
1.0
147
0.0208333333333333
147
0.0
147
0.0
147
0.0
147
0.0
147
0.0208333333333333
147
0.0
147
0.0
147
0.0
147
0.0
147
1.0
147
0.0
147
0.0
147
0.0
147
0.0
147
1.0
  0
MATERIAL
  5
2C7
102
{ACAD_XDICTIONARY
360
2C8
102
}
102
{ACAD_REACTORS
330
2C6
102
}
330
2C6
100
AcDbMaterial
  1
ByLayer
 72
     0
 43
0.0208333333333333
 43
0.0
 43
0.0
 43
0.0
 43
0.0
 43
0.0208333333333333
 43
0.0
 43
0.0
 43
0.0
 43
0.0
 43
1.0
 43
0.0
 43
0.0
 43
0.0
 43
0.0
 43
1.0
 77
     0
 47
0.0208333333333333
 47
0.0
 47
0.0
 47
0.0
 47
0.0
 47
0.0208333333333333
 47
0.0
 47
0.0
 47
0.0
 47
0.0
 47
1.0
 47
0.0
 47
0.0
 47
0.0
 47
0.0
 47
1.0
171
     0
 49
0.0208333333333333
 49
0.0
 49
0.0
 49
0.0
 49
0.0
 49
0.0208333333333333
 49
0.0
 49
0.0
 49
0.0
 49
0.0
 49
1.0
 49
0.0
 49
0.0
 49
0.0
 49
0.0
 49
1.0
175
     0
142
0.0208333333333333
142
0.0
142
0.0
142
0.0
142
0.0
142
0.0208333333333333
142
0.0
142
0.0
142
0.0
142
0.0
142
1.0
142
0.0
142
0.0
142
0.0
142
0.0
142
1.0
179
     0
144
0.0208333333333333
144
0.0
144
0.0
144
0.0
144
0.0
144
0.0208333333333333
144
0.0
144
0.0
144
0.0
144
0.0
144
1.0
144
0.0
144
0.0
144
0.0
144
0.0
144
1.0
147
0.0208333333333333
147
0.0
147
0.0
147
0.0
147
0.0
147
0.0208333333333333
147
0.0
147
0.0
147
0.0
147
0.0
147
1.0
147
0.0
147
0.0
147
0.0
147
0.0
147
1.0
  0
MATERIAL
  5
2D7
102
{ACAD_XDICTIONARY
360
2D8
102
}
102
{ACAD_REACTORS
330
2C6
102
}
330
2C6
100
AcDbMaterial
  1
Global
 72
     0
 43
0.0208333333333333
 43
0.0
 43
0.0
 43
0.0
 43
0.0
 43
0.0208333333333333
 43
0.0
 43
0.0
 43
0.0
 43
0.0
 43
1.0
 43
0.0
 43
0.0
 43
0.0
 43
0.0
 43
1.0
 77
     0
 47
0.0208333333333333
 47
0.0
 47
0.0
 47
0.0
 47
0.0
 47
0.0208333333333333
 47
0.0
 47
0.0
 47
0.0
 47
0.0
 47
1.0
 47
0.0
 47
0.0
 47
0.0
 47
0.0
 47
1.0
171
     0
 49
0.0208333333333333
 49
0.0
 49
0.0
 49
0.0
 49
0.0
 49
0.0208333333333333
 49
0.0
 49
0.0
 49
0.0
 49
0.0
 49
1.0
 49
0.0
 49
0.0
 49
0.0
 49
0.0
 49
1.0
175
     0
142
0.0208333333333333
142
0.0
142
0.0
142
0.0
142
0.0
142
0.0208333333333333
142
0.0
142
0.0
142
0.0
142
0.0
142
1.0
142
0.0
142
0.0
142
0.0
142
0.0
142
1.0
179
     0
144
0.0208333333333333
144
0.0
144
0.0
144
0.0
144
0.0
144
0.0208333333333333
144
0.0
144
0.0
144
0.0
144
0.0
144
1.0
144
0.0
144
0.0
144
0.0
144
0.0
144
1.0
147
0.0208333333333333
147
0.0
147
0.0
147
0.0
147
0.0
147
0.0208333333333333
147
0.0
147
0.0
147
0.0
147
0.0
147
1.0
147
0.0
147
0.0
147
0.0
147
0.0
147
1.0
  0
MLEADERSTYLE
  5
1B65
102
{ACAD_REACTORS
330
2C4
102
}
330
2C4
100
AcDbMLeaderStyle
170
     2
171
     1
172
     0
 90
        2
 40
0.0
 41
0.0
173
     1
 91
-1056964608
340
14
 92
       -2
290
     1
 42
0.09
291
     1
 43
0.36
  3
Standard
 44
0.18
300

342
11
174
     1
178
     6
175
     1
176
     0
 93
-1056964608
 45
0.18
292
     0
297
     0
 46
0.18
 94
-1056964608
 47
1.0
 49
1.0
140
1.0
293
     1
141
0.0
294
     1
177
     0
142
1.0
295
     0
296
     0
143
0.125
1001
ACAD_MLEADERVER
1070
     2
  0
MLINESTYLE
  5
18
102
{ACAD_REACTORS
330
17
102
}
330
17
100
AcDbMlineStyle
  2
STANDARD
 70
     0
  3

 62
   256
 51
90.0
 52
90.0
 71
     2
 49
0.5
 62
   256
  6
BYLAYER
 49
-0.5
 62
   256
  6
BYLAYER
  0
PLOTSETTINGS
  5
1A1D
102
{ACAD_REACTORS
330
19
102
}
330
19
100
AcDbPlotSettings
  1
1055 24x36 BW
  2
1055B&WDraftShaded.pc3
  4
User257
  6

 40
14.98600006103515
 41
8.297271728515625
 42
14.9859619140625
 43
8.29736328125
 44
914.3153076171875
 45
1269.915283203125
 46
0.0
 47
0.0
 48
0.0
 49
0.0
140
0.0
141
0.0
142
1.0
143
1.0
 70
  2800
 72
     0
 73
     2
 74
     1
  7
Full_B&W.ctb
 75
    16
147
1.0
 76
     0
 77
     2
 78
   300
148
-75.74468520391772
149
-27.53050504688192
1001
ACAD_PSEXT
1000
1055B&WDraftShaded.pc3
1000
HP DesignJet 1055CM by HP
1000
FRONT
1000

1070
     0
  0
PLOTSETTINGS
  5
1A1E
102
{ACAD_REACTORS
330
19
102
}
330
19
100
AcDbPlotSettings
  1
1055 24x36 BW Final
  2
1055B&WFinalShaded.pc3
  4
User257
  6

 40
14.98600006103515
 41
8.297271728515625
 42
14.9859619140625
 43
8.29736328125
 44
914.357666015625
 45
1269.957641601562
 46
0.0
 47
0.0
 48
0.0
 49
0.0
140
0.0
141
0.0
142
1.0
143
1.0
 70
  2800
 72
     0
 73
     2
 74
     1
  7
Full_B&W.ctb
 75
    16
147
1.0
 76
     0
 77
     2
 78
   300
148
-75.74468520391772
149
-27.53050504688192
1001
ACAD_PSEXT
1000
1055B&WFinalShaded.pc3
1000
HP DesignJet 1055CM by HP
1000
FRONT
1000

1070
     0
  0
PLOTSETTINGS
  5
1A1F
102
{ACAD_REACTORS
330
19
102
}
330
19
100
AcDbPlotSettings
  1
1055 24x36 Color
  2
1055ColorDraftShaded.pc3
  4
User257
  6

 40
14.98600006103515
 41
8.297271728515625
 42
14.9859619140625
 43
8.29736328125
 44
914.3153076171875
 45
1269.915283203125
 46
0.0
 47
0.0
 48
0.0
 49
0.0
140
0.0
141
0.0
142
1.0
143
1.0
 70
  2800
 72
     0
 73
     2
 74
     1
  7
Color.ctb
 75
    16
147
1.0
 76
     0
 77
     2
 78
   300
148
-75.74468520391772
149
-27.53050504688192
1001
ACAD_PSEXT
1000
1055ColorDraftShaded.pc3
1000
HP DesignJet 1055CM by HP
1000
FRONT
1000

1070
     0
  0
PLOTSETTINGS
  5
1A20
102
{ACAD_REACTORS
330
19
102
}
330
19
100
AcDbPlotSettings
  1
1055 24x36 Color Shaded
  2
1055ColorDraftShaded.pc3
  4
User257
  6

 40
14.98600006103515
 41
8.297271728515625
 42
14.9859619140625
 43
8.29736328125
 44
914.3153076171875
 45
1269.915283203125
 46
0.0
 47
0.0
 48
0.0
 49
0.0
140
0.0
141
0.0
142
1.0
143
1.0
 70
  2800
 72
     0
 73
     2
 74
     1
  7
Full_Color.ctb
 75
    16
147
1.0
 76
     0
 77
     2
 78
   300
148
-75.74468520391772
149
-27.53050504688192
1001
ACAD_PSEXT
1000
1055ColorDraftShaded.pc3
1000
HP DesignJet 1055CM by HP
1000
FRONT
1000

1070
     0
  0
PLOTSETTINGS
  5
1A21
102
{ACAD_REACTORS
330
19
102
}
330
19
100
AcDbPlotSettings
  1
1055 30x42 BW
  2
1055B&WDraftShaded.pc3
  4
User257
  6

 40
14.98600006103515
 41
8.297271728515625
 42
14.9859619140625
 43
8.29736328125
 44
914.3153076171875
 45
1269.915283203125
 46
0.0
 47
0.0
 48
0.0
 49
0.0
140
0.0
141
0.0
142
1.0
143
1.0
 70
  2800
 72
     0
 73
     1
 74
     1
  7
Full_B&W.ctb
 75
    16
147
1.0
 76
     0
 77
     2
 78
   300
148
-75.74468520391772
149
-27.53050504688192
1001
ACAD_PSEXT
1000
1055B&WDraftShaded.pc3
1000
HP DesignJet 1055CM by HP
1000
FRONT
1000

1070
     0
  0
PLOTSETTINGS
  5
1A22
102
{ACAD_REACTORS
330
19
102
}
330
19
100
AcDbPlotSettings
  1
1055 30x42 BW Final
  2
1055B&WFinalShaded.pc3
  4
User257
  6

 40
14.98600006103515
 41
8.297271728515625
 42
14.9859619140625
 43
8.29736328125
 44
914.357666015625
 45
1269.957641601562
 46
0.0
 47
0.0
 48
0.0
 49
0.0
140
0.0
141
0.0
142
1.0
143
1.0
 70
  2800
 72
     0
 73
     1
 74
     1
  7
Full_B&W.ctb
 75
    16
147
1.0
 76
     0
 77
     2
 78
   300
148
-75.74468520391772
149
-27.53050504688192
1001
ACAD_PSEXT
1000
1055B&WFinalShaded.pc3
1000
HP DesignJet 1055CM by HP
1000
FRONT
1000

1070
     0
  0
PLOTSETTINGS
  5
1A23
102
{ACAD_REACTORS
330
19
102
}
330
19
100
AcDbPlotSettings
  1
1055 B&W Draft
  2
1055B&WDraftShaded.pc3
  4
User257
  6

 40
4.995333194732666
 41
8.297271728515625
 42
4.99530029296875
 43
8.29736328125
 44
914.3153076171875
 45
1269.915283203125
 46
0.0
 47
0.0
 48
0.0
 49
0.0
140
0.0
141
0.0
142
1.0
143
30.0
 70
 11936
 72
     0
 73
     2
 74
     1
  7
Full_B&W.ctb
 75
     0
147
3.484472351238056
 76
     0
 77
     2
 78
   300
148
-119.4582094169044
149
-58.17053554795709
1001
ACAD_PSEXT
1000
1055B&WDraftShaded.pc3
1000
HP DesignJet 1055CM by HP
1000
\\aqua-srv01
1000

1070
     0
  0
PLOTSETTINGS
  5
1A24
102
{ACAD_REACTORS
330
19
102
}
330
19
100
AcDbPlotSettings
  1
1055 B&W Final
  2
1055B&WFinalShaded.pc3
  4
User257
  6

 40
4.995333194732666
 41
8.297271728515625
 42
4.99530029296875
 43
8.29736328125
 44
914.357666015625
 45
1269.957641601562
 46
0.0
 47
0.0
 48
0.0
 49
0.0
140
0.0
141
0.0
142
1.0
143
30.0
 70
 11936
 72
     0
 73
     2
 74
     1
  7
Full_B&W.ctb
 75
     0
147
3.484472351238056
 76
     0
 77
     2
 78
   300
148
-119.4582094169044
149
-58.17053554795709
1001
ACAD_PSEXT
1000
1055B&WFinalShaded.pc3
1000
HP DesignJet 1055CM by HP
1000
\\aqua-srv01
1000

1070
     0
  0
PLOTSETTINGS
  5
1A25
102
{ACAD_REACTORS
330
19
102
}
330
19
100
AcDbPlotSettings
  1
1055 BW Half
  2
1055B&WDraftShaded.pc3
  4
User257
  6

 40
14.98600006103515
 41
8.297271728515625
 42
14.9859619140625
 43
8.29736328125
 44
914.3153076171875
 45
1269.915283203125
 46
0.0
 47
0.0
 48
0.0
 49
0.0
140
0.0
141
0.0
142
1.0
143
2.0
 70
  2800
 72
     0
 73
     2
 74
     1
  7
Full_B&W.ctb
 75
    17
147
0.5
 76
     0
 77
     2
 78
   300
148
-75.74468520391772
149
-27.53050504688192
1001
ACAD_PSEXT
1000
1055B&WDraftShaded.pc3
1000
HP DesignJet 1055CM by HP
1000
FRONT
1000

1070
     0
  0
PLOTSETTINGS
  5
1A26
102
{ACAD_REACTORS
330
19
102
}
330
19
100
AcDbPlotSettings
  1
1055 Color Draft
  2
1055ColorDraftShaded.pc3
  4
User257
  6

 40
4.995333194732666
 41
8.297271728515625
 42
4.99530029296875
 43
8.29736328125
 44
914.3153076171875
 45
1269.915283203125
 46
0.0
 47
0.0
 48
0.0
 49
0.0
140
0.0
141
0.0
142
1.0
143
30.0
 70
 11936
 72
     0
 73
     2
 74
     1
  7
Full_Color.ctb
 75
     0
147
3.484472351238056
 76
     0
 77
     2
 78
   300
148
-119.4582094169044
149
-58.17053554795709
1001
ACAD_PSEXT
1000
1055ColorDraftShaded.pc3
1000
HP DesignJet 1055CM by HP
1000
\\aqua-srv01
1000

1070
     0
  0
PLOTSETTINGS
  5
1A27
102
{ACAD_REACTORS
330
19
102
}
330
19
100
AcDbPlotSettings
  1
1055 Color Final
  2
1055ColorFinalShaded.pc3
  4
User257
  6

 40
4.995333194732666
 41
8.297271728515625
 42
4.99530029296875
 43
8.29736328125
 44
914.357666015625
 45
1269.957641601562
 46
0.0
 47
0.0
 48
0.0
 49
0.0
140
0.0
141
0.0
142
1.0
143
30.0
 70
 11936
 72
     0
 73
     2
 74
     1
  7
Full_Color.ctb
 75
     0
147
3.484472351238056
 76
     0
 77
     2
 78
   300
148
-119.4582094169044
149
-58.17053554795709
1001
ACAD_PSEXT
1000
1055ColorFinalShaded.pc3
1000
HP DesignJet 1055CM by HP
1000
\\aqua-srv01
1000

1070
     0
  0
PLOTSETTINGS
  5
1A28
102
{ACAD_REACTORS
330
19
102
}
330
19
100
AcDbPlotSettings
  1
1055+ 24x36 BW
  2
1055_PLUS_B&WDraftShaded.pc3
  4
User257
  6

 40
14.98600006103515
 41
8.297271728515625
 42
14.9859619140625
 43
8.29736328125
 44
914.3153076171875
 45
1269.915283203125
 46
0.0
 47
0.0
 48
0.0
 49
0.0
140
0.0
141
0.0
142
1.0
143
1.0
 70
  2800
 72
     0
 73
     2
 74
     1
  7
Full_B&W.ctb
 75
    16
147
1.0
 76
     0
 77
     2
 78
   300
148
-75.74468520391772
149
-27.53050504688192
1001
ACAD_PSEXT
1000
1055_PLUS_B&WDraftShaded.pc3
1000
HP DesignJet 1055CM by HP
1000
FRONT
1000

1070
     0
  0
PLOTSETTINGS
  5
1A29
102
{ACAD_REACTORS
330
19
102
}
330
19
100
AcDbPlotSettings
  1
1055+ 24x36 BW Final
  2
1055_PLUS_B&WFinalShaded.pc3
  4
User257
  6

 40
14.98600006103515
 41
8.297271728515625
 42
14.9859619140625
 43
8.29736328125
 44
914.357666015625
 45
1269.957641601562
 46
0.0
 47
0.0
 48
0.0
 49
0.0
140
0.0
141
0.0
142
1.0
143
1.0
 70
  2800
 72
     0
 73
     2
 74
     1
  7
Full_B&W.ctb
 75
    16
147
1.0
 76
     0
 77
     2
 78
   300
148
-75.74468520391772
149
-27.53050504688192
1001
ACAD_PSEXT
1000
1055_PLUS_B&WFinalShaded.pc3
1000
HP DesignJet 1055CM by HP
1000
FRONT
1000

1070
     0
  0
PLOTSETTINGS
  5
1A2A
102
{ACAD_REACTORS
330
19
102
}
330
19
100
AcDbPlotSettings
  1
1055+ 24x36 Color
  2
1055_PLUS_ColorDraftShaded.pc3
  4
User257
  6

 40
14.98600006103515
 41
8.297271728515625
 42
14.9859619140625
 43
8.29736328125
 44
914.3153076171875
 45
1269.915283203125
 46
0.0
 47
0.0
 48
0.0
 49
0.0
140
0.0
141
0.0
142
1.0
143
1.0
 70
  2800
 72
     0
 73
     2
 74
     1
  7
Color.ctb
 75
    16
147
1.0
 76
     0
 77
     2
 78
   300
148
-75.74468520391772
149
-27.53050504688192
1001
ACAD_PSEXT
1000
1055_PLUS_ColorDraftShaded.pc3
1000
HP DesignJet 1055CM by HP
1000
FRONT
1000

1070
     0
  0
PLOTSETTINGS
  5
1A2B
102
{ACAD_REACTORS
330
19
102
}
330
19
100
AcDbPlotSettings
  1
1055+ 24x36 Color Shaded
  2
1055_PLUS_ColorDraftShaded.pc3
  4
User257
  6

 40
14.98600006103515
 41
8.297271728515625
 42
14.9859619140625
 43
8.29736328125
 44
914.3153076171875
 45
1269.915283203125
 46
0.0
 47
0.0
 48
0.0
 49
0.0
140
0.0
141
0.0
142
1.0
143
1.0
 70
  2800
 72
     0
 73
     2
 74
     1
  7
Full_Color.ctb
 75
    16
147
1.0
 76
     0
 77
     2
 78
   300
148
-75.74468520391772
149
-27.53050504688192
1001
ACAD_PSEXT
1000
1055_PLUS_ColorDraftShaded.pc3
1000
HP DesignJet 1055CM by HP
1000
FRONT
1000

1070
     0
  0
PLOTSETTINGS
  5
1A2C
102
{ACAD_REACTORS
330
19
102
}
330
19
100
AcDbPlotSettings
  1
1055+ 30x42 BW
  2
1055_PLUS_B&WDraftShaded.pc3
  4
User257
  6

 40
14.98600006103515
 41
8.297271728515625
 42
14.9859619140625
 43
8.29736328125
 44
914.3153076171875
 45
1269.915283203125
 46
0.0
 47
0.0
 48
0.0
 49
0.0
140
0.0
141
0.0
142
1.0
143
1.0
 70
  2800
 72
     0
 73
     1
 74
     1
  7
Full_B&W.ctb
 75
    16
147
1.0
 76
     0
 77
     2
 78
   300
148
-75.74468520391772
149
-27.53050504688192
1001
ACAD_PSEXT
1000
1055_PLUS_B&WDraftShaded.pc3
1000
HP DesignJet 1055CM by HP
1000
FRONT
1000

1070
     0
  0
PLOTSETTINGS
  5
1A2D
102
{ACAD_REACTORS
330
19
102
}
330
19
100
AcDbPlotSettings
  1
1055+ 30x42 BW Final
  2
1055_PLUS_B&WFinalShaded.pc3
  4
User257
  6

 40
14.98600006103515
 41
8.297271728515625
 42
14.9859619140625
 43
8.29736328125
 44
914.357666015625
 45
1269.957641601562
 46
0.0
 47
0.0
 48
0.0
 49
0.0
140
0.0
141
0.0
142
1.0
143
1.0
 70
  2800
 72
     0
 73
     1
 74
     1
  7
Full_B&W.ctb
 75
    16
147
1.0
 76
     0
 77
     2
 78
   300
148
-75.74468520391772
149
-27.53050504688192
1001
ACAD_PSEXT
1000
1055_PLUS_B&WFinalShaded.pc3
1000
HP DesignJet 1055CM by HP
1000
FRONT
1000

1070
     0
  0
PLOTSETTINGS
  5
1A2E
102
{ACAD_REACTORS
330
19
102
}
330
19
100
AcDbPlotSettings
  1
1055+ B&W Draft
  2
1055_PLUS_B&WDraftShaded.pc3
  4
User257
  6

 40
4.995333194732666
 41
13.2926607131958
 42
4.99530029296875
 43
13.292724609375
 44
914.3153076171875
 45
1269.915283203125
 46
0.0
 47
0.0
 48
0.0
 49
0.0
140
0.0
141
0.0
142
1.0
143
30.0
 70
 11936
 72
     0
 73
     2
 74
     1
  7
Full_B&W.ctb
 75
     0
147
3.484472351238056
 76
     0
 77
     2
 78
   300
148
-119.4582094169044
149
-58.17053554795709
1001
ACAD_PSEXT
1000
1055_PLUS_B&WDraftShaded.pc3
1000
HP DesignJet 1055CM by HP
1000
\\aqua-srv01
1000

1070
     0
  0
PLOTSETTINGS
  5
1A2F
102
{ACAD_REACTORS
330
19
102
}
330
19
100
AcDbPlotSettings
  1
1055+ B&W Final
  2
1055_PLUS_B&WFinalShaded.pc3
  4
User257
  6

 40
4.995333194732666
 41
13.2926607131958
 42
4.99530029296875
 43
13.292724609375
 44
914.357666015625
 45
1269.957641601562
 46
0.0
 47
0.0
 48
0.0
 49
0.0
140
0.0
141
0.0
142
1.0
143
30.0
 70
 11936
 72
     0
 73
     2
 74
     1
  7
Full_B&W.ctb
 75
     0
147
3.484472351238056
 76
     0
 77
     2
 78
   300
148
-119.4582094169044
149
-58.17053554795709
1001
ACAD_PSEXT
1000
1055_PLUS_B&WFinalShaded.pc3
1000
HP DesignJet 1055CM by HP
1000
\\aqua-srv01
1000

1070
     0
  0
PLOTSETTINGS
  5
1A30
102
{ACAD_REACTORS
330
19
102
}
330
19
100
AcDbPlotSettings
  1
1055+ BW Half
  2
1055_PLUS_B&WDraftShaded.pc3
  4
User257
  6

 40
14.98600006103515
 41
8.297271728515625
 42
14.9859619140625
 43
8.29736328125
 44
914.3153076171875
 45
1269.915283203125
 46
0.0
 47
0.0
 48
0.0
 49
0.0
140
0.0
141
0.0
142
1.0
143
2.0
 70
  2800
 72
     0
 73
     2
 74
     1
  7
Full_B&W.ctb
 75
    17
147
0.5
 76
     0
 77
     2
 78
   300
148
-75.74468520391772
149
-27.53050504688192
1001
ACAD_PSEXT
1000
1055_PLUS_B&WDraftShaded.pc3
1000
HP DesignJet 1055CM by HP
1000
FRONT
1000

1070
     0
  0
PLOTSETTINGS
  5
1A31
102
{ACAD_REACTORS
330
19
102
}
330
19
100
AcDbPlotSettings
  1
1055+ Color Draft
  2
1055_PLUS_ColorDraftShaded.pc3
  4
User257
  6

 40
4.995333194732666
 41
8.297271728515625
 42
4.99530029296875
 43
8.29736328125
 44
914.3153076171875
 45
1269.915283203125
 46
0.0
 47
0.0
 48
0.0
 49
0.0
140
0.0
141
0.0
142
1.0
143
30.0
 70
 11936
 72
     0
 73
     2
 74
     1
  7
Full_Color.ctb
 75
     0
147
3.484472351238056
 76
     0
 77
     2
 78
   300
148
-119.4582094169044
149
-58.17053554795709
1001
ACAD_PSEXT
1000
1055_PLUS_ColorDraftShaded.pc3
1000
HP DesignJet 1055CM by HP
1000
\\aqua-srv01
1000

1070
     0
  0
PLOTSETTINGS
  5
1A32
102
{ACAD_REACTORS
330
19
102
}
330
19
100
AcDbPlotSettings
  1
1055+ Color Final
  2
1055_PLUS_ColorFinalShaded.pc3
  4
User257
  6

 40
4.995333194732666
 41
13.2926607131958
 42
4.99530029296875
 43
13.292724609375
 44
914.357666015625
 45
1269.957641601562
 46
0.0
 47
0.0
 48
0.0
 49
0.0
140
0.0
141
0.0
142
1.0
143
30.0
 70
 11936
 72
     0
 73
     2
 74
     1
  7
Full_Color.ctb
 75
     0
147
3.484472351238056
 76
     0
 77
     2
 78
   300
148
-119.4582094169044
149
-58.17053554795709
1001
ACAD_PSEXT
1000
1055_PLUS_ColorFinalShaded.pc3
1000
HP DesignJet 1055CM by HP
1000
\\aqua-srv01
1000

1070
     0
  0
PLOTSETTINGS
  5
1A33
102
{ACAD_REACTORS
330
19
102
}
330
19
100
AcDbPlotSettings
  1
_1055 22x34 True Centered BW
  2
1055B&WDraftShaded 24x36 true.pc3
  4
User1639
  6

 40
0.0
 41
0.0
 42
0.0
 43
0.0
 44
863.6000366210938
 45
558.7999877929687
 46
379.1860116761152
 47
224.9166389522296
 48
0.0
 49
0.0
140
0.0
141
0.0
142
1.0
143
1.0
 70
  2804
 72
     0
 73
     0
 74
     1
  7
Full_B&W.ctb
 75
    16
147
1.0
 76
     0
 77
     2
 78
   300
148
-75.74468520391772
149
-27.53050504688192
1001
ACAD_PSEXT
1000
1055B&WDraftShaded 24x36 true.pc3
1000
HP DesignJet 1055CM by HP
1000
FRONT
1000

1070
     0
  0
PLOTSETTINGS
  5
1A34
102
{ACAD_REACTORS
330
19
102
}
330
19
100
AcDbPlotSettings
  1
_1055 24x36 True Centered BW
  2
1055B&WDraftShaded 24x36 true.pc3
  4
User1308
  6

 40
14.98600006103515
 41
8.297332763671875
 42
14.9859619140625
 43
8.29736328125
 44
914.3153076171875
 45
609.5153198242187
 46
389.5576661866133
 47
241.9769569453936
 48
0.0
 49
0.0
140
0.0
141
0.0
142
1.0
143
1.0
 70
  2804
 72
     0
 73
     0
 74
     1
  7
Full_B&W.ctb
 75
    16
147
1.0
 76
     0
 77
     2
 78
   300
148
-75.74468520391772
149
-27.53050504688192
1001
ACAD_PSEXT
1000
1055B&WDraftShaded 24x36 true.pc3
1000
HP DesignJet 1055CM by HP
1000
FRONT
1000

1070
     0
  0
PLOTSETTINGS
  5
1A35
102
{ACAD_REACTORS
330
19
102
}
330
19
100
AcDbPlotSettings
  1
_1055 24x36 True Centered BW Final
  2
1055B&WFinalShaded 24x36 true.pc3
  4
User1308
  6

 40
14.98600006103515
 41
8.297332763671875
 42
14.9859619140625
 43
8.29736328125
 44
914.357666015625
 45
609.5576782226562
 46
389.578845385832
 47
241.9981361446124
 48
0.0
 49
0.0
140
0.0
141
0.0
142
1.0
143
1.0
 70
  2804
 72
     0
 73
     0
 74
     1
  7
Full_B&W.ctb
 75
    16
147
1.0
 76
     0
 77
     2
 78
   300
148
-75.74468520391772
149
-27.53050504688192
1001
ACAD_PSEXT
1000
1055B&WFinalShaded 24x36 true.pc3
1000
HP DesignJet 1055CM by HP
1000
FRONT
1000

1070
     0
  0
PLOTSETTINGS
  5
1A36
102
{ACAD_REACTORS
330
19
102
}
330
19
100
AcDbPlotSettings
  1
_1055 24x36 True Centered Color
  2
1055ColorDraftShaded 24x36 true.pc3
  4
User1308
  6

 40
14.98600006103515
 41
8.297332763671875
 42
14.9859619140625
 43
8.29736328125
 44
914.3153076171875
 45
609.5153198242187
 46
389.5576661866133
 47
241.9769569453936
 48
0.0
 49
0.0
140
0.0
141
0.0
142
1.0
143
1.0
 70
  2804
 72
     0
 73
     0
 74
     1
  7
Full_Color.ctb
 75
    16
147
1.0
 76
     0
 77
     2
 78
   300
148
-75.74468520391772
149
-27.53050504688192
1001
ACAD_PSEXT
1000
1055ColorDraftShaded 24x36 true.pc3
1000
HP DesignJet 1055CM by HP
1000
FRONT
1000

1070
     0
  0
PLOTSETTINGS
  5
1A37
102
{ACAD_REACTORS
330
19
102
}
330
19
100
AcDbPlotSettings
  1
_1055 30x42 True Centered BW
  2
1055B&WDraftShaded 30x42 true.pc3
  4
User286
  6

 40
0.0
 41
0.0
 42
-0.08465576171875
 43
-0.084716796875
 44
761.9153442382812
 45
1066.71533203125
 46
326.5166450557452
 47
480.7860177796309
 48
0.0
 49
0.0
140
0.0
141
0.0
142
1.0
143
1.0
 70
  2804
 72
     0
 73
     1
 74
     1
  7
Full_B&W.ctb
 75
    16
147
1.0
 76
     0
 77
     2
 78
   300
148
-75.74468520391772
149
-27.53050504688192
1001
ACAD_PSEXT
1000
1055B&WDraftShaded 30x42 true.pc3
1000
HP DesignJet 1055CM by HP
1000
FRONT
1000

1070
     0
  0
PLOTSETTINGS
  5
1A38
102
{ACAD_REACTORS
330
19
102
}
330
19
100
AcDbPlotSettings
  1
_1055+ 22x34 True Centered BW
  2
1055_PLUS_B&WDraftShaded 24x36 true.pc3
  4
User1639
  6

 40
0.0
 41
0.0
 42
0.0
 43
0.0
 44
863.6000366210938
 45
558.7999877929687
 46
379.1860116761152
 47
224.9166389522296
 48
0.0
 49
0.0
140
0.0
141
0.0
142
1.0
143
1.0
 70
  2804
 72
     0
 73
     0
 74
     1
  7
Full_B&W.ctb
 75
    16
147
1.0
 76
     0
 77
     2
 78
   300
148
-75.74468520391772
149
-27.53050504688192
1001
ACAD_PSEXT
1000
1055_PLUS_B&WDraftShaded 24x36 true.pc3
1000
HP DesignJet 1055CM by HP
1000
FRONT
1000

1070
     0
  0
PLOTSETTINGS
  5
1A39
102
{ACAD_REACTORS
330
19
102
}
330
19
100
AcDbPlotSettings
  1
_1055+ 24x36 True Centered BW
  2
1055_PLUS_B&WDraftShaded 24x36 true.pc3
  4
User1308
  6

 40
14.98600006103515
 41
8.297332763671875
 42
14.9859619140625
 43
8.29736328125
 44
914.3153076171875
 45
609.5153198242187
 46
389.5576661866133
 47
241.9769569453936
 48
0.0
 49
0.0
140
0.0
141
0.0
142
1.0
143
1.0
 70
  2804
 72
     0
 73
     0
 74
     1
  7
Full_B&W.ctb
 75
    16
147
1.0
 76
     0
 77
     2
 78
   300
148
-75.74468520391772
149
-27.53050504688192
1001
ACAD_PSEXT
1000
1055_PLUS_B&WDraftShaded 24x36 true.pc3
1000
HP DesignJet 1055CM by HP
1000
FRONT
1000

1070
     0
  0
PLOTSETTINGS
  5
1A3A
102
{ACAD_REACTORS
330
19
102
}
330
19
100
AcDbPlotSettings
  1
_1055+ 24x36 True Centered BW Final
  2
1055_PLUS_B&WFinalShaded 24x36 true.pc3
  4
User1308
  6

 40
14.98600006103515
 41
8.297332763671875
 42
14.9859619140625
 43
8.29736328125
 44
914.357666015625
 45
609.5576782226562
 46
389.578845385832
 47
241.9981361446124
 48
0.0
 49
0.0
140
0.0
141
0.0
142
1.0
143
1.0
 70
  2804
 72
     0
 73
     0
 74
     1
  7
Full_B&W.ctb
 75
    16
147
1.0
 76
     0
 77
     2
 78
   300
148
-75.74468520391772
149
-27.53050504688192
1001
ACAD_PSEXT
1000
1055_PLUS_B&WFinalShaded 24x36 true.pc3
1000
HP DesignJet 1055CM by HP
1000
FRONT
1000

1070
     0
  0
PLOTSETTINGS
  5
1A3B
102
{ACAD_REACTORS
330
19
102
}
330
19
100
AcDbPlotSettings
  1
_1055+ 24x36 True Centered Color
  2
1055_PLUS_ColorDraftShaded 24x36 true.pc3
  4
User1308
  6

 40
14.98600006103515
 41
8.297332763671875
 42
14.9859619140625
 43
8.29736328125
 44
914.3153076171875
 45
609.5153198242187
 46
389.5576661866133
 47
241.9769569453936
 48
0.0
 49
0.0
140
0.0
141
0.0
142
1.0
143
1.0
 70
  2804
 72
     0
 73
     0
 74
     1
  7
Full_Color.ctb
 75
    16
147
1.0
 76
     0
 77
     2
 78
   300
148
-75.74468520391772
149
-27.53050504688192
1001
ACAD_PSEXT
1000
1055_PLUS_ColorDraftShaded 24x36 true.pc3
1000
HP DesignJet 1055CM by HP
1000
FRONT
1000

1070
     0
  0
PLOTSETTINGS
  5
1A3C
102
{ACAD_REACTORS
330
19
102
}
330
19
100
AcDbPlotSettings
  1
_1055+ 30x42 True Centered BW
  2
1055_PLUS_B&WDraftShaded 30x42 true.pc3
  4
User636
  6

 40
0.0
 41
0.0
 42
0.0
 43
0.0
 44
762.0
 45
1066.800048828125
 46
326.5166450557452
 47
480.7860177796309
 48
0.0
 49
0.0
140
0.0
141
0.0
142
1.0
143
1.0
 70
  2804
 72
     0
 73
     1
 74
     1
  7
Full_B&W.ctb
 75
    16
147
1.0
 76
     0
 77
     2
 78
   300
148
-75.74468520391772
149
-27.53050504688192
1001
ACAD_PSEXT
1000
1055_PLUS_B&WDraftShaded 30x42 true.pc3
1000
HP DesignJet 1055CM by HP
1000
Front
1000

1070
     0
  0
PLOTSETTINGS
  5
1A3D
102
{ACAD_REACTORS
330
19
102
}
330
19
100
AcDbPlotSettings
  1
DWF BW 11x17 Fit
  2
DWF-BW_11x17.pc3
  4
UserDefinedImperial (17.00 x 11.00Inches)
  6

 40
0.0
 41
0.0
 42
0.0
 43
0.0
 44
431.7999877929687
 45
279.3999938964844
 46
80.99316641155249
 47
0.000000000000005
 48
0.0
 49
0.0
140
0.0
141
0.0
142
1.0
143
0.3900025492802298
 70
  2740
 72
     0
 73
     0
 74
     1
  7
Full_B&W.ctb
 75
     0
147
2.564085803658341
 76
     0
 77
     2
 78
   300
148
-75.74468520391772
149
-27.53050504688192
1001
ACAD_PSEXT
1000
DWF-BW_11x17.pc3
1000
DWF eView (optimized for viewing)
1000
File
1000

1070
     0
  0
PLOTSETTINGS
  5
1A3E
102
{ACAD_REACTORS
330
19
102
}
330
19
100
AcDbPlotSettings
  1
DWF BW 11x17 Half
  2
DWF-BW_11x17.pc3
  4
UserDefinedImperial (17.00 x 11.00Inches)
  6

 40
0.0
 41
0.0
 42
0.0
 43
0.0
 44
431.7999877929687
 45
279.3999938964844
 46
189.5929905792686
 47
112.4583194761148
 48
0.0
 49
0.0
140
0.0
141
0.0
142
1.0
143
2.0
 70
  2740
 72
     0
 73
     0
 74
     1
  7
Full_B&W.ctb
 75
    17
147
0.5
 76
     0
 77
     2
 78
   300
148
-75.74468520391772
149
-27.53050504688192
1001
ACAD_PSEXT
1000
DWF-BW_11x17.pc3
1000
DWF eView (optimized for viewing)
1000
File
1000

1070
     0
  0
PLOTSETTINGS
  5
1A3F
102
{ACAD_REACTORS
330
19
102
}
330
19
100
AcDbPlotSettings
  1
DWF BW 22x34
  2
DWF-BW_22x34.pc3
  4
UserDefinedImperial (34.00 x 22.00Inches)
  6

 40
0.0
 41
0.0
 42
0.0
 43
0.0
 44
863.5999755859375
 45
558.7999877929687
 46
379.1859811585372
 47
224.9166389522296
 48
0.0
 49
0.0
140
0.0
141
0.0
142
1.0
143
1.0
 70
  2740
 72
     0
 73
     0
 74
     1
  7
Full_B&W.ctb
 75
    16
147
1.0
 76
     0
 77
     2
 78
   300
148
-75.74468520391772
149
-27.53050504688192
1001
ACAD_PSEXT
1000
DWF-BW_22x34.pc3
1000
DWF eView (optimized for viewing)
1000
File
1000

1070
     0
  0
PLOTSETTINGS
  5
1A40
102
{ACAD_REACTORS
330
19
102
}
330
19
100
AcDbPlotSettings
  1
DWF BW 24x36
  2
DWF-BW_24x36.pc3
  4
UserDefinedImperial (36.00 x 24.00Inches)
  6

 40
0.0
 41
0.0
 42
0.0
 43
0.0
 44
914.4000244140626
 45
609.5999755859375
 46
404.5860055725996
 47
250.3166328487139
 48
0.0
 49
0.0
140
0.0
141
0.0
142
1.0
143
1.0
 70
  2740
 72
     0
 73
     0
 74
     1
  7
Full_B&W.ctb
 75
    16
147
1.0
 76
     0
 77
     2
 78
   300
148
-75.74468520391772
149
-27.53050504688192
1001
ACAD_PSEXT
1000
DWF-BW_24x36.pc3
1000
DWF eView (optimized for viewing)
1000
File
1000

1070
     0
  0
PLOTSETTINGS
  5
1A41
102
{ACAD_REACTORS
330
19
102
}
330
19
100
AcDbPlotSettings
  1
DWF BW 30x42
  2
DWF-BW_30x42.pc3
  4
UserDefinedImperial (42.00 x 30.00Inches)
  6

 40
0.0
 41
0.0
 42
0.0
 43
0.0
 44
1066.800048828125
 45
762.0
 46
480.7860177796309
 47
326.5166450557452
 48
0.0
 49
0.0
140
0.0
141
0.0
142
1.0
143
1.0
 70
  2740
 72
     0
 73
     0
 74
     1
  7
Full_B&W.ctb
 75
    16
147
1.0
 76
     0
 77
     2
 78
   300
148
-75.74468520391772
149
-27.53050504688192
1001
ACAD_PSEXT
1000
DWF-BW_30x42.pc3
1000
DWF eView (optimized for viewing)
1000
File
1000

1070
     0
  0
PLOTSETTINGS
  5
1A42
102
{ACAD_REACTORS
330
19
102
}
330
19
100
AcDbPlotSettings
  1
DWF BW 36x48
  2
DWF-BW_36x48.pc3
  4
UserDefinedImperial (48.00 x 36.00Inches)
  6

 40
0.0
 41
0.0
 42
0.0
 43
0.0
 44
1219.199951171875
 45
914.4000244140626
 46
556.9859689515058
 47
402.7166572627765
 48
0.0
 49
0.0
140
0.0
141
0.0
142
1.0
143
1.0
 70
  2740
 72
     0
 73
     0
 74
     1
  7
Full_B&W.ctb
 75
    16
147
1.0
 76
     0
 77
     2
 78
   300
148
-75.74468520391772
149
-27.53050504688192
1001
ACAD_PSEXT
1000
DWF-BW_36x48.pc3
1000
DWF eView (optimized for viewing)
1000
File
1000

1070
     0
  0
PLOTSETTINGS
  5
1A43
102
{ACAD_REACTORS
330
19
102
}
330
19
100
AcDbPlotSettings
  1
JPEG
  2
JPEG.pc3
  4
UserDefinedRaster (1920.00 x 1080.00Pixels)
  6

 40
0.0
 41
0.0
 42
1.0
 43
1.0
 44
1920.0
 45
1080.0
 46
406.3806477588332
 47
0.0000000000000059
 48
0.0
 49
0.0
140
0.0
141
0.0
142
1.0
143
0.0034364301827912
 70
 11956
 72
     2
 73
     0
 74
     1
  7
Full_B&W.ctb
 75
     0
147
290.9996556914617
 76
     0
 77
     2
 78
   300
148
-4.70307911090175
149
-2.2901785648802
1001
ACAD_PSEXT
1000
JPEG.pc3
1000
Independent JPEG Group JFIF (JPEG Compression)
1000
File
1000

1070
     0
  0
PLOTSETTINGS
  5
1A44
102
{ACAD_REACTORS
330
19
102
}
330
19
100
AcDbPlotSettings
  1
Laser5 11x17 Fit
  2
LaserJet5Shaded.pc3
  4
11x17
  6

 40
5.873749732971191
 41
5.027085304260253
 42
5.873748779296875
 43
5.027069091796875
 44
431.7999877929687
 45
279.3999938964844
 46
79.97401308328474
 47
0.0
 48
0.0
 49
0.0
140
0.0
141
0.0
142
1.0
143
0.4045605831172927
 70
  2740
 72
     0
 73
     0
 74
     1
  7
LaserJet5Shaded.ctb
 75
     0
147
2.471817675104729
 76
     0
 77
     2
 78
   300
148
-75.74468520391772
149
-27.53050504688192
1001
ACAD_PSEXT
1000
LaserJet5Shaded.pc3
1000
HP LaserJet 5Si
1000
\\aqua-srv01
1000

1070
     0
  0
PLOTSETTINGS
  5
1A45
102
{ACAD_REACTORS
330
19
102
}
330
19
100
AcDbPlotSettings
  1
Laser5 11x17 Full
  2
LaserJet5Shaded.pc3
  4
11x17
  6

 40
5.873749732971191
 41
5.027085304260253
 42
5.873748779296875
 43
5.027069091796875
 44
431.7999877929687
 45
279.3999938964844
 46
157.4122380059187
 47
80.18956480595884
 48
0.0
 49
0.0
140
0.0
141
0.0
142
1.0
143
1.0
 70
  2724
 72
     0
 73
     0
 74
     1
  7
LaserJet5Shaded.ctb
 75
     0
147
2.433550528115671
 76
     0
 77
     2
 78
   300
148
-75.74468520391772
149
-27.53050504688192
1001
ACAD_PSEXT
1000
LaserJet5Shaded.pc3
1000
HP LaserJet 5Si
1000
\\aqua-srv01
1000

1070
     0
  0
PLOTSETTINGS
  5
1A46
102
{ACAD_REACTORS
330
19
102
}
330
19
100
AcDbPlotSettings
  1
Laser5 11x17 Half
  2
LaserJet5Shaded.pc3
  4
11x17
  6

 40
5.873749732971191
 41
5.027085304260253
 42
5.873748779296875
 43
5.027069091796875
 44
431.7999877929687
 45
279.3999938964844
 46
183.7192413231345
 47
107.4312422780862
 48
0.0
 49
0.0
140
0.0
141
0.0
142
1.0
143
2.0
 70
  2740
 72
     0
 73
     0
 74
     1
  7
LaserJet5Shaded.ctb
 75
    17
147
0.5
 76
     0
 77
     2
 78
   300
148
-75.74468520391772
149
-27.53050504688192
1001
ACAD_PSEXT
1000
LaserJet5Shaded.pc3
1000
HP LaserJet 5Si
1000
\\aqua-srv01
1000

1070
     0
  0
PLOTSETTINGS
  5
1A47
102
{ACAD_REACTORS
330
19
102
}
330
19
100
AcDbPlotSettings
  1
Laser5 8x11 Fit
  2
LaserJet5Shaded-8x11.pc3
  4
Letter
  6

 40
5.873749732971191
 41
5.027085304260253
 42
5.873748779296875
 43
5.027084350585937
 44
279.3999938964844
 45
215.8999938964844
 46
34.4346667826652
 47
0.0
 48
0.0
 49
0.0
140
0.0
141
0.0
142
1.0
143
0.5293607985003172
 70
  2740
 72
     0
 73
     0
 74
     1
  7
LaserJet5Shaded.ctb
 75
     0
147
1.889070748784206
 76
     0
 77
     2
 78
   300
148
-75.74468520391772
149
-27.53050504688192
1001
ACAD_PSEXT
1000
LaserJet5Shaded-8x11.pc3
1000
HP LaserJet 5Si
1000
\\aqua-srv01
1000

1070
     0
  0
PLOTSETTINGS
  5
1A48
102
{ACAD_REACTORS
330
19
102
}
330
19
100
AcDbPlotSettings
  1
Laser5 8x11 Half
  2
LaserJet5Shaded-8x11.pc3
  4
Letter
  6

 40
5.873749732971191
 41
5.027085304260253
 42
5.873748779296875
 43
5.027084350585937
 44
279.3999938964844
 45
215.8999938964844
 46
107.5192443748923
 47
75.68123464869171
 48
0.0
 49
0.0
140
0.0
141
0.0
142
1.0
143
2.0
 70
  2740
 72
     0
 73
     0
 74
     1
  7
LaserJet5Shaded.ctb
 75
    17
147
0.5
 76
     0
 77
     2
 78
   300
148
-75.74468520391772
149
-27.53050504688192
1001
ACAD_PSEXT
1000
LaserJet5Shaded-8x11.pc3
1000
HP LaserJet 5Si
1000
\\aqua-srv01
1000

1070
     0
  0
PLOTSETTINGS
  5
1A49
102
{ACAD_REACTORS
330
19
102
}
330
19
100
AcDbPlotSettings
  1
Laser5 8x11 Portrait Fit
  2
LaserJet5Shaded-8x11.pc3
  4
Letter
  6

 40
5.873749732971191
 41
5.027085304260253
 42
5.873748779296875
 43
5.027084350585937
 44
279.3999938964844
 45
215.8999938964844
 46
27.24653799736659
 47
0.0000000000000029
 48
0.0
 49
0.0
140
0.0
141
0.0
142
1.0
143
0.5111981924167587
 70
  2740
 72
     0
 73
     1
 74
     1
  7
LaserJet5Shaded.ctb
 75
     0
147
1.956188450652308
 76
     0
 77
     2
 78
   300
148
-75.74468520391772
149
-27.53050504688192
1001
ACAD_PSEXT
1000
LaserJet5Shaded-8x11.pc3
1000
HP LaserJet 5Si
1000
\\aqua-srv01
1000

1070
     0
  0
PLOTSETTINGS
  5
1A4A
102
{ACAD_REACTORS
330
19
102
}
330
19
100
AcDbPlotSettings
  1
LaserJet5 11x17
  2
LaserJet5Shaded.pc3
  4
11x17
  6

 40
7.111999988555908
 41
5.079999923706054
 42
7.11199951171875
 43
5.079986572265625
 44
279.3999938964844
 45
431.7999877929687
 46
0.0
 47
74.88489939702606
 48
0.0
 49
0.0
140
0.0
141
0.0
142
1.0
143
0.3551636250563743
 70
 11956
 72
     0
 73
     1
 74
     1
  7
LaserJet5Shaded.ctb
 75
     0
147
2.815603652658045
 76
     0
 77
     2
 78
   300
148
-119.4582094169044
149
-58.17053554795709
1001
ACAD_PSEXT
1000
LaserJet5Shaded.pc3
1000
HP LaserJet 5Si
1000
\\aqua-srv01
1000

1070
     0
  0
PLOTSETTINGS
  5
1A4B
102
{ACAD_REACTORS
330
19
102
}
330
19
100
AcDbPlotSettings
  1
LaserJet5 8.5x11
  2
LaserJet5Shaded-8x11.pc3
  4
Letter
  6

 40
5.873749732971191
 41
5.873734951019287
 42
6.55108642578125
 43
5.027084350585937
 44
279.3999938964844
 45
215.8999938964844
 46
28.40045128601757
 47
0.0000000000000046
 48
0.0
 49
0.0
140
0.0
141
0.0
142
1.0
143
0.4594207153946231
 70
 11956
 72
     0
 73
     0
 74
     1
  7
LaserJet5Shaded.ctb
 75
     0
147
2.176654135286525
 76
     0
 77
     2
 78
   300
148
-119.4582094169044
149
-58.17053554795709
1001
ACAD_PSEXT
1000
LaserJet5Shaded-8x11.pc3
1000
HP LaserJet 5Si
1000
CAD Area
1000

1070
     0
  0
PLOTSETTINGS
  5
1A4C
102
{ACAD_REACTORS
330
19
102
}
330
19
100
AcDbPlotSettings
  1
Oki9500 11x17 BW Fit
  2
OKI DOKI Color Laser.pc3
  4
Tabloid
  6

 40
5.027083396911621
 41
5.027085304260253
 42
5.027099609375
 43
5.027069091796875
 44
431.7999877929687
 45
279.3999938964844
 46
80.82067083627547
 47
0.0
 48
0.0
 49
0.0
140
0.0
141
0.0
142
1.0
143
0.4045605831172927
 70
  2740
 72
     0
 73
     0
 74
     1
  7
OKIB&WShaded.ctb
 75
     0
147
2.471817675104729
 76
     0
 77
     2
 78
   300
148
-75.74468520391772
149
-27.53050504688192
1001
ACAD_PSEXT
1000
OKI DOKI Color Laser.pc3
1000
OKI C9500(PCL)
1000
FRONT
1000

1070
     0
  0
PLOTSETTINGS
  5
1A4D
102
{ACAD_REACTORS
330
19
102
}
330
19
100
AcDbPlotSettings
  1
Oki9500 11x17 BW Full
  2
OKI DOKI Color Laser.pc3
  4
Tabloid
  6

 40
5.027083396911621
 41
5.027085304260253
 42
5.027099609375
 43
5.027069091796875
 44
431.7999877929687
 45
279.3999938964844
 46
158.2588957589094
 47
80.18956480595884
 48
0.0
 49
0.0
140
0.0
141
0.0
142
1.0
143
1.0
 70
  2724
 72
     0
 73
     0
 74
     1
  7
OKIB&WShaded.ctb
 75
     0
147
2.471817675104729
 76
     0
 77
     2
 78
   300
148
-75.74468520391772
149
-27.53050504688192
1001
ACAD_PSEXT
1000
OKI DOKI Color Laser.pc3
1000
OKI C9500(PCL)
1000
FRONT
1000

1070
     0
  0
PLOTSETTINGS
  5
1A4E
102
{ACAD_REACTORS
330
19
102
}
330
19
100
AcDbPlotSettings
  1
Oki9500 11x17 BW Half
  2
OKI DOKI Color Laser.pc3
  4
Tabloid
  6

 40
5.027083396911621
 41
5.027085304260253
 42
5.027099609375
 43
5.027069091796875
 44
431.7999877929687
 45
279.3999938964844
 46
184.5658990761252
 47
107.4312422780862
 48
0.0
 49
0.0
140
0.0
141
0.0
142
1.0
143
2.0
 70
  2740
 72
     0
 73
     0
 74
     1
  7
OKIB&WShaded.ctb
 75
    17
147
0.5
 76
     0
 77
     2
 78
   300
148
-75.74468520391772
149
-27.53050504688192
1001
ACAD_PSEXT
1000
OKI DOKI Color Laser.pc3
1000
OKI C9500(PCL)
1000
FRONT
1000

1070
     0
  0
PLOTSETTINGS
  5
1A4F
102
{ACAD_REACTORS
330
19
102
}
330
19
100
AcDbPlotSettings
  1
Oki9500 11x17 Color Fit
  2
OKI DOKI Color Laser.pc3
  4
Tabloid
  6

 40
5.027083396911621
 41
5.027085304260253
 42
5.027099609375
 43
5.027069091796875
 44
431.7999877929687
 45
279.3999938964844
 46
80.82067083627547
 47
0.0
 48
0.0
 49
0.0
140
0.0
141
0.0
142
1.0
143
0.4045605831172927
 70
  2740
 72
     0
 73
     0
 74
     1
  7
OKIColorShaded.ctb
 75
     0
147
2.471817675104729
 76
     0
 77
     2
 78
   300
148
-75.74468520391772
149
-27.53050504688192
1001
ACAD_PSEXT
1000
OKI DOKI Color Laser.pc3
1000
OKI C9500(PCL)
1000
FRONT
1000

1070
     0
  0
PLOTSETTINGS
  5
1A50
102
{ACAD_REACTORS
330
19
102
}
330
19
100
AcDbPlotSettings
  1
Oki9500 11x17 Color Full
  2
OKI DOKI Color Laser.pc3
  4
Tabloid
  6

 40
5.027082920074462
 41
5.027085781097412
 42
5.027099609375
 43
5.027069091796875
 44
431.7999877929687
 45
279.3999938964844
 46
158.258895997328
 47
80.18956456754025
 48
0.0
 49
0.0
140
0.0
141
0.0
142
1.0
143
1.0
 70
  2724
 72
     0
 73
     0
 74
     1
  7
OKIColorShaded.ctb
 75
     0
147
2.471817675104729
 76
     0
 77
     2
 78
   300
148
-75.74468520391772
149
-27.53050504688192
1001
ACAD_PSEXT
1000
OKI DOKI Color Laser.pc3
1000
OKI C9600(PCL)
1000
FRONT
1000

1070
     0
  0
PLOTSETTINGS
  5
1A51
102
{ACAD_REACTORS
330
19
102
}
330
19
100
AcDbPlotSettings
  1
Oki9500 11x17 Color Half
  2
OKI DOKI Color Laser.pc3
  4
Tabloid
  6

 40
5.027083396911621
 41
5.027085304260253
 42
5.027099609375
 43
5.027069091796875
 44
431.7999877929687
 45
279.3999938964844
 46
184.5658990761252
 47
107.4312422780862
 48
0.0
 49
0.0
140
0.0
141
0.0
142
1.0
143
2.0
 70
  2740
 72
     0
 73
     0
 74
     1
  7
OKIColorShaded.ctb
 75
    17
147
0.5
 76
     0
 77
     2
 78
   300
148
-75.74468520391772
149
-27.53050504688192
1001
ACAD_PSEXT
1000
OKI DOKI Color Laser.pc3
1000
OKI C9500(PCL)
1000
FRONT
1000

1070
     0
  0
PLOTSETTINGS
  5
1A52
102
{ACAD_REACTORS
330
19
102
}
330
19
100
AcDbPlotSettings
  1
Oki9500 8x11 BW Fit
  2
OKI DOKI Color Laser8x11.pc3
  4
Letter
  6

 40
5.027083396911621
 41
5.027085304260253
 42
5.027099609375
 43
5.027084350585937
 44
279.3999938964844
 45
215.8999938964844
 46
35.28132453565591
 47
0.0
 48
0.0
 49
0.0
140
0.0
141
0.0
142
1.0
143
0.5293607985003172
 70
  2740
 72
     0
 73
     0
 74
     1
  7
OKIB&WShaded.ctb
 75
     0
147
1.889070748784206
 76
     0
 77
     2
 78
   300
148
-75.74468520391772
149
-27.53050504688192
1001
ACAD_PSEXT
1000
OKI DOKI Color Laser8x11.pc3
1000
OKI C9500(PCL)
1000
FRONT
1000

1070
     0
  0
PLOTSETTINGS
  5
1A53
102
{ACAD_REACTORS
330
19
102
}
330
19
100
AcDbPlotSettings
  1
Oki9500 8x11 BW Portrait Fit
  2
OKI DOKI Color Laser8x11.pc3
  4
Letter
  6

 40
5.027083396911621
 41
5.027085304260253
 42
5.027099609375
 43
5.027084350585937
 44
279.3999938964844
 45
215.8999938964844
 46
28.0931957503573
 47
0.0000000000000029
 48
0.0
 49
0.0
140
0.0
141
0.0
142
1.0
143
0.5111981924167587
 70
  2740
 72
     0
 73
     1
 74
     1
  7
OKIB&WShaded.ctb
 75
     0
147
1.956188450652308
 76
     0
 77
     2
 78
   300
148
-75.74468520391772
149
-27.53050504688192
1001
ACAD_PSEXT
1000
OKI DOKI Color Laser8x11.pc3
1000
OKI C9500(PCL)
1000
FRONT
1000

1070
     0
  0
PLOTSETTINGS
  5
1A54
102
{ACAD_REACTORS
330
19
102
}
330
19
100
AcDbPlotSettings
  1
Oki9500 8x11 Color Fit
  2
OKI DOKI Color Laser8x11.pc3
  4
Letter
  6

 40
5.027083396911621
 41
5.027085304260253
 42
5.027099609375
 43
5.027084350585937
 44
279.3999938964844
 45
215.8999938964844
 46
35.28132453565591
 47
0.0
 48
0.0
 49
0.0
140
0.0
141
0.0
142
1.0
143
0.5293607985003172
 70
  2740
 72
     0
 73
     0
 74
     1
  7
OKIColorShaded.ctb
 75
     0
147
1.889070748784206
 76
     0
 77
     2
 78
   300
148
-75.74468520391772
149
-27.53050504688192
1001
ACAD_PSEXT
1000
OKI DOKI Color Laser8x11.pc3
1000
OKI C9500(PCL)
1000
FRONT
1000

1070
     0
  0
PLOTSETTINGS
  5
1A55
102
{ACAD_REACTORS
330
19
102
}
330
19
100
AcDbPlotSettings
  1
Oki9500 8x11 Color Portrait Fit
  2
OKI DOKI Color Laser8x11.pc3
  4
Letter
  6

 40
5.027083396911621
 41
5.027085304260253
 42
5.027099609375
 43
5.027084350585937
 44
279.3999938964844
 45
215.8999938964844
 46
28.0931957503573
 47
0.0000000000000029
 48
0.0
 49
0.0
140
0.0
141
0.0
142
1.0
143
0.5111981924167587
 70
  2740
 72
     0
 73
     1
 74
     1
  7
OKIColorShaded.ctb
 75
     0
147
1.956188450652308
 76
     0
 77
     2
 78
   300
148
-75.74468520391772
149
-27.53050504688192
1001
ACAD_PSEXT
1000
OKI DOKI Color Laser8x11.pc3
1000
OKI C9500(PCL)
1000
FRONT
1000

1070
     0
  0
PLOTSETTINGS
  5
1A56
102
{ACAD_REACTORS
330
19
102
}
330
19
100
AcDbPlotSettings
  1
OKI9500 B&W 11x17
  2
OKI DOKI Color Laser.pc3
  4
11x17
  6

 40
5.873749732971191
 41
5.873734951019287
 42
5.873748779296875
 43
5.027069091796875
 44
431.7999877929687
 45
279.3999938964844
 46
72.38759962724653
 47
0.0000000000000057
 48
0.0
 49
0.0
140
0.0
141
0.0
142
1.0
143
0.3507677900220671
 70
 11956
 72
     0
 73
     0
 74
     1
  7
OKIB&WShaded.ctb
 75
     0
147
2.850888902704233
 76
     0
 77
     2
 78
   300
148
-119.4582094169044
149
-58.17053554795709
1001
ACAD_PSEXT
1000
OKI DOKI Color Laser.pc3
1000
HP LaserJet 5Si
1000
CAD Area
1000

1070
     0
  0
PLOTSETTINGS
  5
1A57
102
{ACAD_REACTORS
330
19
102
}
330
19
100
AcDbPlotSettings
  1
OKI9500 B&W 8.5x11
  2
OKI DOKI Color Laser8x11.pc3
  4
Letter
  6

 40
5.873749732971191
 41
5.873734951019287
 42
6.55108642578125
 43
5.027084350585937
 44
279.3999938964844
 45
215.8999938964844
 46
28.40045128601757
 47
0.0000000000000046
 48
0.0
 49
0.0
140
0.0
141
0.0
142
1.0
143
0.4594207153946231
 70
 11956
 72
     0
 73
     0
 74
     1
  7
OKIB&WShaded.ctb
 75
     0
147
2.176654135286525
 76
     0
 77
     2
 78
   300
148
-119.4582094169044
149
-58.17053554795709
1001
ACAD_PSEXT
1000
OKI DOKI Color Laser8x11.pc3
1000
HP LaserJet 5Si
1000
CAD Area
1000

1070
     0
  0
PLOTSETTINGS
  5
1A58
102
{ACAD_REACTORS
330
19
102
}
330
19
100
AcDbPlotSettings
  1
OKI9500 Color 11x17
  2
OKI DOKI Color Laser.pc3
  4
Tabloid
  6

 40
5.027083396911621
 41
5.027085304260253
 42
5.027099609375
 43
5.027069091796875
 44
431.7999877929687
 45
279.3999938964844
 46
72.80024597690952
 47
0.0
 48
0.0
 49
0.0
140
0.0
141
0.0
142
1.0
143
0.349665202263268
 70
 11956
 72
     0
 73
     0
 74
     1
  7
OKIColorShaded.ctb
 75
     0
147
2.859878516727796
 76
     0
 77
     2
 78
   300
148
-119.4582094169044
149
-58.17053554795709
1001
ACAD_PSEXT
1000
OKI DOKI Color Laser.pc3
1000
OKI C9500(PCL)
1000
FRONT
1000

1070
     0
  0
PLOTSETTINGS
  5
1A59
102
{ACAD_REACTORS
330
19
102
}
330
19
100
AcDbPlotSettings
  1
OKI9500 Color 8.5x11
  2
OKI DOKI Color Laser8x11.pc3
  4
Letter
  6

 40
5.873749732971191
 41
5.873734951019287
 42
6.55108642578125
 43
5.027084350585937
 44
279.3999938964844
 45
215.8999938964844
 46
28.40045128601757
 47
0.0000000000000046
 48
0.0
 49
0.0
140
0.0
141
0.0
142
1.0
143
0.4594207153946231
 70
 11956
 72
     0
 73
     0
 74
     1
  7
OKIColorShaded.ctb
 75
     0
147
2.176654135286525
 76
     0
 77
     2
 78
   300
148
-119.4582094169044
149
-58.17053554795709
1001
ACAD_PSEXT
1000
OKI DOKI Color Laser8x11.pc3
1000
HP LaserJet 5Si
1000
CAD Area
1000

1070
     0
  0
PLOTSETTINGS
  5
1A5A
102
{ACAD_REACTORS
330
19
102
}
330
19
100
AcDbPlotSettings
  1
Oki9600 11x17 BW Fit
  2
9600 BW 11x17.pc3
  4
Tabloid
  6

 40
5.027082920074462
 41
5.027085781097412
 42
5.027099609375
 43
5.027069091796875
 44
431.7999877929687
 45
279.3999938964844
 46
80.82067130493244
 47
0.000000000000007
 48
0.0
 49
0.0
140
0.0
141
0.0
142
1.0
143
0.4045605838335077
 70
  2804
 72
     0
 73
     0
 74
     1
  7
OKIB&WShaded.ctb
 75
     0
147
2.47181767072874
 76
     0
 77
     2
 78
   300
148
-75.74468520391772
149
-27.53050504688192
1001
ACAD_PSEXT
1000
9600 BW 11x17.pc3
1000
OKI C9600(PCL)
1000
Expansion Area
1000

1070
     0
  0
PLOTSETTINGS
  5
1A5B
102
{ACAD_REACTORS
330
19
102
}
330
19
100
AcDbPlotSettings
  1
Oki9600 11x17 BW Full
  2
9600 BW 11x17.pc3
  4
Tabloid
  6

 40
5.027082920074462
 41
5.027085781097412
 42
5.027099609375
 43
5.027069091796875
 44
431.7999877929687
 45
279.3999938964844
 46
158.258895997328
 47
80.18956456754025
 48
0.0
 49
0.0
140
0.0
141
0.0
142
1.0
143
1.0
 70
  2788
 72
     0
 73
     0
 74
     1
  7
OKIB&WShaded.ctb
 75
     0
147
2.47181767072874
 76
     0
 77
     2
 78
   300
148
-75.74468520391772
149
-27.53050504688192
1001
ACAD_PSEXT
1000
9600 BW 11x17.pc3
1000
OKI C9600(PCL)
1000
Expansion Area
1000

1070
     0
  0
PLOTSETTINGS
  5
1A5C
102
{ACAD_REACTORS
330
19
102
}
330
19
100
AcDbPlotSettings
  1
Oki9600 11x17 BW Half
  2
9600 BW 11x17.pc3
  4
Tabloid
  6

 40
5.027082920074462
 41
5.027085781097412
 42
5.027099609375
 43
5.027069091796875
 44
431.7999877929687
 45
279.3999938964844
 46
184.5658993145439
 47
107.4312420396676
 48
0.0
 49
0.0
140
0.0
141
0.0
142
1.0
143
2.0
 70
  2788
 72
     0
 73
     0
 74
     1
  7
OKIB&WShaded.ctb
 75
     0
147
2.47181767072874
 76
     0
 77
     2
 78
   300
148
-75.74468520391772
149
-27.53050504688192
1001
ACAD_PSEXT
1000
9600 BW 11x17.pc3
1000
OKI C9600(PCL)
1000
Expansion Area
1000

1070
     0
  0
PLOTSETTINGS
  5
1A5D
102
{ACAD_REACTORS
330
19
102
}
330
19
100
AcDbPlotSettings
  1
Oki9600 11x17 Color Fit
  2
9600 Color 11x17.pc3
  4
Tabloid
  6

 40
5.027082920074462
 41
5.027085781097412
 42
5.027099609375
 43
5.027069091796875
 44
431.7999877929687
 45
279.3999938964844
 46
80.82067130493244
 47
0.000000000000007
 48
0.0
 49
0.0
140
0.0
141
0.0
142
1.0
143
0.4045605838335077
 70
  2804
 72
     0
 73
     0
 74
     1
  7
OKIColorShaded.ctb
 75
     0
147
2.47181767072874
 76
     0
 77
     2
 78
   300
148
-75.74468520391772
149
-27.53050504688192
1001
ACAD_PSEXT
1000
9600 Color 11x17.pc3
1000
OKI C9600(PCL)
1000
Expansion Area
1000

1070
     0
  0
PLOTSETTINGS
  5
1A5E
102
{ACAD_REACTORS
330
19
102
}
330
19
100
AcDbPlotSettings
  1
Oki9600 11x17 Color Full
  2
9600 Color 11x17.pc3
  4
Tabloid
  6

 40
5.027082920074462
 41
5.027085781097412
 42
5.027099609375
 43
5.027069091796875
 44
431.7999877929687
 45
279.3999938964844
 46
158.258895997328
 47
80.18956456754025
 48
0.0
 49
0.0
140
0.0
141
0.0
142
1.0
143
1.0
 70
  2788
 72
     0
 73
     0
 74
     1
  7
OKIColorShaded.ctb
 75
     0
147
2.47181767072874
 76
     0
 77
     2
 78
   300
148
-75.74468520391772
149
-27.53050504688192
1001
ACAD_PSEXT
1000
9600 Color 11x17.pc3
1000
OKI C9600(PCL)
1000
Expansion Area
1000

1070
     0
  0
PLOTSETTINGS
  5
1A5F
102
{ACAD_REACTORS
330
19
102
}
330
19
100
AcDbPlotSettings
  1
Oki9600 11x17 Color Half
  2
9600 Color 11x17.pc3
  4
Tabloid
  6

 40
5.027082920074462
 41
5.027085781097412
 42
5.027099609375
 43
5.027069091796875
 44
431.7999877929687
 45
279.3999938964844
 46
184.5658993145439
 47
107.4312420396676
 48
0.0
 49
0.0
140
0.0
141
0.0
142
1.0
143
2.0
 70
  2788
 72
     0
 73
     0
 74
     1
  7
OKIColorShaded.ctb
 75
     0
147
2.47181767072874
 76
     0
 77
     2
 78
   300
148
-75.74468520391772
149
-27.53050504688192
1001
ACAD_PSEXT
1000
9600 Color 11x17.pc3
1000
OKI C9600(PCL)
1000
Expansion Area
1000

1070
     0
  0
PLOTSETTINGS
  5
1A60
102
{ACAD_REACTORS
330
19
102
}
330
19
100
AcDbPlotSettings
  1
Oki9600 8x11 BW Fit
  2
9600 BW 8.5x11.pc3
  4
Letter
  6

 40
5.027082920074462
 41
5.027070522308349
 42
5.027099609375
 43
5.027084350585937
 44
279.3999938964844
 45
215.8999938964844
 46
35.28131763668624
 47
0.0000000000000033
 48
0.0
 49
0.0
140
0.0
141
0.0
142
1.0
143
0.5293607604865011
 70
  2804
 72
     0
 73
     0
 74
     1
  7
OKIB&WShaded.ctb
 75
     0
147
1.889070884439876
 76
     0
 77
     2
 78
   300
148
-75.74468520391772
149
-27.53050504688192
1001
ACAD_PSEXT
1000
9600 BW 8.5x11.pc3
1000
OKI C9600(PCL)
1000
Expansion Area
1000

1070
     0
  0
PLOTSETTINGS
  5
1A61
102
{ACAD_REACTORS
330
19
102
}
330
19
100
AcDbPlotSettings
  1
Oki9600 8x11 BW Portrait Fit
  2
9600 BW 8.5x11.pc3
  4
Letter
  6

 40
5.027082920074462
 41
5.027070522308349
 42
5.027099609375
 43
5.027084350585937
 44
279.3999938964844
 45
215.8999938964844
 46
28.09318833520237
 47
-0.0000000000000029
 48
0.0
 49
0.0
140
0.0
141
0.0
142
1.0
143
0.5111981557072135
 70
  2804
 72
     0
 73
     1
 74
     1
  7
OKIB&WShaded.ctb
 75
     0
147
1.956188591127753
 76
     0
 77
     2
 78
   300
148
-75.74468520391772
149
-27.53050504688192
1001
ACAD_PSEXT
1000
9600 BW 8.5x11.pc3
1000
OKI C9600(PCL)
1000
Expansion Area
1000

1070
     0
  0
PLOTSETTINGS
  5
1A62
102
{ACAD_REACTORS
330
19
102
}
330
19
100
AcDbPlotSettings
  1
Oki9600 8x11 Color Fit
  2
9600 Color 8.5x11.pc3
  4
Letter
  6

 40
5.027082920074462
 41
5.027070522308349
 42
5.027099609375
 43
5.027084350585937
 44
279.3999938964844
 45
215.8999938964844
 46
35.28131763668624
 47
0.0000000000000033
 48
0.0
 49
0.0
140
0.0
141
0.0
142
1.0
143
0.5293607604865011
 70
  2804
 72
     0
 73
     0
 74
     1
  7
OKIColorShaded.ctb
 75
     0
147
1.889070884439876
 76
     0
 77
     2
 78
   300
148
-75.74468520391772
149
-27.53050504688192
1001
ACAD_PSEXT
1000
9600 Color 8.5x11.pc3
1000
OKI C9600(PCL)
1000
Expansion Area
1000

1070
     0
  0
PLOTSETTINGS
  5
1A63
102
{ACAD_REACTORS
330
19
102
}
330
19
100
AcDbPlotSettings
  1
Oki9600 8x11 Color Portrait Fit
  2
9600 Color 8.5x11.pc3
  4
Letter
  6

 40
5.027082920074462
 41
5.027070522308349
 42
5.027099609375
 43
5.027084350585937
 44
279.3999938964844
 45
215.8999938964844
 46
28.09318833520237
 47
-0.0000000000000029
 48
0.0
 49
0.0
140
0.0
141
0.0
142
1.0
143
0.5111981557072135
 70
  2804
 72
     0
 73
     1
 74
     1
  7
OKIColorShaded.ctb
 75
     0
147
1.956188591127753
 76
     0
 77
     2
 78
   300
148
-75.74468520391772
149
-27.53050504688192
1001
ACAD_PSEXT
1000
9600 Color 8.5x11.pc3
1000
OKI C9600(PCL)
1000
Expansion Area
1000

1070
     0
  0
PLOTSETTINGS
  5
1A64
102
{ACAD_REACTORS
330
19
102
}
330
19
100
AcDbPlotSettings
  1
OKI9600 B&W 11x17
  2
9600 BW 11x17.pc3
  4
Tabloid
  6

 40
5.027082920074462
 41
5.027085781097412
 42
5.027099609375
 43
5.027069091796875
 44
431.7999877929687
 45
279.3999938964844
 46
72.80024645976547
 47
-0.0000000000000027
 48
0.0
 49
0.0
140
0.0
141
0.0
142
1.0
143
0.3496652028822988
 70
 11956
 72
     0
 73
     0
 74
     1
  7
OKIB&WShaded.ctb
 75
     0
147
2.859878511664802
 76
     0
 77
     2
 78
   300
148
-119.4582094169044
149
-58.17053554795709
1001
ACAD_PSEXT
1000
9600 BW 11x17.pc3
1000
OKI C9600(PCL)
1000
Expansion Area
1000

1070
     0
  0
PLOTSETTINGS
  5
1A65
102
{ACAD_REACTORS
330
19
102
}
330
19
100
AcDbPlotSettings
  1
OKI9600 B&W 8.5x11
  2
9600 BW 8.5x11.pc3
  4
Letter
  6

 40
5.027082920074462
 41
5.027070522308349
 42
5.027099609375
 43
5.027084350585937
 44
279.3999938964844
 45
215.8999938964844
 46
29.15175911978468
 47
0.0000000000000065
 48
0.0
 49
0.0
140
0.0
141
0.0
142
1.0
143
0.4575310722549676
 70
 11956
 72
     0
 73
     0
 74
     1
  7
OKIB&WShaded.ctb
 75
     0
147
2.185643906262899
 76
     0
 77
     2
 78
   300
148
-119.4582094169044
149
-58.17053554795709
1001
ACAD_PSEXT
1000
9600 BW 8.5x11.pc3
1000
OKI C9600(PCL)
1000
Expansion Area
1000

1070
     0
  0
PLOTSETTINGS
  5
1A66
102
{ACAD_REACTORS
330
19
102
}
330
19
100
AcDbPlotSettings
  1
OKI9600 Color 11x17
  2
9600 Color 11x17.pc3
  4
Tabloid
  6

 40
5.027082920074462
 41
5.027085781097412
 42
5.027099609375
 43
5.027069091796875
 44
431.7999877929687
 45
279.3999938964844
 46
72.80024645976547
 47
-0.0000000000000027
 48
0.0
 49
0.0
140
0.0
141
0.0
142
1.0
143
0.3496652028822988
 70
 11956
 72
     0
 73
     0
 74
     1
  7
OKIColorShaded.ctb
 75
     0
147
2.859878511664802
 76
     0
 77
     2
 78
   300
148
-119.4582094169044
149
-58.17053554795709
1001
ACAD_PSEXT
1000
9600 Color 11x17.pc3
1000
OKI C9600(PCL)
1000
Expansion Area
1000

1070
     0
  0
PLOTSETTINGS
  5
1A67
102
{ACAD_REACTORS
330
19
102
}
330
19
100
AcDbPlotSettings
  1
OKI9600 Color 8.5x11
  2
9600 Color 8.5x11.pc3
  4
Letter
  6

 40
5.027082920074462
 41
5.027070522308349
 42
5.027099609375
 43
5.027084350585937
 44
279.3999938964844
 45
215.8999938964844
 46
29.15175911978468
 47
0.0000000000000065
 48
0.0
 49
0.0
140
0.0
141
0.0
142
1.0
143
0.4575310722549676
 70
 11956
 72
     0
 73
     0
 74
     1
  7
OKIColorShaded.ctb
 75
     0
147
2.185643906262899
 76
     0
 77
     2
 78
   300
148
-119.4582094169044
149
-58.17053554795709
1001
ACAD_PSEXT
1000
9600 Color 8.5x11.pc3
1000
OKI C9600(PCL)
1000
Expansion Area
1000

1070
     0
  0
PLOTSETTINGS
  5
1A68
102
{ACAD_REACTORS
330
19
102
}
330
19
100
AcDbPlotSettings
  1
PHX Kyocera 11x17 Fit
  2
PHX_Kyocera.pc3
  4
Tabloid
  6

 40
4.984749794006347
 41
5.069418907165527
 42
5.069427490234375
 43
4.9847412109375
 44
431.7999877929687
 45
279.3999938964844
 46
80.8206764601584
 47
-0.0000000000000226
 48
0.0
 49
0.0
140
0.0
141
0.0
142
1.0
143
0.4045605917118723
 70
  2740
 72
     0
 73
     0
 74
     1
  7
LaserJet5Shaded.ctb
 75
     0
147
2.471817622592858
 76
     0
 77
     2
 78
   300
148
-75.74468520391772
149
-27.53050504688192
1001
ACAD_PSEXT
1000
PHX_Kyocera.pc3
1000
Kyocera Mita KM-2050 KX
1000
Arizona
1000

1070
     0
  0
PLOTSETTINGS
  5
1A69
102
{ACAD_REACTORS
330
19
102
}
330
19
100
AcDbPlotSettings
  1
PHX Oki9500 11x17 BW Fit
  2
PHX OKI BW.pc3
  4
Tabloid
  6

 40
5.027082920074462
 41
5.027085781097412
 42
5.027099609375
 43
5.027069091796875
 44
431.7999877929687
 45
279.3999938964844
 46
80.82067130493246
 47
0.0
 48
0.0
 49
0.0
140
0.0
141
0.0
142
1.0
143
0.4045605838335077
 70
  2740
 72
     0
 73
     0
 74
     1
  7
OKIB&WShaded.ctb
 75
     0
147
2.47181767072874
 76
     0
 77
     2
 78
   300
148
-75.74468520391772
149
-27.53050504688192
1001
ACAD_PSEXT
1000
PHX OKI BW.pc3
1000
OKI C9500(PCL)
1000
Arizona
1000

1070
     0
  0
PLOTSETTINGS
  5
1A6A
102
{ACAD_REACTORS
330
19
102
}
330
19
100
AcDbPlotSettings
  1
PHX Oki9500 11x17 BW Half
  2
PHX OKI BW.pc3
  4
Tabloid
  6

 40
5.027082920074462
 41
5.027085781097412
 42
5.027099609375
 43
5.027069091796875
 44
431.7999877929687
 45
279.3999938964844
 46
184.5658993145439
 47
107.4312420396676
 48
0.0
 49
0.0
140
0.0
141
0.0
142
1.0
143
2.0
 70
  2724
 72
     0
 73
     0
 74
     1
  7
OKIB&WShaded.ctb
 75
     0
147
2.47181767072874
 76
     0
 77
     2
 78
   300
148
-75.74468520391772
149
-27.53050504688192
1001
ACAD_PSEXT
1000
PHX OKI BW.pc3
1000
OKI C9500(PCL)
1000
Arizona
1000

1070
     0
  0
ACDBPLACEHOLDER
  5
F
102
{ACAD_REACTORS
330
E
102
}
330
E
  0
SCALE
  5
2E2
102
{ACAD_REACTORS
330
2E1
102
}
330
2E1
100
AcDbScale
 70
     0
300
1:1
140
1.0
141
1.0
290
     1
  0
TABLESTYLE
  5
2E0
102
{ACAD_XDICTIONARY
360
319
102
}
102
{ACAD_REACTORS
330
2C3
102
}
330
2C3
100
AcDbTableStyle
  3
Standard
 70
     0
 71
     0
 40
0.06
 41
0.06
280
     0
281
     0
  7
Standard
140
0.18
170
     2
 62
     0
 63
     7
283
     0
274
    -2
284
     1
 64
     0
275
    -2
285
     1
 65
     0
276
    -2
286
     1
 66
     0
277
    -2
287
     1
 67
     0
278
    -2
288
     1
 68
     0
279
    -2
289
     1
 69
     0
  7
Standard
140
0.25
170
     5
 62
     0
 63
     7
283
     0
274
    -2
284
     1
 64
     0
275
    -2
285
     1
 65
     0
276
    -2
286
     1
 66
     0
277
    -2
287
     1
 67
     0
278
    -2
288
     1
 68
     0
279
    -2
289
     1
 69
     0
  7
Standard
140
0.18
170
     5
 62
     0
 63
     7
283
     0
274
    -2
284
     1
 64
     0
275
    -2
285
     1
 65
     0
276
    -2
286
     1
 66
     0
277
    -2
287
     1
 67
     0
278
    -2
288
     1
 68
     0
279
    -2
289
     1
 69
     0
  0
VISUALSTYLE
  5
2F
102
{ACAD_REACTORS
330
2A
102
}
330
2A
100
AcDbVisualStyle
  2
2dWireframe
 70
     4
 71
     0
 72
     2
 73
     0
 90
        0
 40
-0.6
 41
-30.0
 62
     5
 63
     7
 74
     1
 91
        4
 64
     7
 65
   257
 75
     1
175
     1
 42
1.0
 92
        0
 66
   257
 43
1.0
 76
     1
 77
     6
 78
     2
 67
     7
 79
     5
170
     0
171
     0
290
     0
174
     0
 93
        1
 44
0.0
173
     0
291
     0
 45
0.0
1001
ACAD
1000
AcDbSavedByObjectVersion
1070
     0
  0
VISUALSTYLE
  5
31
102
{ACAD_REACTORS
330
2A
102
}
330
2A
100
AcDbVisualStyle
  2
3D Hidden
 70
     6
 71
     1
 72
     2
 73
     2
 90
        0
 40
-0.6
 41
-30.0
 62
     5
 63
     7
 74
     2
 91
        2
 64
     7
 65
   257
 75
     2
175
     1
 42
40.0
 92
        0
 66
   257
 43
1.0
 76
     1
 77
     6
 78
     2
 67
     7
 79
     3
170
     0
171
     0
290
     0
174
     0
 93
        1
 44
0.0
173
     0
291
     0
 45
0.0
1001
ACAD
1000
AcDbSavedByObjectVersion
1070
     0
  0
VISUALSTYLE
  5
30
102
{ACAD_REACTORS
330
2A
102
}
330
2A
100
AcDbVisualStyle
  2
3dWireframe
 70
     5
 71
     0
 72
     2
 73
     0
 90
        0
 40
-0.6
 41
-30.0
 62
     5
 63
     7
 74
     1
 91
        4
 64
     7
 65
   257
 75
     1
175
     1
 42
1.0
 92
        0
 66
   257
 43
1.0
 76
     1
 77
     6
 78
     2
 67
     7
 79
     5
170
     0
171
     0
290
     0
174
     0
 93
        1
 44
0.0
173
     0
291
     0
 45
0.0
1001
ACAD
1000
AcDbSavedByObjectVersion
1070
     0
  0
VISUALSTYLE
  5
32
102
{ACAD_REACTORS
330
2A
102
}
330
2A
100
AcDbVisualStyle
  2
Basic
 70
     7
 71
     1
 72
     0
 73
     1
 90
        0
 40
-0.6
 41
-30.0
 62
     5
 63
     7
 74
     0
 91
        4
 64
     7
 65
   257
 75
     1
175
     1
 42
1.0
 92
        8
 66
     7
 43
1.0
 76
     1
 77
     6
 78
     2
 67
     7
 79
     5
170
     0
171
     0
290
     0
174
     0
 93
        1
 44
0.0
173
     0
291
     1
 45
0.0
1001
ACAD
1000
AcDbSavedByObjectVersion
1070
     0
  0
VISUALSTYLE
  5
36
102
{ACAD_REACTORS
330
2A
102
}
330
2A
100
AcDbVisualStyle
  2
Brighten
 70
    12
 71
     2
 72
     2
 73
     0
 90
        0
 40
-0.6
 41
-30.0
 62
     5
 63
     7
 74
     1
 91
        4
 64
     7
 65
   257
 75
     1
175
     1
 42
1.0
 92
        8
 66
     7
 43
1.0
 76
     1
 77
     6
 78
     2
 67
     7
 79
     5
170
     0
171
     0
290
     0
174
     0
 93
        1
 44
50.0
173
     0
291
     1
 45
0.0
1001
ACAD
1000
AcDbSavedByObjectVersion
1070
     0
  0
VISUALSTYLE
  5
3A
102
{ACAD_REACTORS
330
2A
102
}
330
2A
100
AcDbVisualStyle
  2
ColorChange
 70
    16
 71
     2
 72
     2
 73
     3
 90
        0
 40
-0.6
 41
-30.0
 62
     5
 63
     8
 74
     1
 91
        4
 64
     7
 65
   257
 75
     1
175
     1
 42
1.0
 92
        8
 66
     8
 43
1.0
 76
     1
 77
     6
 78
     2
 67
     7
 79
     5
170
     0
171
     0
290
     0
174
     0
 93
        1
 44
0.0
173
     0
291
     1
 45
0.0
1001
ACAD
1000
AcDbSavedByObjectVersion
1070
     0
  0
VISUALSTYLE
  5
34
102
{ACAD_REACTORS
330
2A
102
}
330
2A
100
AcDbVisualStyle
  2
Conceptual
 70
     9
 71
     3
 72
     2
 73
     0
 90
        0
 40
-0.6
 41
-30.0
 62
     5
 63
     7
 74
     2
 91
        2
 64
     7
 65
   257
 75
     1
175
     1
 42
40.0
 92
        8
 66
     7
 43
1.0
 76
     1
 77
     6
 78
     2
 67
     7
 79
     3
170
     0
171
     0
290
     0
174
     0
 93
        1
 44
0.0
173
     0
291
     0
 45
0.0
1001
ACAD
1000
AcDbSavedByObjectVersion
1070
     0
  0
VISUALSTYLE
  5
35
102
{ACAD_REACTORS
330
2A
102
}
330
2A
100
AcDbVisualStyle
  2
Dim
 70
    11
 71
     2
 72
     2
 73
     0
 90
        0
 40
-0.6
 41
-30.0
 62
     5
 63
     7
 74
     1
 91
        4
 64
     7
 65
   257
 75
     1
175
     1
 42
1.0
 92
        8
 66
     7
 43
1.0
 76
     1
 77
     6
 78
     2
 67
     7
 79
     5
170
     0
171
     0
290
     0
174
     0
 93
        1
 44
-50.0
173
     0
291
     1
 45
0.0
1001
ACAD
1000
AcDbSavedByObjectVersion
1070
     0
  0
VISUALSTYLE
  5
39
102
{ACAD_REACTORS
330
2A
102
}
330
2A
100
AcDbVisualStyle
  2
Facepattern
 70
    15
 71
     2
 72
     2
 73
     0
 90
        0
 40
-0.6
 41
-30.0
 62
     5
 63
     7
 74
     1
 91
        4
 64
     7
 65
   257
 75
     1
175
     1
 42
1.0
 92
        8
 66
     7
 43
1.0
 76
     1
 77
     6
 78
     2
 67
     7
 79
     5
170
     0
171
     0
290
     0
174
     0
 93
        1
 44
0.0
173
     0
291
     1
 45
0.0
1001
ACAD
1000
AcDbSavedByObjectVersion
1070
     0
  0
VISUALSTYLE
  5
2B
102
{ACAD_REACTORS
330
2A
102
}
330
2A
100
AcDbVisualStyle
  2
Flat
 70
     0
 71
     2
 72
     1
 73
     1
 90
        2
 40
-0.6
 41
30.0
 62
     5
 63
     7
 74
     0
 91
        4
 64
     7
 65
   257
 75
     1
175
     1
 42
1.0
 92
        8
 66
     7
 43
1.0
 76
     1
 77
     6
 78
     2
 67
     7
 79
     5
170
     0
171
     0
290
     0
174
     0
 93
       13
 44
0.0
173
     0
291
     1
 45
0.0
1001
ACAD
1000
AcDbSavedByObjectVersion
1070
     0
  0
VISUALSTYLE
  5
2C
102
{ACAD_REACTORS
330
2A
102
}
330
2A
100
AcDbVisualStyle
  2
FlatWithEdges
 70
     1
 71
     2
 72
     1
 73
     1
 90
        2
 40
-0.6
 41
30.0
 62
     5
 63
     7
 74
     1
 91
        4
 64
     7
 65
   257
 75
     1
175
     1
 42
1.0
 92
        0
 66
   257
 43
1.0
 76
     1
 77
     6
 78
     2
 67
     7
 79
     5
170
     0
171
     0
290
     0
174
     0
 93
       13
 44
0.0
173
     0
291
     1
 45
0.0
1001
ACAD
1000
AcDbSavedByObjectVersion
1070
     0
  0
VISUALSTYLE
  5
2D
102
{ACAD_REACTORS
330
2A
102
}
330
2A
100
AcDbVisualStyle
  2
Gouraud
 70
     2
 71
     2
 72
     2
 73
     1
 90
        2
 40
-0.6
 41
30.0
 62
     5
 63
     7
 74
     0
 91
        4
 64
     7
 65
   257
 75
     1
175
     1
 42
1.0
 92
        0
 66
     7
 43
1.0
 76
     1
 77
     6
 78
     2
 67
     7
 79
     5
170
     0
171
     0
290
     0
174
     0
 93
       13
 44
0.0
173
     0
291
     1
 45
0.0
1001
ACAD
1000
AcDbSavedByObjectVersion
1070
     0
  0
VISUALSTYLE
  5
2E
102
{ACAD_REACTORS
330
2A
102
}
330
2A
100
AcDbVisualStyle
  2
GouraudWithEdges
 70
     3
 71
     2
 72
     2
 73
     1
 90
        2
 40
-0.6
 41
30.0
 62
     5
 63
     7
 74
     1
 91
        4
 64
     7
 65
   257
 75
     1
175
     1
 42
1.0
 92
        0
 66
   257
 43
1.0
 76
     1
 77
     6
 78
     2
 67
     7
 79
     5
170
     0
171
     0
290
     0
174
     0
 93
       13
 44
0.0
173
     0
291
     1
 45
0.0
1001
ACAD
1000
AcDbSavedByObjectVersion
1070
     0
  0
VISUALSTYLE
  5
38
102
{ACAD_REACTORS
330
2A
102
}
330
2A
100
AcDbVisualStyle
  2
Linepattern
 70
    14
 71
     2
 72
     2
 73
     0
 90
        0
 40
-0.6
 41
-30.0
 62
     5
 63
     7
 74
     1
 91
        4
 64
     7
 65
   257
 75
     7
175
     7
 42
1.0
 92
        8
 66
     7
 43
1.0
 76
     1
 77
     6
 78
     2
 67
     7
 79
     5
170
     0
171
     0
290
     0
174
     0
 93
        1
 44
0.0
173
     0
291
     1
 45
0.0
1001
ACAD
1000
AcDbSavedByObjectVersion
1070
     0
  0
VISUALSTYLE
  5
33
102
{ACAD_REACTORS
330
2A
102
}
330
2A
100
AcDbVisualStyle
  2
Realistic
 70
     8
 71
     2
 72
     2
 73
     0
 90
        0
 40
-0.6
 41
-30.0
 62
     5
 63
     7
 74
     1
 91
        0
 64
     7
 65
   257
 75
     1
175
     1
 42
1.0
 92
        8
 66
     8
 43
1.0
 76
     1
 77
     6
 78
     2
 67
     7
 79
     5
170
     0
171
     0
290
     0
174
     0
 93
       13
 44
0.0
173
     0
291
     0
 45
0.0
1001
ACAD
1000
AcDbSavedByObjectVersion
1070
     0
  0
VISUALSTYLE
  5
37
102
{ACAD_REACTORS
330
2A
102
}
330
2A
100
AcDbVisualStyle
  2
Thicken
 70
    13
 71
     2
 72
     2
 73
     0
 90
        0
 40
-0.6
 41
-30.0
 62
     5
 63
     7
 74
     1
 91
        4
 64
     7
 65
   257
 75
     1
175
     1
 42
1.0
 92
       12
 66
     7
 43
1.0
 76
     1
 77
     6
 78
     2
 67
     7
 79
     5
170
     0
171
     0
290
     0
174
     0
 93
        1
 44
0.0
173
     0
291
     1
 45
0.0
1001
ACAD
1000
AcDbSavedByObjectVersion
1070
     0
  0
DICTIONARYVAR
  5
320
102
{ACAD_REACTORS
330
31C
102
}
330
31C
100
DictionaryVariables
280
     0
  1
1:1
  0
DICTIONARYVAR
  5
31E
102
{ACAD_REACTORS
330
31C
102
}
330
31C
100
DictionaryVariables
280
     0
  1
STANDARD
  0
DICTIONARYVAR
  5
31D
102
{ACAD_REACTORS
330
31C
102
}
330
31C
100
DictionaryVariables
280
     0
  1
STANDARD
  0
DICTIONARYVAR
  5
1BAC
102
{ACAD_REACTORS
330
31C
102
}
330
31C
100
DictionaryVariables
280
     0
  1
0
  0
DICTIONARYVAR
  5
322
102
{ACAD_REACTORS
330
31C
102
}
330
31C
100
DictionaryVariables
280
     0
  1
15
  0
DICTIONARYVAR
  5
321
102
{ACAD_REACTORS
330
31C
102
}
330
31C
100
DictionaryVariables
280
     0
  1
0
  0
DICTIONARYVAR
  5
31F
102
{ACAD_REACTORS
330
31C
102
}
330
31C
100
DictionaryVariables
280
     0
  1
0
  0
DICTIONARYVAR
  5
1B48
102
{ACAD_REACTORS
330
31C
102
}
330
31C
100
DictionaryVariables
280
     0
  1
0
  0
XRECORD
  5
1B94
102
{ACAD_REACTORS
330
1B91
102
}
330
1B91
100
AcDbXrecord
280
     1
  1
_0100-
  1
*0100-*
  1
*
  1
*
 70
     0
  1
*
  1
*
  0
XRECORD
  5
1B93
102
{ACAD_REACTORS
330
1B91
102
}
330
1B91
100
AcDbXrecord
280
     1
  1
_0280-
  1
*0280-*
  1
*
  1
*
 70
     0
  1
*
  1
*
  0
XRECORD
  5
1B96
102
{ACAD_REACTORS
330
1B91
102
}
330
1B91
100
AcDbXrecord
280
     1
  1
_Add Alternate
  1
*add*alt*
  1
*
  1
*
 70
     0
  1
*
  1
*
  0
XRECORD
  5
1B97
102
{ACAD_REACTORS
330
1B91
102
}
330
1B91
100
AcDbXrecord
280
     1
  1
_Bid Alternate
  1
*bid*alt*
  1
*
  1
*
 70
     0
  1
*
  1
*
  0
XRECORD
  5
1B99
102
{ACAD_REACTORS
330
1B91
102
}
330
1B91
100
AcDbXrecord
280
     1
  1
_Color 253
  1
*
  1
253
  1
*
 70
     0
  1
*
  1
*
  0
XRECORD
  5
1B95
102
{ACAD_REACTORS
330
1B91
102
}
330
1B91
100
AcDbXrecord
280
     1
  1
_Color 8
  1
*
  1
8
  1
*
 70
     0
  1
*
  1
*
  0
XRECORD
  5
1B98
102
{ACAD_REACTORS
330
1B91
102
}
330
1B91
100
AcDbXrecord
280
     1
  1
_Color 84
  1
*
  1
84
  1
*
 70
     0
  1
*
  1
*
  0
XRECORD
  5
1B9F
102
{ACAD_REACTORS
330
1B91
102
}
330
1B91
100
AcDbXrecord
280
     1
  1
_Contours
  1
*contour*,*cont-*,*cp cont*,*p-cont*
  1
*
  1
*
 70
     0
  1
*
  1
*
  0
XRECORD
  5
1B9A
102
{ACAD_REACTORS
330
1B91
102
}
330
1B91
100
AcDbXrecord
280
     1
  1
_Demo
  1
*demo*
  1
*
  1
*
 70
     0
  1
*
  1
*
  0
XRECORD
  5
1B9B
102
{ACAD_REACTORS
330
1B91
102
}
330
1B91
100
AcDbXrecord
280
     1
  1
_Existing
  1
*exist*,*ex*
  1
*
  1
*
 70
     0
  1
*
  1
*
  0
XRECORD
  5
1B9E
102
{ACAD_REACTORS
330
1B91
102
}
330
1B91
100
AcDbXrecord
280
     1
  1
_Hardscape
  1
*sidewalk*,*sw*,*curb*,*walk*,*-lip*,*tbc*
  1
*
  1
*
 70
     0
  1
*
  1
*
  0
XRECORD
  5
1B92
102
{ACAD_REACTORS
330
1B91
102
}
330
1B91
100
AcDbXrecord
280
     1
  1
_NoXref
  1
~*|*
  1
*
  1
*
 70
     0
  1
*
  1
*
  0
XRECORD
  5
1B9C
102
{ACAD_REACTORS
330
1B91
102
}
330
1B91
100
AcDbXrecord
280
     1
  1
_Row
  1
*row*
  1
*
  1
*
 70
     0
  1
*
  1
*
  0
XRECORD
  5
1B9D
102
{ACAD_REACTORS
330
1B91
102
}
330
1B91
100
AcDbXrecord
280
     1
  1
_Utility
  1
*ut-*,*utility*,*wat*
  1
*
  1
*
 70
     0
  1
*
  1
*
  0
DICTIONARY
  5
2D0
330
2CF
100
AcDbDictionary
280
     1
281
     1
  3
ACAD_XREC_ROUNDTRIP
360
1BBC
  3
BUMPTILE
360
2D2
  3
DIFFUSETILE
360
2D1
  3
OPACITYTILE
360
2D5
  3
REFLECTIONTILE
360
2D4
  3
REFRACTIONTILE
360
2D6
  3
SPECULARTILE
360
2D3
  0
DICTIONARY
  5
2C8
330
2C7
100
AcDbDictionary
280
     1
281
     1
  3
ACAD_XREC_ROUNDTRIP
360
1BBB
  3
BUMPTILE
360
2CA
  3
DIFFUSETILE
360
2C9
  3
OPACITYTILE
360
2CD
  3
REFLECTIONTILE
360
2CC
  3
REFRACTIONTILE
360
2CE
  3
SPECULARTILE
360
2CB
  0
DICTIONARY
  5
2D8
330
2D7
100
AcDbDictionary
280
     1
281
     1
  3
ACAD_XREC_ROUNDTRIP
360
1BBD
  3
BUMPTILE
360
2DA
  3
DIFFUSETILE
360
2D9
  3
OPACITYTILE
360
2DD
  3
REFLECTIONTILE
360
2DC
  3
REFRACTIONTILE
360
2DE
  3
SPECULARTILE
360
2DB
  0
DICTIONARY
  5
319
330
2E0
100
AcDbDictionary
280
     1
281
     1
  3
ACAD_ROUNDTRIP_2008_TABLESTYLE_CELLSTYLEMAP
360
1BB6
  3
ACAD_XREC_ROUNDTRIP
360
1BBE
  0
XRECORD
  5
1BBC
102
{ACAD_REACTORS
330
2D0
102
}
330
2D0
100
AcDbXrecord
280
     1
102
MATERIAL
148
0.0
149
0.0
149
0.0
 93
        0
 94
      127
282
     0
 72
     0
 77
     0
171
     0
175
     0
179
     0
273
     0
  0
XRECORD
  5
2D2
102
{ACAD_REACTORS
330
2D0
102
}
330
2D0
100
AcDbXrecord
280
     1
270
     1
271
     1
  0
XRECORD
  5
2D1
102
{ACAD_REACTORS
330
2D0
102
}
330
2D0
100
AcDbXrecord
280
     1
270
     1
271
     1
  0
XRECORD
  5
2D5
102
{ACAD_REACTORS
330
2D0
102
}
330
2D0
100
AcDbXrecord
280
     1
270
     1
271
     1
  0
XRECORD
  5
2D4
102
{ACAD_REACTORS
330
2D0
102
}
330
2D0
100
AcDbXrecord
280
     1
270
     1
271
     1
  0
XRECORD
  5
2D6
102
{ACAD_REACTORS
330
2D0
102
}
330
2D0
100
AcDbXrecord
280
     1
270
     1
271
     1
  0
XRECORD
  5
2D3
102
{ACAD_REACTORS
330
2D0
102
}
330
2D0
100
AcDbXrecord
280
     1
270
     1
271
     1
  0
XRECORD
  5
1BBB
102
{ACAD_REACTORS
330
2C8
102
}
330
2C8
100
AcDbXrecord
280
     1
102
MATERIAL
148
0.0
149
0.0
149
0.0
 93
        0
 94
      127
282
     0
 72
     0
 77
     0
171
     0
175
     0
179
     0
273
     0
  0
XRECORD
  5
2CA
102
{ACAD_REACTORS
330
2C8
102
}
330
2C8
100
AcDbXrecord
280
     1
270
     1
271
     1
  0
XRECORD
  5
2C9
102
{ACAD_REACTORS
330
2C8
102
}
330
2C8
100
AcDbXrecord
280
     1
270
     1
271
     1
  0
XRECORD
  5
2CD
102
{ACAD_REACTORS
330
2C8
102
}
330
2C8
100
AcDbXrecord
280
     1
270
     1
271
     1
  0
XRECORD
  5
2CC
102
{ACAD_REACTORS
330
2C8
102
}
330
2C8
100
AcDbXrecord
280
     1
270
     1
271
     1
  0
XRECORD
  5
2CE
102
{ACAD_REACTORS
330
2C8
102
}
330
2C8
100
AcDbXrecord
280
     1
270
     1
271
     1
  0
XRECORD
  5
2CB
102
{ACAD_REACTORS
330
2C8
102
}
330
2C8
100
AcDbXrecord
280
     1
270
     1
271
     1
  0
XRECORD
  5
1BBD
102
{ACAD_REACTORS
330
2D8
102
}
330
2D8
100
AcDbXrecord
280
     1
102
MATERIAL
148
0.0
149
0.0
149
0.0
 93
        0
 94
      127
282
     0
 72
     0
 77
     0
171
     0
175
     0
179
     0
273
     0
  0
XRECORD
  5
2DA
102
{ACAD_REACTORS
330
2D8
102
}
330
2D8
100
AcDbXrecord
280
     1
270
     1
271
     1
  0
XRECORD
  5
2D9
102
{ACAD_REACTORS
330
2D8
102
}
330
2D8
100
AcDbXrecord
280
     1
270
     1
271
     1
  0
XRECORD
  5
2DD
102
{ACAD_REACTORS
330
2D8
102
}
330
2D8
100
AcDbXrecord
280
     1
270
     1
271
     1
  0
XRECORD
  5
2DC
102
{ACAD_REACTORS
330
2D8
102
}
330
2D8
100
AcDbXrecord
280
     1
270
     1
271
     1
  0
XRECORD
  5
2DE
102
{ACAD_REACTORS
330
2D8
102
}
330
2D8
100
AcDbXrecord
280
     1
270
     1
271
     1
  0
XRECORD
  5
2DB
102
{ACAD_REACTORS
330
2D8
102
}
330
2D8
100
AcDbXrecord
280
     1
270
     1
271
     1
  0
CELLSTYLEMAP
  5
1BB6
102
{ACAD_REACTORS
330
319
102
}
330
319
100
AcDbCellStyleMap
 90
        3
300
CELLSTYLE
  1
TABLEFORMAT_BEGIN
 90
        5
170
     1
 91
        0
 92
    32768
 62
   257
 93
        1
300
CONTENTFORMAT
  1
CONTENTFORMAT_BEGIN
 90
        0
 91
        0
 92
      512
 93
        0
300

 40
0.0
140
1.0
 94
        5
 62
     0
340
11
144
0.25
309
CONTENTFORMAT_END
171
     0
 94
        0
309
TABLEFORMAT_END
  1
CELLSTYLE_BEGIN
 90
        1
 91
        1
300
_TITLE
309
CELLSTYLE_END
300
CELLSTYLE
  1
TABLEFORMAT_BEGIN
 90
        5
170
     1
 91
        0
 92
        0
 62
   257
 93
        1
300
CONTENTFORMAT
  1
CONTENTFORMAT_BEGIN
 90
        0
 91
        0
 92
      512
 93
        0
300

 40
0.0
140
1.0
 94
        5
 62
     0
340
11
144
0.18
309
CONTENTFORMAT_END
171
     0
 94
        0
309
TABLEFORMAT_END
  1
CELLSTYLE_BEGIN
 90
        2
 91
        1
300
_HEADER
309
CELLSTYLE_END
300
CELLSTYLE
  1
TABLEFORMAT_BEGIN
 90
        5
170
     1
 91
        0
 92
        0
 62
   257
 93
        1
300
CONTENTFORMAT
  1
CONTENTFORMAT_BEGIN
 90
        0
 91
        0
 92
      512
 93
        0
300

 40
0.0
140
1.0
 94
        2
 62
     0
340
11
144
0.18
309
CONTENTFORMAT_END
171
     0
 94
        0
309
TABLEFORMAT_END
  1
CELLSTYLE_BEGIN
 90
        3
 91
        2
300
_DATA
309
CELLSTYLE_END
  0
XRECORD
  5
1BBE
102
{ACAD_REACTORS
330
319
102
}
330
319
100
AcDbXrecord
280
     1
102
ACAD_ROUNDTRIP_PRE2007_TABLESTYLE
 90
      512
 91
        0
  1

 92
      512
 93
        0
  2

 94
      512
 95
        0
  3

  0
ENDSEC
  0
EOF
