  0
SECTION
  2
HEADER
  9
$ACADVER
  1
AC1018
  9
$ACADMAINTVER
 70
   104
  9
$DWGCODEPAGE
  3
ANSI_1252
  9
$TITLE
  1
O:\RAINBIRD\SpecDraw 2006\MDC\DWG\FD202.dwg
  9
$SUBJECT
  1
 
  9
$AUTHOR
  1
dweyer
  9
$COMMENTS
  1
This drawing was opened and saved by 'dweyer' with AutoCAD version 16.1s (LMS Tech) using profile WatermarkID on 12-22-2005 @ 14:37:PM
  9
$LASTSAVEDBY
  1
dweyer
  9
$INSBASE
 10
-0.0102040656010656
 20
-0.0099921734210461
 30
0.0
  9
$EXTMIN
 10
0.0
 20
0.0
 30
0.0
  9
$EXTMAX
 10
16.48999999999999
 20
10.44
 30
0.03
  9
$LIMMIN
 10
0.0
 20
0.0
  9
$LIMMAX
 10
12.0
 20
9.0
  9
$ORTHOMODE
 70
     0
  9
$REGENMODE
 70
     1
  9
$FILLMODE
 70
     1
  9
$QTEXTMODE
 70
     0
  9
$MIRRTEXT
 70
     0
  9
$LTSCALE
 40
1.0
  9
$ATTMODE
 70
     1
  9
$TEXTSIZE
 40
0.125
  9
$TRACEWID
 40
0.05
  9
$TEXTSTYLE
  7
ROMANS
  9
$CLAYER
  8
image
  9
$CELTYPE
  6
BYLAYER
  9
$CECOLOR
 62
   256
  9
$CELTSCALE
 40
1.0
  9
$DISPSILH
 70
     0
  9
$DIMSCALE
 40
1.0
  9
$DIMASZ
 40
0.18
  9
$DIMEXO
 40
0.0625
  9
$DIMDLI
 40
0.38
  9
$DIMRND
 40
0.0
  9
$DIMDLE
 40
0.0
  9
$DIMEXE
 40
0.125
  9
$DIMTP
 40
0.0
  9
$DIMTM
 40
0.0
  9
$DIMTXT
 40
0.125
  9
$DIMCEN
 40
0.09
  9
$DIMTSZ
 40
0.0
  9
$DIMTOL
 70
     0
  9
$DIMLIM
 70
     0
  9
$DIMTIH
 70
     1
  9
$DIMTOH
 70
     1
  9
$DIMSE1
 70
     0
  9
$DIMSE2
 70
     0
  9
$DIMTAD
 70
     0
  9
$DIMZIN
 70
     0
  9
$DIMBLK
  1

  9
$DIMASO
 70
     1
  9
$DIMSHO
 70
     1
  9
$DIMPOST
  1

  9
$DIMAPOST
  1

  9
$DIMALT
 70
     0
  9
$DIMALTD
 70
     2
  9
$DIMALTF
 40
25.4
  9
$DIMLFAC
 40
1.0
  9
$DIMTOFL
 70
     0
  9
$DIMTVP
 40
0.0
  9
$DIMTIX
 70
     0
  9
$DIMSOXD
 70
     0
  9
$DIMSAH
 70
     0
  9
$DIMBLK1
  1

  9
$DIMBLK2
  1

  9
$DIMSTYLE
  2
STANDARD
  9
$DIMCLRD
 70
   256
  9
$DIMCLRE
 70
   256
  9
$DIMCLRT
 70
   256
  9
$DIMTFAC
 40
1.0
  9
$DIMGAP
 40
0.09
  9
$DIMJUST
 70
     0
  9
$DIMSD1
 70
     0
  9
$DIMSD2
 70
     0
  9
$DIMTOLJ
 70
     1
  9
$DIMTZIN
 70
     0
  9
$DIMALTZ
 70
     0
  9
$DIMALTTZ
 70
     0
  9
$DIMUPT
 70
     0
  9
$DIMDEC
 70
     4
  9
$DIMTDEC
 70
     4
  9
$DIMALTU
 70
     2
  9
$DIMALTTD
 70
     2
  9
$DIMTXSTY
  7
arial
  9
$DIMAUNIT
 70
     0
  9
$DIMADEC
 70
     0
  9
$DIMALTRND
 40
0.0
  9
$DIMAZIN
 70
     0
  9
$DIMDSEP
 70
    46
  9
$DIMATFIT
 70
     3
  9
$DIMFRAC
 70
     0
  9
$DIMLDRBLK
  1

  9
$DIMLUNIT
 70
     2
  9
$DIMLWD
 70
    -1
  9
$DIMLWE
 70
    -1
  9
$DIMTMOVE
 70
     0
  9
$LUNITS
 70
     2
  9
$LUPREC
 70
     3
  9
$SKETCHINC
 40
0.1
  9
$FILLETRAD
 40
0.0
  9
$AUNITS
 70
     0
  9
$AUPREC
 70
     0
  9
$MENU
  1
c:\acad13nt\win\SUPPORT\ACAD
  9
$ELEVATION
 40
0.0
  9
$PELEVATION
 40
0.0
  9
$THICKNESS
 40
0.0
  9
$LIMCHECK
 70
     0
  9
$CHAMFERA
 40
0.0
  9
$CHAMFERB
 40
0.0
  9
$CHAMFERC
 40
0.0
  9
$CHAMFERD
 40
0.0
  9
$SKPOLY
 70
     0
  9
$TDCREATE
 40
2449623.343430903
  9
$TDUCREATE
 40
2449623.635097569
  9
$TDUPDATE
 40
2455575.513362025
  9
$TDUUPDATE
 40
2455575.805028693
  9
$TDINDWG
 40
0.4488217477
  9
$TDUSRTIMER
 40
0.4488217477
  9
$USRTIMER
 70
     1
  9
$ANGBASE
 50
0.0
  9
$ANGDIR
 70
     0
  9
$PDMODE
 70
     0
  9
$PDSIZE
 40
0.0
  9
$PLINEWID
 40
0.0
  9
$SPLFRAME
 70
     0
  9
$SPLINETYPE
 70
     6
  9
$SPLINESEGS
 70
     8
  9
$HANDSEED
  5
1934
  9
$SURFTAB1
 70
     6
  9
$SURFTAB2
 70
     6
  9
$SURFTYPE
 70
     6
  9
$SURFU
 70
     6
  9
$SURFV
 70
     6
  9
$UCSBASE
  2

  9
$UCSNAME
  2

  9
$UCSORG
 10
0.0
 20
0.0
 30
0.0
  9
$UCSXDIR
 10
1.0
 20
0.0
 30
0.0
  9
$UCSYDIR
 10
0.0
 20
1.0
 30
0.0
  9
$UCSORTHOREF
  2

  9
$UCSORTHOVIEW
 70
     0
  9
$UCSORGTOP
 10
0.0
 20
0.0
 30
0.0
  9
$UCSORGBOTTOM
 10
0.0
 20
0.0
 30
0.0
  9
$UCSORGLEFT
 10
0.0
 20
0.0
 30
0.0
  9
$UCSORGRIGHT
 10
0.0
 20
0.0
 30
0.0
  9
$UCSORGFRONT
 10
0.0
 20
0.0
 30
0.0
  9
$UCSORGBACK
 10
0.0
 20
0.0
 30
0.0
  9
$PUCSBASE
  2

  9
$PUCSNAME
  2

  9
$PUCSORG
 10
0.0
 20
0.0
 30
0.0
  9
$PUCSXDIR
 10
1.0
 20
0.0
 30
0.0
  9
$PUCSYDIR
 10
0.0
 20
1.0
 30
0.0
  9
$PUCSORTHOREF
  2

  9
$PUCSORTHOVIEW
 70
     0
  9
$PUCSORGTOP
 10
0.0
 20
0.0
 30
0.0
  9
$PUCSORGBOTTOM
 10
0.0
 20
0.0
 30
0.0
  9
$PUCSORGLEFT
 10
0.0
 20
0.0
 30
0.0
  9
$PUCSORGRIGHT
 10
0.0
 20
0.0
 30
0.0
  9
$PUCSORGFRONT
 10
0.0
 20
0.0
 30
0.0
  9
$PUCSORGBACK
 10
0.0
 20
0.0
 30
0.0
  9
$USERI1
 70
     0
  9
$USERI2
 70
     0
  9
$USERI3
 70
     0
  9
$USERI4
 70
     0
  9
$USERI5
 70
     0
  9
$USERR1
 40
0.0
  9
$USERR2
 40
0.0
  9
$USERR3
 40
0.0
  9
$USERR4
 40
0.0
  9
$USERR5
 40
0.0
  9
$WORLDVIEW
 70
     1
  9
$SHADEDGE
 70
     3
  9
$SHADEDIF
 70
    70
  9
$TILEMODE
 70
     1
  9
$MAXACTVP
 70
    16
  9
$PINSBASE
 10
0.0
 20
0.0
 30
0.0
  9
$PLIMCHECK
 70
     0
  9
$PEXTMIN
 10
1.000000000000000E+20
 20
1.000000000000000E+20
 30
1.000000000000000E+20
  9
$PEXTMAX
 10
-1.000000000000000E+20
 20
-1.000000000000000E+20
 30
-1.000000000000000E+20
  9
$PLIMMIN
 10
0.0
 20
0.0
  9
$PLIMMAX
 10
12.0
 20
9.0
  9
$UNITMODE
 70
     0
  9
$VISRETAIN
 70
     0
  9
$PLINEGEN
 70
     1
  9
$PSLTSCALE
 70
     1
  9
$TREEDEPTH
 70
  3020
  9
$CMLSTYLE
  2
STANDARD
  9
$CMLJUST
 70
     0
  9
$CMLSCALE
 40
1.0
  9
$PROXYGRAPHICS
 70
     1
  9
$MEASUREMENT
 70
     0
  9
$CELWEIGHT
370
    -1
  9
$ENDCAPS
280
     0
  9
$JOINSTYLE
280
     0
  9
$LWDISPLAY
290
     0
  9
$INSUNITS
 70
     0
  9
$HYPERLINKBASE
  1
www.aquaengineering.com
  9
$STYLESHEET
  1
OKIColorShaded.ctb
  9
$XEDIT
290
     1
  9
$CEPSNTYPE
380
     0
  9
$PSTYLEMODE
290
     1
  9
$FINGERPRINTGUID
  2
{836422F3-A604-42EF-94E6-CBC462A1BF8A}
  9
$VERSIONGUID
  2
{0B4B95B6-FDB7-44C4-93F9-4508F7006B5E}
  9
$EXTNAMES
290
     1
  9
$PSVPSCALE
 40
0.0
  9
$OLESTARTUP
290
     1
  9
$SORTENTS
280
    48
  9
$INDEXCTL
280
     0
  9
$HIDETEXT
280
     1
  9
$XCLIPFRAME
290
     0
  9
$HALOGAP
280
     0
  9
$OBSCOLOR
 70
   257
  9
$OBSLTYPE
280
     0
  9
$INTERSECTIONDISPLAY
280
     0
  9
$INTERSECTIONCOLOR
 70
   257
  9
$DIMASSOC
280
     1
  9
$PROJECTNAME
  1

  0
ENDSEC
  0
SECTION
  2
CLASSES
  0
CLASS
  1
ACDBDICTIONARYWDFLT
  2
AcDbDictionaryWithDefault
  3
ObjectDBX Classes
 90
        0
 91
        1
280
     0
281
     0
  0
CLASS
  1
DICTIONARYVAR
  2
AcDbDictionaryVar
  3
ObjectDBX Classes
 90
        0
 91
       13
280
     0
281
     0
  0
CLASS
  1
TABLESTYLE
  2
AcDbTableStyle
  3
ObjectDBX Classes
 90
     4095
 91
        1
280
     0
281
     0
  0
CLASS
  1
MATERIAL
  2
AcDbMaterial
  3
ObjectDBX Classes
 90
     1153
 91
        3
280
     0
281
     0
  0
CLASS
  1
VISUALSTYLE
  2
AcDbVisualStyle
  3
ObjectDBX Classes
 90
     4095
 91
       16
280
     0
281
     0
  0
CLASS
  1
SCALE
  2
AcDbScale
  3
ObjectDBX Classes
 90
     1153
 91
       33
280
     0
281
     0
  0
CLASS
  1
MLEADERSTYLE
  2
AcDbMLeaderStyle
  3
ACDB_MLEADERSTYLE_CLASS
 90
     4095
 91
        1
280
     0
281
     0
  0
CLASS
  1
EXACXREFPANELOBJECT
  2
ExAcXREFPanelObject
  3
EXAC_ESW
 90
     1025
 91
        0
280
     0
281
     0
  0
CLASS
  1
NPOCOLLECTION
  2
AcDbImpNonPersistentObjectsCollection
  3
ObjectDBX Classes
 90
     1153
 91
        0
280
     0
281
     0
  0
CLASS
  1
CELLSTYLEMAP
  2
AcDbCellStyleMap
  3
ObjectDBX Classes
 90
     1152
 91
        5
280
     0
281
     0
  0
CLASS
  1
SORTENTSTABLE
  2
AcDbSortentsTable
  3
ObjectDBX Classes
 90
        0
 91
        2
280
     0
281
     0
  0
ENDSEC
  0
SECTION
  2
TABLES
  0
TABLE
  2
VPORT
  5
19
330
0
100
AcDbSymbolTable
 70
     1
  0
VPORT
  5
1811
330
19
100
AcDbSymbolTableRecord
100
AcDbViewportTableRecord
  2
*Active
 70
     0
 10
0.0
 20
0.0
 11
1.0
 21
1.0
 12
8.244999999999997
 22
5.219999999999999
 13
0.0
 23
0.0
 14
0.14
 24
0.14
 15
0.14
 25
0.14
 16
0.0
 26
0.0
 36
1.0
 17
0.0
 27
0.0
 37
0.0
 40
10.53157894736842
 41
2.281112737920937
 42
50.0
 43
0.0
 44
0.0
 50
0.0
 51
0.0
 71
     0
 72
  1000
 73
     1
 74
     1
 75
     0
 76
     0
 77
     0
 78
     0
281
     0
 65
     1
110
0.0
120
0.0
130
0.0
111
1.0
121
0.0
131
0.0
112
0.0
122
1.0
132
0.0
 79
     0
146
0.0
  0
ENDTAB
  0
TABLE
  2
LTYPE
  5
14
330
0
100
AcDbSymbolTable
 70
     1
  0
LTYPE
  5
15
330
14
100
AcDbSymbolTableRecord
100
AcDbLinetypeTableRecord
  2
BYBLOCK
 70
     0
  3

 72
    65
 73
     0
 40
0.0
  0
LTYPE
  5
16
330
14
100
AcDbSymbolTableRecord
100
AcDbLinetypeTableRecord
  2
BYLAYER
 70
     0
  3

 72
    65
 73
     0
 40
0.0
  0
LTYPE
  5
8
330
14
100
AcDbSymbolTableRecord
100
AcDbLinetypeTableRecord
  2
CONTINUOUS
 70
     0
  3
Solid line
 72
    65
 73
     0
 40
0.0
  0
ENDTAB
  0
TABLE
  2
LAYER
  5
10
102
{ACAD_XDICTIONARY
360
1805
102
}
330
0
100
AcDbSymbolTable
 70
     3
  0
LAYER
  5
4
330
10
100
AcDbSymbolTableRecord
100
AcDbLayerTableRecord
  2
0
 70
     0
 62
     7
  6
CONTINUOUS
370
    -3
390
5
  0
LAYER
  5
22
330
10
100
AcDbSymbolTableRecord
100
AcDbLayerTableRecord
  2
image
 70
     0
 62
     7
  6
CONTINUOUS
370
    -3
390
5
  0
LAYER
  5
17D0
330
10
100
AcDbSymbolTableRecord
100
AcDbLayerTableRecord
  2
title
 70
     0
 62
     4
  6
CONTINUOUS
370
    -3
390
5
  0
ENDTAB
  0
TABLE
  2
STYLE
  5
11
330
0
100
AcDbSymbolTable
 70
     6
  0
STYLE
  5
12
330
11
100
AcDbSymbolTableRecord
100
AcDbTextStyleTableRecord
  2
STANDARD
 70
     0
 40
0.0
 41
1.0
 50
0.0
 71
     0
 42
0.2
  3
txt
  4

  0
STYLE
  5
23
330
11
100
AcDbSymbolTableRecord
100
AcDbTextStyleTableRecord
  2
ROMANS
 70
     0
 40
0.0
 41
1.0
 50
0.0
 71
     0
 42
0.125
  3
ROMANS.SHX
  4

  0
STYLE
  5
3B
330
11
100
AcDbSymbolTableRecord
100
AcDbTextStyleTableRecord
  2
arial
 70
     0
 40
0.0
 41
1.0
 50
0.0
 71
     0
 42
0.15
  3
ARIAL.TTF
  4

1001
ACAD
1000
Arial
1071
       34
  0
STYLE
  5
17D1
330
11
100
AcDbSymbolTableRecord
100
AcDbTextStyleTableRecord
  2
L100
 70
     0
 40
0.1
 41
1.0
 50
0.0
 71
     0
 42
0.1
  3
romans.shx
  4

  0
STYLE
  5
17D2
330
11
100
AcDbSymbolTableRecord
100
AcDbTextStyleTableRecord
  2
L200
 70
     0
 40
0.2
 41
1.0
 50
0.0
 71
     0
 42
0.081
  3
ARIAL.TTF
  4

1001
ACAD
1000
Arial
1071
       34
  0
STYLE
  5
17D3
330
11
100
AcDbSymbolTableRecord
100
AcDbTextStyleTableRecord
  2
L80
 70
     0
 40
0.08
 41
1.0
 50
0.0
 71
     0
 42
0.08
  3
ROMANS
  4

  0
ENDTAB
  0
TABLE
  2
VIEW
  5
17
330
0
100
AcDbSymbolTable
 70
     0
  0
ENDTAB
  0
TABLE
  2
UCS
  5
18
330
0
100
AcDbSymbolTable
 70
     0
  0
ENDTAB
  0
TABLE
  2
APPID
  5
1B
330
0
100
AcDbSymbolTable
 70
    13
  0
APPID
  5
1C
330
1B
100
AcDbSymbolTableRecord
100
AcDbRegAppTableRecord
  2
ACAD
 70
     0
  0
APPID
  5
17D4
330
1B
100
AcDbSymbolTableRecord
100
AcDbRegAppTableRecord
  2
RAK
 70
     0
  0
APPID
  5
17D5
330
1B
100
AcDbSymbolTableRecord
100
AcDbRegAppTableRecord
  2
DCO15
 70
     0
  0
APPID
  5
180A
330
1B
100
AcDbSymbolTableRecord
100
AcDbRegAppTableRecord
  2
BBSI_PltSel
 70
     0
  0
APPID
  5
180B
330
1B
100
AcDbSymbolTableRecord
100
AcDbRegAppTableRecord
  2
BBSI_Plots
 70
     0
  0
APPID
  5
180C
330
1B
100
AcDbSymbolTableRecord
100
AcDbRegAppTableRecord
  2
BBSI_Bookmarks
 70
     0
  0
APPID
  5
180D
330
1B
100
AcDbSymbolTableRecord
100
AcDbRegAppTableRecord
  2
BBSI_StampsEx
 70
     0
  0
APPID
  5
180E
330
1B
100
AcDbSymbolTableRecord
100
AcDbRegAppTableRecord
  2
BBSI_Attachs
 70
     0
  0
APPID
  5
180F
330
1B
100
AcDbSymbolTableRecord
100
AcDbRegAppTableRecord
  2
BBSI_DigSigs
 70
     0
  0
APPID
  5
1810
330
1B
100
AcDbSymbolTableRecord
100
AcDbRegAppTableRecord
  2
ACAD_PSEXT
 70
     0
  0
APPID
  5
1860
330
1B
100
AcDbSymbolTableRecord
100
AcDbRegAppTableRecord
  2
ACAD_MLEADERVER
 70
     0
  0
APPID
  5
1880
330
1B
100
AcDbSymbolTableRecord
100
AcDbRegAppTableRecord
  2
BBSI_BookmarksEx
 70
     0
  0
APPID
  5
18C1
330
1B
100
AcDbSymbolTableRecord
100
AcDbRegAppTableRecord
  2
ACAD_EXEMPT_FROM_CAD_STANDARDS
 70
     0
  0
ENDTAB
  0
TABLE
  2
DIMSTYLE
  5
1D
330
0
100
AcDbSymbolTable
 70
     1
100
AcDbDimStyleTable
 71
     0
  0
DIMSTYLE
105
25
330
1D
100
AcDbSymbolTableRecord
100
AcDbDimStyleTableRecord
  2
STANDARD
 70
     0
340
12
  0
ENDTAB
  0
TABLE
  2
BLOCK_RECORD
  5
1
330
0
100
AcDbSymbolTable
 70
     1
  0
BLOCK_RECORD
  5
2
102
{ACAD_XDICTIONARY
360
18F3
102
}
330
1
100
AcDbSymbolTableRecord
100
AcDbBlockTableRecord
  2
*MODEL_SPACE
340
A
  0
BLOCK_RECORD
  5
C
330
1
100
AcDbSymbolTableRecord
100
AcDbBlockTableRecord
  2
*PAPER_SPACE
340
F
  0
BLOCK_RECORD
  5
17D6
102
{ACAD_XDICTIONARY
360
1901
102
}
330
1
100
AcDbSymbolTableRecord
100
AcDbBlockTableRecord
  2
titleblock
340
0
102
{BLKREFS
331
17E4
102
}
  0
ENDTAB
  0
ENDSEC
  0
SECTION
  2
BLOCKS
  0
BLOCK
  5
3
330
2
100
AcDbEntity
  8
0
100
AcDbBlockBegin
  2
*MODEL_SPACE
 70
     0
 10
0.0
 20
0.0
 30
0.0
  3
*MODEL_SPACE
  1

  0
ENDBLK
  5
9
330
2
100
AcDbEntity
  8
0
100
AcDbBlockEnd
  0
BLOCK
  5
D
330
C
100
AcDbEntity
 67
     1
  8
0
100
AcDbBlockBegin
  2
*PAPER_SPACE
 70
     0
 10
0.0
 20
0.0
 30
0.0
  3
*PAPER_SPACE
  1

  0
ENDBLK
  5
E
330
C
100
AcDbEntity
 67
     1
  8
0
100
AcDbBlockEnd
  0
BLOCK
  5
17E2
330
17D6
100
AcDbEntity
  8
0
100
AcDbBlockBegin
  2
titleblock
 70
     2
 10
0.0
 20
0.0
 30
0.0
  3
titleblock
  1

  0
LWPOLYLINE
  5
17D7
330
17D6
100
AcDbEntity
  8
title
100
AcDbPolyline
 90
        4
 70
     1
 43
0.0
 10
0.0
 20
0.0
 10
16.48999999999999
 20
0.0000000000000001
 10
16.48999999999999
 20
10.44
 10
0.0
 20
10.44
  0
ATTDEF
  5
17D8
330
17D6
100
AcDbEntity
  8
title
100
AcDbText
 10
0.5055556038023421
 20
0.7842270964783673
 30
0.0
 40
0.2
  1
D
  7
L200
 72
     4
 11
0.6064423705144839
 21
0.8842270964783672
 31
0.0
100
AcDbAttributeDefinition
  3
#
  2
D
 70
     0
  0
ATTDEF
  5
17D9
330
17D6
100
AcDbEntity
  8
title
100
AcDbText
 10
1.231442370514484
 20
1.34371230274675
 30
0.0
 40
0.2
  1

  7
L200
100
AcDbAttributeDefinition
  3
DETAIL TITLE TOP LINE
  2
TITLE1
 70
     0
  0
ATTDEF
  5
17DA
330
17D6
100
AcDbEntity
  8
title
100
AcDbText
 10
1.231442370514484
 20
0.9842270964783674
 30
0.0
 40
0.2
  1
TITLE
  7
L200
100
AcDbAttributeDefinition
  3
DETAIL TITLE TOP 2ND LINE
  2
TITLE2
 70
     0
  0
ATTDEF
  5
17DB
330
17D6
100
AcDbEntity
  8
title
100
AcDbText
 10
2.713645751168312
 20
0.5927927664583189
 30
0.0
 40
0.2
  1
TITLE2
  7
L200
100
AcDbAttributeDefinition
  3
DETAIL TITLE BOTTOM 1
  2
TITLE3
 70
     0
  0
ATTDEF
  5
17DC
330
17D6
100
AcDbEntity
  8
title
100
AcDbText
 10
2.713645751168312
 20
0.2692560808167741
 30
0.0
 40
0.2
  1

  7
L200
100
AcDbAttributeDefinition
  3
DETAIL TITLE BOTTOM 2
  2
TITLE4
 70
     0
  0
ATTDEF
  5
17DD
330
17D6
100
AcDbEntity
  8
title
 62
     7
100
AcDbText
 10
8.177214829966379
 20
0.9696027915446398
 30
0.0
 40
0.08
  1
-
  7
L80
 72
     2
 11
8.261024353775903
 21
0.9696027915446398
 31
0.0
100
AcDbAttributeDefinition
  3
REVISION DATE
  2
REVISED
 70
     0
  0
ATTDEF
  5
17DE
330
17D6
100
AcDbEntity
  8
title
 62
     7
100
AcDbText
 10
0.2639423705144838
 20
0.0847116480207214
 30
0.0
 40
0.08
  1
-
  7
L80
100
AcDbAttributeDefinition
  3
DWG-NAME
  2
DWG-NAME
 70
     0
  0
LWPOLYLINE
  5
17DF
330
17D6
100
AcDbEntity
  8
title
 62
     3
100
AcDbPolyline
 90
        2
 70
     1
 43
0.03
 10
0.6064423705144839
 20
0.5417270964783675
 42
0.9999999999999998
 10
0.6064423705144839
 20
1.226727096478367
 42
0.9999999999999998
  0
ATTDEF
  5
17E0
330
17D6
100
AcDbEntity
  8
title
 62
     7
100
AcDbText
 10
1.231442370514484
 20
0.7005637793954894
 30
0.0
 40
0.1
  1
N.T.S.
  7
L100
100
AcDbAttributeDefinition
  3
SCALE
  2
SCALE
 70
     0
  0
LWPOLYLINE
  5
17E1
330
17D6
100
AcDbEntity
  8
title
 62
     3
100
AcDbPolyline
 90
        2
 70
     0
 43
0.04
 39
0.03
 10
0.9489423705144833
 20
0.8842270964783672
 10
8.261024353775903
 20
0.8842270964783672
  0
ENDBLK
  5
17E3
330
17D6
100
AcDbEntity
  8
0
100
AcDbBlockEnd
  0
ENDSEC
  0
SECTION
  2
ENTITIES
  0
POLYLINE
  5
6B1
330
2
100
AcDbEntity
  8
image
100
AcDb2dPolyline
 66
     1
 10
0.0
 20
0.0
 30
0.0
 70
     4
 75
     6
  0
VERTEX
  5
6B2
330
6B1
100
AcDbEntity
  8
image
100
AcDbVertex
100
AcDb2dVertex
 10
6.526071336508067
 20
4.516091661296618
 30
0.0
 70
    16
  0
VERTEX
  5
6B3
330
6B1
100
AcDbEntity
  8
image
100
AcDbVertex
100
AcDb2dVertex
 10
6.526071336508067
 20
4.516091661296618
 30
0.0
 70
     8
  0
VERTEX
  5
6B4
330
6B1
100
AcDbEntity
  8
image
100
AcDbVertex
100
AcDb2dVertex
 10
6.541743012042157
 20
4.616370148737191
 30
0.0
 70
     8
  0
VERTEX
  5
6B5
330
6B1
100
AcDbEntity
  8
image
100
AcDbVertex
100
AcDb2dVertex
 10
6.556192189572339
 20
4.709485591757482
 30
0.0
 70
     8
  0
VERTEX
  5
6B6
330
6B1
100
AcDbEntity
  8
image
100
AcDbVertex
100
AcDb2dVertex
 10
6.569654116327438
 20
4.7958548128366
 30
0.0
 70
     8
  0
VERTEX
  5
6B7
330
6B1
100
AcDbEntity
  8
image
100
AcDbVertex
100
AcDb2dVertex
 10
6.582364039536273
 20
4.875894634453645
 30
0.0
 70
     8
  0
VERTEX
  5
6B8
330
6B1
100
AcDbEntity
  8
image
100
AcDbVertex
100
AcDb2dVertex
 10
6.594557206427669
 20
4.950021879087719
 30
0.0
 70
     8
  0
VERTEX
  5
6B9
330
6B1
100
AcDbEntity
  8
image
100
AcDbVertex
100
AcDb2dVertex
 10
6.606468864230446
 20
5.018653369217924
 30
0.0
 70
     8
  0
VERTEX
  5
6BA
330
6B1
100
AcDbEntity
  8
image
100
AcDbVertex
100
AcDb2dVertex
 10
6.618334260173426
 20
5.082205927323366
 30
0.0
 70
     8
  0
VERTEX
  5
6BB
330
6B1
100
AcDbEntity
  8
image
100
AcDbVertex
100
AcDb2dVertex
 10
6.630388641485435
 20
5.141096375883149
 30
0.0
 70
     8
  0
VERTEX
  5
6BC
330
6B1
100
AcDbEntity
  8
image
100
AcDbVertex
100
AcDb2dVertex
 10
6.642888341150044
 20
5.195819059215997
 30
0.0
 70
     8
  0
VERTEX
  5
6BD
330
6B1
100
AcDbEntity
  8
image
100
AcDbVertex
100
AcDb2dVertex
 10
6.656174035169822
 20
5.247178408999127
 30
0.0
 70
     8
  0
VERTEX
  5
6BE
330
6B1
100
AcDbEntity
  8
image
100
AcDbVertex
100
AcDb2dVertex
 10
6.670607485302078
 20
5.296056378749375
 30
0.0
 70
     8
  0
VERTEX
  5
6BF
330
6B1
100
AcDbEntity
  8
image
100
AcDbVertex
100
AcDb2dVertex
 10
6.686550453304128
 20
5.343334921983581
 30
0.0
 70
     8
  0
VERTEX
  5
6C0
330
6B1
100
AcDbEntity
  8
image
100
AcDbVertex
100
AcDb2dVertex
 10
6.704364700933293
 20
5.389895992218582
 30
0.0
 70
     8
  0
VERTEX
  5
6C1
330
6B1
100
AcDbEntity
  8
image
100
AcDbVertex
100
AcDb2dVertex
 10
6.724411989946887
 20
5.436621542971218
 30
0.0
 70
     8
  0
VERTEX
  5
6C2
330
6B1
100
AcDbEntity
  8
image
100
AcDbVertex
100
AcDb2dVertex
 10
6.74705408210222
 20
5.484393527758326
 30
0.0
 70
     8
  0
VERTEX
  5
6C3
330
6B1
100
AcDbEntity
  8
image
100
AcDbVertex
100
AcDb2dVertex
 10
6.772652739156612
 20
5.534093900096747
 30
0.0
 70
     8
  0
VERTEX
  5
6C4
330
6B1
100
AcDbEntity
  8
image
100
AcDbVertex
100
AcDb2dVertex
 10
6.80143936083979
 20
5.586323955095393
 30
0.0
 70
     8
  0
VERTEX
  5
6C5
330
6B1
100
AcDbEntity
  8
image
100
AcDbVertex
100
AcDb2dVertex
 10
6.833123898771141
 20
5.640562354231496
 30
0.0
 70
     8
  0
VERTEX
  5
6C6
330
6B1
100
AcDbEntity
  8
image
100
AcDbVertex
100
AcDb2dVertex
 10
6.867285942542462
 20
5.696007100574364
 30
0.0
 70
     8
  0
VERTEX
  5
6C7
330
6B1
100
AcDbEntity
  8
image
100
AcDbVertex
100
AcDb2dVertex
 10
6.903505081745553
 20
5.751856197193303
 30
0.0
 70
     8
  0
VERTEX
  5
6C8
330
6B1
100
AcDbEntity
  8
image
100
AcDbVertex
100
AcDb2dVertex
 10
6.94136090597221
 20
5.807307647157623
 30
0.0
 70
     8
  0
VERTEX
  5
6C9
330
6B1
100
AcDbEntity
  8
image
100
AcDbVertex
100
AcDb2dVertex
 10
6.980433004814234
 20
5.86155945353663
 30
0.0
 70
     8
  0
VERTEX
  5
6CA
330
6B1
100
AcDbEntity
  8
image
100
AcDbVertex
100
AcDb2dVertex
 10
7.02030096786342
 20
5.91380961939963
 30
0.0
 70
     8
  0
VERTEX
  5
6CB
330
6B1
100
AcDbEntity
  8
image
100
AcDbVertex
100
AcDb2dVertex
 10
7.060544384711569
 20
5.963256147815931
 30
0.0
 70
     8
  0
VERTEX
  5
6CC
330
6B1
100
AcDbEntity
  8
image
100
AcDbVertex
100
AcDb2dVertex
 10
7.100775309112645
 20
6.009266152315289
 30
0.0
 70
     8
  0
VERTEX
  5
6CD
330
6B1
100
AcDbEntity
  8
image
100
AcDbVertex
100
AcDb2dVertex
 10
7.140735651469274
 20
6.051883188269238
 30
0.0
 70
     8
  0
VERTEX
  5
6CE
330
6B1
100
AcDbEntity
  8
image
100
AcDbVertex
100
AcDb2dVertex
 10
7.180199786346246
 20
6.091319921509766
 30
0.0
 70
     8
  0
VERTEX
  5
6CF
330
6B1
100
AcDbEntity
  8
image
100
AcDbVertex
100
AcDb2dVertex
 10
7.218942088308356
 20
6.127789017868854
 30
0.0
 70
     8
  0
VERTEX
  5
6D0
330
6B1
100
AcDbEntity
  8
image
100
AcDbVertex
100
AcDb2dVertex
 10
7.256736931920386
 20
6.161503143178487
 30
0.0
 70
     8
  0
VERTEX
  5
6D1
330
6B1
100
AcDbEntity
  8
image
100
AcDbVertex
100
AcDb2dVertex
 10
7.293358691747137
 20
6.192674963270645
 30
0.0
 70
     8
  0
VERTEX
  5
6D2
330
6B1
100
AcDbEntity
  8
image
100
AcDbVertex
100
AcDb2dVertex
 10
7.328581742353396
 20
6.221517143977321
 30
0.0
 70
     8
  0
VERTEX
  5
6D3
330
6B1
100
AcDbEntity
  8
image
100
AcDbVertex
100
AcDb2dVertex
 10
7.362180458303953
 20
6.248242351130487
 30
0.0
 70
     8
  0
VERTEX
  5
6D4
330
6B1
100
AcDbEntity
  8
image
100
AcDbVertex
100
AcDb2dVertex
 10
7.394079541107387
 20
6.273060685375158
 30
0.0
 70
     8
  0
VERTEX
  5
6D5
330
6B1
100
AcDbEntity
  8
image
100
AcDbVertex
100
AcDb2dVertex
 10
7.424805000047435
 20
6.296171986608422
 30
0.0
 70
     8
  0
VERTEX
  5
6D6
330
6B1
100
AcDbEntity
  8
image
100
AcDbVertex
100
AcDb2dVertex
 10
7.455033171351612
 20
6.317773529540387
 30
0.0
 70
     8
  0
VERTEX
  5
6D7
330
6B1
100
AcDbEntity
  8
image
100
AcDbVertex
100
AcDb2dVertex
 10
7.48544039124744
 20
6.338062588881166
 30
0.0
 70
     8
  0
VERTEX
  5
6D8
330
6B1
100
AcDbEntity
  8
image
100
AcDbVertex
100
AcDb2dVertex
 10
7.51670299596244
 20
6.357236439340875
 30
0.0
 70
     8
  0
VERTEX
  5
6D9
330
6B1
100
AcDbEntity
  8
image
100
AcDbVertex
100
AcDb2dVertex
 10
7.549497321724128
 20
6.375492355629619
 30
0.0
 70
     8
  0
VERTEX
  5
6DA
330
6B1
100
AcDbEntity
  8
image
100
AcDbVertex
100
AcDb2dVertex
 10
7.58449970476003
 20
6.393027612457517
 30
0.0
 70
     8
  0
VERTEX
  5
6DB
330
6B1
100
AcDbEntity
  8
image
100
AcDbVertex
100
AcDb2dVertex
 10
7.62238648129766
 20
6.410039484534676
 30
0.0
 70
     8
  0
VERTEX
  5
6DC
330
6B1
100
AcDbEntity
  8
image
100
AcDbVertex
100
AcDb2dVertex
 10
7.663818278044928
 20
6.42661837236112
 30
0.0
 70
     8
  0
VERTEX
  5
6DD
330
6B1
100
AcDbEntity
  8
image
100
AcDbVertex
100
AcDb2dVertex
 10
7.709392883631295
 20
6.442427179596515
 30
0.0
 70
     8
  0
VERTEX
  5
6DE
330
6B1
100
AcDbEntity
  8
image
100
AcDbVertex
100
AcDb2dVertex
 10
7.759692377166597
 20
6.457021935690443
 30
0.0
 70
     8
  0
VERTEX
  5
6DF
330
6B1
100
AcDbEntity
  8
image
100
AcDbVertex
100
AcDb2dVertex
 10
7.815298837760689
 20
6.469958670092479
 30
0.0
 70
     8
  0
VERTEX
  5
6E0
330
6B1
100
AcDbEntity
  8
image
100
AcDbVertex
100
AcDb2dVertex
 10
7.87679434452341
 20
6.480793412252202
 30
0.0
 70
     8
  0
VERTEX
  5
6E1
330
6B1
100
AcDbEntity
  8
image
100
AcDbVertex
100
AcDb2dVertex
 10
7.944760976564605
 20
6.489082191619194
 30
0.0
 70
     8
  0
VERTEX
  5
6E2
330
6B1
100
AcDbEntity
  8
image
100
AcDbVertex
100
AcDb2dVertex
 10
8.019780812994124
 20
6.494381037643032
 30
0.0
 70
     8
  0
VERTEX
  5
6E3
330
6B1
100
AcDbEntity
  8
image
100
AcDbVertex
100
AcDb2dVertex
 10
8.102435932921803
 20
6.496245979773293
 30
0.0
 70
     8
  0
VERTEX
  5
6E4
330
6B1
100
AcDbEntity
  8
image
100
AcDbVertex
100
AcDb2dVertex
 10
6.569701577252029
 20
4.793422195902165
 30
0.0
 70
    16
  0
VERTEX
  5
6E5
330
6B1
100
AcDbEntity
  8
image
100
AcDbVertex
100
AcDb2dVertex
 10
6.625863493775032
 20
5.186379437926428
 30
0.0
 70
    16
  0
VERTEX
  5
6E6
330
6B1
100
AcDbEntity
  8
image
100
AcDbVertex
100
AcDb2dVertex
 10
6.737257254821965
 20
5.504116928703156
 30
0.0
 70
    16
  0
VERTEX
  5
6E7
330
6B1
100
AcDbEntity
  8
image
100
AcDbVertex
100
AcDb2dVertex
 10
7.061023921876785
 20
6.00171624784143
 30
0.0
 70
    16
  0
VERTEX
  5
6E8
330
6B1
100
AcDbEntity
  8
image
100
AcDbVertex
100
AcDb2dVertex
 10
7.38191336594032
 20
6.268554966826703
 30
0.0
 70
    16
  0
VERTEX
  5
6E9
330
6B1
100
AcDbEntity
  8
image
100
AcDbVertex
100
AcDb2dVertex
 10
7.584405364185652
 20
6.413517991634689
 30
0.0
 70
    16
  0
VERTEX
  5
6EA
330
6B1
100
AcDbEntity
  8
image
100
AcDbVertex
100
AcDb2dVertex
 10
7.871324498130572
 20
6.496245979773293
 30
0.0
 70
    16
  0
VERTEX
  5
6EB
330
6B1
100
AcDbEntity
  8
image
100
AcDbVertex
100
AcDb2dVertex
 10
8.102435932921803
 20
6.496245979773293
 30
0.0
 70
    16
  0
SEQEND
  5
6EC
330
6B1
100
AcDbEntity
  8
image
  0
POLYLINE
  5
6ED
330
2
100
AcDbEntity
  8
image
100
AcDb2dPolyline
 66
     1
 10
0.0
 20
0.0
 30
0.0
 70
     4
 75
     6
  0
VERTEX
  5
6EE
330
6ED
100
AcDbEntity
  8
image
100
AcDbVertex
100
AcDb2dVertex
 10
6.562636414747334
 20
4.510339163942981
 30
0.0
 70
    16
  0
VERTEX
  5
6EF
330
6ED
100
AcDbEntity
  8
image
100
AcDbVertex
100
AcDb2dVertex
 10
6.562636414747334
 20
4.510339163942981
 30
0.0
 70
     8
  0
VERTEX
  5
6F0
330
6ED
100
AcDbEntity
  8
image
100
AcDbVertex
100
AcDb2dVertex
 10
6.578310132311525
 20
4.610626982517041
 30
0.0
 70
     8
  0
VERTEX
  5
6F1
330
6ED
100
AcDbEntity
  8
image
100
AcDbVertex
100
AcDb2dVertex
 10
6.592734679067763
 20
4.703588901236932
 30
0.0
 70
     8
  0
VERTEX
  5
6F2
330
6ED
100
AcDbEntity
  8
image
100
AcDbVertex
100
AcDb2dVertex
 10
6.606144738371074
 20
4.789659135460896
 30
0.0
 70
     8
  0
VERTEX
  5
6F3
330
6ED
100
AcDbEntity
  8
image
100
AcDbVertex
100
AcDb2dVertex
 10
6.618774993576483
 20
4.869271900547184
 30
0.0
 70
     8
  0
VERTEX
  5
6F4
330
6ED
100
AcDbEntity
  8
image
100
AcDbVertex
100
AcDb2dVertex
 10
6.630860128039014
 20
4.942861411854037
 30
0.0
 70
     8
  0
VERTEX
  5
6F5
330
6ED
100
AcDbEntity
  8
image
100
AcDbVertex
100
AcDb2dVertex
 10
6.642634825113699
 20
5.010861884739702
 30
0.0
 70
     8
  0
VERTEX
  5
6F6
330
6ED
100
AcDbEntity
  8
image
100
AcDbVertex
100
AcDb2dVertex
 10
6.654333768155563
 20
5.073707534562421
 30
0.0
 70
     8
  0
VERTEX
  5
6F7
330
6ED
100
AcDbEntity
  8
image
100
AcDbVertex
100
AcDb2dVertex
 10
6.666191640519627
 20
5.131832576680446
 30
0.0
 70
     8
  0
VERTEX
  5
6F8
330
6ED
100
AcDbEntity
  8
image
100
AcDbVertex
100
AcDb2dVertex
 10
6.678464028312372
 20
5.185746444615675
 30
0.0
 70
     8
  0
VERTEX
  5
6F9
330
6ED
100
AcDbEntity
  8
image
100
AcDbVertex
100
AcDb2dVertex
 10
6.691490128646087
 20
5.236259444544669
 30
0.0
 70
     8
  0
VERTEX
  5
6FA
330
6ED
100
AcDbEntity
  8
image
100
AcDbVertex
100
AcDb2dVertex
 10
6.705630041384505
 20
5.284257100807641
 30
0.0
 70
     8
  0
VERTEX
  5
6FB
330
6ED
100
AcDbEntity
  8
image
100
AcDbVertex
100
AcDb2dVertex
 10
6.721243866391365
 20
5.330624937744802
 30
0.0
 70
     8
  0
VERTEX
  5
6FC
330
6ED
100
AcDbEntity
  8
image
100
AcDbVertex
100
AcDb2dVertex
 10
6.738691703530403
 20
5.37624847969637
 30
0.0
 70
     8
  0
VERTEX
  5
6FD
330
6ED
100
AcDbEntity
  8
image
100
AcDbVertex
100
AcDb2dVertex
 10
6.758333652665353
 20
5.422013251002558
 30
0.0
 70
     8
  0
VERTEX
  5
6FE
330
6ED
100
AcDbEntity
  8
image
100
AcDbVertex
100
AcDb2dVertex
 10
6.78052981365996
 20
5.468804776003578
 30
0.0
 70
     8
  0
VERTEX
  5
6FF
330
6ED
100
AcDbEntity
  8
image
100
AcDbVertex
100
AcDb2dVertex
 10
6.805640286377954
 20
5.517508579039651
 30
0.0
 70
     8
  0
VERTEX
  5
700
330
6ED
100
AcDbEntity
  8
image
100
AcDbVertex
100
AcDb2dVertex
 10
6.833896048891226
 20
5.568730491541442
 30
0.0
 70
     8
  0
VERTEX
  5
701
330
6ED
100
AcDbEntity
  8
image
100
AcDbVertex
100
AcDb2dVertex
 10
6.865011592104295
 20
5.621957573301438
 30
0.0
 70
     8
  0
VERTEX
  5
702
330
6ED
100
AcDbEntity
  8
image
100
AcDbVertex
100
AcDb2dVertex
 10
6.89857228512983
 20
5.67639719120258
 30
0.0
 70
     8
  0
VERTEX
  5
703
330
6ED
100
AcDbEntity
  8
image
100
AcDbVertex
100
AcDb2dVertex
 10
6.934163497080497
 20
5.731256712127814
 30
0.0
 70
     8
  0
VERTEX
  5
704
330
6ED
100
AcDbEntity
  8
image
100
AcDbVertex
100
AcDb2dVertex
 10
6.971370597068965
 20
5.785743502960078
 30
0.0
 70
     8
  0
VERTEX
  5
705
330
6ED
100
AcDbEntity
  8
image
100
AcDbVertex
100
AcDb2dVertex
 10
7.009778954207906
 20
5.839064930582315
 30
0.0
 70
     8
  0
VERTEX
  5
706
330
6ED
100
AcDbEntity
  8
image
100
AcDbVertex
100
AcDb2dVertex
 10
7.048973937609986
 20
5.89042836187747
 30
0.0
 70
     8
  0
VERTEX
  5
707
330
6ED
100
AcDbEntity
  8
image
100
AcDbVertex
100
AcDb2dVertex
 10
7.088540916387874
 20
5.939041163728477
 30
0.0
 70
     8
  0
VERTEX
  5
708
330
6ED
100
AcDbEntity
  8
image
100
AcDbVertex
100
AcDb2dVertex
 10
7.128096409594448
 20
5.984276937685491
 30
0.0
 70
     8
  0
VERTEX
  5
709
330
6ED
100
AcDbEntity
  8
image
100
AcDbVertex
100
AcDb2dVertex
 10
7.167381536043386
 20
6.026174223967464
 30
0.0
 70
     8
  0
VERTEX
  5
70A
330
6ED
100
AcDbEntity
  8
image
100
AcDbVertex
100
AcDb2dVertex
 10
7.206168564488574
 20
6.064937797460563
 30
0.0
 70
     8
  0
VERTEX
  5
70B
330
6ED
100
AcDbEntity
  8
image
100
AcDbVertex
100
AcDb2dVertex
 10
7.244229763683911
 20
6.100772433050943
 30
0.0
 70
     8
  0
VERTEX
  5
70C
330
6ED
100
AcDbEntity
  8
image
100
AcDbVertex
100
AcDb2dVertex
 10
7.281337402383275
 20
6.133882905624771
 30
0.0
 70
     8
  0
VERTEX
  5
70D
330
6ED
100
AcDbEntity
  8
image
100
AcDbVertex
100
AcDb2dVertex
 10
7.317263749340558
 20
6.164473990068207
 30
0.0
 70
     8
  0
VERTEX
  5
70E
330
6ED
100
AcDbEntity
  8
image
100
AcDbVertex
100
AcDb2dVertex
 10
7.351781073309641
 20
6.192750461267417
 30
0.0
 70
     8
  0
VERTEX
  5
70F
330
6ED
100
AcDbEntity
  8
image
100
AcDbVertex
100
AcDb2dVertex
 10
7.38466164304442
 20
6.218917094108556
 30
0.0
 70
     8
  0
VERTEX
  5
710
330
6ED
100
AcDbEntity
  8
image
100
AcDbVertex
100
AcDb2dVertex
 10
7.415825307314683
 20
6.243177320722834
 30
0.0
 70
     8
  0
VERTEX
  5
711
330
6ED
100
AcDbEntity
  8
image
100
AcDbVertex
100
AcDb2dVertex
 10
7.44578223495381
 20
6.265729202221622
 30
0.0
 70
     8
  0
VERTEX
  5
712
330
6ED
100
AcDbEntity
  8
image
100
AcDbVertex
100
AcDb2dVertex
 10
7.475190174811089
 20
6.286769456961335
 30
0.0
 70
     8
  0
VERTEX
  5
713
330
6ED
100
AcDbEntity
  8
image
100
AcDbVertex
100
AcDb2dVertex
 10
7.504706875735809
 20
6.306494803298397
 30
0.0
 70
     8
  0
VERTEX
  5
714
330
6ED
100
AcDbEntity
  8
image
100
AcDbVertex
100
AcDb2dVertex
 10
7.534990086577249
 20
6.32510195958922
 30
0.0
 70
     8
  0
VERTEX
  5
715
330
6ED
100
AcDbEntity
  8
image
100
AcDbVertex
100
AcDb2dVertex
 10
7.566697556184696
 20
6.342787644190226
 30
0.0
 70
     8
  0
VERTEX
  5
716
330
6ED
100
AcDbEntity
  8
image
100
AcDbVertex
100
AcDb2dVertex
 10
7.600487033407436
 20
6.359748575457823
 30
0.0
 70
     8
  0
VERTEX
  5
717
330
6ED
100
AcDbEntity
  8
image
100
AcDbVertex
100
AcDb2dVertex
 10
7.637016267094761
 20
6.376181471748436
 30
0.0
 70
     8
  0
VERTEX
  5
718
330
6ED
100
AcDbEntity
  8
image
100
AcDbVertex
100
AcDb2dVertex
 10
7.676934460591432
 20
6.392179515449582
 30
0.0
 70
     8
  0
VERTEX
  5
719
330
6ED
100
AcDbEntity
  8
image
100
AcDbVertex
100
AcDb2dVertex
 10
7.720856635224176
 20
6.407421745073188
 30
0.0
 70
     8
  0
VERTEX
  5
71A
330
6ED
100
AcDbEntity
  8
image
100
AcDbVertex
100
AcDb2dVertex
 10
7.769389266815203
 20
6.421483663162286
 30
0.0
 70
     8
  0
VERTEX
  5
71B
330
6ED
100
AcDbEntity
  8
image
100
AcDbVertex
100
AcDb2dVertex
 10
7.823138831186714
 20
6.433940772259903
 30
0.0
 70
     8
  0
VERTEX
  5
71C
330
6ED
100
AcDbEntity
  8
image
100
AcDbVertex
100
AcDb2dVertex
 10
7.882711804160923
 20
6.444368574909072
 30
0.0
 70
     8
  0
VERTEX
  5
71D
330
6ED
100
AcDbEntity
  8
image
100
AcDbVertex
100
AcDb2dVertex
 10
7.948714661560035
 20
6.452342573652822
 30
0.0
 70
     8
  0
VERTEX
  5
71E
330
6ED
100
AcDbEntity
  8
image
100
AcDbVertex
100
AcDb2dVertex
 10
8.021753879206261
 20
6.457438271034186
 30
0.0
 70
     8
  0
VERTEX
  5
71F
330
6ED
100
AcDbEntity
  8
image
100
AcDbVertex
100
AcDb2dVertex
 10
8.102435932921803
 20
6.459231169596188
 30
0.0
 70
     8
  0
VERTEX
  5
720
330
6ED
100
AcDbEntity
  8
image
100
AcDbVertex
100
AcDb2dVertex
 10
6.606307163422474
 20
4.787927182486699
 30
0.0
 70
    16
  0
VERTEX
  5
721
330
6ED
100
AcDbEntity
  8
image
100
AcDbVertex
100
AcDb2dVertex
 10
6.661993105295838
 20
5.177554095042607
 30
0.0
 70
    16
  0
VERTEX
  5
722
330
6ED
100
AcDbEntity
  8
image
100
AcDbVertex
100
AcDb2dVertex
 10
6.77071322944861
 20
5.487665353703503
 30
0.0
 70
    16
  0
VERTEX
  5
723
330
6ED
100
AcDbEntity
  8
image
100
AcDbVertex
100
AcDb2dVertex
 10
7.088995695177437
 20
5.976835964381288
 30
0.0
 70
    16
  0
VERTEX
  5
724
330
6ED
100
AcDbEntity
  8
image
100
AcDbVertex
100
AcDb2dVertex
 10
7.404549488168889
 20
6.239237771142219
 30
0.0
 70
    16
  0
VERTEX
  5
725
330
6ED
100
AcDbEntity
  8
image
100
AcDbVertex
100
AcDb2dVertex
 10
7.600776210413538
 20
6.379715515701176
 30
0.0
 70
    16
  0
VERTEX
  5
726
330
6ED
100
AcDbEntity
  8
image
100
AcDbVertex
100
AcDb2dVertex
 10
7.87655425196819
 20
6.459231169596188
 30
0.0
 70
    16
  0
VERTEX
  5
727
330
6ED
100
AcDbEntity
  8
image
100
AcDbVertex
100
AcDb2dVertex
 10
8.102435932921803
 20
6.459231169596188
 30
0.0
 70
    16
  0
SEQEND
  5
728
330
6ED
100
AcDbEntity
  8
image
  0
POLYLINE
  5
729
330
2
100
AcDbEntity
  8
image
100
AcDb2dPolyline
 66
     1
 10
0.0
 20
0.0
 30
0.0
 70
     4
 75
     6
  0
VERTEX
  5
72A
330
729
100
AcDbEntity
  8
image
100
AcDbVertex
100
AcDb2dVertex
 10
6.585125213340585
 20
4.51547552242137
 30
0.0
 70
    16
  0
VERTEX
  5
72B
330
729
100
AcDbEntity
  8
image
100
AcDbVertex
100
AcDb2dVertex
 10
6.585125213340585
 20
4.51547552242137
 30
0.0
 70
     8
  0
VERTEX
  5
72C
330
729
100
AcDbEntity
  8
image
100
AcDbVertex
100
AcDb2dVertex
 10
6.605636568245628
 20
4.661889631956727
 30
0.0
 70
     8
  0
VERTEX
  5
72D
330
729
100
AcDbEntity
  8
image
100
AcDbVertex
100
AcDb2dVertex
 10
6.623051295781799
 20
4.785100776588938
 30
0.0
 70
     8
  0
VERTEX
  5
72E
330
729
100
AcDbEntity
  8
image
100
AcDbVertex
100
AcDb2dVertex
 10
6.638058270705279
 20
4.888278900269236
 30
0.0
 70
     8
  0
VERTEX
  5
72F
330
729
100
AcDbEntity
  8
image
100
AcDbVertex
100
AcDb2dVertex
 10
6.651346367772244
 20
4.974593946948841
 30
0.0
 70
     8
  0
VERTEX
  5
730
330
729
100
AcDbEntity
  8
image
100
AcDbVertex
100
AcDb2dVertex
 10
6.663604461738874
 20
5.047215860578971
 30
0.0
 70
     8
  0
VERTEX
  5
731
330
729
100
AcDbEntity
  8
image
100
AcDbVertex
100
AcDb2dVertex
 10
6.675521427361346
 20
5.109314585110853
 30
0.0
 70
     8
  0
VERTEX
  5
732
330
729
100
AcDbEntity
  8
image
100
AcDbVertex
100
AcDb2dVertex
 10
6.687786139395843
 20
5.164060064495712
 30
0.0
 70
     8
  0
VERTEX
  5
733
330
729
100
AcDbEntity
  8
image
100
AcDbVertex
100
AcDb2dVertex
 10
6.70108747259854
 20
5.214622242684766
 30
0.0
 70
     8
  0
VERTEX
  5
734
330
729
100
AcDbEntity
  8
image
100
AcDbVertex
100
AcDb2dVertex
 10
6.716012880348266
 20
5.263683383867421
 30
0.0
 70
     8
  0
VERTEX
  5
735
330
729
100
AcDbEntity
  8
image
100
AcDbVertex
100
AcDb2dVertex
 10
6.732744130514426
 20
5.311975033185811
 30
0.0
 70
     8
  0
VERTEX
  5
736
330
729
100
AcDbEntity
  8
image
100
AcDbVertex
100
AcDb2dVertex
 10
6.751361569589068
 20
5.359741056020245
 30
0.0
 70
     8
  0
VERTEX
  5
737
330
729
100
AcDbEntity
  8
image
100
AcDbVertex
100
AcDb2dVertex
 10
6.771945544064248
 20
5.407225317751032
 30
0.0
 70
     8
  0
VERTEX
  5
738
330
729
100
AcDbEntity
  8
image
100
AcDbVertex
100
AcDb2dVertex
 10
6.794576400432017
 20
5.454671683758489
 30
0.0
 70
     8
  0
VERTEX
  5
739
330
729
100
AcDbEntity
  8
image
100
AcDbVertex
100
AcDb2dVertex
 10
6.819334485184423
 20
5.502324019422927
 30
0.0
 70
     8
  0
VERTEX
  5
73A
330
729
100
AcDbEntity
  8
image
100
AcDbVertex
100
AcDb2dVertex
 10
6.846300144813522
 20
5.550426190124655
 30
0.0
 70
     8
  0
VERTEX
  5
73B
330
729
100
AcDbEntity
  8
image
100
AcDbVertex
100
AcDb2dVertex
 10
6.875553725811368
 20
5.599222061243986
 30
0.0
 70
     8
  0
VERTEX
  5
73C
330
729
100
AcDbEntity
  8
image
100
AcDbVertex
100
AcDb2dVertex
 10
6.90706708193726
 20
5.648797652548255
 30
0.0
 70
     8
  0
VERTEX
  5
73D
330
729
100
AcDbEntity
  8
image
100
AcDbVertex
100
AcDb2dVertex
 10
6.940378096019546
 20
5.698607601352899
 30
0.0
 70
     8
  0
VERTEX
  5
73E
330
729
100
AcDbEntity
  8
image
100
AcDbVertex
100
AcDb2dVertex
 10
6.974916158153821
 20
5.747948699360366
 30
0.0
 70
     8
  0
VERTEX
  5
73F
330
729
100
AcDbEntity
  8
image
100
AcDbVertex
100
AcDb2dVertex
 10
7.010110658435674
 20
5.796117738273116
 30
0.0
 70
     8
  0
VERTEX
  5
740
330
729
100
AcDbEntity
  8
image
100
AcDbVertex
100
AcDb2dVertex
 10
7.045390986960704
 20
5.842411509793601
 30
0.0
 70
     8
  0
VERTEX
  5
741
330
729
100
AcDbEntity
  8
image
100
AcDbVertex
100
AcDb2dVertex
 10
7.080186533824509
 20
5.886126805624277
 30
0.0
 70
     8
  0
VERTEX
  5
742
330
729
100
AcDbEntity
  8
image
100
AcDbVertex
100
AcDb2dVertex
 10
7.113926689122678
 20
5.9265604174676
 30
0.0
 70
     8
  0
VERTEX
  5
743
330
729
100
AcDbEntity
  8
image
100
AcDbVertex
100
AcDb2dVertex
 10
7.146040842950814
 20
5.963009137026029
 30
0.0
 70
     8
  0
VERTEX
  5
744
330
729
100
AcDbEntity
  8
image
100
AcDbVertex
100
AcDb2dVertex
 10
7.176105261712397
 20
5.994975746747003
 30
0.0
 70
     8
  0
VERTEX
  5
745
330
729
100
AcDbEntity
  8
image
100
AcDbVertex
100
AcDb2dVertex
 10
7.204283717042507
 20
6.022786992057964
 30
0.0
 70
     8
  0
VERTEX
  5
746
330
729
100
AcDbEntity
  8
image
100
AcDbVertex
100
AcDb2dVertex
 10
7.230886856884108
 20
6.046975609131335
 30
0.0
 70
     8
  0
VERTEX
  5
747
330
729
100
AcDbEntity
  8
image
100
AcDbVertex
100
AcDb2dVertex
 10
7.256225329180157
 20
6.068074334139536
 30
0.0
 70
     8
  0
VERTEX
  5
748
330
729
100
AcDbEntity
  8
image
100
AcDbVertex
100
AcDb2dVertex
 10
7.280609781873625
 20
6.086615903255003
 30
0.0
 70
     8
  0
VERTEX
  5
749
330
729
100
AcDbEntity
  8
image
100
AcDbVertex
100
AcDb2dVertex
 10
7.30435086290748
 20
6.103133052650152
 30
0.0
 70
     8
  0
VERTEX
  5
74A
330
729
100
AcDbEntity
  8
image
100
AcDbVertex
100
AcDb2dVertex
 10
7.327759220224677
 20
6.118158518497414
 30
0.0
 70
     8
  0
VERTEX
  5
74B
330
729
100
AcDbEntity
  8
image
100
AcDbVertex
100
AcDb2dVertex
 10
7.35114550176819
 20
6.132225036969218
 30
0.0
 70
     8
  0
VERTEX
  5
74C
330
729
100
AcDbEntity
  8
image
100
AcDbVertex
100
AcDb2dVertex
 10
7.374743863232648
 20
6.145758157921045
 30
0.0
 70
     8
  0
VERTEX
  5
74D
330
729
100
AcDbEntity
  8
image
100
AcDbVertex
100
AcDb2dVertex
 10
7.398482491319377
 20
6.158754685940634
 30
0.0
 70
     8
  0
VERTEX
  5
74E
330
729
100
AcDbEntity
  8
image
100
AcDbVertex
100
AcDb2dVertex
 10
7.422213080481359
 20
6.171104239298783
 30
0.0
 70
     8
  0
VERTEX
  5
74F
330
729
100
AcDbEntity
  8
image
100
AcDbVertex
100
AcDb2dVertex
 10
7.445787325171586
 20
6.182696436266285
 30
0.0
 70
     8
  0
VERTEX
  5
750
330
729
100
AcDbEntity
  8
image
100
AcDbVertex
100
AcDb2dVertex
 10
7.469056919843044
 20
6.193420895113943
 30
0.0
 70
     8
  0
VERTEX
  5
751
330
729
100
AcDbEntity
  8
image
100
AcDbVertex
100
AcDb2dVertex
 10
7.491873558948729
 20
6.203167234112553
 30
0.0
 70
     8
  0
VERTEX
  5
752
330
729
100
AcDbEntity
  8
image
100
AcDbVertex
100
AcDb2dVertex
 10
7.514088936941618
 20
6.211825071532912
 30
0.0
 70
     8
  0
VERTEX
  5
753
330
729
100
AcDbEntity
  8
image
100
AcDbVertex
100
AcDb2dVertex
 10
7.535554748274709
 20
6.219284025645814
 30
0.0
 70
     8
  0
VERTEX
  5
754
330
729
100
AcDbEntity
  8
image
100
AcDbVertex
100
AcDb2dVertex
 10
7.556128995274228
 20
6.225471129394344
 30
0.0
 70
     8
  0
VERTEX
  5
755
330
729
100
AcDbEntity
  8
image
100
AcDbVertex
100
AcDb2dVertex
 10
7.575694911759377
 20
6.230463074410712
 30
0.0
 70
     8
  0
VERTEX
  5
756
330
729
100
AcDbEntity
  8
image
100
AcDbVertex
100
AcDb2dVertex
 10
7.594142039422592
 20
6.234373966999411
 30
0.0
 70
     8
  0
VERTEX
  5
757
330
729
100
AcDbEntity
  8
image
100
AcDbVertex
100
AcDb2dVertex
 10
7.611359919956317
 20
6.237317913464936
 30
0.0
 70
     8
  0
VERTEX
  5
758
330
729
100
AcDbEntity
  8
image
100
AcDbVertex
100
AcDb2dVertex
 10
7.627238095052987
 20
6.23940902011178
 30
0.0
 70
     8
  0
VERTEX
  5
759
330
729
100
AcDbEntity
  8
image
100
AcDbVertex
100
AcDb2dVertex
 10
7.64166610640505
 20
6.240761393244438
 30
0.0
 70
     8
  0
VERTEX
  5
75A
330
729
100
AcDbEntity
  8
image
100
AcDbVertex
100
AcDb2dVertex
 10
7.654533495704939
 20
6.241489139167404
 30
0.0
 70
     8
  0
VERTEX
  5
75B
330
729
100
AcDbEntity
  8
image
100
AcDbVertex
100
AcDb2dVertex
 10
7.665729804645096
 20
6.241706364185171
 30
0.0
 70
     8
  0
VERTEX
  5
75C
330
729
100
AcDbEntity
  8
image
100
AcDbVertex
100
AcDb2dVertex
 10
6.644563329362465
 20
4.939668162343144
 30
0.0
 70
    16
  0
VERTEX
  5
75D
330
729
100
AcDbEntity
  8
image
100
AcDbVertex
100
AcDb2dVertex
 10
6.682682182738478
 20
5.225431386626949
 30
0.0
 70
    16
  0
VERTEX
  5
75E
330
729
100
AcDbEntity
  8
image
100
AcDbVertex
100
AcDb2dVertex
 10
6.850292201962883
 20
5.589221359399553
 30
0.0
 70
    16
  0
VERTEX
  5
75F
330
729
100
AcDbEntity
  8
image
100
AcDbVertex
100
AcDb2dVertex
 10
7.169471364278191
 20
6.013015543238752
 30
0.0
 70
    16
  0
VERTEX
  5
760
330
729
100
AcDbEntity
  8
image
100
AcDbVertex
100
AcDb2dVertex
 10
7.348067398629225
 20
6.136771289801599
 30
0.0
 70
    16
  0
VERTEX
  5
761
330
729
100
AcDbEntity
  8
image
100
AcDbVertex
100
AcDb2dVertex
 10
7.545132051814039
 20
6.233249519370152
 30
0.0
 70
    16
  0
VERTEX
  5
762
330
729
100
AcDbEntity
  8
image
100
AcDbVertex
100
AcDb2dVertex
 10
7.638199273113258
 20
6.241706364185171
 30
0.0
 70
    16
  0
VERTEX
  5
763
330
729
100
AcDbEntity
  8
image
100
AcDbVertex
100
AcDb2dVertex
 10
7.665729804645096
 20
6.241706364185171
 30
0.0
 70
    16
  0
SEQEND
  5
764
330
729
100
AcDbEntity
  8
image
  0
POLYLINE
  5
765
330
2
100
AcDbEntity
  8
image
100
AcDb2dPolyline
 66
     1
 10
0.0
 20
0.0
 30
0.0
 70
     4
 75
     6
  0
VERTEX
  5
766
330
765
100
AcDbEntity
  8
image
100
AcDbVertex
100
AcDb2dVertex
 10
6.621781917966462
 20
4.510339163942981
 30
0.0
 70
    16
  0
VERTEX
  5
767
330
765
100
AcDbEntity
  8
image
100
AcDbVertex
100
AcDb2dVertex
 10
6.621781917966462
 20
4.510339163942981
 30
0.0
 70
     8
  0
VERTEX
  5
768
330
765
100
AcDbEntity
  8
image
100
AcDbVertex
100
AcDb2dVertex
 10
6.642281720242895
 20
4.656671580778512
 30
0.0
 70
     8
  0
VERTEX
  5
769
330
765
100
AcDbEntity
  8
image
100
AcDbVertex
100
AcDb2dVertex
 10
6.65964822596883
 20
4.779568206449534
 30
0.0
 70
     8
  0
VERTEX
  5
76A
330
765
100
AcDbEntity
  8
image
100
AcDbVertex
100
AcDb2dVertex
 10
6.674569044090187
 20
4.882230992600268
 30
0.0
 70
     8
  0
VERTEX
  5
76B
330
765
100
AcDbEntity
  8
image
100
AcDbVertex
100
AcDb2dVertex
 10
6.687731783552887
 20
4.967861890874933
 30
0.0
 70
     8
  0
VERTEX
  5
76C
330
765
100
AcDbEntity
  8
image
100
AcDbVertex
100
AcDb2dVertex
 10
6.699824053302858
 20
5.039662852917748
 30
0.0
 70
     8
  0
VERTEX
  5
76D
330
765
100
AcDbEntity
  8
image
100
AcDbVertex
100
AcDb2dVertex
 10
6.71153346228602
 20
5.100835830372931
 30
0.0
 70
     8
  0
VERTEX
  5
76E
330
765
100
AcDbEntity
  8
image
100
AcDbVertex
100
AcDb2dVertex
 10
6.723547619448293
 20
5.154582774884699
 30
0.0
 70
     8
  0
VERTEX
  5
76F
330
765
100
AcDbEntity
  8
image
100
AcDbVertex
100
AcDb2dVertex
 10
6.736554133735605
 20
5.204105638097269
 30
0.0
 70
     8
  0
VERTEX
  5
770
330
765
100
AcDbEntity
  8
image
100
AcDbVertex
100
AcDb2dVertex
 10
6.751139707973276
 20
5.252113780765848
 30
0.0
 70
     8
  0
VERTEX
  5
771
330
765
100
AcDbEntity
  8
image
100
AcDbVertex
100
AcDb2dVertex
 10
6.767487420504203
 20
5.299346200089575
 30
0.0
 70
     8
  0
VERTEX
  5
772
330
765
100
AcDbEntity
  8
image
100
AcDbVertex
100
AcDb2dVertex
 10
6.785679443550677
 20
5.346049302378569
 30
0.0
 70
     8
  0
VERTEX
  5
773
330
765
100
AcDbEntity
  8
image
100
AcDbVertex
100
AcDb2dVertex
 10
6.805797949334998
 20
5.392469493942952
 30
0.0
 70
     8
  0
VERTEX
  5
774
330
765
100
AcDbEntity
  8
image
100
AcDbVertex
100
AcDb2dVertex
 10
6.827925110079462
 20
5.43885318109285
 30
0.0
 70
     8
  0
VERTEX
  5
775
330
765
100
AcDbEntity
  8
image
100
AcDbVertex
100
AcDb2dVertex
 10
6.852143098006362
 20
5.485446770138386
 30
0.0
 70
     8
  0
VERTEX
  5
776
330
765
100
AcDbEntity
  8
image
100
AcDbVertex
100
AcDb2dVertex
 10
6.878534085337989
 20
5.532496667389677
 30
0.0
 70
     8
  0
VERTEX
  5
777
330
765
100
AcDbEntity
  8
image
100
AcDbVertex
100
AcDb2dVertex
 10
6.907180244296647
 20
5.580249279156854
 30
0.0
 70
     8
  0
VERTEX
  5
778
330
765
100
AcDbEntity
  8
image
100
AcDbVertex
100
AcDb2dVertex
 10
6.938055196923187
 20
5.628793461282439
 30
0.0
 70
     8
  0
VERTEX
  5
779
330
765
100
AcDbEntity
  8
image
100
AcDbVertex
100
AcDb2dVertex
 10
6.970698364532719
 20
5.677587867738578
 30
0.0
 70
     8
  0
VERTEX
  5
77A
330
765
100
AcDbEntity
  8
image
100
AcDbVertex
100
AcDb2dVertex
 10
7.004540618258918
 20
5.725933602029821
 30
0.0
 70
     8
  0
VERTEX
  5
77B
330
765
100
AcDbEntity
  8
image
100
AcDbVertex
100
AcDb2dVertex
 10
7.03901282923546
 20
5.77313176766072
 30
0.0
 70
     8
  0
VERTEX
  5
77C
330
765
100
AcDbEntity
  8
image
100
AcDbVertex
100
AcDb2dVertex
 10
7.073545868596013
 20
5.818483468135818
 30
0.0
 70
     8
  0
VERTEX
  5
77D
330
765
100
AcDbEntity
  8
image
100
AcDbVertex
100
AcDb2dVertex
 10
7.107570607474251
 20
5.861289806959673
 30
0.0
 70
     8
  0
VERTEX
  5
77E
330
765
100
AcDbEntity
  8
image
100
AcDbVertex
100
AcDb2dVertex
 10
7.140517917003851
 20
5.90085188763683
 30
0.0
 70
     8
  0
VERTEX
  5
77F
330
765
100
AcDbEntity
  8
image
100
AcDbVertex
100
AcDb2dVertex
 10
7.171818668318476
 20
5.93647081367184
 30
0.0
 70
     8
  0
VERTEX
  5
780
330
765
100
AcDbEntity
  8
image
100
AcDbVertex
100
AcDb2dVertex
 10
7.201050289642882
 20
5.967652247675422
 30
0.0
 70
     8
  0
VERTEX
  5
781
330
765
100
AcDbEntity
  8
image
100
AcDbVertex
100
AcDb2dVertex
 10
7.228376437566112
 20
5.994720088682951
 30
0.0
 70
     8
  0
VERTEX
  5
782
330
765
100
AcDbEntity
  8
image
100
AcDbVertex
100
AcDb2dVertex
 10
7.254107325768273
 20
6.01820279483598
 30
0.0
 70
     8
  0
VERTEX
  5
783
330
765
100
AcDbEntity
  8
image
100
AcDbVertex
100
AcDb2dVertex
 10
7.278553167929484
 20
6.038628824276058
 30
0.0
 70
     8
  0
VERTEX
  5
784
330
765
100
AcDbEntity
  8
image
100
AcDbVertex
100
AcDb2dVertex
 10
7.302024177729865
 20
6.056526635144726
 30
0.0
 70
     8
  0
VERTEX
  5
785
330
765
100
AcDbEntity
  8
image
100
AcDbVertex
100
AcDb2dVertex
 10
7.324830568849524
 20
6.072424685583536
 30
0.0
 70
     8
  0
VERTEX
  5
786
330
765
100
AcDbEntity
  8
image
100
AcDbVertex
100
AcDb2dVertex
 10
7.347282554968582
 20
6.086851433734038
 30
0.0
 70
     8
  0
VERTEX
  5
787
330
765
100
AcDbEntity
  8
image
100
AcDbVertex
100
AcDb2dVertex
 10
7.36969034976715
 20
6.100335337737776
 30
0.0
 70
     8
  0
VERTEX
  5
788
330
765
100
AcDbEntity
  8
image
100
AcDbVertex
100
AcDb2dVertex
 10
7.392286894288293
 20
6.113299137139849
 30
0.0
 70
     8
  0
VERTEX
  5
789
330
765
100
AcDbEntity
  8
image
100
AcDbVertex
100
AcDb2dVertex
 10
7.41499603902686
 20
6.12574269709958
 30
0.0
 70
     8
  0
VERTEX
  5
78A
330
765
100
AcDbEntity
  8
image
100
AcDbVertex
100
AcDb2dVertex
 10
7.437664361840646
 20
6.137560164179832
 30
0.0
 70
     8
  0
VERTEX
  5
78B
330
765
100
AcDbEntity
  8
image
100
AcDbVertex
100
AcDb2dVertex
 10
7.460138440587442
 20
6.148645684943476
 30
0.0
 70
     8
  0
VERTEX
  5
78C
330
765
100
AcDbEntity
  8
image
100
AcDbVertex
100
AcDb2dVertex
 10
7.482264853125048
 20
6.15889340595338
 30
0.0
 70
     8
  0
VERTEX
  5
78D
330
765
100
AcDbEntity
  8
image
100
AcDbVertex
100
AcDb2dVertex
 10
7.503890177311252
 20
6.16819747377241
 30
0.0
 70
     8
  0
VERTEX
  5
78E
330
765
100
AcDbEntity
  8
image
100
AcDbVertex
100
AcDb2dVertex
 10
7.524860991003858
 20
6.176452034963444
 30
0.0
 70
     8
  0
VERTEX
  5
78F
330
765
100
AcDbEntity
  8
image
100
AcDbVertex
100
AcDb2dVertex
 10
7.545023872060657
 20
6.183551236089341
 30
0.0
 70
     8
  0
VERTEX
  5
790
330
765
100
AcDbEntity
  8
image
100
AcDbVertex
100
AcDb2dVertex
 10
7.56423887317554
 20
6.189425634032724
 30
0.0
 70
     8
  0
VERTEX
  5
791
330
765
100
AcDbEntity
  8
image
100
AcDbVertex
100
AcDb2dVertex
 10
7.582419946386814
 20
6.194151426955217
 30
0.0
 70
     8
  0
VERTEX
  5
792
330
765
100
AcDbEntity
  8
image
100
AcDbVertex
100
AcDb2dVertex
 10
7.599494518568878
 20
6.197841223338182
 30
0.0
 70
     8
  0
VERTEX
  5
793
330
765
100
AcDbEntity
  8
image
100
AcDbVertex
100
AcDb2dVertex
 10
7.615390016596133
 20
6.200607631662991
 30
0.0
 70
     8
  0
VERTEX
  5
794
330
765
100
AcDbEntity
  8
image
100
AcDbVertex
100
AcDb2dVertex
 10
7.630033867342984
 20
6.202563260411016
 30
0.0
 70
     8
  0
VERTEX
  5
795
330
765
100
AcDbEntity
  8
image
100
AcDbVertex
100
AcDb2dVertex
 10
7.643353497683825
 20
6.203820718063623
 30
0.0
 70
     8
  0
VERTEX
  5
796
330
765
100
AcDbEntity
  8
image
100
AcDbVertex
100
AcDb2dVertex
 10
7.655276334493063
 20
6.204492613102184
 30
0.0
 70
     8
  0
VERTEX
  5
797
330
765
100
AcDbEntity
  8
image
100
AcDbVertex
100
AcDb2dVertex
 10
7.665729804645096
 20
6.204691554008066
 30
0.0
 70
     8
  0
VERTEX
  5
798
330
765
100
AcDbEntity
  8
image
100
AcDbVertex
100
AcDb2dVertex
 10
6.681236994056224
 20
4.934652842963044
 30
0.0
 70
    16
  0
VERTEX
  5
799
330
765
100
AcDbEntity
  8
image
100
AcDbVertex
100
AcDb2dVertex
 10
6.718634495645357
 20
5.215008354417024
 30
0.0
 70
    16
  0
VERTEX
  5
79A
330
765
100
AcDbEntity
  8
image
100
AcDbVertex
100
AcDb2dVertex
 10
6.882248576570557
 20
5.570125323679475
 30
0.0
 70
    16
  0
VERTEX
  5
79B
330
765
100
AcDbEntity
  8
image
100
AcDbVertex
100
AcDb2dVertex
 10
7.195452663852297
 20
5.98598602580621
 30
0.0
 70
    16
  0
VERTEX
  5
79C
330
765
100
AcDbEntity
  8
image
100
AcDbVertex
100
AcDb2dVertex
 10
7.366852777931121
 20
6.104755455126737
 30
0.0
 70
    16
  0
VERTEX
  5
79D
330
765
100
AcDbEntity
  8
image
100
AcDbVertex
100
AcDb2dVertex
 10
7.555278323026122
 20
6.19700418011349
 30
0.0
 70
    16
  0
VERTEX
  5
79E
330
765
100
AcDbEntity
  8
image
100
AcDbVertex
100
AcDb2dVertex
 10
7.639877549227588
 20
6.204691554008066
 30
0.0
 70
    16
  0
VERTEX
  5
79F
330
765
100
AcDbEntity
  8
image
100
AcDbVertex
100
AcDb2dVertex
 10
7.665729804645096
 20
6.204691554008066
 30
0.0
 70
    16
  0
SEQEND
  5
7A0
330
765
100
AcDbEntity
  8
image
  0
POLYLINE
  5
7A1
330
2
100
AcDbEntity
  8
image
 62
     5
100
AcDb2dPolyline
 66
     1
 10
0.0
 20
0.0
 30
0.0
 70
     4
 40
0.037
 41
0.037
 75
     6
  0
VERTEX
  5
7A2
330
7A1
100
AcDbEntity
  8
image
 62
     5
100
AcDbVertex
100
AcDb2dVertex
 10
3.882684780225773
 20
6.231224161724393
 30
0.0
 70
    16
  0
VERTEX
  5
7A3
330
7A1
100
AcDbEntity
  8
image
 62
     5
100
AcDbVertex
100
AcDb2dVertex
 10
3.882684780225773
 20
6.231224161724393
 30
0.0
 70
     8
  0
VERTEX
  5
7A4
330
7A1
100
AcDbEntity
  8
image
 62
     5
100
AcDbVertex
100
AcDb2dVertex
 10
3.801032116901902
 20
6.233866235320432
 30
0.0
 70
     8
  0
VERTEX
  5
7A5
330
7A1
100
AcDbEntity
  8
image
 62
     5
100
AcDbVertex
100
AcDb2dVertex
 10
3.725484768830805
 20
6.236356057165783
 30
0.0
 70
     8
  0
VERTEX
  5
7A6
330
7A1
100
AcDbEntity
  8
image
 62
     5
100
AcDbVertex
100
AcDb2dVertex
 10
3.655517927847377
 20
6.238738526914646
 30
0.0
 70
     8
  0
VERTEX
  5
7A7
330
7A1
100
AcDbEntity
  8
image
 62
     5
100
AcDbVertex
100
AcDb2dVertex
 10
3.590606785786519
 20
6.241058544221223
 30
0.0
 70
     8
  0
VERTEX
  5
7A8
330
7A1
100
AcDbEntity
  8
image
 62
     5
100
AcDbVertex
100
AcDb2dVertex
 10
3.530226534483125
 20
6.243361008739709
 30
0.0
 70
     8
  0
VERTEX
  5
7A9
330
7A1
100
AcDbEntity
  8
image
 62
     5
100
AcDbVertex
100
AcDb2dVertex
 10
3.473852365772094
 20
6.245690820124304
 30
0.0
 70
     8
  0
VERTEX
  5
7AA
330
7A1
100
AcDbEntity
  8
image
 62
     5
100
AcDbVertex
100
AcDb2dVertex
 10
3.420959471488325
 20
6.248092878029202
 30
0.0
 70
     8
  0
VERTEX
  5
7AB
330
7A1
100
AcDbEntity
  8
image
 62
     5
100
AcDbVertex
100
AcDb2dVertex
 10
3.371023043466715
 20
6.250612082108611
 30
0.0
 70
     8
  0
VERTEX
  5
7AC
330
7A1
100
AcDbEntity
  8
image
 62
     5
100
AcDbVertex
100
AcDb2dVertex
 10
3.323521309005833
 20
6.253299352650868
 30
0.0
 70
     8
  0
VERTEX
  5
7AD
330
7A1
100
AcDbEntity
  8
image
 62
     5
100
AcDbVertex
100
AcDb2dVertex
 10
3.277944637258935
 20
6.256229692480912
 30
0.0
 70
     8
  0
VERTEX
  5
7AE
330
7A1
100
AcDbEntity
  8
image
 62
     5
100
AcDbVertex
100
AcDb2dVertex
 10
3.233786432842943
 20
6.259484125057822
 30
0.0
 70
     8
  0
VERTEX
  5
7AF
330
7A1
100
AcDbEntity
  8
image
 62
     5
100
AcDbVertex
100
AcDb2dVertex
 10
3.190540100374782
 20
6.263143673840678
 30
0.0
 70
     8
  0
VERTEX
  5
7B0
330
7A1
100
AcDbEntity
  8
image
 62
     5
100
AcDbVertex
100
AcDb2dVertex
 10
3.147699044471378
 20
6.267289362288559
 30
0.0
 70
     8
  0
VERTEX
  5
7B1
330
7A1
100
AcDbEntity
  8
image
 62
     5
100
AcDbVertex
100
AcDb2dVertex
 10
3.104756669749654
 20
6.272002213860551
 30
0.0
 70
     8
  0
VERTEX
  5
7B2
330
7A1
100
AcDbEntity
  8
image
 62
     5
100
AcDbVertex
100
AcDb2dVertex
 10
3.06120638082654
 20
6.277363252015733
 30
0.0
 70
     8
  0
VERTEX
  5
7B3
330
7A1
100
AcDbEntity
  8
image
 62
     5
100
AcDbVertex
100
AcDb2dVertex
 10
3.016541582318954
 20
6.283453500213186
 30
0.0
 70
     8
  0
VERTEX
  5
7B4
330
7A1
100
AcDbEntity
  8
image
 62
     5
100
AcDbVertex
100
AcDb2dVertex
 10
2.970365441145883
 20
6.290350605884588
 30
0.0
 70
     8
  0
VERTEX
  5
7B5
330
7A1
100
AcDbEntity
  8
image
 62
     5
100
AcDbVertex
100
AcDb2dVertex
 10
2.922720173434541
 20
6.298118712352055
 30
0.0
 70
     8
  0
VERTEX
  5
7B6
330
7A1
100
AcDbEntity
  8
image
 62
     5
100
AcDbVertex
100
AcDb2dVertex
 10
2.873757757614196
 20
6.30681858691029
 30
0.0
 70
     8
  0
VERTEX
  5
7B7
330
7A1
100
AcDbEntity
  8
image
 62
     5
100
AcDbVertex
100
AcDb2dVertex
 10
2.823630172114125
 20
6.316510996854008
 30
0.0
 70
     8
  0
VERTEX
  5
7B8
330
7A1
100
AcDbEntity
  8
image
 62
     5
100
AcDbVertex
100
AcDb2dVertex
 10
2.772489395363598
 20
6.327256709477913
 30
0.0
 70
     8
  0
VERTEX
  5
7B9
330
7A1
100
AcDbEntity
  8
image
 62
     5
100
AcDbVertex
100
AcDb2dVertex
 10
2.720487405791887
 20
6.339116492076721
 30
0.0
 70
     8
  0
VERTEX
  5
7BA
330
7A1
100
AcDbEntity
  8
image
 62
     5
100
AcDbVertex
100
AcDb2dVertex
 10
2.667776181828262
 20
6.352151111945135
 30
0.0
 70
     8
  0
VERTEX
  5
7BB
330
7A1
100
AcDbEntity
  8
image
 62
     5
100
AcDbVertex
100
AcDb2dVertex
 10
2.614507701901997
 20
6.36642133637787
 30
0.0
 70
     8
  0
VERTEX
  5
7BC
330
7A1
100
AcDbEntity
  8
image
 62
     5
100
AcDbVertex
100
AcDb2dVertex
 10
2.560872783490882
 20
6.381960924958887
 30
0.0
 70
     8
  0
VERTEX
  5
7BD
330
7A1
100
AcDbEntity
  8
image
 62
     5
100
AcDbVertex
100
AcDb2dVertex
 10
2.507217600266773
 20
6.398695606429155
 30
0.0
 70
     8
  0
VERTEX
  5
7BE
330
7A1
100
AcDbEntity
  8
image
 62
     5
100
AcDbVertex
100
AcDb2dVertex
 10
2.453927164950046
 20
6.416524101818902
 30
0.0
 70
     8
  0
VERTEX
  5
7BF
330
7A1
100
AcDbEntity
  8
image
 62
     5
100
AcDbVertex
100
AcDb2dVertex
 10
2.401386490261076
 20
6.435345132158341
 30
0.0
 70
     8
  0
VERTEX
  5
7C0
330
7A1
100
AcDbEntity
  8
image
 62
     5
100
AcDbVertex
100
AcDb2dVertex
 10
2.349980588920239
 20
6.455057418477702
 30
0.0
 70
     8
  0
VERTEX
  5
7C1
330
7A1
100
AcDbEntity
  8
image
 62
     5
100
AcDbVertex
100
AcDb2dVertex
 10
2.300094473647909
 20
6.475559681807206
 30
0.0
 70
     8
  0
VERTEX
  5
7C2
330
7A1
100
AcDbEntity
  8
image
 62
     5
100
AcDbVertex
100
AcDb2dVertex
 10
2.252113157164462
 20
6.496750643177074
 30
0.0
 70
     8
  0
VERTEX
  5
7C3
330
7A1
100
AcDbEntity
  8
image
 62
     5
100
AcDbVertex
100
AcDb2dVertex
 10
2.206421652190275
 20
6.51852902361753
 30
0.0
 70
     8
  0
VERTEX
  5
7C4
330
7A1
100
AcDbEntity
  8
image
 62
     5
100
AcDbVertex
100
AcDb2dVertex
 10
2.163307029585022
 20
6.540871191427063
 30
0.0
 70
     8
  0
VERTEX
  5
7C5
330
7A1
100
AcDbEntity
  8
image
 62
     5
100
AcDbVertex
100
AcDb2dVertex
 10
2.122664592765588
 20
6.564064103977232
 30
0.0
 70
     8
  0
VERTEX
  5
7C6
330
7A1
100
AcDbEntity
  8
image
 62
     5
100
AcDbVertex
100
AcDb2dVertex
 10
2.084291703288162
 20
6.588472365907859
 30
0.0
 70
     8
  0
VERTEX
  5
7C7
330
7A1
100
AcDbEntity
  8
image
 62
     5
100
AcDbVertex
100
AcDb2dVertex
 10
2.047985722708929
 20
6.614460581858773
 30
0.0
 70
     8
  0
VERTEX
  5
7C8
330
7A1
100
AcDbEntity
  8
image
 62
     5
100
AcDbVertex
100
AcDb2dVertex
 10
2.013544012584073
 20
6.642393356469797
 30
0.0
 70
     8
  0
VERTEX
  5
7C9
330
7A1
100
AcDbEntity
  8
image
 62
     5
100
AcDbVertex
100
AcDb2dVertex
 10
1.980763934469784
 20
6.672635294380755
 30
0.0
 70
     8
  0
VERTEX
  5
7CA
330
7A1
100
AcDbEntity
  8
image
 62
     5
100
AcDbVertex
100
AcDb2dVertex
 10
1.949442849922245
 20
6.705551000231471
 30
0.0
 70
     8
  0
VERTEX
  5
7CB
330
7A1
100
AcDbEntity
  8
image
 62
     5
100
AcDbVertex
100
AcDb2dVertex
 10
1.919378120497647
 20
6.741505078661775
 30
0.0
 70
     8
  0
VERTEX
  5
7CC
330
7A1
100
AcDbEntity
  8
image
 62
     5
100
AcDbVertex
100
AcDb2dVertex
 10
1.890416923043002
 20
6.780754103314153
 30
0.0
 70
     8
  0
VERTEX
  5
7CD
330
7A1
100
AcDbEntity
  8
image
 62
     5
100
AcDbVertex
100
AcDb2dVertex
 10
1.862605695568653
 20
6.823122523841783
 30
0.0
 70
     8
  0
VERTEX
  5
7CE
330
7A1
100
AcDbEntity
  8
image
 62
     5
100
AcDbVertex
100
AcDb2dVertex
 10
1.836040691375771
 20
6.868326758900492
 30
0.0
 70
     8
  0
VERTEX
  5
7CF
330
7A1
100
AcDbEntity
  8
image
 62
     5
100
AcDbVertex
100
AcDb2dVertex
 10
1.810818163765521
 20
6.916083227146126
 30
0.0
 70
     8
  0
VERTEX
  5
7D0
330
7A1
100
AcDbEntity
  8
image
 62
     5
100
AcDbVertex
100
AcDb2dVertex
 10
1.78703436603908
 20
6.966108347234515
 30
0.0
 70
     8
  0
VERTEX
  5
7D1
330
7A1
100
AcDbEntity
  8
image
 62
     5
100
AcDbVertex
100
AcDb2dVertex
 10
1.76478555149761
 20
7.018118537821502
 30
0.0
 70
     8
  0
VERTEX
  5
7D2
330
7A1
100
AcDbEntity
  8
image
 62
     5
100
AcDbVertex
100
AcDb2dVertex
 10
1.744167973442291
 20
7.071830217562924
 30
0.0
 70
     8
  0
VERTEX
  5
7D3
330
7A1
100
AcDbEntity
  8
image
 62
     5
100
AcDbVertex
100
AcDb2dVertex
 10
1.725277885174286
 20
7.126959805114614
 30
0.0
 70
     8
  0
VERTEX
  5
7D4
330
7A1
100
AcDbEntity
  8
image
 62
     5
100
AcDbVertex
100
AcDb2dVertex
 10
1.708206759706907
 20
7.183123490035994
 30
0.0
 70
     8
  0
VERTEX
  5
7D5
330
7A1
100
AcDbEntity
  8
image
 62
     5
100
AcDbVertex
100
AcDb2dVertex
 10
1.693026948902016
 20
7.239536545500817
 30
0.0
 70
     8
  0
VERTEX
  5
7D6
330
7A1
100
AcDbEntity
  8
image
 62
     5
100
AcDbVertex
100
AcDb2dVertex
 10
1.679806024333608
 20
7.295314015586418
 30
0.0
 70
     8
  0
VERTEX
  5
7D7
330
7A1
100
AcDbEntity
  8
image
 62
     5
100
AcDbVertex
100
AcDb2dVertex
 10
1.668611557575687
 20
7.349570944370126
 30
0.0
 70
     8
  0
VERTEX
  5
7D8
330
7A1
100
AcDbEntity
  8
image
 62
     5
100
AcDbVertex
100
AcDb2dVertex
 10
1.659511120202246
 20
7.401422375929277
 30
0.0
 70
     8
  0
VERTEX
  5
7D9
330
7A1
100
AcDbEntity
  8
image
 62
     5
100
AcDbVertex
100
AcDb2dVertex
 10
1.652572283787289
 20
7.449983354341208
 30
0.0
 70
     8
  0
VERTEX
  5
7DA
330
7A1
100
AcDbEntity
  8
image
 62
     5
100
AcDbVertex
100
AcDb2dVertex
 10
1.647862619904813
 20
7.494368923683248
 30
0.0
 70
     8
  0
VERTEX
  5
7DB
330
7A1
100
AcDbEntity
  8
image
 62
     5
100
AcDbVertex
100
AcDb2dVertex
 10
1.645449700128821
 20
7.533694128032736
 30
0.0
 70
     8
  0
VERTEX
  5
7DC
330
7A1
100
AcDbEntity
  8
image
 62
     5
100
AcDbVertex
100
AcDb2dVertex
 10
3.656337428211667
 20
6.238512604451811
 30
0.0
 70
    16
  0
VERTEX
  5
7DD
330
7A1
100
AcDbEntity
  8
image
 62
     5
100
AcDbVertex
100
AcDb2dVertex
 10
3.345085357098106
 20
6.248883593269097
 30
0.0
 70
    16
  0
VERTEX
  5
7DE
330
7A1
100
AcDbEntity
  8
image
 62
     5
100
AcDbVertex
100
AcDb2dVertex
 10
3.033833368639424
 20
6.274811009532113
 30
0.0
 70
    16
  0
VERTEX
  5
7DF
330
7A1
100
AcDbEntity
  8
image
 62
     5
100
AcDbVertex
100
AcDb2dVertex
 10
2.618830662257927
 20
6.352593369881555
 30
0.0
 70
    16
  0
VERTEX
  5
7E0
330
7A1
100
AcDbEntity
  8
image
 62
     5
100
AcDbVertex
100
AcDb2dVertex
 10
2.17789019374085
 20
6.513343529208887
 30
0.0
 70
    16
  0
VERTEX
  5
7E1
330
7A1
100
AcDbEntity
  8
image
 62
     5
100
AcDbVertex
100
AcDb2dVertex
 10
1.908138475920317
 20
6.705206654988073
 30
0.0
 70
    16
  0
VERTEX
  5
7E2
330
7A1
100
AcDbEntity
  8
image
 62
     5
100
AcDbVertex
100
AcDb2dVertex
 10
1.70582462556376
 20
7.114860322809464
 30
0.0
 70
    16
  0
VERTEX
  5
7E3
330
7A1
100
AcDbEntity
  8
image
 62
     5
100
AcDbVertex
100
AcDb2dVertex
 10
1.648761763768163
 20
7.436360697244323
 30
0.0
 70
    16
  0
VERTEX
  5
7E4
330
7A1
100
AcDbEntity
  8
image
 62
     5
100
AcDbVertex
100
AcDb2dVertex
 10
1.645449700128821
 20
7.533694128032736
 30
0.0
 70
    16
  0
SEQEND
  5
7E5
330
7A1
100
AcDbEntity
  8
image
 62
     5
  0
POLYLINE
  5
7E6
330
2
100
AcDbEntity
  8
image
 62
     5
100
AcDb2dPolyline
 66
     1
 10
0.0
 20
0.0
 30
0.0
 70
     4
 40
0.037
 41
0.037
 75
     6
  0
VERTEX
  5
7E7
330
7E6
100
AcDbEntity
  8
image
 62
     5
100
AcDbVertex
100
AcDb2dVertex
 10
1.697392918745535
 20
7.53479902216531
 30
0.0
 70
    16
  0
VERTEX
  5
7E8
330
7E6
100
AcDbEntity
  8
image
 62
     5
100
AcDbVertex
100
AcDb2dVertex
 10
1.697392918745535
 20
7.53479902216531
 30
0.0
 70
     8
  0
VERTEX
  5
7E9
330
7E6
100
AcDbEntity
  8
image
 62
     5
100
AcDbVertex
100
AcDb2dVertex
 10
1.708842750010909
 20
7.45666924872521
 30
0.0
 70
     8
  0
VERTEX
  5
7EA
330
7E6
100
AcDbEntity
  8
image
 62
     5
100
AcDbVertex
100
AcDb2dVertex
 10
1.72065526612112
 20
7.392031147715778
 30
0.0
 70
     8
  0
VERTEX
  5
7EB
330
7E6
100
AcDbEntity
  8
image
 62
     5
100
AcDbVertex
100
AcDb2dVertex
 10
1.732816660240594
 20
7.338934120908801
 30
0.0
 70
     8
  0
VERTEX
  5
7EC
330
7E6
100
AcDbEntity
  8
image
 62
     5
100
AcDbVertex
100
AcDb2dVertex
 10
1.745313125533748
 20
7.29542757007608
 30
0.0
 70
     8
  0
VERTEX
  5
7ED
330
7E6
100
AcDbEntity
  8
image
 62
     5
100
AcDbVertex
100
AcDb2dVertex
 10
1.758130855164999
 20
7.259560896989407
 30
0.0
 70
     8
  0
VERTEX
  5
7EE
330
7E6
100
AcDbEntity
  8
image
 62
     5
100
AcDbVertex
100
AcDb2dVertex
 10
1.771256042298769
 20
7.229383503420583
 30
0.0
 70
     8
  0
VERTEX
  5
7EF
330
7E6
100
AcDbEntity
  8
image
 62
     5
100
AcDbVertex
100
AcDb2dVertex
 10
1.784674880099476
 20
7.202944791141403
 30
0.0
 70
     8
  0
VERTEX
  5
7F0
330
7E6
100
AcDbEntity
  8
image
 62
     5
100
AcDbVertex
100
AcDb2dVertex
 10
1.798373561731537
 20
7.178294161923664
 30
0.0
 70
     8
  0
VERTEX
  5
7F1
330
7E6
100
AcDbEntity
  8
image
 62
     5
100
AcDbVertex
100
AcDb2dVertex
 10
1.812359672232979
 20
7.153811965312657
 30
0.0
 70
     8
  0
VERTEX
  5
7F2
330
7E6
100
AcDbEntity
  8
image
 62
     5
100
AcDbVertex
100
AcDb2dVertex
 10
1.826726364136263
 20
7.129202341947662
 30
0.0
 70
     8
  0
VERTEX
  5
7F3
330
7E6
100
AcDbEntity
  8
image
 62
     5
100
AcDbVertex
100
AcDb2dVertex
 10
1.841588181847455
 20
7.104500380241459
 30
0.0
 70
     8
  0
VERTEX
  5
7F4
330
7E6
100
AcDbEntity
  8
image
 62
     5
100
AcDbVertex
100
AcDb2dVertex
 10
1.857059669772624
 20
7.079741168606824
 30
0.0
 70
     8
  0
VERTEX
  5
7F5
330
7E6
100
AcDbEntity
  8
image
 62
     5
100
AcDbVertex
100
AcDb2dVertex
 10
1.873255372317835
 20
7.054959795456534
 30
0.0
 70
     8
  0
VERTEX
  5
7F6
330
7E6
100
AcDbEntity
  8
image
 62
     5
100
AcDbVertex
100
AcDb2dVertex
 10
1.890289833889156
 20
7.030191349203368
 30
0.0
 70
     8
  0
VERTEX
  5
7F7
330
7E6
100
AcDbEntity
  8
image
 62
     5
100
AcDbVertex
100
AcDb2dVertex
 10
1.908277598892645
 20
7.005470918260106
 30
0.0
 70
     8
  0
VERTEX
  5
7F8
330
7E6
100
AcDbEntity
  8
image
 62
     5
100
AcDbVertex
100
AcDb2dVertex
 10
1.927333211734385
 20
6.980833591039521
 30
0.0
 70
     8
  0
VERTEX
  5
7F9
330
7E6
100
AcDbEntity
  8
image
 62
     5
100
AcDbVertex
100
AcDb2dVertex
 10
1.947506554727755
 20
6.956356008106252
 30
0.0
 70
     8
  0
VERTEX
  5
7FA
330
7E6
100
AcDbEntity
  8
image
 62
     5
100
AcDbVertex
100
AcDb2dVertex
 10
1.96858886181544
 20
6.932281018632389
 30
0.0
 70
     8
  0
VERTEX
  5
7FB
330
7E6
100
AcDbEntity
  8
image
 62
     5
100
AcDbVertex
100
AcDb2dVertex
 10
1.990306704847448
 20
6.908893023941876
 30
0.0
 70
     8
  0
VERTEX
  5
7FC
330
7E6
100
AcDbEntity
  8
image
 62
     5
100
AcDbVertex
100
AcDb2dVertex
 10
2.012386655673783
 20
6.886476425358656
 30
0.0
 70
     8
  0
VERTEX
  5
7FD
330
7E6
100
AcDbEntity
  8
image
 62
     5
100
AcDbVertex
100
AcDb2dVertex
 10
2.034555286144449
 20
6.865315624206674
 30
0.0
 70
     8
  0
VERTEX
  5
7FE
330
7E6
100
AcDbEntity
  8
image
 62
     5
100
AcDbVertex
100
AcDb2dVertex
 10
2.056539168109452
 20
6.845695021809882
 30
0.0
 70
     8
  0
VERTEX
  5
7FF
330
7E6
100
AcDbEntity
  8
image
 62
     5
100
AcDbVertex
100
AcDb2dVertex
 10
2.078064873418803
 20
6.827899019492223
 30
0.0
 70
     8
  0
VERTEX
  5
800
330
7E6
100
AcDbEntity
  8
image
 62
     5
100
AcDbVertex
100
AcDb2dVertex
 10
2.098858973922503
 20
6.812212018577644
 30
0.0
 70
     8
  0
VERTEX
  5
801
330
7E6
100
AcDbEntity
  8
image
 62
     5
100
AcDbVertex
100
AcDb2dVertex
 10
2.118734257558251
 20
6.79882608228493
 30
0.0
 70
     8
  0
VERTEX
  5
802
330
7E6
100
AcDbEntity
  8
image
 62
     5
100
AcDbVertex
100
AcDb2dVertex
 10
2.137848376614527
 20
6.787563921412226
 30
0.0
 70
     8
  0
VERTEX
  5
803
330
7E6
100
AcDbEntity
  8
image
 62
     5
100
AcDbVertex
100
AcDb2dVertex
 10
2.156445199467512
 20
6.77815590865252
 30
0.0
 70
     8
  0
VERTEX
  5
804
330
7E6
100
AcDbEntity
  8
image
 62
     5
100
AcDbVertex
100
AcDb2dVertex
 10
2.174768594493368
 20
6.770332416698797
 30
0.0
 70
     8
  0
VERTEX
  5
805
330
7E6
100
AcDbEntity
  8
image
 62
     5
100
AcDbVertex
100
AcDb2dVertex
 10
2.193062430068277
 20
6.763823818244043
 30
0.0
 70
     8
  0
VERTEX
  5
806
330
7E6
100
AcDbEntity
  8
image
 62
     5
100
AcDbVertex
100
AcDb2dVertex
 10
2.211570574568407
 20
6.758360485981244
 30
0.0
 70
     8
  0
VERTEX
  5
807
330
7E6
100
AcDbEntity
  8
image
 62
     5
100
AcDbVertex
100
AcDb2dVertex
 10
2.230536896369935
 20
6.753672792603387
 30
0.0
 70
     8
  0
VERTEX
  5
808
330
7E6
100
AcDbEntity
  8
image
 62
     5
100
AcDbVertex
100
AcDb2dVertex
 10
2.250205263849034
 20
6.749491110803456
 30
0.0
 70
     8
  0
VERTEX
  5
809
330
7E6
100
AcDbEntity
  8
image
 62
     5
100
AcDbVertex
100
AcDb2dVertex
 10
2.270789985581149
 20
6.745585826504788
 30
0.0
 70
     8
  0
VERTEX
  5
80A
330
7E6
100
AcDbEntity
  8
image
 62
     5
100
AcDbVertex
100
AcDb2dVertex
 10
2.292387130938825
 20
6.741887378552116
 30
0.0
 70
     8
  0
VERTEX
  5
80B
330
7E6
100
AcDbEntity
  8
image
 62
     5
100
AcDbVertex
100
AcDb2dVertex
 10
2.315063209493873
 20
6.738366219020518
 30
0.0
 70
     8
  0
VERTEX
  5
80C
330
7E6
100
AcDbEntity
  8
image
 62
     5
100
AcDbVertex
100
AcDb2dVertex
 10
2.338884730818108
 20
6.73499279998508
 30
0.0
 70
     8
  0
VERTEX
  5
80D
330
7E6
100
AcDbEntity
  8
image
 62
     5
100
AcDbVertex
100
AcDb2dVertex
 10
2.363918204483343
 20
6.731737573520883
 30
0.0
 70
     8
  0
VERTEX
  5
80E
330
7E6
100
AcDbEntity
  8
image
 62
     5
100
AcDbVertex
100
AcDb2dVertex
 10
2.390230140061394
 20
6.728570991703007
 30
0.0
 70
     8
  0
VERTEX
  5
80F
330
7E6
100
AcDbEntity
  8
image
 62
     5
100
AcDbVertex
100
AcDb2dVertex
 10
2.417887047124075
 20
6.725463506606532
 30
0.0
 70
     8
  0
VERTEX
  5
810
330
7E6
100
AcDbEntity
  8
image
 62
     5
100
AcDbVertex
100
AcDb2dVertex
 10
2.4469554352432
 20
6.72238557030654
 30
0.0
 70
     8
  0
VERTEX
  5
811
330
7E6
100
AcDbEntity
  8
image
 62
     5
100
AcDbVertex
100
AcDb2dVertex
 10
2.477465787992695
 20
6.719313175102689
 30
0.0
 70
     8
  0
VERTEX
  5
812
330
7E6
100
AcDbEntity
  8
image
 62
     5
100
AcDbVertex
100
AcDb2dVertex
 10
2.509304484954942
 20
6.716244474192928
 30
0.0
 70
     8
  0
VERTEX
  5
813
330
7E6
100
AcDbEntity
  8
image
 62
     5
100
AcDbVertex
100
AcDb2dVertex
 10
2.542321879714437
 20
6.713183160999777
 30
0.0
 70
     8
  0
VERTEX
  5
814
330
7E6
100
AcDbEntity
  8
image
 62
     5
100
AcDbVertex
100
AcDb2dVertex
 10
2.576368325855673
 20
6.710132928945766
 30
0.0
 70
     8
  0
VERTEX
  5
815
330
7E6
100
AcDbEntity
  8
image
 62
     5
100
AcDbVertex
100
AcDb2dVertex
 10
2.611294176963145
 20
6.707097471453414
 30
0.0
 70
     8
  0
VERTEX
  5
816
330
7E6
100
AcDbEntity
  8
image
 62
     5
100
AcDbVertex
100
AcDb2dVertex
 10
2.646949786621348
 20
6.704080481945245
 30
0.0
 70
     8
  0
VERTEX
  5
817
330
7E6
100
AcDbEntity
  8
image
 62
     5
100
AcDbVertex
100
AcDb2dVertex
 10
2.683185508414776
 20
6.701085653843788
 30
0.0
 70
     8
  0
VERTEX
  5
818
330
7E6
100
AcDbEntity
  8
image
 62
     5
100
AcDbVertex
100
AcDb2dVertex
 10
2.719851695927925
 20
6.69811668057156
 30
0.0
 70
     8
  0
VERTEX
  5
819
330
7E6
100
AcDbEntity
  8
image
 62
     5
100
AcDbVertex
100
AcDb2dVertex
 10
2.757023289010142
 20
6.695156984477721
 30
0.0
 70
     8
  0
VERTEX
  5
81A
330
7E6
100
AcDbEntity
  8
image
 62
     5
100
AcDbVertex
100
AcDb2dVertex
 10
2.795673572570198
 20
6.692108903617961
 30
0.0
 70
     8
  0
VERTEX
  5
81B
330
7E6
100
AcDbEntity
  8
image
 62
     5
100
AcDbVertex
100
AcDb2dVertex
 10
2.837000417781716
 20
6.688854504974598
 30
0.0
 70
     8
  0
VERTEX
  5
81C
330
7E6
100
AcDbEntity
  8
image
 62
     5
100
AcDbVertex
100
AcDb2dVertex
 10
2.88220169581832
 20
6.685275855529956
 30
0.0
 70
     8
  0
VERTEX
  5
81D
330
7E6
100
AcDbEntity
  8
image
 62
     5
100
AcDbVertex
100
AcDb2dVertex
 10
2.932475277853635
 20
6.681255022266357
 30
0.0
 70
     8
  0
VERTEX
  5
81E
330
7E6
100
AcDbEntity
  8
image
 62
     5
100
AcDbVertex
100
AcDb2dVertex
 10
2.989019035061286
 20
6.67667407216612
 30
0.0
 70
     8
  0
VERTEX
  5
81F
330
7E6
100
AcDbEntity
  8
image
 62
     5
100
AcDbVertex
100
AcDb2dVertex
 10
3.053030838614894
 20
6.671415072211571
 30
0.0
 70
     8
  0
VERTEX
  5
820
330
7E6
100
AcDbEntity
  8
image
 62
     5
100
AcDbVertex
100
AcDb2dVertex
 10
3.125708559688089
 20
6.66536008938503
 30
0.0
 70
     8
  0
VERTEX
  5
821
330
7E6
100
AcDbEntity
  8
image
 62
     5
100
AcDbVertex
100
AcDb2dVertex
 10
1.727429949583999
 20
7.306730197992431
 30
0.0
 70
    16
  0
VERTEX
  5
822
330
7E6
100
AcDbEntity
  8
image
 62
     5
100
AcDbVertex
100
AcDb2dVertex
 10
1.795535833776611
 20
7.180027657035816
 30
0.0
 70
    16
  0
VERTEX
  5
823
330
7E6
100
AcDbEntity
  8
image
 62
     5
100
AcDbVertex
100
AcDb2dVertex
 10
1.914721027795081
 20
6.979572874927983
 30
0.0
 70
    16
  0
VERTEX
  5
824
330
7E6
100
AcDbEntity
  8
image
 62
     5
100
AcDbVertex
100
AcDb2dVertex
 10
2.109579325449377
 20
6.786682389489376
 30
0.0
 70
    16
  0
VERTEX
  5
825
330
7E6
100
AcDbEntity
  8
image
 62
     5
100
AcDbVertex
100
AcDb2dVertex
 10
2.240115513942427
 20
6.746969678580379
 30
0.0
 70
    16
  0
VERTEX
  5
826
330
7E6
100
AcDbEntity
  8
image
 62
     5
100
AcDbVertex
100
AcDb2dVertex
 10
2.431190201875116
 20
6.722385561009842
 30
0.0
 70
    16
  0
VERTEX
  5
827
330
7E6
100
AcDbEntity
  8
image
 62
     5
100
AcDbVertex
100
AcDb2dVertex
 10
2.716856290016306
 20
6.697801499219503
 30
0.0
 70
    16
  0
VERTEX
  5
828
330
7E6
100
AcDbEntity
  8
image
 62
     5
100
AcDbVertex
100
AcDb2dVertex
 10
2.919281972423576
 20
6.682672850100844
 30
0.0
 70
    16
  0
VERTEX
  5
829
330
7E6
100
AcDbEntity
  8
image
 62
     5
100
AcDbVertex
100
AcDb2dVertex
 10
3.125708559688089
 20
6.66536008938503
 30
0.0
 70
    16
  0
SEQEND
  5
82A
330
7E6
100
AcDbEntity
  8
image
 62
     5
  0
TEXT
  5
82B
330
2
100
AcDbEntity
  8
image
100
AcDbText
 10
0.6921934651800577
 20
6.109628165328311
 30
0.0
 40
0.125
  1
COMMUNICATION CABLE
  7
arial
100
AcDbText
  0
LWPOLYLINE
  5
82C
330
2
100
AcDbEntity
  8
image
 62
     5
100
AcDbPolyline
 90
        5
 70
     0
 43
0.037
 10
6.370322407245969
 20
3.5665876161456
 10
6.370322407245969
 20
3.676024587470657
 10
6.370322407245969
 20
3.800256453120902
 42
0.081374222779636
 10
6.306421732932599
 20
4.06942548424428
 42
-0.0655100906327898
 10
6.26935421139439
 20
4.255290355956391
 42
-1.093220757323432
  0
LWPOLYLINE
  5
82D
330
2
100
AcDbEntity
  8
image
 62
     5
100
AcDbPolyline
 90
        5
 70
     0
 43
0.037
 10
6.420475807956113
 20
3.5665876161456
 10
6.420475807956113
 20
3.676024587470657
 10
6.420475807956113
 20
3.800256453120902
 42
0.081374222779636
 10
6.356575133642743
 20
4.06942548424428
 42
-0.0300668381132792
 10
6.319507612104534
 20
4.255290355956391
 42
-1.093220757323432
  0
LWPOLYLINE
  5
82E
330
2
100
AcDbEntity
  8
image
100
AcDbPolyline
 90
        3
 70
     0
 43
0.0
 10
6.448156665547696
 20
3.662158906594213
 42
-0.0978733617649846
 10
6.468016023491668
 20
3.904674251788672
 42
0.0872125590264546
 10
6.621781917966463
 20
4.510339163942981
 42
0.0657011673153704
  0
LWPOLYLINE
  5
82F
330
2
100
AcDbEntity
  8
image
100
AcDbPolyline
 90
        3
 70
     0
 43
0.0
 10
6.411141855370591
 20
3.662158906594207
 42
-0.0983242927606133
 10
6.43324565177316
 20
3.917695004008292
 42
0.0880393955965766
 10
6.585320422988954
 20
4.516715334929736
 42
1.190049425856698
  0
LWPOLYLINE
  5
830
330
2
100
AcDbEntity
  8
image
100
AcDbPolyline
 90
        3
 70
     0
 43
0.0
 10
6.389011162328569
 20
3.662158906594213
 42
-0.0978733617649846
 10
6.40887052027254
 20
3.904674251788672
 42
0.0872125590264546
 10
6.562636414747335
 20
4.510339163942981
 42
0.0657011673153704
  0
LWPOLYLINE
  5
831
330
2
100
AcDbEntity
  8
image
100
AcDbPolyline
 90
        3
 70
     0
 43
0.0
 10
6.351996352151464
 20
3.662158906594207
 42
-0.0983242927606133
 10
6.374100148554032
 20
3.917695004008292
 42
0.0880393955965766
 10
6.526174919769826
 20
4.516715334929736
 42
1.190049425856698
  0
MTEXT
  5
832
330
2
100
AcDbEntity
  8
image
100
AcDbMText
 10
6.053932535438858
 20
3.226838720880034
 30
0.0
 40
0.125
 41
0.8262
 71
     1
 72
     5
  1
FD-202\PTURF\PM13005
  7
arial
 73
     1
 44
1.0
  0
LWPOLYLINE
  5
833
330
2
100
AcDbEntity
  8
image
100
AcDbPolyline
 90
        2
 70
     0
 43
0.0
 10
6.448156665547696
 20
3.662158906594213
 10
6.448156665547696
 20
3.563633084509711
  0
LWPOLYLINE
  5
834
330
2
100
AcDbEntity
  8
image
100
AcDbPolyline
 90
        2
 70
     0
 43
0.0
 10
6.411141855370591
 20
3.662158906594207
 10
6.411141855370591
 20
3.563633084509711
  0
LWPOLYLINE
  5
835
330
2
100
AcDbEntity
  8
image
100
AcDbPolyline
 90
        2
 70
     0
 43
0.0
 10
6.351996352151464
 20
3.662158906594207
 10
6.351996352151464
 20
3.563633084509711
  0
LWPOLYLINE
  5
836
330
2
100
AcDbEntity
  8
image
100
AcDbPolyline
 90
        2
 70
     0
 43
0.0
 10
6.389011162328569
 20
3.662158906594213
 10
6.389011162328569
 20
3.563633084509711
  0
TEXT
  5
837
330
2
100
AcDbEntity
  8
image
 62
     5
100
AcDbText
 10
4.17572060003583
 20
6.7077080621206
 30
0.0
 40
0.125
  1
BLUE
  7
arial
100
AcDbText
  0
TEXT
  5
838
330
2
100
AcDbEntity
  8
image
100
AcDbText
 10
2.322051723946083
 20
5.199050352580739
 30
0.0
 40
0.125
  1
CONNECTORS
  7
arial
100
AcDbText
  0
POLYLINE
  5
839
330
2
100
AcDbEntity
  8
image
 62
     5
100
AcDb2dPolyline
 66
     1
 10
0.0
 20
0.0
 30
0.0
 70
     4
 40
0.037
 41
0.037
 75
     6
  0
VERTEX
  5
83A
330
839
100
AcDbEntity
  8
image
 62
     5
100
AcDbVertex
100
AcDb2dVertex
 10
6.319507612104533
 20
4.255290355956391
 30
0.0
 70
    16
  0
VERTEX
  5
83B
330
839
100
AcDbEntity
  8
image
 62
     5
100
AcDbVertex
100
AcDb2dVertex
 10
6.319507612104533
 20
4.255290355956393
 30
0.0
 70
     8
  0
VERTEX
  5
83C
330
839
100
AcDbEntity
  8
image
 62
     5
100
AcDbVertex
100
AcDb2dVertex
 10
6.307601197720401
 20
4.41297815019981
 30
0.0
 70
     8
  0
VERTEX
  5
83D
330
839
100
AcDbEntity
  8
image
 62
     5
100
AcDbVertex
100
AcDb2dVertex
 10
6.292286371261326
 20
4.553541834616725
 30
0.0
 70
     8
  0
VERTEX
  5
83E
330
839
100
AcDbEntity
  8
image
 62
     5
100
AcDbVertex
100
AcDb2dVertex
 10
6.273924248750816
 20
4.678948662190149
 30
0.0
 70
     8
  0
VERTEX
  5
83F
330
839
100
AcDbEntity
  8
image
 62
     5
100
AcDbVertex
100
AcDb2dVertex
 10
6.252875946212377
 20
4.791165885903081
 30
0.0
 70
     8
  0
VERTEX
  5
840
330
839
100
AcDbEntity
  8
image
 62
     5
100
AcDbVertex
100
AcDb2dVertex
 10
6.22950257966951
 20
4.892160758738532
 30
0.0
 70
     8
  0
VERTEX
  5
841
330
839
100
AcDbEntity
  8
image
 62
     5
100
AcDbVertex
100
AcDb2dVertex
 10
6.204165265145729
 20
4.983900533679493
 30
0.0
 70
     8
  0
VERTEX
  5
842
330
839
100
AcDbEntity
  8
image
 62
     5
100
AcDbVertex
100
AcDb2dVertex
 10
6.177225118664537
 20
5.068352463708981
 30
0.0
 70
     8
  0
VERTEX
  5
843
330
839
100
AcDbEntity
  8
image
 62
     5
100
AcDbVertex
100
AcDb2dVertex
 10
6.149043256249441
 20
5.147483801809995
 30
0.0
 70
     8
  0
VERTEX
  5
844
330
839
100
AcDbEntity
  8
image
 62
     5
100
AcDbVertex
100
AcDb2dVertex
 10
6.119858581702729
 20
5.222967109546692
 30
0.0
 70
     8
  0
VERTEX
  5
845
330
839
100
AcDbEntity
  8
image
 62
     5
100
AcDbVertex
100
AcDb2dVertex
 10
6.089421149941824
 20
5.295296182807847
 30
0.0
 70
     8
  0
VERTEX
  5
846
330
839
100
AcDbEntity
  8
image
 62
     5
100
AcDbVertex
100
AcDb2dVertex
 10
6.057358803662939
 20
5.364670126063385
 30
0.0
 70
     8
  0
VERTEX
  5
847
330
839
100
AcDbEntity
  8
image
 62
     5
100
AcDbVertex
100
AcDb2dVertex
 10
6.023299385562278
 20
5.431288043783235
 30
0.0
 70
     8
  0
VERTEX
  5
848
330
839
100
AcDbEntity
  8
image
 62
     5
100
AcDbVertex
100
AcDb2dVertex
 10
5.986870738336055
 20
5.495349040437327
 30
0.0
 70
     8
  0
VERTEX
  5
849
330
839
100
AcDbEntity
  8
image
 62
     5
100
AcDbVertex
100
AcDb2dVertex
 10
5.947700704680467
 20
5.557052220495583
 30
0.0
 70
     8
  0
VERTEX
  5
84A
330
839
100
AcDbEntity
  8
image
 62
     5
100
AcDbVertex
100
AcDb2dVertex
 10
5.90541712729173
 20
5.616596688427931
 30
0.0
 70
     8
  0
VERTEX
  5
84B
330
839
100
AcDbEntity
  8
image
 62
     5
100
AcDbVertex
100
AcDb2dVertex
 10
5.859647848866053
 20
5.674181548704298
 30
0.0
 70
     8
  0
VERTEX
  5
84C
330
839
100
AcDbEntity
  8
image
 62
     5
100
AcDbVertex
100
AcDb2dVertex
 10
5.810084485477482
 20
5.73000765233939
 30
0.0
 70
     8
  0
VERTEX
  5
84D
330
839
100
AcDbEntity
  8
image
 62
     5
100
AcDbVertex
100
AcDb2dVertex
 10
5.756673746711449
 20
5.784282836526992
 30
0.0
 70
     8
  0
VERTEX
  5
84E
330
839
100
AcDbEntity
  8
image
 62
     5
100
AcDbVertex
100
AcDb2dVertex
 10
5.699426115531228
 20
5.837216685005673
 30
0.0
 70
     8
  0
VERTEX
  5
84F
330
839
100
AcDbEntity
  8
image
 62
     5
100
AcDbVertex
100
AcDb2dVertex
 10
5.63835207490008
 20
5.889018781513994
 30
0.0
 70
     8
  0
VERTEX
  5
850
330
839
100
AcDbEntity
  8
image
 62
     5
100
AcDbVertex
100
AcDb2dVertex
 10
5.573462107781288
 20
5.939898709790524
 30
0.0
 70
     8
  0
VERTEX
  5
851
330
839
100
AcDbEntity
  8
image
 62
     5
100
AcDbVertex
100
AcDb2dVertex
 10
5.504766697138119
 20
5.990066053573825
 30
0.0
 70
     8
  0
VERTEX
  5
852
330
839
100
AcDbEntity
  8
image
 62
     5
100
AcDbVertex
100
AcDb2dVertex
 10
5.432276325933848
 20
6.039730396602459
 30
0.0
 70
     8
  0
VERTEX
  5
853
330
839
100
AcDbEntity
  8
image
 62
     5
100
AcDbVertex
100
AcDb2dVertex
 10
5.356001477131741
 20
6.089101322614995
 30
0.0
 70
     8
  0
VERTEX
  5
854
330
839
100
AcDbEntity
  8
image
 62
     5
100
AcDbVertex
100
AcDb2dVertex
 10
5.276043489164511
 20
6.138297595729953
 30
0.0
 70
     8
  0
VERTEX
  5
855
330
839
100
AcDbEntity
  8
image
 62
     5
100
AcDbVertex
100
AcDb2dVertex
 10
5.192867122342612
 20
6.187074701585673
 30
0.0
 70
     8
  0
VERTEX
  5
856
330
839
100
AcDbEntity
  8
image
 62
     5
100
AcDbVertex
100
AcDb2dVertex
 10
5.107027992445939
 20
6.235097306200453
 30
0.0
 70
     8
  0
VERTEX
  5
857
330
839
100
AcDbEntity
  8
image
 62
     5
100
AcDbVertex
100
AcDb2dVertex
 10
5.019081715254387
 20
6.282030075592585
 30
0.0
 70
     8
  0
VERTEX
  5
858
330
839
100
AcDbEntity
  8
image
 62
     5
100
AcDbVertex
100
AcDb2dVertex
 10
4.929583906547847
 20
6.327537675780368
 30
0.0
 70
     8
  0
VERTEX
  5
859
330
839
100
AcDbEntity
  8
image
 62
     5
100
AcDbVertex
100
AcDb2dVertex
 10
4.839090182106215
 20
6.371284772782102
 30
0.0
 70
     8
  0
VERTEX
  5
85A
330
839
100
AcDbEntity
  8
image
 62
     5
100
AcDbVertex
100
AcDb2dVertex
 10
4.748156157709381
 20
6.412936032616078
 30
0.0
 70
     8
  0
VERTEX
  5
85B
330
839
100
AcDbEntity
  8
image
 62
     5
100
AcDbVertex
100
AcDb2dVertex
 10
4.657337449137244
 20
6.452156121300594
 30
0.0
 70
     8
  0
VERTEX
  5
85C
330
839
100
AcDbEntity
  8
image
 62
     5
100
AcDbVertex
100
AcDb2dVertex
 10
4.567133761175739
 20
6.488648128584747
 30
0.0
 70
     8
  0
VERTEX
  5
85D
330
839
100
AcDbEntity
  8
image
 62
     5
100
AcDbVertex
100
AcDb2dVertex
 10
4.477821154634987
 20
6.522268839140815
 30
0.0
 70
     8
  0
VERTEX
  5
85E
330
839
100
AcDbEntity
  8
image
 62
     5
100
AcDbVertex
100
AcDb2dVertex
 10
4.389619779331153
 20
6.552913461371888
 30
0.0
 70
     8
  0
VERTEX
  5
85F
330
839
100
AcDbEntity
  8
image
 62
     5
100
AcDbVertex
100
AcDb2dVertex
 10
4.302749785080399
 20
6.580477203681043
 30
0.0
 70
     8
  0
VERTEX
  5
860
330
839
100
AcDbEntity
  8
image
 62
     5
100
AcDbVertex
100
AcDb2dVertex
 10
4.217431321698891
 20
6.604855274471363
 30
0.0
 70
     8
  0
VERTEX
  5
861
330
839
100
AcDbEntity
  8
image
 62
     5
100
AcDbVertex
100
AcDb2dVertex
 10
4.133884539002792
 20
6.625942882145929
 30
0.0
 70
     8
  0
VERTEX
  5
862
330
839
100
AcDbEntity
  8
image
 62
     5
100
AcDbVertex
100
AcDb2dVertex
 10
4.052329586808266
 20
6.643635235107824
 30
0.0
 70
     8
  0
VERTEX
  5
863
330
839
100
AcDbEntity
  8
image
 62
     5
100
AcDbVertex
100
AcDb2dVertex
 10
3.97298661493148
 20
6.657827541760129
 30
0.0
 70
     8
  0
VERTEX
  5
864
330
839
100
AcDbEntity
  8
image
 62
     5
100
AcDbVertex
100
AcDb2dVertex
 10
3.896169269006607
 20
6.668478625258233
 30
0.0
 70
     8
  0
VERTEX
  5
865
330
839
100
AcDbEntity
  8
image
 62
     5
100
AcDbVertex
100
AcDb2dVertex
 10
3.822565177939857
 20
6.675801767766762
 30
0.0
 70
     8
  0
VERTEX
  5
866
330
839
100
AcDbEntity
  8
image
 62
     5
100
AcDbVertex
100
AcDb2dVertex
 10
3.75295546645545
 20
6.680073866202645
 30
0.0
 70
     8
  0
VERTEX
  5
867
330
839
100
AcDbEntity
  8
image
 62
     5
100
AcDbVertex
100
AcDb2dVertex
 10
3.688121259277609
 20
6.68157181748282
 30
0.0
 70
     8
  0
VERTEX
  5
868
330
839
100
AcDbEntity
  8
image
 62
     5
100
AcDbVertex
100
AcDb2dVertex
 10
3.628843681130554
 20
6.680572518524213
 30
0.0
 70
     8
  0
VERTEX
  5
869
330
839
100
AcDbEntity
  8
image
 62
     5
100
AcDbVertex
100
AcDb2dVertex
 10
3.575903856738506
 20
6.677352866243756
 30
0.0
 70
     8
  0
VERTEX
  5
86A
330
839
100
AcDbEntity
  8
image
 62
     5
100
AcDbVertex
100
AcDb2dVertex
 10
3.530082910825685
 20
6.672189757558387
 30
0.0
 70
     8
  0
VERTEX
  5
86B
330
839
100
AcDbEntity
  8
image
 62
     5
100
AcDbVertex
100
AcDb2dVertex
 10
3.492161968116313
 20
6.66536008938503
 30
0.0
 70
     8
  0
VERTEX
  5
86C
330
839
100
AcDbEntity
  8
image
 62
     5
100
AcDbVertex
100
AcDb2dVertex
 10
6.292622715200998
 20
4.700371956359058
 30
0.0
 70
    16
  0
VERTEX
  5
86D
330
839
100
AcDbEntity
  8
image
 62
     5
100
AcDbVertex
100
AcDb2dVertex
 10
6.158436321960358
 20
5.183252750561672
 30
0.0
 70
    16
  0
VERTEX
  5
86E
330
839
100
AcDbEntity
  8
image
 62
     5
100
AcDbVertex
100
AcDb2dVertex
 10
5.90079833783389
 20
5.692960249355524
 30
0.0
 70
    16
  0
VERTEX
  5
86F
330
839
100
AcDbEntity
  8
image
 62
     5
100
AcDbVertex
100
AcDb2dVertex
 10
5.396257419900397
 20
6.089995544242031
 30
0.0
 70
    16
  0
VERTEX
  5
870
330
839
100
AcDbEntity
  8
image
 62
     5
100
AcDbVertex
100
AcDb2dVertex
 10
4.65018084535497
 20
6.481665509366331
 30
0.0
 70
    16
  0
VERTEX
  5
871
330
839
100
AcDbEntity
  8
image
 62
     5
100
AcDbVertex
100
AcDb2dVertex
 10
3.947043893503185
 20
6.696279146096211
 30
0.0
 70
    16
  0
VERTEX
  5
872
330
839
100
AcDbEntity
  8
image
 62
     5
100
AcDbVertex
100
AcDb2dVertex
 10
3.582056811315178
 20
6.685548486571795
 30
0.0
 70
    16
  0
VERTEX
  5
873
330
839
100
AcDbEntity
  8
image
 62
     5
100
AcDbVertex
100
AcDb2dVertex
 10
3.492161968116313
 20
6.66536008938503
 30
0.0
 70
    16
  0
SEQEND
  5
874
330
839
100
AcDbEntity
  8
image
 62
     5
  0
POLYLINE
  5
875
330
2
100
AcDbEntity
  8
image
 62
     5
100
AcDb2dPolyline
 66
     1
 10
0.0
 20
0.0
 30
0.0
 70
     4
 40
0.037
 41
0.037
 75
     6
  0
VERTEX
  5
876
330
875
100
AcDbEntity
  8
image
 62
     5
100
AcDbVertex
100
AcDb2dVertex
 10
6.269354211394389
 20
4.255290355956391
 30
0.0
 70
    16
  0
VERTEX
  5
877
330
875
100
AcDbEntity
  8
image
 62
     5
100
AcDbVertex
100
AcDb2dVertex
 10
6.269354211394389
 20
4.255290355956393
 30
0.0
 70
     8
  0
VERTEX
  5
878
330
875
100
AcDbEntity
  8
image
 62
     5
100
AcDbVertex
100
AcDb2dVertex
 10
6.255968777583117
 20
4.383228352809934
 30
0.0
 70
     8
  0
VERTEX
  5
879
330
875
100
AcDbEntity
  8
image
 62
     5
100
AcDbVertex
100
AcDb2dVertex
 10
6.235109836937294
 20
4.514199524984901
 30
0.0
 70
     8
  0
VERTEX
  5
87A
330
875
100
AcDbEntity
  8
image
 62
     5
100
AcDbVertex
100
AcDb2dVertex
 10
6.207637342336543
 20
4.64618908607183
 30
0.0
 70
     8
  0
VERTEX
  5
87B
330
875
100
AcDbEntity
  8
image
 62
     5
100
AcDbVertex
100
AcDb2dVertex
 10
6.174411246660479
 20
4.777182249661256
 30
0.0
 70
     8
  0
VERTEX
  5
87C
330
875
100
AcDbEntity
  8
image
 62
     5
100
AcDbVertex
100
AcDb2dVertex
 10
6.136291502788726
 20
4.905164229343709
 30
0.0
 70
     8
  0
VERTEX
  5
87D
330
875
100
AcDbEntity
  8
image
 62
     5
100
AcDbVertex
100
AcDb2dVertex
 10
6.094138063600897
 20
5.028120238709727
 30
0.0
 70
     8
  0
VERTEX
  5
87E
330
875
100
AcDbEntity
  8
image
 62
     5
100
AcDbVertex
100
AcDb2dVertex
 10
6.04881088197661
 20
5.144035491349844
 30
0.0
 70
     8
  0
VERTEX
  5
87F
330
875
100
AcDbEntity
  8
image
 62
     5
100
AcDbVertex
100
AcDb2dVertex
 10
6.001169910795489
 20
5.250895200854595
 30
0.0
 70
     8
  0
VERTEX
  5
880
330
875
100
AcDbEntity
  8
image
 62
     5
100
AcDbVertex
100
AcDb2dVertex
 10
5.951881985305444
 20
5.347213654279334
 30
0.0
 70
     8
  0
VERTEX
  5
881
330
875
100
AcDbEntity
  8
image
 62
     5
100
AcDbVertex
100
AcDb2dVertex
 10
5.900841470227561
 20
5.433621432538723
 30
0.0
 70
     8
  0
VERTEX
  5
882
330
875
100
AcDbEntity
  8
image
 62
     5
100
AcDbVertex
100
AcDb2dVertex
 10
5.847749612651227
 20
5.511278190012239
 30
0.0
 70
     8
  0
VERTEX
  5
883
330
875
100
AcDbEntity
  8
image
 62
     5
100
AcDbVertex
100
AcDb2dVertex
 10
5.792307659665819
 20
5.581343581079361
 30
0.0
 70
     8
  0
VERTEX
  5
884
330
875
100
AcDbEntity
  8
image
 62
     5
100
AcDbVertex
100
AcDb2dVertex
 10
5.734216858360728
 20
5.644977260119569
 30
0.0
 70
     8
  0
VERTEX
  5
885
330
875
100
AcDbEntity
  8
image
 62
     5
100
AcDbVertex
100
AcDb2dVertex
 10
5.673178455825325
 20
5.703338881512339
 30
0.0
 70
     8
  0
VERTEX
  5
886
330
875
100
AcDbEntity
  8
image
 62
     5
100
AcDbVertex
100
AcDb2dVertex
 10
5.608893699149003
 20
5.757588099637155
 30
0.0
 70
     8
  0
VERTEX
  5
887
330
875
100
AcDbEntity
  8
image
 62
     5
100
AcDbVertex
100
AcDb2dVertex
 10
5.541063835421137
 20
5.808884568873493
 30
0.0
 70
     8
  0
VERTEX
  5
888
330
875
100
AcDbEntity
  8
image
 62
     5
100
AcDbVertex
100
AcDb2dVertex
 10
5.469569077462544
 20
5.85815007919369
 30
0.0
 70
     8
  0
VERTEX
  5
889
330
875
100
AcDbEntity
  8
image
 62
     5
100
AcDbVertex
100
AcDb2dVertex
 10
5.39500550101977
 20
5.905354962941506
 30
0.0
 70
     8
  0
VERTEX
  5
88A
330
875
100
AcDbEntity
  8
image
 62
     5
100
AcDbVertex
100
AcDb2dVertex
 10
5.318148147570791
 20
5.950231688053564
 30
0.0
 70
     8
  0
VERTEX
  5
88B
330
875
100
AcDbEntity
  8
image
 62
     5
100
AcDbVertex
100
AcDb2dVertex
 10
5.23977205859358
 20
5.992512722466473
 30
0.0
 70
     8
  0
VERTEX
  5
88C
330
875
100
AcDbEntity
  8
image
 62
     5
100
AcDbVertex
100
AcDb2dVertex
 10
5.160652275566118
 20
6.031930534116858
 30
0.0
 70
     8
  0
VERTEX
  5
88D
330
875
100
AcDbEntity
  8
image
 62
     5
100
AcDbVertex
100
AcDb2dVertex
 10
5.081563839966374
 20
6.068217590941335
 30
0.0
 70
     8
  0
VERTEX
  5
88E
330
875
100
AcDbEntity
  8
image
 62
     5
100
AcDbVertex
100
AcDb2dVertex
 10
5.003281793272332
 20
6.101106360876519
 30
0.0
 70
     8
  0
VERTEX
  5
88F
330
875
100
AcDbEntity
  8
image
 62
     5
100
AcDbVertex
100
AcDb2dVertex
 10
4.926581176961967
 20
6.13032931185903
 30
0.0
 70
     8
  0
VERTEX
  5
890
330
875
100
AcDbEntity
  8
image
 62
     5
100
AcDbVertex
100
AcDb2dVertex
 10
4.851819504136312
 20
6.15567981919249
 30
0.0
 70
     8
  0
VERTEX
  5
891
330
875
100
AcDbEntity
  8
image
 62
     5
100
AcDbVertex
100
AcDb2dVertex
 10
4.777684174388628
 20
6.177194887648552
 30
0.0
 70
     8
  0
VERTEX
  5
892
330
875
100
AcDbEntity
  8
image
 62
     5
100
AcDbVertex
100
AcDb2dVertex
 10
4.702445058935239
 20
6.194972429365874
 30
0.0
 70
     8
  0
VERTEX
  5
893
330
875
100
AcDbEntity
  8
image
 62
     5
100
AcDbVertex
100
AcDb2dVertex
 10
4.624372028992468
 20
6.20911035648311
 30
0.0
 70
     8
  0
VERTEX
  5
894
330
875
100
AcDbEntity
  8
image
 62
     5
100
AcDbVertex
100
AcDb2dVertex
 10
4.541734955776636
 20
6.219706581138924
 30
0.0
 70
     8
  0
VERTEX
  5
895
330
875
100
AcDbEntity
  8
image
 62
     5
100
AcDbVertex
100
AcDb2dVertex
 10
4.452803710504067
 20
6.226859015471971
 30
0.0
 70
     8
  0
VERTEX
  5
896
330
875
100
AcDbEntity
  8
image
 62
     5
100
AcDbVertex
100
AcDb2dVertex
 10
4.35584816439108
 20
6.230665571620908
 30
0.0
 70
     8
  0
VERTEX
  5
897
330
875
100
AcDbEntity
  8
image
 62
     5
100
AcDbVertex
100
AcDb2dVertex
 10
4.249138188653997
 20
6.231224161724393
 30
0.0
 70
     8
  0
VERTEX
  5
898
330
875
100
AcDbEntity
  8
image
 62
     5
100
AcDbVertex
100
AcDb2dVertex
 10
6.244388799570053
 20
4.590623192551076
 30
0.0
 70
    16
  0
VERTEX
  5
899
330
875
100
AcDbEntity
  8
image
 62
     5
100
AcDbVertex
100
AcDb2dVertex
 10
6.016677502019152
 20
5.368978715999473
 30
0.0
 70
    16
  0
VERTEX
  5
89A
330
875
100
AcDbEntity
  8
image
 62
     5
100
AcDbVertex
100
AcDb2dVertex
 10
5.582065008350827
 20
5.828010910302799
 30
0.0
 70
    16
  0
VERTEX
  5
89B
330
875
100
AcDbEntity
  8
image
 62
     5
100
AcDbVertex
100
AcDb2dVertex
 10
4.901445477104349
 20
6.172285056030295
 30
0.0
 70
    16
  0
VERTEX
  5
89C
330
875
100
AcDbEntity
  8
image
 62
     5
100
AcDbVertex
100
AcDb2dVertex
 10
4.548241922370502
 20
6.233978176496895
 30
0.0
 70
    16
  0
VERTEX
  5
89D
330
875
100
AcDbEntity
  8
image
 62
     5
100
AcDbVertex
100
AcDb2dVertex
 10
4.249138188653997
 20
6.231224161724393
 30
0.0
 70
    16
  0
SEQEND
  5
89E
330
875
100
AcDbEntity
  8
image
 62
     5
  0
LINE
  5
89F
330
2
100
AcDbEntity
  8
image
100
AcDbLine
 10
3.966013098750974
 20
6.098982279552474
 30
0.0
 11
3.966013098750974
 21
5.536077978692945
 31
0.0
  0
LINE
  5
8A0
330
2
100
AcDbEntity
  8
image
100
AcDbLine
 10
4.153063664618244
 20
6.098982279552474
 30
0.0
 11
4.153063664618244
 21
5.536077978692945
 31
0.0
  0
TEXT
  5
8A1
330
2
100
AcDbEntity
  8
image
100
AcDbText
 10
2.322051723946083
 20
5.440012153399292
 30
0.0
 40
0.125
  1
DB SERIES WIRE
  7
arial
100
AcDbText
  0
ARC
  5
8A2
330
2
100
AcDbEntity
  8
image
100
AcDbCircle
 10
4.05953838168461
 20
5.536077978692945
 30
0.0
 40
0.093525282933636
100
AcDbArc
 50
180.0
 51
0.0
  0
TEXT
  5
8A3
330
2
100
AcDbEntity
  8
image
100
AcDbText
 10
1.915416733908038
 20
7.133009358009028
 30
0.0
 40
0.125
  1
COMMUNICATION CABLE
  7
arial
100
AcDbText
  0
LINE
  5
8A4
330
2
100
AcDbEntity
  8
image
100
AcDbLine
 10
3.20903687821329
 20
6.533118207213112
 30
0.0
 11
3.20903687821329
 21
5.970213906353583
 31
0.0
  0
LINE
  5
8A5
330
2
100
AcDbEntity
  8
image
100
AcDbLine
 10
3.39608744408056
 20
6.533118207213112
 30
0.0
 11
3.39608744408056
 21
5.970213906353583
 31
0.0
  0
ARC
  5
8A6
330
2
100
AcDbEntity
  8
image
100
AcDbCircle
 10
3.302562161146926
 20
5.970213906353583
 30
0.0
 40
0.093525282933636
100
AcDbArc
 50
180.0
 51
0.0
  0
LINE
  5
8A7
330
2
100
AcDbEntity
  8
image
100
AcDbLine
 10
3.966013098750974
 20
6.098982279552474
 30
0.0
 11
4.153063664618244
 21
6.098982279552474
 31
0.0
  0
LINE
  5
8A8
330
2
100
AcDbEntity
  8
image
100
AcDbLine
 10
3.828513406805953
 20
6.192985545192749
 30
0.0
 11
4.290563356563271
 21
6.192985545192749
 31
0.0
  0
LINE
  5
8A9
330
2
100
AcDbEntity
  8
image
100
AcDbLine
 10
3.828513406805953
 20
6.207325026392114
 30
0.0
 11
4.290563356563271
 21
6.207325026392114
 31
0.0
  0
LINE
  5
8AA
330
2
100
AcDbEntity
  8
image
100
AcDbLine
 10
3.882684780225773
 20
6.255123297056671
 30
0.0
 11
3.882684780225773
 21
6.207325026392114
 31
0.0
  0
LINE
  5
8AB
330
2
100
AcDbEntity
  8
image
100
AcDbLine
 10
3.97509477017724
 20
6.255123297056671
 30
0.0
 11
3.97509477017724
 21
6.207325026392114
 31
0.0
  0
LINE
  5
8AC
330
2
100
AcDbEntity
  8
image
100
AcDbLine
 10
3.987840975687785
 20
6.255123297056671
 30
0.0
 11
3.987840975687785
 21
6.207325026392114
 31
0.0
  0
LINE
  5
8AD
330
2
100
AcDbEntity
  8
image
100
AcDbLine
 10
3.882684780225773
 20
6.255123297056671
 30
0.0
 11
3.987840975687785
 21
6.255123297056671
 31
0.0
  0
LINE
  5
8AE
330
2
100
AcDbEntity
  8
image
100
AcDbLine
 10
3.966013098750974
 20
6.098982279552474
 30
0.0
 11
3.879816883985907
 21
6.178646063993385
 31
0.0
  0
LINE
  5
8AF
330
2
100
AcDbEntity
  8
image
100
AcDbLine
 10
3.879816883985907
 20
6.178646063993385
 30
0.0
 11
3.879816883985907
 21
6.192985545192749
 31
0.0
  0
LINE
  5
8B0
330
2
100
AcDbEntity
  8
image
100
AcDbLine
 10
3.828513406805953
 20
6.178646063993385
 30
0.0
 11
3.828513406805953
 21
6.207325026392114
 31
0.0
  0
LINE
  5
8B1
330
2
100
AcDbEntity
  8
image
100
AcDbLine
 10
3.828513406805953
 20
6.178646063993385
 30
0.0
 11
3.879816883985907
 21
6.178646063993385
 31
0.0
  0
LINE
  5
8B2
330
2
100
AcDbEntity
  8
image
100
AcDbLine
 10
4.239259879383315
 20
6.178646063993385
 30
0.0
 11
4.290563356563271
 21
6.178646063993385
 31
0.0
  0
LINE
  5
8B3
330
2
100
AcDbEntity
  8
image
100
AcDbLine
 10
4.239259879383315
 20
6.178646063993385
 30
0.0
 11
4.239259879383315
 21
6.192985545192749
 31
0.0
  0
LINE
  5
8B4
330
2
100
AcDbEntity
  8
image
100
AcDbLine
 10
4.249138188653997
 20
6.255123297056671
 30
0.0
 11
4.249138188653997
 21
6.207325026392114
 31
0.0
  0
LINE
  5
8B5
330
2
100
AcDbEntity
  8
image
100
AcDbLine
 10
4.290563356563271
 20
6.207325026392114
 30
0.0
 11
4.290563356563271
 21
6.178646063993385
 31
0.0
  0
LINE
  5
8B6
330
2
100
AcDbEntity
  8
image
100
AcDbLine
 10
4.131235787681436
 20
6.255123297056671
 30
0.0
 11
4.131235787681436
 21
6.207325026392114
 31
0.0
  0
LINE
  5
8B7
330
2
100
AcDbEntity
  8
image
100
AcDbLine
 10
4.143981993191985
 20
6.255123297056671
 30
0.0
 11
4.143981993191985
 21
6.207325026392114
 31
0.0
  0
LINE
  5
8B8
330
2
100
AcDbEntity
  8
image
100
AcDbLine
 10
4.131235787681436
 20
6.255123297056671
 30
0.0
 11
4.249138188653997
 21
6.255123297056671
 31
0.0
  0
LINE
  5
8B9
330
2
100
AcDbEntity
  8
image
100
AcDbLine
 10
4.153063664618244
 20
6.098982279552474
 30
0.0
 11
4.239259879383315
 21
6.178646063993385
 31
0.0
  0
LINE
  5
8BA
330
2
100
AcDbEntity
  8
image
100
AcDbLine
 10
3.374259567143753
 20
6.689259224717309
 30
0.0
 11
3.492161968116314
 21
6.689259224717309
 31
0.0
  0
LINE
  5
8BB
330
2
100
AcDbEntity
  8
image
100
AcDbLine
 10
3.39608744408056
 20
6.533118207213112
 30
0.0
 11
3.482283658845631
 21
6.612781991654022
 31
0.0
  0
LINE
  5
8BC
330
2
100
AcDbEntity
  8
image
100
AcDbLine
 10
3.071537186268269
 20
6.627121472853387
 30
0.0
 11
3.533587136025588
 21
6.627121472853387
 31
0.0
  0
LINE
  5
8BD
330
2
100
AcDbEntity
  8
image
100
AcDbLine
 10
3.071537186268269
 20
6.641460954052751
 30
0.0
 11
3.533587136025588
 21
6.641460954052751
 31
0.0
  0
LINE
  5
8BE
330
2
100
AcDbEntity
  8
image
100
AcDbLine
 10
3.20903687821329
 20
6.533118207213112
 30
0.0
 11
3.39608744408056
 21
6.533118207213112
 31
0.0
  0
LINE
  5
8BF
330
2
100
AcDbEntity
  8
image
100
AcDbLine
 10
3.218118549639556
 20
6.689259224717309
 30
0.0
 11
3.218118549639556
 21
6.641460954052751
 31
0.0
  0
LINE
  5
8C0
330
2
100
AcDbEntity
  8
image
100
AcDbLine
 10
3.230864755150101
 20
6.689259224717309
 30
0.0
 11
3.230864755150101
 21
6.641460954052751
 31
0.0
  0
LINE
  5
8C1
330
2
100
AcDbEntity
  8
image
100
AcDbLine
 10
3.374259567143753
 20
6.689259224717309
 30
0.0
 11
3.374259567143753
 21
6.641460954052751
 31
0.0
  0
LINE
  5
8C2
330
2
100
AcDbEntity
  8
image
100
AcDbLine
 10
3.387005772654302
 20
6.689259224717309
 30
0.0
 11
3.387005772654302
 21
6.641460954052751
 31
0.0
  0
LINE
  5
8C3
330
2
100
AcDbEntity
  8
image
100
AcDbLine
 10
3.125708559688089
 20
6.689259224717309
 30
0.0
 11
3.125708559688089
 21
6.641460954052751
 31
0.0
  0
LINE
  5
8C4
330
2
100
AcDbEntity
  8
image
100
AcDbLine
 10
3.122840663448223
 20
6.612781991654022
 30
0.0
 11
3.122840663448223
 21
6.627121472853387
 31
0.0
  0
LINE
  5
8C5
330
2
100
AcDbEntity
  8
image
100
AcDbLine
 10
3.071537186268269
 20
6.612781991654022
 30
0.0
 11
3.071537186268269
 21
6.641460954052751
 31
0.0
  0
LINE
  5
8C6
330
2
100
AcDbEntity
  8
image
100
AcDbLine
 10
3.071537186268269
 20
6.612781991654022
 30
0.0
 11
3.122840663448223
 21
6.612781991654022
 31
0.0
  0
LINE
  5
8C7
330
2
100
AcDbEntity
  8
image
100
AcDbLine
 10
3.125708559688089
 20
6.689259224717309
 30
0.0
 11
3.230864755150101
 21
6.689259224717309
 31
0.0
  0
LINE
  5
8C8
330
2
100
AcDbEntity
  8
image
100
AcDbLine
 10
3.20903687821329
 20
6.533118207213112
 30
0.0
 11
3.122840663448223
 21
6.612781991654022
 31
0.0
  0
LINE
  5
8C9
330
2
100
AcDbEntity
  8
image
100
AcDbLine
 10
3.533587136025588
 20
6.641460954052751
 30
0.0
 11
3.533587136025588
 21
6.612781991654022
 31
0.0
  0
LINE
  5
8CA
330
2
100
AcDbEntity
  8
image
100
AcDbLine
 10
3.482283658845631
 20
6.612781991654022
 30
0.0
 11
3.482283658845631
 21
6.627121472853387
 31
0.0
  0
LINE
  5
8CB
330
2
100
AcDbEntity
  8
image
100
AcDbLine
 10
3.492161968116314
 20
6.689259224717309
 30
0.0
 11
3.492161968116314
 21
6.641460954052751
 31
0.0
  0
LINE
  5
8CC
330
2
100
AcDbEntity
  8
image
100
AcDbLine
 10
3.482283658845631
 20
6.612781991654022
 30
0.0
 11
3.533587136025588
 21
6.612781991654022
 31
0.0
  0
TEXT
  5
8CD
330
2
100
AcDbEntity
  8
image
100
AcDbText
 10
6.731365382370331
 20
4.698894088072975
 30
0.0
 40
0.125
  1
WHITE
  7
arial
100
AcDbText
  0
TEXT
  5
8CE
330
2
100
AcDbEntity
  8
image
 62
     5
100
AcDbText
 10
5.000066715917732
 20
5.6710361777964
 30
0.0
 40
0.125
  1
BLUE
  7
arial
100
AcDbText
  0
TEXT
  5
8CF
330
2
100
AcDbEntity
  8
image
100
AcDbText
 10
7.210120383306641
 20
6.503274924836917
 30
0.0
 40
0.125
  1
WHITE
  7
arial
100
AcDbText
  0
LWPOLYLINE
  5
8D0
330
2
100
AcDbEntity
  8
image
100
AcDbPolyline
 90
        2
 70
     0
 43
0.09
 10
1.65216929379226
 20
9.728947622201445
 10
1.667286127189555
 20
7.534233410972648
  0
TEXT
  5
8D1
330
2
100
AcDbEntity
  8
image
100
AcDbText
 10
1.915416733908038
 20
8.633124648334023
 30
0.0
 40
0.125
  1
CABLE
  7
arial
100
AcDbText
  0
TEXT
  5
8D2
330
2
100
AcDbEntity
  8
image
100
AcDbText
 10
1.915416733908038
 20
8.874086449152576
 30
0.0
 40
0.125
  1
TWO-WIRE
  7
arial
100
AcDbText
  0
TEXT
  5
8D3
330
2
100
AcDbEntity
  8
image
100
AcDbText
 10
12.38121262770016
 20
5.338517697095413
 30
0.0
 40
0.125
  1
(VALVE),
  7
arial
100
AcDbText
  0
TEXT
  5
8D4
330
2
100
AcDbEntity
  8
image
100
AcDbText
 10
12.38121262770016
 20
4.856594095458307
 30
0.0
 40
0.125
  1
OR BOOSTER 
  7
arial
100
AcDbText
  0
TEXT
  5
8D5
330
2
100
AcDbEntity
  8
image
100
AcDbText
 10
12.38121262770016
 20
5.09755589627686
 30
0.0
 40
0.125
  1
MASTER VALVE,
  7
arial
100
AcDbText
  0
TEXT
  5
8D7
330
2
100
AcDbEntity
  8
image
100
AcDbText
 10
12.38121262770016
 20
4.615632294639754
 30
0.0
 40
0.125
  1
PUMP / VALVE
  7
arial
100
AcDbText
  0
LINE
  5
9DB
330
2
100
AcDbEntity
  8
image
100
AcDbLine
 10
7.936108689037568
 20
6.088795116479237
 30
0.0
 11
7.936108689037568
 21
5.525890815619709
 31
0.0
  0
LINE
  5
9DC
330
2
100
AcDbEntity
  8
image
100
AcDbLine
 10
7.749058123170297
 20
6.088795116479237
 30
0.0
 11
7.749058123170297
 21
5.525890815619709
 31
0.0
  0
TEXT
  5
9DD
330
2
100
AcDbEntity
  8
image
100
AcDbText
 10
7.702903148833694
 20
4.803816332993152
 30
0.0
 40
0.125
  1
CONNECTORS
  7
arial
100
AcDbText
  0
TEXT
  5
9DE
330
2
100
AcDbEntity
  8
image
100
AcDbText
 10
7.702903148833694
 20
5.044778133811705
 30
0.0
 40
0.125
  1
DB SERIES WIRE
  7
arial
100
AcDbText
  0
ARC
  5
9DF
330
2
100
AcDbEntity
  8
image
100
AcDbCircle
 10
7.842583406103933
 20
5.525890815619709
 30
0.0
 40
0.093525282933636
100
AcDbArc
 50
180.0
 51
0.0
  0
LINE
  5
9E1
330
2
100
AcDbEntity
  8
image
100
AcDbLine
 10
8.468889341350028
 20
6.500877623323004
 30
0.0
 11
8.468889341350028
 21
6.453079352658447
 31
0.0
  0
LINE
  5
9E2
330
2
100
AcDbEntity
  8
image
100
AcDbLine
 10
8.102435932921803
 20
6.500877623323004
 30
0.0
 11
8.102435932921803
 21
6.453079352658447
 31
0.0
  0
LINE
  5
9E3
330
2
100
AcDbEntity
  8
image
100
AcDbLine
 10
8.19484592287327
 20
6.500877623323004
 30
0.0
 11
8.19484592287327
 21
6.453079352658447
 31
0.0
  0
LINE
  5
9E4
330
2
100
AcDbEntity
  8
image
100
AcDbLine
 10
8.207592128383815
 20
6.500877623323004
 30
0.0
 11
8.207592128383815
 21
6.453079352658447
 31
0.0
  0
LINE
  5
9E5
330
2
100
AcDbEntity
  8
image
100
AcDbLine
 10
8.363733145888016
 20
6.500877623323004
 30
0.0
 11
8.363733145888016
 21
6.453079352658447
 31
0.0
  0
LINE
  5
9E6
330
2
100
AcDbEntity
  8
image
100
AcDbLine
 10
8.35098694037747
 20
6.500877623323004
 30
0.0
 11
8.35098694037747
 21
6.453079352658447
 31
0.0
  0
LINE
  5
9E7
330
2
100
AcDbEntity
  8
image
100
AcDbLine
 10
7.91428081210076
 20
6.244936133983435
 30
0.0
 11
8.03218321307332
 21
6.244936133983435
 31
0.0
  0
LINE
  5
9E8
330
2
100
AcDbEntity
  8
image
100
AcDbLine
 10
7.749058123170297
 20
6.088795116479237
 30
0.0
 11
7.936108689037568
 21
6.088795116479237
 31
0.0
  0
LINE
  5
9E9
330
2
100
AcDbEntity
  8
image
100
AcDbLine
 10
7.611558431225277
 20
6.197137863318877
 30
0.0
 11
8.073608380982594
 21
6.197137863318877
 31
0.0
  0
LINE
  5
9EA
330
2
100
AcDbEntity
  8
image
100
AcDbLine
 10
7.611558431225277
 20
6.182798382119512
 30
0.0
 11
8.073608380982594
 21
6.182798382119512
 31
0.0
  0
LINE
  5
9EB
330
2
100
AcDbEntity
  8
image
100
AcDbLine
 10
7.91428081210076
 20
6.244936133983435
 30
0.0
 11
7.91428081210076
 21
6.197137863318877
 31
0.0
  0
LINE
  5
9EC
330
2
100
AcDbEntity
  8
image
100
AcDbLine
 10
7.66286190840523
 20
6.168458900920148
 30
0.0
 11
7.66286190840523
 21
6.182798382119512
 31
0.0
  0
LINE
  5
9ED
330
2
100
AcDbEntity
  8
image
100
AcDbLine
 10
7.749058123170297
 20
6.088795116479237
 30
0.0
 11
7.66286190840523
 21
6.168458900920148
 31
0.0
  0
LINE
  5
9EE
330
2
100
AcDbEntity
  8
image
100
AcDbLine
 10
7.665729804645097
 20
6.244936133983435
 30
0.0
 11
7.770886000107108
 21
6.244936133983435
 31
0.0
  0
LINE
  5
9EF
330
2
100
AcDbEntity
  8
image
100
AcDbLine
 10
7.770886000107108
 20
6.244936133983435
 30
0.0
 11
7.770886000107108
 21
6.197137863318877
 31
0.0
  0
LINE
  5
9F0
330
2
100
AcDbEntity
  8
image
100
AcDbLine
 10
7.758139794596563
 20
6.244936133983435
 30
0.0
 11
7.758139794596563
 21
6.197137863318877
 31
0.0
  0
LINE
  5
9F1
330
2
100
AcDbEntity
  8
image
100
AcDbLine
 10
7.665729804645097
 20
6.244936133983435
 30
0.0
 11
7.665729804645097
 21
6.197137863318877
 31
0.0
  0
LINE
  5
9F2
330
2
100
AcDbEntity
  8
image
100
AcDbLine
 10
7.611558431225277
 20
6.168458900920148
 30
0.0
 11
7.611558431225277
 21
6.197137863318877
 31
0.0
  0
LINE
  5
9F3
330
2
100
AcDbEntity
  8
image
100
AcDbLine
 10
7.611558431225277
 20
6.168458900920148
 30
0.0
 11
7.66286190840523
 21
6.168458900920148
 31
0.0
  0
LINE
  5
9F4
330
2
100
AcDbEntity
  8
image
100
AcDbLine
 10
8.185764251447004
 20
6.344736605818807
 30
0.0
 11
8.185764251447004
 21
6.251932924847789
 31
0.0
  0
LINE
  5
9F5
330
2
100
AcDbEntity
  8
image
100
AcDbLine
 10
8.372814817314274
 20
6.344736605818807
 30
0.0
 11
8.372814817314278
 21
6.260252927361968
 31
0.0
  0
ARC
  5
9F6
330
2
100
AcDbEntity
  8
image
100
AcDbCircle
 10
8.279289534380641
 20
5.781832304959278
 30
0.0
 40
0.093525282933636
100
AcDbArc
 50
180.0
 51
0.0
  0
LINE
  5
9F7
330
2
100
AcDbEntity
  8
image
100
AcDbLine
 10
8.185764251447004
 20
6.344736605818807
 30
0.0
 11
8.372814817314274
 21
6.344736605818807
 31
0.0
  0
LINE
  5
9F8
330
2
100
AcDbEntity
  8
image
100
AcDbLine
 10
8.048264559501983
 20
6.438739871459082
 30
0.0
 11
8.510314509259302
 21
6.438739871459082
 31
0.0
  0
LINE
  5
9F9
330
2
100
AcDbEntity
  8
image
100
AcDbLine
 10
8.048264559501983
 20
6.453079352658447
 30
0.0
 11
8.510314509259302
 21
6.453079352658447
 31
0.0
  0
LINE
  5
9FA
330
2
100
AcDbEntity
  8
image
100
AcDbLine
 10
8.185764251447004
 20
6.344736605818807
 30
0.0
 11
8.099568036681937
 21
6.424400390259718
 31
0.0
  0
LINE
  5
9FB
330
2
100
AcDbEntity
  8
image
100
AcDbLine
 10
8.099568036681937
 20
6.424400390259718
 30
0.0
 11
8.099568036681937
 21
6.438739871459082
 31
0.0
  0
LINE
  5
9FC
330
2
100
AcDbEntity
  8
image
100
AcDbLine
 10
8.048264559501983
 20
6.424400390259718
 30
0.0
 11
8.048264559501983
 21
6.453079352658447
 31
0.0
  0
LINE
  5
9FD
330
2
100
AcDbEntity
  8
image
100
AcDbLine
 10
8.048264559501983
 20
6.424400390259718
 30
0.0
 11
8.099568036681937
 21
6.424400390259718
 31
0.0
  0
LINE
  5
9FE
330
2
100
AcDbEntity
  8
image
100
AcDbLine
 10
7.936108689037568
 20
6.088795116479237
 30
0.0
 11
8.022304903802638
 21
6.168458900920148
 31
0.0
  0
LINE
  5
9FF
330
2
100
AcDbEntity
  8
image
100
AcDbLine
 10
8.073608380982594
 20
6.197137863318877
 30
0.0
 11
8.073608380982594
 21
6.168458900920148
 31
0.0
  0
LINE
  5
A00
330
2
100
AcDbEntity
  8
image
100
AcDbLine
 10
8.03218321307332
 20
6.244936133983435
 30
0.0
 11
8.03218321307332
 21
6.197137863318877
 31
0.0
  0
LINE
  5
A01
330
2
100
AcDbEntity
  8
image
100
AcDbLine
 10
8.022304903802638
 20
6.168458900920148
 30
0.0
 11
8.022304903802638
 21
6.182798382119512
 31
0.0
  0
LINE
  5
A02
330
2
100
AcDbEntity
  8
image
100
AcDbLine
 10
7.927027017611309
 20
6.244936133983435
 30
0.0
 11
7.927027017611309
 21
6.197137863318877
 31
0.0
  0
LINE
  5
A03
330
2
100
AcDbEntity
  8
image
100
AcDbLine
 10
8.022304903802638
 20
6.168458900920148
 30
0.0
 11
8.073608380982594
 21
6.168458900920148
 31
0.0
  0
LINE
  5
A04
330
2
100
AcDbEntity
  8
image
100
AcDbLine
 10
8.459011032079349
 20
6.424400390259718
 30
0.0
 11
8.510314509259302
 21
6.424400390259718
 31
0.0
  0
LINE
  5
A05
330
2
100
AcDbEntity
  8
image
100
AcDbLine
 10
8.459011032079349
 20
6.424400390259718
 30
0.0
 11
8.459011032079349
 21
6.438739871459082
 31
0.0
  0
LINE
  5
A06
330
2
100
AcDbEntity
  8
image
100
AcDbLine
 10
8.510314509259302
 20
6.453079352658447
 30
0.0
 11
8.510314509259302
 21
6.424400390259718
 31
0.0
  0
LINE
  5
A07
330
2
100
AcDbEntity
  8
image
100
AcDbLine
 10
8.372814817314274
 20
6.344736605818807
 30
0.0
 11
8.459011032079349
 21
6.424400390259718
 31
0.0
  0
LINE
  5
A08
330
2
100
AcDbEntity
  8
image
100
AcDbLine
 10
8.102435932921803
 20
6.500877623323004
 30
0.0
 11
8.207592128383815
 21
6.500877623323004
 31
0.0
  0
LINE
  5
A09
330
2
100
AcDbEntity
  8
image
100
AcDbLine
 10
8.35098694037747
 20
6.500877623323004
 30
0.0
 11
8.468889341350028
 21
6.500877623323004
 31
0.0
  0
TEXT
  5
A1E
330
2
100
AcDbEntity
  8
image
100
AcDbText
 10
12.38121262770016
 20
5.579479497913967
 30
0.0
 40
0.125
  1
SOLENOID
  7
arial
100
AcDbText
  0
LWPOLYLINE
  5
A86
330
2
100
AcDbEntity
  8
image
100
AcDbPolyline
 90
        2
 70
     0
 43
0.0
 10
6.892908567823508
 20
1.889324954094327
 10
5.907908567823509
 20
1.889324954094327
  0
LWPOLYLINE
  5
A87
330
2
100
AcDbEntity
  8
image
100
AcDbPolyline
 90
        2
 70
     0
 43
0.0
 10
5.907908567823509
 20
3.564324954094326
 10
5.907908567823509
 20
1.889324954094327
  0
LWPOLYLINE
  5
A88
330
2
100
AcDbEntity
  8
image
100
AcDbPolyline
 90
        2
 70
     0
 43
0.0
 10
6.892908567823508
 20
3.564324954094326
 10
6.892908567823508
 20
1.889324954094327
  0
LWPOLYLINE
  5
A89
330
2
100
AcDbEntity
  8
image
100
AcDbPolyline
 90
        2
 70
     0
 43
0.0
 10
6.892908567823508
 20
3.564324954094326
 10
5.907908567823509
 20
3.564324954094326
  0
LWPOLYLINE
  5
A8A
330
2
100
AcDbEntity
  8
image
100
AcDbPolyline
 90
        2
 70
     0
 43
0.0
 10
6.892908567823508
 20
3.534698263631215
 10
5.907908567823509
 20
3.534698263631215
  0
TEXT
  5
A8B
330
2
100
AcDbEntity
  8
image
100
AcDbText
 10
8.550073334920416
 20
8.466628812534755
 30
0.0
 40
0.125
  1
SOLENOID WIRE
  7
arial
100
AcDbText
  0
POLYLINE
  5
A8C
330
2
100
AcDbEntity
  8
image
100
AcDb2dPolyline
 66
     1
 10
0.0
 20
0.0
 30
0.0
 70
     4
 75
     6
  0
VERTEX
  5
A8D
330
A8C
100
AcDbEntity
  8
image
100
AcDbVertex
100
AcDb2dVertex
 10
8.03218321307332
 20
8.867089985039887
 30
0.0
 70
    16
  0
VERTEX
  5
A8E
330
A8C
100
AcDbEntity
  8
image
100
AcDbVertex
100
AcDb2dVertex
 10
8.03218321307332
 20
8.867089985039887
 30
0.0
 70
     8
  0
VERTEX
  5
A8F
330
A8C
100
AcDbEntity
  8
image
100
AcDbVertex
100
AcDb2dVertex
 10
8.05437240664602
 20
8.867111668622152
 30
0.0
 70
     8
  0
VERTEX
  5
A90
330
A8C
100
AcDbEntity
  8
image
100
AcDbVertex
100
AcDb2dVertex
 10
8.079272392630954
 20
8.867136266310444
 30
0.0
 70
     8
  0
VERTEX
  5
A91
330
A8C
100
AcDbEntity
  8
image
100
AcDbVertex
100
AcDb2dVertex
 10
8.107020732896561
 20
8.867103098517015
 30
0.0
 70
     8
  0
VERTEX
  5
A92
330
A8C
100
AcDbEntity
  8
image
100
AcDbVertex
100
AcDb2dVertex
 10
8.137754989311265
 20
8.866951485654121
 30
0.0
 70
     8
  0
VERTEX
  5
A93
330
A8C
100
AcDbEntity
  8
image
100
AcDbVertex
100
AcDb2dVertex
 10
8.171612723743507
 20
8.866620748134012
 30
0.0
 70
     8
  0
VERTEX
  5
A94
330
A8C
100
AcDbEntity
  8
image
100
AcDbVertex
100
AcDb2dVertex
 10
8.20873149806172
 20
8.866050206368941
 30
0.0
 70
     8
  0
VERTEX
  5
A95
330
A8C
100
AcDbEntity
  8
image
100
AcDbVertex
100
AcDb2dVertex
 10
8.249248874134327
 20
8.865179180771155
 30
0.0
 70
     8
  0
VERTEX
  5
A96
330
A8C
100
AcDbEntity
  8
image
100
AcDbVertex
100
AcDb2dVertex
 10
8.293302413829771
 20
8.863946991752913
 30
0.0
 70
     8
  0
VERTEX
  5
A97
330
A8C
100
AcDbEntity
  8
image
100
AcDbVertex
100
AcDb2dVertex
 10
8.340922086470463
 20
8.862305360590594
 30
0.0
 70
     8
  0
VERTEX
  5
A98
330
A8C
100
AcDbEntity
  8
image
100
AcDbVertex
100
AcDb2dVertex
 10
8.391707491194743
 20
8.860255612017096
 30
0.0
 70
     8
  0
VERTEX
  5
A99
330
A8C
100
AcDbEntity
  8
image
100
AcDbVertex
100
AcDb2dVertex
 10
8.445150634594931
 20
8.857811471629444
 30
0.0
 70
     8
  0
VERTEX
  5
A9A
330
A8C
100
AcDbEntity
  8
image
100
AcDbVertex
100
AcDb2dVertex
 10
8.500743523263349
 20
8.854986665024666
 30
0.0
 70
     8
  0
VERTEX
  5
A9B
330
A8C
100
AcDbEntity
  8
image
100
AcDbVertex
100
AcDb2dVertex
 10
8.557978163792313
 20
8.851794917799788
 30
0.0
 70
     8
  0
VERTEX
  5
A9C
330
A8C
100
AcDbEntity
  8
image
100
AcDbVertex
100
AcDb2dVertex
 10
8.61634656277415
 20
8.848249955551834
 30
0.0
 70
     8
  0
VERTEX
  5
A9D
330
A8C
100
AcDbEntity
  8
image
100
AcDbVertex
100
AcDb2dVertex
 10
8.675340726801181
 20
8.844365503877837
 30
0.0
 70
     8
  0
VERTEX
  5
A9E
330
A8C
100
AcDbEntity
  8
image
100
AcDbVertex
100
AcDb2dVertex
 10
8.734452662465724
 20
8.840155288374814
 30
0.0
 70
     8
  0
VERTEX
  5
A9F
330
A8C
100
AcDbEntity
  8
image
100
AcDbVertex
100
AcDb2dVertex
 10
8.793275301168467
 20
8.835624246301962
 30
0.0
 70
     8
  0
VERTEX
  5
AA0
330
A8C
100
AcDbEntity
  8
image
100
AcDbVertex
100
AcDb2dVertex
 10
8.851805273543586
 20
8.830742161567117
 30
0.0
 70
     8
  0
VERTEX
  5
AA1
330
A8C
100
AcDbEntity
  8
image
100
AcDbVertex
100
AcDb2dVertex
 10
8.910140135033625
 20
8.825470029740285
 30
0.0
 70
     8
  0
VERTEX
  5
AA2
330
A8C
100
AcDbEntity
  8
image
100
AcDbVertex
100
AcDb2dVertex
 10
8.96837744108112
 20
8.819768846391466
 30
0.0
 70
     8
  0
VERTEX
  5
AA3
330
A8C
100
AcDbEntity
  8
image
100
AcDbVertex
100
AcDb2dVertex
 10
9.026614747128615
 20
8.81359960709066
 30
0.0
 70
     8
  0
VERTEX
  5
AA4
330
A8C
100
AcDbEntity
  8
image
100
AcDbVertex
100
AcDb2dVertex
 10
9.084949608618646
 20
8.806923307407876
 30
0.0
 70
     8
  0
VERTEX
  5
AA5
330
A8C
100
AcDbEntity
  8
image
100
AcDbVertex
100
AcDb2dVertex
 10
9.143479580993769
 20
8.79970094291311
 30
0.0
 70
     8
  0
VERTEX
  5
AA6
330
A8C
100
AcDbEntity
  8
image
100
AcDbVertex
100
AcDb2dVertex
 10
9.202302219696516
 20
8.791893509176366
 30
0.0
 70
     8
  0
VERTEX
  5
AA7
330
A8C
100
AcDbEntity
  8
image
100
AcDbVertex
100
AcDb2dVertex
 10
9.26143703585722
 20
8.783483129225396
 30
0.0
 70
     8
  0
VERTEX
  5
AA8
330
A8C
100
AcDbEntity
  8
image
100
AcDbVertex
100
AcDb2dVertex
 10
9.320591363357401
 20
8.774536435918948
 30
0.0
 70
     8
  0
VERTEX
  5
AA9
330
A8C
100
AcDbEntity
  8
image
100
AcDbVertex
100
AcDb2dVertex
 10
9.379394491766362
 20
8.765141189573521
 30
0.0
 70
     8
  0
VERTEX
  5
AAA
330
A8C
100
AcDbEntity
  8
image
100
AcDbVertex
100
AcDb2dVertex
 10
9.437475710653412
 20
8.755385150505604
 30
0.0
 70
     8
  0
VERTEX
  5
AAB
330
A8C
100
AcDbEntity
  8
image
100
AcDbVertex
100
AcDb2dVertex
 10
9.494464309587858
 20
8.745356079031699
 30
0.0
 70
     8
  0
VERTEX
  5
AAC
330
A8C
100
AcDbEntity
  8
image
100
AcDbVertex
100
AcDb2dVertex
 10
9.549989578139012
 20
8.735141735468298
 30
0.0
 70
     8
  0
VERTEX
  5
AAD
330
A8C
100
AcDbEntity
  8
image
100
AcDbVertex
100
AcDb2dVertex
 10
9.603680805876173
 20
8.724829880131901
 30
0.0
 70
     8
  0
VERTEX
  5
AAE
330
A8C
100
AcDbEntity
  8
image
100
AcDbVertex
100
AcDb2dVertex
 10
9.655167282368655
 20
8.714508273339001
 30
0.0
 70
     8
  0
VERTEX
  5
AAF
330
A8C
100
AcDbEntity
  8
image
100
AcDbVertex
100
AcDb2dVertex
 10
9.704164471088304
 20
8.704240297540406
 30
0.0
 70
     8
  0
VERTEX
  5
AB0
330
A8C
100
AcDbEntity
  8
image
100
AcDbVertex
100
AcDb2dVertex
 10
9.75073253111713
 20
8.693991823724141
 30
0.0
 70
     8
  0
VERTEX
  5
AB1
330
A8C
100
AcDbEntity
  8
image
100
AcDbVertex
100
AcDb2dVertex
 10
9.795017795439683
 20
8.683704345012541
 30
0.0
 70
     8
  0
VERTEX
  5
AB2
330
A8C
100
AcDbEntity
  8
image
100
AcDbVertex
100
AcDb2dVertex
 10
9.837166597040518
 20
8.673319354527945
 30
0.0
 70
     8
  0
VERTEX
  5
AB3
330
A8C
100
AcDbEntity
  8
image
100
AcDbVertex
100
AcDb2dVertex
 10
9.877325268904183
 20
8.662778345392689
 30
0.0
 70
     8
  0
VERTEX
  5
AB4
330
A8C
100
AcDbEntity
  8
image
100
AcDbVertex
100
AcDb2dVertex
 10
9.915640144015231
 20
8.652022810729105
 30
0.0
 70
     8
  0
VERTEX
  5
AB5
330
A8C
100
AcDbEntity
  8
image
100
AcDbVertex
100
AcDb2dVertex
 10
9.952257555358212
 20
8.640994243659532
 30
0.0
 70
     8
  0
VERTEX
  5
AB6
330
A8C
100
AcDbEntity
  8
image
100
AcDbVertex
100
AcDb2dVertex
 10
9.987323835917678
 20
8.629634137306306
 30
0.0
 70
     8
  0
VERTEX
  5
AB7
330
A8C
100
AcDbEntity
  8
image
100
AcDbVertex
100
AcDb2dVertex
 10
10.02094710951696
 20
8.617889672947496
 30
0.0
 70
     8
  0
VERTEX
  5
AB8
330
A8C
100
AcDbEntity
  8
image
100
AcDbVertex
100
AcDb2dVertex
 10
10.05308266333453
 20
8.605730784484121
 30
0.0
 70
     8
  0
VERTEX
  5
AB9
330
A8C
100
AcDbEntity
  8
image
100
AcDbVertex
100
AcDb2dVertex
 10
10.08364757538763
 20
8.593133093972928
 30
0.0
 70
     8
  0
VERTEX
  5
ABA
330
A8C
100
AcDbEntity
  8
image
100
AcDbVertex
100
AcDb2dVertex
 10
10.11255892369351
 20
8.580072223470667
 30
0.0
 70
     8
  0
VERTEX
  5
ABB
330
A8C
100
AcDbEntity
  8
image
100
AcDbVertex
100
AcDb2dVertex
 10
10.13973378626943
 20
8.566523795034092
 30
0.0
 70
     8
  0
VERTEX
  5
ABC
330
A8C
100
AcDbEntity
  8
image
100
AcDbVertex
100
AcDb2dVertex
 10
10.16508924113262
 20
8.552463430719955
 30
0.0
 70
     8
  0
VERTEX
  5
ABD
330
A8C
100
AcDbEntity
  8
image
100
AcDbVertex
100
AcDb2dVertex
 10
10.18854236630034
 20
8.537866752584998
 30
0.0
 70
     8
  0
VERTEX
  5
ABE
330
A8C
100
AcDbEntity
  8
image
100
AcDbVertex
100
AcDb2dVertex
 10
10.21001023978984
 20
8.522709382685983
 30
0.0
 70
     8
  0
VERTEX
  5
ABF
330
A8C
100
AcDbEntity
  8
image
100
AcDbVertex
100
AcDb2dVertex
 10
10.22940343589829
 20
8.507024894222629
 30
0.0
 70
     8
  0
VERTEX
  5
AC0
330
A8C
100
AcDbEntity
  8
image
100
AcDbVertex
100
AcDb2dVertex
 10
10.24660651404259
 20
8.491078664966584
 30
0.0
 70
     8
  0
VERTEX
  5
AC1
330
A8C
100
AcDbEntity
  8
image
100
AcDbVertex
100
AcDb2dVertex
 10
10.26149752991956
 20
8.47519402383247
 30
0.0
 70
     8
  0
VERTEX
  5
AC2
330
A8C
100
AcDbEntity
  8
image
100
AcDbVertex
100
AcDb2dVertex
 10
10.27395453922603
 20
8.459694299734907
 30
0.0
 70
     8
  0
VERTEX
  5
AC3
330
A8C
100
AcDbEntity
  8
image
100
AcDbVertex
100
AcDb2dVertex
 10
10.2838555976588
 20
8.444902821588515
 30
0.0
 70
     8
  0
VERTEX
  5
AC4
330
A8C
100
AcDbEntity
  8
image
100
AcDbVertex
100
AcDb2dVertex
 10
10.29107876091472
 20
8.431142918307914
 30
0.0
 70
     8
  0
VERTEX
  5
AC5
330
A8C
100
AcDbEntity
  8
image
100
AcDbVertex
100
AcDb2dVertex
 10
10.29550208469061
 20
8.418737918807726
 30
0.0
 70
     8
  0
VERTEX
  5
AC6
330
A8C
100
AcDbEntity
  8
image
100
AcDbVertex
100
AcDb2dVertex
 10
10.29700362468327
 20
8.408011152002574
 30
0.0
 70
     8
  0
VERTEX
  5
AC7
330
A8C
100
AcDbEntity
  8
image
100
AcDbVertex
100
AcDb2dVertex
 10
8.087862283267256
 20
8.867089985039887
 30
0.0
 70
    16
  0
VERTEX
  5
AC8
330
A8C
100
AcDbEntity
  8
image
100
AcDbVertex
100
AcDb2dVertex
 10
8.254116008589594
 20
8.868446650507115
 30
0.0
 70
    16
  0
VERTEX
  5
AC9
330
A8C
100
AcDbEntity
  8
image
100
AcDbVertex
100
AcDb2dVertex
 10
8.738615028014169
 20
8.843483696182753
 30
0.0
 70
    16
  0
VERTEX
  5
ACA
330
A8C
100
AcDbEntity
  8
image
100
AcDbVertex
100
AcDb2dVertex
 10
9.19813985414807
 20
8.798550295010764
 30
0.0
 70
    16
  0
VERTEX
  5
ACB
330
A8C
100
AcDbEntity
  8
image
100
AcDbVertex
100
AcDb2dVertex
 10
9.682638873572642
 20
8.713676178832388
 30
0.0
 70
    16
  0
VERTEX
  5
ACC
330
A8C
100
AcDbEntity
  8
image
100
AcDbVertex
100
AcDb2dVertex
 10
10.00230834577329
 20
8.633794629693701
 30
0.0
 70
    16
  0
VERTEX
  5
ACD
330
A8C
100
AcDbEntity
  8
image
100
AcDbVertex
100
AcDb2dVertex
 10
10.23207075884024
 20
8.528950126230652
 30
0.0
 70
    16
  0
VERTEX
  5
ACE
330
A8C
100
AcDbEntity
  8
image
100
AcDbVertex
100
AcDb2dVertex
 10
10.29700362468327
 20
8.434090816409939
 30
0.0
 70
    16
  0
VERTEX
  5
ACF
330
A8C
100
AcDbEntity
  8
image
100
AcDbVertex
100
AcDb2dVertex
 10
10.29700362468327
 20
8.408011152002574
 30
0.0
 70
    16
  0
SEQEND
  5
AD0
330
A8C
100
AcDbEntity
  8
image
  0
POLYLINE
  5
AD1
330
2
100
AcDbEntity
  8
image
100
AcDb2dPolyline
 66
     1
 10
0.0
 20
0.0
 30
0.0
 70
     4
 75
     6
  0
VERTEX
  5
AD2
330
AD1
100
AcDbEntity
  8
image
100
AcDbVertex
100
AcDb2dVertex
 10
8.03218321307332
 20
8.904104795216992
 30
0.0
 70
    16
  0
VERTEX
  5
AD3
330
AD1
100
AcDbEntity
  8
image
100
AcDbVertex
100
AcDb2dVertex
 10
8.03218321307332
 20
8.904104795216992
 30
0.0
 70
     8
  0
VERTEX
  5
AD4
330
AD1
100
AcDbEntity
  8
image
100
AcDbVertex
100
AcDb2dVertex
 10
8.054344133586752
 20
8.904126616922708
 30
0.0
 70
     8
  0
VERTEX
  5
AD5
330
AD1
100
AcDbEntity
  8
image
100
AcDbVertex
100
AcDb2dVertex
 10
8.079268345633433
 20
8.904151452400983
 30
0.0
 70
     8
  0
VERTEX
  5
AD6
330
AD1
100
AcDbEntity
  8
image
100
AcDbVertex
100
AcDb2dVertex
 10
8.107087079398684
 20
8.904118357193494
 30
0.0
 70
     8
  0
VERTEX
  5
AD7
330
AD1
100
AcDbEntity
  8
image
100
AcDbVertex
100
AcDb2dVertex
 10
8.137931565067848
 20
8.903966386841927
 30
0.0
 70
     8
  0
VERTEX
  5
AD8
330
AD1
100
AcDbEntity
  8
image
100
AcDbVertex
100
AcDb2dVertex
 10
8.171933032826245
 20
8.90363459688797
 30
0.0
 70
     8
  0
VERTEX
  5
AD9
330
AD1
100
AcDbEntity
  8
image
100
AcDbVertex
100
AcDb2dVertex
 10
8.209222712859212
 20
8.903062042873306
 30
0.0
 70
     8
  0
VERTEX
  5
ADA
330
AD1
100
AcDbEntity
  8
image
100
AcDbVertex
100
AcDb2dVertex
 10
8.249931835352079
 20
8.902187780339614
 30
0.0
 70
     8
  0
VERTEX
  5
ADB
330
AD1
100
AcDbEntity
  8
image
100
AcDbVertex
100
AcDb2dVertex
 10
8.294191630490178
 20
8.900950864828581
 30
0.0
 70
     8
  0
VERTEX
  5
ADC
330
AD1
100
AcDbEntity
  8
image
100
AcDbVertex
100
AcDb2dVertex
 10
8.34202671655646
 20
8.899302794674641
 30
0.0
 70
     8
  0
VERTEX
  5
ADD
330
AD1
100
AcDbEntity
  8
image
100
AcDbVertex
100
AcDb2dVertex
 10
8.393035264224398
 20
8.897244839383239
 30
0.0
 70
     8
  0
VERTEX
  5
ADE
330
AD1
100
AcDbEntity
  8
image
100
AcDbVertex
100
AcDb2dVertex
 10
8.44670883226508
 20
8.894790711252566
 30
0.0
 70
     8
  0
VERTEX
  5
ADF
330
AD1
100
AcDbEntity
  8
image
100
AcDbVertex
100
AcDb2dVertex
 10
8.502538979449596
 20
8.891954122580814
 30
0.0
 70
     8
  0
VERTEX
  5
AE0
330
AD1
100
AcDbEntity
  8
image
100
AcDbVertex
100
AcDb2dVertex
 10
8.560017264549042
 20
8.888748785666178
 30
0.0
 70
     8
  0
VERTEX
  5
AE1
330
AD1
100
AcDbEntity
  8
image
100
AcDbVertex
100
AcDb2dVertex
 10
8.618635246334502
 20
8.885188412806849
 30
0.0
 70
     8
  0
VERTEX
  5
AE2
330
AD1
100
AcDbEntity
  8
image
100
AcDbVertex
100
AcDb2dVertex
 10
8.677884483577077
 20
8.881286716301024
 30
0.0
 70
     8
  0
VERTEX
  5
AE3
330
AD1
100
AcDbEntity
  8
image
100
AcDbVertex
100
AcDb2dVertex
 10
8.737256535047848
 20
8.877057408446896
 30
0.0
 70
     8
  0
VERTEX
  5
AE4
330
AD1
100
AcDbEntity
  8
image
100
AcDbVertex
100
AcDb2dVertex
 10
8.796344006914534
 20
8.872505372409436
 30
0.0
 70
     8
  0
VERTEX
  5
AE5
330
AD1
100
AcDbEntity
  8
image
100
AcDbVertex
100
AcDb2dVertex
 10
8.855143694931303
 20
8.867600174820756
 30
0.0
 70
     8
  0
VERTEX
  5
AE6
330
AD1
100
AcDbEntity
  8
image
100
AcDbVertex
100
AcDb2dVertex
 10
8.913753442248957
 20
8.862302553179739
 30
0.0
 70
     8
  0
VERTEX
  5
AE7
330
AD1
100
AcDbEntity
  8
image
100
AcDbVertex
100
AcDb2dVertex
 10
8.972271092018278
 20
8.856573244985282
 30
0.0
 70
     8
  0
VERTEX
  5
AE8
330
AD1
100
AcDbEntity
  8
image
100
AcDbVertex
100
AcDb2dVertex
 10
9.030794487390075
 20
8.850372987736269
 30
0.0
 70
     8
  0
VERTEX
  5
AE9
330
AD1
100
AcDbEntity
  8
image
100
AcDbVertex
100
AcDb2dVertex
 10
9.08942147151513
 20
8.843662518931592
 30
0.0
 70
     8
  0
VERTEX
  5
AEA
330
AD1
100
AcDbEntity
  8
image
100
AcDbVertex
100
AcDb2dVertex
 10
9.148249887544242
 20
8.836402576070137
 30
0.0
 70
     8
  0
VERTEX
  5
AEB
330
AD1
100
AcDbEntity
  8
image
100
AcDbVertex
100
AcDb2dVertex
 10
9.207377578628204
 20
8.828553896650797
 30
0.0
 70
     8
  0
VERTEX
  5
AEC
330
AD1
100
AcDbEntity
  8
image
100
AcDbVertex
100
AcDb2dVertex
 10
9.266824768593913
 20
8.820098250958503
 30
0.0
 70
     8
  0
VERTEX
  5
AED
330
AD1
100
AcDbEntity
  8
image
100
AcDbVertex
100
AcDb2dVertex
 10
9.326301203972679
 20
8.811101540422376
 30
0.0
 70
     8
  0
VERTEX
  5
AEE
330
AD1
100
AcDbEntity
  8
image
100
AcDbVertex
100
AcDb2dVertex
 10
9.385439011971925
 20
8.801650699257576
 30
0.0
 70
     8
  0
VERTEX
  5
AEF
330
AD1
100
AcDbEntity
  8
image
100
AcDbVertex
100
AcDb2dVertex
 10
9.44387031979906
 20
8.791832661679274
 30
0.0
 70
     8
  0
VERTEX
  5
AF0
330
AD1
100
AcDbEntity
  8
image
100
AcDbVertex
100
AcDb2dVertex
 10
9.501227254661504
 20
8.781734361902623
 30
0.0
 70
     8
  0
VERTEX
  5
AF1
330
AD1
100
AcDbEntity
  8
image
100
AcDbVertex
100
AcDb2dVertex
 10
9.557141943766669
 20
8.771442734142796
 30
0.0
 70
     8
  0
VERTEX
  5
AF2
330
AD1
100
AcDbEntity
  8
image
100
AcDbVertex
100
AcDb2dVertex
 10
9.611246514321976
 20
8.761044712614951
 30
0.0
 70
     8
  0
VERTEX
  5
AF3
330
AD1
100
AcDbEntity
  8
image
100
AcDbVertex
100
AcDb2dVertex
 10
9.66317309353484
 20
8.750627231534258
 30
0.0
 70
     8
  0
VERTEX
  5
AF4
330
AD1
100
AcDbEntity
  8
image
100
AcDbVertex
100
AcDb2dVertex
 10
9.71264145645156
 20
8.740251726697914
 30
0.0
 70
     8
  0
VERTEX
  5
AF5
330
AD1
100
AcDbEntity
  8
image
100
AcDbVertex
100
AcDb2dVertex
 10
9.759721969473982
 20
8.729877640231309
 30
0.0
 70
     8
  0
VERTEX
  5
AF6
330
AD1
100
AcDbEntity
  8
image
100
AcDbVertex
100
AcDb2dVertex
 10
9.804572646842835
 20
8.719438915841868
 30
0.0
 70
     8
  0
VERTEX
  5
AF7
330
AD1
100
AcDbEntity
  8
image
100
AcDbVertex
100
AcDb2dVertex
 10
9.847351502798847
 20
8.708869497237012
 30
0.0
 70
     8
  0
VERTEX
  5
AF8
330
AD1
100
AcDbEntity
  8
image
100
AcDbVertex
100
AcDb2dVertex
 10
9.88821655158275
 20
8.698103328124171
 30
0.0
 70
     8
  0
VERTEX
  5
AF9
330
AD1
100
AcDbEntity
  8
image
100
AcDbVertex
100
AcDb2dVertex
 10
9.92732580743527
 20
8.687074352210766
 30
0.0
 70
     8
  0
VERTEX
  5
AFA
330
AD1
100
AcDbEntity
  8
image
100
AcDbVertex
100
AcDb2dVertex
 10
9.964837284597141
 20
8.675716513204227
 30
0.0
 70
     8
  0
VERTEX
  5
AFB
330
AD1
100
AcDbEntity
  8
image
100
AcDbVertex
100
AcDb2dVertex
 10
10.00090899730909
 20
8.663963754811975
 30
0.0
 70
     8
  0
VERTEX
  5
AFC
330
AD1
100
AcDbEntity
  8
image
100
AcDbVertex
100
AcDb2dVertex
 10
10.03565818339708
 20
8.651751532447301
 30
0.0
 70
     8
  0
VERTEX
  5
AFD
330
AD1
100
AcDbEntity
  8
image
100
AcDbVertex
100
AcDb2dVertex
 10
10.06903897502801
 20
8.639021348346934
 30
0.0
 70
     8
  0
VERTEX
  5
AFE
330
AD1
100
AcDbEntity
  8
image
100
AcDbVertex
100
AcDb2dVertex
 10
10.10096472795402
 20
8.625716216453467
 30
0.0
 70
     8
  0
VERTEX
  5
AFF
330
AD1
100
AcDbEntity
  8
image
100
AcDbVertex
100
AcDb2dVertex
 10
10.13134879792723
 20
8.611779150709493
 30
0.0
 70
     8
  0
VERTEX
  5
B00
330
AD1
100
AcDbEntity
  8
image
100
AcDbVertex
100
AcDb2dVertex
 10
10.16010454069978
 20
8.597153165057607
 30
0.0
 70
     8
  0
VERTEX
  5
B01
330
AD1
100
AcDbEntity
  8
image
100
AcDbVertex
100
AcDb2dVertex
 10
10.18714531202381
 20
8.5817812734404
 30
0.0
 70
     8
  0
VERTEX
  5
B02
330
AD1
100
AcDbEntity
  8
image
100
AcDbVertex
100
AcDb2dVertex
 10
10.21238446765144
 20
8.565606489800464
 30
0.0
 70
     8
  0
VERTEX
  5
B03
330
AD1
100
AcDbEntity
  8
image
100
AcDbVertex
100
AcDb2dVertex
 10
10.23573536333482
 20
8.548571828080392
 30
0.0
 70
     8
  0
VERTEX
  5
B04
330
AD1
100
AcDbEntity
  8
image
100
AcDbVertex
100
AcDb2dVertex
 10
10.25709153172802
 20
8.530685752526403
 30
0.0
 70
     8
  0
VERTEX
  5
B05
330
AD1
100
AcDbEntity
  8
image
100
AcDbVertex
100
AcDb2dVertex
 10
10.2762672130929
 20
8.512218528599222
 30
0.0
 70
     8
  0
VERTEX
  5
B06
330
AD1
100
AcDbEntity
  8
image
100
AcDbVertex
100
AcDb2dVertex
 10
10.29305682459325
 20
8.493505872063193
 30
0.0
 70
     8
  0
VERTEX
  5
B07
330
AD1
100
AcDbEntity
  8
image
100
AcDbVertex
100
AcDb2dVertex
 10
10.30725478339289
 20
8.47488349868267
 30
0.0
 70
     8
  0
VERTEX
  5
B08
330
AD1
100
AcDbEntity
  8
image
100
AcDbVertex
100
AcDb2dVertex
 10
10.31865550665562
 20
8.456687124221994
 30
0.0
 70
     8
  0
VERTEX
  5
B09
330
AD1
100
AcDbEntity
  8
image
100
AcDbVertex
100
AcDb2dVertex
 10
10.32705341154525
 20
8.439252464445521
 30
0.0
 70
     8
  0
VERTEX
  5
B0A
330
AD1
100
AcDbEntity
  8
image
100
AcDbVertex
100
AcDb2dVertex
 10
10.33224291522556
 20
8.422915235117597
 30
0.0
 70
     8
  0
VERTEX
  5
B0B
330
AD1
100
AcDbEntity
  8
image
100
AcDbVertex
100
AcDb2dVertex
 10
10.33401843486038
 20
8.408011152002574
 30
0.0
 70
     8
  0
VERTEX
  5
B0C
330
AD1
100
AcDbEntity
  8
image
100
AcDbVertex
100
AcDb2dVertex
 10
8.087711261451776
 20
8.904104795216992
 30
0.0
 70
    16
  0
VERTEX
  5
B0D
330
AD1
100
AcDbEntity
  8
image
100
AcDbVertex
100
AcDb2dVertex
 10
8.254918000297525
 20
8.905469237475594
 30
0.0
 70
    16
  0
VERTEX
  5
B0E
330
AD1
100
AcDbEntity
  8
image
100
AcDbVertex
100
AcDb2dVertex
 10
8.741369889722054
 20
8.880405664981418
 30
0.0
 70
    16
  0
VERTEX
  5
B0F
330
AD1
100
AcDbEntity
  8
image
100
AcDbVertex
100
AcDb2dVertex
 10
9.203141651101343
 20
8.835252553280104
 30
0.0
 70
    16
  0
VERTEX
  5
B10
330
AD1
100
AcDbEntity
  8
image
100
AcDbVertex
100
AcDb2dVertex
 10
9.690328977641804
 20
8.749907501802939
 30
0.0
 70
    16
  0
VERTEX
  5
B11
330
AD1
100
AcDbEntity
  8
image
100
AcDbVertex
100
AcDb2dVertex
 10
10.01458099954048
 20
8.66888082871368
 30
0.0
 70
    16
  0
VERTEX
  5
B12
330
AD1
100
AcDbEntity
  8
image
100
AcDbVertex
100
AcDb2dVertex
 10
10.25680100805082
 20
8.558351712214181
 30
0.0
 70
    16
  0
VERTEX
  5
B13
330
AD1
100
AcDbEntity
  8
image
100
AcDbVertex
100
AcDb2dVertex
 10
10.33401843486038
 20
8.445546098012693
 30
0.0
 70
    16
  0
VERTEX
  5
B14
330
AD1
100
AcDbEntity
  8
image
100
AcDbVertex
100
AcDb2dVertex
 10
10.33401843486038
 20
8.408011152002574
 30
0.0
 70
    16
  0
SEQEND
  5
B15
330
AD1
100
AcDbEntity
  8
image
  0
LINE
  5
B8E
330
2
100
AcDbEntity
  8
image
100
AcDbLine
 10
10.31069638886449
 20
8.408011152002574
 30
0.0
 11
10.31069638886449
 21
8.157112699832035
 31
0.0
  0
LINE
  5
B8F
330
2
100
AcDbEntity
  8
image
100
AcDbLine
 10
10.24198954171675
 20
8.157112699832035
 30
0.0
 11
10.24198954171675
 21
8.408011152002574
 31
0.0
  0
LINE
  5
B90
330
2
100
AcDbEntity
  8
image
100
AcDbLine
 10
10.25738935228434
 20
8.408011152002574
 30
0.0
 11
10.25738935228434
 21
8.157112699832035
 31
0.0
  0
LINE
  5
B91
330
2
100
AcDbEntity
  8
image
100
AcDbLine
 10
10.38177243763801
 20
8.408011152002574
 30
0.0
 11
10.38177243763801
 21
8.157112699832035
 31
0.0
  0
LINE
  5
B92
330
2
100
AcDbEntity
  8
image
100
AcDbLine
 10
10.44100247828261
 20
8.408011152002574
 30
0.0
 11
10.44100247828261
 21
8.157112699832035
 31
0.0
  0
LINE
  5
B93
330
2
100
AcDbEntity
  8
image
100
AcDbLine
 10
10.71635732760515
 20
8.34490245702913
 30
0.0
 11
10.71635732760515
 21
8.056682154966233
 31
0.0
  0
LINE
  5
B94
330
2
100
AcDbEntity
  8
image
100
AcDbLine
 10
10.58078537420388
 20
8.157112699832035
 30
0.0
 11
10.58078537420388
 21
8.408011152002574
 31
0.0
  0
LINE
  5
B95
330
2
100
AcDbEntity
  8
image
100
AcDbLine
 10
10.51207852705613
 20
8.408011152002574
 30
0.0
 11
10.51207852705613
 21
8.157112699832035
 31
0.0
  0
LINE
  5
B96
330
2
100
AcDbEntity
  8
image
100
AcDbLine
 10
10.56538556363628
 20
8.408011152002574
 30
0.0
 11
10.56538556363628
 21
8.157112699832035
 31
0.0
  0
LINE
  5
B97
330
2
100
AcDbEntity
  8
image
100
AcDbLine
 10
10.86416261071433
 20
8.34490245702913
 30
0.0
 11
10.86416261071433
 21
8.056682154966233
 31
0.0
  0
LINE
  5
B98
330
2
100
AcDbEntity
  8
image
100
AcDbLine
 10
10.60550336527326
 20
7.919962268090232
 30
0.0
 11
10.38379544060949
 21
7.919962268090232
 31
0.0
  0
LINE
  5
B99
330
2
100
AcDbEntity
  8
image
100
AcDbLine
 10
10.55007638410732
 20
7.986474645489375
 30
0.0
 11
10.43922242177544
 21
7.986474645489375
 31
0.0
  0
ARC
  5
B9A
330
2
100
AcDbEntity
  8
image
100
AcDbCircle
 10
10.52236289352435
 20
7.799870475564029
 30
0.0
 40
0.1521972825592481
100
AcDbArc
 50
56.88865803962805
 51
100.4914770123314
  0
LINE
  5
B9B
330
2
100
AcDbEntity
  8
image
100
AcDbLine
 10
10.02923523572134
 20
8.014960602284988
 30
0.0
 11
10.62153564216736
 21
8.014960602284988
 31
0.0
  0
LINE
  5
B9C
330
2
100
AcDbEntity
  8
image
100
AcDbLine
 10
10.02923523572134
 20
8.157112699832035
 30
0.0
 11
10.62153564216736
 21
8.157112699832035
 31
0.0
  0
LINE
  5
B9D
330
2
100
AcDbEntity
  8
image
100
AcDbLine
 10
10.29141713866626
 20
7.919962268090232
 30
0.0
 11
11.27062713926456
 21
7.919962268090232
 31
0.0
  0
LINE
  5
B9E
330
2
100
AcDbEntity
  8
image
100
AcDbLine
 10
10.30989279905491
 20
7.698254343426478
 30
0.0
 11
11.27062713926456
 21
7.698254343426478
 31
0.0
  0
ARC
  5
B9F
330
2
100
AcDbEntity
  8
image
100
AcDbCircle
 10
10.45618240821931
 20
8.104979135996225
 30
0.0
 40
0.9498126021764614
100
AcDbArc
 50
262.3355331415187
 51
277.664466858481
  0
LWPOLYLINE
  5
BA0
330
2
100
AcDbEntity
  8
image
100
AcDbPolyline
 90
        4
 70
     0
 43
0.0
 10
10.32950439949971
 20
7.698254343426478
 10
10.32950439949971
 20
7.130957482188955
 42
-0.4142135623730951
 10
10.32036065661143
 20
7.121813739300678
 10
10.18028048127472
 20
7.121813739300678
  0
LINE
  5
BA1
330
2
100
AcDbEntity
  8
image
100
AcDbLine
 10
10.14332916049743
 20
7.158765060077984
 30
0.0
 11
10.14332916049743
 21
7.572619852783683
 31
0.0
  0
ARC
  5
BA2
330
2
100
AcDbEntity
  8
image
100
AcDbCircle
 10
10.18028048127472
 20
7.158765060077984
 30
0.0
 40
0.0369513207772945
100
AcDbArc
 50
180.0
 51
270.0
  0
LINE
  5
BA3
330
2
100
AcDbEntity
  8
image
100
AcDbLine
 10
10.14332916049743
 20
7.171551798180844
 30
0.0
 11
10.04983729883843
 21
7.171551798180844
 31
0.0
  0
LINE
  5
BA4
330
2
100
AcDbEntity
  8
image
100
AcDbLine
 10
10.2338032216977
 20
7.759037405298899
 30
0.0
 11
10.2338032216977
 21
8.014960602284988
 31
0.0
  0
ARC
  5
BA5
330
2
100
AcDbEntity
  8
image
100
AcDbCircle
 10
10.25446581788897
 20
7.757522077372557
 30
0.0
 40
0.0184756603886473
100
AcDbArc
 50
359.9999999999998
 51
66.30571927358838
  0
LINE
  5
BA6
330
2
100
AcDbEntity
  8
image
100
AcDbLine
 10
10.2338032216977
 20
7.759037405298899
 30
0.0
 11
10.29141713866626
 21
7.790632645369713
 31
0.0
  0
ARC
  5
BA7
330
2
100
AcDbEntity
  8
image
100
AcDbCircle
 10
10.18028048127472
 20
7.572619852783683
 30
0.0
 40
0.0369513207772945
100
AcDbArc
 50
89.99999999999969
 51
180.0
  0
LINE
  5
BA8
330
2
100
AcDbEntity
  8
image
100
AcDbLine
 10
10.14332916049743
 20
7.559833114680829
 30
0.0
 11
10.04983729883843
 21
7.559833114680829
 31
0.0
  0
LWPOLYLINE
  5
BA9
330
2
100
AcDbEntity
  8
image
100
AcDbPolyline
 90
        2
 70
     0
 43
0.0
 10
10.4095043994997
 20
7.698254343426478
 10
10.4095043994997
 20
7.36569245643083
  0
ARC
  5
BAA
330
2
100
AcDbEntity
  8
image
100
AcDbCircle
 10
10.30989279905491
 20
7.735205664203776
 30
0.0
 40
0.0369513207772945
100
AcDbArc
 50
180.0
 51
270.0
  0
LINE
  5
BAB
330
2
100
AcDbEntity
  8
image
100
AcDbLine
 10
10.18028048127472
 20
7.609571173560974
 30
0.0
 11
10.32950439949971
 21
7.609571173560974
 31
0.0
  0
LINE
  5
BAC
330
2
100
AcDbEntity
  8
image
100
AcDbLine
 10
10.27294147827762
 20
7.757522077372536
 30
0.0
 11
10.27294147827762
 21
7.735205664203776
 31
0.0
  0
LINE
  5
BAD
330
2
100
AcDbEntity
  8
image
100
AcDbLine
 10
10.32950439949971
 20
7.36569245643083
 30
0.0
 11
10.4095043994997
 21
7.36569245643083
 31
0.0
  0
LINE
  5
BAE
330
2
100
AcDbEntity
  8
image
100
AcDbLine
 10
10.15385524123758
 20
7.863805538559967
 30
0.0
 11
10.20123927375326
 21
7.863805538559967
 31
0.0
  0
LINE
  5
BAF
330
2
100
AcDbEntity
  8
image
100
AcDbLine
 10
10.02923523572134
 20
8.157112699832035
 30
0.0
 11
10.02923523572134
 21
8.014960602284988
 31
0.0
  0
LINE
  5
BB0
330
2
100
AcDbEntity
  8
image
100
AcDbLine
 10
10.07661926823702
 20
8.157112699832035
 30
0.0
 11
10.07661926823702
 21
8.014960602284988
 31
0.0
  0
LINE
  5
BB1
330
2
100
AcDbEntity
  8
image
100
AcDbLine
 10
10.15385524123758
 20
7.863805538559967
 30
0.0
 11
10.15385524123758
 21
8.157112699832035
 31
0.0
  0
LINE
  5
BB2
330
2
100
AcDbEntity
  8
image
100
AcDbLine
 10
10.4182799602713
 20
8.157112699832035
 30
0.0
 11
10.4182799602713
 21
8.014960602284988
 31
0.0
  0
LINE
  5
BB3
330
2
100
AcDbEntity
  8
image
100
AcDbLine
 10
10.40449495564933
 20
8.157112699832035
 30
0.0
 11
10.40449495564933
 21
8.014960602284988
 31
0.0
  0
ARC
  5
BB4
330
2
100
AcDbEntity
  8
image
100
AcDbCircle
 10
10.46693591235841
 20
7.799870475564029
 30
0.0
 40
0.1521972825592481
100
AcDbArc
 50
79.50852298766861
 51
123.1113419603719
  0
LINE
  5
BB5
330
2
100
AcDbEntity
  8
image
100
AcDbLine
 10
10.38379544060949
 20
7.9273525322457
 30
0.0
 11
10.38379544060949
 21
7.919962268090232
 31
0.0
  0
LINE
  5
BB6
330
2
100
AcDbEntity
  8
image
100
AcDbLine
 10
10.43922242177544
 20
7.986474645489375
 30
0.0
 11
10.43922242177544
 21
7.949523324712084
 31
0.0
  0
LINE
  5
BB7
330
2
100
AcDbEntity
  8
image
100
AcDbLine
 10
10.49464940294138
 20
7.986474645489375
 30
0.0
 11
10.49464940294138
 21
7.949523324712084
 31
0.0
  0
LINE
  5
BB8
330
2
100
AcDbEntity
  8
image
100
AcDbLine
 10
10.20123927375326
 20
7.863805538559967
 30
0.0
 11
10.20123927375326
 21
8.157112699832035
 31
0.0
  0
LINE
  5
BB9
330
2
100
AcDbEntity
  8
image
100
AcDbLine
 10
10.29141713866626
 20
7.919962268090232
 30
0.0
 11
10.29141713866626
 21
7.790632645369713
 31
0.0
  0
LINE
  5
BBA
330
2
100
AcDbEntity
  8
image
100
AcDbLine
 10
11.41625201882643
 20
7.52613951932488
 30
0.0
 11
11.41625201882643
 21
7.20748650658127
 31
0.0
  0
ARC
  5
BBB
330
2
100
AcDbEntity
  8
image
100
AcDbCircle
 10
10.25716283831892
 20
9.215374981600165
 30
0.0
 40
2.077413260277443
100
AcDbArc
 50
279.0200653521828
 51
297.0792479580131
  0
LINE
  5
BBC
330
2
100
AcDbEntity
  8
image
100
AcDbLine
 10
11.20284799208826
 20
7.465118347523359
 30
0.0
 11
11.20284799208826
 21
7.130957482188955
 31
0.0
  0
LINE
  5
BBD
330
2
100
AcDbEntity
  8
image
100
AcDbLine
 10
11.38902323109054
 20
7.572619852783683
 30
0.0
 11
11.38902323109054
 21
7.158765060077984
 31
0.0
  0
LINE
  5
BBE
330
2
100
AcDbEntity
  8
image
100
AcDbLine
 10
11.38902323109054
 20
7.158765060077984
 30
0.0
 11
11.38902323109054
 21
7.572619852783683
 31
0.0
  0
LINE
  5
BBF
330
2
100
AcDbEntity
  8
image
100
AcDbLine
 10
10.9145820029644
 20
7.163652061404158
 30
0.0
 11
11.20284799208826
 21
7.163652061404158
 31
0.0
  0
ARC
  5
BC0
330
2
100
AcDbEntity
  8
image
100
AcDbCircle
 10
10.78980524887311
 20
7.109197427090323
 30
0.0
 40
0.1215812912057411
100
AcDbArc
 50
23.16768142207863
 51
66.64339045708148
  0
LINE
  5
BC1
330
2
100
AcDbEntity
  8
image
100
AcDbLine
 10
10.68110058856362
 20
7.10950469093065
 30
0.0
 11
10.8985099091826
 21
7.10950469093065
 31
0.0
  0
LINE
  5
BC2
330
2
100
AcDbEntity
  8
image
100
AcDbLine
 10
10.58286041693891
 20
7.163652061404158
 30
0.0
 11
10.66502849478182
 21
7.163652061404158
 31
0.0
  0
ARC
  5
BC3
330
2
100
AcDbEntity
  8
image
100
AcDbCircle
 10
10.66502849478182
 20
7.147579967622357
 30
0.0
 40
0.0160720937818013
100
AcDbArc
 50
0.0
 51
90.0
  0
ARC
  5
BC4
330
2
100
AcDbEntity
  8
image
100
AcDbCircle
 10
10.78980524887311
 20
7.109197427090323
 30
0.0
 40
0.1215812912057411
100
AcDbArc
 50
141.7411440853695
 51
156.8323185779213
  0
LINE
  5
BC5
330
2
100
AcDbEntity
  8
image
100
AcDbLine
 10
10.68110058856362
 20
7.147579967622357
 30
0.0
 11
10.68110058856362
 21
7.10950469093065
 31
0.0
  0
ARC
  5
BC6
330
2
100
AcDbEntity
  8
image
100
AcDbCircle
 10
10.9145820029644
 20
7.147579967622357
 30
0.0
 40
0.0160720937818013
100
AcDbArc
 50
89.99999999999991
 51
180.0
  0
LINE
  5
BC7
330
2
100
AcDbEntity
  8
image
100
AcDbLine
 10
10.8985099091826
 20
7.147579967622357
 30
0.0
 11
10.8985099091826
 21
7.10950469093065
 31
0.0
  0
LINE
  5
BC8
330
2
100
AcDbEntity
  8
image
100
AcDbLine
 10
11.76959937699163
 20
7.171551798180837
 30
0.0
 11
11.38902323109054
 21
7.171551798180837
 31
0.0
  0
LINE
  5
BC9
330
2
100
AcDbEntity
  8
image
100
AcDbLine
 10
11.21199173497654
 20
7.121813739300678
 30
0.0
 11
11.35207191031324
 21
7.121813739300678
 31
0.0
  0
ARC
  5
BCA
330
2
100
AcDbEntity
  8
image
100
AcDbCircle
 10
11.21199173497654
 20
7.130957482188955
 30
0.0
 40
0.009143742888277
100
AcDbArc
 50
180.0000000000002
 51
270.0
  0
ARC
  5
BCB
330
2
100
AcDbEntity
  8
image
100
AcDbCircle
 10
11.35207191031324
 20
7.158765060077984
 30
0.0
 40
0.0369513207772945
100
AcDbArc
 50
270.0
 51
0.0
  0
ARC
  5
BCC
330
2
100
AcDbEntity
  8
image
100
AcDbCircle
 10
11.11358402596106
 20
7.799870475564029
 30
0.0
 40
0.1521972825592481
100
AcDbArc
 50
56.88865803962805
 51
100.4914770123314
  0
LINE
  5
BCD
330
2
100
AcDbEntity
  8
image
100
AcDbLine
 10
10.7532528245359
 20
7.36569245643083
 30
0.0
 11
10.83325282453591
 21
7.36569245643083
 31
0.0
  0
LWPOLYLINE
  5
BCE
330
2
100
AcDbEntity
  8
image
100
AcDbPolyline
 90
        2
 70
     0
 43
0.0
 10
10.7532528245359
 20
7.698254343426478
 10
10.7532528245359
 20
7.36569245643083
  0
LWPOLYLINE
  5
BCF
330
2
100
AcDbEntity
  8
image
100
AcDbPolyline
 90
        2
 70
     0
 43
0.0
 10
10.83325282453591
 20
7.698254343426478
 10
10.83325282453591
 20
7.36569245643083
  0
LINE
  5
BD0
330
2
100
AcDbEntity
  8
image
100
AcDbLine
 10
10.79949779935406
 20
7.993864909644836
 30
0.0
 11
10.91958959188027
 21
7.993864909644836
 31
0.0
  0
LINE
  5
BD1
330
2
100
AcDbEntity
  8
image
100
AcDbLine
 10
10.79949779935406
 20
8.056682154966233
 30
0.0
 11
10.86416261071433
 21
8.056682154966233
 31
0.0
  0
LINE
  5
BD2
330
2
100
AcDbEntity
  8
image
100
AcDbLine
 10
10.78102213896541
 20
7.919962268090232
 30
0.0
 11
10.78102213896541
 21
8.132324876114049
 31
0.0
  0
LINE
  5
BD3
330
2
100
AcDbEntity
  8
image
100
AcDbLine
 10
10.79949779935406
 20
7.919962268090232
 30
0.0
 11
10.79949779935406
 21
8.132324876114049
 31
0.0
  0
LINE
  5
BD4
330
2
100
AcDbEntity
  8
image
100
AcDbLine
 10
10.71635732760515
 20
8.056682154966233
 30
0.0
 11
10.78102213896541
 21
8.056682154966233
 31
0.0
  0
LINE
  5
BD5
330
2
100
AcDbEntity
  8
image
100
AcDbLine
 10
10.78102213896541
 20
8.132324876114049
 30
0.0
 11
10.79949779935406
 21
8.132324876114049
 31
0.0
  0
LINE
  5
BD6
330
2
100
AcDbEntity
  8
image
100
AcDbLine
 10
10.62153564216736
 20
8.157112699832035
 30
0.0
 11
10.62153564216736
 21
8.014960602284988
 31
0.0
  0
LINE
  5
BD7
330
2
100
AcDbEntity
  8
image
100
AcDbLine
 10
10.69049140306104
 20
7.993864909644836
 30
0.0
 11
10.59034106997638
 21
7.93604308787898
 31
0.0
  0
LINE
  5
BD8
330
2
100
AcDbEntity
  8
image
100
AcDbLine
 10
10.60550336527326
 20
7.9273525322457
 30
0.0
 11
10.60550336527326
 21
7.919962268090232
 31
0.0
  0
LINE
  5
BD9
330
2
100
AcDbEntity
  8
image
100
AcDbLine
 10
10.55007638410732
 20
7.986474645489375
 30
0.0
 11
10.55007638410732
 21
7.949523324712084
 31
0.0
  0
LINE
  5
BDA
330
2
100
AcDbEntity
  8
image
100
AcDbLine
 10
10.58407646936772
 20
8.014960602284988
 30
0.0
 11
10.58407646936772
 21
7.938994331803884
 31
0.0
  0
LINE
  5
BDB
330
2
100
AcDbEntity
  8
image
100
AcDbLine
 10
10.66093034643921
 20
7.993864909644836
 30
0.0
 11
10.65757987267858
 21
7.974863428719077
 31
0.0
  0
LWPOLYLINE
  5
BDC
330
2
100
AcDbEntity
  8
image
100
AcDbPolyline
 90
        5
 70
     0
 43
0.0
 10
10.6514539433224
 20
8.039633237219826
 10
10.65036456805771
 20
8.034399393435956
 10
10.65553376124937
 20
8.010170022193159
 10
10.65294916465354
 20
7.986546385231422
 10
10.65626692807001
 20
7.97410539979589
  0
LINE
  5
BDD
330
2
100
AcDbEntity
  8
image
100
AcDbLine
 10
10.71635732760515
 20
8.132324876114049
 30
0.0
 11
10.6514539433224
 21
8.039633237219826
 31
0.0
  0
LINE
  5
BDE
330
2
100
AcDbEntity
  8
image
100
AcDbLine
 10
10.66093034643921
 20
7.993864909644836
 30
0.0
 11
10.78102213896541
 21
7.993864909644836
 31
0.0
  0
LINE
  5
BDF
330
2
100
AcDbEntity
  8
image
100
AcDbLine
 10
10.71635732760515
 20
8.056682154966233
 30
0.0
 11
10.66093034643921
 21
7.993864909644836
 31
0.0
  0
LINE
  5
BE0
330
2
100
AcDbEntity
  8
image
100
AcDbLine
 10
10.6978816672165
 20
7.993864909644836
 30
0.0
 11
10.68864383702218
 21
7.919962268090232
 31
0.0
  0
LINE
  5
BE1
330
2
100
AcDbEntity
  8
image
100
AcDbLine
 10
11.08587053537809
 20
7.986474645489375
 30
0.0
 11
11.08587053537809
 21
7.949523324712084
 31
0.0
  0
LINE
  5
BE2
330
2
100
AcDbEntity
  8
image
100
AcDbLine
 10
11.14129751654404
 20
7.986474645489375
 30
0.0
 11
11.14129751654404
 21
7.949523324712084
 31
0.0
  0
LINE
  5
BE3
330
2
100
AcDbEntity
  8
image
100
AcDbLine
 10
11.19672449770997
 20
7.9273525322457
 30
0.0
 11
11.19672449770997
 21
7.919962268090232
 31
0.0
  0
LINE
  5
BE4
330
2
100
AcDbEntity
  8
image
100
AcDbLine
 10
10.86416261071433
 20
8.056682154966233
 30
0.0
 11
10.91958959188027
 21
7.993864909644836
 31
0.0
  0
LINE
  5
BE5
330
2
100
AcDbEntity
  8
image
100
AcDbLine
 10
10.88263827110297
 20
7.993864909644836
 30
0.0
 11
10.8918761012973
 21
7.919962268090232
 31
0.0
  0
LINE
  5
BE6
330
2
100
AcDbEntity
  8
image
100
AcDbLine
 10
11.03044355421215
 20
7.986474645489375
 30
0.0
 11
11.03044355421215
 21
7.949523324712084
 31
0.0
  0
LINE
  5
BE7
330
2
100
AcDbEntity
  8
image
100
AcDbLine
 10
10.97501657304621
 20
7.9273525322457
 30
0.0
 11
10.97501657304621
 21
7.919962268090232
 31
0.0
  0
LINE
  5
BE8
330
2
100
AcDbEntity
  8
image
100
AcDbLine
 10
10.89002853525844
 20
7.993864909644836
 30
0.0
 11
10.9901788683431
 21
7.93604308787898
 31
0.0
  0
LINE
  5
BE9
330
2
100
AcDbEntity
  8
image
100
AcDbLine
 10
10.91958959188027
 20
7.993864909644836
 30
0.0
 11
10.9229400656409
 21
7.974863428719077
 31
0.0
  0
LINE
  5
BEA
330
2
100
AcDbEntity
  8
image
100
AcDbLine
 10
10.86416261071433
 20
8.132324876114049
 30
0.0
 11
11.06929111035505
 21
7.986474645489375
 31
0.0
  0
LINE
  5
BEB
330
2
100
AcDbEntity
  8
image
100
AcDbLine
 10
11.03044355421215
 20
7.986474645489375
 30
0.0
 11
11.14129751654404
 21
7.986474645489375
 31
0.0
  0
LINE
  5
BEC
330
2
100
AcDbEntity
  8
image
100
AcDbLine
 10
10.97501657304621
 20
7.919962268090232
 30
0.0
 11
11.19672449770997
 21
7.919962268090232
 31
0.0
  0
ARC
  5
BED
330
2
100
AcDbEntity
  8
image
100
AcDbCircle
 10
11.05815704479512
 20
7.799870475564029
 30
0.0
 40
0.1521972825592481
100
AcDbArc
 50
79.50852298766861
 51
123.1113419603719
  0
LINE
  5
BEE
330
2
100
AcDbEntity
  8
image
100
AcDbLine
 10
11.30757846004186
 20
7.883010947312955
 30
0.0
 11
11.30757846004186
 21
7.735205664203776
 31
0.0
  0
LINE
  5
BEF
330
2
100
AcDbEntity
  8
image
100
AcDbLine
 10
11.76959937699163
 20
7.559833114680829
 30
0.0
 11
11.38902323109054
 21
7.559833114680829
 31
0.0
  0
LINE
  5
BF0
330
2
100
AcDbEntity
  8
image
100
AcDbLine
 10
11.35207191031324
 20
7.609571173560974
 30
0.0
 11
11.28284799208826
 21
7.609571173560974
 31
0.0
  0
ARC
  5
BF1
330
2
100
AcDbEntity
  8
image
100
AcDbCircle
 10
11.27062713926456
 20
7.735205664203776
 30
0.0
 40
0.0369513207772945
100
AcDbArc
 50
270.0
 51
0.0
  0
LINE
  5
BF2
330
2
100
AcDbEntity
  8
image
100
AcDbLine
 10
11.20284799208826
 20
7.36569245643083
 30
0.0
 11
11.28284799208826
 21
7.36569245643083
 31
0.0
  0
LWPOLYLINE
  5
BF3
330
2
100
AcDbEntity
  8
image
100
AcDbPolyline
 90
        2
 70
     0
 43
0.0
 10
11.20284799208826
 20
7.698254343426478
 10
11.20284799208826
 20
7.465118347523359
  0
LWPOLYLINE
  5
BF4
330
2
100
AcDbEntity
  8
image
100
AcDbPolyline
 90
        2
 70
     0
 43
0.0
 10
11.28284799208826
 20
7.700352417884873
 10
11.28284799208826
 20
7.36569245643083
  0
LINE
  5
BF5
330
2
100
AcDbEntity
  8
image
100
AcDbLine
 10
11.32469677435967
 20
7.609571173560974
 30
0.0
 11
11.28284799208826
 21
7.609571173560974
 31
0.0
  0
ARC
  5
BF6
330
2
100
AcDbEntity
  8
image
100
AcDbCircle
 10
11.35207191031324
 20
7.572619852783683
 30
0.0
 40
0.0369513207772945
100
AcDbArc
 50
0.0
 51
90.00000000000019
  0
ARC
  5
BF7
330
2
100
AcDbEntity
  8
image
100
AcDbCircle
 10
11.27062713926456
 20
7.883010947312955
 30
0.0
 40
0.0369513207772945
100
AcDbArc
 50
0.0
 51
90.0
  0
LINE
  5
BF8
330
2
100
AcDbEntity
  8
image
100
AcDbLine
 10
10.24198954171675
 20
8.408011152002574
 30
0.0
 11
10.58078537420388
 21
8.408011152002574
 31
0.0
  0
LWPOLYLINE
  5
BF9
330
2
100
AcDbEntity
  8
image
100
AcDbPolyline
 90
        2
 70
     0
 43
0.0
 10
10.83025996915973
 20
8.707640332146135
 10
10.83025996915973
 20
8.56907287923128
  0
LWPOLYLINE
  5
BFA
330
2
100
AcDbEntity
  8
image
100
AcDbPolyline
 90
        2
 70
     0
 43
0.0
 10
10.75025996915974
 20
8.707640332146135
 10
10.75025996915974
 20
8.56907287923128
  0
LWPOLYLINE
  5
BFB
330
2
100
AcDbEntity
  8
image
100
AcDbPolyline
 90
        2
 70
     0
 43
0.0
 10
11.03968138440648
 20
8.707640332146135
 10
11.03968138440648
 20
8.56907287923128
  0
LWPOLYLINE
  5
BFC
330
2
100
AcDbEntity
  8
image
100
AcDbPolyline
 90
        2
 70
     0
 43
0.0
 10
10.540838553913
 20
8.707640332146135
 10
10.540838553913
 20
8.56907287923128
  0
LINE
  5
BFD
330
2
100
AcDbEntity
  8
image
100
AcDbLine
 10
10.83025996915974
 20
8.569072879231287
 30
0.0
 11
11.03968138440648
 21
8.56907287923128
 31
0.0
  0
LINE
  5
BFE
330
2
100
AcDbEntity
  8
image
100
AcDbLine
 10
10.66407081818812
 20
8.34490245702913
 30
0.0
 11
10.91644912013135
 21
8.34490245702913
 31
0.0
  0
LINE
  5
BFF
330
2
100
AcDbEntity
  8
image
100
AcDbLine
 10
10.75025996915974
 20
8.609360815052939
 30
0.0
 11
10.83025996915973
 21
8.609360815052946
 31
0.0
  0
LINE
  5
C00
330
2
100
AcDbEntity
  8
image
100
AcDbLine
 10
10.75025996915974
 20
8.667352396324476
 30
0.0
 11
10.83025996915973
 21
8.667352396324476
 31
0.0
  0
LINE
  5
C01
330
2
100
AcDbEntity
  8
image
100
AcDbLine
 10
10.66407081818812
 20
8.34490245702913
 30
0.0
 11
10.66407081818812
 21
8.56907287923128
 31
0.0
  0
LINE
  5
C02
330
2
100
AcDbEntity
  8
image
100
AcDbLine
 10
10.540838553913
 20
8.56907287923128
 30
0.0
 11
10.75025996915974
 21
8.569072879231287
 31
0.0
  0
LINE
  5
C03
330
2
100
AcDbEntity
  8
image
100
AcDbLine
 10
10.91644912013135
 20
8.34490245702913
 30
0.0
 11
10.91644912013135
 21
8.56907287923128
 31
0.0
  0
LINE
  5
C04
330
2
100
AcDbEntity
  8
image
100
AcDbLine
 10
10.83025996915974
 20
8.707640332146143
 30
0.0
 11
11.03968138440648
 21
8.707640332146135
 31
0.0
  0
LINE
  5
C05
330
2
100
AcDbEntity
  8
image
100
AcDbLine
 10
10.71567874344275
 20
8.781542973700725
 30
0.0
 11
10.86393175430346
 21
8.781542973700725
 31
0.0
  0
LINE
  5
C06
330
2
100
AcDbEntity
  8
image
100
AcDbLine
 10
10.71567874344275
 20
8.707640332146135
 30
0.0
 11
10.71567874344275
 21
8.781542973700725
 31
0.0
  0
LINE
  5
C07
330
2
100
AcDbEntity
  8
image
100
AcDbLine
 10
10.540838553913
 20
8.707640332146135
 30
0.0
 11
10.75025996915974
 21
8.707640332146143
 31
0.0
  0
LINE
  5
C08
330
2
100
AcDbEntity
  8
image
100
AcDbLine
 10
10.86393175430346
 20
8.707640332146135
 30
0.0
 11
10.86393175430346
 21
8.781542973700725
 31
0.0
  0
TEXT
  5
C09
330
2
100
AcDbEntity
  8
image
100
AcDbText
 10
9.312102557983433
 20
9.03930559103407
 30
0.0
 40
0.125
  1
SOLENOID WIRE
  7
arial
100
AcDbText
  0
LINE
  5
C0A
330
2
100
AcDbEntity
  8
image
100
AcDbLine
 10
8.35098694037747
 20
9.16356356474734
 30
0.0
 11
8.35098694037747
 21
9.115765294082782
 31
0.0
  0
LINE
  5
C0B
330
2
100
AcDbEntity
  8
image
100
AcDbLine
 10
8.363733145888016
 20
9.16356356474734
 30
0.0
 11
8.363733145888016
 21
9.115765294082782
 31
0.0
  0
LINE
  5
C0C
330
2
100
AcDbEntity
  8
image
100
AcDbLine
 10
8.207592128383815
 20
9.16356356474734
 30
0.0
 11
8.207592128383815
 21
9.115765294082782
 31
0.0
  0
LINE
  5
C0D
330
2
100
AcDbEntity
  8
image
100
AcDbLine
 10
8.19484592287327
 20
9.16356356474734
 30
0.0
 11
8.19484592287327
 21
9.115765294082782
 31
0.0
  0
LINE
  5
C0E
330
2
100
AcDbEntity
  8
image
100
AcDbLine
 10
8.468889341350028
 20
9.16356356474734
 30
0.0
 11
8.468889341350028
 21
9.115765294082782
 31
0.0
  0
LINE
  5
C0F
330
2
100
AcDbEntity
  8
image
100
AcDbLine
 10
8.372814817314274
 20
9.007422547243143
 30
0.0
 11
8.459011032079349
 21
9.087086331684053
 31
0.0
  0
LINE
  5
C10
330
2
100
AcDbEntity
  8
image
100
AcDbLine
 10
8.048264559501983
 20
9.115765294082782
 30
0.0
 11
8.510314509259302
 21
9.115765294082782
 31
0.0
  0
LINE
  5
C11
330
2
100
AcDbEntity
  8
image
100
AcDbLine
 10
8.048264559501983
 20
9.101425812883418
 30
0.0
 11
8.510314509259302
 21
9.101425812883418
 31
0.0
  0
LINE
  5
C12
330
2
100
AcDbEntity
  8
image
100
AcDbLine
 10
8.372814817314274
 20
9.007422547243143
 30
0.0
 11
8.372814817314278
 21
8.922736250076471
 31
0.0
  0
LINE
  5
C13
330
2
100
AcDbEntity
  8
image
100
AcDbLine
 10
8.185764251447004
 20
9.007422547243143
 30
0.0
 11
8.185764251447004
 21
8.914416247562291
 31
0.0
  0
ARC
  5
C14
330
2
100
AcDbEntity
  8
image
100
AcDbCircle
 10
8.279289534380641
 20
8.444518246383614
 30
0.0
 40
0.093525282933636
100
AcDbArc
 50
180.0
 51
0.0
  0
LINE
  5
C15
330
2
100
AcDbEntity
  8
image
100
AcDbLine
 10
8.185764251447004
 20
9.007422547243143
 30
0.0
 11
8.099568036681937
 21
9.087086331684053
 31
0.0
  0
LINE
  5
C16
330
2
100
AcDbEntity
  8
image
100
AcDbLine
 10
8.185764251447004
 20
9.007422547243143
 30
0.0
 11
8.372814817314274
 21
9.007422547243143
 31
0.0
  0
LINE
  5
C17
330
2
100
AcDbEntity
  8
image
100
AcDbLine
 10
8.510314509259302
 20
9.115765294082782
 30
0.0
 11
8.510314509259302
 21
9.087086331684053
 31
0.0
  0
LINE
  5
C18
330
2
100
AcDbEntity
  8
image
100
AcDbLine
 10
8.459011032079349
 20
9.087086331684053
 30
0.0
 11
8.459011032079349
 21
9.101425812883418
 31
0.0
  0
LINE
  5
C19
330
2
100
AcDbEntity
  8
image
100
AcDbLine
 10
8.459011032079349
 20
9.087086331684053
 30
0.0
 11
8.510314509259302
 21
9.087086331684053
 31
0.0
  0
LINE
  5
C1A
330
2
100
AcDbEntity
  8
image
100
AcDbLine
 10
8.35098694037747
 20
9.16356356474734
 30
0.0
 11
8.468889341350028
 21
9.16356356474734
 31
0.0
  0
LINE
  5
C1B
330
2
100
AcDbEntity
  8
image
100
AcDbLine
 10
8.102435932921803
 20
9.16356356474734
 30
0.0
 11
8.207592128383815
 21
9.16356356474734
 31
0.0
  0
LINE
  5
C1C
330
2
100
AcDbEntity
  8
image
100
AcDbLine
 10
7.749058123170297
 20
8.751481057903573
 30
0.0
 11
7.749058123170297
 21
8.188576757044044
 31
0.0
  0
LINE
  5
C1D
330
2
100
AcDbEntity
  8
image
100
AcDbLine
 10
7.936108689037568
 20
8.751481057903573
 30
0.0
 11
7.936108689037568
 21
8.188576757044044
 31
0.0
  0
ARC
  5
C1E
330
2
100
AcDbEntity
  8
image
100
AcDbCircle
 10
7.842583406103933
 20
8.188576757044044
 30
0.0
 40
0.093525282933636
100
AcDbArc
 50
180.0
 51
0.0
  0
LINE
  5
C1F
330
2
100
AcDbEntity
  8
image
100
AcDbLine
 10
7.665729804645097
 20
8.90762207540777
 30
0.0
 11
7.770886000107108
 21
8.90762207540777
 31
0.0
  0
LINE
  5
C20
330
2
100
AcDbEntity
  8
image
100
AcDbLine
 10
7.749058123170297
 20
8.751481057903573
 30
0.0
 11
7.66286190840523
 21
8.831144842344484
 31
0.0
  0
LINE
  5
C21
330
2
100
AcDbEntity
  8
image
100
AcDbLine
 10
7.611558431225277
 20
8.845484323543848
 30
0.0
 11
8.073608380982594
 21
8.845484323543848
 31
0.0
  0
LINE
  5
C22
330
2
100
AcDbEntity
  8
image
100
AcDbLine
 10
7.611558431225277
 20
8.859823804743212
 30
0.0
 11
8.073608380982594
 21
8.859823804743212
 31
0.0
  0
LINE
  5
C23
330
2
100
AcDbEntity
  8
image
100
AcDbLine
 10
8.022304903802638
 20
8.831144842344484
 30
0.0
 11
8.073608380982594
 21
8.831144842344484
 31
0.0
  0
LINE
  5
C24
330
2
100
AcDbEntity
  8
image
100
AcDbLine
 10
7.927027017611309
 20
8.90762207540777
 30
0.0
 11
7.927027017611309
 21
8.859823804743212
 31
0.0
  0
LINE
  5
C25
330
2
100
AcDbEntity
  8
image
100
AcDbLine
 10
8.022304903802638
 20
8.831144842344484
 30
0.0
 11
8.022304903802638
 21
8.845484323543848
 31
0.0
  0
LINE
  5
C26
330
2
100
AcDbEntity
  8
image
100
AcDbLine
 10
8.03218321307332
 20
8.90762207540777
 30
0.0
 11
8.03218321307332
 21
8.859823804743212
 31
0.0
  0
LINE
  5
C27
330
2
100
AcDbEntity
  8
image
100
AcDbLine
 10
8.073608380982594
 20
8.859823804743212
 30
0.0
 11
8.073608380982594
 21
8.831144842344484
 31
0.0
  0
LINE
  5
C28
330
2
100
AcDbEntity
  8
image
100
AcDbLine
 10
7.936108689037568
 20
8.751481057903573
 30
0.0
 11
8.022304903802638
 21
8.831144842344484
 31
0.0
  0
LINE
  5
C29
330
2
100
AcDbEntity
  8
image
100
AcDbLine
 10
7.758139794596563
 20
8.90762207540777
 30
0.0
 11
7.758139794596563
 21
8.859823804743212
 31
0.0
  0
LINE
  5
C2A
330
2
100
AcDbEntity
  8
image
100
AcDbLine
 10
7.770886000107108
 20
8.90762207540777
 30
0.0
 11
7.770886000107108
 21
8.859823804743212
 31
0.0
  0
LINE
  5
C2B
330
2
100
AcDbEntity
  8
image
100
AcDbLine
 10
7.91428081210076
 20
8.90762207540777
 30
0.0
 11
7.91428081210076
 21
8.859823804743212
 31
0.0
  0
LINE
  5
C2C
330
2
100
AcDbEntity
  8
image
100
AcDbLine
 10
7.749058123170297
 20
8.751481057903573
 30
0.0
 11
7.936108689037568
 21
8.751481057903573
 31
0.0
  0
LINE
  5
C2D
330
2
100
AcDbEntity
  8
image
100
AcDbLine
 10
7.91428081210076
 20
8.90762207540777
 30
0.0
 11
8.03218321307332
 21
8.90762207540777
 31
0.0
  0
LINE
  5
C2E
330
2
100
AcDbEntity
  8
image
100
AcDbLine
 10
8.102435932921803
 20
9.16356356474734
 30
0.0
 11
8.102435932921803
 21
9.115765294082782
 31
0.0
  0
LINE
  5
C2F
330
2
100
AcDbEntity
  8
image
100
AcDbLine
 10
8.048264559501983
 20
9.087086331684053
 30
0.0
 11
8.099568036681937
 21
9.087086331684053
 31
0.0
  0
LINE
  5
C30
330
2
100
AcDbEntity
  8
image
100
AcDbLine
 10
8.048264559501983
 20
9.087086331684053
 30
0.0
 11
8.048264559501983
 21
9.115765294082782
 31
0.0
  0
LINE
  5
C31
330
2
100
AcDbEntity
  8
image
100
AcDbLine
 10
8.099568036681937
 20
9.087086331684053
 30
0.0
 11
8.099568036681937
 21
9.101425812883418
 31
0.0
  0
LINE
  5
C32
330
2
100
AcDbEntity
  8
image
100
AcDbLine
 10
7.611558431225277
 20
8.831144842344484
 30
0.0
 11
7.66286190840523
 21
8.831144842344484
 31
0.0
  0
LINE
  5
C33
330
2
100
AcDbEntity
  8
image
100
AcDbLine
 10
7.611558431225277
 20
8.831144842344484
 30
0.0
 11
7.611558431225277
 21
8.859823804743212
 31
0.0
  0
LINE
  5
C34
330
2
100
AcDbEntity
  8
image
100
AcDbLine
 10
7.665729804645097
 20
8.90762207540777
 30
0.0
 11
7.665729804645097
 21
8.859823804743212
 31
0.0
  0
LINE
  5
C35
330
2
100
AcDbEntity
  8
image
100
AcDbLine
 10
7.66286190840523
 20
8.831144842344484
 30
0.0
 11
7.66286190840523
 21
8.845484323543848
 31
0.0
  0
TEXT
  5
C36
330
2
100
AcDbEntity
  8
image
 62
    34
100
AcDbText
 10
6.764030185234883
 20
7.395236935351052
 30
0.0
 40
0.125
  1
BROWN
  7
arial
100
AcDbText
  0
TEXT
  5
C37
330
2
100
AcDbEntity
  8
image
 62
    34
100
AcDbText
 10
5.860697662254633
 20
8.209030565908895
 30
0.0
 40
0.125
  1
BROWN
  7
arial
100
AcDbText
  0
TEXT
  5
C38
330
2
100
AcDbEntity
  8
image
100
AcDbText
 10
12.38121262770016
 20
8.156993623010867
 30
0.0
 40
0.125
  1
(VALVE),
  7
arial
100
AcDbText
  0
TEXT
  5
C39
330
2
100
AcDbEntity
  8
image
100
AcDbText
 10
12.38121262770016
 20
7.675070021373761
 30
0.0
 40
0.125
  1
OR BOOSTER 
  7
arial
100
AcDbText
  0
TEXT
  5
C3A
330
2
100
AcDbEntity
  8
image
100
AcDbText
 10
12.38121262770016
 20
7.916031822192314
 30
0.0
 40
0.125
  1
MASTER VALVE,
  7
arial
100
AcDbText
  0
TEXT
  5
C3C
330
2
100
AcDbEntity
  8
image
100
AcDbText
 10
12.38121262770016
 20
7.434108220555208
 30
0.0
 40
0.125
  1
PUMP / VALVE
  7
arial
100
AcDbText
  0
TEXT
  5
C3D
330
2
100
AcDbEntity
  8
image
100
AcDbText
 10
12.38121262770016
 20
8.39795542382942
 30
0.0
 40
0.125
  1
SOLENOID
  7
arial
100
AcDbText
  0
LINE
  5
C3F
330
2
100
AcDbEntity
  8
image
100
AcDbLine
 10
8.185764251447007
 20
6.200350041531279
 30
0.0
 11
8.185764251447007
 21
5.781832304959278
 31
0.0
  0
LINE
  5
C40
330
2
100
AcDbEntity
  8
image
100
AcDbLine
 10
8.372814817314278
 20
6.194964951169312
 30
0.0
 11
8.372814817314278
 21
5.781832304959278
 31
0.0
  0
LINE
  5
C41
330
2
100
AcDbEntity
  8
image
100
AcDbLine
 10
8.185764251447007
 20
8.866403229163017
 30
0.0
 11
8.185764251447007
 21
8.444518246383614
 31
0.0
  0
LINE
  5
C42
330
2
100
AcDbEntity
  8
image
100
AcDbLine
 10
8.372814817314278
 20
8.861018138801048
 30
0.0
 11
8.372814817314278
 21
8.444518246383614
 31
0.0
  0
POLYLINE
  5
FAB
330
2
100
AcDbEntity
  8
image
100
AcDb2dPolyline
 66
     1
 10
0.0
 20
0.0
 30
0.0
  0
VERTEX
  5
FAC
330
FAB
100
AcDbEntity
  8
image
100
AcDbVertex
100
AcDb2dVertex
 10
8.929733065959958
 20
6.428836009220278
 30
0.0
  0
VERTEX
  5
FAD
330
FAB
100
AcDbEntity
  8
image
100
AcDbVertex
100
AcDb2dVertex
 10
8.969902096541918
 20
6.421513525329192
 30
0.0
  0
VERTEX
  5
FAE
330
FAB
100
AcDbEntity
  8
image
100
AcDbVertex
100
AcDb2dVertex
 10
9.048263253227712
 20
6.407041727359231
 30
0.0
  0
VERTEX
  5
FAF
330
FAB
100
AcDbEntity
  8
image
100
AcDbVertex
100
AcDb2dVertex
 10
9.128664365055353
 20
6.391946644781473
 30
0.0
  0
VERTEX
  5
FB0
330
FAB
100
AcDbEntity
  8
image
100
AcDbVertex
100
AcDb2dVertex
 10
9.209345965124004
 20
6.376484799991256
 30
0.0
  0
VERTEX
  5
FB1
330
FAB
100
AcDbEntity
  8
image
100
AcDbVertex
100
AcDb2dVertex
 10
9.288548586532829
 20
6.360912715383928
 30
0.0
  0
VERTEX
  5
FB2
330
FAB
100
AcDbEntity
  8
image
100
AcDbVertex
100
AcDb2dVertex
 10
9.364512762381
 20
6.345486913354832
 30
0.0
  0
VERTEX
  5
FB3
330
FAB
100
AcDbEntity
  8
image
100
AcDbVertex
100
AcDb2dVertex
 10
9.435873079837474
 20
6.330388770856078
 30
0.0
  0
VERTEX
  5
FB4
330
FAB
100
AcDbEntity
  8
image
100
AcDbVertex
100
AcDb2dVertex
 10
9.502840342350449
 20
6.3154990830668
 30
0.0
  0
VERTEX
  5
FB5
330
FAB
100
AcDbEntity
  8
image
100
AcDbVertex
100
AcDb2dVertex
 10
9.566019407437909
 20
6.300623499722888
 30
0.0
  0
VERTEX
  5
FB6
330
FAB
100
AcDbEntity
  8
image
100
AcDbVertex
100
AcDb2dVertex
 10
9.626015132617848
 20
6.285567670560244
 30
0.0
  0
VERTEX
  5
FB7
330
FAB
100
AcDbEntity
  8
image
100
AcDbVertex
100
AcDb2dVertex
 10
9.683432375408255
 20
6.27013724531476
 30
0.0
  0
VERTEX
  5
FB8
330
FAB
100
AcDbEntity
  8
image
100
AcDbVertex
100
AcDb2dVertex
 10
9.73887599332712
 20
6.254137873722335
 30
0.0
  0
VERTEX
  5
FB9
330
FAB
100
AcDbEntity
  8
image
100
AcDbVertex
100
AcDb2dVertex
 10
9.792950843892434
 20
6.237375205518858
 30
0.0
  0
VERTEX
  5
FBA
330
FAB
100
AcDbEntity
  8
image
100
AcDbVertex
100
AcDb2dVertex
 10
9.846261784622189
 20
6.219654890440232
 30
0.0
  0
VERTEX
  5
FBB
330
FAB
100
AcDbEntity
  8
image
100
AcDbVertex
100
AcDb2dVertex
 10
9.899210032375908
 20
6.200858978020153
 30
0.0
  0
VERTEX
  5
FBC
330
FAB
100
AcDbEntity
  8
image
100
AcDbVertex
100
AcDb2dVertex
 10
9.951382241379256
 20
6.181175116983581
 30
0.0
  0
VERTEX
  5
FBD
330
FAB
100
AcDbEntity
  8
image
100
AcDbVertex
100
AcDb2dVertex
 10
10.00216142519943
 20
6.16086735585327
 30
0.0
  0
VERTEX
  5
FBE
330
FAB
100
AcDbEntity
  8
image
100
AcDbVertex
100
AcDb2dVertex
 10
10.05093059740363
 20
6.140199743151981
 30
0.0
  0
VERTEX
  5
FBF
330
FAB
100
AcDbEntity
  8
image
100
AcDbVertex
100
AcDb2dVertex
 10
10.09707277155905
 20
6.119436327402475
 30
0.0
  0
VERTEX
  5
FC0
330
FAB
100
AcDbEntity
  8
image
100
AcDbVertex
100
AcDb2dVertex
 10
10.13997096123289
 20
6.098841157127509
 30
0.0
  0
VERTEX
  5
FC1
330
FAB
100
AcDbEntity
  8
image
100
AcDbVertex
100
AcDb2dVertex
 10
10.17900817999235
 20
6.078678280849846
 30
0.0
  0
VERTEX
  5
FC2
330
FAB
100
AcDbEntity
  8
image
100
AcDbVertex
100
AcDb2dVertex
 10
10.21356744140463
 20
6.059211747092248
 30
0.0
  0
VERTEX
  5
FC3
330
FAB
100
AcDbEntity
  8
image
100
AcDbVertex
100
AcDb2dVertex
 10
10.24323115211156
 20
6.040619016572001
 30
0.0
  0
VERTEX
  5
FC4
330
FAB
100
AcDbEntity
  8
image
100
AcDbVertex
100
AcDb2dVertex
 10
10.26837929105355
 20
6.022731198784509
 30
0.0
  0
VERTEX
  5
FC5
330
FAB
100
AcDbEntity
  8
image
100
AcDbVertex
100
AcDb2dVertex
 10
10.28959123024564
 20
6.005292815419711
 30
0.0
  0
VERTEX
  5
FC6
330
FAB
100
AcDbEntity
  8
image
100
AcDbVertex
100
AcDb2dVertex
 10
10.30744634170287
 20
5.988048388167538
 30
0.0
  0
VERTEX
  5
FC7
330
FAB
100
AcDbEntity
  8
image
100
AcDbVertex
100
AcDb2dVertex
 10
10.32252399744028
 20
5.970742438717923
 30
0.0
  0
VERTEX
  5
FC8
330
FAB
100
AcDbEntity
  8
image
100
AcDbVertex
100
AcDb2dVertex
 10
10.33540356947292
 20
5.953119488760805
 30
0.0
  0
VERTEX
  5
FC9
330
FAB
100
AcDbEntity
  8
image
100
AcDbVertex
100
AcDb2dVertex
 10
10.34666442981583
 20
5.934924059986116
 30
0.0
  0
VERTEX
  5
FCA
330
FAB
100
AcDbEntity
  8
image
100
AcDbVertex
100
AcDb2dVertex
 10
10.35688595048404
 20
5.915900674083793
 30
0.0
  0
VERTEX
  5
FCB
330
FAB
100
AcDbEntity
  8
image
100
AcDbVertex
100
AcDb2dVertex
 10
10.36651857048199
 20
5.895869454758038
 30
0.0
  0
VERTEX
  5
FCC
330
FAB
100
AcDbEntity
  8
image
100
AcDbVertex
100
AcDb2dVertex
 10
10.37549699677158
 20
5.874952933770163
 30
0.0
  0
VERTEX
  5
FCD
330
FAB
100
AcDbEntity
  8
image
100
AcDbVertex
100
AcDb2dVertex
 10
10.38362700330411
 20
5.853349244895746
 30
0.0
  0
VERTEX
  5
FCE
330
FAB
100
AcDbEntity
  8
image
100
AcDbVertex
100
AcDb2dVertex
 10
10.39071436403086
 20
5.831256521910368
 30
0.0
  0
VERTEX
  5
FCF
330
FAB
100
AcDbEntity
  8
image
100
AcDbVertex
100
AcDb2dVertex
 10
10.39656485290312
 20
5.808872898589608
 30
0.0
  0
VERTEX
  5
FD0
330
FAB
100
AcDbEntity
  8
image
100
AcDbVertex
100
AcDb2dVertex
 10
10.40098424387218
 20
5.786396508709046
 30
0.0
  0
VERTEX
  5
FD1
330
FAB
100
AcDbEntity
  8
image
100
AcDbVertex
100
AcDb2dVertex
 10
10.40377831088934
 20
5.764025486044264
 30
0.0
  0
VERTEX
  5
FD2
330
FAB
100
AcDbEntity
  8
image
100
AcDbVertex
100
AcDb2dVertex
 10
10.40475282790589
 20
5.74195796437084
 30
0.0
  0
SEQEND
  5
FD3
330
FAB
100
AcDbEntity
  8
image
  0
POLYLINE
  5
FD4
330
2
100
AcDbEntity
  8
image
100
AcDb2dPolyline
 66
     1
 10
0.0
 20
0.0
 30
0.0
  0
VERTEX
  5
FD5
330
FD4
100
AcDbEntity
  8
image
100
AcDbVertex
100
AcDb2dVertex
 10
8.885121981970531
 20
6.399339808070815
 30
0.0
  0
VERTEX
  5
FD6
330
FD4
100
AcDbEntity
  8
image
100
AcDbVertex
100
AcDb2dVertex
 10
8.963041695040644
 20
6.385142588260507
 30
0.0
  0
VERTEX
  5
FD7
330
FD4
100
AcDbEntity
  8
image
100
AcDbVertex
100
AcDb2dVertex
 10
9.041126381406243
 20
6.370723737621005
 30
0.0
  0
VERTEX
  5
FD8
330
FD4
100
AcDbEntity
  8
image
100
AcDbVertex
100
AcDb2dVertex
 10
9.121256498908113
 20
6.355683250039398
 30
0.0
  0
VERTEX
  5
FD9
330
FD4
100
AcDbEntity
  8
image
100
AcDbVertex
100
AcDb2dVertex
 10
9.201660292331521
 20
6.34028040998854
 30
0.0
  0
VERTEX
  5
FDA
330
FD4
100
AcDbEntity
  8
image
100
AcDbVertex
100
AcDb2dVertex
 10
9.280566006461729
 20
6.324774501941288
 30
0.0
  0
VERTEX
  5
FDB
330
FD4
100
AcDbEntity
  8
image
100
AcDbVertex
100
AcDb2dVertex
 10
9.356201886084008
 20
6.309424810370494
 30
0.0
  0
VERTEX
  5
FDC
330
FD4
100
AcDbEntity
  8
image
100
AcDbVertex
100
AcDb2dVertex
 10
9.427190818995146
 20
6.294416029060137
 30
0.0
  0
VERTEX
  5
FDD
330
FD4
100
AcDbEntity
  8
image
100
AcDbVertex
100
AcDb2dVertex
 10
9.493734265038025
 20
6.279634489038716
 30
0.0
  0
VERTEX
  5
FDE
330
FD4
100
AcDbEntity
  8
image
100
AcDbVertex
100
AcDb2dVertex
 10
9.556428327067056
 20
6.264891930645848
 30
0.0
  0
VERTEX
  5
FDF
330
FD4
100
AcDbEntity
  8
image
100
AcDbVertex
100
AcDb2dVertex
 10
9.615869107936642
 20
6.250000094221153
 30
0.0
  0
VERTEX
  5
FE0
330
FD4
100
AcDbEntity
  8
image
100
AcDbVertex
100
AcDb2dVertex
 10
9.6726527105012
 20
6.234770720104251
 30
0.0
  0
VERTEX
  5
FE1
330
FD4
100
AcDbEntity
  8
image
100
AcDbVertex
100
AcDb2dVertex
 10
9.727375237615131
 20
6.219015548634764
 30
0.0
  0
VERTEX
  5
FE2
330
FD4
100
AcDbEntity
  8
image
100
AcDbVertex
100
AcDb2dVertex
 10
9.780632792132848
 20
6.202546320152308
 30
0.0
  0
VERTEX
  5
FE3
330
FD4
100
AcDbEntity
  8
image
100
AcDbVertex
100
AcDb2dVertex
 10
9.833021476908754
 20
6.185174774996507
 30
0.0
  0
VERTEX
  5
FE4
330
FD4
100
AcDbEntity
  8
image
100
AcDbVertex
100
AcDb2dVertex
 10
9.884938188717278
 20
6.166789176821851
 30
0.0
  0
VERTEX
  5
FE5
330
FD4
100
AcDbEntity
  8
image
100
AcDbVertex
100
AcDb2dVertex
 10
9.935983000012914
 20
6.147583882542306
 30
0.0
  0
VERTEX
  5
FE6
330
FD4
100
AcDbEntity
  8
image
100
AcDbVertex
100
AcDb2dVertex
 10
9.985556777170177
 20
6.127829772386714
 30
0.0
  0
VERTEX
  5
FE7
330
FD4
100
AcDbEntity
  8
image
100
AcDbVertex
100
AcDb2dVertex
 10
10.03306038656358
 20
6.107797726583914
 30
0.0
  0
VERTEX
  5
FE8
330
FD4
100
AcDbEntity
  8
image
100
AcDbVertex
100
AcDb2dVertex
 10
10.07789469456763
 20
6.087758625362749
 30
0.0
  0
VERTEX
  5
FE9
330
FD4
100
AcDbEntity
  8
image
100
AcDbVertex
100
AcDb2dVertex
 10
10.11946056755686
 20
6.067983348952054
 30
0.0
  0
VERTEX
  5
FEA
330
FD4
100
AcDbEntity
  8
image
100
AcDbVertex
100
AcDb2dVertex
 10
10.15715887190576
 20
6.048742777580667
 30
0.0
  0
VERTEX
  5
FEB
330
FD4
100
AcDbEntity
  8
image
100
AcDbVertex
100
AcDb2dVertex
 10
10.19039047398886
 20
6.030307791477433
 30
0.0
  0
VERTEX
  5
FEC
330
FD4
100
AcDbEntity
  8
image
100
AcDbVertex
100
AcDb2dVertex
 10
10.21875325643428
 20
6.012860766075899
 30
0.0
  0
VERTEX
  5
FED
330
FD4
100
AcDbEntity
  8
image
100
AcDbVertex
100
AcDb2dVertex
 10
10.24263316688462
 20
5.996230057628459
 30
0.0
  0
VERTEX
  5
FEE
330
FD4
100
AcDbEntity
  8
image
100
AcDbVertex
100
AcDb2dVertex
 10
10.2626131692361
 20
5.980155517592212
 30
0.0
  0
VERTEX
  5
FEF
330
FD4
100
AcDbEntity
  8
image
100
AcDbVertex
100
AcDb2dVertex
 10
10.27927622738493
 20
5.964376997424267
 30
0.0
  0
VERTEX
  5
FF0
330
FD4
100
AcDbEntity
  8
image
100
AcDbVertex
100
AcDb2dVertex
 10
10.29320530522731
 20
5.948634348581723
 30
0.0
  0
VERTEX
  5
FF1
330
FD4
100
AcDbEntity
  8
image
100
AcDbVertex
100
AcDb2dVertex
 10
10.30498336665947
 20
5.932667422521685
 30
0.0
  0
VERTEX
  5
FF2
330
FD4
100
AcDbEntity
  8
image
100
AcDbVertex
100
AcDb2dVertex
 10
10.31519337557763
 20
5.916216070701256
 30
0.0
  0
VERTEX
  5
FF3
330
FD4
100
AcDbEntity
  8
image
100
AcDbVertex
100
AcDb2dVertex
 10
10.32441829587798
 20
5.899020144577534
 30
0.0
  0
VERTEX
  5
FF4
330
FD4
100
AcDbEntity
  8
image
100
AcDbVertex
100
AcDb2dVertex
 10
10.33311419278906
 20
5.880894745078041
 30
0.0
  0
VERTEX
  5
FF5
330
FD4
100
AcDbEntity
  8
image
100
AcDbVertex
100
AcDb2dVertex
 10
10.34122953686863
 20
5.861955971011912
 30
0.0
  0
VERTEX
  5
FF6
330
FD4
100
AcDbEntity
  8
image
100
AcDbVertex
100
AcDb2dVertex
 10
10.34858590000678
 20
5.842395170658704
 30
0.0
  0
VERTEX
  5
FF7
330
FD4
100
AcDbEntity
  8
image
100
AcDbVertex
100
AcDb2dVertex
 10
10.35500485409357
 20
5.822403692297974
 30
0.0
  0
VERTEX
  5
FF8
330
FD4
100
AcDbEntity
  8
image
100
AcDbVertex
100
AcDb2dVertex
 10
10.3603079710191
 20
5.802172884209266
 30
0.0
  0
VERTEX
  5
FF9
330
FD4
100
AcDbEntity
  8
image
100
AcDbVertex
100
AcDb2dVertex
 10
10.36431682267342
 20
5.781894094672139
 30
0.0
  0
VERTEX
  5
FFA
330
FD4
100
AcDbEntity
  8
image
100
AcDbVertex
100
AcDb2dVertex
 10
10.36685298094662
 20
5.761758671966148
 30
0.0
  0
VERTEX
  5
FFB
330
FD4
100
AcDbEntity
  8
image
100
AcDbVertex
100
AcDb2dVertex
 10
10.36773801772878
 20
5.74195796437084
 30
0.0
  0
SEQEND
  5
FFC
330
FD4
100
AcDbEntity
  8
image
  0
TEXT
  5
FFD
330
2
100
AcDbEntity
  8
image
100
AcDbText
 10
8.507093908116839
 20
5.846841063116571
 30
0.0
 40
0.125
  1
SOLENOID WIRE
  7
arial
100
AcDbText
  0
POLYLINE
  5
FFE
330
2
100
AcDbEntity
  8
image
100
AcDb2dPolyline
 66
     1
 10
0.0
 20
0.0
 30
0.0
 70
     4
 75
     6
  0
VERTEX
  5
FFF
330
FFE
100
AcDbEntity
  8
image
100
AcDbVertex
100
AcDb2dVertex
 10
8.03218321307332
 20
6.238051607585259
 30
0.0
 70
    16
  0
VERTEX
  5
1000
330
FFE
100
AcDbEntity
  8
image
100
AcDbVertex
100
AcDb2dVertex
 10
8.03218321307332
 20
6.238051607585259
 30
0.0
 70
     8
  0
VERTEX
  5
1001
330
FFE
100
AcDbEntity
  8
image
100
AcDbVertex
100
AcDb2dVertex
 10
8.054344133586756
 20
6.238073429290974
 30
0.0
 70
     8
  0
VERTEX
  5
1002
330
FFE
100
AcDbEntity
  8
image
100
AcDbVertex
100
AcDb2dVertex
 10
8.079268345633433
 20
6.238098264769249
 30
0.0
 70
     8
  0
VERTEX
  5
1003
330
FFE
100
AcDbEntity
  8
image
100
AcDbVertex
100
AcDb2dVertex
 10
8.107087079398688
 20
6.23806516956176
 30
0.0
 70
     8
  0
VERTEX
  5
1004
330
FFE
100
AcDbEntity
  8
image
100
AcDbVertex
100
AcDb2dVertex
 10
8.137931565067848
 20
6.237913199210193
 30
0.0
 70
     8
  0
VERTEX
  5
1005
330
FFE
100
AcDbEntity
  8
image
100
AcDbVertex
100
AcDb2dVertex
 10
8.171933032826249
 20
6.237581409256236
 30
0.0
 70
     8
  0
VERTEX
  5
1006
330
FFE
100
AcDbEntity
  8
image
100
AcDbVertex
100
AcDb2dVertex
 10
8.209222712859215
 20
6.237008855241573
 30
0.0
 70
     8
  0
VERTEX
  5
1007
330
FFE
100
AcDbEntity
  8
image
100
AcDbVertex
100
AcDb2dVertex
 10
8.249931835352082
 20
6.23613459270788
 30
0.0
 70
     8
  0
VERTEX
  5
1008
330
FFE
100
AcDbEntity
  8
image
100
AcDbVertex
100
AcDb2dVertex
 10
8.294191630490178
 20
6.234897677196848
 30
0.0
 70
     8
  0
VERTEX
  5
1009
330
FFE
100
AcDbEntity
  8
image
100
AcDbVertex
100
AcDb2dVertex
 10
8.342026716556464
 20
6.233249607042907
 30
0.0
 70
     8
  0
VERTEX
  5
100A
330
FFE
100
AcDbEntity
  8
image
100
AcDbVertex
100
AcDb2dVertex
 10
8.393035264224401
 20
6.231191651751505
 30
0.0
 70
     8
  0
VERTEX
  5
100B
330
FFE
100
AcDbEntity
  8
image
100
AcDbVertex
100
AcDb2dVertex
 10
8.44670883226508
 20
6.228737523620832
 30
0.0
 70
     8
  0
VERTEX
  5
100C
330
FFE
100
AcDbEntity
  8
image
100
AcDbVertex
100
AcDb2dVertex
 10
8.5025389794496
 20
6.225900934949081
 30
0.0
 70
     8
  0
VERTEX
  5
100D
330
FFE
100
AcDbEntity
  8
image
100
AcDbVertex
100
AcDb2dVertex
 10
8.560017264549042
 20
6.222695598034444
 30
0.0
 70
     8
  0
VERTEX
  5
100E
330
FFE
100
AcDbEntity
  8
image
100
AcDbVertex
100
AcDb2dVertex
 10
8.618635246334505
 20
6.219135225175115
 30
0.0
 70
     8
  0
VERTEX
  5
100F
330
FFE
100
AcDbEntity
  8
image
100
AcDbVertex
100
AcDb2dVertex
 10
8.677884483577077
 20
6.215233528669291
 30
0.0
 70
     8
  0
VERTEX
  5
1010
330
FFE
100
AcDbEntity
  8
image
100
AcDbVertex
100
AcDb2dVertex
 10
8.737256535047851
 20
6.211004220815162
 30
0.0
 70
     8
  0
VERTEX
  5
1011
330
FFE
100
AcDbEntity
  8
image
100
AcDbVertex
100
AcDb2dVertex
 10
8.796344006914534
 20
6.206452184777702
 30
0.0
 70
     8
  0
VERTEX
  5
1012
330
FFE
100
AcDbEntity
  8
image
100
AcDbVertex
100
AcDb2dVertex
 10
8.855143694931307
 20
6.201546987189022
 30
0.0
 70
     8
  0
VERTEX
  5
1013
330
FFE
100
AcDbEntity
  8
image
100
AcDbVertex
100
AcDb2dVertex
 10
8.913753442248957
 20
6.196249365548005
 30
0.0
 70
     8
  0
VERTEX
  5
1014
330
FFE
100
AcDbEntity
  8
image
100
AcDbVertex
100
AcDb2dVertex
 10
8.972271092018281
 20
6.190520057353548
 30
0.0
 70
     8
  0
VERTEX
  5
1015
330
FFE
100
AcDbEntity
  8
image
100
AcDbVertex
100
AcDb2dVertex
 10
9.030794487390078
 20
6.184319800104535
 30
0.0
 70
     8
  0
VERTEX
  5
1016
330
FFE
100
AcDbEntity
  8
image
100
AcDbVertex
100
AcDb2dVertex
 10
9.089421471515134
 20
6.177609331299859
 30
0.0
 70
     8
  0
VERTEX
  5
1017
330
FFE
100
AcDbEntity
  8
image
100
AcDbVertex
100
AcDb2dVertex
 10
9.148249887544245
 20
6.170349388438403
 30
0.0
 70
     8
  0
VERTEX
  5
1018
330
FFE
100
AcDbEntity
  8
image
100
AcDbVertex
100
AcDb2dVertex
 10
9.207377578628207
 20
6.162500709019063
 30
0.0
 70
     8
  0
VERTEX
  5
1019
330
FFE
100
AcDbEntity
  8
image
100
AcDbVertex
100
AcDb2dVertex
 10
9.266824768593917
 20
6.154045063326769
 30
0.0
 70
     8
  0
VERTEX
  5
101A
330
FFE
100
AcDbEntity
  8
image
100
AcDbVertex
100
AcDb2dVertex
 10
9.326301203972686
 20
6.145048352790642
 30
0.0
 70
     8
  0
VERTEX
  5
101B
330
FFE
100
AcDbEntity
  8
image
100
AcDbVertex
100
AcDb2dVertex
 10
9.385439011971929
 20
6.135597511625842
 30
0.0
 70
     8
  0
VERTEX
  5
101C
330
FFE
100
AcDbEntity
  8
image
100
AcDbVertex
100
AcDb2dVertex
 10
9.443870319799064
 20
6.12577947404754
 30
0.0
 70
     8
  0
VERTEX
  5
101D
330
FFE
100
AcDbEntity
  8
image
100
AcDbVertex
100
AcDb2dVertex
 10
9.501227254661507
 20
6.115681174270889
 30
0.0
 70
     8
  0
VERTEX
  5
101E
330
FFE
100
AcDbEntity
  8
image
100
AcDbVertex
100
AcDb2dVertex
 10
9.557141943766673
 20
6.105389546511062
 30
0.0
 70
     8
  0
VERTEX
  5
101F
330
FFE
100
AcDbEntity
  8
image
100
AcDbVertex
100
AcDb2dVertex
 10
9.61124651432198
 20
6.094991524983218
 30
0.0
 70
     8
  0
VERTEX
  5
1020
330
FFE
100
AcDbEntity
  8
image
100
AcDbVertex
100
AcDb2dVertex
 10
9.663173093534844
 20
6.084574043902524
 30
0.0
 70
     8
  0
VERTEX
  5
1021
330
FFE
100
AcDbEntity
  8
image
100
AcDbVertex
100
AcDb2dVertex
 10
9.712641456451564
 20
6.074198539066181
 30
0.0
 70
     8
  0
VERTEX
  5
1022
330
FFE
100
AcDbEntity
  8
image
100
AcDbVertex
100
AcDb2dVertex
 10
9.759721969473986
 20
6.063824452599575
 30
0.0
 70
     8
  0
VERTEX
  5
1023
330
FFE
100
AcDbEntity
  8
image
100
AcDbVertex
100
AcDb2dVertex
 10
9.804572646842839
 20
6.053385728210134
 30
0.0
 70
     8
  0
VERTEX
  5
1024
330
FFE
100
AcDbEntity
  8
image
100
AcDbVertex
100
AcDb2dVertex
 10
9.847351502798851
 20
6.042816309605278
 30
0.0
 70
     8
  0
VERTEX
  5
1025
330
FFE
100
AcDbEntity
  8
image
100
AcDbVertex
100
AcDb2dVertex
 10
9.888216551582754
 20
6.032050140492437
 30
0.0
 70
     8
  0
VERTEX
  5
1026
330
FFE
100
AcDbEntity
  8
image
100
AcDbVertex
100
AcDb2dVertex
 10
9.927325807435277
 20
6.021021164579032
 30
0.0
 70
     8
  0
VERTEX
  5
1027
330
FFE
100
AcDbEntity
  8
image
100
AcDbVertex
100
AcDb2dVertex
 10
9.964837284597148
 20
6.009663325572493
 30
0.0
 70
     8
  0
VERTEX
  5
1028
330
FFE
100
AcDbEntity
  8
image
100
AcDbVertex
100
AcDb2dVertex
 10
10.00090899730909
 20
5.997910567180241
 30
0.0
 70
     8
  0
VERTEX
  5
1029
330
FFE
100
AcDbEntity
  8
image
100
AcDbVertex
100
AcDb2dVertex
 10
10.03565818339708
 20
5.985698344815567
 30
0.0
 70
     8
  0
VERTEX
  5
102A
330
FFE
100
AcDbEntity
  8
image
100
AcDbVertex
100
AcDb2dVertex
 10
10.06903897502801
 20
5.9729681607152
 30
0.0
 70
     8
  0
VERTEX
  5
102B
330
FFE
100
AcDbEntity
  8
image
100
AcDbVertex
100
AcDb2dVertex
 10
10.10096472795402
 20
5.959663028821733
 30
0.0
 70
     8
  0
VERTEX
  5
102C
330
FFE
100
AcDbEntity
  8
image
100
AcDbVertex
100
AcDb2dVertex
 10
10.13134879792723
 20
5.945725963077759
 30
0.0
 70
     8
  0
VERTEX
  5
102D
330
FFE
100
AcDbEntity
  8
image
100
AcDbVertex
100
AcDb2dVertex
 10
10.16010454069979
 20
5.931099977425873
 30
0.0
 70
     8
  0
VERTEX
  5
102E
330
FFE
100
AcDbEntity
  8
image
100
AcDbVertex
100
AcDb2dVertex
 10
10.18714531202381
 20
5.915728085808666
 30
0.0
 70
     8
  0
VERTEX
  5
102F
330
FFE
100
AcDbEntity
  8
image
100
AcDbVertex
100
AcDb2dVertex
 10
10.21238446765145
 20
5.89955330216873
 30
0.0
 70
     8
  0
VERTEX
  5
1030
330
FFE
100
AcDbEntity
  8
image
100
AcDbVertex
100
AcDb2dVertex
 10
10.23573536333483
 20
5.882518640448658
 30
0.0
 70
     8
  0
VERTEX
  5
1031
330
FFE
100
AcDbEntity
  8
image
100
AcDbVertex
100
AcDb2dVertex
 10
10.25709153172802
 20
5.864632564894669
 30
0.0
 70
     8
  0
VERTEX
  5
1032
330
FFE
100
AcDbEntity
  8
image
100
AcDbVertex
100
AcDb2dVertex
 10
10.2762672130929
 20
5.846165340967488
 30
0.0
 70
     8
  0
VERTEX
  5
1033
330
FFE
100
AcDbEntity
  8
image
100
AcDbVertex
100
AcDb2dVertex
 10
10.29305682459325
 20
5.82745268443146
 30
0.0
 70
     8
  0
VERTEX
  5
1034
330
FFE
100
AcDbEntity
  8
image
100
AcDbVertex
100
AcDb2dVertex
 10
10.3072547833929
 20
5.808830311050936
 30
0.0
 70
     8
  0
VERTEX
  5
1035
330
FFE
100
AcDbEntity
  8
image
100
AcDbVertex
100
AcDb2dVertex
 10
10.31865550665562
 20
5.790633936590261
 30
0.0
 70
     8
  0
VERTEX
  5
1036
330
FFE
100
AcDbEntity
  8
image
100
AcDbVertex
100
AcDb2dVertex
 10
10.32705341154525
 20
5.773199276813787
 30
0.0
 70
     8
  0
VERTEX
  5
1037
330
FFE
100
AcDbEntity
  8
image
100
AcDbVertex
100
AcDb2dVertex
 10
10.33224291522556
 20
5.756862047485864
 30
0.0
 70
     8
  0
VERTEX
  5
1038
330
FFE
100
AcDbEntity
  8
image
100
AcDbVertex
100
AcDb2dVertex
 10
10.33401843486038
 20
5.74195796437084
 30
0.0
 70
     8
  0
VERTEX
  5
1039
330
FFE
100
AcDbEntity
  8
image
100
AcDbVertex
100
AcDb2dVertex
 10
8.087711261451776
 20
6.238051607585259
 30
0.0
 70
    16
  0
VERTEX
  5
103A
330
FFE
100
AcDbEntity
  8
image
100
AcDbVertex
100
AcDb2dVertex
 10
8.254918000297529
 20
6.23941604984386
 30
0.0
 70
    16
  0
VERTEX
  5
103B
330
FFE
100
AcDbEntity
  8
image
100
AcDbVertex
100
AcDb2dVertex
 10
8.741369889722058
 20
6.214352477349684
 30
0.0
 70
    16
  0
VERTEX
  5
103C
330
FFE
100
AcDbEntity
  8
image
100
AcDbVertex
100
AcDb2dVertex
 10
9.203141651101343
 20
6.169199365648371
 30
0.0
 70
    16
  0
VERTEX
  5
103D
330
FFE
100
AcDbEntity
  8
image
100
AcDbVertex
100
AcDb2dVertex
 10
9.690328977641808
 20
6.083854314171205
 30
0.0
 70
    16
  0
VERTEX
  5
103E
330
FFE
100
AcDbEntity
  8
image
100
AcDbVertex
100
AcDb2dVertex
 10
10.01458099954048
 20
6.002827641081946
 30
0.0
 70
    16
  0
VERTEX
  5
103F
330
FFE
100
AcDbEntity
  8
image
100
AcDbVertex
100
AcDb2dVertex
 10
10.25680100805083
 20
5.892298524582447
 30
0.0
 70
    16
  0
VERTEX
  5
1040
330
FFE
100
AcDbEntity
  8
image
100
AcDbVertex
100
AcDb2dVertex
 10
10.33401843486038
 20
5.779492910380959
 30
0.0
 70
    16
  0
VERTEX
  5
1041
330
FFE
100
AcDbEntity
  8
image
100
AcDbVertex
100
AcDb2dVertex
 10
10.33401843486038
 20
5.74195796437084
 30
0.0
 70
    16
  0
SEQEND
  5
1042
330
FFE
100
AcDbEntity
  8
image
  0
POLYLINE
  5
1043
330
2
100
AcDbEntity
  8
image
100
AcDb2dPolyline
 66
     1
 10
0.0
 20
0.0
 30
0.0
 70
     4
 75
     6
  0
VERTEX
  5
1044
330
1043
100
AcDbEntity
  8
image
100
AcDbVertex
100
AcDb2dVertex
 10
8.03218321307332
 20
6.201036797408153
 30
0.0
 70
    16
  0
VERTEX
  5
1045
330
1043
100
AcDbEntity
  8
image
100
AcDbVertex
100
AcDb2dVertex
 10
8.03218321307332
 20
6.201036797408153
 30
0.0
 70
     8
  0
VERTEX
  5
1046
330
1043
100
AcDbEntity
  8
image
100
AcDbVertex
100
AcDb2dVertex
 10
8.05437240664602
 20
6.201058480990418
 30
0.0
 70
     8
  0
VERTEX
  5
1047
330
1043
100
AcDbEntity
  8
image
100
AcDbVertex
100
AcDb2dVertex
 10
8.079272392630958
 20
6.20108307867871
 30
0.0
 70
     8
  0
VERTEX
  5
1048
330
1043
100
AcDbEntity
  8
image
100
AcDbVertex
100
AcDb2dVertex
 10
8.107020732896561
 20
6.201049910885281
 30
0.0
 70
     8
  0
VERTEX
  5
1049
330
1043
100
AcDbEntity
  8
image
100
AcDbVertex
100
AcDb2dVertex
 10
8.137754989311268
 20
6.200898298022387
 30
0.0
 70
     8
  0
VERTEX
  5
104A
330
1043
100
AcDbEntity
  8
image
100
AcDbVertex
100
AcDb2dVertex
 10
8.17161272374351
 20
6.200567560502278
 30
0.0
 70
     8
  0
VERTEX
  5
104B
330
1043
100
AcDbEntity
  8
image
100
AcDbVertex
100
AcDb2dVertex
 10
8.20873149806172
 20
6.199997018737207
 30
0.0
 70
     8
  0
VERTEX
  5
104C
330
1043
100
AcDbEntity
  8
image
100
AcDbVertex
100
AcDb2dVertex
 10
8.24924887413433
 20
6.199125993139421
 30
0.0
 70
     8
  0
VERTEX
  5
104D
330
1043
100
AcDbEntity
  8
image
100
AcDbVertex
100
AcDb2dVertex
 10
8.293302413829774
 20
6.197893804121179
 30
0.0
 70
     8
  0
VERTEX
  5
104E
330
1043
100
AcDbEntity
  8
image
100
AcDbVertex
100
AcDb2dVertex
 10
8.340922086470467
 20
6.19625217295886
 30
0.0
 70
     8
  0
VERTEX
  5
104F
330
1043
100
AcDbEntity
  8
image
100
AcDbVertex
100
AcDb2dVertex
 10
8.391707491194743
 20
6.194202424385363
 30
0.0
 70
     8
  0
VERTEX
  5
1050
330
1043
100
AcDbEntity
  8
image
100
AcDbVertex
100
AcDb2dVertex
 10
8.445150634594931
 20
6.19175828399771
 30
0.0
 70
     8
  0
VERTEX
  5
1051
330
1043
100
AcDbEntity
  8
image
100
AcDbVertex
100
AcDb2dVertex
 10
8.500743523263349
 20
6.188933477392932
 30
0.0
 70
     8
  0
VERTEX
  5
1052
330
1043
100
AcDbEntity
  8
image
100
AcDbVertex
100
AcDb2dVertex
 10
8.557978163792316
 20
6.185741730168054
 30
0.0
 70
     8
  0
VERTEX
  5
1053
330
1043
100
AcDbEntity
  8
image
100
AcDbVertex
100
AcDb2dVertex
 10
8.616346562774154
 20
6.1821967679201
 30
0.0
 70
     8
  0
VERTEX
  5
1054
330
1043
100
AcDbEntity
  8
image
100
AcDbVertex
100
AcDb2dVertex
 10
8.675340726801184
 20
6.178312316246103
 30
0.0
 70
     8
  0
VERTEX
  5
1055
330
1043
100
AcDbEntity
  8
image
100
AcDbVertex
100
AcDb2dVertex
 10
8.734452662465724
 20
6.17410210074308
 30
0.0
 70
     8
  0
VERTEX
  5
1056
330
1043
100
AcDbEntity
  8
image
100
AcDbVertex
100
AcDb2dVertex
 10
8.793275301168471
 20
6.169571058670229
 30
0.0
 70
     8
  0
VERTEX
  5
1057
330
1043
100
AcDbEntity
  8
image
100
AcDbVertex
100
AcDb2dVertex
 10
8.85180527354359
 20
6.164688973935383
 30
0.0
 70
     8
  0
VERTEX
  5
1058
330
1043
100
AcDbEntity
  8
image
100
AcDbVertex
100
AcDb2dVertex
 10
8.910140135033625
 20
6.159416842108552
 30
0.0
 70
     8
  0
VERTEX
  5
1059
330
1043
100
AcDbEntity
  8
image
100
AcDbVertex
100
AcDb2dVertex
 10
8.96837744108112
 20
6.153715658759733
 30
0.0
 70
     8
  0
VERTEX
  5
105A
330
1043
100
AcDbEntity
  8
image
100
AcDbVertex
100
AcDb2dVertex
 10
9.026614747128615
 20
6.147546419458926
 30
0.0
 70
     8
  0
VERTEX
  5
105B
330
1043
100
AcDbEntity
  8
image
100
AcDbVertex
100
AcDb2dVertex
 10
9.08494960861865
 20
6.140870119776142
 30
0.0
 70
     8
  0
VERTEX
  5
105C
330
1043
100
AcDbEntity
  8
image
100
AcDbVertex
100
AcDb2dVertex
 10
9.143479580993773
 20
6.133647755281376
 30
0.0
 70
     8
  0
VERTEX
  5
105D
330
1043
100
AcDbEntity
  8
image
100
AcDbVertex
100
AcDb2dVertex
 10
9.202302219696516
 20
6.125840321544632
 30
0.0
 70
     8
  0
VERTEX
  5
105E
330
1043
100
AcDbEntity
  8
image
100
AcDbVertex
100
AcDb2dVertex
 10
9.261437035857223
 20
6.117429941593663
 30
0.0
 70
     8
  0
VERTEX
  5
105F
330
1043
100
AcDbEntity
  8
image
100
AcDbVertex
100
AcDb2dVertex
 10
9.320591363357404
 20
6.108483248287214
 30
0.0
 70
     8
  0
VERTEX
  5
1060
330
1043
100
AcDbEntity
  8
image
100
AcDbVertex
100
AcDb2dVertex
 10
9.379394491766365
 20
6.099088001941787
 30
0.0
 70
     8
  0
VERTEX
  5
1061
330
1043
100
AcDbEntity
  8
image
100
AcDbVertex
100
AcDb2dVertex
 10
9.437475710653416
 20
6.08933196287387
 30
0.0
 70
     8
  0
VERTEX
  5
1062
330
1043
100
AcDbEntity
  8
image
100
AcDbVertex
100
AcDb2dVertex
 10
9.494464309587865
 20
6.079302891399965
 30
0.0
 70
     8
  0
VERTEX
  5
1063
330
1043
100
AcDbEntity
  8
image
100
AcDbVertex
100
AcDb2dVertex
 10
9.549989578139015
 20
6.069088547836564
 30
0.0
 70
     8
  0
VERTEX
  5
1064
330
1043
100
AcDbEntity
  8
image
100
AcDbVertex
100
AcDb2dVertex
 10
9.603680805876177
 20
6.058776692500167
 30
0.0
 70
     8
  0
VERTEX
  5
1065
330
1043
100
AcDbEntity
  8
image
100
AcDbVertex
100
AcDb2dVertex
 10
9.655167282368658
 20
6.048455085707267
 30
0.0
 70
     8
  0
VERTEX
  5
1066
330
1043
100
AcDbEntity
  8
image
100
AcDbVertex
100
AcDb2dVertex
 10
9.704164471088308
 20
6.038187109908673
 30
0.0
 70
     8
  0
VERTEX
  5
1067
330
1043
100
AcDbEntity
  8
image
100
AcDbVertex
100
AcDb2dVertex
 10
9.750732531117133
 20
6.027938636092407
 30
0.0
 70
     8
  0
VERTEX
  5
1068
330
1043
100
AcDbEntity
  8
image
100
AcDbVertex
100
AcDb2dVertex
 10
9.795017795439687
 20
6.017651157380807
 30
0.0
 70
     8
  0
VERTEX
  5
1069
330
1043
100
AcDbEntity
  8
image
100
AcDbVertex
100
AcDb2dVertex
 10
9.837166597040521
 20
6.007266166896211
 30
0.0
 70
     8
  0
VERTEX
  5
106A
330
1043
100
AcDbEntity
  8
image
100
AcDbVertex
100
AcDb2dVertex
 10
9.877325268904186
 20
5.996725157760955
 30
0.0
 70
     8
  0
VERTEX
  5
106B
330
1043
100
AcDbEntity
  8
image
100
AcDbVertex
100
AcDb2dVertex
 10
9.915640144015231
 20
5.985969623097371
 30
0.0
 70
     8
  0
VERTEX
  5
106C
330
1043
100
AcDbEntity
  8
image
100
AcDbVertex
100
AcDb2dVertex
 10
9.952257555358215
 20
5.974941056027798
 30
0.0
 70
     8
  0
VERTEX
  5
106D
330
1043
100
AcDbEntity
  8
image
100
AcDbVertex
100
AcDb2dVertex
 10
9.987323835917681
 20
5.963580949674572
 30
0.0
 70
     8
  0
VERTEX
  5
106E
330
1043
100
AcDbEntity
  8
image
100
AcDbVertex
100
AcDb2dVertex
 10
10.02094710951696
 20
5.951836485315762
 30
0.0
 70
     8
  0
VERTEX
  5
106F
330
1043
100
AcDbEntity
  8
image
100
AcDbVertex
100
AcDb2dVertex
 10
10.05308266333453
 20
5.939677596852387
 30
0.0
 70
     8
  0
VERTEX
  5
1070
330
1043
100
AcDbEntity
  8
image
100
AcDbVertex
100
AcDb2dVertex
 10
10.08364757538763
 20
5.927079906341194
 30
0.0
 70
     8
  0
VERTEX
  5
1071
330
1043
100
AcDbEntity
  8
image
100
AcDbVertex
100
AcDb2dVertex
 10
10.11255892369352
 20
5.914019035838933
 30
0.0
 70
     8
  0
VERTEX
  5
1072
330
1043
100
AcDbEntity
  8
image
100
AcDbVertex
100
AcDb2dVertex
 10
10.13973378626943
 20
5.900470607402358
 30
0.0
 70
     8
  0
VERTEX
  5
1073
330
1043
100
AcDbEntity
  8
image
100
AcDbVertex
100
AcDb2dVertex
 10
10.16508924113263
 20
5.886410243088221
 30
0.0
 70
     8
  0
VERTEX
  5
1074
330
1043
100
AcDbEntity
  8
image
100
AcDbVertex
100
AcDb2dVertex
 10
10.18854236630035
 20
5.871813564953264
 30
0.0
 70
     8
  0
VERTEX
  5
1075
330
1043
100
AcDbEntity
  8
image
100
AcDbVertex
100
AcDb2dVertex
 10
10.21001023978985
 20
5.856656195054249
 30
0.0
 70
     8
  0
VERTEX
  5
1076
330
1043
100
AcDbEntity
  8
image
100
AcDbVertex
100
AcDb2dVertex
 10
10.2294034358983
 20
5.840971706590895
 30
0.0
 70
     8
  0
VERTEX
  5
1077
330
1043
100
AcDbEntity
  8
image
100
AcDbVertex
100
AcDb2dVertex
 10
10.2466065140426
 20
5.82502547733485
 30
0.0
 70
     8
  0
VERTEX
  5
1078
330
1043
100
AcDbEntity
  8
image
100
AcDbVertex
100
AcDb2dVertex
 10
10.26149752991957
 20
5.809140836200736
 30
0.0
 70
     8
  0
VERTEX
  5
1079
330
1043
100
AcDbEntity
  8
image
100
AcDbVertex
100
AcDb2dVertex
 10
10.27395453922603
 20
5.793641112103173
 30
0.0
 70
     8
  0
VERTEX
  5
107A
330
1043
100
AcDbEntity
  8
image
100
AcDbVertex
100
AcDb2dVertex
 10
10.28385559765881
 20
5.778849633956781
 30
0.0
 70
     8
  0
VERTEX
  5
107B
330
1043
100
AcDbEntity
  8
image
100
AcDbVertex
100
AcDb2dVertex
 10
10.29107876091473
 20
5.76508973067618
 30
0.0
 70
     8
  0
VERTEX
  5
107C
330
1043
100
AcDbEntity
  8
image
100
AcDbVertex
100
AcDb2dVertex
 10
10.29550208469061
 20
5.752684731175992
 30
0.0
 70
     8
  0
VERTEX
  5
107D
330
1043
100
AcDbEntity
  8
image
100
AcDbVertex
100
AcDb2dVertex
 10
10.29700362468328
 20
5.74195796437084
 30
0.0
 70
     8
  0
VERTEX
  5
107E
330
1043
100
AcDbEntity
  8
image
100
AcDbVertex
100
AcDb2dVertex
 10
8.087862283267259
 20
6.201036797408153
 30
0.0
 70
    16
  0
VERTEX
  5
107F
330
1043
100
AcDbEntity
  8
image
100
AcDbVertex
100
AcDb2dVertex
 10
8.254116008589594
 20
6.202393462875381
 30
0.0
 70
    16
  0
VERTEX
  5
1080
330
1043
100
AcDbEntity
  8
image
100
AcDbVertex
100
AcDb2dVertex
 10
8.738615028014169
 20
6.177430508551019
 30
0.0
 70
    16
  0
VERTEX
  5
1081
330
1043
100
AcDbEntity
  8
image
100
AcDbVertex
100
AcDb2dVertex
 10
9.19813985414807
 20
6.13249710737903
 30
0.0
 70
    16
  0
VERTEX
  5
1082
330
1043
100
AcDbEntity
  8
image
100
AcDbVertex
100
AcDb2dVertex
 10
9.682638873572646
 20
6.047622991200654
 30
0.0
 70
    16
  0
VERTEX
  5
1083
330
1043
100
AcDbEntity
  8
image
100
AcDbVertex
100
AcDb2dVertex
 10
10.0023083457733
 20
5.967741442061967
 30
0.0
 70
    16
  0
VERTEX
  5
1084
330
1043
100
AcDbEntity
  8
image
100
AcDbVertex
100
AcDb2dVertex
 10
10.23207075884025
 20
5.862896938598918
 30
0.0
 70
    16
  0
VERTEX
  5
1085
330
1043
100
AcDbEntity
  8
image
100
AcDbVertex
100
AcDb2dVertex
 10
10.29700362468328
 20
5.768037628778206
 30
0.0
 70
    16
  0
VERTEX
  5
1086
330
1043
100
AcDbEntity
  8
image
100
AcDbVertex
100
AcDb2dVertex
 10
10.29700362468328
 20
5.74195796437084
 30
0.0
 70
    16
  0
SEQEND
  5
1087
330
1043
100
AcDbEntity
  8
image
  0
LWPOLYLINE
  5
1088
330
2
100
AcDbEntity
  8
image
100
AcDbPolyline
 90
        2
 70
     0
 43
0.0
 10
11.03968138440648
 20
6.041587144514402
 10
11.03968138440648
 20
5.903019691599546
  0
LWPOLYLINE
  5
1089
330
2
100
AcDbEntity
  8
image
100
AcDbPolyline
 90
        2
 70
     0
 43
0.0
 10
10.75025996915974
 20
6.041587144514402
 10
10.75025996915974
 20
5.903019691599546
  0
LWPOLYLINE
  5
108A
330
2
100
AcDbEntity
  8
image
100
AcDbPolyline
 90
        2
 70
     0
 43
0.0
 10
10.83025996915974
 20
6.041587144514402
 10
10.83025996915974
 20
5.903019691599546
  0
LWPOLYLINE
  5
108B
330
2
100
AcDbEntity
  8
image
100
AcDbPolyline
 90
        2
 70
     0
 43
0.0
 10
10.540838553913
 20
6.041587144514402
 10
10.540838553913
 20
5.903019691599546
  0
LINE
  5
108C
330
2
100
AcDbEntity
  8
image
100
AcDbLine
 10
10.30989279905491
 20
5.032201155794744
 30
0.0
 11
11.27062713926456
 21
5.032201155794744
 31
0.0
  0
LINE
  5
108D
330
2
100
AcDbEntity
  8
image
100
AcDbLine
 10
10.32950439949971
 20
4.699639268799096
 30
0.0
 11
10.40950439949971
 21
4.699639268799096
 31
0.0
  0
ARC
  5
108E
330
2
100
AcDbEntity
  8
image
100
AcDbCircle
 10
10.45618240821931
 20
5.438925948364492
 30
0.0
 40
0.9498126021764614
100
AcDbArc
 50
262.3355331415187
 51
277.664466858481
  0
LINE
  5
108F
330
2
100
AcDbEntity
  8
image
100
AcDbLine
 10
10.29141713866626
 20
5.253909080458498
 30
0.0
 11
11.27062713926456
 21
5.253909080458498
 31
0.0
  0
LINE
  5
1090
330
2
100
AcDbEntity
  8
image
100
AcDbLine
 10
10.02923523572134
 20
5.491059512200301
 30
0.0
 11
10.62153564216737
 21
5.491059512200301
 31
0.0
  0
LINE
  5
1091
330
2
100
AcDbEntity
  8
image
100
AcDbLine
 10
10.02923523572134
 20
5.348907414653254
 30
0.0
 11
10.62153564216737
 21
5.348907414653254
 31
0.0
  0
LINE
  5
1092
330
2
100
AcDbEntity
  8
image
100
AcDbLine
 10
10.24198954171675
 20
5.74195796437084
 30
0.0
 11
10.58078537420388
 21
5.74195796437084
 31
0.0
  0
ARC
  5
1093
330
2
100
AcDbEntity
  8
image
100
AcDbCircle
 10
10.18028048127473
 20
4.49271187244625
 30
0.0
 40
0.0369513207772945
100
AcDbArc
 50
180.0
 51
270.0
  0
LINE
  5
1094
330
2
100
AcDbEntity
  8
image
100
AcDbLine
 10
10.29141713866626
 20
5.253909080458498
 30
0.0
 11
10.29141713866626
 21
5.124579457737979
 31
0.0
  0
LINE
  5
1095
330
2
100
AcDbEntity
  8
image
100
AcDbLine
 10
10.2338032216977
 20
5.092984217667165
 30
0.0
 11
10.2338032216977
 21
5.348907414653254
 31
0.0
  0
LINE
  5
1096
330
2
100
AcDbEntity
  8
image
100
AcDbLine
 10
10.14332916049744
 20
4.49271187244625
 30
0.0
 11
10.14332916049744
 21
4.906566665151949
 31
0.0
  0
LWPOLYLINE
  5
1097
330
2
100
AcDbEntity
  8
image
100
AcDbPolyline
 90
        4
 70
     0
 43
0.0
 10
10.32950439949971
 20
5.032201155794744
 10
10.32950439949971
 20
4.464904294557221
 42
-0.4142135623730951
 10
10.32036065661143
 20
4.455760551668944
 10
10.18028048127473
 20
4.455760551668944
  0
LINE
  5
1098
330
2
100
AcDbEntity
  8
image
100
AcDbLine
 10
10.14332916049744
 20
4.505498610549111
 30
0.0
 11
10.04983729883843
 21
4.505498610549111
 31
0.0
  0
LINE
  5
1099
330
2
100
AcDbEntity
  8
image
100
AcDbLine
 10
10.18028048127473
 20
4.94351798592924
 30
0.0
 11
10.32950439949971
 21
4.94351798592924
 31
0.0
  0
ARC
  5
109A
330
2
100
AcDbEntity
  8
image
100
AcDbCircle
 10
10.18028048127473
 20
4.906566665151949
 30
0.0
 40
0.0369513207772945
100
AcDbArc
 50
89.99999999999969
 51
180.0
  0
LINE
  5
109B
330
2
100
AcDbEntity
  8
image
100
AcDbLine
 10
10.14332916049744
 20
4.893779927049095
 30
0.0
 11
10.04983729883843
 21
4.893779927049095
 31
0.0
  0
LINE
  5
109C
330
2
100
AcDbEntity
  8
image
100
AcDbLine
 10
10.2338032216977
 20
5.092984217667165
 30
0.0
 11
10.29141713866626
 21
5.124579457737979
 31
0.0
  0
ARC
  5
109D
330
2
100
AcDbEntity
  8
image
100
AcDbCircle
 10
10.25446581788897
 20
5.091468889740824
 30
0.0
 40
0.0184756603886473
100
AcDbArc
 50
359.9999999999998
 51
66.3057192735884
  0
LINE
  5
109E
330
2
100
AcDbEntity
  8
image
100
AcDbLine
 10
10.27294147827762
 20
5.091468889740802
 30
0.0
 11
10.27294147827762
 21
5.069152476572043
 31
0.0
  0
ARC
  5
109F
330
2
100
AcDbEntity
  8
image
100
AcDbCircle
 10
10.30989279905491
 20
5.069152476572043
 30
0.0
 40
0.0369513207772945
100
AcDbArc
 50
180.0
 51
270.0
  0
LINE
  5
10A0
330
2
100
AcDbEntity
  8
image
100
AcDbLine
 10
10.25738935228435
 20
5.74195796437084
 30
0.0
 11
10.25738935228435
 21
5.491059512200301
 31
0.0
  0
LINE
  5
10A1
330
2
100
AcDbEntity
  8
image
100
AcDbLine
 10
10.24198954171675
 20
5.491059512200301
 30
0.0
 11
10.24198954171675
 21
5.74195796437084
 31
0.0
  0
LINE
  5
10A2
330
2
100
AcDbEntity
  8
image
100
AcDbLine
 10
10.31069638886449
 20
5.74195796437084
 30
0.0
 11
10.31069638886449
 21
5.491059512200301
 31
0.0
  0
LINE
  5
10A3
330
2
100
AcDbEntity
  8
image
100
AcDbLine
 10
10.02923523572134
 20
5.491059512200301
 30
0.0
 11
10.02923523572134
 21
5.348907414653254
 31
0.0
  0
LINE
  5
10A4
330
2
100
AcDbEntity
  8
image
100
AcDbLine
 10
10.20123927375327
 20
5.197752350928233
 30
0.0
 11
10.20123927375327
 21
5.491059512200301
 31
0.0
  0
LINE
  5
10A5
330
2
100
AcDbEntity
  8
image
100
AcDbLine
 10
10.15385524123758
 20
5.197752350928233
 30
0.0
 11
10.15385524123758
 21
5.491059512200301
 31
0.0
  0
LINE
  5
10A6
330
2
100
AcDbEntity
  8
image
100
AcDbLine
 10
10.07661926823702
 20
5.491059512200301
 30
0.0
 11
10.07661926823702
 21
5.348907414653254
 31
0.0
  0
LINE
  5
10A7
330
2
100
AcDbEntity
  8
image
100
AcDbLine
 10
10.15385524123758
 20
5.197752350928233
 30
0.0
 11
10.20123927375327
 21
5.197752350928233
 31
0.0
  0
ARC
  5
10A8
330
2
100
AcDbEntity
  8
image
100
AcDbCircle
 10
11.35207191031324
 20
4.49271187244625
 30
0.0
 40
0.0369513207772945
100
AcDbArc
 50
270.0
 51
0.0
  0
LINE
  5
10A9
330
2
100
AcDbEntity
  8
image
100
AcDbLine
 10
10.8985099091826
 20
4.481526779990623
 30
0.0
 11
10.8985099091826
 21
4.443451503298916
 31
0.0
  0
LINE
  5
10AA
330
2
100
AcDbEntity
  8
image
100
AcDbLine
 10
10.68110058856362
 20
4.481526779990623
 30
0.0
 11
10.68110058856362
 21
4.443451503298916
 31
0.0
  0
LINE
  5
10AB
330
2
100
AcDbEntity
  8
image
100
AcDbLine
 10
10.68110058856362
 20
4.443451503298916
 30
0.0
 11
10.8985099091826
 21
4.443451503298916
 31
0.0
  0
LINE
  5
10AC
330
2
100
AcDbEntity
  8
image
100
AcDbLine
 10
11.76959937699164
 20
4.893779927049095
 30
0.0
 11
11.38902323109054
 21
4.893779927049095
 31
0.0
  0
LINE
  5
10AD
330
2
100
AcDbEntity
  8
image
100
AcDbLine
 10
11.76959937699164
 20
4.505498610549103
 30
0.0
 11
11.38902323109054
 21
4.505498610549103
 31
0.0
  0
LINE
  5
10AE
330
2
100
AcDbEntity
  8
image
100
AcDbLine
 10
11.30757846004186
 20
5.216957759681221
 30
0.0
 11
11.30757846004186
 21
5.069152476572043
 31
0.0
  0
LINE
  5
10AF
330
2
100
AcDbEntity
  8
image
100
AcDbLine
 10
10.9145820029644
 20
4.497598873772425
 30
0.0
 11
11.20284799208827
 21
4.497598873772425
 31
0.0
  0
ARC
  5
10B0
330
2
100
AcDbEntity
  8
image
100
AcDbCircle
 10
10.25716283831892
 20
6.549321793968431
 30
0.0
 40
2.077413260277443
100
AcDbArc
 50
279.0200653521827
 51
297.0792479580131
  0
LWPOLYLINE
  5
10B1
330
2
100
AcDbEntity
  8
image
100
AcDbPolyline
 90
        2
 70
     0
 43
0.0
 10
10.83325282453591
 20
5.032201155794744
 10
10.83325282453591
 20
4.699639268799096
  0
LWPOLYLINE
  5
10B2
330
2
100
AcDbEntity
  8
image
100
AcDbPolyline
 90
        2
 70
     0
 43
0.0
 10
10.75325282453591
 20
5.032201155794744
 10
10.75325282453591
 20
4.699639268799096
  0
LWPOLYLINE
  5
10B3
330
2
100
AcDbEntity
  8
image
100
AcDbPolyline
 90
        2
 70
     0
 43
0.0
 10
10.40950439949971
 20
5.032201155794744
 10
10.40950439949971
 20
4.699639268799096
  0
LINE
  5
10B4
330
2
100
AcDbEntity
  8
image
100
AcDbLine
 10
10.58286041693891
 20
4.497598873772425
 30
0.0
 11
10.66502849478182
 21
4.497598873772425
 31
0.0
  0
ARC
  5
10B5
330
2
100
AcDbEntity
  8
image
100
AcDbCircle
 10
10.78980524887311
 20
4.44314423945859
 30
0.0
 40
0.1215812912057411
100
AcDbArc
 50
141.7411440853695
 51
156.8323185779213
  0
ARC
  5
10B6
330
2
100
AcDbEntity
  8
image
100
AcDbCircle
 10
10.66502849478182
 20
4.481526779990623
 30
0.0
 40
0.0160720937818013
100
AcDbArc
 50
0.0
 51
90.0
  0
ARC
  5
10B7
330
2
100
AcDbEntity
  8
image
100
AcDbCircle
 10
10.9145820029644
 20
4.481526779990623
 30
0.0
 40
0.0160720937818013
100
AcDbArc
 50
89.99999999999991
 51
180.0
  0
ARC
  5
10B8
330
2
100
AcDbEntity
  8
image
100
AcDbCircle
 10
10.78980524887311
 20
4.44314423945859
 30
0.0
 40
0.1215812912057411
100
AcDbArc
 50
23.16768142207863
 51
66.64339045708146
  0
LINE
  5
10B9
330
2
100
AcDbEntity
  8
image
100
AcDbLine
 10
10.75325282453591
 20
4.699639268799096
 30
0.0
 11
10.83325282453591
 21
4.699639268799096
 31
0.0
  0
LINE
  5
10BA
330
2
100
AcDbEntity
  8
image
100
AcDbLine
 10
11.41625201882643
 20
4.860086331693146
 30
0.0
 11
11.41625201882643
 21
4.541433318949536
 31
0.0
  0
LINE
  5
10BB
330
2
100
AcDbEntity
  8
image
100
AcDbLine
 10
11.38902323109054
 20
4.49271187244625
 30
0.0
 11
11.38902323109054
 21
4.906566665151949
 31
0.0
  0
LINE
  5
10BC
330
2
100
AcDbEntity
  8
image
100
AcDbLine
 10
11.38902323109054
 20
4.906566665151949
 30
0.0
 11
11.38902323109054
 21
4.49271187244625
 31
0.0
  0
LWPOLYLINE
  5
10BD
330
2
100
AcDbEntity
  8
image
100
AcDbPolyline
 90
        2
 70
     0
 43
0.0
 10
11.28284799208826
 20
5.034299230253139
 10
11.28284799208826
 20
4.699639268799096
  0
LWPOLYLINE
  5
10BE
330
2
100
AcDbEntity
  8
image
100
AcDbPolyline
 90
        2
 70
     0
 43
0.0
 10
11.20284799208827
 20
5.032201155794744
 10
11.20284799208827
 20
4.799065159891625
  0
LINE
  5
10BF
330
2
100
AcDbEntity
  8
image
100
AcDbLine
 10
11.20284799208826
 20
4.699639268799096
 30
0.0
 11
11.28284799208826
 21
4.699639268799096
 31
0.0
  0
ARC
  5
10C0
330
2
100
AcDbEntity
  8
image
100
AcDbCircle
 10
11.21199173497654
 20
4.464904294557221
 30
0.0
 40
0.009143742888277
100
AcDbArc
 50
180.0000000000002
 51
270.0
  0
LINE
  5
10C1
330
2
100
AcDbEntity
  8
image
100
AcDbLine
 10
11.20284799208827
 20
4.799065159891625
 30
0.0
 11
11.20284799208827
 21
4.464904294557221
 31
0.0
  0
LINE
  5
10C2
330
2
100
AcDbEntity
  8
image
100
AcDbLine
 10
11.21199173497654
 20
4.455760551668944
 30
0.0
 11
11.35207191031324
 21
4.455760551668944
 31
0.0
  0
ARC
  5
10C3
330
2
100
AcDbEntity
  8
image
100
AcDbCircle
 10
11.35207191031324
 20
4.906566665151949
 30
0.0
 40
0.0369513207772945
100
AcDbArc
 50
0.0
 51
90.00000000000019
  0
LINE
  5
10C4
330
2
100
AcDbEntity
  8
image
100
AcDbLine
 10
11.32469677435967
 20
4.94351798592924
 30
0.0
 11
11.28284799208826
 21
4.94351798592924
 31
0.0
  0
LINE
  5
10C5
330
2
100
AcDbEntity
  8
image
100
AcDbLine
 10
11.35207191031324
 20
4.94351798592924
 30
0.0
 11
11.28284799208826
 21
4.94351798592924
 31
0.0
  0
ARC
  5
10C6
330
2
100
AcDbEntity
  8
image
100
AcDbCircle
 10
11.27062713926456
 20
5.069152476572043
 30
0.0
 40
0.0369513207772945
100
AcDbArc
 50
270.0
 51
0.0
  0
LINE
  5
10C7
330
2
100
AcDbEntity
  8
image
100
AcDbLine
 10
10.83025996915974
 20
5.903019691599553
 30
0.0
 11
11.03968138440648
 21
5.903019691599546
 31
0.0
  0
LINE
  5
10C8
330
2
100
AcDbEntity
  8
image
100
AcDbLine
 10
10.66407081818812
 20
5.678849269397396
 30
0.0
 11
10.91644912013135
 21
5.678849269397396
 31
0.0
  0
LINE
  5
10C9
330
2
100
AcDbEntity
  8
image
100
AcDbLine
 10
10.89002853525844
 20
5.327811722013102
 30
0.0
 11
10.9901788683431
 21
5.269989900247246
 31
0.0
  0
LINE
  5
10CA
330
2
100
AcDbEntity
  8
image
100
AcDbLine
 10
10.86416261071433
 20
5.3906289673345
 30
0.0
 11
10.91958959188027
 21
5.327811722013102
 31
0.0
  0
LINE
  5
10CB
330
2
100
AcDbEntity
  8
image
100
AcDbLine
 10
10.86416261071433
 20
5.466271688482315
 30
0.0
 11
11.06929111035505
 21
5.320421457857641
 31
0.0
  0
LINE
  5
10CC
330
2
100
AcDbEntity
  8
image
100
AcDbLine
 10
10.79949779935406
 20
5.327811722013102
 30
0.0
 11
10.91958959188027
 21
5.327811722013102
 31
0.0
  0
LINE
  5
10CD
330
2
100
AcDbEntity
  8
image
100
AcDbLine
 10
10.86416261071433
 20
5.678849269397396
 30
0.0
 11
10.86416261071433
 21
5.3906289673345
 31
0.0
  0
LINE
  5
10CE
330
2
100
AcDbEntity
  8
image
100
AcDbLine
 10
10.56538556363628
 20
5.74195796437084
 30
0.0
 11
10.56538556363628
 21
5.491059512200301
 31
0.0
  0
LINE
  5
10CF
330
2
100
AcDbEntity
  8
image
100
AcDbLine
 10
10.51207852705614
 20
5.74195796437084
 30
0.0
 11
10.51207852705614
 21
5.491059512200301
 31
0.0
  0
LINE
  5
10D0
330
2
100
AcDbEntity
  8
image
100
AcDbLine
 10
10.58078537420388
 20
5.491059512200301
 30
0.0
 11
10.58078537420388
 21
5.74195796437084
 31
0.0
  0
LINE
  5
10D1
330
2
100
AcDbEntity
  8
image
100
AcDbLine
 10
10.71635732760515
 20
5.678849269397396
 30
0.0
 11
10.71635732760515
 21
5.3906289673345
 31
0.0
  0
LINE
  5
10D2
330
2
100
AcDbEntity
  8
image
100
AcDbLine
 10
10.44100247828261
 20
5.74195796437084
 30
0.0
 11
10.44100247828261
 21
5.491059512200301
 31
0.0
  0
LINE
  5
10D3
330
2
100
AcDbEntity
  8
image
100
AcDbLine
 10
10.38177243763801
 20
5.74195796437084
 30
0.0
 11
10.38177243763801
 21
5.491059512200301
 31
0.0
  0
LINE
  5
10D4
330
2
100
AcDbEntity
  8
image
100
AcDbLine
 10
10.69049140306104
 20
5.327811722013102
 30
0.0
 11
10.59034106997638
 21
5.269989900247246
 31
0.0
  0
LINE
  5
10D5
330
2
100
AcDbEntity
  8
image
100
AcDbLine
 10
10.62153564216737
 20
5.491059512200301
 30
0.0
 11
10.62153564216737
 21
5.348907414653254
 31
0.0
  0
LINE
  5
10D6
330
2
100
AcDbEntity
  8
image
100
AcDbLine
 10
10.40449495564933
 20
5.491059512200301
 30
0.0
 11
10.40449495564933
 21
5.348907414653254
 31
0.0
  0
LINE
  5
10D7
330
2
100
AcDbEntity
  8
image
100
AcDbLine
 10
10.4182799602713
 20
5.491059512200301
 30
0.0
 11
10.4182799602713
 21
5.348907414653254
 31
0.0
  0
LINE
  5
10D8
330
2
100
AcDbEntity
  8
image
100
AcDbLine
 10
10.55007638410732
 20
5.320421457857641
 30
0.0
 11
10.43922242177544
 21
5.320421457857641
 31
0.0
  0
LINE
  5
10D9
330
2
100
AcDbEntity
  8
image
100
AcDbLine
 10
10.60550336527326
 20
5.253909080458498
 30
0.0
 11
10.38379544060949
 21
5.253909080458498
 31
0.0
  0
ARC
  5
10DA
330
2
100
AcDbEntity
  8
image
100
AcDbCircle
 10
10.46693591235841
 20
5.133817287932295
 30
0.0
 40
0.1521972825592481
100
AcDbArc
 50
79.50852298766863
 51
123.1113419603718
  0
LINE
  5
10DB
330
2
100
AcDbEntity
  8
image
100
AcDbLine
 10
10.43922242177544
 20
5.320421457857641
 30
0.0
 11
10.43922242177544
 21
5.28347013708035
 31
0.0
  0
LINE
  5
10DC
330
2
100
AcDbEntity
  8
image
100
AcDbLine
 10
10.38379544060949
 20
5.261299344613966
 30
0.0
 11
10.38379544060949
 21
5.253909080458498
 31
0.0
  0
LINE
  5
10DD
330
2
100
AcDbEntity
  8
image
100
AcDbLine
 10
10.58407646936772
 20
5.348907414653254
 30
0.0
 11
10.58407646936772
 21
5.27294114417215
 31
0.0
  0
LINE
  5
10DE
330
2
100
AcDbEntity
  8
image
100
AcDbLine
 10
10.55007638410732
 20
5.320421457857641
 30
0.0
 11
10.55007638410732
 21
5.28347013708035
 31
0.0
  0
LINE
  5
10DF
330
2
100
AcDbEntity
  8
image
100
AcDbLine
 10
10.60550336527326
 20
5.261299344613966
 30
0.0
 11
10.60550336527326
 21
5.253909080458498
 31
0.0
  0
LINE
  5
10E0
330
2
100
AcDbEntity
  8
image
100
AcDbLine
 10
10.49464940294138
 20
5.320421457857641
 30
0.0
 11
10.49464940294138
 21
5.28347013708035
 31
0.0
  0
ARC
  5
10E1
330
2
100
AcDbEntity
  8
image
100
AcDbCircle
 10
10.52236289352435
 20
5.133817287932295
 30
0.0
 40
0.1521972825592481
100
AcDbArc
 50
56.88865803962802
 51
100.4914770123313
  0
LWPOLYLINE
  5
10E2
330
2
100
AcDbEntity
  8
image
100
AcDbPolyline
 90
        5
 70
     0
 43
0.0
 10
10.6514539433224
 20
5.373580049588092
 10
10.65036456805771
 20
5.368346205804222
 10
10.65553376124937
 20
5.344116834561425
 10
10.65294916465354
 20
5.320493197599688
 10
10.65626692807001
 20
5.308052212164156
  0
LINE
  5
10E3
330
2
100
AcDbEntity
  8
image
100
AcDbLine
 10
10.71635732760515
 20
5.3906289673345
 30
0.0
 11
10.66093034643921
 21
5.327811722013102
 31
0.0
  0
LINE
  5
10E4
330
2
100
AcDbEntity
  8
image
100
AcDbLine
 10
10.79949779935406
 20
5.253909080458498
 30
0.0
 11
10.79949779935406
 21
5.466271688482315
 31
0.0
  0
LINE
  5
10E5
330
2
100
AcDbEntity
  8
image
100
AcDbLine
 10
10.78102213896541
 20
5.253909080458498
 30
0.0
 11
10.78102213896541
 21
5.466271688482315
 31
0.0
  0
LINE
  5
10E6
330
2
100
AcDbEntity
  8
image
100
AcDbLine
 10
10.66093034643921
 20
5.327811722013102
 30
0.0
 11
10.78102213896541
 21
5.327811722013102
 31
0.0
  0
LINE
  5
10E7
330
2
100
AcDbEntity
  8
image
100
AcDbLine
 10
10.66093034643921
 20
5.327811722013102
 30
0.0
 11
10.65757987267858
 21
5.308810241087343
 31
0.0
  0
LINE
  5
10E8
330
2
100
AcDbEntity
  8
image
100
AcDbLine
 10
10.6978816672165
 20
5.327811722013102
 30
0.0
 11
10.68864383702218
 21
5.253909080458498
 31
0.0
  0
LINE
  5
10E9
330
2
100
AcDbEntity
  8
image
100
AcDbLine
 10
10.88263827110297
 20
5.327811722013102
 30
0.0
 11
10.8918761012973
 21
5.253909080458498
 31
0.0
  0
LINE
  5
10EA
330
2
100
AcDbEntity
  8
image
100
AcDbLine
 10
10.71635732760515
 20
5.3906289673345
 30
0.0
 11
10.78102213896541
 21
5.3906289673345
 31
0.0
  0
LINE
  5
10EB
330
2
100
AcDbEntity
  8
image
100
AcDbLine
 10
10.71635732760515
 20
5.466271688482315
 30
0.0
 11
10.6514539433224
 21
5.373580049588092
 31
0.0
  0
LINE
  5
10EC
330
2
100
AcDbEntity
  8
image
100
AcDbLine
 10
10.78102213896541
 20
5.466271688482315
 30
0.0
 11
10.79949779935406
 21
5.466271688482315
 31
0.0
  0
LINE
  5
10ED
330
2
100
AcDbEntity
  8
image
100
AcDbLine
 10
10.79949779935406
 20
5.3906289673345
 30
0.0
 11
10.86416261071433
 21
5.3906289673345
 31
0.0
  0
LINE
  5
10EE
330
2
100
AcDbEntity
  8
image
100
AcDbLine
 10
10.540838553913
 20
5.903019691599546
 30
0.0
 11
10.75025996915974
 21
5.903019691599553
 31
0.0
  0
LINE
  5
10EF
330
2
100
AcDbEntity
  8
image
100
AcDbLine
 10
10.66407081818812
 20
5.678849269397396
 30
0.0
 11
10.66407081818812
 21
5.903019691599546
 31
0.0
  0
ARC
  5
10F0
330
2
100
AcDbEntity
  8
image
100
AcDbCircle
 10
11.05815704479512
 20
5.133817287932295
 30
0.0
 40
0.1521972825592481
100
AcDbArc
 50
79.50852298766863
 51
123.1113419603718
  0
LINE
  5
10F1
330
2
100
AcDbEntity
  8
image
100
AcDbLine
 10
10.97501657304621
 20
5.253909080458498
 30
0.0
 11
11.19672449770997
 21
5.253909080458498
 31
0.0
  0
LINE
  5
10F2
330
2
100
AcDbEntity
  8
image
100
AcDbLine
 10
11.03044355421215
 20
5.320421457857641
 30
0.0
 11
11.14129751654404
 21
5.320421457857641
 31
0.0
  0
LINE
  5
10F3
330
2
100
AcDbEntity
  8
image
100
AcDbLine
 10
10.91958959188027
 20
5.327811722013102
 30
0.0
 11
10.9229400656409
 21
5.308810241087343
 31
0.0
  0
LINE
  5
10F4
330
2
100
AcDbEntity
  8
image
100
AcDbLine
 10
10.97501657304621
 20
5.261299344613966
 30
0.0
 11
10.97501657304621
 21
5.253909080458498
 31
0.0
  0
LINE
  5
10F5
330
2
100
AcDbEntity
  8
image
100
AcDbLine
 10
11.03044355421215
 20
5.320421457857641
 30
0.0
 11
11.03044355421215
 21
5.28347013708035
 31
0.0
  0
LINE
  5
10F6
330
2
100
AcDbEntity
  8
image
100
AcDbLine
 10
11.19672449770997
 20
5.261299344613966
 30
0.0
 11
11.19672449770997
 21
5.253909080458498
 31
0.0
  0
LINE
  5
10F7
330
2
100
AcDbEntity
  8
image
100
AcDbLine
 10
11.14129751654404
 20
5.320421457857641
 30
0.0
 11
11.14129751654404
 21
5.28347013708035
 31
0.0
  0
LINE
  5
10F8
330
2
100
AcDbEntity
  8
image
100
AcDbLine
 10
11.08587053537809
 20
5.320421457857641
 30
0.0
 11
11.08587053537809
 21
5.28347013708035
 31
0.0
  0
ARC
  5
10F9
330
2
100
AcDbEntity
  8
image
100
AcDbCircle
 10
11.11358402596106
 20
5.133817287932295
 30
0.0
 40
0.1521972825592481
100
AcDbArc
 50
56.88865803962802
 51
100.4914770123313
  0
ARC
  5
10FA
330
2
100
AcDbEntity
  8
image
100
AcDbCircle
 10
11.27062713926456
 20
5.216957759681221
 30
0.0
 40
0.0369513207772945
100
AcDbArc
 50
0.0
 51
90.0
  0
LINE
  5
10FB
330
2
100
AcDbEntity
  8
image
100
AcDbLine
 10
10.91644912013135
 20
5.678849269397396
 30
0.0
 11
10.91644912013135
 21
5.903019691599546
 31
0.0
  0
TEXT
  5
1222
330
2
100
AcDbEntity
  8
image
100
AcDbText
 10
9.522097205377516
 20
6.340050965042822
 30
0.0
 40
0.125
  1
SOLENOID WIRE
  7
arial
100
AcDbText
  0
POLYLINE
  5
1271
330
2
100
AcDbEntity
  8
image
100
AcDb2dPolyline
 66
     1
 10
0.0
 20
0.0
 30
0.0
  0
VERTEX
  5
1272
330
1271
100
AcDbEntity
  8
image
100
AcDbVertex
100
AcDb2dVertex
 10
8.468889341350031
 20
6.495862003820604
 30
0.0
  0
VERTEX
  5
1273
330
1271
100
AcDbEntity
  8
image
100
AcDbVertex
100
AcDb2dVertex
 10
8.500079727164258
 20
6.495386403670405
 30
0.0
  0
VERTEX
  5
1274
330
1271
100
AcDbEntity
  8
image
100
AcDbVertex
100
AcDb2dVertex
 10
8.529951013804417
 20
6.493898892446868
 30
0.0
  0
VERTEX
  5
1275
330
1271
100
AcDbEntity
  8
image
100
AcDbVertex
100
AcDb2dVertex
 10
8.559988475830401
 20
6.491308403990586
 30
0.0
  0
VERTEX
  5
1276
330
1271
100
AcDbEntity
  8
image
100
AcDbVertex
100
AcDb2dVertex
 10
8.5916773878021
 20
6.487523872142158
 30
0.0
  0
VERTEX
  5
1277
330
1271
100
AcDbEntity
  8
image
100
AcDbVertex
100
AcDb2dVertex
 10
8.626503024279415
 20
6.48245423074217
 30
0.0
  0
VERTEX
  5
1278
330
1271
100
AcDbEntity
  8
image
100
AcDbVertex
100
AcDb2dVertex
 10
8.665950659822236
 20
6.476008413631223
 30
0.0
  0
VERTEX
  5
1279
330
1271
100
AcDbEntity
  8
image
100
AcDbVertex
100
AcDb2dVertex
 10
8.711505568990453
 20
6.468095354649904
 30
0.0
  0
VERTEX
  5
127A
330
1271
100
AcDbEntity
  8
image
100
AcDbVertex
100
AcDb2dVertex
 10
8.764653026343967
 20
6.458623987638812
 30
0.0
  0
VERTEX
  5
127B
330
1271
100
AcDbEntity
  8
image
100
AcDbVertex
100
AcDb2dVertex
 10
8.82633751619921
 20
6.447561177864329
 30
0.0
  0
VERTEX
  5
127C
330
1271
100
AcDbEntity
  8
image
100
AcDbVertex
100
AcDb2dVertex
 10
8.929733065959958
 20
6.428836009220278
 30
0.0
  0
SEQEND
  5
127D
330
1271
100
AcDbEntity
  8
image
  0
POLYLINE
  5
127E
330
2
100
AcDbEntity
  8
image
100
AcDb2dPolyline
 66
     1
 10
0.0
 20
0.0
 30
0.0
  0
VERTEX
  5
127F
330
127E
100
AcDbEntity
  8
image
100
AcDbVertex
100
AcDb2dVertex
 10
8.468889341350031
 20
6.458847193643499
 30
0.0
  0
VERTEX
  5
1280
330
127E
100
AcDbEntity
  8
image
100
AcDbVertex
100
AcDb2dVertex
 10
8.498950689604715
 20
6.458384145798049
 30
0.0
  0
VERTEX
  5
1281
330
127E
100
AcDbEntity
  8
image
100
AcDbVertex
100
AcDb2dVertex
 10
8.527828939437384
 20
6.456931291031906
 30
0.0
  0
VERTEX
  5
1282
330
127E
100
AcDbEntity
  8
image
100
AcDbVertex
100
AcDb2dVertex
 10
8.556997740907636
 20
6.454393062500379
 30
0.0
  0
VERTEX
  5
1283
330
127E
100
AcDbEntity
  8
image
100
AcDbVertex
100
AcDb2dVertex
 10
8.58793074407508
 20
6.450673893358779
 30
0.0
  0
VERTEX
  5
1284
330
127E
100
AcDbEntity
  8
image
100
AcDbVertex
100
AcDb2dVertex
 10
8.622101598999314
 20
6.445678216762413
 30
0.0
  0
VERTEX
  5
1285
330
127E
100
AcDbEntity
  8
image
100
AcDbVertex
100
AcDb2dVertex
 10
8.660983955739943
 20
6.439310465866597
 30
0.0
  0
VERTEX
  5
1286
330
127E
100
AcDbEntity
  8
image
100
AcDbVertex
100
AcDb2dVertex
 10
8.706051464356576
 20
6.431475073826636
 30
0.0
  0
VERTEX
  5
1287
330
127E
100
AcDbEntity
  8
image
100
AcDbVertex
100
AcDb2dVertex
 10
8.758777774908811
 20
6.422076473797837
 30
0.0
  0
VERTEX
  5
1288
330
127E
100
AcDbEntity
  8
image
100
AcDbVertex
100
AcDb2dVertex
 10
8.820095636577192
 20
6.41107824082178
 30
0.0
  0
VERTEX
  5
1289
330
127E
100
AcDbEntity
  8
image
100
AcDbVertex
100
AcDb2dVertex
 10
8.885121981970531
 20
6.399339808070815
 30
0.0
  0
SEQEND
  5
128A
330
127E
100
AcDbEntity
  8
image
  0
LINE
  5
12A4
330
2
100
AcDbEntity
  8
image
100
AcDbLine
 10
10.83025996915974
 20
6.041587144514409
 30
0.0
 11
11.03968138440648
 21
6.041587144514402
 31
0.0
  0
LINE
  5
12A5
330
2
100
AcDbEntity
  8
image
100
AcDbLine
 10
10.540838553913
 20
6.041587144514402
 30
0.0
 11
10.75025996915974
 21
6.041587144514409
 31
0.0
  0
LINE
  5
12A6
330
2
100
AcDbEntity
  8
image
100
AcDbLine
 10
10.86393175430346
 20
6.041587144514402
 30
0.0
 11
10.86393175430346
 21
6.115489786068991
 31
0.0
  0
LINE
  5
12A7
330
2
100
AcDbEntity
  8
image
100
AcDbLine
 10
10.71567874344276
 20
6.041587144514402
 30
0.0
 11
10.71567874344276
 21
6.115489786068991
 31
0.0
  0
LINE
  5
12A8
330
2
100
AcDbEntity
  8
image
100
AcDbLine
 10
10.75025996915974
 20
6.001299208692742
 30
0.0
 11
10.83025996915974
 21
6.001299208692742
 31
0.0
  0
LINE
  5
12A9
330
2
100
AcDbEntity
  8
image
100
AcDbLine
 10
10.75025996915974
 20
5.943307627421205
 30
0.0
 11
10.83025996915974
 21
5.943307627421212
 31
0.0
  0
LINE
  5
12AA
330
2
100
AcDbEntity
  8
image
100
AcDbLine
 10
10.71567874344276
 20
6.115489786068991
 30
0.0
 11
10.86393175430346
 21
6.115489786068991
 31
0.0
  0
POLYLINE
  5
16A6
330
2
100
AcDbEntity
  8
image
100
AcDb2dPolyline
 66
     1
 10
0.0
 20
0.0
 30
0.0
  0
VERTEX
  5
16A7
330
16A6
100
AcDbEntity
  8
image
100
AcDbVertex
100
AcDb2dVertex
 10
8.468889341350028
 20
9.161915191452338
 30
0.0
  0
VERTEX
  5
16A8
330
16A6
100
AcDbEntity
  8
image
100
AcDbVertex
100
AcDb2dVertex
 10
8.500079727164255
 20
9.161439591302139
 30
0.0
  0
VERTEX
  5
16A9
330
16A6
100
AcDbEntity
  8
image
100
AcDbVertex
100
AcDb2dVertex
 10
8.529951013804414
 20
9.159952080078602
 30
0.0
  0
VERTEX
  5
16AA
330
16A6
100
AcDbEntity
  8
image
100
AcDbVertex
100
AcDb2dVertex
 10
8.559988475830397
 20
9.15736159162232
 30
0.0
  0
VERTEX
  5
16AB
330
16A6
100
AcDbEntity
  8
image
100
AcDbVertex
100
AcDb2dVertex
 10
8.591677387802096
 20
9.153577059773892
 30
0.0
  0
VERTEX
  5
16AC
330
16A6
100
AcDbEntity
  8
image
100
AcDbVertex
100
AcDb2dVertex
 10
8.626503024279411
 20
9.148507418373904
 30
0.0
  0
VERTEX
  5
16AD
330
16A6
100
AcDbEntity
  8
image
100
AcDbVertex
100
AcDb2dVertex
 10
8.665950659822232
 20
9.142061601262957
 30
0.0
  0
VERTEX
  5
16AE
330
16A6
100
AcDbEntity
  8
image
100
AcDbVertex
100
AcDb2dVertex
 10
8.71150556899045
 20
9.134148542281637
 30
0.0
  0
VERTEX
  5
16AF
330
16A6
100
AcDbEntity
  8
image
100
AcDbVertex
100
AcDb2dVertex
 10
8.764653026343964
 20
9.124677175270546
 30
0.0
  0
VERTEX
  5
16B0
330
16A6
100
AcDbEntity
  8
image
100
AcDbVertex
100
AcDb2dVertex
 10
8.826337516199206
 20
9.113614365496063
 30
0.0
  0
VERTEX
  5
16B1
330
16A6
100
AcDbEntity
  8
image
100
AcDbVertex
100
AcDb2dVertex
 10
8.930533733399485
 20
9.094743241763151
 30
0.0
  0
SEQEND
  5
16B2
330
16A6
100
AcDbEntity
  8
image
  0
POLYLINE
  5
16B3
330
2
100
AcDbEntity
  8
image
100
AcDb2dPolyline
 66
     1
 10
0.0
 20
0.0
 30
0.0
  0
VERTEX
  5
16B4
330
16B3
100
AcDbEntity
  8
image
100
AcDbVertex
100
AcDb2dVertex
 10
8.930533733399485
 20
9.094743241763151
 30
0.0
  0
VERTEX
  5
16B5
330
16B3
100
AcDbEntity
  8
image
100
AcDbVertex
100
AcDb2dVertex
 10
8.969902096541918
 20
9.087566712960926
 30
0.0
  0
VERTEX
  5
16B6
330
16B3
100
AcDbEntity
  8
image
100
AcDbVertex
100
AcDb2dVertex
 10
9.048263253227709
 20
9.073094914990965
 30
0.0
  0
VERTEX
  5
16B7
330
16B3
100
AcDbEntity
  8
image
100
AcDbVertex
100
AcDb2dVertex
 10
9.12866436505535
 20
9.057999832413207
 30
0.0
  0
VERTEX
  5
16B8
330
16B3
100
AcDbEntity
  8
image
100
AcDbVertex
100
AcDb2dVertex
 10
9.209345965124001
 20
9.04253798762299
 30
0.0
  0
VERTEX
  5
16B9
330
16B3
100
AcDbEntity
  8
image
100
AcDbVertex
100
AcDb2dVertex
 10
9.288548586532829
 20
9.026965903015662
 30
0.0
  0
VERTEX
  5
16BA
330
16B3
100
AcDbEntity
  8
image
100
AcDbVertex
100
AcDb2dVertex
 10
9.364512762380993
 20
9.011540100986566
 30
0.0
  0
VERTEX
  5
16BB
330
16B3
100
AcDbEntity
  8
image
100
AcDbVertex
100
AcDb2dVertex
 10
9.435873079837474
 20
8.996441958487812
 30
0.0
  0
VERTEX
  5
16BC
330
16B3
100
AcDbEntity
  8
image
100
AcDbVertex
100
AcDb2dVertex
 10
9.502840342350449
 20
8.981552270698534
 30
0.0
  0
VERTEX
  5
16BD
330
16B3
100
AcDbEntity
  8
image
100
AcDbVertex
100
AcDb2dVertex
 10
9.566019407437909
 20
8.966676687354622
 30
0.0
  0
VERTEX
  5
16BE
330
16B3
100
AcDbEntity
  8
image
100
AcDbVertex
100
AcDb2dVertex
 10
9.626015132617848
 20
8.951620858191978
 30
0.0
  0
VERTEX
  5
16BF
330
16B3
100
AcDbEntity
  8
image
100
AcDbVertex
100
AcDb2dVertex
 10
9.683432375408251
 20
8.936190432946494
 30
0.0
  0
VERTEX
  5
16C0
330
16B3
100
AcDbEntity
  8
image
100
AcDbVertex
100
AcDb2dVertex
 10
9.738875993327116
 20
8.920191061354069
 30
0.0
  0
VERTEX
  5
16C1
330
16B3
100
AcDbEntity
  8
image
100
AcDbVertex
100
AcDb2dVertex
 10
9.79295084389243
 20
8.903428393150592
 30
0.0
  0
VERTEX
  5
16C2
330
16B3
100
AcDbEntity
  8
image
100
AcDbVertex
100
AcDb2dVertex
 10
9.846261784622186
 20
8.885708078071965
 30
0.0
  0
VERTEX
  5
16C3
330
16B3
100
AcDbEntity
  8
image
100
AcDbVertex
100
AcDb2dVertex
 10
9.899210032375904
 20
8.866912165651887
 30
0.0
  0
VERTEX
  5
16C4
330
16B3
100
AcDbEntity
  8
image
100
AcDbVertex
100
AcDb2dVertex
 10
9.951382241379253
 20
8.847228304615315
 30
0.0
  0
VERTEX
  5
16C5
330
16B3
100
AcDbEntity
  8
image
100
AcDbVertex
100
AcDb2dVertex
 10
10.00216142519943
 20
8.826920543485003
 30
0.0
  0
VERTEX
  5
16C6
330
16B3
100
AcDbEntity
  8
image
100
AcDbVertex
100
AcDb2dVertex
 10
10.05093059740363
 20
8.806252930783715
 30
0.0
  0
VERTEX
  5
16C7
330
16B3
100
AcDbEntity
  8
image
100
AcDbVertex
100
AcDb2dVertex
 10
10.09707277155905
 20
8.785489515034209
 30
0.0
  0
VERTEX
  5
16C8
330
16B3
100
AcDbEntity
  8
image
100
AcDbVertex
100
AcDb2dVertex
 10
10.13997096123289
 20
8.764894344759243
 30
0.0
  0
VERTEX
  5
16C9
330
16B3
100
AcDbEntity
  8
image
100
AcDbVertex
100
AcDb2dVertex
 10
10.17900817999235
 20
8.74473146848158
 30
0.0
  0
VERTEX
  5
16CA
330
16B3
100
AcDbEntity
  8
image
100
AcDbVertex
100
AcDb2dVertex
 10
10.21356744140463
 20
8.725264934723982
 30
0.0
  0
VERTEX
  5
16CB
330
16B3
100
AcDbEntity
  8
image
100
AcDbVertex
100
AcDb2dVertex
 10
10.24323115211156
 20
8.706672204203735
 30
0.0
  0
VERTEX
  5
16CC
330
16B3
100
AcDbEntity
  8
image
100
AcDbVertex
100
AcDb2dVertex
 10
10.26837929105355
 20
8.688784386416243
 30
0.0
  0
VERTEX
  5
16CD
330
16B3
100
AcDbEntity
  8
image
100
AcDbVertex
100
AcDb2dVertex
 10
10.28959123024564
 20
8.671346003051445
 30
0.0
  0
VERTEX
  5
16CE
330
16B3
100
AcDbEntity
  8
image
100
AcDbVertex
100
AcDb2dVertex
 10
10.30744634170287
 20
8.654101575799272
 30
0.0
  0
VERTEX
  5
16CF
330
16B3
100
AcDbEntity
  8
image
100
AcDbVertex
100
AcDb2dVertex
 10
10.32252399744028
 20
8.636795626349657
 30
0.0
  0
VERTEX
  5
16D0
330
16B3
100
AcDbEntity
  8
image
100
AcDbVertex
100
AcDb2dVertex
 10
10.33540356947291
 20
8.619172676392539
 30
0.0
  0
VERTEX
  5
16D1
330
16B3
100
AcDbEntity
  8
image
100
AcDbVertex
100
AcDb2dVertex
 10
10.34666442981582
 20
8.60097724761785
 30
0.0
  0
VERTEX
  5
16D2
330
16B3
100
AcDbEntity
  8
image
100
AcDbVertex
100
AcDb2dVertex
 10
10.35688595048404
 20
8.581953861715527
 30
0.0
  0
VERTEX
  5
16D3
330
16B3
100
AcDbEntity
  8
image
100
AcDbVertex
100
AcDb2dVertex
 10
10.36651857048199
 20
8.561922642389772
 30
0.0
  0
VERTEX
  5
16D4
330
16B3
100
AcDbEntity
  8
image
100
AcDbVertex
100
AcDb2dVertex
 10
10.37549699677158
 20
8.541006121401897
 30
0.0
  0
VERTEX
  5
16D5
330
16B3
100
AcDbEntity
  8
image
100
AcDbVertex
100
AcDb2dVertex
 10
10.3836270033041
 20
8.519402432527479
 30
0.0
  0
VERTEX
  5
16D6
330
16B3
100
AcDbEntity
  8
image
100
AcDbVertex
100
AcDb2dVertex
 10
10.39071436403085
 20
8.497309709542102
 30
0.0
  0
VERTEX
  5
16D7
330
16B3
100
AcDbEntity
  8
image
100
AcDbVertex
100
AcDb2dVertex
 10
10.39656485290311
 20
8.474926086221342
 30
0.0
  0
VERTEX
  5
16D8
330
16B3
100
AcDbEntity
  8
image
100
AcDbVertex
100
AcDb2dVertex
 10
10.40098424387218
 20
8.45244969634078
 30
0.0
  0
VERTEX
  5
16D9
330
16B3
100
AcDbEntity
  8
image
100
AcDbVertex
100
AcDb2dVertex
 10
10.40377831088934
 20
8.430078673675998
 30
0.0
  0
VERTEX
  5
16DA
330
16B3
100
AcDbEntity
  8
image
100
AcDbVertex
100
AcDb2dVertex
 10
10.40475282790588
 20
8.408011152002574
 30
0.0
  0
SEQEND
  5
16DB
330
16B3
100
AcDbEntity
  8
image
  0
POLYLINE
  5
16DC
330
2
100
AcDbEntity
  8
image
100
AcDb2dPolyline
 66
     1
 10
0.0
 20
0.0
 30
0.0
  0
VERTEX
  5
16DD
330
16DC
100
AcDbEntity
  8
image
100
AcDbVertex
100
AcDb2dVertex
 10
8.468889341350028
 20
9.124900381275233
 30
0.0
  0
VERTEX
  5
16DE
330
16DC
100
AcDbEntity
  8
image
100
AcDbVertex
100
AcDb2dVertex
 10
8.498950689604715
 20
9.124437333429783
 30
0.0
  0
VERTEX
  5
16DF
330
16DC
100
AcDbEntity
  8
image
100
AcDbVertex
100
AcDb2dVertex
 10
8.52782893943738
 20
9.12298447866364
 30
0.0
  0
VERTEX
  5
16E0
330
16DC
100
AcDbEntity
  8
image
100
AcDbVertex
100
AcDb2dVertex
 10
8.556997740907636
 20
9.120446250132113
 30
0.0
  0
VERTEX
  5
16E1
330
16DC
100
AcDbEntity
  8
image
100
AcDbVertex
100
AcDb2dVertex
 10
8.587930744075077
 20
9.116727080990512
 30
0.0
  0
VERTEX
  5
16E2
330
16DC
100
AcDbEntity
  8
image
100
AcDbVertex
100
AcDb2dVertex
 10
8.622101598999311
 20
9.111731404394147
 30
0.0
  0
VERTEX
  5
16E3
330
16DC
100
AcDbEntity
  8
image
100
AcDbVertex
100
AcDb2dVertex
 10
8.66098395573994
 20
9.105363653498331
 30
0.0
  0
VERTEX
  5
16E4
330
16DC
100
AcDbEntity
  8
image
100
AcDbVertex
100
AcDb2dVertex
 10
8.706051464356573
 20
9.09752826145837
 30
0.0
  0
VERTEX
  5
16E5
330
16DC
100
AcDbEntity
  8
image
100
AcDbVertex
100
AcDb2dVertex
 10
8.758777774908807
 20
9.088129661429571
 30
0.0
  0
VERTEX
  5
16E6
330
16DC
100
AcDbEntity
  8
image
100
AcDbVertex
100
AcDb2dVertex
 10
8.820095636577189
 20
9.077131428453514
 30
0.0
  0
VERTEX
  5
16E7
330
16DC
100
AcDbEntity
  8
image
100
AcDbVertex
100
AcDb2dVertex
 10
8.886040264245146
 20
9.065227229124987
 30
0.0
  0
SEQEND
  5
16E8
330
16DC
100
AcDbEntity
  8
image
  0
POLYLINE
  5
16E9
330
2
100
AcDbEntity
  8
image
100
AcDb2dPolyline
 66
     1
 10
0.0
 20
0.0
 30
0.0
  0
VERTEX
  5
16EA
330
16E9
100
AcDbEntity
  8
image
100
AcDbVertex
100
AcDb2dVertex
 10
8.886040264245146
 20
9.065227229124987
 30
0.0
  0
VERTEX
  5
16EB
330
16E9
100
AcDbEntity
  8
image
100
AcDbVertex
100
AcDb2dVertex
 10
8.96304169504064
 20
9.051195775892241
 30
0.0
  0
VERTEX
  5
16EC
330
16E9
100
AcDbEntity
  8
image
100
AcDbVertex
100
AcDb2dVertex
 10
9.04112638140624
 20
9.036776925252739
 30
0.0
  0
VERTEX
  5
16ED
330
16E9
100
AcDbEntity
  8
image
100
AcDbVertex
100
AcDb2dVertex
 10
9.12125649890811
 20
9.021736437671131
 30
0.0
  0
VERTEX
  5
16EE
330
16E9
100
AcDbEntity
  8
image
100
AcDbVertex
100
AcDb2dVertex
 10
9.201660292331517
 20
9.006333597620274
 30
0.0
  0
VERTEX
  5
16EF
330
16E9
100
AcDbEntity
  8
image
100
AcDbVertex
100
AcDb2dVertex
 10
9.280566006461729
 20
8.990827689573022
 30
0.0
  0
VERTEX
  5
16F0
330
16E9
100
AcDbEntity
  8
image
100
AcDbVertex
100
AcDb2dVertex
 10
9.356201886084004
 20
8.975477998002228
 30
0.0
  0
VERTEX
  5
16F1
330
16E9
100
AcDbEntity
  8
image
100
AcDbVertex
100
AcDb2dVertex
 10
9.427190818995139
 20
8.960469216691871
 30
0.0
  0
VERTEX
  5
16F2
330
16E9
100
AcDbEntity
  8
image
100
AcDbVertex
100
AcDb2dVertex
 10
9.493734265038021
 20
8.94568767667045
 30
0.0
  0
VERTEX
  5
16F3
330
16E9
100
AcDbEntity
  8
image
100
AcDbVertex
100
AcDb2dVertex
 10
9.556428327067049
 20
8.930945118277582
 30
0.0
  0
VERTEX
  5
16F4
330
16E9
100
AcDbEntity
  8
image
100
AcDbVertex
100
AcDb2dVertex
 10
9.615869107936642
 20
8.916053281852887
 30
0.0
  0
VERTEX
  5
16F5
330
16E9
100
AcDbEntity
  8
image
100
AcDbVertex
100
AcDb2dVertex
 10
9.6726527105012
 20
8.900823907735984
 30
0.0
  0
VERTEX
  5
16F6
330
16E9
100
AcDbEntity
  8
image
100
AcDbVertex
100
AcDb2dVertex
 10
9.727375237615131
 20
8.885068736266498
 30
0.0
  0
VERTEX
  5
16F7
330
16E9
100
AcDbEntity
  8
image
100
AcDbVertex
100
AcDb2dVertex
 10
9.780632792132845
 20
8.868599507784042
 30
0.0
  0
VERTEX
  5
16F8
330
16E9
100
AcDbEntity
  8
image
100
AcDbVertex
100
AcDb2dVertex
 10
9.833021476908751
 20
8.851227962628241
 30
0.0
  0
VERTEX
  5
16F9
330
16E9
100
AcDbEntity
  8
image
100
AcDbVertex
100
AcDb2dVertex
 10
9.884938188717274
 20
8.832842364453584
 30
0.0
  0
VERTEX
  5
16FA
330
16E9
100
AcDbEntity
  8
image
100
AcDbVertex
100
AcDb2dVertex
 10
9.93598300001291
 20
8.81363707017404
 30
0.0
  0
VERTEX
  5
16FB
330
16E9
100
AcDbEntity
  8
image
100
AcDbVertex
100
AcDb2dVertex
 10
9.985556777170174
 20
8.793882960018448
 30
0.0
  0
VERTEX
  5
16FC
330
16E9
100
AcDbEntity
  8
image
100
AcDbVertex
100
AcDb2dVertex
 10
10.03306038656357
 20
8.773850914215648
 30
0.0
  0
VERTEX
  5
16FD
330
16E9
100
AcDbEntity
  8
image
100
AcDbVertex
100
AcDb2dVertex
 10
10.07789469456763
 20
8.753811812994483
 30
0.0
  0
VERTEX
  5
16FE
330
16E9
100
AcDbEntity
  8
image
100
AcDbVertex
100
AcDb2dVertex
 10
10.11946056755685
 20
8.734036536583788
 30
0.0
  0
VERTEX
  5
16FF
330
16E9
100
AcDbEntity
  8
image
100
AcDbVertex
100
AcDb2dVertex
 10
10.15715887190576
 20
8.714795965212401
 30
0.0
  0
VERTEX
  5
1700
330
16E9
100
AcDbEntity
  8
image
100
AcDbVertex
100
AcDb2dVertex
 10
10.19039047398886
 20
8.696360979109167
 30
0.0
  0
VERTEX
  5
1701
330
16E9
100
AcDbEntity
  8
image
100
AcDbVertex
100
AcDb2dVertex
 10
10.21875325643428
 20
8.678913953707633
 30
0.0
  0
VERTEX
  5
1702
330
16E9
100
AcDbEntity
  8
image
100
AcDbVertex
100
AcDb2dVertex
 10
10.24263316688462
 20
8.662283245260192
 30
0.0
  0
VERTEX
  5
1703
330
16E9
100
AcDbEntity
  8
image
100
AcDbVertex
100
AcDb2dVertex
 10
10.2626131692361
 20
8.646208705223946
 30
0.0
  0
VERTEX
  5
1704
330
16E9
100
AcDbEntity
  8
image
100
AcDbVertex
100
AcDb2dVertex
 10
10.27927622738492
 20
8.630430185056001
 30
0.0
  0
VERTEX
  5
1705
330
16E9
100
AcDbEntity
  8
image
100
AcDbVertex
100
AcDb2dVertex
 10
10.29320530522731
 20
8.614687536213457
 30
0.0
  0
VERTEX
  5
1706
330
16E9
100
AcDbEntity
  8
image
100
AcDbVertex
100
AcDb2dVertex
 10
10.30498336665947
 20
8.598720610153419
 30
0.0
  0
VERTEX
  5
1707
330
16E9
100
AcDbEntity
  8
image
100
AcDbVertex
100
AcDb2dVertex
 10
10.31519337557762
 20
8.58226925833299
 30
0.0
  0
VERTEX
  5
1708
330
16E9
100
AcDbEntity
  8
image
100
AcDbVertex
100
AcDb2dVertex
 10
10.32441829587798
 20
8.565073332209268
 30
0.0
  0
VERTEX
  5
1709
330
16E9
100
AcDbEntity
  8
image
100
AcDbVertex
100
AcDb2dVertex
 10
10.33311419278906
 20
8.546947932709775
 30
0.0
  0
VERTEX
  5
170A
330
16E9
100
AcDbEntity
  8
image
100
AcDbVertex
100
AcDb2dVertex
 10
10.34122953686863
 20
8.528009158643646
 30
0.0
  0
VERTEX
  5
170B
330
16E9
100
AcDbEntity
  8
image
100
AcDbVertex
100
AcDb2dVertex
 10
10.34858590000678
 20
8.508448358290438
 30
0.0
  0
VERTEX
  5
170C
330
16E9
100
AcDbEntity
  8
image
100
AcDbVertex
100
AcDb2dVertex
 10
10.35500485409357
 20
8.488456879929708
 30
0.0
  0
VERTEX
  5
170D
330
16E9
100
AcDbEntity
  8
image
100
AcDbVertex
100
AcDb2dVertex
 10
10.36030797101909
 20
8.468226071841
 30
0.0
  0
VERTEX
  5
170E
330
16E9
100
AcDbEntity
  8
image
100
AcDbVertex
100
AcDb2dVertex
 10
10.36431682267341
 20
8.447947282303873
 30
0.0
  0
VERTEX
  5
170F
330
16E9
100
AcDbEntity
  8
image
100
AcDbVertex
100
AcDb2dVertex
 10
10.36685298094662
 20
8.427811859597882
 30
0.0
  0
VERTEX
  5
1710
330
16E9
100
AcDbEntity
  8
image
100
AcDbVertex
100
AcDb2dVertex
 10
10.36773801772878
 20
8.408011152002574
 30
0.0
  0
SEQEND
  5
1711
330
16E9
100
AcDbEntity
  8
image
  0
POLYLINE
  5
172A
330
2
100
AcDbEntity
  8
image
 62
    34
100
AcDb2dPolyline
 66
     1
 10
0.0
 20
0.0
 30
0.0
 40
0.037
 41
0.037
  0
VERTEX
  5
172B
330
172A
100
AcDbEntity
  8
image
 62
    34
100
AcDbVertex
100
AcDb2dVertex
 10
6.421118381047762
 20
3.564324954094326
 30
0.0
  0
VERTEX
  5
172C
330
172A
100
AcDbEntity
  8
image
 62
    34
100
AcDbVertex
100
AcDb2dVertex
 10
6.421234265904711
 20
3.604937352032171
 30
0.0
  0
VERTEX
  5
172D
330
172A
100
AcDbEntity
  8
image
 62
    34
100
AcDbVertex
100
AcDb2dVertex
 10
6.423006177308083
 20
3.885288025170317
 30
0.0
  0
VERTEX
  5
172E
330
172A
100
AcDbEntity
  8
image
 62
    34
100
AcDbVertex
100
AcDb2dVertex
 10
6.425649520549182
 20
4.095564031536424
 30
0.0
  0
VERTEX
  5
172F
330
172A
100
AcDbEntity
  8
image
 62
    34
100
AcDbVertex
100
AcDb2dVertex
 10
6.429338581995548
 20
4.26199685177802
 30
0.0
  0
VERTEX
  5
1730
330
172A
100
AcDbEntity
  8
image
 62
    34
100
AcDbVertex
100
AcDb2dVertex
 10
6.43424764801473
 20
4.410817966542632
 30
0.0
  0
VERTEX
  5
1731
330
172A
100
AcDbEntity
  8
image
 62
    34
100
AcDbVertex
100
AcDb2dVertex
 10
6.440497200226801
 20
4.563514557595823
 30
0.0
  0
VERTEX
  5
1732
330
172A
100
AcDbEntity
  8
image
 62
    34
100
AcDbVertex
100
AcDb2dVertex
 10
6.447992501261964
 20
4.722596611175312
 30
0.0
  0
VERTEX
  5
1733
330
172A
100
AcDbEntity
  8
image
 62
    34
100
AcDbVertex
100
AcDb2dVertex
 10
6.456585009002946
 20
4.885829814636855
 30
0.0
  0
VERTEX
  5
1734
330
172A
100
AcDbEntity
  8
image
 62
    34
100
AcDbVertex
100
AcDb2dVertex
 10
6.46612618133248
 20
5.050979855336208
 30
0.0
  0
VERTEX
  5
1735
330
172A
100
AcDbEntity
  8
image
 62
    34
100
AcDbVertex
100
AcDb2dVertex
 10
6.476467476133294
 20
5.215812420629127
 30
0.0
  0
VERTEX
  5
1736
330
172A
100
AcDbEntity
  8
image
 62
    34
100
AcDbVertex
100
AcDb2dVertex
 10
6.487460351288124
 20
5.378093197871367
 30
0.0
  0
VERTEX
  5
1737
330
172A
100
AcDbEntity
  8
image
 62
    34
100
AcDbVertex
100
AcDb2dVertex
 10
6.498956264679694
 20
5.535587874418686
 30
0.0
  0
VERTEX
  5
1738
330
172A
100
AcDbEntity
  8
image
 62
    34
100
AcDbVertex
100
AcDb2dVertex
 10
6.510806674190739
 20
5.686062137626837
 30
0.0
  0
VERTEX
  5
1739
330
172A
100
AcDbEntity
  8
image
 62
    34
100
AcDbVertex
100
AcDb2dVertex
 10
6.52289017172394
 20
5.827986833396453
 30
0.0
  0
VERTEX
  5
173A
330
172A
100
AcDbEntity
  8
image
 62
    34
100
AcDbVertex
100
AcDb2dVertex
 10
6.535193885261783
 20
5.962653441807654
 30
0.0
  0
VERTEX
  5
173B
330
172A
100
AcDbEntity
  8
image
 62
    34
100
AcDbVertex
100
AcDb2dVertex
 10
6.547732076806703
 20
6.092058601485437
 30
0.0
  0
VERTEX
  5
173C
330
172A
100
AcDbEntity
  8
image
 62
    34
100
AcDbVertex
100
AcDb2dVertex
 10
6.560519008361136
 20
6.218198951054795
 30
0.0
  0
VERTEX
  5
173D
330
172A
100
AcDbEntity
  8
image
 62
    34
100
AcDbVertex
100
AcDb2dVertex
 10
6.573568941927524
 20
6.343071129140724
 30
0.0
  0
VERTEX
  5
173E
330
172A
100
AcDbEntity
  8
image
 62
    34
100
AcDbVertex
100
AcDb2dVertex
 10
6.586896139508299
 20
6.468671774368219
 30
0.0
  0
VERTEX
  5
173F
330
172A
100
AcDbEntity
  8
image
 62
    34
100
AcDbVertex
100
AcDb2dVertex
 10
6.6005148631059
 20
6.596997525362278
 30
0.0
  0
VERTEX
  5
1740
330
172A
100
AcDbEntity
  8
image
 62
    34
100
AcDbVertex
100
AcDb2dVertex
 10
6.614439374722763
 20
6.730045020747892
 30
0.0
  0
VERTEX
  5
1741
330
172A
100
AcDbEntity
  8
image
 62
    34
100
AcDbVertex
100
AcDb2dVertex
 10
6.628659333700841
 20
6.869140429540449
 30
0.0
  0
VERTEX
  5
1742
330
172A
100
AcDbEntity
  8
image
 62
    34
100
AcDbVertex
100
AcDb2dVertex
 10
6.643065988740158
 20
7.012928042316897
 30
0.0
  0
VERTEX
  5
1743
330
172A
100
AcDbEntity
  8
image
 62
    34
100
AcDbVertex
100
AcDb2dVertex
 10
6.657525985880251
 20
7.159381680044576
 30
0.0
  0
VERTEX
  5
1744
330
172A
100
AcDbEntity
  8
image
 62
    34
100
AcDbVertex
100
AcDb2dVertex
 10
6.67190597116066
 20
7.306475163690826
 30
0.0
  0
VERTEX
  5
1745
330
172A
100
AcDbEntity
  8
image
 62
    34
100
AcDbVertex
100
AcDb2dVertex
 10
6.686072590620925
 20
7.452182314222985
 30
0.0
  0
VERTEX
  5
1746
330
172A
100
AcDbEntity
  8
image
 62
    34
100
AcDbVertex
100
AcDb2dVertex
 10
6.699892490300587
 20
7.594476952608394
 30
0.0
  0
VERTEX
  5
1747
330
172A
100
AcDbEntity
  8
image
 62
    34
100
AcDbVertex
100
AcDb2dVertex
 10
6.713232316239182
 20
7.73133289981439
 30
0.0
  0
VERTEX
  5
1748
330
172A
100
AcDbEntity
  8
image
 62
    34
100
AcDbVertex
100
AcDb2dVertex
 10
6.72595871447625
 20
7.860723976808314
 30
0.0
  0
VERTEX
  5
1749
330
172A
100
AcDbEntity
  8
image
 62
    34
100
AcDbVertex
100
AcDb2dVertex
 10
6.737987227492737
 20
7.981006134819397
 30
0.0
  0
VERTEX
  5
174A
330
172A
100
AcDbEntity
  8
image
 62
    34
100
AcDbVertex
100
AcDb2dVertex
 10
6.749428983535217
 20
8.09206384612445
 30
0.0
  0
VERTEX
  5
174B
330
172A
100
AcDbEntity
  8
image
 62
    34
100
AcDbVertex
100
AcDb2dVertex
 10
6.760444007291669
 20
8.19416371326217
 30
0.0
  0
VERTEX
  5
174C
330
172A
100
AcDbEntity
  8
image
 62
    34
100
AcDbVertex
100
AcDb2dVertex
 10
6.771192323450069
 20
8.287572338771262
 30
0.0
  0
VERTEX
  5
174D
330
172A
100
AcDbEntity
  8
image
 62
    34
100
AcDbVertex
100
AcDb2dVertex
 10
6.781833956698395
 20
8.372556325190426
 30
0.0
  0
VERTEX
  5
174E
330
172A
100
AcDbEntity
  8
image
 62
    34
100
AcDbVertex
100
AcDb2dVertex
 10
6.792528931724628
 20
8.449382275058363
 30
0.0
  0
VERTEX
  5
174F
330
172A
100
AcDbEntity
  8
image
 62
    34
100
AcDbVertex
100
AcDb2dVertex
 10
6.803437273216749
 20
8.518316790913775
 30
0.0
  0
VERTEX
  5
1750
330
172A
100
AcDbEntity
  8
image
 62
    34
100
AcDbVertex
100
AcDb2dVertex
 10
6.814719005862732
 20
8.579626475295365
 30
0.0
  0
VERTEX
  5
1751
330
172A
100
AcDbEntity
  8
image
 62
    34
100
AcDbVertex
100
AcDb2dVertex
 10
6.826604165037199
 20
8.633623475335836
 30
0.0
  0
VERTEX
  5
1752
330
172A
100
AcDbEntity
  8
image
 62
    34
100
AcDbVertex
100
AcDb2dVertex
 10
6.839602828861332
 20
8.680802116543926
 30
0.0
  0
VERTEX
  5
1753
330
172A
100
AcDbEntity
  8
image
 62
    34
100
AcDbVertex
100
AcDb2dVertex
 10
6.854295086142954
 20
8.721702269022371
 30
0.0
  0
VERTEX
  5
1754
330
172A
100
AcDbEntity
  8
image
 62
    34
100
AcDbVertex
100
AcDb2dVertex
 10
6.871261025689889
 20
8.756863802873912
 30
0.0
  0
VERTEX
  5
1755
330
172A
100
AcDbEntity
  8
image
 62
    34
100
AcDbVertex
100
AcDb2dVertex
 10
6.891080736309955
 20
8.786826588201286
 30
0.0
  0
VERTEX
  5
1756
330
172A
100
AcDbEntity
  8
image
 62
    34
100
AcDbVertex
100
AcDb2dVertex
 10
6.914334306810982
 20
8.812130495107236
 30
0.0
  0
VERTEX
  5
1757
330
172A
100
AcDbEntity
  8
image
 62
    34
100
AcDbVertex
100
AcDb2dVertex
 10
6.941601826000788
 20
8.833315393694498
 30
0.0
  0
VERTEX
  5
1758
330
172A
100
AcDbEntity
  8
image
 62
    34
100
AcDbVertex
100
AcDb2dVertex
 10
6.973463382687199
 20
8.850921154065812
 30
0.0
  0
VERTEX
  5
1759
330
172A
100
AcDbEntity
  8
image
 62
    34
100
AcDbVertex
100
AcDb2dVertex
 10
7.010894335134382
 20
8.865401748406897
 30
0.0
  0
VERTEX
  5
175A
330
172A
100
AcDbEntity
  8
image
 62
    34
100
AcDbVertex
100
AcDb2dVertex
 10
7.056451119431901
 20
8.876867557235378
 30
0.0
  0
VERTEX
  5
175B
330
172A
100
AcDbEntity
  8
image
 62
    34
100
AcDbVertex
100
AcDb2dVertex
 10
7.11308544112567
 20
8.885343063151861
 30
0.0
  0
VERTEX
  5
175C
330
172A
100
AcDbEntity
  8
image
 62
    34
100
AcDbVertex
100
AcDb2dVertex
 10
7.183749005761598
 20
8.890852748756952
 30
0.0
  0
VERTEX
  5
175D
330
172A
100
AcDbEntity
  8
image
 62
    34
100
AcDbVertex
100
AcDb2dVertex
 10
7.271393518885592
 20
8.893421096651255
 30
0.0
  0
VERTEX
  5
175E
330
172A
100
AcDbEntity
  8
image
 62
    34
100
AcDbVertex
100
AcDb2dVertex
 10
7.378970686043565
 20
8.893072589435377
 30
0.0
  0
VERTEX
  5
175F
330
172A
100
AcDbEntity
  8
image
 62
    34
100
AcDbVertex
100
AcDb2dVertex
 10
7.509432212781431
 20
8.88983170970992
 30
0.0
  0
VERTEX
  5
1760
330
172A
100
AcDbEntity
  8
image
 62
    34
100
AcDbVertex
100
AcDb2dVertex
 10
7.665729804645096
 20
8.883722940075491
 30
0.0
  0
SEQEND
  5
1761
330
172A
100
AcDbEntity
  8
image
 62
    34
  0
POLYLINE
  5
1762
330
2
100
AcDbEntity
  8
image
 62
    34
100
AcDb2dPolyline
 66
     1
 10
0.0
 20
0.0
 30
0.0
 40
0.037
 41
0.037
  0
VERTEX
  5
1763
330
1762
100
AcDbEntity
  8
image
 62
    34
100
AcDbVertex
100
AcDb2dVertex
 10
6.372042030350574
 20
3.564324954094326
 30
0.0
  0
VERTEX
  5
1764
330
1762
100
AcDbEntity
  8
image
 62
    34
100
AcDbVertex
100
AcDb2dVertex
 10
6.370289259137518
 20
3.724595625446623
 30
0.0
  0
VERTEX
  5
1765
330
1762
100
AcDbEntity
  8
image
 62
    34
100
AcDbVertex
100
AcDb2dVertex
 10
6.369059930541396
 20
3.865765616211477
 30
0.0
  0
VERTEX
  5
1766
330
1762
100
AcDbEntity
  8
image
 62
    34
100
AcDbVertex
100
AcDb2dVertex
 10
6.36874515116013
 20
3.951391602407437
 30
0.0
  0
VERTEX
  5
1767
330
1762
100
AcDbEntity
  8
image
 62
    34
100
AcDbVertex
100
AcDb2dVertex
 10
6.369047682051871
 20
4.007971504728224
 30
0.0
  0
VERTEX
  5
1768
330
1762
100
AcDbEntity
  8
image
 62
    34
100
AcDbVertex
100
AcDb2dVertex
 10
6.369703820572212
 20
4.057727994992919
 30
0.0
  0
VERTEX
  5
1769
330
1762
100
AcDbEntity
  8
image
 62
    34
100
AcDbVertex
100
AcDb2dVertex
 10
6.370584009266519
 20
4.105782749522036
 30
0.0
  0
VERTEX
  5
176A
330
1762
100
AcDbEntity
  8
image
 62
    34
100
AcDbVertex
100
AcDb2dVertex
 10
6.371592226977593
 20
4.152982195761447
 30
0.0
  0
VERTEX
  5
176B
330
1762
100
AcDbEntity
  8
image
 62
    34
100
AcDbVertex
100
AcDb2dVertex
 10
6.372632452548245
 20
4.200172761157023
 30
0.0
  0
VERTEX
  5
176C
330
1762
100
AcDbEntity
  8
image
 62
    34
100
AcDbVertex
100
AcDb2dVertex
 10
6.373608664821276
 20
4.248200873154637
 30
0.0
  0
VERTEX
  5
176D
330
1762
100
AcDbEntity
  8
image
 62
    34
100
AcDbVertex
100
AcDb2dVertex
 10
6.374424842639491
 20
4.297912959200159
 30
0.0
  0
VERTEX
  5
176E
330
1762
100
AcDbEntity
  8
image
 62
    34
100
AcDbVertex
100
AcDb2dVertex
 10
6.374984964845696
 20
4.350155446739465
 30
0.0
  0
VERTEX
  5
176F
330
1762
100
AcDbEntity
  8
image
 62
    34
100
AcDbVertex
100
AcDb2dVertex
 10
6.375193010282696
 20
4.405774763218424
 30
0.0
  0
VERTEX
  5
1770
330
1762
100
AcDbEntity
  8
image
 62
    34
100
AcDbVertex
100
AcDb2dVertex
 10
6.375011351729579
 20
4.466028589380623
 30
0.0
  0
VERTEX
  5
1771
330
1762
100
AcDbEntity
  8
image
 62
    34
100
AcDbVertex
100
AcDb2dVertex
 10
6.374635937710568
 20
4.53381961916051
 30
0.0
  0
VERTEX
  5
1772
330
1762
100
AcDbEntity
  8
image
 62
    34
100
AcDbVertex
100
AcDb2dVertex
 10
6.37432111068616
 20
4.612461799790244
 30
0.0
  0
VERTEX
  5
1773
330
1762
100
AcDbEntity
  8
image
 62
    34
100
AcDbVertex
100
AcDb2dVertex
 10
6.374321213116864
 20
4.705269078501984
 30
0.0
  0
VERTEX
  5
1774
330
1762
100
AcDbEntity
  8
image
 62
    34
100
AcDbVertex
100
AcDb2dVertex
 10
6.374890587463182
 20
4.815555402527893
 30
0.0
  0
VERTEX
  5
1775
330
1762
100
AcDbEntity
  8
image
 62
    34
100
AcDbVertex
100
AcDb2dVertex
 10
6.376283576185615
 20
4.946634719100131
 30
0.0
  0
VERTEX
  5
1776
330
1762
100
AcDbEntity
  8
image
 62
    34
100
AcDbVertex
100
AcDb2dVertex
 10
6.378754521744667
 20
5.101820975450859
 30
0.0
  0
VERTEX
  5
1777
330
1762
100
AcDbEntity
  8
image
 62
    34
100
AcDbVertex
100
AcDb2dVertex
 10
6.382557766600845
 20
5.284428118812236
 30
0.0
  0
VERTEX
  5
1778
330
1762
100
AcDbEntity
  8
image
 62
    34
100
AcDbVertex
100
AcDb2dVertex
 10
6.387912919600584
 20
5.496149944938617
 30
0.0
  0
VERTEX
  5
1779
330
1762
100
AcDbEntity
  8
image
 62
    34
100
AcDbVertex
100
AcDb2dVertex
 10
6.394900655134083
 20
5.732199643673128
 30
0.0
  0
VERTEX
  5
177A
330
1762
100
AcDbEntity
  8
image
 62
    34
100
AcDbVertex
100
AcDb2dVertex
 10
6.403566913977474
 20
5.986170253381091
 30
0.0
  0
VERTEX
  5
177B
330
1762
100
AcDbEntity
  8
image
 62
    34
100
AcDbVertex
100
AcDb2dVertex
 10
6.413957636906888
 20
6.251654812427826
 30
0.0
  0
VERTEX
  5
177C
330
1762
100
AcDbEntity
  8
image
 62
    34
100
AcDbVertex
100
AcDb2dVertex
 10
6.426118764698459
 20
6.522246359178653
 30
0.0
  0
VERTEX
  5
177D
330
1762
100
AcDbEntity
  8
image
 62
    34
100
AcDbVertex
100
AcDb2dVertex
 10
6.440096238128321
 20
6.791537931998893
 30
0.0
  0
VERTEX
  5
177E
330
1762
100
AcDbEntity
  8
image
 62
    34
100
AcDbVertex
100
AcDb2dVertex
 10
6.455935997972606
 20
7.053122569253867
 30
0.0
  0
VERTEX
  5
177F
330
1762
100
AcDbEntity
  8
image
 62
    34
100
AcDbVertex
100
AcDb2dVertex
 10
6.473683985007445
 20
7.300593309308895
 30
0.0
  0
VERTEX
  5
1780
330
1762
100
AcDbEntity
  8
image
 62
    34
100
AcDbVertex
100
AcDb2dVertex
 10
6.493422225953171
 20
7.528827482189919
 30
0.0
  0
VERTEX
  5
1781
330
1762
100
AcDbEntity
  8
image
 62
    34
100
AcDbVertex
100
AcDb2dVertex
 10
6.515377091306909
 20
7.737839584565366
 30
0.0
  0
VERTEX
  5
1782
330
1762
100
AcDbEntity
  8
image
 62
    34
100
AcDbVertex
100
AcDb2dVertex
 10
6.539811037509977
 20
7.928928404764279
 30
0.0
  0
VERTEX
  5
1783
330
1762
100
AcDbEntity
  8
image
 62
    34
100
AcDbVertex
100
AcDb2dVertex
 10
6.566986521003704
 20
8.103392731115707
 30
0.0
  0
VERTEX
  5
1784
330
1762
100
AcDbEntity
  8
image
 62
    34
100
AcDbVertex
100
AcDb2dVertex
 10
6.597165998229407
 20
8.262531351948698
 30
0.0
  0
VERTEX
  5
1785
330
1762
100
AcDbEntity
  8
image
 62
    34
100
AcDbVertex
100
AcDb2dVertex
 10
6.630611925628411
 20
8.407643055592297
 30
0.0
  0
VERTEX
  5
1786
330
1762
100
AcDbEntity
  8
image
 62
    34
100
AcDbVertex
100
AcDb2dVertex
 10
6.667586759642038
 20
8.54002663037555
 30
0.0
  0
VERTEX
  5
1787
330
1762
100
AcDbEntity
  8
image
 62
    34
100
AcDbVertex
100
AcDb2dVertex
 10
6.70835295671161
 20
8.660980864627507
 30
0.0
  0
VERTEX
  5
1788
330
1762
100
AcDbEntity
  8
image
 62
    34
100
AcDbVertex
100
AcDb2dVertex
 10
6.754930726318843
 20
8.771348787595986
 30
0.0
  0
VERTEX
  5
1789
330
1762
100
AcDbEntity
  8
image
 62
    34
100
AcDbVertex
100
AcDb2dVertex
 10
6.816371290107021
 20
8.870150392203912
 30
0.0
  0
VERTEX
  5
178A
330
1762
100
AcDbEntity
  8
image
 62
    34
100
AcDbVertex
100
AcDb2dVertex
 10
6.90348362275982
 20
8.955949912292988
 30
0.0
  0
VERTEX
  5
178B
330
1762
100
AcDbEntity
  8
image
 62
    34
100
AcDbVertex
100
AcDb2dVertex
 10
7.027076698960915
 20
9.02731158170491
 30
0.0
  0
VERTEX
  5
178C
330
1762
100
AcDbEntity
  8
image
 62
    34
100
AcDbVertex
100
AcDb2dVertex
 10
7.197959493393986
 20
9.082799634281379
 30
0.0
  0
VERTEX
  5
178D
330
1762
100
AcDbEntity
  8
image
 62
    34
100
AcDbVertex
100
AcDb2dVertex
 10
7.426940980742706
 20
9.120978303864093
 30
0.0
  0
VERTEX
  5
178E
330
1762
100
AcDbEntity
  8
image
 62
    34
100
AcDbVertex
100
AcDb2dVertex
 10
7.724830135690753
 20
9.140411824294755
 30
0.0
  0
VERTEX
  5
178F
330
1762
100
AcDbEntity
  8
image
 62
    34
100
AcDbVertex
100
AcDb2dVertex
 10
8.102435932921803
 20
9.139664429415061
 30
0.0
  0
SEQEND
  5
1790
330
1762
100
AcDbEntity
  8
image
 62
    34
  0
TEXT
  5
1791
330
2
100
AcDbEntity
  8
image
100
AcDbText
 10
12.38121262770016
 20
7.17935032669628
 30
0.0
 40
0.125
  1
(MAXIMUM 2)
  7
arial
100
AcDbText
  0
TEXT
  5
1792
330
2
100
AcDbEntity
  8
image
100
AcDbText
 10
12.38121262770016
 20
4.37701359971964
 30
0.0
 40
0.125
  1
(MAXIMUM 2)
  7
arial
100
AcDbText
  0
TEXT
  5
17C6
330
2
100
AcDbEntity
  8
image
100
AcDbText
 10
7.744117962736474
 20
7.873691318210495
 30
0.0
 40
0.125
  1
DB SERIES WIRE
  7
arial
100
AcDbText
  0
TEXT
  5
17C7
330
2
100
AcDbEntity
  8
image
100
AcDbText
 10
7.744117962736474
 20
7.632729517391942
 30
0.0
 40
0.125
  1
CONNECTORS
  7
arial
100
AcDbText
  0
INSERT
  5
17E4
330
2
100
AcDbEntity
  8
title
100
AcDbBlockReference
 66
     1
  2
titleblock
 10
0.0
 20
0.0
 30
0.0
  0
ATTRIB
  5
17E6
330
17E4
100
AcDbEntity
  8
title
100
AcDbText
 10
0.5055556038023421
 20
0.7842270964783673
 30
0.0
 40
0.2
  1
D
  7
L200
 72
     4
 11
0.6064423705144839
 21
0.8842270964783672
 31
0.0
100
AcDbAttribute
  2
D
 70
     0
  0
ATTRIB
  5
17E7
330
17E4
100
AcDbEntity
  8
title
100
AcDbText
 10
1.231442370514484
 20
1.34371230274675
 30
0.0
 40
0.2
  1

  7
L200
100
AcDbAttribute
  2
TITLE1
 70
     0
  0
ATTRIB
  5
17E8
330
17E4
100
AcDbEntity
  8
title
100
AcDbText
 10
1.231442370514484
 20
0.9842270964783674
 30
0.0
 40
0.2
  1
FD-202TURF DECODER
  7
L200
100
AcDbAttribute
  2
TITLE2
 70
     0
  0
ATTRIB
  5
17E9
330
17E4
100
AcDbEntity
  8
title
100
AcDbText
 10
2.713645751168312
 20
0.5927927664583189
 30
0.0
 40
0.2
  1
WIRING DIAGRAM
  7
L200
100
AcDbAttribute
  2
TITLE3
 70
     0
  0
ATTRIB
  5
17EA
330
17E4
100
AcDbEntity
  8
title
100
AcDbText
 10
2.713645751168312
 20
0.2692560808167741
 30
0.0
 40
0.2
  1

  7
L200
100
AcDbAttribute
  2
TITLE4
 70
     0
  0
ATTRIB
  5
17EB
330
17E4
100
AcDbEntity
  8
title
 62
     7
100
AcDbText
 10
7.617214829966379
 20
0.9696027915446398
 30
0.0
 40
0.08
  1
11-22-10
  7
L80
 72
     2
 11
8.261024353775903
 21
0.9696027915446398
 31
0.0
100
AcDbAttribute
  2
REVISED
 70
     0
  0
ATTRIB
  5
17EC
330
17E4
100
AcDbEntity
  8
title
 62
     7
100
AcDbText
 10
0.2639423705144838
 20
0.0847116480207214
 30
0.0
 40
0.08
  1
FD202.DWG
  7
L80
100
AcDbAttribute
  2
DWG-NAME
 70
     0
  0
ATTRIB
  5
17ED
330
17E4
100
AcDbEntity
  8
title
 62
     7
100
AcDbText
 10
1.231442370514484
 20
0.7005637793954894
 30
0.0
 40
0.1
  1
N.T.S.
  7
L100
100
AcDbAttribute
  2
SCALE
 70
     0
  0
SEQEND
  5
17E5
330
17E4
100
AcDbEntity
  8
title
  0
MTEXT
  5
18C0
102
{ACAD_XDICTIONARY
360
192E
102
}
330
2
100
AcDbEntity
  8
image
100
AcDbMText
 10
7.804534411612248
 20
2.99179079643852
 30
0.0
 40
0.125
 41
7.473214285714287
 71
     1
 72
     5
  1
NOTE: \P\pi-0.375,l0.375;1. MAXIMUM LENGTH OF SECONDARY WIRE PATH (14 AWG) FROM DECODER TO SOLENOID IS 450 FEET. 
  7
ROMANS
 73
     1
 44
1.0
  0
ENDSEC
  0
SECTION
  2
OBJECTS
  0
DICTIONARY
  5
7
330
0
100
AcDbDictionary
281
     1
  3
ACAD_COLOR
350
17FF
  3
ACAD_GROUP
350
1F
  3
ACAD_LAYOUT
350
B
  3
ACAD_MATERIAL
350
17FE
  3
ACAD_MLEADERSTYLE
350
185E
  3
ACAD_MLINESTYLE
350
20
  3
ACAD_PLOTSETTINGS
350
21
  3
ACAD_PLOTSTYLENAME
350
6
  3
ACAD_SCALELIST
350
183C
  3
ACAD_TABLESTYLE
350
1800
  3
ACAD_VISUALSTYLE
350
182B
  3
ACDB_RECOMPOSE_DATA
350
1883
  3
AcDbVariableDictionary
350
32
1001
BBSI_PltSel
1000
1
1000

1001
BBSI_Bookmarks
1000
1
1000
1
1000
0
1000
1
1000
0
1000
0
1000
0
1000
0
1000
0
1000
0
1000
0
1001
BBSI_BookmarksEx
1000
0
1000
0
1000

1000
0
1001
BBSI_Plots
1000

1000
ANSI_B_(17.00_x_11.00_Inches)
1000
431.799987792969
1000
279.399993896484
1000
0
1000
1
1000
1
1000
6.858
1000
0
1000
1
1000
0
1000
1
1000
1.3417054810489
1000
0
1000
1
1000
OKIColorShaded.ctb
1000
0
1000
0
1000
1
1000
1
1000
0
1000
0
1000
-0.118810089847301
1000
-2.13185805588162
1000
14.1846426598458
1000
9.5876740971177
1000

1000

  0
DICTIONARY
  5
1805
330
10
100
AcDbDictionary
280
     1
281
     1
  3
ACAD_LAYERFILTERS
360
190C
  0
DICTIONARY
  5
18F3
330
2
100
AcDbDictionary
280
     1
281
     1
  0
DICTIONARY
  5
1901
330
17D6
100
AcDbDictionary
280
     1
281
     1
  3
ACAD_SORTENTS
360
1902
  0
DICTIONARY
  5
192E
330
18C0
100
AcDbDictionary
280
     1
281
     1
  3
ACAD_MTEXT_2008_RT
360
192F
  0
DICTIONARY
  5
17FF
102
{ACAD_REACTORS
330
7
102
}
330
7
100
AcDbDictionary
281
     1
  0
DICTIONARY
  5
1F
102
{ACAD_REACTORS
330
7
102
}
330
7
100
AcDbDictionary
281
     1
  0
DICTIONARY
  5
B
102
{ACAD_REACTORS
330
7
102
}
330
7
100
AcDbDictionary
281
     1
  3
Layout1
350
F
  3
Model
350
A
  0
DICTIONARY
  5
17FE
102
{ACAD_REACTORS
330
7
102
}
330
7
100
AcDbDictionary
281
     1
  3
ByBlock
350
181B
  3
ByLayer
350
1813
  3
Global
350
1823
  0
DICTIONARY
  5
185E
102
{ACAD_REACTORS
330
7
102
}
330
7
100
AcDbDictionary
281
     1
  3
Standard
350
185F
  0
DICTIONARY
  5
20
102
{ACAD_REACTORS
330
7
102
}
330
7
100
AcDbDictionary
281
     1
  3
STANDARD
350
24
  0
DICTIONARY
  5
21
102
{ACAD_REACTORS
330
7
102
}
330
7
100
AcDbDictionary
281
     1
  0
ACDBDICTIONARYWDFLT
  5
6
102
{ACAD_REACTORS
330
7
102
}
330
7
100
AcDbDictionary
281
     1
  3
Normal
350
5
100
AcDbDictionaryWithDefault
340
5
  0
DICTIONARY
  5
183C
102
{ACAD_REACTORS
330
7
102
}
330
7
100
AcDbDictionary
281
     1
  3
A0
350
183D
  3
A1
350
183E
  3
A2
350
183F
  3
A3
350
1840
  3
A4
350
1841
  3
A5
350
1842
  3
A6
350
1843
  3
A7
350
1844
  3
A8
350
1845
  3
A9
350
1846
  3
B0
350
1847
  3
B1
350
1848
  3
B2
350
1849
  3
B3
350
184A
  3
B4
350
184B
  3
B5
350
184C
  3
B6
350
184D
  3
B7
350
184E
  3
B8
350
184F
  3
B9
350
1850
  3
C0
350
1851
  3
C1
350
1852
  3
C2
350
1853
  3
C3
350
1854
  3
C4
350
1855
  3
C5
350
1856
  3
C6
350
1857
  3
C7
350
1858
  3
C8
350
1859
  3
C9
350
185A
  3
D0
350
185B
  3
D1
350
185C
  3
D2
350
185D
  0
DICTIONARY
  5
1800
102
{ACAD_REACTORS
330
7
102
}
330
7
100
AcDbDictionary
281
     1
  3
Standard
350
1801
  0
DICTIONARY
  5
182B
102
{ACAD_REACTORS
330
7
102
}
330
7
100
AcDbDictionary
281
     1
  3
2dWireframe
350
1831
  3
3D Hidden
350
1833
  3
3dWireframe
350
1832
  3
Basic
350
1830
  3
Brighten
350
1837
  3
ColorChange
350
183B
  3
Conceptual
350
1834
  3
Dim
350
1836
  3
Facepattern
350
183A
  3
Flat
350
182C
  3
FlatWithEdges
350
182D
  3
Gouraud
350
182E
  3
GouraudWithEdges
350
182F
  3
Linepattern
350
1839
  3
Realistic
350
1835
  3
Thicken
350
1838
  0
XRECORD
  5
1883
102
{ACAD_REACTORS
330
7
102
}
330
7
100
AcDbXrecord
280
     1
 90
        1
330
1801
330
18C0
  0
DICTIONARY
  5
32
102
{ACAD_REACTORS
330
7
102
}
330
7
100
AcDbDictionary
281
     1
  3
CANNOSCALE
350
1887
  3
CMLEADERSTYLE
350
1884
  3
CTABLESTYLE
350
1807
  3
DIMASSOC
350
34
  3
DRAWORDERCTL
350
1808
  3
HIDETEXT
350
33
  3
LAYEREVAL
350
1925
  3
LAYERNOTIFY
350
1889
  3
LIGHTINGUNITS
350
1888
  3
MSLTSCALE
350
1886
  3
SORTENTS
350
17BC
  3
UPDATETHUMBNAIL
350
1885
  0
DICTIONARY
  5
190C
102
{ACAD_REACTORS
330
1805
102
}
330
1805
100
AcDbDictionary
281
     1
  3
_0100-
350
190F
  3
_0280-
350
190E
  3
_Add Alternate
350
1911
  3
_Bid Alternate
350
1912
  3
_Color 253
350
1914
  3
_Color 8
350
1910
  3
_Color 84
350
1913
  3
_Contours
350
191A
  3
_Demo
350
1915
  3
_Existing
350
1916
  3
_Hardscape
350
1919
  3
_NoXref
350
190D
  3
_Row
350
1917
  3
_Utility
350
1918
  0
SORTENTSTABLE
  5
1902
102
{ACAD_REACTORS
330
1901
102
}
330
1901
100
AcDbSortentsTable
330
17D6
  0
XRECORD
  5
192F
102
{ACAD_REACTORS
330
192E
102
}
330
192E
100
AcDbXrecord
280
     1
 40
409554.0
  1
NOTE: \P\pxi-3,l3;1. MAXIMUM LENGTH OF SECONDARY WIRE PATH (14 AWG) FROM DECODER TO SOLENOID IS 450 FEET. 
  0
LAYOUT
  5
F
102
{ACAD_REACTORS
330
B
102
}
330
B
100
AcDbPlotSettings
  1

  2
S:\AutoCAD 2002\Plotters\1055B&WDraftShaded.pc3
  4

  6

 40
0.0
 41
0.0
 42
0.0
 43
0.0
 44
0.0
 45
0.0
 46
0.0
 47
0.0
 48
0.0
 49
0.0
140
0.0
141
0.0
142
1.0
143
1.0
 70
   688
 72
     0
 73
     0
 74
     5
  7
TRexLJ5Shaded2.ctb
 75
    16
147
1.0
 76
     0
 77
     2
 78
   300
148
0.0
149
0.0
100
AcDbLayout
  1
Layout1
 70
     1
 71
     1
 10
0.0
 20
0.0
 11
12.0
 21
9.0
 12
0.0
 22
0.0
 32
0.0
 14
1.000000000000000E+20
 24
1.000000000000000E+20
 34
1.000000000000000E+20
 15
-1.000000000000000E+20
 25
-1.000000000000000E+20
 35
-1.000000000000000E+20
146
0.0
 13
0.0
 23
0.0
 33
0.0
 16
1.0
 26
0.0
 36
0.0
 17
0.0
 27
1.0
 37
0.0
 76
     0
330
C
  0
LAYOUT
  5
A
102
{ACAD_REACTORS
330
B
102
}
330
B
100
AcDbPlotSettings
  1

  2
OKI DOKI Color Laser.pc3
  4
Letter
  6

 40
5.027082920074462
 41
5.027070522308349
 42
5.027099609375
 43
5.027084350585937
 44
279.3999938964844
 45
215.8999938964844
 46
69.51127562268418
 47
0.0
 48
-0.118810089847301
 49
-2.131858055881615
140
14.18464265984585
141
9.587674097117698
142
1.0
143
2.034755727814345
 70
 28340
 72
     0
 73
     1
 74
     1
  7
OKIColorShaded.ctb
 75
     0
147
0.4914594839716512
 76
     1
 77
     2
 78
   300
148
0.0
149
0.0
100
AcDbLayout
  1
Model
 70
     1
 71
     0
 10
0.0
 20
0.0
 11
12.0
 21
9.0
 12
0.0
 22
0.0
 32
0.0
 14
0.0
 24
0.0
 34
0.0
 15
0.0
 25
0.0
 35
0.0
146
0.0
 13
0.0
 23
0.0
 33
0.0
 16
1.0
 26
0.0
 36
0.0
 17
0.0
 27
1.0
 37
0.0
 76
     0
330
2
331
1811
1001
ACAD_PSEXT
1000
OKI DOKI Color Laser.pc3
1000
OKI C9500(PCL)
1000
Front
1000

1070
     0
  0
MATERIAL
  5
181B
102
{ACAD_XDICTIONARY
360
181C
102
}
102
{ACAD_REACTORS
330
17FE
102
}
330
17FE
100
AcDbMaterial
  1
ByBlock
 72
     0
 43
0.0208333333333333
 43
0.0
 43
0.0
 43
0.0
 43
0.0
 43
0.0208333333333333
 43
0.0
 43
0.0
 43
0.0
 43
0.0
 43
1.0
 43
0.0
 43
0.0
 43
0.0
 43
0.0
 43
1.0
 77
     0
 47
0.0208333333333333
 47
0.0
 47
0.0
 47
0.0
 47
0.0
 47
0.0208333333333333
 47
0.0
 47
0.0
 47
0.0
 47
0.0
 47
1.0
 47
0.0
 47
0.0
 47
0.0
 47
0.0
 47
1.0
171
     0
 49
0.0208333333333333
 49
0.0
 49
0.0
 49
0.0
 49
0.0
 49
0.0208333333333333
 49
0.0
 49
0.0
 49
0.0
 49
0.0
 49
1.0
 49
0.0
 49
0.0
 49
0.0
 49
0.0
 49
1.0
175
     0
142
0.0208333333333333
142
0.0
142
0.0
142
0.0
142
0.0
142
0.0208333333333333
142
0.0
142
0.0
142
0.0
142
0.0
142
1.0
142
0.0
142
0.0
142
0.0
142
0.0
142
1.0
179
     0
144
0.0208333333333333
144
0.0
144
0.0
144
0.0
144
0.0
144
0.0208333333333333
144
0.0
144
0.0
144
0.0
144
0.0
144
1.0
144
0.0
144
0.0
144
0.0
144
0.0
144
1.0
147
0.0208333333333333
147
0.0
147
0.0
147
0.0
147
0.0
147
0.0208333333333333
147
0.0
147
0.0
147
0.0
147
0.0
147
1.0
147
0.0
147
0.0
147
0.0
147
0.0
147
1.0
  0
MATERIAL
  5
1813
102
{ACAD_XDICTIONARY
360
1814
102
}
102
{ACAD_REACTORS
330
17FE
102
}
330
17FE
100
AcDbMaterial
  1
ByLayer
 72
     0
 43
0.0208333333333333
 43
0.0
 43
0.0
 43
0.0
 43
0.0
 43
0.0208333333333333
 43
0.0
 43
0.0
 43
0.0
 43
0.0
 43
1.0
 43
0.0
 43
0.0
 43
0.0
 43
0.0
 43
1.0
 77
     0
 47
0.0208333333333333
 47
0.0
 47
0.0
 47
0.0
 47
0.0
 47
0.0208333333333333
 47
0.0
 47
0.0
 47
0.0
 47
0.0
 47
1.0
 47
0.0
 47
0.0
 47
0.0
 47
0.0
 47
1.0
171
     0
 49
0.0208333333333333
 49
0.0
 49
0.0
 49
0.0
 49
0.0
 49
0.0208333333333333
 49
0.0
 49
0.0
 49
0.0
 49
0.0
 49
1.0
 49
0.0
 49
0.0
 49
0.0
 49
0.0
 49
1.0
175
     0
142
0.0208333333333333
142
0.0
142
0.0
142
0.0
142
0.0
142
0.0208333333333333
142
0.0
142
0.0
142
0.0
142
0.0
142
1.0
142
0.0
142
0.0
142
0.0
142
0.0
142
1.0
179
     0
144
0.0208333333333333
144
0.0
144
0.0
144
0.0
144
0.0
144
0.0208333333333333
144
0.0
144
0.0
144
0.0
144
0.0
144
1.0
144
0.0
144
0.0
144
0.0
144
0.0
144
1.0
147
0.0208333333333333
147
0.0
147
0.0
147
0.0
147
0.0
147
0.0208333333333333
147
0.0
147
0.0
147
0.0
147
0.0
147
1.0
147
0.0
147
0.0
147
0.0
147
0.0
147
1.0
  0
MATERIAL
  5
1823
102
{ACAD_XDICTIONARY
360
1824
102
}
102
{ACAD_REACTORS
330
17FE
102
}
330
17FE
100
AcDbMaterial
  1
Global
 72
     0
 43
0.0208333333333333
 43
0.0
 43
0.0
 43
0.0
 43
0.0
 43
0.0208333333333333
 43
0.0
 43
0.0
 43
0.0
 43
0.0
 43
1.0
 43
0.0
 43
0.0
 43
0.0
 43
0.0
 43
1.0
 77
     0
 47
0.0208333333333333
 47
0.0
 47
0.0
 47
0.0
 47
0.0
 47
0.0208333333333333
 47
0.0
 47
0.0
 47
0.0
 47
0.0
 47
1.0
 47
0.0
 47
0.0
 47
0.0
 47
0.0
 47
1.0
171
     0
 49
0.0208333333333333
 49
0.0
 49
0.0
 49
0.0
 49
0.0
 49
0.0208333333333333
 49
0.0
 49
0.0
 49
0.0
 49
0.0
 49
1.0
 49
0.0
 49
0.0
 49
0.0
 49
0.0
 49
1.0
175
     0
142
0.0208333333333333
142
0.0
142
0.0
142
0.0
142
0.0
142
0.0208333333333333
142
0.0
142
0.0
142
0.0
142
0.0
142
1.0
142
0.0
142
0.0
142
0.0
142
0.0
142
1.0
179
     0
144
0.0208333333333333
144
0.0
144
0.0
144
0.0
144
0.0
144
0.0208333333333333
144
0.0
144
0.0
144
0.0
144
0.0
144
1.0
144
0.0
144
0.0
144
0.0
144
0.0
144
1.0
147
0.0208333333333333
147
0.0
147
0.0
147
0.0
147
0.0
147
0.0208333333333333
147
0.0
147
0.0
147
0.0
147
0.0
147
1.0
147
0.0
147
0.0
147
0.0
147
0.0
147
1.0
  0
MLEADERSTYLE
  5
185F
102
{ACAD_REACTORS
330
185E
102
}
330
185E
100
AcDbMLeaderStyle
170
     2
171
     1
172
     0
 90
        2
 40
0.0
 41
0.0
173
     1
 91
-1056964608
340
15
 92
       -2
290
     1
 42
0.09
291
     1
 43
0.36
  3
Standard
 44
0.18
300

342
12
174
     1
178
     6
175
     1
176
     0
 93
-1056964608
 45
0.18
292
     0
297
     0
 46
0.18
 94
-1056964608
 47
1.0
 49
1.0
140
1.0
293
     1
141
0.0
294
     1
177
     0
142
1.0
295
     0
296
     0
143
0.125
1001
ACAD_MLEADERVER
1070
     2
  0
MLINESTYLE
  5
24
102
{ACAD_REACTORS
330
20
102
}
330
20
100
AcDbMlineStyle
  2
STANDARD
 70
     0
  3

 62
     0
 51
90.0
 52
90.0
 71
     2
 49
0.5
 62
   256
  6
BYLAYER
 49
-0.5
 62
   256
  6
BYLAYER
  0
ACDBPLACEHOLDER
  5
5
102
{ACAD_REACTORS
330
6
102
}
330
6
  0
SCALE
  5
183D
102
{ACAD_REACTORS
330
183C
102
}
330
183C
100
AcDbScale
 70
     0
300
1:1
140
1.0
141
1.0
290
     1
  0
SCALE
  5
183E
102
{ACAD_REACTORS
330
183C
102
}
330
183C
100
AcDbScale
 70
     0
300
1:2
140
1.0
141
2.0
290
     0
  0
SCALE
  5
183F
102
{ACAD_REACTORS
330
183C
102
}
330
183C
100
AcDbScale
 70
     0
300
1:4
140
1.0
141
4.0
290
     0
  0
SCALE
  5
1840
102
{ACAD_REACTORS
330
183C
102
}
330
183C
100
AcDbScale
 70
     0
300
1:5
140
1.0
141
5.0
290
     0
  0
SCALE
  5
1841
102
{ACAD_REACTORS
330
183C
102
}
330
183C
100
AcDbScale
 70
     0
300
1:8
140
1.0
141
8.0
290
     0
  0
SCALE
  5
1842
102
{ACAD_REACTORS
330
183C
102
}
330
183C
100
AcDbScale
 70
     0
300
1:10
140
1.0
141
10.0
290
     0
  0
SCALE
  5
1843
102
{ACAD_REACTORS
330
183C
102
}
330
183C
100
AcDbScale
 70
     0
300
1:16
140
1.0
141
16.0
290
     0
  0
SCALE
  5
1844
102
{ACAD_REACTORS
330
183C
102
}
330
183C
100
AcDbScale
 70
     0
300
1:20
140
1.0
141
20.0
290
     0
  0
SCALE
  5
1845
102
{ACAD_REACTORS
330
183C
102
}
330
183C
100
AcDbScale
 70
     0
300
1:30
140
1.0
141
30.0
290
     0
  0
SCALE
  5
1846
102
{ACAD_REACTORS
330
183C
102
}
330
183C
100
AcDbScale
 70
     0
300
1:40
140
1.0
141
40.0
290
     0
  0
SCALE
  5
1847
102
{ACAD_REACTORS
330
183C
102
}
330
183C
100
AcDbScale
 70
     0
300
1:50
140
1.0
141
50.0
290
     0
  0
SCALE
  5
1848
102
{ACAD_REACTORS
330
183C
102
}
330
183C
100
AcDbScale
 70
     0
300
1:100
140
1.0
141
100.0
290
     0
  0
SCALE
  5
1849
102
{ACAD_REACTORS
330
183C
102
}
330
183C
100
AcDbScale
 70
     0
300
2:1
140
2.0
141
1.0
290
     0
  0
SCALE
  5
184A
102
{ACAD_REACTORS
330
183C
102
}
330
183C
100
AcDbScale
 70
     0
300
4:1
140
4.0
141
1.0
290
     0
  0
SCALE
  5
184B
102
{ACAD_REACTORS
330
183C
102
}
330
183C
100
AcDbScale
 70
     0
300
8:1
140
8.0
141
1.0
290
     0
  0
SCALE
  5
184C
102
{ACAD_REACTORS
330
183C
102
}
330
183C
100
AcDbScale
 70
     0
300
10:1
140
10.0
141
1.0
290
     0
  0
SCALE
  5
184D
102
{ACAD_REACTORS
330
183C
102
}
330
183C
100
AcDbScale
 70
     0
300
100:1
140
100.0
141
1.0
290
     0
  0
SCALE
  5
184E
102
{ACAD_REACTORS
330
183C
102
}
330
183C
100
AcDbScale
 70
     0
300
1/128" = 1'-0"
140
0.0078125
141
12.0
290
     0
  0
SCALE
  5
184F
102
{ACAD_REACTORS
330
183C
102
}
330
183C
100
AcDbScale
 70
     0
300
1/64" = 1'-0"
140
0.015625
141
12.0
290
     0
  0
SCALE
  5
1850
102
{ACAD_REACTORS
330
183C
102
}
330
183C
100
AcDbScale
 70
     0
300
1/32" = 1'-0"
140
0.03125
141
12.0
290
     0
  0
SCALE
  5
1851
102
{ACAD_REACTORS
330
183C
102
}
330
183C
100
AcDbScale
 70
     0
300
1/16" = 1'-0"
140
0.0625
141
12.0
290
     0
  0
SCALE
  5
1852
102
{ACAD_REACTORS
330
183C
102
}
330
183C
100
AcDbScale
 70
     0
300
3/32" = 1'-0"
140
0.09375
141
12.0
290
     0
  0
SCALE
  5
1853
102
{ACAD_REACTORS
330
183C
102
}
330
183C
100
AcDbScale
 70
     0
300
1/8" = 1'-0"
140
0.125
141
12.0
290
     0
  0
SCALE
  5
1854
102
{ACAD_REACTORS
330
183C
102
}
330
183C
100
AcDbScale
 70
     0
300
3/16" = 1'-0"
140
0.1875
141
12.0
290
     0
  0
SCALE
  5
1855
102
{ACAD_REACTORS
330
183C
102
}
330
183C
100
AcDbScale
 70
     0
300
1/4" = 1'-0"
140
0.25
141
12.0
290
     0
  0
SCALE
  5
1856
102
{ACAD_REACTORS
330
183C
102
}
330
183C
100
AcDbScale
 70
     0
300
3/8" = 1'-0"
140
0.375
141
12.0
290
     0
  0
SCALE
  5
1857
102
{ACAD_REACTORS
330
183C
102
}
330
183C
100
AcDbScale
 70
     0
300
1/2" = 1'-0"
140
0.5
141
12.0
290
     0
  0
SCALE
  5
1858
102
{ACAD_REACTORS
330
183C
102
}
330
183C
100
AcDbScale
 70
     0
300
3/4" = 1'-0"
140
0.75
141
12.0
290
     0
  0
SCALE
  5
1859
102
{ACAD_REACTORS
330
183C
102
}
330
183C
100
AcDbScale
 70
     0
300
1" = 1'-0"
140
1.0
141
12.0
290
     0
  0
SCALE
  5
185A
102
{ACAD_REACTORS
330
183C
102
}
330
183C
100
AcDbScale
 70
     0
300
1-1/2" = 1'-0"
140
1.5
141
12.0
290
     0
  0
SCALE
  5
185B
102
{ACAD_REACTORS
330
183C
102
}
330
183C
100
AcDbScale
 70
     0
300
3" = 1'-0"
140
3.0
141
12.0
290
     0
  0
SCALE
  5
185C
102
{ACAD_REACTORS
330
183C
102
}
330
183C
100
AcDbScale
 70
     0
300
6" = 1'-0"
140
6.0
141
12.0
290
     0
  0
SCALE
  5
185D
102
{ACAD_REACTORS
330
183C
102
}
330
183C
100
AcDbScale
 70
     0
300
1'-0" = 1'-0"
140
12.0
141
12.0
290
     0
  0
TABLESTYLE
  5
1801
102
{ACAD_XDICTIONARY
360
1881
102
}
102
{ACAD_REACTORS
330
1800
102
}
330
1800
100
AcDbTableStyle
  3
Standard
 70
     0
 71
     0
 40
0.06
 41
0.06
280
     0
281
     0
  7
STANDARD
140
0.18
170
     2
 62
     0
 63
     7
283
     0
274
    -2
284
     1
 64
     0
275
    -2
285
     1
 65
     0
276
    -2
286
     1
 66
     0
277
    -2
287
     1
 67
     0
278
    -2
288
     1
 68
     0
279
    -2
289
     1
 69
     0
  7
STANDARD
140
0.25
170
     5
 62
     0
 63
     7
283
     0
274
    -2
284
     1
 64
     0
275
    -2
285
     1
 65
     0
276
    -2
286
     1
 66
     0
277
    -2
287
     1
 67
     0
278
    -2
288
     1
 68
     0
279
    -2
289
     1
 69
     0
  7
STANDARD
140
0.18
170
     5
 62
     0
 63
     7
283
     0
274
    -2
284
     1
 64
     0
275
    -2
285
     1
 65
     0
276
    -2
286
     1
 66
     0
277
    -2
287
     1
 67
     0
278
    -2
288
     1
 68
     0
279
    -2
289
     1
 69
     0
  0
VISUALSTYLE
  5
1831
102
{ACAD_REACTORS
330
182B
102
}
330
182B
100
AcDbVisualStyle
  2
2dWireframe
 70
     4
 71
     0
 72
     2
 73
     0
 90
        0
 40
-0.6
 41
-30.0
 62
     5
 63
     7
421
 16777215
 74
     1
 91
        4
 64
     7
 65
   257
 75
     1
175
     1
 42
1.0
 92
        0
 66
   257
 43
1.0
 76
     1
 77
     6
 78
     2
 67
     7
 79
     5
170
     0
171
     0
290
     0
174
     0
 93
        1
 44
0.0
173
     0
291
     0
 45
0.0
1001
ACAD
1000
AcDbSavedByObjectVersion
1070
     0
  0
VISUALSTYLE
  5
1833
102
{ACAD_REACTORS
330
182B
102
}
330
182B
100
AcDbVisualStyle
  2
3D Hidden
 70
     6
 71
     1
 72
     2
 73
     2
 90
        0
 40
-0.6
 41
-30.0
 62
     5
 63
     7
421
 16777215
 74
     2
 91
        2
 64
     7
 65
   257
 75
     2
175
     1
 42
40.0
 92
        0
 66
   257
 43
1.0
 76
     1
 77
     6
 78
     2
 67
     7
 79
     3
170
     0
171
     0
290
     0
174
     0
 93
        1
 44
0.0
173
     0
291
     0
 45
0.0
1001
ACAD
1000
AcDbSavedByObjectVersion
1070
     0
  0
VISUALSTYLE
  5
1832
102
{ACAD_REACTORS
330
182B
102
}
330
182B
100
AcDbVisualStyle
  2
3dWireframe
 70
     5
 71
     0
 72
     2
 73
     0
 90
        0
 40
-0.6
 41
-30.0
 62
     5
 63
     7
421
 16777215
 74
     1
 91
        4
 64
     7
 65
   257
 75
     1
175
     1
 42
1.0
 92
        0
 66
   257
 43
1.0
 76
     1
 77
     6
 78
     2
 67
     7
 79
     5
170
     0
171
     0
290
     0
174
     0
 93
        1
 44
0.0
173
     0
291
     0
 45
0.0
1001
ACAD
1000
AcDbSavedByObjectVersion
1070
     0
  0
VISUALSTYLE
  5
1830
102
{ACAD_REACTORS
330
182B
102
}
330
182B
100
AcDbVisualStyle
  2
Basic
 70
     7
 71
     1
 72
     0
 73
     1
 90
        0
 40
-0.6
 41
-30.0
 62
     5
 63
     7
421
 16777215
 74
     0
 91
        4
 64
     7
 65
   257
 75
     1
175
     1
 42
1.0
 92
        8
 66
     7
 43
1.0
 76
     1
 77
     6
 78
     2
 67
     7
 79
     5
170
     0
171
     0
290
     0
174
     0
 93
        1
 44
0.0
173
     0
291
     1
 45
0.0
1001
ACAD
1000
AcDbSavedByObjectVersion
1070
     0
  0
VISUALSTYLE
  5
1837
102
{ACAD_REACTORS
330
182B
102
}
330
182B
100
AcDbVisualStyle
  2
Brighten
 70
    12
 71
     2
 72
     2
 73
     0
 90
        0
 40
-0.6
 41
-30.0
 62
     5
 63
     7
421
 16777215
 74
     1
 91
        4
 64
     7
 65
   257
 75
     1
175
     1
 42
1.0
 92
        8
 66
     7
 43
1.0
 76
     1
 77
     6
 78
     2
 67
     7
 79
     5
170
     0
171
     0
290
     0
174
     0
 93
        1
 44
50.0
173
     0
291
     1
 45
0.0
1001
ACAD
1000
AcDbSavedByObjectVersion
1070
     0
  0
VISUALSTYLE
  5
183B
102
{ACAD_REACTORS
330
182B
102
}
330
182B
100
AcDbVisualStyle
  2
ColorChange
 70
    16
 71
     2
 72
     2
 73
     3
 90
        0
 40
-0.6
 41
-30.0
 62
     5
 63
     8
421
  8421504
 74
     1
 91
        4
 64
     7
 65
   257
 75
     1
175
     1
 42
1.0
 92
        8
 66
     8
424
  8421504
 43
1.0
 76
     1
 77
     6
 78
     2
 67
     7
 79
     5
170
     0
171
     0
290
     0
174
     0
 93
        1
 44
0.0
173
     0
291
     1
 45
0.0
1001
ACAD
1000
AcDbSavedByObjectVersion
1070
     0
  0
VISUALSTYLE
  5
1834
102
{ACAD_REACTORS
330
182B
102
}
330
182B
100
AcDbVisualStyle
  2
Conceptual
 70
     9
 71
     3
 72
     2
 73
     0
 90
        0
 40
-0.6
 41
-30.0
 62
     5
 63
     7
421
 16777215
 74
     2
 91
        2
 64
     7
 65
   257
 75
     1
175
     1
 42
40.0
 92
        8
 66
     7
 43
1.0
 76
     1
 77
     6
 78
     2
 67
     7
 79
     3
170
     0
171
     0
290
     0
174
     0
 93
        1
 44
0.0
173
     0
291
     0
 45
0.0
1001
ACAD
1000
AcDbSavedByObjectVersion
1070
     0
  0
VISUALSTYLE
  5
1836
102
{ACAD_REACTORS
330
182B
102
}
330
182B
100
AcDbVisualStyle
  2
Dim
 70
    11
 71
     2
 72
     2
 73
     0
 90
        0
 40
-0.6
 41
-30.0
 62
     5
 63
     7
421
 16777215
 74
     1
 91
        4
 64
     7
 65
   257
 75
     1
175
     1
 42
1.0
 92
        8
 66
     7
 43
1.0
 76
     1
 77
     6
 78
     2
 67
     7
 79
     5
170
     0
171
     0
290
     0
174
     0
 93
        1
 44
-50.0
173
     0
291
     1
 45
0.0
1001
ACAD
1000
AcDbSavedByObjectVersion
1070
     0
  0
VISUALSTYLE
  5
183A
102
{ACAD_REACTORS
330
182B
102
}
330
182B
100
AcDbVisualStyle
  2
Facepattern
 70
    15
 71
     2
 72
     2
 73
     0
 90
        0
 40
-0.6
 41
-30.0
 62
     5
 63
     7
421
 16777215
 74
     1
 91
        4
 64
     7
 65
   257
 75
     1
175
     1
 42
1.0
 92
        8
 66
     7
 43
1.0
 76
     1
 77
     6
 78
     2
 67
     7
 79
     5
170
     0
171
     0
290
     0
174
     0
 93
        1
 44
0.0
173
     0
291
     1
 45
0.0
1001
ACAD
1000
AcDbSavedByObjectVersion
1070
     0
  0
VISUALSTYLE
  5
182C
102
{ACAD_REACTORS
330
182B
102
}
330
182B
100
AcDbVisualStyle
  2
Flat
 70
     0
 71
     2
 72
     1
 73
     1
 90
        2
 40
-0.6
 41
30.0
 62
     5
 63
     7
421
 16777215
 74
     0
 91
        4
 64
     7
 65
   257
 75
     1
175
     1
 42
1.0
 92
        8
 66
     7
 43
1.0
 76
     1
 77
     6
 78
     2
 67
     7
 79
     5
170
     0
171
     0
290
     0
174
     0
 93
       13
 44
0.0
173
     0
291
     1
 45
0.0
1001
ACAD
1000
AcDbSavedByObjectVersion
1070
     0
  0
VISUALSTYLE
  5
182D
102
{ACAD_REACTORS
330
182B
102
}
330
182B
100
AcDbVisualStyle
  2
FlatWithEdges
 70
     1
 71
     2
 72
     1
 73
     1
 90
        2
 40
-0.6
 41
30.0
 62
     5
 63
     7
421
 16777215
 74
     1
 91
        4
 64
     7
 65
   257
 75
     1
175
     1
 42
1.0
 92
        0
 66
   257
 43
1.0
 76
     1
 77
     6
 78
     2
 67
     7
 79
     5
170
     0
171
     0
290
     0
174
     0
 93
       13
 44
0.0
173
     0
291
     1
 45
0.0
1001
ACAD
1000
AcDbSavedByObjectVersion
1070
     0
  0
VISUALSTYLE
  5
182E
102
{ACAD_REACTORS
330
182B
102
}
330
182B
100
AcDbVisualStyle
  2
Gouraud
 70
     2
 71
     2
 72
     2
 73
     1
 90
        2
 40
-0.6
 41
30.0
 62
     5
 63
     7
421
 16777215
 74
     0
 91
        4
 64
     7
 65
   257
 75
     1
175
     1
 42
1.0
 92
        0
 66
     7
 43
1.0
 76
     1
 77
     6
 78
     2
 67
     7
 79
     5
170
     0
171
     0
290
     0
174
     0
 93
       13
 44
0.0
173
     0
291
     1
 45
0.0
1001
ACAD
1000
AcDbSavedByObjectVersion
1070
     0
  0
VISUALSTYLE
  5
182F
102
{ACAD_REACTORS
330
182B
102
}
330
182B
100
AcDbVisualStyle
  2
GouraudWithEdges
 70
     3
 71
     2
 72
     2
 73
     1
 90
        2
 40
-0.6
 41
30.0
 62
     5
 63
     7
421
 16777215
 74
     1
 91
        4
 64
     7
 65
   257
 75
     1
175
     1
 42
1.0
 92
        0
 66
   257
 43
1.0
 76
     1
 77
     6
 78
     2
 67
     7
 79
     5
170
     0
171
     0
290
     0
174
     0
 93
       13
 44
0.0
173
     0
291
     1
 45
0.0
1001
ACAD
1000
AcDbSavedByObjectVersion
1070
     0
  0
VISUALSTYLE
  5
1839
102
{ACAD_REACTORS
330
182B
102
}
330
182B
100
AcDbVisualStyle
  2
Linepattern
 70
    14
 71
     2
 72
     2
 73
     0
 90
        0
 40
-0.6
 41
-30.0
 62
     5
 63
     7
421
 16777215
 74
     1
 91
        4
 64
     7
 65
   257
 75
     7
175
     7
 42
1.0
 92
        8
 66
     7
 43
1.0
 76
     1
 77
     6
 78
     2
 67
     7
 79
     5
170
     0
171
     0
290
     0
174
     0
 93
        1
 44
0.0
173
     0
291
     1
 45
0.0
1001
ACAD
1000
AcDbSavedByObjectVersion
1070
     0
  0
VISUALSTYLE
  5
1835
102
{ACAD_REACTORS
330
182B
102
}
330
182B
100
AcDbVisualStyle
  2
Realistic
 70
     8
 71
     2
 72
     2
 73
     0
 90
        0
 40
-0.6
 41
-30.0
 62
     5
 63
     7
421
 16777215
 74
     1
 91
        0
 64
     7
 65
   257
 75
     1
175
     1
 42
1.0
 92
        8
 66
     8
424
  7895160
 43
1.0
 76
     1
 77
     6
 78
     2
 67
     7
 79
     5
170
     0
171
     0
290
     0
174
     0
 93
       13
 44
0.0
173
     0
291
     0
 45
0.0
1001
ACAD
1000
AcDbSavedByObjectVersion
1070
     0
  0
VISUALSTYLE
  5
1838
102
{ACAD_REACTORS
330
182B
102
}
330
182B
100
AcDbVisualStyle
  2
Thicken
 70
    13
 71
     2
 72
     2
 73
     0
 90
        0
 40
-0.6
 41
-30.0
 62
     5
 63
     7
421
 16777215
 74
     1
 91
        4
 64
     7
 65
   257
 75
     1
175
     1
 42
1.0
 92
       12
 66
     7
 43
1.0
 76
     1
 77
     6
 78
     2
 67
     7
 79
     5
170
     0
171
     0
290
     0
174
     0
 93
        1
 44
0.0
173
     0
291
     1
 45
0.0
1001
ACAD
1000
AcDbSavedByObjectVersion
1070
     0
  0
DICTIONARYVAR
  5
1887
102
{ACAD_REACTORS
330
32
102
}
330
32
100
DictionaryVariables
280
     0
  1
1:1
  0
DICTIONARYVAR
  5
1884
102
{ACAD_REACTORS
330
32
102
}
330
32
100
DictionaryVariables
280
     0
  1
STANDARD
  0
DICTIONARYVAR
  5
1807
102
{ACAD_REACTORS
330
32
102
}
330
32
100
DictionaryVariables
280
     0
  1
STANDARD
  0
DICTIONARYVAR
  5
34
102
{ACAD_REACTORS
330
32
102
}
330
32
100
DictionaryVariables
280
     0
  1
1
  0
DICTIONARYVAR
  5
1808
102
{ACAD_REACTORS
330
32
102
}
330
32
100
DictionaryVariables
280
     0
  1
3
  0
DICTIONARYVAR
  5
33
102
{ACAD_REACTORS
330
32
102
}
330
32
100
DictionaryVariables
280
     0
  1
1
  0
DICTIONARYVAR
  5
1925
102
{ACAD_REACTORS
330
32
102
}
330
32
100
DictionaryVariables
280
     0
  1
0
  0
DICTIONARYVAR
  5
1889
102
{ACAD_REACTORS
330
32
102
}
330
32
100
DictionaryVariables
280
     0
  1
15
  0
DICTIONARYVAR
  5
1888
102
{ACAD_REACTORS
330
32
102
}
330
32
100
DictionaryVariables
280
     0
  1
0
  0
DICTIONARYVAR
  5
1886
102
{ACAD_REACTORS
330
32
102
}
330
32
100
DictionaryVariables
280
     0
  1
0
  0
DICTIONARYVAR
  5
17BC
102
{ACAD_REACTORS
330
32
102
}
330
32
100
DictionaryVariables
280
     0
  1
1
  0
DICTIONARYVAR
  5
1885
102
{ACAD_REACTORS
330
32
102
}
330
32
100
DictionaryVariables
280
     0
  1
0
  0
XRECORD
  5
190F
102
{ACAD_REACTORS
330
190C
102
}
330
190C
100
AcDbXrecord
280
     1
  1
_0100-
  1
*0100-*
  1
*
  1
*
 70
     0
  1
*
  1
*
  0
XRECORD
  5
190E
102
{ACAD_REACTORS
330
190C
102
}
330
190C
100
AcDbXrecord
280
     1
  1
_0280-
  1
*0280-*
  1
*
  1
*
 70
     0
  1
*
  1
*
  0
XRECORD
  5
1911
102
{ACAD_REACTORS
330
190C
102
}
330
190C
100
AcDbXrecord
280
     1
  1
_Add Alternate
  1
*add*alt*
  1
*
  1
*
 70
     0
  1
*
  1
*
  0
XRECORD
  5
1912
102
{ACAD_REACTORS
330
190C
102
}
330
190C
100
AcDbXrecord
280
     1
  1
_Bid Alternate
  1
*bid*alt*
  1
*
  1
*
 70
     0
  1
*
  1
*
  0
XRECORD
  5
1914
102
{ACAD_REACTORS
330
190C
102
}
330
190C
100
AcDbXrecord
280
     1
  1
_Color 253
  1
*
  1
253
  1
*
 70
     0
  1
*
  1
*
  0
XRECORD
  5
1910
102
{ACAD_REACTORS
330
190C
102
}
330
190C
100
AcDbXrecord
280
     1
  1
_Color 8
  1
*
  1
8
  1
*
 70
     0
  1
*
  1
*
  0
XRECORD
  5
1913
102
{ACAD_REACTORS
330
190C
102
}
330
190C
100
AcDbXrecord
280
     1
  1
_Color 84
  1
*
  1
84
  1
*
 70
     0
  1
*
  1
*
  0
XRECORD
  5
191A
102
{ACAD_REACTORS
330
190C
102
}
330
190C
100
AcDbXrecord
280
     1
  1
_Contours
  1
*contour*,*cont-*,*cp cont*,*p-cont*
  1
*
  1
*
 70
     0
  1
*
  1
*
  0
XRECORD
  5
1915
102
{ACAD_REACTORS
330
190C
102
}
330
190C
100
AcDbXrecord
280
     1
  1
_Demo
  1
*demo*
  1
*
  1
*
 70
     0
  1
*
  1
*
  0
XRECORD
  5
1916
102
{ACAD_REACTORS
330
190C
102
}
330
190C
100
AcDbXrecord
280
     1
  1
_Existing
  1
*exist*,*ex*
  1
*
  1
*
 70
     0
  1
*
  1
*
  0
XRECORD
  5
1919
102
{ACAD_REACTORS
330
190C
102
}
330
190C
100
AcDbXrecord
280
     1
  1
_Hardscape
  1
*sidewalk*,*sw*,*curb*,*walk*,*-lip*,*tbc*
  1
*
  1
*
 70
     0
  1
*
  1
*
  0
XRECORD
  5
190D
102
{ACAD_REACTORS
330
190C
102
}
330
190C
100
AcDbXrecord
280
     1
  1
_NoXref
  1
~*|*
  1
*
  1
*
 70
     0
  1
*
  1
*
  0
XRECORD
  5
1917
102
{ACAD_REACTORS
330
190C
102
}
330
190C
100
AcDbXrecord
280
     1
  1
_Row
  1
*row*
  1
*
  1
*
 70
     0
  1
*
  1
*
  0
XRECORD
  5
1918
102
{ACAD_REACTORS
330
190C
102
}
330
190C
100
AcDbXrecord
280
     1
  1
_Utility
  1
*ut-*,*utility*,*wat*
  1
*
  1
*
 70
     0
  1
*
  1
*
  0
DICTIONARY
  5
181C
330
181B
100
AcDbDictionary
280
     1
281
     1
  3
ACAD_XREC_ROUNDTRIP
360
1932
  3
BUMPTILE
360
181E
  3
DIFFUSETILE
360
181D
  3
OPACITYTILE
360
1821
  3
REFLECTIONTILE
360
1820
  3
REFRACTIONTILE
360
1822
  3
SPECULARTILE
360
181F
  0
DICTIONARY
  5
1814
330
1813
100
AcDbDictionary
280
     1
281
     1
  3
ACAD_XREC_ROUNDTRIP
360
1931
  3
BUMPTILE
360
1816
  3
DIFFUSETILE
360
1815
  3
OPACITYTILE
360
1819
  3
REFLECTIONTILE
360
1818
  3
REFRACTIONTILE
360
181A
  3
SPECULARTILE
360
1817
  0
DICTIONARY
  5
1824
330
1823
100
AcDbDictionary
280
     1
281
     1
  3
ACAD_XREC_ROUNDTRIP
360
1933
  3
BUMPTILE
360
1826
  3
DIFFUSETILE
360
1825
  3
OPACITYTILE
360
1829
  3
REFLECTIONTILE
360
1828
  3
REFRACTIONTILE
360
182A
  3
SPECULARTILE
360
1827
  0
DICTIONARY
  5
1881
330
1801
100
AcDbDictionary
280
     1
281
     1
  3
ACAD_ROUNDTRIP_2008_TABLESTYLE_CELLSTYLEMAP
360
192D
  3
ACAD_XREC_ROUNDTRIP
360
1930
  0
XRECORD
  5
1932
102
{ACAD_REACTORS
330
181C
102
}
330
181C
100
AcDbXrecord
280
     1
102
MATERIAL
148
0.0
149
0.0
149
0.0
 93
        0
 94
      127
282
     0
 72
     0
 77
     0
171
     0
175
     0
179
     0
273
     0
  0
XRECORD
  5
181E
102
{ACAD_REACTORS
330
181C
102
}
330
181C
100
AcDbXrecord
280
     1
270
     1
271
     1
  0
XRECORD
  5
181D
102
{ACAD_REACTORS
330
181C
102
}
330
181C
100
AcDbXrecord
280
     1
270
     1
271
     1
  0
XRECORD
  5
1821
102
{ACAD_REACTORS
330
181C
102
}
330
181C
100
AcDbXrecord
280
     1
270
     1
271
     1
  0
XRECORD
  5
1820
102
{ACAD_REACTORS
330
181C
102
}
330
181C
100
AcDbXrecord
280
     1
270
     1
271
     1
  0
XRECORD
  5
1822
102
{ACAD_REACTORS
330
181C
102
}
330
181C
100
AcDbXrecord
280
     1
270
     1
271
     1
  0
XRECORD
  5
181F
102
{ACAD_REACTORS
330
181C
102
}
330
181C
100
AcDbXrecord
280
     1
270
     1
271
     1
  0
XRECORD
  5
1931
102
{ACAD_REACTORS
330
1814
102
}
330
1814
100
AcDbXrecord
280
     1
102
MATERIAL
148
0.0
149
0.0
149
0.0
 93
        0
 94
      127
282
     0
 72
     0
 77
     0
171
     0
175
     0
179
     0
273
     0
  0
XRECORD
  5
1816
102
{ACAD_REACTORS
330
1814
102
}
330
1814
100
AcDbXrecord
280
     1
270
     1
271
     1
  0
XRECORD
  5
1815
102
{ACAD_REACTORS
330
1814
102
}
330
1814
100
AcDbXrecord
280
     1
270
     1
271
     1
  0
XRECORD
  5
1819
102
{ACAD_REACTORS
330
1814
102
}
330
1814
100
AcDbXrecord
280
     1
270
     1
271
     1
  0
XRECORD
  5
1818
102
{ACAD_REACTORS
330
1814
102
}
330
1814
100
AcDbXrecord
280
     1
270
     1
271
     1
  0
XRECORD
  5
181A
102
{ACAD_REACTORS
330
1814
102
}
330
1814
100
AcDbXrecord
280
     1
270
     1
271
     1
  0
XRECORD
  5
1817
102
{ACAD_REACTORS
330
1814
102
}
330
1814
100
AcDbXrecord
280
     1
270
     1
271
     1
  0
XRECORD
  5
1933
102
{ACAD_REACTORS
330
1824
102
}
330
1824
100
AcDbXrecord
280
     1
102
MATERIAL
148
0.0
149
0.0
149
0.0
 93
        0
 94
      127
282
     0
 72
     0
 77
     0
171
     0
175
     0
179
     0
273
     0
  0
XRECORD
  5
1826
102
{ACAD_REACTORS
330
1824
102
}
330
1824
100
AcDbXrecord
280
     1
270
     1
271
     1
  0
XRECORD
  5
1825
102
{ACAD_REACTORS
330
1824
102
}
330
1824
100
AcDbXrecord
280
     1
270
     1
271
     1
  0
XRECORD
  5
1829
102
{ACAD_REACTORS
330
1824
102
}
330
1824
100
AcDbXrecord
280
     1
270
     1
271
     1
  0
XRECORD
  5
1828
102
{ACAD_REACTORS
330
1824
102
}
330
1824
100
AcDbXrecord
280
     1
270
     1
271
     1
  0
XRECORD
  5
182A
102
{ACAD_REACTORS
330
1824
102
}
330
1824
100
AcDbXrecord
280
     1
270
     1
271
     1
  0
XRECORD
  5
1827
102
{ACAD_REACTORS
330
1824
102
}
330
1824
100
AcDbXrecord
280
     1
270
     1
271
     1
  0
CELLSTYLEMAP
  5
192D
102
{ACAD_REACTORS
330
1881
102
}
330
1881
100
AcDbCellStyleMap
 90
        3
300
CELLSTYLE
  1
TABLEFORMAT_BEGIN
 90
        5
170
     1
 91
        0
 92
    32768
 62
   257
 93
        1
300
CONTENTFORMAT
  1
CONTENTFORMAT_BEGIN
 90
        0
 91
        0
 92
        4
 93
        0
300

 40
0.0
140
1.0
 94
        5
 62
     0
340
12
144
0.25
309
CONTENTFORMAT_END
171
     0
 94
        6
 95
        1
302
GRIDFORMAT
  1
GRIDFORMAT_BEGIN
 90
        0
 91
        1
 62
     0
 92
       -2
340
0
 93
        0
 40
0.045
309
GRIDFORMAT_END
 95
        2
302
GRIDFORMAT
  1
GRIDFORMAT_BEGIN
 90
        0
 91
        1
 62
     0
 92
       -2
340
0
 93
        0
 40
0.045
309
GRIDFORMAT_END
 95
        4
302
GRIDFORMAT
  1
GRIDFORMAT_BEGIN
 90
        0
 91
        1
 62
     0
 92
       -2
340
0
 93
        0
 40
0.045
309
GRIDFORMAT_END
 95
        8
302
GRIDFORMAT
  1
GRIDFORMAT_BEGIN
 90
        0
 91
        1
 62
     0
 92
       -2
340
0
 93
        0
 40
0.045
309
GRIDFORMAT_END
 95
       16
302
GRIDFORMAT
  1
GRIDFORMAT_BEGIN
 90
        0
 91
        1
 62
     0
 92
       -2
340
0
 93
        0
 40
0.045
309
GRIDFORMAT_END
 95
       32
302
GRIDFORMAT
  1
GRIDFORMAT_BEGIN
 90
        0
 91
        1
 62
     0
 92
       -2
340
0
 93
        0
 40
0.045
309
GRIDFORMAT_END
309
TABLEFORMAT_END
  1
CELLSTYLE_BEGIN
 90
        1
 91
        1
300
_TITLE
309
CELLSTYLE_END
300
CELLSTYLE
  1
TABLEFORMAT_BEGIN
 90
        5
170
     1
 91
        0
 92
        0
 62
   257
 93
        1
300
CONTENTFORMAT
  1
CONTENTFORMAT_BEGIN
 90
        0
 91
        0
 92
        4
 93
        0
300

 40
0.0
140
1.0
 94
        5
 62
     0
340
12
144
0.18
309
CONTENTFORMAT_END
171
     0
 94
        6
 95
        1
302
GRIDFORMAT
  1
GRIDFORMAT_BEGIN
 90
        0
 91
        1
 62
     0
 92
       -2
340
0
 93
        0
 40
0.045
309
GRIDFORMAT_END
 95
        2
302
GRIDFORMAT
  1
GRIDFORMAT_BEGIN
 90
        0
 91
        1
 62
     0
 92
       -2
340
0
 93
        0
 40
0.045
309
GRIDFORMAT_END
 95
        4
302
GRIDFORMAT
  1
GRIDFORMAT_BEGIN
 90
        0
 91
        1
 62
     0
 92
       -2
340
0
 93
        0
 40
0.045
309
GRIDFORMAT_END
 95
        8
302
GRIDFORMAT
  1
GRIDFORMAT_BEGIN
 90
        0
 91
        1
 62
     0
 92
       -2
340
0
 93
        0
 40
0.045
309
GRIDFORMAT_END
 95
       16
302
GRIDFORMAT
  1
GRIDFORMAT_BEGIN
 90
        0
 91
        1
 62
     0
 92
       -2
340
0
 93
        0
 40
0.045
309
GRIDFORMAT_END
 95
       32
302
GRIDFORMAT
  1
GRIDFORMAT_BEGIN
 90
        0
 91
        1
 62
     0
 92
       -2
340
0
 93
        0
 40
0.045
309
GRIDFORMAT_END
309
TABLEFORMAT_END
  1
CELLSTYLE_BEGIN
 90
        2
 91
        1
300
_HEADER
309
CELLSTYLE_END
300
CELLSTYLE
  1
TABLEFORMAT_BEGIN
 90
        5
170
     1
 91
        0
 92
        0
 62
   257
 93
        1
300
CONTENTFORMAT
  1
CONTENTFORMAT_BEGIN
 90
        0
 91
        0
 92
        4
 93
        0
300

 40
0.0
140
1.0
 94
        2
 62
     0
340
12
144
0.18
309
CONTENTFORMAT_END
171
     0
 94
        6
 95
        1
302
GRIDFORMAT
  1
GRIDFORMAT_BEGIN
 90
        0
 91
        1
 62
     0
 92
       -2
340
0
 93
        0
 40
0.045
309
GRIDFORMAT_END
 95
        2
302
GRIDFORMAT
  1
GRIDFORMAT_BEGIN
 90
        0
 91
        1
 62
     0
 92
       -2
340
0
 93
        0
 40
0.045
309
GRIDFORMAT_END
 95
        4
302
GRIDFORMAT
  1
GRIDFORMAT_BEGIN
 90
        0
 91
        1
 62
     0
 92
       -2
340
0
 93
        0
 40
0.045
309
GRIDFORMAT_END
 95
        8
302
GRIDFORMAT
  1
GRIDFORMAT_BEGIN
 90
        0
 91
        1
 62
     0
 92
       -2
340
0
 93
        0
 40
0.045
309
GRIDFORMAT_END
 95
       16
302
GRIDFORMAT
  1
GRIDFORMAT_BEGIN
 90
        0
 91
        1
 62
     0
 92
       -2
340
0
 93
        0
 40
0.045
309
GRIDFORMAT_END
 95
       32
302
GRIDFORMAT
  1
GRIDFORMAT_BEGIN
 90
        0
 91
        1
 62
     0
 92
       -2
340
0
 93
        0
 40
0.045
309
GRIDFORMAT_END
309
TABLEFORMAT_END
  1
CELLSTYLE_BEGIN
 90
        3
 91
        2
300
_DATA
309
CELLSTYLE_END
  0
XRECORD
  5
1930
102
{ACAD_REACTORS
330
1881
102
}
330
1881
100
AcDbXrecord
280
     1
102
ACAD_ROUNDTRIP_PRE2007_TABLESTYLE
 90
        4
 91
        0
  1

 92
        4
 93
        0
  2

 94
        4
 95
        0
  3

  0
ENDSEC
  0
EOF
