  0
SECTION
  2
HEADER
  9
$ACADVER
  1
AC1018
  9
$ACADMAINTVER
 70
   104
  9
$DWGCODEPAGE
  3
ANSI_1252
  9
$TITLE
  1
O:\RAINBIRD\SpecDraw 2006\MDC\DWG\FD102 plan.dwg
  9
$SUBJECT
  1
 
  9
$AUTHOR
  1
dweyer
  9
$COMMENTS
  1
This drawing was opened and saved by 'dweyer' with AutoCAD version 16.1s (LMS Tech) using profile WatermarkID on 12-22-2005 @ 14:06:PM
  9
$LASTSAVEDBY
  1
dweyer
  9
$INSBASE
 10
9.713154852155369
 20
4.039980797564772
 30
0.0
  9
$EXTMIN
 10
0.0
 20
0.0
 30
0.0
  9
$EXTMAX
 10
16.48999999999999
 20
10.44
 30
0.03
  9
$LIMMIN
 10
0.0
 20
0.0
  9
$LIMMAX
 10
12.0
 20
9.0
  9
$ORTHOMODE
 70
     1
  9
$REGENMODE
 70
     1
  9
$FILLMODE
 70
     1
  9
$QTEXTMODE
 70
     0
  9
$MIRRTEXT
 70
     0
  9
$LTSCALE
 40
1.0
  9
$ATTMODE
 70
     1
  9
$TEXTSIZE
 40
0.125
  9
$TRACEWID
 40
0.05
  9
$TEXTSTYLE
  7
ROMANS
  9
$CLAYER
  8
image
  9
$CELTYPE
  6
ByLayer
  9
$CECOLOR
 62
   256
  9
$CELTSCALE
 40
1.0
  9
$DISPSILH
 70
     0
  9
$DIMSCALE
 40
1.0
  9
$DIMASZ
 40
0.18
  9
$DIMEXO
 40
0.0625
  9
$DIMDLI
 40
0.38
  9
$DIMRND
 40
0.0
  9
$DIMDLE
 40
0.0
  9
$DIMEXE
 40
0.125
  9
$DIMTP
 40
0.0
  9
$DIMTM
 40
0.0
  9
$DIMTXT
 40
0.125
  9
$DIMCEN
 40
0.09
  9
$DIMTSZ
 40
0.0
  9
$DIMTOL
 70
     0
  9
$DIMLIM
 70
     0
  9
$DIMTIH
 70
     1
  9
$DIMTOH
 70
     1
  9
$DIMSE1
 70
     0
  9
$DIMSE2
 70
     0
  9
$DIMTAD
 70
     0
  9
$DIMZIN
 70
     0
  9
$DIMBLK
  1

  9
$DIMASO
 70
     1
  9
$DIMSHO
 70
     1
  9
$DIMPOST
  1

  9
$DIMAPOST
  1

  9
$DIMALT
 70
     0
  9
$DIMALTD
 70
     2
  9
$DIMALTF
 40
25.4
  9
$DIMLFAC
 40
1.0
  9
$DIMTOFL
 70
     0
  9
$DIMTVP
 40
0.0
  9
$DIMTIX
 70
     0
  9
$DIMSOXD
 70
     0
  9
$DIMSAH
 70
     0
  9
$DIMBLK1
  1

  9
$DIMBLK2
  1

  9
$DIMSTYLE
  2
STANDARD
  9
$DIMCLRD
 70
   256
  9
$DIMCLRE
 70
   256
  9
$DIMCLRT
 70
   256
  9
$DIMTFAC
 40
1.0
  9
$DIMGAP
 40
0.09
  9
$DIMJUST
 70
     0
  9
$DIMSD1
 70
     0
  9
$DIMSD2
 70
     0
  9
$DIMTOLJ
 70
     1
  9
$DIMTZIN
 70
     0
  9
$DIMALTZ
 70
     0
  9
$DIMALTTZ
 70
     0
  9
$DIMUPT
 70
     0
  9
$DIMDEC
 70
     4
  9
$DIMTDEC
 70
     4
  9
$DIMALTU
 70
     2
  9
$DIMALTTD
 70
     2
  9
$DIMTXSTY
  7
ARIAL
  9
$DIMAUNIT
 70
     0
  9
$DIMADEC
 70
     0
  9
$DIMALTRND
 40
0.0
  9
$DIMAZIN
 70
     0
  9
$DIMDSEP
 70
    46
  9
$DIMATFIT
 70
     3
  9
$DIMFRAC
 70
     0
  9
$DIMLDRBLK
  1

  9
$DIMLUNIT
 70
     2
  9
$DIMLWD
 70
    -1
  9
$DIMLWE
 70
    -1
  9
$DIMTMOVE
 70
     2
  9
$LUNITS
 70
     2
  9
$LUPREC
 70
     3
  9
$SKETCHINC
 40
0.1
  9
$FILLETRAD
 40
0.0
  9
$AUNITS
 70
     0
  9
$AUPREC
 70
     0
  9
$MENU
  1
ACAD
  9
$ELEVATION
 40
0.0
  9
$PELEVATION
 40
0.0
  9
$THICKNESS
 40
0.0
  9
$LIMCHECK
 70
     0
  9
$CHAMFERA
 40
0.0
  9
$CHAMFERB
 40
0.0
  9
$CHAMFERC
 40
0.0
  9
$CHAMFERD
 40
0.0
  9
$SKPOLY
 70
     0
  9
$TDCREATE
 40
2451522.402094838
  9
$TDUCREATE
 40
2451522.693761505
  9
$TDUPDATE
 40
2455575.513132731
  9
$TDUUPDATE
 40
2455575.804799398
  9
$TDINDWG
 40
0.2837312269
  9
$TDUSRTIMER
 40
0.2837312269
  9
$USRTIMER
 70
     1
  9
$ANGBASE
 50
0.0
  9
$ANGDIR
 70
     0
  9
$PDMODE
 70
     3
  9
$PDSIZE
 40
-5.0
  9
$PLINEWID
 40
0.0
  9
$SPLFRAME
 70
     0
  9
$SPLINETYPE
 70
     6
  9
$SPLINESEGS
 70
     8
  9
$HANDSEED
  5
F96
  9
$SURFTAB1
 70
     6
  9
$SURFTAB2
 70
     6
  9
$SURFTYPE
 70
     6
  9
$SURFU
 70
     6
  9
$SURFV
 70
     6
  9
$UCSBASE
  2

  9
$UCSNAME
  2

  9
$UCSORG
 10
0.0
 20
0.0
 30
0.0
  9
$UCSXDIR
 10
1.0
 20
0.0
 30
0.0
  9
$UCSYDIR
 10
0.0
 20
1.0
 30
0.0
  9
$UCSORTHOREF
  2

  9
$UCSORTHOVIEW
 70
     0
  9
$UCSORGTOP
 10
0.0
 20
0.0
 30
0.0
  9
$UCSORGBOTTOM
 10
0.0
 20
0.0
 30
0.0
  9
$UCSORGLEFT
 10
0.0
 20
0.0
 30
0.0
  9
$UCSORGRIGHT
 10
0.0
 20
0.0
 30
0.0
  9
$UCSORGFRONT
 10
0.0
 20
0.0
 30
0.0
  9
$UCSORGBACK
 10
0.0
 20
0.0
 30
0.0
  9
$PUCSBASE
  2

  9
$PUCSNAME
  2

  9
$PUCSORG
 10
0.0
 20
0.0
 30
0.0
  9
$PUCSXDIR
 10
1.0
 20
0.0
 30
0.0
  9
$PUCSYDIR
 10
0.0
 20
1.0
 30
0.0
  9
$PUCSORTHOREF
  2

  9
$PUCSORTHOVIEW
 70
     0
  9
$PUCSORGTOP
 10
0.0
 20
0.0
 30
0.0
  9
$PUCSORGBOTTOM
 10
0.0
 20
0.0
 30
0.0
  9
$PUCSORGLEFT
 10
0.0
 20
0.0
 30
0.0
  9
$PUCSORGRIGHT
 10
0.0
 20
0.0
 30
0.0
  9
$PUCSORGFRONT
 10
0.0
 20
0.0
 30
0.0
  9
$PUCSORGBACK
 10
0.0
 20
0.0
 30
0.0
  9
$USERI1
 70
     0
  9
$USERI2
 70
     0
  9
$USERI3
 70
     0
  9
$USERI4
 70
     0
  9
$USERI5
 70
     0
  9
$USERR1
 40
0.0
  9
$USERR2
 40
0.0
  9
$USERR3
 40
0.0
  9
$USERR4
 40
0.0
  9
$USERR5
 40
0.0
  9
$WORLDVIEW
 70
     1
  9
$SHADEDGE
 70
     3
  9
$SHADEDIF
 70
    70
  9
$TILEMODE
 70
     1
  9
$MAXACTVP
 70
    16
  9
$PINSBASE
 10
0.0
 20
0.0
 30
0.0
  9
$PLIMCHECK
 70
     0
  9
$PEXTMIN
 10
1.000000000000000E+20
 20
1.000000000000000E+20
 30
1.000000000000000E+20
  9
$PEXTMAX
 10
-1.000000000000000E+20
 20
-1.000000000000000E+20
 30
-1.000000000000000E+20
  9
$PLIMMIN
 10
0.0
 20
0.0
  9
$PLIMMAX
 10
12.0
 20
9.0
  9
$UNITMODE
 70
     0
  9
$VISRETAIN
 70
     0
  9
$PLINEGEN
 70
     1
  9
$PSLTSCALE
 70
     1
  9
$TREEDEPTH
 70
 -3020
  9
$CMLSTYLE
  2
Standard
  9
$CMLJUST
 70
     0
  9
$CMLSCALE
 40
1.0
  9
$PROXYGRAPHICS
 70
     1
  9
$MEASUREMENT
 70
     0
  9
$CELWEIGHT
370
    -1
  9
$ENDCAPS
280
     0
  9
$JOINSTYLE
280
     0
  9
$LWDISPLAY
290
     0
  9
$INSUNITS
 70
     0
  9
$HYPERLINKBASE
  1
www.aquaengineering.com
  9
$STYLESHEET
  1
OKIColorShaded.ctb
  9
$XEDIT
290
     1
  9
$CEPSNTYPE
380
     0
  9
$PSTYLEMODE
290
     1
  9
$FINGERPRINTGUID
  2
{0B396345-2890-4771-A518-E8087B2E1799}
  9
$VERSIONGUID
  2
{A72E6BCD-E07D-4BDC-9580-3C92F8F3C01B}
  9
$EXTNAMES
290
     1
  9
$PSVPSCALE
 40
0.0
  9
$OLESTARTUP
290
     1
  9
$SORTENTS
280
    48
  9
$INDEXCTL
280
     0
  9
$HIDETEXT
280
     1
  9
$XCLIPFRAME
290
     0
  9
$HALOGAP
280
     0
  9
$OBSCOLOR
 70
   257
  9
$OBSLTYPE
280
     0
  9
$INTERSECTIONDISPLAY
280
     0
  9
$INTERSECTIONCOLOR
 70
   257
  9
$DIMASSOC
280
     1
  9
$PROJECTNAME
  1

  0
ENDSEC
  0
SECTION
  2
CLASSES
  0
CLASS
  1
ACDBDICTIONARYWDFLT
  2
AcDbDictionaryWithDefault
  3
ObjectDBX Classes
 90
        0
 91
        1
280
     0
281
     0
  0
CLASS
  1
DICTIONARYVAR
  2
AcDbDictionaryVar
  3
ObjectDBX Classes
 90
        0
 91
       12
280
     0
281
     0
  0
CLASS
  1
DIMASSOC
  2
AcDbDimAssoc
  3
"AcDbDimAssoc|Product Desc:     AcDim ARX App For Dimension|Company:          Autodesk, Inc.|WEB Address:      www.autodesk.com"
 90
        0
 91
        4
280
     0
281
     0
  0
CLASS
  1
SORTENTSTABLE
  2
AcDbSortentsTable
  3
ObjectDBX Classes
 90
        0
 91
        2
280
     0
281
     0
  0
CLASS
  1
TABLESTYLE
  2
AcDbTableStyle
  3
ObjectDBX Classes
 90
     4095
 91
        1
280
     0
281
     0
  0
CLASS
  1
MATERIAL
  2
AcDbMaterial
  3
ObjectDBX Classes
 90
     1153
 91
        3
280
     0
281
     0
  0
CLASS
  1
VISUALSTYLE
  2
AcDbVisualStyle
  3
ObjectDBX Classes
 90
     4095
 91
       16
280
     0
281
     0
  0
CLASS
  1
SCALE
  2
AcDbScale
  3
ObjectDBX Classes
 90
     1153
 91
       33
280
     0
281
     0
  0
CLASS
  1
MLEADERSTYLE
  2
AcDbMLeaderStyle
  3
ACDB_MLEADERSTYLE_CLASS
 90
     4095
 91
        1
280
     0
281
     0
  0
CLASS
  1
EXACXREFPANELOBJECT
  2
ExAcXREFPanelObject
  3
EXAC_ESW
 90
     1025
 91
        0
280
     0
281
     0
  0
CLASS
  1
NPOCOLLECTION
  2
AcDbImpNonPersistentObjectsCollection
  3
ObjectDBX Classes
 90
     1153
 91
        0
280
     0
281
     0
  0
CLASS
  1
CELLSTYLEMAP
  2
AcDbCellStyleMap
  3
ObjectDBX Classes
 90
     1152
 91
        5
280
     0
281
     0
  0
ENDSEC
  0
SECTION
  2
TABLES
  0
TABLE
  2
VPORT
  5
19
330
0
100
AcDbSymbolTable
 70
     1
  0
VPORT
  5
E1E
330
19
100
AcDbSymbolTableRecord
100
AcDbViewportTableRecord
  2
*Active
 70
     0
 10
0.0
 20
0.0
 11
1.0
 21
1.0
 12
8.244999999999997
 22
5.219999999999999
 13
0.0
 23
0.0
 14
0.14
 24
0.14
 15
0.14
 25
0.14
 16
0.0
 26
0.0
 36
1.0
 17
0.0
 27
0.0
 37
0.0
 40
10.53157894736842
 41
2.281112737920937
 42
50.0
 43
0.0
 44
0.0
 50
0.0
 51
0.0
 71
     0
 72
  1000
 73
     1
 74
     1
 75
     0
 76
     0
 77
     0
 78
     0
281
     0
 65
     1
110
0.0
120
0.0
130
0.0
111
1.0
121
0.0
131
0.0
112
0.0
122
1.0
132
0.0
 79
     0
146
0.0
  0
ENDTAB
  0
TABLE
  2
LTYPE
  5
14
330
0
100
AcDbSymbolTable
 70
     1
  0
LTYPE
  5
15
330
14
100
AcDbSymbolTableRecord
100
AcDbLinetypeTableRecord
  2
ByBlock
 70
     0
  3

 72
    65
 73
     0
 40
0.0
  0
LTYPE
  5
16
330
14
100
AcDbSymbolTableRecord
100
AcDbLinetypeTableRecord
  2
ByLayer
 70
     0
  3

 72
    65
 73
     0
 40
0.0
  0
LTYPE
  5
8
330
14
100
AcDbSymbolTableRecord
100
AcDbLinetypeTableRecord
  2
CONTINUOUS
 70
     0
  3
Solid line
 72
    65
 73
     0
 40
0.0
  0
ENDTAB
  0
TABLE
  2
LAYER
  5
10
102
{ACAD_XDICTIONARY
360
E12
102
}
330
0
100
AcDbSymbolTable
 70
     5
  0
LAYER
  5
4
330
10
100
AcDbSymbolTableRecord
100
AcDbLayerTableRecord
  2
0
 70
     0
 62
     7
  6
CONTINUOUS
370
    -3
390
5
  0
LAYER
  5
22
330
10
100
AcDbSymbolTableRecord
100
AcDbLayerTableRecord
  2
image
 70
     0
 62
     7
  6
CONTINUOUS
370
    -3
390
5
  0
LAYER
  5
BCA
330
10
100
AcDbSymbolTableRecord
100
AcDbLayerTableRecord
  2
text-bubbles
 70
     0
 62
     6
  6
CONTINUOUS
370
    -3
390
5
  0
LAYER
  5
DB6
330
10
100
AcDbSymbolTableRecord
100
AcDbLayerTableRecord
  2
title
 70
     0
 62
     4
  6
CONTINUOUS
370
    -3
390
5
  0
ENDTAB
  0
TABLE
  2
STYLE
  5
11
330
0
100
AcDbSymbolTable
 70
     7
  0
STYLE
  5
12
330
11
100
AcDbSymbolTableRecord
100
AcDbTextStyleTableRecord
  2
STANDARD
 70
     0
 40
0.0
 41
1.0
 50
0.0
 71
     0
 42
0.2
  3
txt
  4

  0
STYLE
  5
23
330
11
100
AcDbSymbolTableRecord
100
AcDbTextStyleTableRecord
  2
ARIAL
 70
     0
 40
0.0
 41
1.0
 50
0.0
 71
     0
 42
0.125
  3
ARIAL.TTF
  4

1001
ACAD
1000
Arial
1071
       34
  0
STYLE
  5
1FB
330
11
100
AcDbSymbolTableRecord
100
AcDbTextStyleTableRecord
  2
ROMANS
 70
     0
 40
0.0
 41
1.0
 50
0.0
 71
     0
 42
0.125
  3
ROMANS.SHX
  4

  0
STYLE
  5
BCB
330
11
100
AcDbSymbolTableRecord
100
AcDbTextStyleTableRecord
  2
WIDFlagNote
 70
     0
 40
0.0
 41
1.0
 50
0.0
 71
     0
 42
0.2
  3
ARIAL.TTF
  4

1001
ACAD
1000
Arial
1071
       34
  0
STYLE
  5
DB7
330
11
100
AcDbSymbolTableRecord
100
AcDbTextStyleTableRecord
  2
L100
 70
     0
 40
0.1
 41
1.0
 50
0.0
 71
     0
 42
0.1
  3
romans.shx
  4

  0
STYLE
  5
DB8
330
11
100
AcDbSymbolTableRecord
100
AcDbTextStyleTableRecord
  2
L200
 70
     0
 40
0.2
 41
1.0
 50
0.0
 71
     0
 42
0.081
  3
ARIAL.TTF
  4

1001
ACAD
1000
Arial
1071
       34
  0
STYLE
  5
DB9
330
11
100
AcDbSymbolTableRecord
100
AcDbTextStyleTableRecord
  2
L80
 70
     0
 40
0.08
 41
1.0
 50
0.0
 71
     0
 42
0.08
  3
ROMANS
  4

  0
ENDTAB
  0
TABLE
  2
VIEW
  5
17
330
0
100
AcDbSymbolTable
 70
     0
  0
ENDTAB
  0
TABLE
  2
UCS
  5
18
330
0
100
AcDbSymbolTable
 70
     0
  0
ENDTAB
  0
TABLE
  2
APPID
  5
1B
330
0
100
AcDbSymbolTable
 70
    37
  0
APPID
  5
1C
330
1B
100
AcDbSymbolTableRecord
100
AcDbRegAppTableRecord
  2
ACAD
 70
     0
  0
APPID
  5
B6B
330
1B
100
AcDbSymbolTableRecord
100
AcDbRegAppTableRecord
  2
WID_Sprinkler
 70
     0
  0
APPID
  5
B6C
330
1B
100
AcDbSymbolTableRecord
100
AcDbRegAppTableRecord
  2
WID_Valve
 70
     0
  0
APPID
  5
B6D
330
1B
100
AcDbSymbolTableRecord
100
AcDbRegAppTableRecord
  2
WID_Fitting
 70
     0
  0
APPID
  5
B6E
330
1B
100
AcDbSymbolTableRecord
100
AcDbRegAppTableRecord
  2
WID_HPNode
 70
     0
  0
APPID
  5
B6F
330
1B
100
AcDbSymbolTableRecord
100
AcDbRegAppTableRecord
  2
WID_Node
 70
     0
  0
APPID
  5
B70
330
1B
100
AcDbSymbolTableRecord
100
AcDbRegAppTableRecord
  2
WID_Conduit
 70
     0
  0
APPID
  5
B71
330
1B
100
AcDbSymbolTableRecord
100
AcDbRegAppTableRecord
  2
WID_SprinklerSection
 70
     0
  0
APPID
  5
B72
330
1B
100
AcDbSymbolTableRecord
100
AcDbRegAppTableRecord
  2
WID_MainLineSection
 70
     0
  0
APPID
  5
B73
330
1B
100
AcDbSymbolTableRecord
100
AcDbRegAppTableRecord
  2
WID_ManifoldSection
 70
     0
  0
APPID
  5
B74
330
1B
100
AcDbSymbolTableRecord
100
AcDbRegAppTableRecord
  2
WID_DripSection
 70
     0
  0
APPID
  5
B75
330
1B
100
AcDbSymbolTableRecord
100
AcDbRegAppTableRecord
  2
WID_HPSection
 70
     0
  0
APPID
  5
B76
330
1B
100
AcDbSymbolTableRecord
100
AcDbRegAppTableRecord
  2
WID_Sleeve
 70
     0
  0
APPID
  5
B77
330
1B
100
AcDbSymbolTableRecord
100
AcDbRegAppTableRecord
  2
WID_Layout
 70
     0
  0
APPID
  5
B78
330
1B
100
AcDbSymbolTableRecord
100
AcDbRegAppTableRecord
  2
WID_Island
 70
     0
  0
APPID
  5
B79
330
1B
100
AcDbSymbolTableRecord
100
AcDbRegAppTableRecord
  2
WID_Controller
 70
     0
  0
APPID
  5
B7A
330
1B
100
AcDbSymbolTableRecord
100
AcDbRegAppTableRecord
  2
WID_SprinklerLateral
 70
     0
  0
APPID
  5
B7B
330
1B
100
AcDbSymbolTableRecord
100
AcDbRegAppTableRecord
  2
WID_HPDripLateral
 70
     0
  0
APPID
  5
B7C
330
1B
100
AcDbSymbolTableRecord
100
AcDbRegAppTableRecord
  2
WID_DripLateral
 70
     0
  0
APPID
  5
B7D
330
1B
100
AcDbSymbolTableRecord
100
AcDbRegAppTableRecord
  2
WID_LabelPipeSize
 70
     0
  0
APPID
  5
B7E
330
1B
100
AcDbSymbolTableRecord
100
AcDbRegAppTableRecord
  2
WID_LabelPipeSegment
 70
     0
  0
APPID
  5
B7F
330
1B
100
AcDbSymbolTableRecord
100
AcDbRegAppTableRecord
  2
WID_LabelValveDesignator
 70
     0
  0
APPID
  5
B80
330
1B
100
AcDbSymbolTableRecord
100
AcDbRegAppTableRecord
  2
WID_CheckArc
 70
     0
  0
APPID
  5
B81
330
1B
100
AcDbSymbolTableRecord
100
AcDbRegAppTableRecord
  2
WID_DesignArc
 70
     0
  0
APPID
  5
B82
330
1B
100
AcDbSymbolTableRecord
100
AcDbRegAppTableRecord
  2
WID_ObjectType
 70
     0
  0
APPID
  5
DBA
330
1B
100
AcDbSymbolTableRecord
100
AcDbRegAppTableRecord
  2
RAK
 70
     0
  0
APPID
  5
DBB
330
1B
100
AcDbSymbolTableRecord
100
AcDbRegAppTableRecord
  2
DCO15
 70
     0
  0
APPID
  5
E17
330
1B
100
AcDbSymbolTableRecord
100
AcDbRegAppTableRecord
  2
BBSI_PltSel
 70
     0
  0
APPID
  5
E18
330
1B
100
AcDbSymbolTableRecord
100
AcDbRegAppTableRecord
  2
BBSI_Plots
 70
     0
  0
APPID
  5
E19
330
1B
100
AcDbSymbolTableRecord
100
AcDbRegAppTableRecord
  2
BBSI_Bookmarks
 70
     0
  0
APPID
  5
E1A
330
1B
100
AcDbSymbolTableRecord
100
AcDbRegAppTableRecord
  2
BBSI_StampsEx
 70
     0
  0
APPID
  5
E1B
330
1B
100
AcDbSymbolTableRecord
100
AcDbRegAppTableRecord
  2
BBSI_Attachs
 70
     0
  0
APPID
  5
E1C
330
1B
100
AcDbSymbolTableRecord
100
AcDbRegAppTableRecord
  2
BBSI_DigSigs
 70
     0
  0
APPID
  5
E1D
330
1B
100
AcDbSymbolTableRecord
100
AcDbRegAppTableRecord
  2
ACAD_PSEXT
 70
     0
  0
APPID
  5
E6D
330
1B
100
AcDbSymbolTableRecord
100
AcDbRegAppTableRecord
  2
ACAD_MLEADERVER
 70
     0
  0
APPID
  5
EA9
330
1B
100
AcDbSymbolTableRecord
100
AcDbRegAppTableRecord
  2
ACAD_EXEMPT_FROM_CAD_STANDARDS
 70
     0
  0
APPID
  5
EBB
330
1B
100
AcDbSymbolTableRecord
100
AcDbRegAppTableRecord
  2
BBSI_BookmarksEx
 70
     0
  0
ENDTAB
  0
TABLE
  2
DIMSTYLE
  5
1D
330
0
100
AcDbSymbolTable
 70
     1
100
AcDbDimStyleTable
 71
     0
  0
DIMSTYLE
105
25
330
1D
100
AcDbSymbolTableRecord
100
AcDbDimStyleTableRecord
  2
STANDARD
 70
     0
279
     2
340
12
  0
ENDTAB
  0
TABLE
  2
BLOCK_RECORD
  5
1
330
0
100
AcDbSymbolTable
 70
     2
  0
BLOCK_RECORD
  5
2
102
{ACAD_XDICTIONARY
360
C2F
102
}
330
1
100
AcDbSymbolTableRecord
100
AcDbBlockTableRecord
  2
*Model_Space
340
A
  0
BLOCK_RECORD
  5
C
330
1
100
AcDbSymbolTableRecord
100
AcDbBlockTableRecord
  2
*Paper_Space
340
F
  0
BLOCK_RECORD
  5
BCC
330
1
100
AcDbSymbolTableRecord
100
AcDbBlockTableRecord
  2
WID_FlagNote
340
0
102
{BLKREFS
331
BD1
331
BD4
331
BE3
331
BE6
331
BE9
331
BEC
331
BEF
331
BF5
331
BFF
331
C02
331
C0B
331
C11
331
C17
331
C1A
331
D58
331
D5B
331
D67
331
D6D
102
}
  0
BLOCK_RECORD
  5
DBC
102
{ACAD_XDICTIONARY
360
F42
102
}
330
1
100
AcDbSymbolTableRecord
100
AcDbBlockTableRecord
  2
titleblock
340
0
102
{BLKREFS
331
DCA
102
}
  0
ENDTAB
  0
ENDSEC
  0
SECTION
  2
BLOCKS
  0
BLOCK
  5
3
330
2
100
AcDbEntity
  8
0
100
AcDbBlockBegin
  2
*Model_Space
 70
     0
 10
0.0
 20
0.0
 30
0.0
  3
*Model_Space
  1

  0
ENDBLK
  5
9
330
2
100
AcDbEntity
  8
0
100
AcDbBlockEnd
  0
BLOCK
  5
D
330
C
100
AcDbEntity
 67
     1
  8
0
100
AcDbBlockBegin
  2
*Paper_Space
 70
     0
 10
0.0
 20
0.0
 30
0.0
  3
*Paper_Space
  1

  0
ENDBLK
  5
E
330
C
100
AcDbEntity
 67
     1
  8
0
100
AcDbBlockEnd
  0
BLOCK
  5
BCF
330
BCC
100
AcDbEntity
  8
0
100
AcDbBlockBegin
  2
WID_FlagNote
 70
     2
 10
0.0
 20
0.0
 30
0.0
  3
WID_FlagNote
  1

  0
ATTDEF
  5
BCD
330
BCC
100
AcDbEntity
  8
0
100
AcDbText
 10
-0.1870932855699673
 20
-0.4039196952684445
 30
0.0
 40
0.5
  1
1
  7
WIDFlagNote
 72
     4
 11
0.0071427308011105
 21
-0.1528965029082807
 31
0.0
100
AcDbAttributeDefinition
  3
NUMBER
  2
NO.
 70
     0
  0
CIRCLE
  5
BCE
330
BCC
100
AcDbEntity
  8
0
100
AcDbCircle
 10
0.0071427308011105
 20
-0.1528965029082807
 30
0.0
 40
0.562531146117974
  0
ENDBLK
  5
BD0
330
BCC
100
AcDbEntity
  8
0
100
AcDbBlockEnd
  0
BLOCK
  5
DC8
330
DBC
100
AcDbEntity
  8
0
100
AcDbBlockBegin
  2
titleblock
 70
     2
 10
0.0
 20
0.0
 30
0.0
  3
titleblock
  1

  0
LWPOLYLINE
  5
DBD
330
DBC
100
AcDbEntity
  8
title
100
AcDbPolyline
 90
        4
 70
     1
 43
0.0
 10
0.0
 20
0.0
 10
16.48999999999999
 20
0.0000000000000001
 10
16.48999999999999
 20
10.44
 10
0.0
 20
10.44
  0
ATTDEF
  5
DBE
330
DBC
100
AcDbEntity
  8
title
100
AcDbText
 10
0.5055556038023421
 20
0.7842270964783673
 30
0.0
 40
0.2
  1
D
  7
L200
 72
     4
 11
0.6064423705144839
 21
0.8842270964783672
 31
0.0
100
AcDbAttributeDefinition
  3
#
  2
D
 70
     0
  0
ATTDEF
  5
DBF
330
DBC
100
AcDbEntity
  8
title
100
AcDbText
 10
1.231442370514484
 20
1.34371230274675
 30
0.0
 40
0.2
  1

  7
L200
100
AcDbAttributeDefinition
  3
DETAIL TITLE TOP LINE
  2
TITLE1
 70
     0
  0
ATTDEF
  5
DC0
330
DBC
100
AcDbEntity
  8
title
100
AcDbText
 10
1.231442370514484
 20
0.9842270964783674
 30
0.0
 40
0.2
  1
TITLE
  7
L200
100
AcDbAttributeDefinition
  3
DETAIL TITLE TOP 2ND LINE
  2
TITLE2
 70
     0
  0
ATTDEF
  5
DC1
330
DBC
100
AcDbEntity
  8
title
100
AcDbText
 10
2.713645751168312
 20
0.5927927664583189
 30
0.0
 40
0.2
  1
TITLE2
  7
L200
100
AcDbAttributeDefinition
  3
DETAIL TITLE BOTTOM 1
  2
TITLE3
 70
     0
  0
ATTDEF
  5
DC2
330
DBC
100
AcDbEntity
  8
title
100
AcDbText
 10
2.713645751168312
 20
0.2692560808167741
 30
0.0
 40
0.2
  1

  7
L200
100
AcDbAttributeDefinition
  3
DETAIL TITLE BOTTOM 2
  2
TITLE4
 70
     0
  0
ATTDEF
  5
DC3
330
DBC
100
AcDbEntity
  8
title
 62
     7
100
AcDbText
 10
8.177214829966379
 20
0.9696027915446398
 30
0.0
 40
0.08
  1
-
  7
L80
 72
     2
 11
8.261024353775903
 21
0.9696027915446398
 31
0.0
100
AcDbAttributeDefinition
  3
REVISION DATE
  2
REVISED
 70
     0
  0
ATTDEF
  5
DC4
330
DBC
100
AcDbEntity
  8
title
 62
     7
100
AcDbText
 10
0.2639423705144838
 20
0.0847116480207214
 30
0.0
 40
0.08
  1
-
  7
L80
100
AcDbAttributeDefinition
  3
DWG-NAME
  2
DWG-NAME
 70
     0
  0
LWPOLYLINE
  5
DC5
330
DBC
100
AcDbEntity
  8
title
 62
     3
100
AcDbPolyline
 90
        2
 70
     1
 43
0.03
 10
0.6064423705144839
 20
0.5417270964783675
 42
0.9999999999999998
 10
0.6064423705144839
 20
1.226727096478367
 42
0.9999999999999998
  0
ATTDEF
  5
DC6
330
DBC
100
AcDbEntity
  8
title
 62
     7
100
AcDbText
 10
1.231442370514484
 20
0.7005637793954894
 30
0.0
 40
0.1
  1
N.T.S.
  7
L100
100
AcDbAttributeDefinition
  3
SCALE
  2
SCALE
 70
     0
  0
LWPOLYLINE
  5
DC7
330
DBC
100
AcDbEntity
  8
title
 62
     3
100
AcDbPolyline
 90
        2
 70
     0
 43
0.04
 39
0.03
 10
0.9489423705144833
 20
0.8842270964783672
 10
8.261024353775903
 20
0.8842270964783672
  0
ENDBLK
  5
DC9
330
DBC
100
AcDbEntity
  8
0
100
AcDbBlockEnd
  0
ENDSEC
  0
SECTION
  2
ENTITIES
  0
ARC
  5
26
330
2
100
AcDbEntity
  8
image
100
AcDbCircle
 10
4.911354446859434
 20
6.749366821680508
 30
0.0
 40
0.3785710499999999
100
AcDbArc
 50
191.4302436995927
 51
228.7974911895485
  0
ARC
  5
28
330
2
100
AcDbEntity
  8
image
100
AcDbCircle
 10
4.911354446859434
 20
6.749366821680508
 30
0.0
 40
0.3785710499999999
100
AcDbArc
 50
311.4302436995928
 51
348.7974911895488
  0
ARC
  5
29
330
2
100
AcDbEntity
  8
image
100
AcDbCircle
 10
4.911354446859434
 20
6.749366821680508
 30
0.0
 40
0.3528567899999999
100
AcDbArc
 50
184.5396682798319
 51
235.68806660931
  0
ARC
  5
2A
330
2
100
AcDbEntity
  8
image
100
AcDbCircle
 10
4.911354446859434
 20
6.749366821680508
 30
0.0
 40
0.3528567899999999
100
AcDbArc
 50
304.5396682798317
 51
355.6880666093099
  0
LINE
  5
2B
330
2
100
AcDbEntity
  8
image
100
AcDbLine
 10
5.042119754517187
 20
6.488603540890052
 30
0.0
 11
4.911424856132825
 21
6.713938355644883
 31
0.0
  0
LINE
  5
2C
330
2
100
AcDbEntity
  8
image
100
AcDbLine
 10
5.072766501484466
 20
6.506378750127266
 30
0.0
 11
4.942071603100103
 21
6.731713564882115
 31
0.0
  0
LINE
  5
2D
330
2
100
AcDbEntity
  8
image
100
AcDbLine
 10
4.750909475149612
 20
6.505739102919973
 30
0.0
 11
4.88070769989217
 21
6.731591612443279
 31
0.0
  0
LINE
  5
2E
330
2
100
AcDbEntity
  8
image
100
AcDbLine
 10
4.781626631390267
 20
6.488085846121579
 30
0.0
 11
4.911424856132825
 21
6.713938355644883
 31
0.0
  0
ARC
  5
2F
330
2
100
AcDbEntity
  8
image
100
AcDbCircle
 10
4.911354446859434
 20
6.749366821680508
 30
0.0
 40
0.291713994
100
AcDbArc
 50
114.5856235096336
 51
66.00053121023929
  0
ARC
  5
30
330
2
100
AcDbEntity
  8
image
100
AcDbCircle
 10
4.664141653601546
 20
7.057998168134743
 30
0.0
 40
0.07428564
100
AcDbArc
 50
38.6946241630309
 51
218.6946241630309
  0
ARC
  5
31
330
2
100
AcDbEntity
  8
image
100
AcDbCircle
 10
4.911354446859434
 20
6.749366821680508
 30
0.0
 40
0.3528567899999999
100
AcDbArc
 50
133.1204249982903
 51
175.6880666093096
  0
ARC
  5
32
330
2
100
AcDbEntity
  8
image
100
AcDbCircle
 10
4.664141653601546
 20
7.057998168134743
 30
0.0
 40
0.06571422
100
AcDbArc
 50
38.6946241630309
 51
218.6946241630309
  0
CIRCLE
  5
33
330
2
100
AcDbEntity
  8
image
100
AcDbCircle
 10
5.306786938664643
 20
6.750152690151166
 30
0.0
 40
0.05142852
  0
LINE
  5
34
330
2
100
AcDbEntity
  8
image
100
AcDbLine
 10
5.154211346859439
 20
7.136165916219601
 30
0.0
 11
5.154211346859439
 21
7.154342107954325
 31
0.0
  0
LWPOLYLINE
  5
35
330
2
100
AcDbEntity
  8
image
100
AcDbPolyline
 90
        7
 70
     0
 43
0.0
 10
5.086498253628619
 20
7.193391331622891
 10
5.005407175093836
 20
7.333373722088721
 10
4.812550429856187
 20
7.333092688913895
 10
4.716365439106084
 20
7.165933331659486
 10
4.813037193593615
 20
6.999055007579924
 10
5.005893938831249
 20
6.999336040754753
 10
5.085339357126235
 20
7.13740378869994
  0
ARC
  5
36
330
2
100
AcDbEntity
  8
image
100
AcDbCircle
 10
4.909222184343718
 20
7.166214364834315
 30
0.0
 40
0.19285695
100
AcDbArc
 50
9.591194790102319
 51
352.6678373480148
  0
LINE
  5
37
330
2
100
AcDbEntity
  8
image
100
AcDbLine
 10
4.668497546859441
 20
7.132155989732565
 30
0.0
 11
4.668497546859441
 21
7.381509046680504
 31
0.0
  0
LINE
  5
38
330
2
100
AcDbEntity
  8
image
100
AcDbLine
 10
4.668497546859441
 20
7.381509046680504
 30
0.0
 11
5.15421134685944
 21
7.381509046680504
 31
0.0
  0
LINE
  5
39
330
2
100
AcDbEntity
  8
image
100
AcDbLine
 10
4.723497491859447
 20
7.381509046680504
 30
0.0
 11
4.723497491859447
 21
8.074677503405807
 31
0.0
  0
LINE
  5
3A
330
2
100
AcDbEntity
  8
image
100
AcDbLine
 10
4.911354446859448
 20
7.375882859876016
 30
0.0
 11
4.889012776786671
 21
7.358009523817797
 31
0.0
  0
LINE
  5
3B
330
2
100
AcDbEntity
  8
image
100
AcDbLine
 10
4.911354446859448
 20
7.375882859876016
 30
0.0
 11
4.934438415380967
 21
7.35741568505878
 31
0.0
  0
LINE
  5
3C
330
2
100
AcDbEntity
  8
image
100
AcDbLine
 10
5.099211401859435
 20
7.381509046680504
 30
0.0
 11
5.099211401859438
 21
8.074677503405807
 31
0.0
  0
LWPOLYLINE
  5
3D
330
2
100
AcDbEntity
  8
image
100
AcDbPolyline
 90
        7
 70
     0
 43
0.0
 10
5.06381071843225
 20
7.186956188273986
 10
4.992243932355677
 20
7.3104973961845
 10
4.825780287865413
 20
7.310254823354354
 10
4.742758539853454
 20
7.165971792004169
 10
4.82620043633176
 20
7.021931333484134
 10
4.992664080822038
 20
7.022173906314277
 10
5.054590569238747
 20
7.129795604045218
  0
LINE
  5
3E
330
2
100
AcDbEntity
  8
image
100
AcDbLine
 10
4.942001193826712
 20
6.767142030917741
 30
0.0
 11
5.07179941856927
 21
6.992994540441044
 31
0.0
  0
LINE
  5
3F
330
2
100
AcDbEntity
  8
image
100
AcDbLine
 10
4.911284037586057
 20
6.784795287716134
 30
0.0
 11
5.041082262328615
 21
7.010647797239441
 31
0.0
  0
LINE
  5
40
330
2
100
AcDbEntity
  8
image
100
AcDbLine
 10
5.202494316953647
 20
6.767659725686202
 30
0.0
 11
4.942001193826712
 21
6.767142030917741
 31
0.0
  0
LINE
  5
41
330
2
100
AcDbEntity
  8
image
100
AcDbLine
 10
5.202564726227038
 20
6.732231259650577
 30
0.0
 11
4.942071603100103
 21
6.731713564882115
 31
0.0
  0
LINE
  5
42
330
2
100
AcDbEntity
  8
image
100
AcDbLine
 10
4.880637290618778
 20
6.767020078478905
 30
0.0
 11
4.749942392234402
 21
6.992354893233736
 31
0.0
  0
LINE
  5
43
330
2
100
AcDbEntity
  8
image
100
AcDbLine
 10
4.911284037586057
 20
6.784795287716134
 30
0.0
 11
4.78058913920168
 21
7.010130102470965
 31
0.0
  0
LINE
  5
44
330
2
100
AcDbEntity
  8
image
100
AcDbLine
 10
4.722120783527586
 20
7.104439279267323
 30
0.0
 11
4.730307770424275
 21
7.094218284002336
 31
0.0
  0
ARC
  5
45
330
2
100
AcDbEntity
  8
image
100
AcDbCircle
 10
4.911354446859434
 20
6.749366821680508
 30
0.0
 40
0.3528567899999999
100
AcDbArc
 50
117.7336579011792
 51
124.268823327769
  0
CIRCLE
  5
46
330
2
100
AcDbEntity
  8
image
100
AcDbCircle
 10
4.664141653601546
 20
7.057998168134743
 30
0.0
 40
0.05142852
  0
LINE
  5
47
330
2
100
AcDbEntity
  8
image
100
AcDbLine
 10
4.612852423282362
 20
7.016915646748214
 30
0.0
 11
4.643329194939383
 21
6.978867101816037
 31
0.0
  0
LINE
  5
48
330
2
100
AcDbEntity
  8
image
100
AcDbLine
 10
4.715430883920731
 20
7.099080689521242
 30
0.0
 11
4.745907655577752
 21
7.061032144589061
 31
0.0
  0
LINE
  5
49
330
2
100
AcDbEntity
  8
image
100
AcDbLine
 10
4.68286892579367
 20
7.080320067026191
 30
0.0
 11
4.665029193508729
 21
7.066030494370012
 31
0.0
  0
LINE
  5
4A
330
2
100
AcDbEntity
  8
image
100
AcDbLine
 10
4.66325411369435
 20
7.049965841899462
 30
0.0
 11
4.645414381409423
 21
7.03567626924328
 31
0.0
  0
LINE
  5
4B
330
2
100
AcDbEntity
  8
image
100
AcDbLine
 10
4.656109327366266
 20
7.058885708041925
 30
0.0
 11
4.638269595081325
 21
7.044596135385747
 31
0.0
  0
LINE
  5
4C
330
2
100
AcDbEntity
  8
image
100
AcDbLine
 10
4.690013712121768
 20
7.071400200883728
 30
0.0
 11
4.672173979836827
 21
7.057110628227546
 31
0.0
  0
LINE
  5
4D
330
2
100
AcDbEntity
  8
image
100
AcDbLine
 10
4.677543686350531
 20
7.032126109614525
 30
0.0
 11
4.66325411369435
 21
7.049965841899462
 31
0.0
  0
LINE
  5
4E
330
2
100
AcDbEntity
  8
image
100
AcDbLine
 10
4.656109327366266
 20
7.058885708041925
 30
0.0
 11
4.641819754710084
 21
7.076725440326869
 31
0.0
  0
LINE
  5
4F
330
2
100
AcDbEntity
  8
image
100
AcDbLine
 10
4.686463552493009
 20
7.039270895942619
 30
0.0
 11
4.672173979836827
 21
7.057110628227546
 31
0.0
  0
LINE
  5
50
330
2
100
AcDbEntity
  8
image
100
AcDbLine
 10
4.665029193508729
 20
7.066030494370012
 30
0.0
 11
4.650739620852561
 21
7.08387022665495
 31
0.0
  0
LINE
  5
51
330
2
100
AcDbEntity
  8
image
100
AcDbLine
 10
4.686463552493009
 20
7.039270895942619
 30
0.0
 11
4.677543686350531
 21
7.032126109614525
 31
0.0
  0
LINE
  5
52
330
2
100
AcDbEntity
  8
image
100
AcDbLine
 10
4.645414381409423
 20
7.03567626924328
 30
0.0
 11
4.638269595081325
 21
7.044596135385747
 31
0.0
  0
LINE
  5
53
330
2
100
AcDbEntity
  8
image
100
AcDbLine
 10
4.641819754710084
 20
7.076725440326869
 30
0.0
 11
4.650739620852561
 21
7.08387022665495
 31
0.0
  0
LINE
  5
54
330
2
100
AcDbEntity
  8
image
100
AcDbLine
 10
4.690013712121768
 20
7.071400200883728
 30
0.0
 11
4.68286892579367
 21
7.080320067026191
 31
0.0
  0
TEXT
  5
55
330
2
100
AcDbEntity
  8
image
100
AcDbText
 10
4.797951323132537
 20
6.834718580669688
 30
0.0
 40
0.0309853983026941
  1
OFF
 50
141.7356063178646
  7
ARIAL
100
AcDbText
  0
LINE
  5
56
330
2
100
AcDbEntity
  8
image
100
AcDbLine
 10
4.791286712347258
 20
6.792402006829844
 30
0.0
 11
4.812391397953177
 21
6.835588395758863
 31
0.0
  0
LINE
  5
57
330
2
100
AcDbEntity
  8
image
100
AcDbLine
 10
4.764756345923956
 20
6.90133621654999
 30
0.0
 11
4.747549776308687
 21
6.887088530203085
 31
0.0
  0
LINE
  5
58
330
2
100
AcDbEntity
  8
image
100
AcDbLine
 10
4.694418585512366
 20
6.913100415466546
 30
0.0
 11
4.764756345923956
 21
6.90133621654999
 31
0.0
  0
LINE
  5
59
330
2
100
AcDbEntity
  8
image
100
AcDbLine
 10
4.694418585512366
 20
6.913100415466546
 30
0.0
 11
4.693539369638457
 21
6.841791061975483
 31
0.0
  0
ARC
  5
5A
330
2
100
AcDbEntity
  8
image
100
AcDbCircle
 10
4.896952673360246
 20
7.008625615846112
 30
0.0
 40
0.1925941038401695
100
AcDbArc
 50
219.127853238955
 51
243.9557784742147
  0
ARC
  5
5B
330
2
100
AcDbEntity
  8
image
100
AcDbCircle
 10
4.896952673360246
 20
7.008625615846112
 30
0.0
 40
0.2406614726390981
100
AcDbArc
 50
219.2818494222607
 51
243.9557784742147
  0
LINE
  5
5C
330
2
100
AcDbEntity
  8
image
100
AcDbLine
 10
4.693539369638457
 20
6.841791061975483
 30
0.0
 11
4.710670870232604
 21
6.856254246369003
 31
0.0
  0
ARC
  5
5D
330
2
100
AcDbEntity
  8
image
100
AcDbCircle
 10
4.911354446859434
 20
6.749366821680508
 30
0.0
 40
0.10714275
100
AcDbArc
 50
129.6304664655075
 51
170.5972684236357
  0
ARC
  5
5E
330
2
100
AcDbEntity
  8
image
100
AcDbCircle
 10
4.911354446859434
 20
6.749366821680508
 30
0.0
 40
0.10714275
100
AcDbArc
 50
189.6304664655087
 51
230.5972684236351
  0
ARC
  5
5F
330
2
100
AcDbEntity
  8
image
100
AcDbCircle
 10
4.911354446859434
 20
6.749366821680508
 30
0.0
 40
0.10714275
100
AcDbArc
 50
249.6304664655061
 51
290.5972684236341
  0
LINE
  5
60
330
2
100
AcDbEntity
  8
image
100
AcDbLine
 10
4.88070769989217
 20
6.731591612443279
 30
0.0
 11
4.620214576765235
 21
6.731073917674804
 31
0.0
  0
LINE
  5
61
330
2
100
AcDbEntity
  8
image
100
AcDbLine
 10
4.880637290618778
 20
6.767020078478905
 30
0.0
 11
4.620144167491844
 21
6.766502383710429
 31
0.0
  0
CIRCLE
  5
62
330
2
100
AcDbEntity
  8
image
100
AcDbCircle
 10
4.911354446859434
 20
6.749366821680508
 30
0.0
 40
0.0354285360000007
  0
ARC
  5
63
330
2
100
AcDbEntity
  8
image
100
AcDbCircle
 10
4.911354446859434
 20
6.749366821680508
 30
0.0
 40
0.10714275
100
AcDbArc
 50
69.63046646550613
 51
110.5972684236341
  0
ARC
  5
64
330
2
100
AcDbEntity
  8
image
100
AcDbCircle
 10
4.911354446859434
 20
6.749366821680508
 30
0.0
 40
0.3785710499999999
100
AcDbArc
 50
11.43024369959235
 51
40.89830281092754
  0
ARC
  5
65
330
2
100
AcDbEntity
  8
image
100
AcDbCircle
 10
4.911354446859434
 20
6.749366821680508
 30
0.0
 40
0.3528567899999999
100
AcDbArc
 50
4.539668279829967
 51
47.78887823068956
  0
LINE
  5
68
330
2
100
AcDbEntity
  8
image
100
AcDbLine
 10
5.212347064617944
 20
7.016367333907764
 30
0.0
 11
5.197506030372366
 21
6.997224262866252
 31
0.0
  0
ARC
  5
69
330
2
100
AcDbEntity
  8
image
100
AcDbCircle
 10
5.153638231005118
 20
7.06188248705517
 30
0.0
 40
0.07428564
100
AcDbArc
 50
322.2146790659497
 51
147.4478151533969
  0
ARC
  5
108
330
2
100
AcDbEntity
  8
image
100
AcDbCircle
 10
4.911354446859434
 20
6.749366821680508
 30
0.0
 40
0.3528567899999999
100
AcDbArc
 50
56.64047990120985
 51
62.85249681869322
  0
CIRCLE
  5
109
330
2
100
AcDbEntity
  8
image
100
AcDbCircle
 10
5.153638231005118
 20
7.06188248705517
 30
0.0
 40
0.05142852
  0
LINE
  5
10A
330
2
100
AcDbEntity
  8
image
100
AcDbLine
 10
5.101703493578412
 20
7.102145891762488
 30
0.0
 11
5.071834377711482
 21
7.063618482046576
 31
0.0
  0
LINE
  5
10B
330
2
100
AcDbEntity
  8
image
100
AcDbLine
 10
5.205572968431852
 20
7.021619082347855
 30
0.0
 11
5.175703852564922
 21
6.98309167263193
 31
0.0
  0
ARC
  5
10C
330
2
100
AcDbEntity
  8
image
100
AcDbCircle
 10
5.153638231005118
 20
7.06188248705517
 30
0.0
 40
0.06571422
100
AcDbArc
 50
322.2146790659497
 51
142.2146790659497
  0
LINE
  5
10D
330
2
100
AcDbEntity
  8
image
100
AcDbLine
 10
5.179719717252169
 20
7.048892723045609
 30
0.0
 11
5.161655460755909
 21
7.062897385552515
 31
0.0
  0
LINE
  5
10E
330
2
100
AcDbEntity
  8
image
100
AcDbLine
 10
5.14562100125434
 20
7.060867588557838
 30
0.0
 11
5.127556744758081
 21
7.074872251064734
 31
0.0
  0
LINE
  5
10F
330
2
100
AcDbEntity
  8
image
100
AcDbLine
 10
5.152623332507786
 20
7.069899716805961
 30
0.0
 11
5.134559076011541
 21
7.083904379312857
 31
0.0
  0
LINE
  5
110
330
2
100
AcDbEntity
  8
image
100
AcDbLine
 10
5.172717385998723
 20
7.039860594797486
 30
0.0
 11
5.154653129502463
 21
7.053865257304382
 31
0.0
  0
LINE
  5
111
330
2
100
AcDbEntity
  8
image
100
AcDbLine
 10
5.131616338747448
 20
7.042803332061579
 30
0.0
 11
5.14562100125434
 21
7.060867588557838
 31
0.0
  0
LINE
  5
112
330
2
100
AcDbEntity
  8
image
100
AcDbLine
 10
5.152623332507786
 20
7.069899716805961
 30
0.0
 11
5.166627995014678
 21
7.087963973302207
 31
0.0
  0
LINE
  5
113
330
2
100
AcDbEntity
  8
image
100
AcDbLine
 10
5.140648466995571
 20
7.035801000808136
 30
0.0
 11
5.154653129502463
 21
7.053865257304382
 31
0.0
  0
LINE
  5
114
330
2
100
AcDbEntity
  8
image
100
AcDbLine
 10
5.161655460755909
 20
7.062897385552515
 30
0.0
 11
5.175660123262815
 21
7.080961642048761
 31
0.0
  0
LINE
  5
115
330
2
100
AcDbEntity
  8
image
100
AcDbLine
 10
5.140648466995571
 20
7.035801000808136
 30
0.0
 11
5.131616338747448
 21
7.042803332061579
 31
0.0
  0
LINE
  5
116
330
2
100
AcDbEntity
  8
image
100
AcDbLine
 10
5.127556744758081
 20
7.074872251064734
 30
0.0
 11
5.134559076011541
 21
7.083904379312857
 31
0.0
  0
LINE
  5
117
330
2
100
AcDbEntity
  8
image
100
AcDbLine
 10
5.166627995014678
 20
7.087963973302207
 30
0.0
 11
5.175660123262815
 21
7.080961642048761
 31
0.0
  0
LINE
  5
118
330
2
100
AcDbEntity
  8
image
100
AcDbLine
 10
5.172717385998723
 20
7.039860594797486
 30
0.0
 11
5.179719717252169
 21
7.048892723045609
 31
0.0
  0
TEXT
  5
119
330
2
100
AcDbEntity
  8
image
100
AcDbText
 10
5.090026957069838
 20
6.880679558723558
 30
0.0
 40
0.0309853983026941
  1
ON
 50
222.2839090722839
  7
ARIAL
100
AcDbText
  0
LINE
  5
11A
330
2
100
AcDbEntity
  8
image
100
AcDbLine
 10
5.130843975400821
 20
6.837740997317764
 30
0.0
 11
5.113983289904666
 21
6.852518997859364
 31
0.0
  0
LINE
  5
11B
330
2
100
AcDbEntity
  8
image
100
AcDbLine
 10
5.131285649791905
 20
6.909054403067299
 30
0.0
 11
5.130843975400821
 21
6.837740997317764
 31
0.0
  0
LINE
  5
11C
330
2
100
AcDbEntity
  8
image
100
AcDbLine
 10
5.060742066803157
 20
6.89859496642015
 30
0.0
 11
5.077681799740076
 21
6.884031036586831
 31
0.0
  0
LINE
  5
11D
330
2
100
AcDbEntity
  8
image
100
AcDbLine
 10
5.131285649791905
 20
6.909054403067299
 30
0.0
 11
5.060742066803157
 21
6.89859496642015
 31
0.0
  0
LINE
  5
11E
330
2
100
AcDbEntity
  8
image
100
AcDbLine
 10
5.032198651830341
 20
6.790170818502842
 30
0.0
 11
5.011897452945873
 21
6.833740685006036
 31
0.0
  0
ARC
  5
11F
330
2
100
AcDbEntity
  8
image
100
AcDbCircle
 10
4.930555550866969
 20
7.008314405251043
 30
0.0
 40
0.1925941038401695
100
AcDbArc
 50
294.982970515579
 51
319.8108957508388
  0
ARC
  5
120
330
2
100
AcDbEntity
  8
image
100
AcDbCircle
 10
4.930555550866969
 20
7.008314405251043
 30
0.0
 40
0.2406614726390981
100
AcDbArc
 50
294.982970515579
 51
319.656899567533
  0
LINE
  5
121
330
2
100
AcDbEntity
  8
image
100
AcDbLine
 10
5.306934571012064
 20
6.675867196850676
 30
0.0
 11
5.282712449942806
 21
6.675819058668709
 31
0.0
  0
LINE
  5
122
330
2
100
AcDbEntity
  8
image
100
AcDbLine
 10
5.306639306317208
 20
6.824438183451688
 30
0.0
 11
5.28241718524795
 21
6.824390045269721
 31
0.0
  0
ARC
  5
123
330
2
100
AcDbEntity
  8
image
100
AcDbCircle
 10
5.077505736996471
 20
6.65233007923439
 30
0.0
 40
0.0714285
100
AcDbArc
 50
195.368358167844
 51
254.631641832156
  0
ARC
  5
124
330
2
100
AcDbEntity
  8
image
100
AcDbCircle
 10
5.077505736996471
 20
6.65233007923439
 30
0.0
 40
0.0714285
100
AcDbArc
 50
105.398678254182
 51
164.6013217458179
  0
ARC
  5
125
330
2
100
AcDbEntity
  8
image
100
AcDbCircle
 10
5.077505736996471
 20
6.65233007923439
 30
0.0
 40
0.0714285
100
AcDbArc
 50
15.38192117103866
 51
74.61807882896131
  0
ARC
  5
126
330
2
100
AcDbEntity
  8
image
100
AcDbCircle
 10
5.077505736996471
 20
6.64711704620346
 30
0.0
 40
0.0255944712389982
100
AcDbArc
 50
190.7795613320426
 51
349.2204386679534
  0
ARC
  5
127
330
2
100
AcDbEntity
  8
image
100
AcDbCircle
 10
5.077505736996471
 20
6.657714559893078
 30
0.0
 40
0.0255629600684277
100
AcDbArc
 50
10.40206377549104
 51
169.5979362245071
  0
LINE
  5
128
330
2
100
AcDbEntity
  8
image
100
AcDbLine
 10
5.052362904996471
 20
6.662330069234398
 30
0.0
 11
5.034648636996465
 21
6.662330069234398
 31
0.0
  0
LINE
  5
129
330
2
100
AcDbEntity
  8
image
100
AcDbLine
 10
5.052362904996471
 20
6.642330089234389
 30
0.0
 11
5.034648636996465
 21
6.642330089234389
 31
0.0
  0
LINE
  5
12A
330
2
100
AcDbEntity
  8
image
100
AcDbLine
 10
5.120362836996463
 20
6.662330069234398
 30
0.0
 11
5.102648568996471
 21
6.662330069234398
 31
0.0
  0
LINE
  5
12B
330
2
100
AcDbEntity
  8
image
100
AcDbLine
 10
5.120362836996463
 20
6.642330089234389
 30
0.0
 11
5.102648568996471
 21
6.642330089234389
 31
0.0
  0
LINE
  5
12C
330
2
100
AcDbEntity
  8
image
100
AcDbLine
 10
5.034648636996465
 20
6.642330089234389
 30
0.0
 11
5.034648636996465
 21
6.662330069234398
 31
0.0
  0
LINE
  5
12D
330
2
100
AcDbEntity
  8
image
100
AcDbLine
 10
5.120362836996463
 20
6.662330069234398
 30
0.0
 11
5.120362836996463
 21
6.642330089234389
 31
0.0
  0
ARC
  5
12E
330
2
100
AcDbEntity
  8
image
100
AcDbCircle
 10
4.983360607675578
 20
6.558184949913508
 30
0.0
 40
0.0793466534212069
100
AcDbArc
 50
13.96242951831129
 51
76.03757048168716
  0
ARC
  5
12F
330
2
100
AcDbEntity
  8
image
100
AcDbCircle
 10
4.98278379598473
 20
6.747052020246128
 30
0.0
 40
0.0800467040505458
100
AcDbArc
 50
284.2634826608927
 51
345.7365173391074
  0
ARC
  5
130
330
2
100
AcDbEntity
  8
image
100
AcDbCircle
 10
5.170886594349681
 20
6.558949221881176
 30
0.0
 40
0.078422534797866
100
AcDbArc
 50
103.5552731076238
 51
166.4447268923759
  0
ARC
  5
131
330
2
100
AcDbEntity
  8
image
100
AcDbCircle
 10
5.171908085526894
 20
6.746732427764824
 30
0.0
 40
0.0796585569616851
100
AcDbArc
 50
194.0973326192699
 51
255.9026673807312
  0
LINE
  5
132
330
2
100
AcDbEntity
  8
image
100
AcDbLine
 10
5.002505811996456
 20
6.635187239234396
 30
0.0
 11
5.002505811996456
 21
6.669472919234392
 31
0.0
  0
LINE
  5
133
330
2
100
AcDbEntity
  8
image
100
AcDbLine
 10
5.152505661996471
 20
6.669472919234392
 30
0.0
 11
5.152505661996471
 21
6.635187239234396
 31
0.0
  0
LINE
  5
134
330
2
100
AcDbEntity
  8
image
100
AcDbLine
 10
5.094648576996462
 20
6.577330154234386
 30
0.0
 11
5.060362896996466
 21
6.577330154234386
 31
0.0
  0
LINE
  5
135
330
2
100
AcDbEntity
  8
image
100
AcDbLine
 10
5.060362896996466
 20
6.727330004234387
 30
0.0
 11
5.094648576996462
 21
6.727330004234387
 31
0.0
  0
ARC
  5
136
330
2
100
AcDbEntity
  8
image
100
AcDbCircle
 10
5.077505736996471
 20
6.65233007923439
 30
0.0
 40
0.0714285
100
AcDbArc
 50
285.3276516595353
 51
344.6723483404647
  0
LINE
  5
137
330
2
100
AcDbEntity
  8
image
100
AcDbLine
 10
5.306656340818847
 20
6.815866780378543
 30
0.0
 11
5.257906817787727
 21
6.815769897310248
 31
0.0
  0
LINE
  5
138
330
2
100
AcDbEntity
  8
image
100
AcDbLine
 10
5.306917536510439
 20
6.684438599923806
 30
0.0
 11
5.25816801347932
 21
6.684341716855511
 31
0.0
  0
LINE
  5
139
330
2
100
AcDbEntity
  8
image
100
AcDbLine
 10
5.278204238753104
 20
6.75581017719452
 30
0.0
 11
5.301061313614795
 21
6.755855602532177
 31
0.0
  0
LINE
  5
13A
330
2
100
AcDbEntity
  8
image
100
AcDbLine
 10
5.278226951421942
 20
6.744381639763675
 30
0.0
 11
5.301084026283632
 21
6.744427065101332
 31
0.0
  0
LINE
  5
13B
330
2
100
AcDbEntity
  8
image
100
AcDbLine
 10
5.278226951421942
 20
6.744381639763675
 30
0.0
 11
5.278204238753104
 21
6.75581017719452
 31
0.0
  0
ARC
  5
13C
330
2
100
AcDbEntity
  8
image
100
AcDbCircle
 10
4.911354446859434
 20
6.749366821680508
 30
0.0
 40
0.10714275
100
AcDbArc
 50
309.6304664655075
 51
350.5972684236336
  0
ARC
  5
13D
330
2
100
AcDbEntity
  8
image
100
AcDbCircle
 10
4.911354446859434
 20
6.749366821680508
 30
0.0
 40
0.10714275
100
AcDbArc
 50
9.630466465505611
 51
50.5972684236351
  0
LINE
  5
13E
330
2
100
AcDbEntity
  8
image
100
AcDbLine
 10
4.948497266859448
 20
6.197035579609147
 30
0.0
 11
4.982782946859444
 21
6.197035579609147
 31
0.0
  0
LINE
  5
13F
330
2
100
AcDbEntity
  8
image
100
AcDbLine
 10
4.911354446859448
 20
6.254178379609141
 30
0.0
 11
4.982782946859444
 21
6.197035579609147
 31
0.0
  0
ARC
  5
140
330
2
100
AcDbEntity
  8
image
100
AcDbCircle
 10
4.911354446859434
 20
6.749366821680508
 30
0.0
 40
0.3785710499999999
100
AcDbArc
 50
251.4302436995921
 51
288.7974911895495
  0
ARC
  5
141
330
2
100
AcDbEntity
  8
image
100
AcDbCircle
 10
4.911354446859434
 20
6.749366821680508
 30
0.0
 40
0.3528567899999999
100
AcDbArc
 50
244.5396682798313
 51
295.6880666093101
  0
LINE
  5
142
330
2
100
AcDbEntity
  8
image
100
AcDbLine
 10
4.948497266859448
 20
6.125607079609137
 30
0.0
 11
4.948497266859448
 21
6.197035579609147
 31
0.0
  0
LINE
  5
143
330
2
100
AcDbEntity
  8
image
100
AcDbLine
 10
4.874211626859434
 20
6.125607079609137
 30
0.0
 11
4.874211626859434
 21
6.197035579609147
 31
0.0
  0
LINE
  5
144
330
2
100
AcDbEntity
  8
image
100
AcDbLine
 10
4.668497546859441
 20
6.34804904985121
 30
0.0
 11
4.668497546859441
 21
6.117224596680502
 31
0.0
  0
TEXT
  5
145
330
2
100
AcDbEntity
  8
image
100
AcDbText
 10
4.895310246673318
 20
6.227378060652041
 30
0.0
 40
0.0309853983026941
  1
FLOW
 50
270.0
 41
0.75
  7
ARIAL
100
AcDbText
  0
LINE
  5
146
330
2
100
AcDbEntity
  8
image
100
AcDbLine
 10
4.911354446859448
 20
6.254178379609141
 30
0.0
 11
4.839925946859437
 21
6.197035579609147
 31
0.0
  0
LINE
  5
147
330
2
100
AcDbEntity
  8
image
100
AcDbLine
 10
4.874211626859434
 20
6.197035579609147
 30
0.0
 11
4.839925946859437
 21
6.197035579609147
 31
0.0
  0
LINE
  5
148
330
2
100
AcDbEntity
  8
image
100
AcDbLine
 10
4.649911842511869
 20
6.443534197347061
 30
0.0
 11
4.661981214158032
 21
6.464535238617555
 31
0.0
  0
ARC
  5
149
330
2
100
AcDbEntity
  8
image
100
AcDbCircle
 10
4.714318783016466
 20
6.406519304060095
 30
0.0
 40
0.07428564
100
AcDbArc
 50
150.1138674445706
 51
330.1138674445706
  0
LINE
  5
14A
330
2
100
AcDbEntity
  8
image
100
AcDbLine
 10
4.778725723521077
 20
6.36950441077313
 30
0.0
 11
4.79079509516724
 21
6.390505452043624
 31
0.0
  0
LINE
  5
14B
330
2
100
AcDbEntity
  8
image
100
AcDbLine
 10
4.706517103494036
 20
6.404412223504875
 30
0.0
 11
4.695127905559587
 21
6.384594703349618
 31
0.0
  0
LINE
  5
14C
330
2
100
AcDbEntity
  8
image
100
AcDbLine
 10
4.716425863571672
 20
6.398717624537654
 30
0.0
 11
4.705036665637223
 21
6.378900104382394
 31
0.0
  0
LINE
  5
14D
330
2
100
AcDbEntity
  8
image
100
AcDbLine
 10
4.72212046253891
 20
6.408626384615287
 30
0.0
 11
4.741937982694167
 21
6.397237186680838
 31
0.0
  0
LINE
  5
14E
330
2
100
AcDbEntity
  8
image
100
AcDbLine
 10
4.716425863571672
 20
6.398717624537665
 30
0.0
 11
4.736243383726943
 21
6.387328426603216
 31
0.0
  0
LINE
  5
14F
330
2
100
AcDbEntity
  8
image
100
AcDbLine
 10
4.733509660473359
 20
6.428443904770558
 30
0.0
 11
4.72212046253891
 21
6.408626384615287
 31
0.0
  0
LINE
  5
150
330
2
100
AcDbEntity
  8
image
100
AcDbLine
 10
4.723600900395723
 20
6.434138503737782
 30
0.0
 11
4.712211702461274
 21
6.414320983582515
 31
0.0
  0
LINE
  5
151
330
2
100
AcDbEntity
  8
image
100
AcDbLine
 10
4.692394182306003
 20
6.425710181516974
 30
0.0
 11
4.712211702461274
 21
6.414320983582515
 31
0.0
  0
LINE
  5
152
330
2
100
AcDbEntity
  8
image
100
AcDbLine
 10
4.686699583338779
 20
6.415801421439338
 30
0.0
 11
4.706517103494036
 21
6.404412223504893
 31
0.0
  0
LINE
  5
153
330
2
100
AcDbEntity
  8
image
100
AcDbLine
 10
4.692394182306003
 20
6.425710181516974
 30
0.0
 11
4.686699583338779
 21
6.415801421439338
 31
0.0
  0
LINE
  5
154
330
2
100
AcDbEntity
  8
image
100
AcDbLine
 10
4.741937982694167
 20
6.397237186680838
 30
0.0
 11
4.736243383726943
 21
6.387328426603216
 31
0.0
  0
LINE
  5
155
330
2
100
AcDbEntity
  8
image
100
AcDbLine
 10
4.723600900395723
 20
6.434138503737782
 30
0.0
 11
4.733509660473359
 21
6.428443904770558
 31
0.0
  0
LINE
  5
156
330
2
100
AcDbEntity
  8
image
100
AcDbLine
 10
4.705036665637223
 20
6.378900104382394
 30
0.0
 11
4.695127905559587
 21
6.384594703349618
 31
0.0
  0
LINE
  5
157
330
2
100
AcDbEntity
  8
image
100
AcDbLine
 10
4.657343412570085
 20
6.439263248121632
 30
0.0
 11
4.6816342708873
 21
6.481530015023112
 31
0.0
  0
LINE
  5
158
330
2
100
AcDbEntity
  8
image
100
AcDbLine
 10
4.771294153462861
 20
6.373775359998548
 30
0.0
 11
4.795585011780076
 21
6.416042126900007
 31
0.0
  0
ARC
  5
159
330
2
100
AcDbEntity
  8
image
100
AcDbCircle
 10
4.714318783016466
 20
6.406519304060095
 30
0.0
 40
0.06571422
100
AcDbArc
 50
150.1138674445706
 51
330.1138674445706
  0
CIRCLE
  5
15A
330
2
100
AcDbEntity
  8
image
100
AcDbCircle
 10
4.714318783016466
 20
6.406519304060095
 30
0.0
 40
0.05142852
  0
LINE
  5
15B
330
2
100
AcDbEntity
  8
image
100
AcDbLine
 10
5.15421134685944
 20
6.347793339214971
 30
0.0
 11
5.15421134685944
 21
6.117224596680502
 31
0.0
  0
LINE
  5
15C
330
2
100
AcDbEntity
  8
image
100
AcDbLine
 10
5.045491966664485
 20
6.370034572517228
 30
0.0
 11
5.03333921724139
 21
6.390987475605756
 31
0.0
  0
ARC
  5
15D
330
2
100
AcDbEntity
  8
image
100
AcDbCircle
 10
5.109751274821675
 20
6.407305172530756
 30
0.0
 40
0.07428564
100
AcDbArc
 50
210.1138674445706
 51
30.1138674445706
  0
LINE
  5
15E
330
2
100
AcDbEntity
  8
image
100
AcDbLine
 10
5.174010582978851
 20
6.444575772544309
 30
0.0
 11
5.161857833555757
 21
6.465528675632837
 31
0.0
  0
CIRCLE
  5
15F
330
2
100
AcDbEntity
  8
image
100
AcDbCircle
 10
5.109751274821675
 20
6.407305172530756
 30
0.0
 40
0.05142852
  0
LINE
  5
160
330
2
100
AcDbEntity
  8
image
100
AcDbLine
 10
5.16659604742226
 20
6.440275318696594
 30
0.0
 11
5.142137382708355
 21
6.482445202529758
 31
0.0
  0
LINE
  5
161
330
2
100
AcDbEntity
  8
image
100
AcDbLine
 10
5.052906502221077
 20
6.37433502636493
 30
0.0
 11
5.028447837507187
 21
6.416504910198115
 31
0.0
  0
ARC
  5
162
330
2
100
AcDbEntity
  8
image
100
AcDbCircle
 10
5.109751274821675
 20
6.407305172530756
 30
0.0
 40
0.06571422
100
AcDbArc
 50
210.1138674445706
 51
30.1138674445706
  0
LINE
  5
163
330
2
100
AcDbEntity
  8
image
100
AcDbLine
 10
5.087903125531482
 20
6.388027302667309
 30
0.0
 11
5.107675220349079
 21
6.39949517959455
 31
0.0
  0
LINE
  5
164
330
2
100
AcDbEntity
  8
image
100
AcDbLine
 10
5.111827329294257
 20
6.41511516546697
 30
0.0
 11
5.131599424111854
 21
6.426583042394215
 31
0.0
  0
LINE
  5
165
330
2
100
AcDbEntity
  8
image
100
AcDbLine
 10
5.117561267757878
 20
6.405229118058175
 30
0.0
 11
5.137333362575475
 21
6.416696994985413
 31
0.0
  0
LINE
  5
166
330
2
100
AcDbEntity
  8
image
100
AcDbLine
 10
5.082169187067862
 20
6.397913350076107
 30
0.0
 11
5.101941281885459
 21
6.409381227003349
 31
0.0
  0
LINE
  5
167
330
2
100
AcDbEntity
  8
image
100
AcDbLine
 10
5.100359452367015
 20
6.434887260284567
 30
0.0
 11
5.111827329294257
 21
6.41511516546697
 31
0.0
  0
LINE
  5
168
330
2
100
AcDbEntity
  8
image
100
AcDbLine
 10
5.117561267757892
 20
6.405229118058175
 30
0.0
 11
5.129029144685119
 21
6.385457023240578
 31
0.0
  0
LINE
  5
169
330
2
100
AcDbEntity
  8
image
100
AcDbLine
 10
5.090473404958217
 20
6.429153321820946
 30
0.0
 11
5.101941281885459
 21
6.409381227003349
 31
0.0
  0
LINE
  5
16A
330
2
100
AcDbEntity
  8
image
100
AcDbLine
 10
5.107675220349079
 20
6.399495179594536
 30
0.0
 11
5.119143097276321
 21
6.379723084776953
 31
0.0
  0
LINE
  5
16B
330
2
100
AcDbEntity
  8
image
100
AcDbLine
 10
5.090473404958217
 20
6.429153321820946
 30
0.0
 11
5.100359452367015
 21
6.434887260284567
 31
0.0
  0
LINE
  5
16C
330
2
100
AcDbEntity
  8
image
100
AcDbLine
 10
5.131599424111854
 20
6.426583042394215
 30
0.0
 11
5.137333362575475
 21
6.416696994985413
 31
0.0
  0
LINE
  5
16D
330
2
100
AcDbEntity
  8
image
100
AcDbLine
 10
5.129029144685119
 20
6.385457023240578
 30
0.0
 11
5.119143097276321
 21
6.379723084776953
 31
0.0
  0
LINE
  5
16E
330
2
100
AcDbEntity
  8
image
100
AcDbLine
 10
5.082169187067862
 20
6.397913350076107
 30
0.0
 11
5.087903125531482
 21
6.388027302667309
 31
0.0
  0
ARC
  5
16F
102
{ACAD_REACTORS
330
C16
102
}
330
2
100
AcDbEntity
  8
image
100
AcDbCircle
 10
4.911354446859434
 20
6.749366821680508
 30
0.0
 40
0.3785710499999999
100
AcDbArc
 50
140.0110004180524
 51
168.7974911895491
  0
LINE
  5
170
330
2
100
AcDbEntity
  8
image
100
AcDbLine
 10
4.515774322706818
 20
6.822866446510344
 30
0.0
 11
4.539996443776075
 21
6.822914584692297
 31
0.0
  0
ARC
  5
171
330
2
100
AcDbEntity
  8
image
100
AcDbCircle
 10
4.515921955054238
 20
6.748580953209836
 30
0.0
 40
0.07428564
100
AcDbArc
 50
90.11386744457057
 51
270.1138674445705
  0
LINE
  5
172
330
2
100
AcDbEntity
  8
image
100
AcDbLine
 10
4.516069587401673
 20
6.674295459909332
 30
0.0
 11
4.540291708470917
 21
6.674343598091281
 31
0.0
  0
CIRCLE
  5
173
330
2
100
AcDbEntity
  8
image
100
AcDbCircle
 10
4.515921955054238
 20
6.748580953209836
 30
0.0
 40
0.05142852
  0
LINE
  5
174
330
2
100
AcDbEntity
  8
image
100
AcDbLine
 10
4.516052552900035
 20
6.682866862982463
 30
0.0
 11
4.564802075931154
 21
6.682963746050772
 31
0.0
  0
LINE
  5
175
330
2
100
AcDbEntity
  8
image
100
AcDbLine
 10
4.515791357208442
 20
6.81429504343721
 30
0.0
 11
4.564540880239562
 21
6.814391926505505
 31
0.0
  0
ARC
  5
176
330
2
100
AcDbEntity
  8
image
100
AcDbCircle
 10
4.515921955054238
 20
6.748580953209836
 30
0.0
 40
0.06571422
100
AcDbArc
 50
90.11386744457057
 51
270.1138674445705
  0
LINE
  5
177
330
2
100
AcDbEntity
  8
image
100
AcDbLine
 10
4.51015090466673
 20
6.777140940452538
 30
0.0
 11
4.510196330004404
 21
6.754283865590847
 31
0.0
  0
LINE
  5
178
330
2
100
AcDbEntity
  8
image
100
AcDbLine
 10
4.521647580104087
 20
6.742878040828829
 30
0.0
 11
4.521693005441761
 21
6.720020965967139
 31
0.0
  0
LINE
  5
179
330
2
100
AcDbEntity
  8
image
100
AcDbLine
 10
4.510219042673242
 20
6.742855328160002
 30
0.0
 11
4.510264468010902
 21
6.719998253298312
 31
0.0
  0
LINE
  5
17A
330
2
100
AcDbEntity
  8
image
100
AcDbLine
 10
4.521579442097589
 20
6.777163653121375
 30
0.0
 11
4.521624867435249
 21
6.754306578259685
 31
0.0
  0
LINE
  5
17B
330
2
100
AcDbEntity
  8
image
100
AcDbLine
 10
4.544504654965777
 20
6.7429234661665
 30
0.0
 11
4.521647580104087
 21
6.742878040828829
 31
0.0
  0
LINE
  5
17C
330
2
100
AcDbEntity
  8
image
100
AcDbLine
 10
4.510219042673242
 20
6.742855328159988
 30
0.0
 11
4.487361967811537
 21
6.742809902822331
 31
0.0
  0
LINE
  5
17D
330
2
100
AcDbEntity
  8
image
100
AcDbLine
 10
4.54448194229694
 20
6.754352003597345
 30
0.0
 11
4.521624867435249
 21
6.754306578259685
 31
0.0
  0
LINE
  5
17E
330
2
100
AcDbEntity
  8
image
100
AcDbLine
 10
4.510196330004404
 20
6.754283865590847
 30
0.0
 11
4.487339255142714
 21
6.754238440253176
 31
0.0
  0
LINE
  5
17F
330
2
100
AcDbEntity
  8
image
100
AcDbLine
 10
4.54448194229694
 20
6.754352003597345
 30
0.0
 11
4.544504654965777
 21
6.7429234661665
 31
0.0
  0
LINE
  5
180
330
2
100
AcDbEntity
  8
image
100
AcDbLine
 10
4.521693005441761
 20
6.720020965967139
 30
0.0
 11
4.510264468010902
 21
6.719998253298312
 31
0.0
  0
LINE
  5
181
330
2
100
AcDbEntity
  8
image
100
AcDbLine
 10
4.487361967811537
 20
6.742809902822331
 30
0.0
 11
4.487339255142714
 21
6.754238440253176
 31
0.0
  0
LINE
  5
182
330
2
100
AcDbEntity
  8
image
100
AcDbLine
 10
4.521579442097589
 20
6.777163653121375
 30
0.0
 11
4.51015090466673
 21
6.777140940452538
 31
0.0
  0
ARC
  5
183
330
2
100
AcDbEntity
  8
image
100
AcDbCircle
 10
5.306786938664643
 20
6.750152690151166
 30
0.0
 40
0.07428564
100
AcDbArc
 50
270.1138674445706
 51
90.11386744457057
  0
ARC
  5
184
330
2
100
AcDbEntity
  8
image
100
AcDbCircle
 10
5.306786938664643
 20
6.750152690151166
 30
0.0
 40
0.07428564
100
AcDbArc
 50
270.1138674445706
 51
90.11386744457057
  0
ARC
  5
185
330
2
100
AcDbEntity
  8
image
100
AcDbCircle
 10
5.306786938664643
 20
6.750152690151166
 30
0.0
 40
0.06571422
100
AcDbArc
 50
270.1138674445706
 51
90.11386744457057
  0
LINE
  5
186
330
2
100
AcDbEntity
  8
image
100
AcDbLine
 10
5.312489851045654
 20
6.755878315201018
 30
0.0
 11
5.335346925907344
 21
6.755923740538689
 31
0.0
  0
LINE
  5
187
330
2
100
AcDbEntity
  8
image
100
AcDbLine
 10
5.312512563714477
 20
6.744449777770173
 30
0.0
 11
5.335369638576167
 21
6.744495203107844
 31
0.0
  0
LINE
  5
188
330
2
100
AcDbEntity
  8
image
100
AcDbLine
 10
5.312557989052152
 20
6.721592702908482
 30
0.0
 11
5.312512563714477
 21
6.744449777770173
 31
0.0
  0
LINE
  5
189
330
2
100
AcDbEntity
  8
image
100
AcDbLine
 10
5.301061313614795
 20
6.755855602532177
 30
0.0
 11
5.301015888277134
 21
6.778712677393881
 31
0.0
  0
LINE
  5
18A
330
2
100
AcDbEntity
  8
image
100
AcDbLine
 10
5.31248985104564
 20
6.755878315201018
 30
0.0
 11
5.31244442570798
 21
6.778735390062708
 31
0.0
  0
LINE
  5
18B
330
2
100
AcDbEntity
  8
image
100
AcDbLine
 10
5.301129451621306
 20
6.721569990239641
 30
0.0
 11
5.301084026283632
 21
6.744427065101332
 31
0.0
  0
LINE
  5
18C
330
2
100
AcDbEntity
  8
image
100
AcDbLine
 10
5.301015888277134
 20
6.778712677393881
 30
0.0
 11
5.31244442570798
 21
6.778735390062708
 31
0.0
  0
LINE
  5
18D
330
2
100
AcDbEntity
  8
image
100
AcDbLine
 10
5.301129451621306
 20
6.721569990239641
 30
0.0
 11
5.312557989052152
 21
6.721592702908482
 31
0.0
  0
LINE
  5
18E
330
2
100
AcDbEntity
  8
image
100
AcDbLine
 10
5.335346925907344
 20
6.755923740538689
 30
0.0
 11
5.335369638576167
 21
6.744495203107844
 31
0.0
  0
LINE
  5
18F
330
2
100
AcDbEntity
  8
image
100
AcDbLine
 10
5.15421134685944
 20
6.117224596680502
 30
0.0
 11
4.668497546859441
 21
6.117224596680502
 31
0.0
  0
LINE
  5
190
330
2
100
AcDbEntity
  8
image
100
AcDbLine
 10
5.082782846859444
 20
6.117224596680502
 30
0.0
 11
5.082782846859441
 21
5.33179620956645
 31
0.0
  0
LINE
  5
191
330
2
100
AcDbEntity
  8
image
100
AcDbLine
 10
4.739926046859434
 20
5.33179620956645
 30
0.0
 11
4.739926046859437
 21
6.117224596680502
 31
0.0
  0
LINE
  5
19A
330
2
100
AcDbEntity
  8
image
100
AcDbLine
 10
3.747891523095681
 20
4.970632557841811
 30
0.0
 11
4.307333895134796
 21
4.970632557841811
 31
0.0
  0
LINE
  5
19B
330
2
100
AcDbEntity
  8
image
100
AcDbLine
 10
3.747891523095681
 20
4.594918647841823
 30
0.0
 11
4.307333895134792
 21
4.594918647841823
 31
0.0
  0
LINE
  5
19C
330
2
100
AcDbEntity
  8
image
100
AcDbLine
 10
4.307333895134796
 20
5.042061057841807
 30
0.0
 11
4.668497546859441
 21
5.042061057841807
 31
0.0
  0
LINE
  5
19D
330
2
100
AcDbEntity
  8
image
100
AcDbLine
 10
4.307333895134792
 20
4.523490147841828
 30
0.0
 11
5.515374998584075
 21
4.523490147841827
 31
0.0
  0
LINE
  5
19E
330
2
100
AcDbEntity
  8
image
100
AcDbLine
 10
4.668497546859441
 20
5.042061057841807
 30
0.0
 11
4.668497546859441
 21
5.33179620956645
 31
0.0
  0
LINE
  5
19F
330
2
100
AcDbEntity
  8
image
100
AcDbLine
 10
5.15421134685944
 20
5.33179620956645
 30
0.0
 11
5.15421134685944
 21
5.042061057841807
 31
0.0
  0
LINE
  5
1A0
330
2
100
AcDbEntity
  8
image
100
AcDbLine
 10
4.668497546859441
 20
5.33179620956645
 30
0.0
 11
5.15421134685944
 21
5.33179620956645
 31
0.0
  0
LINE
  5
1A1
330
2
100
AcDbEntity
  8
image
100
AcDbLine
 10
4.307333895134792
 20
4.523490147841827
 30
0.0
 11
4.307333895134796
 21
5.042061057841807
 31
0.0
  0
LINE
  5
1A2
330
2
100
AcDbEntity
  8
image
100
AcDbLine
 10
5.515374998584078
 20
5.042061057841807
 30
0.0
 11
5.515374998584075
 21
4.523490147841827
 31
0.0
  0
LINE
  5
1A3
330
2
100
AcDbEntity
  8
image
100
AcDbLine
 10
5.515374998584078
 20
4.970632557841811
 30
0.0
 11
7.430048014067825
 21
4.970632557841811
 31
0.0
  0
LINE
  5
1A4
330
2
100
AcDbEntity
  8
image
100
AcDbLine
 10
5.515374998584078
 20
4.594918647841823
 30
0.0
 11
7.430048014067825
 21
4.594918647841823
 31
0.0
  0
LINE
  5
1A5
330
2
100
AcDbEntity
  8
image
100
AcDbLine
 10
5.154211346859444
 20
5.042061057841807
 30
0.0
 11
5.515374998584078
 21
5.042061057841807
 31
0.0
  0
LWPOLYLINE
  5
1D2
330
2
100
AcDbEntity
  8
image
100
AcDbPolyline
 90
        2
 70
     0
 43
0.0
 10
5.888777098119536
 20
6.285394508733334
 10
5.89826479793994
 20
6.285394508733334
  0
LWPOLYLINE
  5
1D3
330
2
100
AcDbEntity
  8
image
100
AcDbPolyline
 90
        2
 70
     0
 43
0.0
 10
6.514144797672429
 20
6.285394508733334
 10
6.504657097852028
 20
6.285394508733334
  0
ARC
  5
1D5
330
2
100
AcDbEntity
  8
image
100
AcDbCircle
 10
6.201460947895981
 20
6.27949308881215
 30
0.0
 40
0.312739534865845
100
AcDbArc
 50
91.12737078578346
 51
76.41591114851613
  0
LWPOLYLINE
  5
1D6
330
2
100
AcDbEntity
  8
image
100
AcDbPolyline
 90
        2
 70
     0
 43
0.0
 10
6.090379192227228
 20
5.993629607723752
 10
6.312542703565181
 20
5.993629607723923
  0
ARC
  5
1D7
330
2
100
AcDbEntity
  8
image
100
AcDbCircle
 10
6.201460947895981
 20
6.27949308881215
 30
0.0
 40
0.3032535772340587
100
AcDbArc
 50
1.115066153689924
 51
76.21889079708044
  0
LWPOLYLINE
  5
1E1
330
2
100
AcDbEntity
  8
image
100
AcDbPolyline
 90
        4
 70
     0
 43
0.0
 10
6.139401426503919
 20
6.251619035164397
 10
5.910680265366089
 20
6.251619035164397
 42
0.4265656311639141
 10
5.89847464424087
 20
6.238889859909756
 42
0.0090044280057988
 10
5.899129505006538
 20
6.227987895842735
 42
0.0090044280057988
  0
LWPOLYLINE
  5
1E2
330
2
100
AcDbEntity
  8
image
100
AcDbPolyline
 90
        2
 70
     0
 43
0.0
 10
6.139401426503919
 20
6.251619035164397
 10
6.166123147346169
 20
6.227987895842735
  0
LWPOLYLINE
  5
1E3
330
2
100
AcDbEntity
  8
image
100
AcDbPolyline
 90
        2
 70
     0
 43
0.0
 10
6.166123147346169
 20
6.175701754857355
 10
6.166123147346169
 20
6.227987895842735
  0
LWPOLYLINE
  5
1E4
330
2
100
AcDbEntity
  8
image
100
AcDbPolyline
 90
        4
 70
     0
 43
0.0
 10
6.263520469288049
 20
6.251619035164397
 10
6.49224163042632
 20
6.251619035164397
 42
-0.4265656311639141
 10
6.504447251551543
 20
6.238889859909756
 42
-0.0090044280057988
 10
6.503792390785868
 20
6.227987895842735
 42
-0.0090044280057988
  0
LWPOLYLINE
  5
1E5
330
2
100
AcDbEntity
  8
image
100
AcDbPolyline
 90
        2
 70
     0
 43
0.0
 10
6.236798748445799
 20
6.227987895842735
 10
6.263520469288049
 20
6.251619035164397
  0
LWPOLYLINE
  5
1E6
330
2
100
AcDbEntity
  8
image
100
AcDbPolyline
 90
        2
 70
     0
 43
0.0
 10
6.236798748445799
 20
6.175701754857355
 10
6.236798748445799
 20
6.227987895842735
  0
LWPOLYLINE
  5
1E7
330
2
100
AcDbEntity
  8
image
100
AcDbPolyline
 90
        2
 70
     0
 43
0.0
 10
6.236798748445799
 20
6.175701754857355
 10
6.166123147346169
 20
6.175701754857355
  0
ARC
  5
1E8
330
2
100
AcDbEntity
  8
image
100
AcDbCircle
 10
6.201460947895981
 20
6.27949308881215
 30
0.0
 40
0.3066872776337978
100
AcDbArc
 50
189.6680927812357
 51
248.7647082492459
  0
ARC
  5
1E9
330
2
100
AcDbEntity
  8
image
100
AcDbCircle
 10
6.201460947895981
 20
6.27949308881215
 30
0.0
 40
0.3066872776337978
100
AcDbArc
 50
291.2352917508421
 51
350.3319072187642
  0
CIRCLE
  5
1EA
102
{ACAD_REACTORS
330
1F7
102
}
330
2
100
AcDbEntity
  8
image
 62
     5
100
AcDbCircle
 10
6.183792047621075
 20
6.1895014478134
 30
0.0
 40
0.0130715352463461
  0
CIRCLE
  5
1EB
102
{ACAD_REACTORS
330
1F7
102
}
330
2
100
AcDbEntity
  8
image
100
AcDbCircle
 10
6.219129848170886
 20
6.1895014478134
 30
0.0
 40
0.0130715352463461
  0
ARC
  5
1EC
330
2
100
AcDbEntity
  8
image
100
AcDbCircle
 10
6.219129848170886
 20
6.217100819761137
 30
0.0
 40
0.0130715352463461
100
AcDbArc
 50
179.9999999999922
 51
0.0000000000155724
  0
ARC
  5
1ED
330
2
100
AcDbEntity
  8
image
100
AcDbCircle
 10
6.183792047621075
 20
6.217100819761137
 30
0.0
 40
0.0130715352463461
100
AcDbArc
 50
179.7787546213657
 51
0.0000000020711325
  0
HATCH
  5
1F7
330
2
100
AcDbEntity
  8
image
 62
     5
100
AcDbHatch
 10
0.0
 20
0.0
 30
0.0
210
0.0
220
0.0
230
1.0
  2
SOLID
 70
     1
 71
     1
 91
        2
 92
        7
 72
     1
 73
     1
 93
        2
 10
6.196863582867421
 20
6.1895014478134
 42
1.0
 10
6.170720512374729
 20
6.1895014478134
 42
1.0
 97
        1
330
1EA
 92
        7
 72
     1
 73
     1
 93
        2
 10
6.232201383417232
 20
6.1895014478134
 42
1.0
 10
6.206058312924541
 20
6.1895014478134
 42
1.0
 97
        1
330
1EB
 75
     0
 76
     1
 47
0.0013567699850511
 98
        2
 10
6.184739564521411
 20
6.191226383743517
 10
6.218332428193573
 20
6.188829120098608
450
        0
451
        0
460
0.0
461
0.0
452
        0
462
0.0
453
        0
470

  0
LWPOLYLINE
  5
21A
102
{ACAD_REACTORS
330
BFE
102
}
330
2
100
AcDbEntity
  8
image
100
AcDbPolyline
 90
        4
 70
     1
 43
0.0
 10
0.6840214384832813
 20
3.473188229502393
 10
2.177885839795766
 20
3.473188229502393
 10
2.177885839795766
 20
5.869374839701773
 10
0.6840214384832813
 20
5.869374839701773
  0
LINE
  5
21B
330
2
100
AcDbEntity
  8
image
100
AcDbLine
 10
1.829266288760344
 20
5.869374839701773
 30
0.0
 11
1.829266288760344
 21
3.473188229502393
 31
0.0
  0
LINE
  5
21C
102
{ACAD_REACTORS
330
C0A
102
}
330
2
100
AcDbEntity
  8
image
100
AcDbLine
 10
5.875497545498891
 20
7.607173901808332
 30
0.0
 11
6.125497545498891
 21
7.607173901808332
 31
0.0
  0
LINE
  5
21D
330
2
100
AcDbEntity
  8
image
100
AcDbLine
 10
5.831747545498888
 20
7.384673901808332
 30
0.0
 11
6.16924754549889
 21
7.384673901808332
 31
0.0
  0
LINE
  5
223
330
2
100
AcDbEntity
  8
image
100
AcDbLine
 10
5.875497545498891
 20
7.607173901808332
 30
0.0
 11
5.875497545498891
 21
7.557173901808333
 31
0.0
  0
LINE
  5
226
330
2
100
AcDbEntity
  8
image
100
AcDbLine
 10
5.871951905619649
 20
7.571283711532311
 30
0.0
 11
5.828280954984634
 21
7.526448202213696
 31
0.0
  0
LINE
  5
227
330
2
100
AcDbEntity
  8
image
100
AcDbLine
 10
5.819247545498893
 20
7.50003321871141
 30
0.0
 11
5.819247545498893
 21
7.397173901808333
 31
0.0
  0
ARC
  5
229
330
2
100
AcDbEntity
  8
image
100
AcDbCircle
 10
5.831747545498888
 20
7.397173901808333
 30
0.0
 40
0.0125
100
AcDbArc
 50
180.0
 51
270.0000000000001
  0
ARC
  5
22B
330
2
100
AcDbEntity
  8
image
100
AcDbCircle
 10
5.862997545498888
 20
7.580005490870712
 30
0.0
 40
0.0125
100
AcDbArc
 50
315.7538483330708
 51
0.0
  0
ARC
  5
22C
330
2
100
AcDbEntity
  8
image
100
AcDbCircle
 10
6.16924754549889
 20
7.397173901808333
 30
0.0
 40
0.0125
100
AcDbArc
 50
269.9999999999999
 51
0.000000000000007
  0
LINE
  5
22D
330
2
100
AcDbEntity
  8
image
100
AcDbLine
 10
6.129043185378133
 20
7.571283711532311
 30
0.0
 11
6.178201905619648
 21
7.520814092084354
 31
0.0
  0
LINE
  5
22E
330
2
100
AcDbEntity
  8
image
100
AcDbLine
 10
6.18174754549889
 20
7.512092312745952
 30
0.0
 11
6.18174754549889
 21
7.506824883063217
 31
0.0
  0
ARC
  5
22F
330
2
100
AcDbEntity
  8
image
100
AcDbCircle
 10
6.16924754549889
 20
7.512092312745952
 30
0.0
 40
0.0125
100
AcDbArc
 50
0.000000000000007
 51
44.24615166692921
  0
LINE
  5
230
330
2
100
AcDbEntity
  8
image
100
AcDbLine
 10
6.125497545498891
 20
7.607173901808332
 30
0.0
 11
6.125497545498891
 21
7.557173901808333
 31
0.0
  0
ARC
  5
231
330
2
100
AcDbEntity
  8
image
100
AcDbCircle
 10
6.13799754549889
 20
7.580005490870712
 30
0.0
 40
0.0125
100
AcDbArc
 50
180.0
 51
224.2461516669292
  0
LINE
  5
232
330
2
100
AcDbEntity
  8
image
100
AcDbLine
 10
5.831747545498888
 20
7.465923901808332
 30
0.0
 11
5.919247545498887
 21
7.465923901808332
 31
0.0
  0
LINE
  5
233
330
2
100
AcDbEntity
  8
image
100
AcDbLine
 10
6.069247545498893
 20
7.607173901808332
 30
0.0
 11
6.069247545498893
 21
7.403423901808332
 31
0.0
  0
LINE
  5
234
330
2
100
AcDbEntity
  8
image
100
AcDbLine
 10
5.93174754549889
 20
7.607173901808332
 30
0.0
 11
5.93174754549889
 21
7.403423901808332
 31
0.0
  0
LINE
  5
235
330
2
100
AcDbEntity
  8
image
100
AcDbLine
 10
5.906747545498891
 20
7.403423901808332
 30
0.0
 11
6.094247545498891
 21
7.403423901808332
 31
0.0
  0
LINE
  5
236
330
2
100
AcDbEntity
  8
image
100
AcDbLine
 10
6.094247545498891
 20
7.403423901808332
 30
0.0
 11
6.094247545498891
 21
7.384673901808332
 31
0.0
  0
LINE
  5
237
330
2
100
AcDbEntity
  8
image
100
AcDbLine
 10
5.906747545498891
 20
7.403423901808332
 30
0.0
 11
5.906747545498891
 21
7.384673901808332
 31
0.0
  0
LINE
  5
238
330
2
100
AcDbEntity
  8
image
100
AcDbLine
 10
6.081747545498888
 20
7.465923901808332
 30
0.0
 11
6.16924754549889
 21
7.465923901808332
 31
0.0
  0
ARC
  5
239
330
2
100
AcDbEntity
  8
image
100
AcDbCircle
 10
5.831747545498888
 20
7.453423901808333
 30
0.0
 40
0.0125
100
AcDbArc
 50
90.00000000000012
 51
180.0000000000002
  0
LINE
  5
23C
330
2
100
AcDbEntity
  8
image
100
AcDbLine
 10
5.88799754549889
 20
7.544673901808332
 30
0.0
 11
5.91924754549889
 21
7.544673901808332
 31
0.0
  0
ARC
  5
23D
330
2
100
AcDbEntity
  8
image
100
AcDbCircle
 10
5.88799754549889
 20
7.557173901808333
 30
0.0
 40
0.0125
100
AcDbArc
 50
180.0
 51
270.0
  0
ARC
  5
23E
330
2
100
AcDbEntity
  8
image
100
AcDbCircle
 10
6.112997545498888
 20
7.557173901808333
 30
0.0
 40
0.0125
100
AcDbArc
 50
270.0
 51
0.0
  0
CIRCLE
  5
242
330
2
100
AcDbEntity
  8
image
100
AcDbCircle
 10
6.000497545498891
 20
7.474048901808332
 30
0.0
 40
0.055
  0
ARC
  5
243
330
2
100
AcDbEntity
  8
image
100
AcDbCircle
 10
6.081747545498892
 20
7.532173901808333
 30
0.0
 40
0.0125
100
AcDbArc
 50
90.0
 51
179.9999999999998
  0
ARC
  5
244
330
2
100
AcDbEntity
  8
image
100
AcDbCircle
 10
6.081747545498888
 20
7.478423901808332
 30
0.0
 40
0.0125
100
AcDbArc
 50
179.9999999999998
 51
269.9999999999999
  0
ARC
  5
245
330
2
100
AcDbEntity
  8
image
100
AcDbCircle
 10
5.91924754549889
 20
7.532173901808333
 30
0.0
 40
0.0125
100
AcDbArc
 50
0.0000000000002417
 51
90.0
  0
ARC
  5
246
330
2
100
AcDbEntity
  8
image
100
AcDbCircle
 10
5.919247545498887
 20
7.478423901808332
 30
0.0
 40
0.0125
100
AcDbArc
 50
270.0
 51
0.0000000000002417
  0
ARC
  5
24A
330
2
100
AcDbEntity
  8
image
100
AcDbCircle
 10
5.903945988836643
 20
7.505676417886844
 30
0.0
 40
0.0350314297262623
100
AcDbArc
 50
37.47512798231477
 51
147.6240431488353
  0
ARC
  5
24B
330
2
100
AcDbEntity
  8
image
100
AcDbCircle
 10
6.09704910216114
 20
7.505676417886844
 30
0.0
 40
0.0350314297262623
100
AcDbArc
 50
217.4751279823145
 51
343.6421568356831
  0
LINE
  5
24C
330
2
100
AcDbEntity
  8
image
100
AcDbLine
 10
6.081747545498892
 20
7.544673901808332
 30
0.0
 11
6.112997545498888
 21
7.544673901808332
 31
0.0
  0
LINE
  5
257
330
2
100
AcDbEntity
  8
image
100
AcDbLine
 10
6.099233674866241
 20
7.187810555145533
 30
0.0
 11
6.148392395107755
 21
7.137340935697576
 31
0.0
  0
LINE
  5
258
330
2
100
AcDbEntity
  8
image
100
AcDbLine
 10
5.842142395107757
 20
7.187810555145533
 30
0.0
 11
5.792983674866238
 21
7.137340935697576
 31
0.0
  0
LINE
  5
259
330
2
100
AcDbEntity
  8
image
100
AcDbLine
 10
6.039438034987
 20
7.223700745421554
 30
0.0
 11
6.039438034987
 21
7.019950745421555
 31
0.0
  0
LINE
  5
25A
330
2
100
AcDbEntity
  8
image
100
AcDbLine
 10
5.901938034986997
 20
7.223700745421554
 30
0.0
 11
5.901938034986997
 21
7.019950745421555
 31
0.0
  0
ARC
  5
25B
330
2
100
AcDbEntity
  8
image
100
AcDbCircle
 10
6.067239591649247
 20
7.122203261500066
 30
0.0
 40
0.0350314297262623
100
AcDbArc
 50
217.4751279823145
 51
330.4141336263485
  0
ARC
  5
25C
330
2
100
AcDbEntity
  8
image
100
AcDbCircle
 10
5.87413647832475
 20
7.122203261500066
 30
0.0
 40
0.0350314297262623
100
AcDbArc
 50
37.47512798231477
 51
174.6079591557715
  0
CIRCLE
  5
25D
330
2
100
AcDbEntity
  8
image
100
AcDbCircle
 10
5.970688034986999
 20
7.090575745421554
 30
0.0
 40
0.055
  0
LINE
  5
25E
330
2
100
AcDbEntity
  8
image
100
AcDbLine
 10
5.801938034986996
 20
7.082450745421555
 30
0.0
 11
5.889438034986994
 21
7.082450745421555
 31
0.0
  0
LINE
  5
25F
330
2
100
AcDbEntity
  8
image
100
AcDbLine
 10
5.801938034986996
 20
7.001200745421554
 30
0.0
 11
6.139438034986998
 21
7.001200745421554
 31
0.0
  0
ARC
  5
260
330
2
100
AcDbEntity
  8
image
100
AcDbCircle
 10
5.801938034986996
 20
7.128619156359174
 30
0.0
 40
0.0125
100
AcDbArc
 50
135.7538483330708
 51
180.0
  0
ARC
  5
261
330
2
100
AcDbEntity
  8
image
100
AcDbCircle
 10
5.801938034986996
 20
7.069950745421555
 30
0.0
 40
0.0125
100
AcDbArc
 50
90.00000000000012
 51
180.0000000000002
  0
ARC
  5
262
330
2
100
AcDbEntity
  8
image
100
AcDbCircle
 10
5.801938034986996
 20
7.013700745421555
 30
0.0
 40
0.0125
100
AcDbArc
 50
180.0
 51
270.0000000000001
  0
LINE
  5
263
330
2
100
AcDbEntity
  8
image
100
AcDbLine
 10
5.789438034987
 20
7.128619156359174
 30
0.0
 11
5.789438034987
 21
7.123040088900332
 31
0.0
  0
ARC
  5
264
330
2
100
AcDbEntity
  8
image
100
AcDbCircle
 10
6.139438034986998
 20
7.128619156359174
 30
0.0
 40
0.0125
100
AcDbArc
 50
0.000000000000007
 51
44.24615166692921
  0
ARC
  5
265
330
2
100
AcDbEntity
  8
image
100
AcDbCircle
 10
6.139438034986998
 20
7.069950745421555
 30
0.0
 40
0.0125
100
AcDbArc
 50
359.9999999999998
 51
89.99999999999991
  0
ARC
  5
266
330
2
100
AcDbEntity
  8
image
100
AcDbCircle
 10
6.139438034986998
 20
7.013700745421555
 30
0.0
 40
0.0125
100
AcDbArc
 50
269.9999999999999
 51
0.000000000000007
  0
ARC
  5
267
330
2
100
AcDbEntity
  8
image
100
AcDbCircle
 10
6.051938034986996
 20
7.094950745421554
 30
0.0
 40
0.0125
100
AcDbArc
 50
179.9999999999998
 51
269.9999999999999
  0
LINE
  5
268
330
2
100
AcDbEntity
  8
image
100
AcDbLine
 10
6.064438034986999
 20
7.019950745421555
 30
0.0
 11
6.064438034986999
 21
7.001200745421554
 31
0.0
  0
ARC
  5
269
330
2
100
AcDbEntity
  8
image
100
AcDbCircle
 10
5.889438034986994
 20
7.094950745421554
 30
0.0
 40
0.0125
100
AcDbArc
 50
270.0
 51
0.0000000000002417
  0
LINE
  5
26A
330
2
100
AcDbEntity
  8
image
100
AcDbLine
 10
5.876938034986999
 20
7.019950745421555
 30
0.0
 11
5.876938034986999
 21
7.001200745421554
 31
0.0
  0
LINE
  5
26B
330
2
100
AcDbEntity
  8
image
100
AcDbLine
 10
5.876938034986999
 20
7.019950745421555
 30
0.0
 11
6.064438034986999
 21
7.019950745421555
 31
0.0
  0
LINE
  5
26C
330
2
100
AcDbEntity
  8
image
100
AcDbLine
 10
6.051938034986996
 20
7.082450745421555
 30
0.0
 11
6.139438034986998
 21
7.082450745421555
 31
0.0
  0
LINE
  5
26D
330
2
100
AcDbEntity
  8
image
100
AcDbLine
 10
6.151938034986997
 20
7.128619156359174
 30
0.0
 11
6.151938034986994
 21
7.123991409461165
 31
0.0
  0
LINE
  5
26E
330
2
100
AcDbEntity
  8
image
100
AcDbLine
 10
5.858188034986998
 20
7.161200745421554
 30
0.0
 11
5.889438034986998
 21
7.161200745421554
 31
0.0
  0
LINE
  5
26F
330
2
100
AcDbEntity
  8
image
100
AcDbLine
 10
5.845688034986999
 20
7.223700745421554
 30
0.0
 11
6.095688034986999
 21
7.223700745421554
 31
0.0
  0
ARC
  5
270
330
2
100
AcDbEntity
  8
image
100
AcDbCircle
 10
5.858188034986998
 20
7.173700745421555
 30
0.0
 40
0.0125
100
AcDbArc
 50
180.0
 51
270.0
  0
LINE
  5
271
330
2
100
AcDbEntity
  8
image
100
AcDbLine
 10
5.845688034986999
 20
7.223700745421554
 30
0.0
 11
5.845688034986999
 21
7.173700745421555
 31
0.0
  0
ARC
  5
272
330
2
100
AcDbEntity
  8
image
100
AcDbCircle
 10
5.833188034986996
 20
7.196532334483935
 30
0.0
 40
0.0125
100
AcDbArc
 50
315.7538483330708
 51
0.0
  0
ARC
  5
273
330
2
100
AcDbEntity
  8
image
100
AcDbCircle
 10
6.083188034986996
 20
7.173700745421555
 30
0.0
 40
0.0125
100
AcDbArc
 50
270.0
 51
0.0
  0
LINE
  5
274
330
2
100
AcDbEntity
  8
image
100
AcDbLine
 10
6.095688034986999
 20
7.223700745421554
 30
0.0
 11
6.095688034986999
 21
7.173700745421555
 31
0.0
  0
ARC
  5
275
330
2
100
AcDbEntity
  8
image
100
AcDbCircle
 10
6.108188034986998
 20
7.196532334483935
 30
0.0
 40
0.0125
100
AcDbArc
 50
180.0
 51
224.2461516669292
  0
ARC
  5
276
330
2
100
AcDbEntity
  8
image
100
AcDbCircle
 10
6.051938034986999
 20
7.148700745421555
 30
0.0
 40
0.0125
100
AcDbArc
 50
90.0
 51
179.9999999999998
  0
ARC
  5
277
330
2
100
AcDbEntity
  8
image
100
AcDbCircle
 10
5.889438034986998
 20
7.148700745421555
 30
0.0
 40
0.0125
100
AcDbArc
 50
0.0000000000002417
 51
90.0
  0
LINE
  5
278
330
2
100
AcDbEntity
  8
image
100
AcDbLine
 10
6.051938034986999
 20
7.161200745421554
 30
0.0
 11
6.083188034986996
 21
7.161200745421554
 31
0.0
  0
CIRCLE
  5
281
330
2
100
AcDbEntity
  8
image
100
AcDbCircle
 10
6.603083158630955
 20
4.295726335924284
 30
0.0
 40
0.055
  0
ARC
  5
282
330
2
100
AcDbEntity
  8
image
100
AcDbCircle
 10
6.506531601968706
 20
4.327353852002796
 30
0.0
 40
0.0350314297262623
100
AcDbArc
 50
37.47512798231477
 51
322.5248720176856
  0
ARC
  5
283
330
2
100
AcDbEntity
  8
image
100
AcDbCircle
 10
6.699634715293203
 20
4.327353852002796
 30
0.0
 40
0.0350314297262623
100
AcDbArc
 50
217.4751279823145
 51
142.5248720176852
  0
LINE
  5
284
330
2
100
AcDbEntity
  8
image
100
AcDbLine
 10
6.534333158630953
 20
4.428851335924284
 30
0.0
 11
6.534333158630953
 21
4.225101335924285
 31
0.0
  0
LINE
  5
285
330
2
100
AcDbEntity
  8
image
100
AcDbLine
 10
6.671833158630956
 20
4.428851335924284
 30
0.0
 11
6.671833158630956
 21
4.225101335924285
 31
0.0
  0
LINE
  5
286
330
2
100
AcDbEntity
  8
image
100
AcDbLine
 10
6.474537518751713
 20
4.392961145648263
 30
0.0
 11
6.425378798510195
 21
4.342491526200306
 31
0.0
  0
LINE
  5
287
330
2
100
AcDbEntity
  8
image
100
AcDbLine
 10
6.731628798510197
 20
4.392961145648263
 30
0.0
 11
6.780787518751711
 21
4.342491526200306
 31
0.0
  0
ARC
  5
288
330
2
100
AcDbEntity
  8
image
100
AcDbCircle
 10
6.178830461868173
 20
4.327353852002796
 30
0.0
 40
0.0350314297262623
100
AcDbArc
 50
217.4751279823145
 51
142.5248720176852
  0
ARC
  5
289
330
2
100
AcDbEntity
  8
image
100
AcDbCircle
 10
5.985727348543676
 20
4.327353852002796
 30
0.0
 40
0.0350314297262623
100
AcDbArc
 50
37.47512798231477
 51
322.5248720176856
  0
CIRCLE
  5
28A
330
2
100
AcDbEntity
  8
image
100
AcDbCircle
 10
6.082278905205924
 20
4.295726335924284
 30
0.0
 40
0.055
  0
LINE
  5
28B
330
2
100
AcDbEntity
  8
image
100
AcDbLine
 10
6.013528905205923
 20
4.428851335924284
 30
0.0
 11
6.013528905205923
 21
4.225101335924285
 31
0.0
  0
LINE
  5
28C
330
2
100
AcDbEntity
  8
image
100
AcDbLine
 10
6.151028905205926
 20
4.428851335924284
 30
0.0
 11
6.151028905205926
 21
4.225101335924285
 31
0.0
  0
LINE
  5
28D
330
2
100
AcDbEntity
  8
image
100
AcDbLine
 10
6.210824545085166
 20
4.392961145648263
 30
0.0
 11
6.259983265326681
 21
4.342491526200306
 31
0.0
  0
LINE
  5
28E
330
2
100
AcDbEntity
  8
image
100
AcDbLine
 10
5.953733265326683
 20
4.392961145648263
 30
0.0
 11
5.904574545085164
 21
4.342491526200306
 31
0.0
  0
LINE
  5
28F
330
2
100
AcDbEntity
  8
image
100
AcDbLine
 10
5.913528905205922
 20
4.287601335924285
 30
0.0
 11
6.00102890520592
 21
4.287601335924285
 31
0.0
  0
LINE
  5
290
330
2
100
AcDbEntity
  8
image
100
AcDbLine
 10
5.913528905205922
 20
4.206351335924284
 30
0.0
 11
6.251028905205924
 21
4.206351335924284
 31
0.0
  0
ARC
  5
291
330
2
100
AcDbEntity
  8
image
100
AcDbCircle
 10
5.913528905205922
 20
4.275101335924285
 30
0.0
 40
0.0125
100
AcDbArc
 50
90.00000000000012
 51
180.0000000000002
  0
ARC
  5
292
330
2
100
AcDbEntity
  8
image
100
AcDbCircle
 10
5.913528905205922
 20
4.333769746861904
 30
0.0
 40
0.0125
100
AcDbArc
 50
135.7538483330708
 51
180.0
  0
ARC
  5
293
330
2
100
AcDbEntity
  8
image
100
AcDbCircle
 10
5.913528905205922
 20
4.218851335924285
 30
0.0
 40
0.0125
100
AcDbArc
 50
180.0
 51
270.0000000000001
  0
LINE
  5
294
330
2
100
AcDbEntity
  8
image
100
AcDbLine
 10
5.901028905205926
 20
4.333769746861904
 30
0.0
 11
5.901028905205926
 21
4.218851335924285
 31
0.0
  0
ARC
  5
295
330
2
100
AcDbEntity
  8
image
100
AcDbCircle
 10
6.00102890520592
 20
4.300101335924284
 30
0.0
 40
0.0125
100
AcDbArc
 50
270.0
 51
0.0000000000002417
  0
ARC
  5
296
330
2
100
AcDbEntity
  8
image
100
AcDbCircle
 10
6.163528905205922
 20
4.300101335924284
 30
0.0
 40
0.0125
100
AcDbArc
 50
179.9999999999998
 51
269.9999999999999
  0
ARC
  5
297
330
2
100
AcDbEntity
  8
image
100
AcDbCircle
 10
6.251028905205924
 20
4.275101335924285
 30
0.0
 40
0.0125
100
AcDbArc
 50
359.9999999999998
 51
89.99999999999991
  0
LINE
  5
298
330
2
100
AcDbEntity
  8
image
100
AcDbLine
 10
6.163528905205922
 20
4.287601335924285
 30
0.0
 11
6.251028905205924
 21
4.287601335924285
 31
0.0
  0
LINE
  5
299
330
2
100
AcDbEntity
  8
image
100
AcDbLine
 10
5.988528905205924
 20
4.225101335924285
 30
0.0
 11
5.988528905205924
 21
4.206351335924284
 31
0.0
  0
LINE
  5
29A
330
2
100
AcDbEntity
  8
image
100
AcDbLine
 10
6.176028905205924
 20
4.225101335924285
 30
0.0
 11
6.176028905205924
 21
4.206351335924284
 31
0.0
  0
LINE
  5
29B
330
2
100
AcDbEntity
  8
image
100
AcDbLine
 10
5.988528905205924
 20
4.225101335924285
 30
0.0
 11
6.176028905205924
 21
4.225101335924285
 31
0.0
  0
ARC
  5
29C
330
2
100
AcDbEntity
  8
image
100
AcDbCircle
 10
6.251028905205924
 20
4.333769746861904
 30
0.0
 40
0.0125
100
AcDbArc
 50
0.000000000000007
 51
44.24615166692921
  0
LINE
  5
29D
330
2
100
AcDbEntity
  8
image
100
AcDbLine
 10
6.263528905205923
 20
4.333769746861904
 30
0.0
 11
6.263528905205923
 21
4.218851335924285
 31
0.0
  0
ARC
  5
29E
330
2
100
AcDbEntity
  8
image
100
AcDbCircle
 10
6.251028905205924
 20
4.218851335924285
 30
0.0
 40
0.0125
100
AcDbArc
 50
269.9999999999999
 51
0.000000000000007
  0
LINE
  5
29F
330
2
100
AcDbEntity
  8
image
100
AcDbLine
 10
6.509333158630955
 20
4.225101335924285
 30
0.0
 11
6.696833158630955
 21
4.225101335924285
 31
0.0
  0
LINE
  5
2A0
330
2
100
AcDbEntity
  8
image
100
AcDbLine
 10
6.434333158630952
 20
4.206351335924284
 30
0.0
 11
6.771833158630954
 21
4.206351335924284
 31
0.0
  0
LINE
  5
2A1
330
2
100
AcDbEntity
  8
image
100
AcDbLine
 10
6.509333158630955
 20
4.225101335924285
 30
0.0
 11
6.509333158630955
 21
4.206351335924284
 31
0.0
  0
ARC
  5
2A2
330
2
100
AcDbEntity
  8
image
100
AcDbCircle
 10
6.521833158630951
 20
4.300101335924284
 30
0.0
 40
0.0125
100
AcDbArc
 50
270.0
 51
0.0000000000002417
  0
LINE
  5
2A3
330
2
100
AcDbEntity
  8
image
100
AcDbLine
 10
6.421833158630956
 20
4.333769746861904
 30
0.0
 11
6.421833158630956
 21
4.218851335924285
 31
0.0
  0
ARC
  5
2A4
330
2
100
AcDbEntity
  8
image
100
AcDbCircle
 10
6.434333158630952
 20
4.218851335924285
 30
0.0
 40
0.0125
100
AcDbArc
 50
180.0
 51
270.0000000000001
  0
ARC
  5
2A5
330
2
100
AcDbEntity
  8
image
100
AcDbCircle
 10
6.434333158630952
 20
4.275101335924285
 30
0.0
 40
0.0125
100
AcDbArc
 50
90.00000000000012
 51
180.0000000000002
  0
ARC
  5
2A6
330
2
100
AcDbEntity
  8
image
100
AcDbCircle
 10
6.434333158630952
 20
4.333769746861904
 30
0.0
 40
0.0125
100
AcDbArc
 50
135.7538483330708
 51
180.0
  0
LINE
  5
2A7
330
2
100
AcDbEntity
  8
image
100
AcDbLine
 10
6.434333158630952
 20
4.287601335924285
 30
0.0
 11
6.521833158630951
 21
4.287601335924285
 31
0.0
  0
LINE
  5
2A8
330
2
100
AcDbEntity
  8
image
100
AcDbLine
 10
6.784333158630953
 20
4.333769746861904
 30
0.0
 11
6.784333158630953
 21
4.218851335924285
 31
0.0
  0
LINE
  5
2A9
330
2
100
AcDbEntity
  8
image
100
AcDbLine
 10
6.684333158630952
 20
4.287601335924285
 30
0.0
 11
6.771833158630954
 21
4.287601335924285
 31
0.0
  0
LINE
  5
2AA
330
2
100
AcDbEntity
  8
image
100
AcDbLine
 10
6.696833158630955
 20
4.225101335924285
 30
0.0
 11
6.696833158630955
 21
4.206351335924284
 31
0.0
  0
ARC
  5
2AB
330
2
100
AcDbEntity
  8
image
100
AcDbCircle
 10
6.684333158630952
 20
4.300101335924284
 30
0.0
 40
0.0125
100
AcDbArc
 50
179.9999999999998
 51
269.9999999999999
  0
ARC
  5
2AC
330
2
100
AcDbEntity
  8
image
100
AcDbCircle
 10
6.771833158630954
 20
4.218851335924285
 30
0.0
 40
0.0125
100
AcDbArc
 50
269.9999999999999
 51
0.000000000000007
  0
ARC
  5
2AD
330
2
100
AcDbEntity
  8
image
100
AcDbCircle
 10
6.771833158630954
 20
4.275101335924285
 30
0.0
 40
0.0125
100
AcDbArc
 50
359.9999999999998
 51
89.99999999999991
  0
ARC
  5
2AE
330
2
100
AcDbEntity
  8
image
100
AcDbCircle
 10
6.771833158630954
 20
4.333769746861904
 30
0.0
 40
0.0125
100
AcDbArc
 50
0.000000000000007
 51
44.24615166692921
  0
LINE
  5
2AF
330
2
100
AcDbEntity
  8
image
100
AcDbLine
 10
5.969778905205924
 20
4.366351335924284
 30
0.0
 11
6.001028905205924
 21
4.366351335924284
 31
0.0
  0
LINE
  5
2B0
330
2
100
AcDbEntity
  8
image
100
AcDbLine
 10
5.957278905205924
 20
4.428851335924284
 30
0.0
 11
6.207278905205924
 21
4.428851335924284
 31
0.0
  0
ARC
  5
2B1
330
2
100
AcDbEntity
  8
image
100
AcDbCircle
 10
5.969778905205924
 20
4.378851335924285
 30
0.0
 40
0.0125
100
AcDbArc
 50
180.0
 51
270.0
  0
ARC
  5
2B2
330
2
100
AcDbEntity
  8
image
100
AcDbCircle
 10
5.944778905205922
 20
4.401682924986665
 30
0.0
 40
0.0125
100
AcDbArc
 50
315.7538483330708
 51
0.0
  0
LINE
  5
2B3
330
2
100
AcDbEntity
  8
image
100
AcDbLine
 10
5.957278905205924
 20
4.428851335924284
 30
0.0
 11
5.957278905205924
 21
4.378851335924285
 31
0.0
  0
LINE
  5
2B4
330
2
100
AcDbEntity
  8
image
100
AcDbLine
 10
6.163528905205925
 20
4.366351335924284
 30
0.0
 11
6.194778905205922
 21
4.366351335924284
 31
0.0
  0
ARC
  5
2B5
330
2
100
AcDbEntity
  8
image
100
AcDbCircle
 10
6.001028905205924
 20
4.353851335924285
 30
0.0
 40
0.0125
100
AcDbArc
 50
0.0000000000002417
 51
90.0
  0
ARC
  5
2B6
330
2
100
AcDbEntity
  8
image
100
AcDbCircle
 10
6.163528905205925
 20
4.353851335924285
 30
0.0
 40
0.0125
100
AcDbArc
 50
90.0
 51
179.9999999999998
  0
ARC
  5
2B7
330
2
100
AcDbEntity
  8
image
100
AcDbCircle
 10
6.194778905205922
 20
4.378851335924285
 30
0.0
 40
0.0125
100
AcDbArc
 50
270.0
 51
0.0
  0
ARC
  5
2B8
330
2
100
AcDbEntity
  8
image
100
AcDbCircle
 10
6.219778905205924
 20
4.401682924986665
 30
0.0
 40
0.0125
100
AcDbArc
 50
180.0
 51
224.2461516669292
  0
LINE
  5
2B9
330
2
100
AcDbEntity
  8
image
100
AcDbLine
 10
6.207278905205924
 20
4.428851335924284
 30
0.0
 11
6.207278905205924
 21
4.378851335924285
 31
0.0
  0
LINE
  5
2BA
330
2
100
AcDbEntity
  8
image
100
AcDbLine
 10
6.478083158630955
 20
4.428851335924284
 30
0.0
 11
6.728083158630955
 21
4.428851335924284
 31
0.0
  0
ARC
  5
2BB
330
2
100
AcDbEntity
  8
image
100
AcDbCircle
 10
6.521833158630954
 20
4.353851335924285
 30
0.0
 40
0.0125
100
AcDbArc
 50
0.0000000000002417
 51
90.0
  0
ARC
  5
2BC
330
2
100
AcDbEntity
  8
image
100
AcDbCircle
 10
6.465583158630952
 20
4.401682924986665
 30
0.0
 40
0.0125
100
AcDbArc
 50
315.7538483330708
 51
0.0
  0
LINE
  5
2BD
330
2
100
AcDbEntity
  8
image
100
AcDbLine
 10
6.478083158630955
 20
4.428851335924284
 30
0.0
 11
6.478083158630955
 21
4.378851335924285
 31
0.0
  0
ARC
  5
2BE
330
2
100
AcDbEntity
  8
image
100
AcDbCircle
 10
6.490583158630954
 20
4.378851335924285
 30
0.0
 40
0.0125
100
AcDbArc
 50
180.0
 51
270.0
  0
LINE
  5
2BF
330
2
100
AcDbEntity
  8
image
100
AcDbLine
 10
6.490583158630954
 20
4.366351335924284
 30
0.0
 11
6.521833158630954
 21
4.366351335924284
 31
0.0
  0
LINE
  5
2C0
330
2
100
AcDbEntity
  8
image
100
AcDbLine
 10
6.684333158630956
 20
4.366351335924284
 30
0.0
 11
6.715583158630952
 21
4.366351335924284
 31
0.0
  0
ARC
  5
2C1
330
2
100
AcDbEntity
  8
image
100
AcDbCircle
 10
6.684333158630956
 20
4.353851335924285
 30
0.0
 40
0.0125
100
AcDbArc
 50
90.0
 51
179.9999999999998
  0
ARC
  5
2C2
330
2
100
AcDbEntity
  8
image
100
AcDbCircle
 10
6.740583158630954
 20
4.401682924986665
 30
0.0
 40
0.0125
100
AcDbArc
 50
180.0
 51
224.2461516669292
  0
LINE
  5
2C3
330
2
100
AcDbEntity
  8
image
100
AcDbLine
 10
6.728083158630955
 20
4.428851335924284
 30
0.0
 11
6.728083158630955
 21
4.378851335924285
 31
0.0
  0
ARC
  5
2C4
330
2
100
AcDbEntity
  8
image
100
AcDbCircle
 10
6.715583158630952
 20
4.378851335924285
 30
0.0
 40
0.0125
100
AcDbArc
 50
270.0
 51
0.0
  0
POLYLINE
  5
2C5
102
{ACAD_REACTORS
330
C07
102
}
330
2
100
AcDbEntity
  8
image
100
AcDb2dPolyline
 66
     1
 10
0.0
 20
0.0
 30
0.0
 70
     4
 75
     6
  0
VERTEX
  5
371
330
2C5
100
AcDbEntity
  8
image
100
AcDbVertex
100
AcDb2dVertex
 10
5.051174608971702
 20
7.184225946125545
 30
0.0
 70
    16
  0
VERTEX
  5
37C
330
2C5
100
AcDbEntity
  8
image
100
AcDbVertex
100
AcDb2dVertex
 10
5.051174608971702
 20
7.184225946125545
 30
0.0
 70
     8
  0
VERTEX
  5
37D
330
2C5
100
AcDbEntity
  8
image
100
AcDbVertex
100
AcDb2dVertex
 10
5.069074504338178
 20
7.188093516989411
 30
0.0
 70
     8
  0
VERTEX
  5
37E
330
2C5
100
AcDbEntity
  8
image
100
AcDbVertex
100
AcDb2dVertex
 10
5.085254478355398
 20
7.192912905422259
 30
0.0
 70
     8
  0
VERTEX
  5
37F
330
2C5
100
AcDbEntity
  8
image
100
AcDbVertex
100
AcDb2dVertex
 10
5.100102787074522
 20
7.198624403374704
 30
0.0
 70
     8
  0
VERTEX
  5
380
330
2C5
100
AcDbEntity
  8
image
100
AcDbVertex
100
AcDb2dVertex
 10
5.114007686546703
 20
7.205168302797362
 30
0.0
 70
     8
  0
VERTEX
  5
381
330
2C5
100
AcDbEntity
  8
image
100
AcDbVertex
100
AcDb2dVertex
 10
5.127357432823107
 20
7.212484895640852
 30
0.0
 70
     8
  0
VERTEX
  5
382
330
2C5
100
AcDbEntity
  8
image
100
AcDbVertex
100
AcDb2dVertex
 10
5.14054028195488
 20
7.220514473855788
 30
0.0
 70
     8
  0
VERTEX
  5
383
330
2C5
100
AcDbEntity
  8
image
100
AcDbVertex
100
AcDb2dVertex
 10
5.15394448999319
 20
7.229197329392786
 30
0.0
 70
     8
  0
VERTEX
  5
384
330
2C5
100
AcDbEntity
  8
image
100
AcDbVertex
100
AcDb2dVertex
 10
5.167958312989185
 20
7.238473754202463
 30
0.0
 70
     8
  0
VERTEX
  5
385
330
2C5
100
AcDbEntity
  8
image
100
AcDbVertex
100
AcDb2dVertex
 10
5.182865183695849
 20
7.248269405863057
 30
0.0
 70
     8
  0
VERTEX
  5
386
330
2C5
100
AcDbEntity
  8
image
100
AcDbVertex
100
AcDb2dVertex
 10
5.198529241673423
 20
7.258451404463286
 30
0.0
 70
     8
  0
VERTEX
  5
387
330
2C5
100
AcDbEntity
  8
image
100
AcDbVertex
100
AcDb2dVertex
 10
5.214709803183968
 20
7.26887223571949
 30
0.0
 70
     8
  0
VERTEX
  5
388
330
2C5
100
AcDbEntity
  8
image
100
AcDbVertex
100
AcDb2dVertex
 10
5.231166184489552
 20
7.279384385348004
 30
0.0
 70
     8
  0
VERTEX
  5
389
330
2C5
100
AcDbEntity
  8
image
100
AcDbVertex
100
AcDb2dVertex
 10
5.247657701852233
 20
7.289840339065174
 30
0.0
 70
     8
  0
VERTEX
  5
38A
330
2C5
100
AcDbEntity
  8
image
100
AcDbVertex
100
AcDb2dVertex
 10
5.263943671534075
 20
7.300092582587332
 30
0.0
 70
     8
  0
VERTEX
  5
38B
330
2C5
100
AcDbEntity
  8
image
100
AcDbVertex
100
AcDb2dVertex
 10
5.279783409797143
 20
7.309993601630822
 30
0.0
 70
     8
  0
VERTEX
  5
38C
330
2C5
100
AcDbEntity
  8
image
100
AcDbVertex
100
AcDb2dVertex
 10
5.294936232903506
 20
7.319395881911979
 30
0.0
 70
     8
  0
VERTEX
  5
38D
330
2C5
100
AcDbEntity
  8
image
100
AcDbVertex
100
AcDb2dVertex
 10
5.309233193765539
 20
7.328193470713404
 30
0.0
 70
     8
  0
VERTEX
  5
38E
330
2C5
100
AcDbEntity
  8
image
100
AcDbVertex
100
AcDb2dVertex
 10
5.322792291896931
 20
7.336446661582714
 30
0.0
 70
     8
  0
VERTEX
  5
38F
330
2C5
100
AcDbEntity
  8
image
100
AcDbVertex
100
AcDb2dVertex
 10
5.335803263461691
 20
7.344257309633787
 30
0.0
 70
     8
  0
VERTEX
  5
390
330
2C5
100
AcDbEntity
  8
image
100
AcDbVertex
100
AcDb2dVertex
 10
5.348455844623831
 20
7.3517272699805
 30
0.0
 70
     8
  0
VERTEX
  5
391
330
2C5
100
AcDbEntity
  8
image
100
AcDbVertex
100
AcDb2dVertex
 10
5.360939771547354
 20
7.35895839773673
 30
0.0
 70
     8
  0
VERTEX
  5
392
330
2C5
100
AcDbEntity
  8
image
100
AcDbVertex
100
AcDb2dVertex
 10
5.373444780396273
 20
7.366052548016355
 30
0.0
 70
     8
  0
VERTEX
  5
393
330
2C5
100
AcDbEntity
  8
image
100
AcDbVertex
100
AcDb2dVertex
 10
5.386160607334591
 20
7.373111575933252
 30
0.0
 70
     8
  0
VERTEX
  5
394
330
2C5
100
AcDbEntity
  8
image
100
AcDbVertex
100
AcDb2dVertex
 10
5.39927698852632
 20
7.380237336601297
 30
0.0
 70
     8
  0
VERTEX
  5
395
330
2C5
100
AcDbEntity
  8
image
100
AcDbVertex
100
AcDb2dVertex
 10
5.412947352585334
 20
7.38751002627853
 30
0.0
 70
     8
  0
VERTEX
  5
396
330
2C5
100
AcDbEntity
  8
image
100
AcDbVertex
100
AcDb2dVertex
 10
5.427179897924954
 20
7.394923205799621
 30
0.0
 70
     8
  0
VERTEX
  5
397
330
2C5
100
AcDbEntity
  8
image
100
AcDbVertex
100
AcDb2dVertex
 10
5.441946515408368
 20
7.40244877714341
 30
0.0
 70
     8
  0
VERTEX
  5
398
102
{ACAD_REACTORS
330
C07
102
}
330
2C5
100
AcDbEntity
  8
image
100
AcDbVertex
100
AcDb2dVertex
 10
5.457219095898757
 20
7.410058642288728
 30
0.0
 70
     8
  0
VERTEX
  5
399
330
2C5
100
AcDbEntity
  8
image
100
AcDbVertex
100
AcDb2dVertex
 10
5.472969530259312
 20
7.417724703214412
 30
0.0
 70
     8
  0
VERTEX
  5
39A
330
2C5
100
AcDbEntity
  8
image
100
AcDbVertex
100
AcDb2dVertex
 10
5.489169709353216
 20
7.425418861899295
 30
0.0
 70
     8
  0
VERTEX
  5
39B
330
2C5
100
AcDbEntity
  8
image
100
AcDbVertex
100
AcDb2dVertex
 10
5.505791524043658
 20
7.433113020322213
 30
0.0
 70
     8
  0
VERTEX
  5
39C
330
2C5
100
AcDbEntity
  8
image
100
AcDbVertex
100
AcDb2dVertex
 10
5.522806865193821
 20
7.440779080462002
 30
0.0
 70
     8
  0
VERTEX
  5
39D
330
2C5
100
AcDbEntity
  8
image
100
AcDbVertex
100
AcDb2dVertex
 10
5.540178254003141
 20
7.448385432083052
 30
0.0
 70
     8
  0
VERTEX
  5
39E
330
2C5
100
AcDbEntity
  8
image
100
AcDbVertex
100
AcDb2dVertex
 10
5.557830733016064
 20
7.455886416091985
 30
0.0
 70
     8
  0
VERTEX
  5
39F
330
2C5
100
AcDbEntity
  8
image
100
AcDbVertex
100
AcDb2dVertex
 10
5.575679975113281
 20
7.463232861180983
 30
0.0
 70
     8
  0
VERTEX
  5
3A0
330
2C5
100
AcDbEntity
  8
image
100
AcDbVertex
100
AcDb2dVertex
 10
5.593641653175485
 20
7.470375596042227
 30
0.0
 70
     8
  0
VERTEX
  5
3A1
330
2C5
100
AcDbEntity
  8
image
100
AcDbVertex
100
AcDb2dVertex
 10
5.611631440083368
 20
7.477265449367896
 30
0.0
 70
     8
  0
VERTEX
  5
3A2
330
2C5
100
AcDbEntity
  8
image
100
AcDbVertex
100
AcDb2dVertex
 10
5.629565008717623
 20
7.483853249850174
 30
0.0
 70
     8
  0
VERTEX
  5
3A3
330
2C5
100
AcDbEntity
  8
image
100
AcDbVertex
100
AcDb2dVertex
 10
5.647358031958944
 20
7.490089826181238
 30
0.0
 70
     8
  0
VERTEX
  5
3A4
330
2C5
100
AcDbEntity
  8
image
100
AcDbVertex
100
AcDb2dVertex
 10
5.66492618268802
 20
7.495926007053268
 30
0.0
 70
     8
  0
VERTEX
  5
3A5
330
2C5
100
AcDbEntity
  8
image
100
AcDbVertex
100
AcDb2dVertex
 10
5.682203873137307
 20
7.501317596788299
 30
0.0
 70
     8
  0
VERTEX
  5
3A6
330
2C5
100
AcDbEntity
  8
image
100
AcDbVertex
100
AcDb2dVertex
 10
5.699200472946294
 20
7.506240302227755
 30
0.0
 70
     8
  0
VERTEX
  5
3A7
330
2C5
100
AcDbEntity
  8
image
100
AcDbVertex
100
AcDb2dVertex
 10
5.715944091106219
 20
7.510674805842922
 30
0.0
 70
     8
  0
VERTEX
  5
3A8
330
2C5
100
AcDbEntity
  8
image
100
AcDbVertex
100
AcDb2dVertex
 10
5.732462836608338
 20
7.514601790105075
 30
0.0
 70
     8
  0
VERTEX
  5
3A9
330
2C5
100
AcDbEntity
  8
image
100
AcDbVertex
100
AcDb2dVertex
 10
5.748784818443894
 20
7.518001937485495
 30
0.0
 70
     8
  0
VERTEX
  5
3AA
330
2C5
100
AcDbEntity
  8
image
100
AcDbVertex
100
AcDb2dVertex
 10
5.764938145604133
 20
7.520855930455462
 30
0.0
 70
     8
  0
VERTEX
  5
3AB
330
2C5
100
AcDbEntity
  8
image
100
AcDbVertex
100
AcDb2dVertex
 10
5.780950927080304
 20
7.523144451486256
 30
0.0
 70
     8
  0
VERTEX
  5
3AC
330
2C5
100
AcDbEntity
  8
image
100
AcDbVertex
100
AcDb2dVertex
 10
5.796851271863651
 20
7.524848183049156
 30
0.0
 70
     8
  0
VERTEX
  5
3AD
330
2C5
100
AcDbEntity
  8
image
100
AcDbVertex
100
AcDb2dVertex
 10
5.812664360989185
 20
7.525951319971783
 30
0.0
 70
     8
  0
VERTEX
  5
3AE
330
2C5
100
AcDbEntity
  8
image
100
AcDbVertex
100
AcDb2dVertex
 10
5.828403663666975
 20
7.526452106507116
 30
0.0
 70
     8
  0
VERTEX
  5
3AF
330
2C5
100
AcDbEntity
  8
image
100
AcDbVertex
100
AcDb2dVertex
 10
5.844079721150851
 20
7.52635229926448
 30
0.0
 70
     8
  0
VERTEX
  5
3B0
330
2C5
100
AcDbEntity
  8
image
100
AcDbVertex
100
AcDb2dVertex
 10
5.859703074694646
 20
7.525653654853195
 30
0.0
 70
     8
  0
VERTEX
  5
3B1
330
2C5
100
AcDbEntity
  8
image
100
AcDbVertex
100
AcDb2dVertex
 10
5.875284265552188
 20
7.524357929882581
 30
0.0
 70
     8
  0
VERTEX
  5
3B2
330
2C5
100
AcDbEntity
  8
image
100
AcDbVertex
100
AcDb2dVertex
 10
5.890833834977318
 20
7.522466880961962
 30
0.0
 70
     8
  0
VERTEX
  5
3B3
330
2C5
100
AcDbEntity
  8
image
100
AcDbVertex
100
AcDb2dVertex
 10
5.906362324223856
 20
7.51998226470066
 30
0.0
 70
     8
  0
VERTEX
  5
3B4
330
2C5
100
AcDbEntity
  8
image
100
AcDbVertex
100
AcDb2dVertex
 10
5.921880274545642
 20
7.516905837707994
 30
0.0
 70
     8
  0
VERTEX
  5
372
330
2C5
100
AcDbEntity
  8
image
100
AcDbVertex
100
AcDb2dVertex
 10
5.101546008237892
 20
7.19321730451554
 30
0.0
 70
    16
  0
VERTEX
  5
373
330
2C5
100
AcDbEntity
  8
image
100
AcDbVertex
100
AcDb2dVertex
 10
5.157314355561485
 20
7.232779234487308
 30
0.0
 70
    16
  0
VERTEX
  5
374
330
2C5
100
AcDbEntity
  8
image
100
AcDbVertex
100
AcDb2dVertex
 10
5.30483062111309
 20
7.326289247735889
 30
0.0
 70
    16
  0
VERTEX
  5
375
330
2C5
100
AcDbEntity
  8
image
100
AcDbVertex
100
AcDb2dVertex
 10
5.392980557407177
 20
7.378439066041018
 30
0.0
 70
    16
  0
VERTEX
  5
376
330
2C5
100
AcDbEntity
  8
image
100
AcDbVertex
100
AcDb2dVertex
 10
5.518909080416133
 20
7.441378507707826
 30
0.0
 70
    16
  0
VERTEX
  5
377
330
2C5
100
AcDbEntity
  8
image
100
AcDbVertex
100
AcDb2dVertex
 10
5.668224312091219
 20
7.500721385899687
 30
0.0
 70
    16
  0
VERTEX
  5
378
330
2C5
100
AcDbEntity
  8
image
100
AcDbVertex
100
AcDb2dVertex
 10
5.797750767347132
 20
7.531291991013038
 30
0.0
 70
    16
  0
VERTEX
  5
379
330
2C5
100
AcDbEntity
  8
image
100
AcDbVertex
100
AcDb2dVertex
 10
5.880503755583816
 20
7.52589716256641
 30
0.0
 70
    16
  0
VERTEX
  5
37A
330
2C5
100
AcDbEntity
  8
image
100
AcDbVertex
100
AcDb2dVertex
 10
5.921880274545642
 20
7.516905837707994
 30
0.0
 70
    16
  0
SEQEND
  5
37B
330
2C5
100
AcDbEntity
  8
image
  0
POLYLINE
  5
2C6
330
2
100
AcDbEntity
  8
image
100
AcDb2dPolyline
 66
     1
 10
0.0
 20
0.0
 30
0.0
 70
     4
 75
     6
  0
VERTEX
  5
32D
330
2C6
100
AcDbEntity
  8
image
100
AcDbVertex
100
AcDb2dVertex
 10
5.055778569882694
 20
7.158433630527095
 30
0.0
 70
    16
  0
VERTEX
  5
338
330
2C6
100
AcDbEntity
  8
image
100
AcDbVertex
100
AcDb2dVertex
 10
5.05577856988269
 20
7.158433630527095
 30
0.0
 70
     8
  0
VERTEX
  5
339
330
2C6
100
AcDbEntity
  8
image
100
AcDbVertex
100
AcDb2dVertex
 10
5.075676443592382
 20
7.162707010791928
 30
0.0
 70
     8
  0
VERTEX
  5
33A
330
2C6
100
AcDbEntity
  8
image
100
AcDbVertex
100
AcDb2dVertex
 10
5.093540045428067
 20
7.167960741328982
 30
0.0
 70
     8
  0
VERTEX
  5
33B
330
2C6
100
AcDbEntity
  8
image
100
AcDbVertex
100
AcDb2dVertex
 10
5.109786342429011
 20
7.174119702810395
 30
0.0
 70
     8
  0
VERTEX
  5
33C
330
2C6
100
AcDbEntity
  8
image
100
AcDbVertex
100
AcDb2dVertex
 10
5.124832301634473
 20
7.181108775908299
 30
0.0
 70
     8
  0
VERTEX
  5
33D
330
2C6
100
AcDbEntity
  8
image
100
AcDbVertex
100
AcDb2dVertex
 10
5.139094890083718
 20
7.188852841294831
 30
0.0
 70
     8
  0
VERTEX
  5
33E
330
2C6
100
AcDbEntity
  8
image
100
AcDbVertex
100
AcDb2dVertex
 10
5.152991074816007
 20
7.197276779642125
 30
0.0
 70
     8
  0
VERTEX
  5
33F
330
2C6
100
AcDbEntity
  8
image
100
AcDbVertex
100
AcDb2dVertex
 10
5.1669378228706
 20
7.206305471622316
 30
0.0
 70
     8
  0
VERTEX
  5
340
330
2C6
100
AcDbEntity
  8
image
100
AcDbVertex
100
AcDb2dVertex
 10
5.181352101286758
 20
7.215863797907537
 30
0.0
 70
     8
  0
VERTEX
  5
341
330
2C6
100
AcDbEntity
  8
image
100
AcDbVertex
100
AcDb2dVertex
 10
5.196543556228263
 20
7.225866195009393
 30
0.0
 70
     8
  0
VERTEX
  5
342
330
2C6
100
AcDbEntity
  8
image
100
AcDbVertex
100
AcDb2dVertex
 10
5.21239255035697
 20
7.236185322797338
 30
0.0
 70
     8
  0
VERTEX
  5
343
330
2C6
100
AcDbEntity
  8
image
100
AcDbVertex
100
AcDb2dVertex
 10
5.228672125459254
 20
7.246683396980294
 30
0.0
 70
     8
  0
VERTEX
  5
344
330
2C6
100
AcDbEntity
  8
image
100
AcDbVertex
100
AcDb2dVertex
 10
5.24515532332149
 20
7.257222633267186
 30
0.0
 70
     8
  0
VERTEX
  5
345
330
2C6
100
AcDbEntity
  8
image
100
AcDbVertex
100
AcDb2dVertex
 10
5.261615185730057
 20
7.267665247366934
 30
0.0
 70
     8
  0
VERTEX
  5
346
330
2C6
100
AcDbEntity
  8
image
100
AcDbVertex
100
AcDb2dVertex
 10
5.277824754471328
 20
7.277873454988464
 30
0.0
 70
     8
  0
VERTEX
  5
347
330
2C6
100
AcDbEntity
  8
image
100
AcDbVertex
100
AcDb2dVertex
 10
5.293557071331676
 20
7.287709471840697
 30
0.0
 70
     8
  0
VERTEX
  5
348
330
2C6
100
AcDbEntity
  8
image
100
AcDbVertex
100
AcDb2dVertex
 10
5.30858517809748
 20
7.297035513632556
 30
0.0
 70
     8
  0
VERTEX
  5
349
330
2C6
100
AcDbEntity
  8
image
100
AcDbVertex
100
AcDb2dVertex
 10
5.322751417453169
 20
7.305753690337217
 30
0.0
 70
     8
  0
VERTEX
  5
34A
330
2C6
100
AcDbEntity
  8
image
100
AcDbVertex
100
AcDb2dVertex
 10
5.336175335675406
 20
7.313925688984879
 30
0.0
 70
     8
  0
VERTEX
  5
34B
330
2C6
100
AcDbEntity
  8
image
100
AcDbVertex
100
AcDb2dVertex
 10
5.349045779938915
 20
7.321653090869991
 30
0.0
 70
     8
  0
VERTEX
  5
34C
330
2C6
100
AcDbEntity
  8
image
100
AcDbVertex
100
AcDb2dVertex
 10
5.361551597418422
 20
7.329037477287009
 30
0.0
 70
     8
  0
VERTEX
  5
34D
330
2C6
100
AcDbEntity
  8
image
100
AcDbVertex
100
AcDb2dVertex
 10
5.37388163528864
 20
7.336180429530381
 30
0.0
 70
     8
  0
VERTEX
  5
34E
330
2C6
100
AcDbEntity
  8
image
100
AcDbVertex
100
AcDb2dVertex
 10
5.386224740724298
 20
7.343183528894561
 30
0.0
 70
     8
  0
VERTEX
  5
34F
330
2C6
100
AcDbEntity
  8
image
100
AcDbVertex
100
AcDb2dVertex
 10
5.398769760900108
 20
7.350148356674001
 30
0.0
 70
     8
  0
VERTEX
  5
350
330
2C6
100
AcDbEntity
  8
image
100
AcDbVertex
100
AcDb2dVertex
 10
5.411705542990802
 20
7.35717649416315
 30
0.0
 70
     8
  0
VERTEX
  5
351
330
2C6
100
AcDbEntity
  8
image
100
AcDbVertex
100
AcDb2dVertex
 10
5.425184672926103
 20
7.364347918452326
 30
0.0
 70
     8
  0
VERTEX
  5
352
330
2C6
100
AcDbEntity
  8
image
100
AcDbVertex
100
AcDb2dVertex
 10
5.439214691655763
 20
7.37165618981529
 30
0.0
 70
     8
  0
VERTEX
  5
353
330
2C6
100
AcDbEntity
  8
image
100
AcDbVertex
100
AcDb2dVertex
 10
5.453766878884547
 20
7.379073264321672
 30
0.0
 70
     8
  0
VERTEX
  5
354
330
2C6
100
AcDbEntity
  8
image
100
AcDbVertex
100
AcDb2dVertex
 10
5.468812514317207
 20
7.386571098041097
 30
0.0
 70
     8
  0
VERTEX
  5
355
330
2C6
100
AcDbEntity
  8
image
100
AcDbVertex
100
AcDb2dVertex
 10
5.484322877658502
 20
7.394121647043192
 30
0.0
 70
     8
  0
VERTEX
  5
356
330
2C6
100
AcDbEntity
  8
image
100
AcDbVertex
100
AcDb2dVertex
 10
5.5002692486132
 20
7.401696867397587
 30
0.0
 70
     8
  0
VERTEX
  5
357
330
2C6
100
AcDbEntity
  8
image
100
AcDbVertex
100
AcDb2dVertex
 10
5.516622906886052
 20
7.409268715173904
 30
0.0
 70
     8
  0
VERTEX
  5
358
330
2C6
100
AcDbEntity
  8
image
100
AcDbVertex
100
AcDb2dVertex
 10
5.533355132181821
 20
7.416809146441774
 30
0.0
 70
     8
  0
VERTEX
  5
359
330
2C6
100
AcDbEntity
  8
image
100
AcDbVertex
100
AcDb2dVertex
 10
5.550427329845817
 20
7.424286592743266
 30
0.0
 70
     8
  0
VERTEX
  5
35A
330
2C6
100
AcDbEntity
  8
image
100
AcDbVertex
100
AcDb2dVertex
 10
5.56776140778555
 20
7.431655387510211
 30
0.0
 70
     8
  0
VERTEX
  5
35B
330
2C6
100
AcDbEntity
  8
image
100
AcDbVertex
100
AcDb2dVertex
 10
5.585269399549083
 20
7.438866339646885
 30
0.0
 70
     8
  0
VERTEX
  5
35C
330
2C6
100
AcDbEntity
  8
image
100
AcDbVertex
100
AcDb2dVertex
 10
5.602863338684482
 20
7.445870258057567
 30
0.0
 70
     8
  0
VERTEX
  5
35D
330
2C6
100
AcDbEntity
  8
image
100
AcDbVertex
100
AcDb2dVertex
 10
5.620455258739806
 20
7.45261795164653
 30
0.0
 70
     8
  0
VERTEX
  5
35E
330
2C6
100
AcDbEntity
  8
image
100
AcDbVertex
100
AcDb2dVertex
 10
5.637957193263115
 20
7.459060229318049
 30
0.0
 70
     8
  0
VERTEX
  5
35F
330
2C6
100
AcDbEntity
  8
image
100
AcDbVertex
100
AcDb2dVertex
 10
5.655281175802478
 20
7.465147899976402
 30
0.0
 70
     8
  0
VERTEX
  5
360
330
2C6
100
AcDbEntity
  8
image
100
AcDbVertex
100
AcDb2dVertex
 10
5.672339239905952
 20
7.470831772525865
 30
0.0
 70
     8
  0
VERTEX
  5
361
330
2C6
100
AcDbEntity
  8
image
100
AcDbVertex
100
AcDb2dVertex
 10
5.689062685372427
 20
7.476068329349521
 30
0.0
 70
     8
  0
VERTEX
  5
362
330
2C6
100
AcDbEntity
  8
image
100
AcDbVertex
100
AcDb2dVertex
 10
5.705459877004059
 20
7.480836746745698
 30
0.0
 70
     8
  0
VERTEX
  5
363
330
2C6
100
AcDbEntity
  8
image
100
AcDbVertex
100
AcDb2dVertex
 10
5.721558445853833
 20
7.485121874491534
 30
0.0
 70
     8
  0
VERTEX
  5
364
330
2C6
100
AcDbEntity
  8
image
100
AcDbVertex
100
AcDb2dVertex
 10
5.737386022974735
 20
7.488908562364166
 30
0.0
 70
     8
  0
VERTEX
  5
365
330
2C6
100
AcDbEntity
  8
image
100
AcDbVertex
100
AcDb2dVertex
 10
5.752970239419752
 20
7.49218166014073
 30
0.0
 70
     8
  0
VERTEX
  5
366
330
2C6
100
AcDbEntity
  8
image
100
AcDbVertex
100
AcDb2dVertex
 10
5.768338726241861
 20
7.494926017598363
 30
0.0
 70
     8
  0
VERTEX
  5
367
330
2C6
100
AcDbEntity
  8
image
100
AcDbVertex
100
AcDb2dVertex
 10
5.783519114494048
 20
7.497126484514202
 30
0.0
 70
     8
  0
VERTEX
  5
368
330
2C6
100
AcDbEntity
  8
image
100
AcDbVertex
100
AcDb2dVertex
 10
5.798539035229296
 20
7.498767910665387
 30
0.0
 70
     8
  0
VERTEX
  5
369
330
2C6
100
AcDbEntity
  8
image
100
AcDbVertex
100
AcDb2dVertex
 10
5.813426274638636
 20
7.499837777729123
 30
0.0
 70
     8
  0
VERTEX
  5
36A
330
2C6
100
AcDbEntity
  8
image
100
AcDbVertex
100
AcDb2dVertex
 10
5.828209239465259
 20
7.500334094982896
 30
0.0
 70
     8
  0
VERTEX
  5
36B
330
2C6
100
AcDbEntity
  8
image
100
AcDbVertex
100
AcDb2dVertex
 10
5.842916491590404
 20
7.500257503604268
 30
0.0
 70
     8
  0
VERTEX
  5
36C
330
2C6
100
AcDbEntity
  8
image
100
AcDbVertex
100
AcDb2dVertex
 10
5.857576592895316
 20
7.499608644770797
 30
0.0
 70
     8
  0
VERTEX
  5
36D
330
2C6
100
AcDbEntity
  8
image
100
AcDbVertex
100
AcDb2dVertex
 10
5.872218105261229
 20
7.49838815966004
 30
0.0
 70
     8
  0
VERTEX
  5
36E
330
2C6
100
AcDbEntity
  8
image
100
AcDbVertex
100
AcDb2dVertex
 10
5.886869590569382
 20
7.496596689449553
 30
0.0
 70
     8
  0
VERTEX
  5
36F
330
2C6
100
AcDbEntity
  8
image
100
AcDbVertex
100
AcDb2dVertex
 10
5.901559610701017
 20
7.4942348753169
 30
0.0
 70
     8
  0
VERTEX
  5
370
330
2C6
100
AcDbEntity
  8
image
100
AcDbVertex
100
AcDb2dVertex
 10
5.916316727537374
 20
7.491303358439635
 30
0.0
 70
     8
  0
VERTEX
  5
32E
330
2C6
100
AcDbEntity
  8
image
100
AcDbVertex
100
AcDb2dVertex
 10
5.111922566308766
 20
7.168455404801138
 30
0.0
 70
    16
  0
VERTEX
  5
32F
330
2C6
100
AcDbEntity
  8
image
100
AcDbVertex
100
AcDb2dVertex
 10
5.171917462344602
 20
7.21101563815109
 30
0.0
 70
    16
  0
VERTEX
  5
330
330
2C6
100
AcDbEntity
  8
image
100
AcDbVertex
100
AcDb2dVertex
 10
5.3185176400513
 20
7.303944946714707
 30
0.0
 70
    16
  0
VERTEX
  5
331
330
2C6
100
AcDbEntity
  8
image
100
AcDbVertex
100
AcDb2dVertex
 10
5.405523046035057
 20
7.355417656785414
 30
0.0
 70
    16
  0
VERTEX
  5
332
330
2C6
100
AcDbEntity
  8
image
100
AcDbVertex
100
AcDb2dVertex
 10
5.529623433753279
 20
7.417443391122535
 30
0.0
 70
    16
  0
VERTEX
  5
333
330
2C6
100
AcDbEntity
  8
image
100
AcDbVertex
100
AcDb2dVertex
 10
5.676114012042742
 20
7.475663657375099
 30
0.0
 70
    16
  0
VERTEX
  5
334
330
2C6
100
AcDbEntity
  8
image
100
AcDbVertex
100
AcDb2dVertex
 10
5.799955957511475
 20
7.504892614532257
 30
0.0
 70
    16
  0
VERTEX
  5
335
330
2C6
100
AcDbEntity
  8
image
100
AcDbVertex
100
AcDb2dVertex
 10
5.876849565361919
 20
7.499879770502881
 30
0.0
 70
    16
  0
VERTEX
  5
336
330
2C6
100
AcDbEntity
  8
image
100
AcDbVertex
100
AcDb2dVertex
 10
5.916316727537374
 20
7.491303358439635
 30
0.0
 70
    16
  0
SEQEND
  5
337
330
2C6
100
AcDbEntity
  8
image
  0
ARC
  5
4B8
330
2
100
AcDbEntity
  8
image
100
AcDbCircle
 10
6.201460947895981
 20
6.27949308881215
 30
0.0
 40
0.3032535772340587
100
AcDbArc
 50
91.28197463762433
 51
178.8849338463101
  0
ARC
  5
4B9
330
2
100
AcDbEntity
  8
image
100
AcDbCircle
 10
6.201460947895981
 20
6.27949308881215
 30
0.0
 40
0.312739534865845
100
AcDbArc
 50
81.22880316047254
 51
86.31866677727343
  0
ARC
  5
4BA
330
2
100
AcDbEntity
  8
image
100
AcDbCircle
 10
6.201460947895981
 20
6.27949308881215
 30
0.0
 40
0.3032535772340587
100
AcDbArc
 50
81.18217829872888
 51
86.32220961832747
  0
ARC
  5
516
330
2
100
AcDbEntity
  8
image
100
AcDbCircle
 10
5.903945988836643
 20
7.505676417886844
 30
0.0
 40
0.0350314297262623
100
AcDbArc
 50
191.6483819924572
 51
322.5248720176856
  0
ARC
  5
517
330
2
100
AcDbEntity
  8
image
100
AcDbCircle
 10
6.09704910216114
 20
7.505676417886844
 30
0.0
 40
0.0350314297262623
100
AcDbArc
 50
28.94429599337358
 51
142.5248720176852
  0
LINE
  5
518
330
2
100
AcDbEntity
  8
image
100
AcDbLine
 10
6.181747545498893
 20
7.453423901808333
 30
0.0
 11
6.18174754549889
 21
7.397173901808333
 31
0.0
  0
ARC
  5
519
330
2
100
AcDbEntity
  8
image
100
AcDbCircle
 10
5.916637068870372
 20
7.50463947961588
 30
0.0
 40
0.013339968013349
100
AcDbArc
 50
268.6239868916715
 51
66.855908210981
  0
ARC
  5
51A
330
2
100
AcDbEntity
  8
image
100
AcDbCircle
 10
5.057167101982415
 20
7.171988549478683
 30
0.0
 40
0.0136258522366882
100
AcDbArc
 50
116.0903868915409
 51
264.1511644133183
  0
ARC
  5
51B
330
2
100
AcDbEntity
  8
image
100
AcDbCircle
 10
5.057004668049081
 20
7.142827705074964
 30
0.0
 40
0.0132538119164081
100
AcDbArc
 50
107.7065629312488
 51
270.231726665304
  0
ARC
  5
51D
330
2
100
AcDbEntity
  8
image
100
AcDbCircle
 10
6.08560646804727
 20
7.511211757346362
 30
0.0
 40
0.0132633313801349
100
AcDbArc
 50
99.00104270897932
 51
260.9989572910044
  0
LINE
  5
51E
330
2
100
AcDbEntity
  8
image
100
AcDbLine
 10
5.789438034987
 20
7.096812220480716
 30
0.0
 11
5.789438034987
 21
7.013700745421555
 31
0.0
  0
ARC
  5
51F
330
2
100
AcDbEntity
  8
image
100
AcDbCircle
 10
5.87413647832475
 20
7.122203261500066
 30
0.0
 40
0.0350314297262623
100
AcDbArc
 50
219.9179899318286
 51
322.5248720176856
  0
ARC
  5
520
330
2
100
AcDbEntity
  8
image
100
AcDbCircle
 10
5.883068553019668
 20
7.114965787647589
 30
0.0
 40
0.0131024694816802
100
AcDbArc
 50
271.6791717538894
 51
93.90402194373862
  0
ARC
  5
521
330
2
100
AcDbEntity
  8
image
100
AcDbCircle
 10
6.067239591649247
 20
7.122203261500066
 30
0.0
 40
0.0350314297262623
100
AcDbArc
 50
13.99092919295138
 51
142.5248720176852
  0
LINE
  5
522
330
2
100
AcDbEntity
  8
image
100
AcDbLine
 10
6.151938034987004
 20
7.0973888661407
 30
0.0
 11
6.151938034986997
 21
7.013700745421555
 31
0.0
  0
ARC
  5
523
330
2
100
AcDbEntity
  8
image
100
AcDbCircle
 10
6.063898722831527
 20
7.119565916035135
 30
0.0
 40
0.0135953011672814
100
AcDbArc
 50
105.5133394751973
 51
254.4866605248149
  0
LWPOLYLINE
  5
525
330
2
100
AcDbEntity
  8
image
100
AcDbPolyline
 90
        8
 70
     0
 43
0.0
 10
5.057058271530721
 20
7.129574001555484
 10
5.142584904297184
 20
7.153252559702831
 10
5.191161759579454
 20
7.157804840200709
 10
5.330820280624685
 20
7.160839716220348
 10
5.532717881973145
 20
7.119869124676288
 10
5.730061424876939
 20
7.094072846167259
 10
5.828733221172317
 20
7.098625126665137
 10
5.883452493119257
 20
7.101868944649435
  0
LWPOLYLINE
  5
526
330
2
100
AcDbEntity
  8
image
100
AcDbPolyline
 90
        8
 70
     0
 43
0.0
 10
5.050067613543511
 20
7.154824163949138
 10
5.137830294881517
 20
7.179121785473693
 10
5.189652931412428
 20
7.183978237713292
 10
5.333169739110157
 20
7.187096956963912
 10
5.537026398769206
 20
7.145728818458827
 10
5.731164172404447
 20
7.12035159048305
 10
5.827354206728628
 20
7.124789373454317
 10
5.881902050539611
 20
7.128023028992176
  0
POLYLINE
  5
527
330
2
100
AcDbEntity
  8
image
100
AcDb2dPolyline
 66
     1
 10
0.0
 20
0.0
 30
0.0
 70
     4
 75
     6
  0
VERTEX
  5
5F7
330
527
100
AcDbEntity
  8
image
100
AcDbVertex
100
AcDb2dVertex
 10
6.170720609828627
 20
6.217151294850269
 30
0.0
 70
    16
  0
VERTEX
  5
602
330
527
100
AcDbEntity
  8
image
100
AcDbVertex
100
AcDb2dVertex
 10
6.170720609828627
 20
6.217151294850269
 30
0.0
 70
     8
  0
VERTEX
  5
603
330
527
100
AcDbEntity
  8
image
100
AcDbVertex
100
AcDb2dVertex
 10
6.172574344456528
 20
6.244335188424335
 30
0.0
 70
     8
  0
VERTEX
  5
604
330
527
100
AcDbEntity
  8
image
100
AcDbVertex
100
AcDb2dVertex
 10
6.174213822793181
 20
6.271252844513313
 30
0.0
 70
     8
  0
VERTEX
  5
605
330
527
100
AcDbEntity
  8
image
100
AcDbVertex
100
AcDb2dVertex
 10
6.175702495185298
 20
6.297938841307704
 30
0.0
 70
     8
  0
VERTEX
  5
606
330
527
100
AcDbEntity
  8
image
100
AcDbVertex
100
AcDb2dVertex
 10
6.177103811979602
 20
6.32442775699801
 30
0.0
 70
     8
  0
VERTEX
  5
607
330
527
100
AcDbEntity
  8
image
100
AcDbVertex
100
AcDb2dVertex
 10
6.178481223522801
 20
6.350754169774736
 30
0.0
 70
     8
  0
VERTEX
  5
608
330
527
100
AcDbEntity
  8
image
100
AcDbVertex
100
AcDb2dVertex
 10
6.179898180161618
 20
6.376952657828383
 30
0.0
 70
     8
  0
VERTEX
  5
609
330
527
100
AcDbEntity
  8
image
100
AcDbVertex
100
AcDb2dVertex
 10
6.181418132242765
 20
6.403057799349452
 30
0.0
 70
     8
  0
VERTEX
  5
60A
330
527
100
AcDbEntity
  8
image
100
AcDbVertex
100
AcDb2dVertex
 10
6.183104530112963
 20
6.429104172528447
 30
0.0
 70
     8
  0
VERTEX
  5
60B
330
527
100
AcDbEntity
  8
image
100
AcDbVertex
100
AcDb2dVertex
 10
6.184998401341054
 20
6.455162925142014
 30
0.0
 70
     8
  0
VERTEX
  5
60C
330
527
100
AcDbEntity
  8
image
100
AcDbVertex
100
AcDb2dVertex
 10
6.187051082384453
 20
6.481451483311387
 30
0.0
 70
     8
  0
VERTEX
  5
60D
330
527
100
AcDbEntity
  8
image
100
AcDbVertex
100
AcDb2dVertex
 10
6.189191486922691
 20
6.508223842743937
 30
0.0
 70
     8
  0
VERTEX
  5
60E
330
527
100
AcDbEntity
  8
image
100
AcDbVertex
100
AcDb2dVertex
 10
6.191348528635312
 20
6.535733999147046
 30
0.0
 70
     8
  0
VERTEX
  5
60F
330
527
100
AcDbEntity
  8
image
100
AcDbVertex
100
AcDb2dVertex
 10
6.193451121201857
 20
6.564235948228088
 30
0.0
 70
     8
  0
VERTEX
  5
610
330
527
100
AcDbEntity
  8
image
100
AcDbVertex
100
AcDb2dVertex
 10
6.195428178301863
 20
6.593983685694437
 30
0.0
 70
     8
  0
VERTEX
  5
611
330
527
100
AcDbEntity
  8
image
100
AcDbVertex
100
AcDb2dVertex
 10
6.197208613614876
 20
6.625231207253474
 30
0.0
 70
     8
  0
VERTEX
  5
612
330
527
100
AcDbEntity
  8
image
100
AcDbVertex
100
AcDb2dVertex
 10
6.198721340820426
 20
6.658232508612572
 30
0.0
 70
     8
  0
VERTEX
  5
613
330
527
100
AcDbEntity
  8
image
100
AcDbVertex
100
AcDb2dVertex
 10
6.199911154582828
 20
6.693074270848029
 30
0.0
 70
     8
  0
VERTEX
  5
614
330
527
100
AcDbEntity
  8
image
100
AcDbVertex
100
AcDb2dVertex
 10
6.20078637350544
 20
6.729173916511838
 30
0.0
 70
     8
  0
VERTEX
  5
615
330
527
100
AcDbEntity
  8
image
100
AcDbVertex
100
AcDb2dVertex
 10
6.201371197176396
 20
6.765781553524906
 30
0.0
 70
     8
  0
VERTEX
  5
616
330
527
100
AcDbEntity
  8
image
100
AcDbVertex
100
AcDb2dVertex
 10
6.201689825183827
 20
6.802147289808148
 30
0.0
 70
     8
  0
VERTEX
  5
617
330
527
100
AcDbEntity
  8
image
100
AcDbVertex
100
AcDb2dVertex
 10
6.201766457115862
 20
6.837521233282474
 30
0.0
 70
     8
  0
VERTEX
  5
618
330
527
100
AcDbEntity
  8
image
100
AcDbVertex
100
AcDb2dVertex
 10
6.201625292560631
 20
6.871153491868795
 30
0.0
 70
     8
  0
VERTEX
  5
619
330
527
100
AcDbEntity
  8
image
100
AcDbVertex
100
AcDb2dVertex
 10
6.20129053110627
 20
6.902294173488026
 30
0.0
 70
     8
  0
VERTEX
  5
61A
330
527
100
AcDbEntity
  8
image
100
AcDbVertex
100
AcDb2dVertex
 10
6.2007863723409
 20
6.930193386061075
 30
0.0
 70
     8
  0
VERTEX
  5
61B
330
527
100
AcDbEntity
  8
image
100
AcDbVertex
100
AcDb2dVertex
 10
6.200132982587973
 20
6.954295765956757
 30
0.0
 70
     8
  0
VERTEX
  5
61C
330
527
100
AcDbEntity
  8
image
100
AcDbVertex
100
AcDb2dVertex
 10
6.19933439511217
 20
6.974824063335493
 30
0.0
 70
     8
  0
VERTEX
  5
61D
330
527
100
AcDbEntity
  8
image
100
AcDbVertex
100
AcDb2dVertex
 10
6.198390609913495
 20
6.992195556805601
 30
0.0
 70
     8
  0
VERTEX
  5
61E
330
527
100
AcDbEntity
  8
image
100
AcDbVertex
100
AcDb2dVertex
 10
6.197301626991947
 20
7.006827524975406
 30
0.0
 70
     8
  0
VERTEX
  5
61F
330
527
100
AcDbEntity
  8
image
100
AcDbVertex
100
AcDb2dVertex
 10
6.196067446347527
 20
7.01913724645323
 30
0.0
 70
     8
  0
VERTEX
  5
620
330
527
100
AcDbEntity
  8
image
100
AcDbVertex
100
AcDb2dVertex
 10
6.194688067980234
 20
7.029541999847392
 30
0.0
 70
     8
  0
VERTEX
  5
621
330
527
100
AcDbEntity
  8
image
100
AcDbVertex
100
AcDb2dVertex
 10
6.193163491890068
 20
7.038459063766216
 30
0.0
 70
     8
  0
VERTEX
  5
622
330
527
100
AcDbEntity
  8
image
100
AcDbVertex
100
AcDb2dVertex
 10
6.191493718077026
 20
7.046305716818023
 30
0.0
 70
     8
  0
VERTEX
  5
623
330
527
100
AcDbEntity
  8
image
100
AcDbVertex
100
AcDb2dVertex
 10
6.189678746557287
 20
7.05343321891231
 30
0.0
 70
     8
  0
VERTEX
  5
624
330
527
100
AcDbEntity
  8
image
100
AcDbVertex
100
AcDb2dVertex
 10
6.187718577411722
 20
7.059928755163273
 30
0.0
 70
     8
  0
VERTEX
  5
625
330
527
100
AcDbEntity
  8
image
100
AcDbVertex
100
AcDb2dVertex
 10
6.185613210737372
 20
7.065813491986283
 30
0.0
 70
     8
  0
VERTEX
  5
626
330
527
100
AcDbEntity
  8
image
100
AcDbVertex
100
AcDb2dVertex
 10
6.18336264663128
 20
7.071108595796712
 30
0.0
 70
     8
  0
VERTEX
  5
627
330
527
100
AcDbEntity
  8
image
100
AcDbVertex
100
AcDb2dVertex
 10
6.1809668851905
 20
7.075835233009932
 30
0.0
 70
     8
  0
VERTEX
  5
628
330
527
100
AcDbEntity
  8
image
100
AcDbVertex
100
AcDb2dVertex
 10
6.178425926512069
 20
7.080014570041315
 30
0.0
 70
     8
  0
VERTEX
  5
629
330
527
100
AcDbEntity
  8
image
100
AcDbVertex
100
AcDb2dVertex
 10
6.175739770693031
 20
7.083667773306231
 30
0.0
 70
     8
  0
VERTEX
  5
62A
330
527
100
AcDbEntity
  8
image
100
AcDbVertex
100
AcDb2dVertex
 10
6.172908417830434
 20
7.086816009220051
 30
0.0
 70
     8
  0
VERTEX
  5
62B
330
527
100
AcDbEntity
  8
image
100
AcDbVertex
100
AcDb2dVertex
 10
6.16991976817065
 20
7.089487499598991
 30
0.0
 70
     8
  0
VERTEX
  5
62C
330
527
100
AcDbEntity
  8
image
100
AcDbVertex
100
AcDb2dVertex
 10
6.166713322557349
 20
7.091738687862626
 30
0.0
 70
     8
  0
VERTEX
  5
62D
330
527
100
AcDbEntity
  8
image
100
AcDbVertex
100
AcDb2dVertex
 10
6.163216481983525
 20
7.09363307283138
 30
0.0
 70
     8
  0
VERTEX
  5
62E
330
527
100
AcDbEntity
  8
image
100
AcDbVertex
100
AcDb2dVertex
 10
6.159356647442177
 20
7.095234153325673
 30
0.0
 70
     8
  0
VERTEX
  5
62F
330
527
100
AcDbEntity
  8
image
100
AcDbVertex
100
AcDb2dVertex
 10
6.155061219926295
 20
7.096605428165926
 30
0.0
 70
     8
  0
VERTEX
  5
630
330
527
100
AcDbEntity
  8
image
100
AcDbVertex
100
AcDb2dVertex
 10
6.150257600428883
 20
7.097810396172556
 30
0.0
 70
     8
  0
VERTEX
  5
631
330
527
100
AcDbEntity
  8
image
100
AcDbVertex
100
AcDb2dVertex
 10
6.144873189942934
 20
7.098912556165988
 30
0.0
 70
     8
  0
VERTEX
  5
632
330
527
100
AcDbEntity
  8
image
100
AcDbVertex
100
AcDb2dVertex
 10
6.138835389461448
 20
7.09997540696664
 30
0.0
 70
     8
  0
VERTEX
  5
633
330
527
100
AcDbEntity
  8
image
100
AcDbVertex
100
AcDb2dVertex
 10
6.132075434785392
 20
7.101046398518279
 30
0.0
 70
     8
  0
VERTEX
  5
634
330
527
100
AcDbEntity
  8
image
100
AcDbVertex
100
AcDb2dVertex
 10
6.124539900947652
 20
7.102108785258053
 30
0.0
 70
     8
  0
VERTEX
  5
635
330
527
100
AcDbEntity
  8
image
100
AcDbVertex
100
AcDb2dVertex
 10
6.11617919778909
 20
7.103129772746454
 30
0.0
 70
     8
  0
VERTEX
  5
636
330
527
100
AcDbEntity
  8
image
100
AcDbVertex
100
AcDb2dVertex
 10
6.106943735150565
 20
7.104076566543977
 30
0.0
 70
     8
  0
VERTEX
  5
637
330
527
100
AcDbEntity
  8
image
100
AcDbVertex
100
AcDb2dVertex
 10
6.096783922872941
 20
7.104916372211112
 30
0.0
 70
     8
  0
VERTEX
  5
638
330
527
100
AcDbEntity
  8
image
100
AcDbVertex
100
AcDb2dVertex
 10
6.085650170797077
 20
7.105616395308356
 30
0.0
 70
     8
  0
VERTEX
  5
639
330
527
100
AcDbEntity
  8
image
100
AcDbVertex
100
AcDb2dVertex
 10
6.073492888763837
 20
7.1061438413962
 30
0.0
 70
     8
  0
VERTEX
  5
63A
330
527
100
AcDbEntity
  8
image
100
AcDbVertex
100
AcDb2dVertex
 10
6.060262486614078
 20
7.106465916035135
 30
0.0
 70
     8
  0
VERTEX
  5
5F8
330
527
100
AcDbEntity
  8
image
100
AcDbVertex
100
AcDb2dVertex
 10
6.176005977532888
 20
6.290027397197231
 30
0.0
 70
    16
  0
VERTEX
  5
5F9
330
527
100
AcDbEntity
  8
image
100
AcDbVertex
100
AcDb2dVertex
 10
6.180652304664825
 20
6.429362200811885
 30
0.0
 70
    16
  0
VERTEX
  5
5FA
330
527
100
AcDbEntity
  8
image
100
AcDbVertex
100
AcDb2dVertex
 10
6.202335148051545
 20
6.636816236533233
 30
0.0
 70
    16
  0
VERTEX
  5
5FB
330
527
100
AcDbEntity
  8
image
100
AcDbVertex
100
AcDb2dVertex
 10
6.202335148051545
 20
6.972767904730611
 30
0.0
 70
    16
  0
VERTEX
  5
5FC
330
527
100
AcDbEntity
  8
image
100
AcDbVertex
100
AcDb2dVertex
 10
6.193042493787672
 20
7.053272460910774
 30
0.0
 70
    16
  0
VERTEX
  5
5FD
330
527
100
AcDbEntity
  8
image
100
AcDbVertex
100
AcDb2dVertex
 10
6.174457185259921
 20
7.091976552534434
 30
0.0
 70
    16
  0
VERTEX
  5
5FE
330
527
100
AcDbEntity
  8
image
100
AcDbVertex
100
AcDb2dVertex
 10
6.146579272155257
 20
7.099717384271798
 30
0.0
 70
    16
  0
VERTEX
  5
5FF
330
527
100
AcDbEntity
  8
image
100
AcDbVertex
100
AcDb2dVertex
 10
6.097018465976912
 20
7.105910029542743
 30
0.0
 70
    16
  0
VERTEX
  5
600
330
527
100
AcDbEntity
  8
image
100
AcDbVertex
100
AcDb2dVertex
 10
6.060262486614078
 20
7.106465916035135
 30
0.0
 70
    16
  0
SEQEND
  5
601
330
527
100
AcDbEntity
  8
image
  0
POLYLINE
  5
528
330
2
100
AcDbEntity
  8
image
100
AcDb2dPolyline
 66
     1
 10
0.0
 20
0.0
 30
0.0
 70
     4
  0
VERTEX
  5
5B3
330
528
100
AcDbEntity
  8
image
100
AcDbVertex
100
AcDb2dVertex
 10
6.196851975359042
 20
6.217100819761609
 30
0.0
 70
    16
  0
VERTEX
  5
5BE
330
528
100
AcDbEntity
  8
image
100
AcDbVertex
100
AcDb2dVertex
 10
6.19685197535904
 20
6.217100819761609
 30
0.0
 70
     8
  0
VERTEX
  5
5BF
330
528
100
AcDbEntity
  8
image
100
AcDbVertex
100
AcDb2dVertex
 10
6.198717640191995
 20
6.243835311784589
 30
0.0
 70
     8
  0
VERTEX
  5
5C0
330
528
100
AcDbEntity
  8
image
100
AcDbVertex
100
AcDb2dVertex
 10
6.200365572384601
 20
6.270398025469828
 30
0.0
 70
     8
  0
VERTEX
  5
5C1
330
528
100
AcDbEntity
  8
image
100
AcDbVertex
100
AcDb2dVertex
 10
6.201859866863632
 20
6.296812408731455
 30
0.0
 70
     8
  0
VERTEX
  5
5C2
330
528
100
AcDbEntity
  8
image
100
AcDbVertex
100
AcDb2dVertex
 10
6.203264618555865
 20
6.323101909483602
 30
0.0
 70
     8
  0
VERTEX
  5
5C3
330
528
100
AcDbEntity
  8
image
100
AcDbVertex
100
AcDb2dVertex
 10
6.204643922388074
 20
6.349289975640397
 30
0.0
 70
     8
  0
VERTEX
  5
5C4
330
528
100
AcDbEntity
  8
image
100
AcDbVertex
100
AcDb2dVertex
 10
6.206061873287035
 20
6.375400055115971
 30
0.0
 70
     8
  0
VERTEX
  5
5C5
330
528
100
AcDbEntity
  8
image
100
AcDbVertex
100
AcDb2dVertex
 10
6.207582566179523
 20
6.401455595824455
 30
0.0
 70
     8
  0
VERTEX
  5
5C6
330
528
100
AcDbEntity
  8
image
100
AcDbVertex
100
AcDb2dVertex
 10
6.209270095992314
 20
6.427480045679978
 30
0.0
 70
     8
  0
VERTEX
  5
5C7
330
528
100
AcDbEntity
  8
image
100
AcDbVertex
100
AcDb2dVertex
 10
6.211165991061745
 20
6.453535725937681
 30
0.0
 70
     8
  0
VERTEX
  5
5C8
330
528
100
AcDbEntity
  8
image
100
AcDbVertex
100
AcDb2dVertex
 10
6.213221513362418
 20
6.479840451216738
 30
0.0
 70
     8
  0
VERTEX
  5
5C9
330
528
100
AcDbEntity
  8
image
100
AcDbVertex
100
AcDb2dVertex
 10
6.215365358278496
 20
6.506650909477341
 30
0.0
 70
     8
  0
VERTEX
  5
5CA
330
528
100
AcDbEntity
  8
image
100
AcDbVertex
100
AcDb2dVertex
 10
6.217526221194148
 20
6.534223788679672
 30
0.0
 70
     8
  0
VERTEX
  5
5CB
330
528
100
AcDbEntity
  8
image
100
AcDbVertex
100
AcDb2dVertex
 10
6.219632797493535
 20
6.56281577678392
 30
0.0
 70
     8
  0
VERTEX
  5
5CC
330
528
100
AcDbEntity
  8
image
100
AcDbVertex
100
AcDb2dVertex
 10
6.221613782560822
 20
6.592683561750273
 30
0.0
 70
     8
  0
VERTEX
  5
5CD
330
528
100
AcDbEntity
  8
image
100
AcDbVertex
100
AcDb2dVertex
 10
6.223397871780175
 20
6.624083831538915
 30
0.0
 70
     8
  0
VERTEX
  5
5CE
330
528
100
AcDbEntity
  8
image
100
AcDbVertex
100
AcDb2dVertex
 10
6.224913760535757
 20
6.657273274110035
 30
0.0
 70
     8
  0
VERTEX
  5
5CF
330
528
100
AcDbEntity
  8
image
100
AcDbVertex
100
AcDb2dVertex
 10
6.226105855898428
 20
6.692340995671192
 30
0.0
 70
     8
  0
VERTEX
  5
5D0
330
528
100
AcDbEntity
  8
image
100
AcDbVertex
100
AcDb2dVertex
 10
6.226981411685807
 20
6.728705775419441
 30
0.0
 70
     8
  0
VERTEX
  5
5D1
330
528
100
AcDbEntity
  8
image
100
AcDbVertex
100
AcDb2dVertex
 10
6.227563393402208
 20
6.765618810799207
 30
0.0
 70
     8
  0
VERTEX
  5
5D2
330
528
100
AcDbEntity
  8
image
100
AcDbVertex
100
AcDb2dVertex
 10
6.227874766551947
 20
6.802331299254917
 30
0.0
 70
     8
  0
VERTEX
  5
5D3
330
528
100
AcDbEntity
  8
image
100
AcDbVertex
100
AcDb2dVertex
 10
6.227938496639337
 20
6.838094438230998
 30
0.0
 70
     8
  0
VERTEX
  5
5D4
330
528
100
AcDbEntity
  8
image
100
AcDbVertex
100
AcDb2dVertex
 10
6.227777549168692
 20
6.872159425171877
 30
0.0
 70
     8
  0
VERTEX
  5
5D5
330
528
100
AcDbEntity
  8
image
100
AcDbVertex
100
AcDb2dVertex
 10
6.227414889644325
 20
6.903777457521981
 30
0.0
 70
     8
  0
VERTEX
  5
5D6
330
528
100
AcDbEntity
  8
image
100
AcDbVertex
100
AcDb2dVertex
 10
6.22687348357055
 20
6.932199732725736
 30
0.0
 70
     8
  0
VERTEX
  5
5D7
330
528
100
AcDbEntity
  8
image
100
AcDbVertex
100
AcDb2dVertex
 10
6.226170613971449
 20
6.95687369110304
 30
0.0
 70
     8
  0
VERTEX
  5
5D8
330
528
100
AcDbEntity
  8
image
100
AcDbVertex
100
AcDb2dVertex
 10
6.225300833950171
 20
6.978031744475669
 30
0.0
 70
     8
  0
VERTEX
  5
5D9
330
528
100
AcDbEntity
  8
image
100
AcDbVertex
100
AcDb2dVertex
 10
6.224253014129628
 20
6.996102547540872
 30
0.0
 70
     8
  0
VERTEX
  5
5DA
330
528
100
AcDbEntity
  8
image
100
AcDbVertex
100
AcDb2dVertex
 10
6.223016025132736
 20
7.011514754995898
 30
0.0
 70
     8
  0
VERTEX
  5
5DB
330
528
100
AcDbEntity
  8
image
100
AcDbVertex
100
AcDb2dVertex
 10
6.22157873758241
 20
7.024697021537994
 30
0.0
 70
     8
  0
VERTEX
  5
5DC
330
528
100
AcDbEntity
  8
image
100
AcDbVertex
100
AcDb2dVertex
 10
6.219930022101562
 20
7.036078001864408
 30
0.0
 70
     8
  0
VERTEX
  5
5DD
330
528
100
AcDbEntity
  8
image
100
AcDbVertex
100
AcDb2dVertex
 10
6.21805874931311
 20
7.046086350672387
 30
0.0
 70
     8
  0
VERTEX
  5
5DE
330
528
100
AcDbEntity
  8
image
100
AcDbVertex
100
AcDb2dVertex
 10
6.215953789839966
 20
7.055150722659179
 30
0.0
 70
     8
  0
VERTEX
  5
5DF
330
528
100
AcDbEntity
  8
image
100
AcDbVertex
100
AcDb2dVertex
 10
6.213605906793466
 20
7.063625408922705
 30
0.0
 70
     8
  0
VERTEX
  5
5E0
330
528
100
AcDbEntity
  8
image
100
AcDbVertex
100
AcDb2dVertex
 10
6.211013433238621
 20
7.071567246163558
 30
0.0
 70
     8
  0
VERTEX
  5
5E1
330
528
100
AcDbEntity
  8
image
100
AcDbVertex
100
AcDb2dVertex
 10
6.208176594728859
 20
7.078958707483008
 30
0.0
 70
     8
  0
VERTEX
  5
5E2
330
528
100
AcDbEntity
  8
image
100
AcDbVertex
100
AcDb2dVertex
 10
6.205095616817615
 20
7.085782265982318
 30
0.0
 70
     8
  0
VERTEX
  5
5E3
330
528
100
AcDbEntity
  8
image
100
AcDbVertex
100
AcDb2dVertex
 10
6.201770725058317
 20
7.092020394762758
 30
0.0
 70
     8
  0
VERTEX
  5
5E4
330
528
100
AcDbEntity
  8
image
100
AcDbVertex
100
AcDb2dVertex
 10
6.198202145004398
 20
7.097655566925591
 30
0.0
 70
     8
  0
VERTEX
  5
5E5
330
528
100
AcDbEntity
  8
image
100
AcDbVertex
100
AcDb2dVertex
 10
6.194390102209286
 20
7.102670255572086
 30
0.0
 70
     8
  0
VERTEX
  5
5E6
330
528
100
AcDbEntity
  8
image
100
AcDbVertex
100
AcDb2dVertex
 10
6.190334822226413
 20
7.10704693380351
 30
0.0
 70
     8
  0
VERTEX
  5
5E7
330
528
100
AcDbEntity
  8
image
100
AcDbVertex
100
AcDb2dVertex
 10
6.186029139196493
 20
7.11078415662474
 30
0.0
 70
     8
  0
VERTEX
  5
5E8
330
528
100
AcDbEntity
  8
image
100
AcDbVertex
100
AcDb2dVertex
 10
6.181436321609373
 20
7.113944806655107
 30
0.0
 70
     8
  0
VERTEX
  5
5E9
330
528
100
AcDbEntity
  8
image
100
AcDbVertex
100
AcDb2dVertex
 10
6.176512246542177
 20
7.116607848417551
 30
0.0
 70
     8
  0
VERTEX
  5
5EA
330
528
100
AcDbEntity
  8
image
100
AcDbVertex
100
AcDb2dVertex
 10
6.171212791072036
 20
7.118852246435015
 30
0.0
 70
     8
  0
VERTEX
  5
5EB
330
528
100
AcDbEntity
  8
image
100
AcDbVertex
100
AcDb2dVertex
 10
6.165493832276078
 20
7.120756965230441
 30
0.0
 70
     8
  0
VERTEX
  5
5EC
330
528
100
AcDbEntity
  8
image
100
AcDbVertex
100
AcDb2dVertex
 10
6.15931124723143
 20
7.12240096932677
 30
0.0
 70
     8
  0
VERTEX
  5
5ED
330
528
100
AcDbEntity
  8
image
100
AcDbVertex
100
AcDb2dVertex
 10
6.152620913015219
 20
7.123863223246945
 30
0.0
 70
     8
  0
VERTEX
  5
5EE
330
528
100
AcDbEntity
  8
image
100
AcDbVertex
100
AcDb2dVertex
 10
6.145378706704576
 20
7.125222691513906
 30
0.0
 70
     8
  0
VERTEX
  5
5EF
330
528
100
AcDbEntity
  8
image
100
AcDbVertex
100
AcDb2dVertex
 10
6.13753734086927
 20
7.12654034846182
 30
0.0
 70
     8
  0
VERTEX
  5
5F0
330
528
100
AcDbEntity
  8
image
100
AcDbVertex
100
AcDb2dVertex
 10
6.129036870049647
 20
7.127805207669748
 30
0.0
 70
     8
  0
VERTEX
  5
5F1
330
528
100
AcDbEntity
  8
image
100
AcDbVertex
100
AcDb2dVertex
 10
6.119814184278698
 20
7.128988292527973
 30
0.0
 70
     8
  0
VERTEX
  5
5F2
330
528
100
AcDbEntity
  8
image
100
AcDbVertex
100
AcDb2dVertex
 10
6.109806173589412
 20
7.130060626426782
 30
0.0
 70
     8
  0
VERTEX
  5
5F3
330
528
100
AcDbEntity
  8
image
100
AcDbVertex
100
AcDb2dVertex
 10
6.09894972801478
 20
7.130993232756459
 30
0.0
 70
     8
  0
VERTEX
  5
5F4
330
528
100
AcDbEntity
  8
image
100
AcDbVertex
100
AcDb2dVertex
 10
6.087181737587791
 20
7.131757134907289
 30
0.0
 70
     8
  0
VERTEX
  5
5F5
330
528
100
AcDbEntity
  8
image
100
AcDbVertex
100
AcDb2dVertex
 10
6.074439092341433
 20
7.132323356269556
 30
0.0
 70
     8
  0
VERTEX
  5
5F6
330
528
100
AcDbEntity
  8
image
100
AcDbVertex
100
AcDb2dVertex
 10
6.060658682308698
 20
7.132662920233545
 30
0.0
 70
     8
  0
VERTEX
  5
5B4
330
528
100
AcDbEntity
  8
image
100
AcDbVertex
100
AcDb2dVertex
 10
6.202174365035631
 20
6.288642678863549
 30
0.0
 70
    16
  0
VERTEX
  5
5B5
330
528
100
AcDbEntity
  8
image
100
AcDbVertex
100
AcDb2dVertex
 10
6.206806822956824
 20
6.427561570360836
 30
0.0
 70
    16
  0
VERTEX
  5
5B6
330
528
100
AcDbEntity
  8
image
100
AcDbVertex
100
AcDb2dVertex
 10
6.228535148051545
 20
6.635450759521617
 30
0.0
 70
    16
  0
VERTEX
  5
5B7
330
528
100
AcDbEntity
  8
image
100
AcDbVertex
100
AcDb2dVertex
 10
6.228535148051545
 20
6.974275036212903
 30
0.0
 70
    16
  0
VERTEX
  5
5B8
330
528
100
AcDbEntity
  8
image
100
AcDbVertex
100
AcDb2dVertex
 10
6.218565161165582
 20
7.060647491981185
 30
0.0
 70
    16
  0
VERTEX
  5
5B9
330
528
100
AcDbEntity
  8
image
100
AcDbVertex
100
AcDb2dVertex
 10
6.192926946325933
 20
7.114039331817435
 30
0.0
 70
    16
  0
VERTEX
  5
5BA
330
528
100
AcDbEntity
  8
image
100
AcDbVertex
100
AcDb2dVertex
 10
6.151735986889171
 20
7.125476783570134
 30
0.0
 70
    16
  0
VERTEX
  5
5BB
330
528
100
AcDbEntity
  8
image
100
AcDbVertex
100
AcDb2dVertex
 10
6.09884622652628
 20
7.132085383180358
 30
0.0
 70
    16
  0
VERTEX
  5
5BC
330
528
100
AcDbEntity
  8
image
100
AcDbVertex
100
AcDb2dVertex
 10
6.060658682308698
 20
7.132662920233546
 30
0.0
 70
    16
  0
SEQEND
  5
5BD
330
528
100
AcDbEntity
  8
image
  0
POLYLINE
  5
529
330
2
100
AcDbEntity
  8
image
100
AcDb2dPolyline
 66
     1
 10
0.0
 20
0.0
 30
0.0
 70
     4
 75
     6
  0
VERTEX
  5
56F
330
529
100
AcDbEntity
  8
image
100
AcDbVertex
100
AcDb2dVertex
 10
6.20605831292454
 20
6.217100819761139
 30
0.0
 70
    16
  0
VERTEX
  5
57A
330
529
100
AcDbEntity
  8
image
100
AcDbVertex
100
AcDb2dVertex
 10
6.20605831292454
 20
6.217100819761139
 30
0.0
 70
     8
  0
VERTEX
  5
57B
330
529
100
AcDbEntity
  8
image
100
AcDbVertex
100
AcDb2dVertex
 10
6.20911841042227
 20
6.259462129071177
 30
0.0
 70
     8
  0
VERTEX
  5
57C
330
529
100
AcDbEntity
  8
image
100
AcDbVertex
100
AcDb2dVertex
 10
6.213859555011644
 20
6.307689931616422
 30
0.0
 70
     8
  0
VERTEX
  5
57D
330
529
100
AcDbEntity
  8
image
100
AcDbVertex
100
AcDb2dVertex
 10
6.219888700401703
 20
6.360376144030295
 30
0.0
 70
     8
  0
VERTEX
  5
57E
330
529
100
AcDbEntity
  8
image
100
AcDbVertex
100
AcDb2dVertex
 10
6.226812800301473
 20
6.416112682946209
 30
0.0
 70
     8
  0
VERTEX
  5
57F
330
529
100
AcDbEntity
  8
image
100
AcDbVertex
100
AcDb2dVertex
 10
6.234238808419984
 20
6.473491464997582
 30
0.0
 70
     8
  0
VERTEX
  5
580
330
529
100
AcDbEntity
  8
image
100
AcDbVertex
100
AcDb2dVertex
 10
6.241773678466273
 20
6.531104406817833
 30
0.0
 70
     8
  0
VERTEX
  5
581
330
529
100
AcDbEntity
  8
image
100
AcDbVertex
100
AcDb2dVertex
 10
6.24902436414937
 20
6.587543425040376
 30
0.0
 70
     8
  0
VERTEX
  5
582
330
529
100
AcDbEntity
  8
image
100
AcDbVertex
100
AcDb2dVertex
 10
6.255597819178305
 20
6.641400436298628
 30
0.0
 70
     8
  0
VERTEX
  5
583
330
529
100
AcDbEntity
  8
image
100
AcDbVertex
100
AcDb2dVertex
 10
6.261173771331456
 20
6.69160730701482
 30
0.0
 70
     8
  0
VERTEX
  5
584
330
529
100
AcDbEntity
  8
image
100
AcDbVertex
100
AcDb2dVertex
 10
6.265723044664575
 20
6.738455702766437
 30
0.0
 70
     8
  0
VERTEX
  5
585
330
529
100
AcDbEntity
  8
image
100
AcDbVertex
100
AcDb2dVertex
 10
6.269289237302757
 20
6.782577238919778
 30
0.0
 70
     8
  0
VERTEX
  5
586
330
529
100
AcDbEntity
  8
image
100
AcDbVertex
100
AcDb2dVertex
 10
6.271915947371098
 20
6.824603530841137
 30
0.0
 70
     8
  0
VERTEX
  5
587
330
529
100
AcDbEntity
  8
image
100
AcDbVertex
100
AcDb2dVertex
 10
6.273646772994691
 20
6.865166193896818
 30
0.0
 70
     8
  0
VERTEX
  5
588
330
529
100
AcDbEntity
  8
image
100
AcDbVertex
100
AcDb2dVertex
 10
6.274525312298639
 20
6.904896843453114
 30
0.0
 70
     8
  0
VERTEX
  5
589
330
529
100
AcDbEntity
  8
image
100
AcDbVertex
100
AcDb2dVertex
 10
6.274595163408033
 20
6.944427094876326
 30
0.0
 70
     8
  0
VERTEX
  5
58A
330
529
100
AcDbEntity
  8
image
100
AcDbVertex
100
AcDb2dVertex
 10
6.273899924447967
 20
6.98438856353275
 30
0.0
 70
     8
  0
VERTEX
  5
58B
330
529
100
AcDbEntity
  8
image
100
AcDbVertex
100
AcDb2dVertex
 10
6.272494913819475
 20
7.025208745834797
 30
0.0
 70
     8
  0
VERTEX
  5
58C
330
529
100
AcDbEntity
  8
image
100
AcDbVertex
100
AcDb2dVertex
 10
6.270482331027309
 20
7.066498662379316
 30
0.0
 70
     8
  0
VERTEX
  5
58D
330
529
100
AcDbEntity
  8
image
100
AcDbVertex
100
AcDb2dVertex
 10
6.267976095852159
 20
7.107665214809269
 30
0.0
 70
     8
  0
VERTEX
  5
58E
330
529
100
AcDbEntity
  8
image
100
AcDbVertex
100
AcDb2dVertex
 10
6.265090128074717
 20
7.148115304767621
 30
0.0
 70
     8
  0
VERTEX
  5
58F
330
529
100
AcDbEntity
  8
image
100
AcDbVertex
100
AcDb2dVertex
 10
6.261938347475666
 20
7.18725583389733
 30
0.0
 70
     8
  0
VERTEX
  5
590
330
529
100
AcDbEntity
  8
image
100
AcDbVertex
100
AcDb2dVertex
 10
6.258634673835697
 20
7.224493703841359
 30
0.0
 70
     8
  0
VERTEX
  5
591
330
529
100
AcDbEntity
  8
image
100
AcDbVertex
100
AcDb2dVertex
 10
6.2552930269355
 20
7.25923581624267
 30
0.0
 70
     8
  0
VERTEX
  5
592
330
529
100
AcDbEntity
  8
image
100
AcDbVertex
100
AcDb2dVertex
 10
6.252027326555761
 20
7.290889072744224
 30
0.0
 70
     8
  0
VERTEX
  5
593
330
529
100
AcDbEntity
  8
image
100
AcDbVertex
100
AcDb2dVertex
 10
6.248921430312822
 20
7.319004300193174
 30
0.0
 70
     8
  0
VERTEX
  5
594
330
529
100
AcDbEntity
  8
image
100
AcDbVertex
100
AcDb2dVertex
 10
6.24593894716563
 20
7.343708026253429
 30
0.0
 70
     8
  0
VERTEX
  5
595
330
529
100
AcDbEntity
  8
image
100
AcDbVertex
100
AcDb2dVertex
 10
6.243013423908781
 20
7.365270703793086
 30
0.0
 70
     8
  0
VERTEX
  5
596
330
529
100
AcDbEntity
  8
image
100
AcDbVertex
100
AcDb2dVertex
 10
6.240078407336874
 20
7.383962785680248
 30
0.0
 70
     8
  0
VERTEX
  5
597
330
529
100
AcDbEntity
  8
image
100
AcDbVertex
100
AcDb2dVertex
 10
6.237067444244505
 20
7.400054724783011
 30
0.0
 70
     8
  0
VERTEX
  5
598
330
529
100
AcDbEntity
  8
image
100
AcDbVertex
100
AcDb2dVertex
 10
6.233914081426281
 20
7.413816973969474
 30
0.0
 70
     8
  0
VERTEX
  5
599
330
529
100
AcDbEntity
  8
image
100
AcDbVertex
100
AcDb2dVertex
 10
6.23055186567679
 20
7.425519986107739
 30
0.0
 70
     8
  0
VERTEX
  5
59A
330
529
100
AcDbEntity
  8
image
100
AcDbVertex
100
AcDb2dVertex
 10
6.226914343790635
 20
7.435434214065903
 30
0.0
 70
     8
  0
VERTEX
  5
59B
330
529
100
AcDbEntity
  8
image
100
AcDbVertex
100
AcDb2dVertex
 10
6.222955382993074
 20
7.443813228501484
 30
0.0
 70
     8
  0
VERTEX
  5
59C
330
529
100
AcDbEntity
  8
image
100
AcDbVertex
100
AcDb2dVertex
 10
6.218710132231997
 20
7.450843071229686
 30
0.0
 70
     8
  0
VERTEX
  5
59D
330
529
100
AcDbEntity
  8
image
100
AcDbVertex
100
AcDb2dVertex
 10
6.214234060885949
 20
7.456692901855124
 30
0.0
 70
     8
  0
VERTEX
  5
59E
330
529
100
AcDbEntity
  8
image
100
AcDbVertex
100
AcDb2dVertex
 10
6.209582638333479
 20
7.461531879982421
 30
0.0
 70
     8
  0
VERTEX
  5
59F
330
529
100
AcDbEntity
  8
image
100
AcDbVertex
100
AcDb2dVertex
 10
6.204811333953134
 20
7.465529165216196
 30
0.0
 70
     8
  0
VERTEX
  5
5A0
330
529
100
AcDbEntity
  8
image
100
AcDbVertex
100
AcDb2dVertex
 10
6.199975617123463
 20
7.468853917161068
 30
0.0
 70
     8
  0
VERTEX
  5
5A1
330
529
100
AcDbEntity
  8
image
100
AcDbVertex
100
AcDb2dVertex
 10
6.195130957223017
 20
7.471675295421656
 30
0.0
 70
     8
  0
VERTEX
  5
5A2
330
529
100
AcDbEntity
  8
image
100
AcDbVertex
100
AcDb2dVertex
 10
6.190332823630338
 20
7.474162459602581
 30
0.0
 70
     8
  0
VERTEX
  5
5A3
330
529
100
AcDbEntity
  8
image
100
AcDbVertex
100
AcDb2dVertex
 10
6.185625053928685
 20
7.476459612165717
 30
0.0
 70
     8
  0
VERTEX
  5
5A4
330
529
100
AcDbEntity
  8
image
100
AcDbVertex
100
AcDb2dVertex
 10
6.181004958520137
 20
7.478611127001942
 30
0.0
 70
     8
  0
VERTEX
  5
5A5
330
529
100
AcDbEntity
  8
image
100
AcDbVertex
100
AcDb2dVertex
 10
6.176458216011482
 20
7.480636420859394
 30
0.0
 70
     8
  0
VERTEX
  5
5A6
330
529
100
AcDbEntity
  8
image
100
AcDbVertex
100
AcDb2dVertex
 10
6.171970505009507
 20
7.482554910486204
 30
0.0
 70
     8
  0
VERTEX
  5
5A7
330
529
100
AcDbEntity
  8
image
100
AcDbVertex
100
AcDb2dVertex
 10
6.167527504121
 20
7.484386012630508
 30
0.0
 70
     8
  0
VERTEX
  5
5A8
330
529
100
AcDbEntity
  8
image
100
AcDbVertex
100
AcDb2dVertex
 10
6.163114891952751
 20
7.486149144040441
 30
0.0
 70
     8
  0
VERTEX
  5
5A9
330
529
100
AcDbEntity
  8
image
100
AcDbVertex
100
AcDb2dVertex
 10
6.158718347111548
 20
7.487863721464135
 30
0.0
 70
     8
  0
VERTEX
  5
5AA
330
529
100
AcDbEntity
  8
image
100
AcDbVertex
100
AcDb2dVertex
 10
6.154323548204182
 20
7.489549161649726
 30
0.0
 70
     8
  0
VERTEX
  5
5AB
330
529
100
AcDbEntity
  8
image
100
AcDbVertex
100
AcDb2dVertex
 10
6.149849810447033
 20
7.491212768073879
 30
0.0
 70
     8
  0
VERTEX
  5
5AC
330
529
100
AcDbEntity
  8
image
100
AcDbVertex
100
AcDb2dVertex
 10
6.144950995494912
 20
7.492813391127379
 30
0.0
 70
     8
  0
VERTEX
  5
5AD
330
529
100
AcDbEntity
  8
image
100
AcDbVertex
100
AcDb2dVertex
 10
6.139214601612234
 20
7.494297767929539
 30
0.0
 70
     8
  0
VERTEX
  5
5AE
330
529
100
AcDbEntity
  8
image
100
AcDbVertex
100
AcDb2dVertex
 10
6.132228127063406
 20
7.495612635599682
 30
0.0
 70
     8
  0
VERTEX
  5
5AF
330
529
100
AcDbEntity
  8
image
100
AcDbVertex
100
AcDb2dVertex
 10
6.123579070112835
 20
7.496704731257118
 30
0.0
 70
     8
  0
VERTEX
  5
5B0
330
529
100
AcDbEntity
  8
image
100
AcDbVertex
100
AcDb2dVertex
 10
6.112854929024937
 20
7.497520792021166
 30
0.0
 70
     8
  0
VERTEX
  5
5B1
330
529
100
AcDbEntity
  8
image
100
AcDbVertex
100
AcDb2dVertex
 10
6.099643202064118
 20
7.498007555011144
 30
0.0
 70
     8
  0
VERTEX
  5
5B2
330
529
100
AcDbEntity
  8
image
100
AcDbVertex
100
AcDb2dVertex
 10
6.08353138749479
 20
7.498111757346363
 30
0.0
 70
     8
  0
VERTEX
  5
570
330
529
100
AcDbEntity
  8
image
100
AcDbVertex
100
AcDb2dVertex
 10
6.211627802315422
 20
6.320990690615108
 30
0.0
 70
    16
  0
VERTEX
  5
571
330
529
100
AcDbEntity
  8
image
100
AcDbVertex
100
AcDb2dVertex
 10
6.267014106593013
 20
6.683961399827945
 30
0.0
 70
    16
  0
VERTEX
  5
572
330
529
100
AcDbEntity
  8
image
100
AcDbVertex
100
AcDb2dVertex
 10
6.281595838521152
 20
6.973051682471298
 30
0.0
 70
    16
  0
VERTEX
  5
573
330
529
100
AcDbEntity
  8
image
100
AcDbVertex
100
AcDb2dVertex
 10
6.250002086010187
 20
7.330163251483366
 30
0.0
 70
    16
  0
VERTEX
  5
574
330
529
100
AcDbEntity
  8
image
100
AcDbVertex
100
AcDb2dVertex
 10
6.230559776772672
 20
7.451629748060584
 30
0.0
 70
    16
  0
VERTEX
  5
575
330
529
100
AcDbEntity
  8
image
100
AcDbVertex
100
AcDb2dVertex
 10
6.189244869642951
 20
7.475923040669711
 30
0.0
 70
    16
  0
VERTEX
  5
576
330
529
100
AcDbEntity
  8
image
100
AcDbVertex
100
AcDb2dVertex
 10
6.154457686437567
 20
7.489652846876065
 30
0.0
 70
    16
  0
VERTEX
  5
577
330
529
100
AcDbEntity
  8
image
100
AcDbVertex
100
AcDb2dVertex
 10
6.130729678033759
 20
7.498391310108281
 30
0.0
 70
    16
  0
VERTEX
  5
578
330
529
100
AcDbEntity
  8
image
100
AcDbVertex
100
AcDb2dVertex
 10
6.083531387494787
 20
7.498111757346363
 30
0.0
 70
    16
  0
SEQEND
  5
579
330
529
100
AcDbEntity
  8
image
  0
POLYLINE
  5
52A
330
2
100
AcDbEntity
  8
image
100
AcDb2dPolyline
 66
     1
 10
0.0
 20
0.0
 30
0.0
 70
     4
  0
VERTEX
  5
52B
330
52A
100
AcDbEntity
  8
image
100
AcDbVertex
100
AcDb2dVertex
 10
6.232220744692369
 20
6.217100819761141
 30
0.0
 70
    16
  0
VERTEX
  5
536
330
52A
100
AcDbEntity
  8
image
100
AcDbVertex
100
AcDb2dVertex
 10
6.232220744692369
 20
6.217100819761141
 30
0.0
 70
     8
  0
VERTEX
  5
537
330
52A
100
AcDbEntity
  8
image
100
AcDbVertex
100
AcDb2dVertex
 10
6.235258359698809
 20
6.25857819684078
 30
0.0
 70
     8
  0
VERTEX
  5
538
330
52A
100
AcDbEntity
  8
image
100
AcDbVertex
100
AcDb2dVertex
 10
6.239983203954377
 20
6.306149915711262
 30
0.0
 70
     8
  0
VERTEX
  5
539
330
52A
100
AcDbEntity
  8
image
100
AcDbVertex
100
AcDb2dVertex
 10
6.246001680528578
 20
6.35838221396318
 30
0.0
 70
     8
  0
VERTEX
  5
53A
330
52A
100
AcDbEntity
  8
image
100
AcDbVertex
100
AcDb2dVertex
 10
6.252920192490922
 20
6.413841329187128
 30
0.0
 70
     8
  0
VERTEX
  5
53B
330
52A
100
AcDbEntity
  8
image
100
AcDbVertex
100
AcDb2dVertex
 10
6.260345142910912
 20
6.471093498973702
 30
0.0
 70
     8
  0
VERTEX
  5
53C
330
52A
100
AcDbEntity
  8
image
100
AcDbVertex
100
AcDb2dVertex
 10
6.267882934858052
 20
6.528704960913495
 30
0.0
 70
     8
  0
VERTEX
  5
53D
330
52A
100
AcDbEntity
  8
image
100
AcDbVertex
100
AcDb2dVertex
 10
6.27513997140185
 20
6.585241952597104
 30
0.0
 70
     8
  0
VERTEX
  5
53E
330
52A
100
AcDbEntity
  8
image
100
AcDbVertex
100
AcDb2dVertex
 10
6.28172265561181
 20
6.639270711615121
 30
0.0
 70
     8
  0
VERTEX
  5
53F
330
52A
100
AcDbEntity
  8
image
100
AcDbVertex
100
AcDb2dVertex
 10
6.287310077676607
 20
6.689700570511428
 30
0.0
 70
     8
  0
VERTEX
  5
540
330
52A
100
AcDbEntity
  8
image
100
AcDbVertex
100
AcDb2dVertex
 10
6.291872076261585
 20
6.736813241643045
 30
0.0
 70
     8
  0
VERTEX
  5
541
330
52A
100
AcDbEntity
  8
image
100
AcDbVertex
100
AcDb2dVertex
 10
6.295451177151251
 20
6.781233532320281
 30
0.0
 70
     8
  0
VERTEX
  5
542
330
52A
100
AcDbEntity
  8
image
100
AcDbVertex
100
AcDb2dVertex
 10
6.298089906130119
 20
6.823586249853442
 30
0.0
 70
     8
  0
VERTEX
  5
543
330
52A
100
AcDbEntity
  8
image
100
AcDbVertex
100
AcDb2dVertex
 10
6.299830788982699
 20
6.864496201552834
 30
0.0
 70
     8
  0
VERTEX
  5
544
330
52A
100
AcDbEntity
  8
image
100
AcDbVertex
100
AcDb2dVertex
 10
6.300716351493502
 20
6.904588194728767
 30
0.0
 70
     8
  0
VERTEX
  5
545
330
52A
100
AcDbEntity
  8
image
100
AcDbVertex
100
AcDb2dVertex
 10
6.30078911944704
 20
6.944487036691546
 30
0.0
 70
     8
  0
VERTEX
  5
546
330
52A
100
AcDbEntity
  8
image
100
AcDbVertex
100
AcDb2dVertex
 10
6.300091618627822
 20
6.984817534751479
 30
0.0
 70
     8
  0
VERTEX
  5
547
330
52A
100
AcDbEntity
  8
image
100
AcDbVertex
100
AcDb2dVertex
 10
6.298677800179904
 20
7.026005019551829
 30
0.0
 70
     8
  0
VERTEX
  5
548
330
52A
100
AcDbEntity
  8
image
100
AcDbVertex
100
AcDb2dVertex
 10
6.29664731668552
 20
7.067676915067698
 30
0.0
 70
     8
  0
VERTEX
  5
549
330
52A
100
AcDbEntity
  8
image
100
AcDbVertex
100
AcDb2dVertex
 10
6.294111246086453
 20
7.109261168607138
 30
0.0
 70
     8
  0
VERTEX
  5
54A
330
52A
100
AcDbEntity
  8
image
100
AcDbVertex
100
AcDb2dVertex
 10
6.291180666324482
 20
7.150185727478207
 30
0.0
 70
     8
  0
VERTEX
  5
54B
330
52A
100
AcDbEntity
  8
image
100
AcDbVertex
100
AcDb2dVertex
 10
6.287966655341387
 20
7.189878538988962
 30
0.0
 70
     8
  0
VERTEX
  5
54C
330
52A
100
AcDbEntity
  8
image
100
AcDbVertex
100
AcDb2dVertex
 10
6.284580291078945
 20
7.227767550447456
 30
0.0
 70
     8
  0
VERTEX
  5
54D
330
52A
100
AcDbEntity
  8
image
100
AcDbVertex
100
AcDb2dVertex
 10
6.281132651478941
 20
7.263280709161747
 30
0.0
 70
     8
  0
VERTEX
  5
54E
330
52A
100
AcDbEntity
  8
image
100
AcDbVertex
100
AcDb2dVertex
 10
6.277734814483151
 20
7.29584596243989
 30
0.0
 70
     8
  0
VERTEX
  5
54F
330
52A
100
AcDbEntity
  8
image
100
AcDbVertex
100
AcDb2dVertex
 10
6.274465519155967
 20
7.325026409648913
 30
0.0
 70
     8
  0
VERTEX
  5
550
330
52A
100
AcDbEntity
  8
image
100
AcDbVertex
100
AcDb2dVertex
 10
6.271274149052221
 20
7.350925758391722
 30
0.0
 70
     8
  0
VERTEX
  5
551
330
52A
100
AcDbEntity
  8
image
100
AcDbVertex
100
AcDb2dVertex
 10
6.268077748849348
 20
7.373782868330198
 30
0.0
 70
     8
  0
VERTEX
  5
552
330
52A
100
AcDbEntity
  8
image
100
AcDbVertex
100
AcDb2dVertex
 10
6.264793363224795
 20
7.393836599126217
 30
0.0
 70
     8
  0
VERTEX
  5
553
330
52A
100
AcDbEntity
  8
image
100
AcDbVertex
100
AcDb2dVertex
 10
6.261338036855995
 20
7.41132581044166
 30
0.0
 70
     8
  0
VERTEX
  5
554
330
52A
100
AcDbEntity
  8
image
100
AcDbVertex
100
AcDb2dVertex
 10
6.257628814420394
 20
7.426489361938404
 30
0.0
 70
     8
  0
VERTEX
  5
555
330
52A
100
AcDbEntity
  8
image
100
AcDbVertex
100
AcDb2dVertex
 10
6.25358274059543
 20
7.439566113278329
 30
0.0
 70
     8
  0
VERTEX
  5
556
330
52A
100
AcDbEntity
  8
image
100
AcDbVertex
100
AcDb2dVertex
 10
6.249116860058544
 20
7.450794924123313
 30
0.0
 70
     8
  0
VERTEX
  5
557
330
52A
100
AcDbEntity
  8
image
100
AcDbVertex
100
AcDb2dVertex
 10
6.244177969233168
 20
7.460402834675254
 30
0.0
 70
     8
  0
VERTEX
  5
558
330
52A
100
AcDbEntity
  8
image
100
AcDbVertex
100
AcDb2dVertex
 10
6.238831871526716
 20
7.46856960729613
 30
0.0
 70
     8
  0
VERTEX
  5
559
330
52A
100
AcDbEntity
  8
image
100
AcDbVertex
100
AcDb2dVertex
 10
6.23317412209259
 20
7.47546318488794
 30
0.0
 70
     8
  0
VERTEX
  5
55A
330
52A
100
AcDbEntity
  8
image
100
AcDbVertex
100
AcDb2dVertex
 10
6.227300276084196
 20
7.481251510352679
 30
0.0
 70
     8
  0
VERTEX
  5
55B
330
52A
100
AcDbEntity
  8
image
100
AcDbVertex
100
AcDb2dVertex
 10
6.22130588865494
 20
7.486102526592348
 30
0.0
 70
     8
  0
VERTEX
  5
55C
330
52A
100
AcDbEntity
  8
image
100
AcDbVertex
100
AcDb2dVertex
 10
6.215286514958226
 20
7.490184176508943
 30
0.0
 70
     8
  0
VERTEX
  5
55D
330
52A
100
AcDbEntity
  8
image
100
AcDbVertex
100
AcDb2dVertex
 10
6.209337710147458
 20
7.493664403004462
 30
0.0
 70
     8
  0
VERTEX
  5
55E
330
52A
100
AcDbEntity
  8
image
100
AcDbVertex
100
AcDb2dVertex
 10
6.203555029376042
 20
7.496711148980904
 30
0.0
 70
     8
  0
VERTEX
  5
55F
330
52A
100
AcDbEntity
  8
image
100
AcDbVertex
100
AcDb2dVertex
 10
6.198010783006413
 20
7.499470268824141
 30
0.0
 70
     8
  0
VERTEX
  5
560
330
52A
100
AcDbEntity
  8
image
100
AcDbVertex
100
AcDb2dVertex
 10
6.192684302237122
 20
7.501999262855555
 30
0.0
 70
     8
  0
VERTEX
  5
561
330
52A
100
AcDbEntity
  8
image
100
AcDbVertex
100
AcDb2dVertex
 10
6.187531673475749
 20
7.504333542880402
 30
0.0
 70
     8
  0
VERTEX
  5
562
330
52A
100
AcDbEntity
  8
image
100
AcDbVertex
100
AcDb2dVertex
 10
6.182508983129878
 20
7.506508520703939
 30
0.0
 70
     8
  0
VERTEX
  5
563
330
52A
100
AcDbEntity
  8
image
100
AcDbVertex
100
AcDb2dVertex
 10
6.177572317607086
 20
7.508559608131424
 30
0.0
 70
     8
  0
VERTEX
  5
564
330
52A
100
AcDbEntity
  8
image
100
AcDbVertex
100
AcDb2dVertex
 10
6.172677763314959
 20
7.510522216968112
 30
0.0
 70
     8
  0
VERTEX
  5
565
330
52A
100
AcDbEntity
  8
image
100
AcDbVertex
100
AcDb2dVertex
 10
6.167781406661074
 20
7.512431759019261
 30
0.0
 70
     8
  0
VERTEX
  5
566
330
52A
100
AcDbEntity
  8
image
100
AcDbVertex
100
AcDb2dVertex
 10
6.162839334053016
 20
7.514323646090129
 30
0.0
 70
     8
  0
VERTEX
  5
567
330
52A
100
AcDbEntity
  8
image
100
AcDbVertex
100
AcDb2dVertex
 10
6.157743157018234
 20
7.516216178106667
 30
0.0
 70
     8
  0
VERTEX
  5
568
330
52A
100
AcDbEntity
  8
image
100
AcDbVertex
100
AcDb2dVertex
 10
6.152126587563675
 20
7.518059207477612
 30
0.0
 70
     8
  0
VERTEX
  5
569
330
52A
100
AcDbEntity
  8
image
100
AcDbVertex
100
AcDb2dVertex
 10
6.145558862816153
 20
7.519785474732398
 30
0.0
 70
     8
  0
VERTEX
  5
56A
330
52A
100
AcDbEntity
  8
image
100
AcDbVertex
100
AcDb2dVertex
 10
6.137609219902486
 20
7.521327720400458
 30
0.0
 70
     8
  0
VERTEX
  5
56B
330
52A
100
AcDbEntity
  8
image
100
AcDbVertex
100
AcDb2dVertex
 10
6.127846895949486
 20
7.522618685011225
 30
0.0
 70
     8
  0
VERTEX
  5
56C
330
52A
100
AcDbEntity
  8
image
100
AcDbVertex
100
AcDb2dVertex
 10
6.115841128083971
 20
7.523591109094134
 30
0.0
 70
     8
  0
VERTEX
  5
56D
330
52A
100
AcDbEntity
  8
image
100
AcDbVertex
100
AcDb2dVertex
 10
6.101161153432757
 20
7.524177733178616
 30
0.0
 70
     8
  0
VERTEX
  5
56E
330
52A
100
AcDbEntity
  8
image
100
AcDbVertex
100
AcDb2dVertex
 10
6.083376209122658
 20
7.524311297794104
 30
0.0
 70
     8
  0
VERTEX
  5
52C
330
52A
100
AcDbEntity
  8
image
100
AcDbVertex
100
AcDb2dVertex
 10
6.23772154843915
 20
6.318306914110699
 30
0.0
 70
    16
  0
VERTEX
  5
52D
330
52A
100
AcDbEntity
  8
image
100
AcDbVertex
100
AcDb2dVertex
 10
6.293114114431347
 20
6.681318659081746
 30
0.0
 70
    16
  0
VERTEX
  5
52E
330
52A
100
AcDbEntity
  8
image
100
AcDbVertex
100
AcDb2dVertex
 10
6.30785421050243
 20
6.973548591738564
 30
0.0
 70
    16
  0
VERTEX
  5
52F
330
52A
100
AcDbEntity
  8
image
100
AcDbVertex
100
AcDb2dVertex
 10
6.276018755325864
 20
7.333392182472866
 30
0.0
 70
    16
  0
VERTEX
  5
530
330
52A
100
AcDbEntity
  8
image
100
AcDbVertex
100
AcDb2dVertex
 10
6.254479655093025
 20
7.467958453009313
 30
0.0
 70
    16
  0
VERTEX
  5
531
330
52A
100
AcDbEntity
  8
image
100
AcDbVertex
100
AcDb2dVertex
 10
6.200763784653304
 20
7.499543550229761
 30
0.0
 70
    16
  0
VERTEX
  5
532
330
52A
100
AcDbEntity
  8
image
100
AcDbVertex
100
AcDb2dVertex
 10
6.163795382550016
 20
7.514134239957067
 30
0.0
 70
    16
  0
VERTEX
  5
533
330
52A
100
AcDbEntity
  8
image
100
AcDbVertex
100
AcDb2dVertex
 10
6.135325587159819
 20
7.524618990974184
 30
0.0
 70
    16
  0
VERTEX
  5
534
330
52A
100
AcDbEntity
  8
image
100
AcDbVertex
100
AcDb2dVertex
 10
6.083376209122658
 20
7.524311297794104
 30
0.0
 70
    16
  0
SEQEND
  5
535
330
52A
100
AcDbEntity
  8
image
  0
ARC
  5
63B
330
2
100
AcDbEntity
  8
image
100
AcDbCircle
 10
6.169247545498894
 20
7.453423901808333
 30
0.0
 40
0.0125
100
AcDbArc
 50
359.9999999999998
 51
89.99999999999991
  0
LINE
  5
63C
330
2
100
AcDbEntity
  8
image
100
AcDbLine
 10
6.181747545498886
 20
7.478265314467636
 30
0.0
 11
6.181747545498886
 21
7.453423901808333
 31
0.0
  0
POLYLINE
  5
63D
330
2
100
AcDbEntity
  8
image
 62
     5
100
AcDb2dPolyline
 66
     1
 10
0.0
 20
0.0
 30
0.0
 70
     4
 40
0.0262
 41
0.0262
 75
     6
  0
VERTEX
  5
68C
330
63D
100
AcDbEntity
  8
image
 62
     5
100
AcDbVertex
100
AcDb2dVertex
 10
6.183792047621075
 20
6.1895014478134
 30
0.0
 70
    16
  0
VERTEX
  5
696
330
63D
100
AcDbEntity
  8
image
 62
     5
100
AcDbVertex
100
AcDb2dVertex
 10
6.183792047621075
 20
6.1895014478134
 30
0.0
 70
     8
  0
VERTEX
  5
697
330
63D
100
AcDbEntity
  8
image
 62
     5
100
AcDbVertex
100
AcDb2dVertex
 10
6.185666713899305
 20
6.062097975881144
 30
0.0
 70
     8
  0
VERTEX
  5
698
330
63D
100
AcDbEntity
  8
image
 62
     5
100
AcDbVertex
100
AcDb2dVertex
 10
6.188630741493888
 20
5.94961164206215
 30
0.0
 70
     8
  0
VERTEX
  5
699
330
63D
100
AcDbEntity
  8
image
 62
     5
100
AcDbVertex
100
AcDb2dVertex
 10
6.192425830030312
 20
5.850345659282639
 30
0.0
 70
     8
  0
VERTEX
  5
69A
330
63D
100
AcDbEntity
  8
image
 62
     5
100
AcDbVertex
100
AcDb2dVertex
 10
6.196793679134067
 20
5.762603240468838
 30
0.0
 70
     8
  0
VERTEX
  5
69B
330
63D
100
AcDbEntity
  8
image
 62
     5
100
AcDbVertex
100
AcDb2dVertex
 10
6.201475988430637
 20
5.684687598546965
 30
0.0
 70
     8
  0
VERTEX
  5
69C
330
63D
100
AcDbEntity
  8
image
 62
     5
100
AcDbVertex
100
AcDb2dVertex
 10
6.206214457545506
 20
5.614901946443245
 30
0.0
 70
     8
  0
VERTEX
  5
69D
330
63D
100
AcDbEntity
  8
image
 62
     5
100
AcDbVertex
100
AcDb2dVertex
 10
6.210750786104171
 20
5.551549497083902
 30
0.0
 70
     8
  0
VERTEX
  5
69E
330
63D
100
AcDbEntity
  8
image
 62
     5
100
AcDbVertex
100
AcDb2dVertex
 10
6.214826673732112
 20
5.492933463395157
 30
0.0
 70
     8
  0
VERTEX
  5
69F
330
63D
100
AcDbEntity
  8
image
 62
     5
100
AcDbVertex
100
AcDb2dVertex
 10
6.218251058529038
 20
5.437560411316889
 30
0.0
 70
     8
  0
VERTEX
  5
6A0
330
63D
100
AcDbEntity
  8
image
 62
     5
100
AcDbVertex
100
AcDb2dVertex
 10
6.221101832491523
 20
5.38475031884359
 30
0.0
 70
     8
  0
VERTEX
  5
6A1
330
63D
100
AcDbEntity
  8
image
 62
     5
100
AcDbVertex
100
AcDb2dVertex
 10
6.223524126090364
 20
5.33402651698341
 30
0.0
 70
     8
  0
VERTEX
  5
6A2
330
63D
100
AcDbEntity
  8
image
 62
     5
100
AcDbVertex
100
AcDb2dVertex
 10
6.225663069796357
 20
5.284912336744495
 30
0.0
 70
     8
  0
VERTEX
  5
6A3
330
63D
100
AcDbEntity
  8
image
 62
     5
100
AcDbVertex
100
AcDb2dVertex
 10
6.227663794080292
 20
5.236931109134994
 30
0.0
 70
     8
  0
VERTEX
  5
6A4
330
63D
100
AcDbEntity
  8
image
 62
     5
100
AcDbVertex
100
AcDb2dVertex
 10
6.229671429412967
 20
5.189606165163054
 30
0.0
 70
     8
  0
VERTEX
  5
6A5
330
63D
100
AcDbEntity
  8
image
 62
     5
100
AcDbVertex
100
AcDb2dVertex
 10
6.231831106265175
 20
5.142460835836825
 30
0.0
 70
     8
  0
VERTEX
  5
6A6
330
63D
100
AcDbEntity
  8
image
 62
     5
100
AcDbVertex
100
AcDb2dVertex
 10
6.234287955107713
 20
5.095018452164452
 30
0.0
 70
     8
  0
VERTEX
  5
6A7
330
63D
100
AcDbEntity
  8
image
 62
     5
100
AcDbVertex
100
AcDb2dVertex
 10
6.237147944222378
 20
5.046958932065327
 30
0.0
 70
     8
  0
VERTEX
  5
6A8
330
63D
100
AcDbEntity
  8
image
 62
     5
100
AcDbVertex
100
AcDb2dVertex
 10
6.240360393135013
 20
4.998588541103813
 30
0.0
 70
     8
  0
VERTEX
  5
6A9
330
63D
100
AcDbEntity
  8
image
 62
     5
100
AcDbVertex
100
AcDb2dVertex
 10
6.243835459182459
 20
4.950370131755516
 30
0.0
 70
     8
  0
VERTEX
  5
6AA
330
63D
100
AcDbEntity
  8
image
 62
     5
100
AcDbVertex
100
AcDb2dVertex
 10
6.247483299701567
 20
4.902766556496041
 30
0.0
 70
     8
  0
VERTEX
  5
6AB
330
63D
100
AcDbEntity
  8
image
 62
     5
100
AcDbVertex
100
AcDb2dVertex
 10
6.251214072029178
 20
4.856240667800996
 30
0.0
 70
     8
  0
VERTEX
  5
6AC
330
63D
100
AcDbEntity
  8
image
 62
     5
100
AcDbVertex
100
AcDb2dVertex
 10
6.254937933502141
 20
4.811255318145986
 30
0.0
 70
     8
  0
VERTEX
  5
6AD
330
63D
100
AcDbEntity
  8
image
 62
     5
100
AcDbVertex
100
AcDb2dVertex
 10
6.258565041457302
 20
4.768273360006615
 30
0.0
 70
     8
  0
VERTEX
  5
6AE
330
63D
100
AcDbEntity
  8
image
 62
     5
100
AcDbVertex
100
AcDb2dVertex
 10
6.262005553231503
 20
4.72775764585849
 30
0.0
 70
     8
  0
VERTEX
  5
6AF
330
63D
100
AcDbEntity
  8
image
 62
     5
100
AcDbVertex
100
AcDb2dVertex
 10
6.265184599938788
 20
4.690065101738223
 30
0.0
 70
     8
  0
VERTEX
  5
6B0
330
63D
100
AcDbEntity
  8
image
 62
     5
100
AcDbVertex
100
AcDb2dVertex
 10
6.268087207801958
 20
4.655128947926442
 30
0.0
 70
     8
  0
VERTEX
  5
6B1
330
63D
100
AcDbEntity
  8
image
 62
     5
100
AcDbVertex
100
AcDb2dVertex
 10
6.270713376821021
 20
4.622776478264781
 30
0.0
 70
     8
  0
VERTEX
  5
6B2
330
63D
100
AcDbEntity
  8
image
 62
     5
100
AcDbVertex
100
AcDb2dVertex
 10
6.273063106995969
 20
4.592834986594873
 30
0.0
 70
     8
  0
VERTEX
  5
6B3
330
63D
100
AcDbEntity
  8
image
 62
     5
100
AcDbVertex
100
AcDb2dVertex
 10
6.275136398326804
 20
4.565131766758351
 30
0.0
 70
     8
  0
VERTEX
  5
6B4
330
63D
100
AcDbEntity
  8
image
 62
     5
100
AcDbVertex
100
AcDb2dVertex
 10
6.276933250813531
 20
4.539494112596848
 30
0.0
 70
     8
  0
VERTEX
  5
6B5
330
63D
100
AcDbEntity
  8
image
 62
     5
100
AcDbVertex
100
AcDb2dVertex
 10
6.278453664456144
 20
4.515749317952
 30
0.0
 70
     8
  0
VERTEX
  5
6B6
330
63D
100
AcDbEntity
  8
image
 62
     5
100
AcDbVertex
100
AcDb2dVertex
 10
6.279697639254646
 20
4.493724676665439
 30
0.0
 70
     8
  0
VERTEX
  5
6B7
330
63D
100
AcDbEntity
  8
image
 62
     5
100
AcDbVertex
100
AcDb2dVertex
 10
6.280664023375667
 20
4.473265904573173
 30
0.0
 70
     8
  0
VERTEX
  5
6B8
330
63D
100
AcDbEntity
  8
image
 62
     5
100
AcDbVertex
100
AcDb2dVertex
 10
6.281347057652361
 20
4.454292405488701
 30
0.0
 70
     8
  0
VERTEX
  5
6B9
330
63D
100
AcDbEntity
  8
image
 62
     5
100
AcDbVertex
100
AcDb2dVertex
 10
6.281739831084511
 20
4.4367420052199
 30
0.0
 70
     8
  0
VERTEX
  5
6BA
330
63D
100
AcDbEntity
  8
image
 62
     5
100
AcDbVertex
100
AcDb2dVertex
 10
6.281835432671897
 20
4.420552529574644
 30
0.0
 70
     8
  0
VERTEX
  5
6BB
330
63D
100
AcDbEntity
  8
image
 62
     5
100
AcDbVertex
100
AcDb2dVertex
 10
6.28162695141431
 20
4.405661804360808
 30
0.0
 70
     8
  0
VERTEX
  5
6BC
330
63D
100
AcDbEntity
  8
image
 62
     5
100
AcDbVertex
100
AcDb2dVertex
 10
6.281107476311532
 20
4.392007655386267
 30
0.0
 70
     8
  0
VERTEX
  5
6BD
330
63D
100
AcDbEntity
  8
image
 62
     5
100
AcDbVertex
100
AcDb2dVertex
 10
6.280270096363341
 20
4.379527908458895
 30
0.0
 70
     8
  0
VERTEX
  5
6BE
330
63D
100
AcDbEntity
  8
image
 62
     5
100
AcDbVertex
100
AcDb2dVertex
 10
6.279107900569528
 20
4.368160389386567
 30
0.0
 70
     8
  0
VERTEX
  5
6BF
330
63D
100
AcDbEntity
  8
image
 62
     5
100
AcDbVertex
100
AcDb2dVertex
 10
6.277456177461843
 20
4.357872859675037
 30
0.0
 70
     8
  0
VERTEX
  5
6C0
330
63D
100
AcDbEntity
  8
image
 62
     5
100
AcDbVertex
100
AcDb2dVertex
 10
6.274519013699926
 20
4.34875282362157
 30
0.0
 70
     8
  0
VERTEX
  5
6C1
330
63D
100
AcDbEntity
  8
image
 62
     5
100
AcDbVertex
100
AcDb2dVertex
 10
6.269342695475387
 20
4.340917721221312
 30
0.0
 70
     8
  0
VERTEX
  5
6C2
330
63D
100
AcDbEntity
  8
image
 62
     5
100
AcDbVertex
100
AcDb2dVertex
 10
6.26097350897983
 20
4.334484992469405
 30
0.0
 70
     8
  0
VERTEX
  5
6C3
330
63D
100
AcDbEntity
  8
image
 62
     5
100
AcDbVertex
100
AcDb2dVertex
 10
6.24845774040487
 20
4.329572077360997
 30
0.0
 70
     8
  0
VERTEX
  5
6C4
330
63D
100
AcDbEntity
  8
image
 62
     5
100
AcDbVertex
100
AcDb2dVertex
 10
6.230841675942116
 20
4.32629641589123
 30
0.0
 70
     8
  0
VERTEX
  5
6C5
330
63D
100
AcDbEntity
  8
image
 62
     5
100
AcDbVertex
100
AcDb2dVertex
 10
6.207171601783173
 20
4.324775448055251
 30
0.0
 70
     8
  0
VERTEX
  5
6C6
330
63D
100
AcDbEntity
  8
image
 62
     5
100
AcDbVertex
100
AcDb2dVertex
 10
6.176493804119651
 20
4.325126613848202
 30
0.0
 70
     8
  0
VERTEX
  5
68D
330
63D
100
AcDbEntity
  8
image
 62
     5
100
AcDbVertex
100
AcDb2dVertex
 10
6.187109075608322
 20
5.828361083333012
 30
0.0
 70
    16
  0
VERTEX
  5
68E
330
63D
100
AcDbEntity
  8
image
 62
     5
100
AcDbVertex
100
AcDb2dVertex
 10
6.222493247654604
 20
5.460510758362389
 30
0.0
 70
    16
  0
VERTEX
  5
68F
330
63D
100
AcDbEntity
  8
image
 62
     5
100
AcDbVertex
100
AcDb2dVertex
 10
6.229570062189079
 20
5.103271501103064
 30
0.0
 70
    16
  0
VERTEX
  5
690
330
63D
100
AcDbEntity
  8
image
 62
     5
100
AcDbVertex
100
AcDb2dVertex
 10
6.264954234235361
 20
4.696513950212065
 30
0.0
 70
    16
  0
VERTEX
  5
691
330
63D
100
AcDbEntity
  8
image
 62
     5
100
AcDbVertex
100
AcDb2dVertex
 10
6.282646320258503
 20
4.477218573199619
 30
0.0
 70
    16
  0
VERTEX
  5
692
330
63D
100
AcDbEntity
  8
image
 62
     5
100
AcDbVertex
100
AcDb2dVertex
 10
6.282646320258503
 20
4.356959816982097
 30
0.0
 70
    16
  0
VERTEX
  5
693
330
63D
100
AcDbEntity
  8
image
 62
     5
100
AcDbVertex
100
AcDb2dVertex
 10
6.2684926415026
 20
4.321589602454962
 30
0.0
 70
    16
  0
VERTEX
  5
694
330
63D
100
AcDbEntity
  8
image
 62
     5
100
AcDbVertex
100
AcDb2dVertex
 10
6.176493804119651
 20
4.325126613848202
 30
0.0
 70
    16
  0
SEQEND
  5
695
330
63D
100
AcDbEntity
  8
image
 62
     5
  0
POLYLINE
  5
63E
330
2
100
AcDbEntity
  8
image
 62
     5
100
AcDb2dPolyline
 66
     1
 10
0.0
 20
0.0
 30
0.0
 70
     4
 40
0.0262
 41
0.0262
 75
     6
  0
VERTEX
  5
63F
330
63E
100
AcDbEntity
  8
image
 62
     5
100
AcDbVertex
100
AcDb2dVertex
 10
6.219129848170886
 20
6.1895014478134
 30
0.0
 70
    16
  0
VERTEX
  5
64B
330
63E
100
AcDbEntity
  8
image
 62
     5
100
AcDbVertex
100
AcDb2dVertex
 10
6.219129848170886
 20
6.1895014478134
 30
0.0
 70
     8
  0
VERTEX
  5
64C
330
63E
100
AcDbEntity
  8
image
 62
     5
100
AcDbVertex
100
AcDb2dVertex
 10
6.254070957711913
 20
6.127023971136088
 30
0.0
 70
     8
  0
VERTEX
  5
64D
330
63E
100
AcDbEntity
  8
image
 62
     5
100
AcDbVertex
100
AcDb2dVertex
 10
6.285056073266229
 20
6.071767848871809
 30
0.0
 70
     8
  0
VERTEX
  5
64E
330
63E
100
AcDbEntity
  8
image
 62
     5
100
AcDbVertex
100
AcDb2dVertex
 10
6.312591099881306
 20
6.022630402704566
 30
0.0
 70
     8
  0
VERTEX
  5
64F
330
63E
100
AcDbEntity
  8
image
 62
     5
100
AcDbVertex
100
AcDb2dVertex
 10
6.337181942604633
 20
5.978508954318355
 30
0.0
 70
     8
  0
VERTEX
  5
650
330
63E
100
AcDbEntity
  8
image
 62
     5
100
AcDbVertex
100
AcDb2dVertex
 10
6.359334506483691
 20
5.938300825397178
 30
0.0
 70
     8
  0
VERTEX
  5
651
330
63E
100
AcDbEntity
  8
image
 62
     5
100
AcDbVertex
100
AcDb2dVertex
 10
6.379554696565953
 20
5.900903337625033
 30
0.0
 70
     8
  0
VERTEX
  5
652
330
63E
100
AcDbEntity
  8
image
 62
     5
100
AcDbVertex
100
AcDb2dVertex
 10
6.398348417898912
 20
5.865213812685921
 30
0.0
 70
     8
  0
VERTEX
  5
653
330
63E
100
AcDbEntity
  8
image
 62
     5
100
AcDbVertex
100
AcDb2dVertex
 10
6.416221575530041
 20
5.830129572263842
 30
0.0
 70
     8
  0
VERTEX
  5
654
330
63E
100
AcDbEntity
  8
image
 62
     5
100
AcDbVertex
100
AcDb2dVertex
 10
6.433596332911552
 20
5.794723658144027
 30
0.0
 70
     8
  0
VERTEX
  5
655
330
63E
100
AcDbEntity
  8
image
 62
     5
100
AcDbVertex
100
AcDb2dVertex
 10
6.450559887114557
 20
5.758771992516619
 30
0.0
 70
     8
  0
VERTEX
  5
656
330
63E
100
AcDbEntity
  8
image
 62
     5
100
AcDbVertex
100
AcDb2dVertex
 10
6.467115693614914
 20
5.722226217672995
 30
0.0
 70
     8
  0
VERTEX
  5
657
330
63E
100
AcDbEntity
  8
image
 62
     5
100
AcDbVertex
100
AcDb2dVertex
 10
6.483267207888466
 20
5.685037975904529
 30
0.0
 70
     8
  0
VERTEX
  5
658
330
63E
100
AcDbEntity
  8
image
 62
     5
100
AcDbVertex
100
AcDb2dVertex
 10
6.499017885411056
 20
5.647158909502598
 30
0.0
 70
     8
  0
VERTEX
  5
659
330
63E
100
AcDbEntity
  8
image
 62
     5
100
AcDbVertex
100
AcDb2dVertex
 10
6.514371181658535
 20
5.608540660758576
 30
0.0
 70
     8
  0
VERTEX
  5
65A
330
63E
100
AcDbEntity
  8
image
 62
     5
100
AcDbVertex
100
AcDb2dVertex
 10
6.529330552106749
 20
5.569134871963839
 30
0.0
 70
     8
  0
VERTEX
  5
65B
330
63E
100
AcDbEntity
  8
image
 62
     5
100
AcDbVertex
100
AcDb2dVertex
 10
6.543899452231542
 20
5.528893185409762
 30
0.0
 70
     8
  0
VERTEX
  5
65C
330
63E
100
AcDbEntity
  8
image
 62
     5
100
AcDbVertex
100
AcDb2dVertex
 10
6.558101494532078
 20
5.487778757118514
 30
0.0
 70
     8
  0
VERTEX
  5
65D
330
63E
100
AcDbEntity
  8
image
 62
     5
100
AcDbVertex
100
AcDb2dVertex
 10
6.572040919600755
 20
5.445800798035431
 30
0.0
 70
     8
  0
VERTEX
  5
65E
330
63E
100
AcDbEntity
  8
image
 62
     5
100
AcDbVertex
100
AcDb2dVertex
 10
6.585842125053286
 20
5.402980032836651
 30
0.0
 70
     8
  0
VERTEX
  5
65F
330
63E
100
AcDbEntity
  8
image
 62
     5
100
AcDbVertex
100
AcDb2dVertex
 10
6.599629508505383
 20
5.359337186198303
 30
0.0
 70
     8
  0
VERTEX
  5
660
330
63E
100
AcDbEntity
  8
image
 62
     5
100
AcDbVertex
100
AcDb2dVertex
 10
6.613527467572762
 20
5.314892982796518
 30
0.0
 70
     8
  0
VERTEX
  5
661
330
63E
100
AcDbEntity
  8
image
 62
     5
100
AcDbVertex
100
AcDb2dVertex
 10
6.627660399871132
 20
5.269668147307431
 30
0.0
 70
     8
  0
VERTEX
  5
662
330
63E
100
AcDbEntity
  8
image
 62
     5
100
AcDbVertex
100
AcDb2dVertex
 10
6.642152703016211
 20
5.223683404407172
 30
0.0
 70
     8
  0
VERTEX
  5
663
330
63E
100
AcDbEntity
  8
image
 62
     5
100
AcDbVertex
100
AcDb2dVertex
 10
6.657128774623711
 20
5.176959478771875
 30
0.0
 70
     8
  0
VERTEX
  5
664
330
63E
100
AcDbEntity
  8
image
 62
     5
100
AcDbVertex
100
AcDb2dVertex
 10
6.672651965359115
 20
5.129545879459231
 30
0.0
 70
     8
  0
VERTEX
  5
665
330
63E
100
AcDbEntity
  8
image
 62
     5
100
AcDbVertex
100
AcDb2dVertex
 10
6.68854143808701
 20
5.081607253053159
 30
0.0
 70
     8
  0
VERTEX
  5
666
330
63E
100
AcDbEntity
  8
image
 62
     5
100
AcDbVertex
100
AcDb2dVertex
 10
6.704555308721751
 20
5.033337030519145
 30
0.0
 70
     8
  0
VERTEX
  5
667
330
63E
100
AcDbEntity
  8
image
 62
     5
100
AcDbVertex
100
AcDb2dVertex
 10
6.7204516931777
 20
4.984928642822669
 30
0.0
 70
     8
  0
VERTEX
  5
668
330
63E
100
AcDbEntity
  8
image
 62
     5
100
AcDbVertex
100
AcDb2dVertex
 10
6.735988707369209
 20
4.936575520929213
 30
0.0
 70
     8
  0
VERTEX
  5
669
330
63E
100
AcDbEntity
  8
image
 62
     5
100
AcDbVertex
100
AcDb2dVertex
 10
6.750924467210641
 20
4.888471095804257
 30
0.0
 70
     8
  0
VERTEX
  5
66A
330
63E
100
AcDbEntity
  8
image
 62
     5
100
AcDbVertex
100
AcDb2dVertex
 10
6.765017088616346
 20
4.840808798413284
 30
0.0
 70
     8
  0
VERTEX
  5
66B
330
63E
100
AcDbEntity
  8
image
 62
     5
100
AcDbVertex
100
AcDb2dVertex
 10
6.778024687500689
 20
4.793782059721775
 30
0.0
 70
     8
  0
VERTEX
  5
66C
330
63E
100
AcDbEntity
  8
image
 62
     5
100
AcDbVertex
100
AcDb2dVertex
 10
6.789759515744208
 20
4.747621154673042
 30
0.0
 70
     8
  0
VERTEX
  5
66D
330
63E
100
AcDbEntity
  8
image
 62
     5
100
AcDbVertex
100
AcDb2dVertex
 10
6.800250369092182
 20
4.702703734121727
 30
0.0
 70
     8
  0
VERTEX
  5
66E
330
63E
100
AcDbEntity
  8
image
 62
     5
100
AcDbVertex
100
AcDb2dVertex
 10
6.809580179256066
 20
4.659444292900302
 30
0.0
 70
     8
  0
VERTEX
  5
66F
330
63E
100
AcDbEntity
  8
image
 62
     5
100
AcDbVertex
100
AcDb2dVertex
 10
6.817831877947327
 20
4.618257325841241
 30
0.0
 70
     8
  0
VERTEX
  5
670
330
63E
100
AcDbEntity
  8
image
 62
     5
100
AcDbVertex
100
AcDb2dVertex
 10
6.825088396877418
 20
4.579557327777015
 30
0.0
 70
     8
  0
VERTEX
  5
671
330
63E
100
AcDbEntity
  8
image
 62
     5
100
AcDbVertex
100
AcDb2dVertex
 10
6.831432667757805
 20
4.543758793540097
 30
0.0
 70
     8
  0
VERTEX
  5
672
330
63E
100
AcDbEntity
  8
image
 62
     5
100
AcDbVertex
100
AcDb2dVertex
 10
6.836947622299948
 20
4.51127621796296
 30
0.0
 70
     8
  0
VERTEX
  5
673
330
63E
100
AcDbEntity
  8
image
 62
     5
100
AcDbVertex
100
AcDb2dVertex
 10
6.841716192215308
 20
4.482524095878075
 30
0.0
 70
     8
  0
VERTEX
  5
674
330
63E
100
AcDbEntity
  8
image
 62
     5
100
AcDbVertex
100
AcDb2dVertex
 10
6.845807487247256
 20
4.457775303039241
 30
0.0
 70
     8
  0
VERTEX
  5
675
330
63E
100
AcDbEntity
  8
image
 62
     5
100
AcDbVertex
100
AcDb2dVertex
 10
6.849235329266836
 20
4.436736238885544
 30
0.0
 70
     8
  0
VERTEX
  5
676
330
63E
100
AcDbEntity
  8
image
 62
     5
100
AcDbVertex
100
AcDb2dVertex
 10
6.851999718177001
 20
4.418971683777399
 30
0.0
 70
     8
  0
VERTEX
  5
677
330
63E
100
AcDbEntity
  8
image
 62
     5
100
AcDbVertex
100
AcDb2dVertex
 10
6.85410065388071
 20
4.404046418075217
 30
0.0
 70
     8
  0
VERTEX
  5
678
330
63E
100
AcDbEntity
  8
image
 62
     5
100
AcDbVertex
100
AcDb2dVertex
 10
6.855538136280912
 20
4.39152522213941
 30
0.0
 70
     8
  0
VERTEX
  5
679
330
63E
100
AcDbEntity
  8
image
 62
     5
100
AcDbVertex
100
AcDb2dVertex
 10
6.85631216528057
 20
4.380972876330391
 30
0.0
 70
     8
  0
VERTEX
  5
67A
330
63E
100
AcDbEntity
  8
image
 62
     5
100
AcDbVertex
100
AcDb2dVertex
 10
6.85642274078263
 20
4.371954161008572
 30
0.0
 70
     8
  0
VERTEX
  5
67B
330
63E
100
AcDbEntity
  8
image
 62
     5
100
AcDbVertex
100
AcDb2dVertex
 10
6.855869862690052
 20
4.364033856534367
 30
0.0
 70
     8
  0
VERTEX
  5
67C
330
63E
100
AcDbEntity
  8
image
 62
     5
100
AcDbVertex
100
AcDb2dVertex
 10
6.854643740390894
 20
4.356848128514803
 30
0.0
 70
     8
  0
VERTEX
  5
67D
330
63E
100
AcDbEntity
  8
image
 62
     5
100
AcDbVertex
100
AcDb2dVertex
 10
6.852695421213606
 20
4.350318683543378
 30
0.0
 70
     8
  0
VERTEX
  5
67E
330
63E
100
AcDbEntity
  8
image
 62
     5
100
AcDbVertex
100
AcDb2dVertex
 10
6.849966161971757
 20
4.344438613460207
 30
0.0
 70
     8
  0
VERTEX
  5
67F
330
63E
100
AcDbEntity
  8
image
 62
     5
100
AcDbVertex
100
AcDb2dVertex
 10
6.846397219478891
 20
4.339201010105403
 30
0.0
 70
     8
  0
VERTEX
  5
680
330
63E
100
AcDbEntity
  8
image
 62
     5
100
AcDbVertex
100
AcDb2dVertex
 10
6.841929850548577
 20
4.33459896531908
 30
0.0
 70
     8
  0
VERTEX
  5
681
330
63E
100
AcDbEntity
  8
image
 62
     5
100
AcDbVertex
100
AcDb2dVertex
 10
6.836505311994368
 20
4.330625570941352
 30
0.0
 70
     8
  0
VERTEX
  5
682
330
63E
100
AcDbEntity
  8
image
 62
     5
100
AcDbVertex
100
AcDb2dVertex
 10
6.830064860629821
 20
4.327273918812332
 30
0.0
 70
     8
  0
VERTEX
  5
683
330
63E
100
AcDbEntity
  8
image
 62
     5
100
AcDbVertex
100
AcDb2dVertex
 10
6.822549753268496
 20
4.324537100772137
 30
0.0
 70
     8
  0
VERTEX
  5
684
330
63E
100
AcDbEntity
  8
image
 62
     5
100
AcDbVertex
100
AcDb2dVertex
 10
6.813882817503255
 20
4.322410511413584
 30
0.0
 70
     8
  0
VERTEX
  5
685
330
63E
100
AcDbEntity
  8
image
 62
     5
100
AcDbVertex
100
AcDb2dVertex
 10
6.803913164044207
 20
4.32089875634033
 30
0.0
 70
     8
  0
VERTEX
  5
686
330
63E
100
AcDbEntity
  8
image
 62
     5
100
AcDbVertex
100
AcDb2dVertex
 10
6.792471474380761
 20
4.320008743908732
 30
0.0
 70
     8
  0
VERTEX
  5
687
330
63E
100
AcDbEntity
  8
image
 62
     5
100
AcDbVertex
100
AcDb2dVertex
 10
6.779388430002327
 20
4.319747382475151
 30
0.0
 70
     8
  0
VERTEX
  5
688
330
63E
100
AcDbEntity
  8
image
 62
     5
100
AcDbVertex
100
AcDb2dVertex
 10
6.76449471239832
 20
4.320121580395947
 30
0.0
 70
     8
  0
VERTEX
  5
689
330
63E
100
AcDbEntity
  8
image
 62
     5
100
AcDbVertex
100
AcDb2dVertex
 10
6.747621003058149
 20
4.321138246027482
 30
0.0
 70
     8
  0
VERTEX
  5
68A
330
63E
100
AcDbEntity
  8
image
 62
     5
100
AcDbVertex
100
AcDb2dVertex
 10
6.728597983471225
 20
4.322804287726113
 30
0.0
 70
     8
  0
VERTEX
  5
68B
330
63E
100
AcDbEntity
  8
image
 62
     5
100
AcDbVertex
100
AcDb2dVertex
 10
6.707256335126963
 20
4.325126613848203
 30
0.0
 70
     8
  0
VERTEX
  5
640
330
63E
100
AcDbEntity
  8
image
 62
     5
100
AcDbVertex
100
AcDb2dVertex
 10
6.318030492304789
 20
6.012286212286745
 30
0.0
 70
    16
  0
VERTEX
  5
641
330
63E
100
AcDbEntity
  8
image
 62
     5
100
AcDbVertex
100
AcDb2dVertex
 10
6.420644601176405
 20
5.835435106119492
 30
0.0
 70
    16
  0
VERTEX
  5
642
330
63E
100
AcDbEntity
  8
image
 62
     5
100
AcDbVertex
100
AcDb2dVertex
 10
6.54802761060564
 20
5.538325243734718
 30
0.0
 70
    16
  0
VERTEX
  5
643
330
63E
100
AcDbEntity
  8
image
 62
     5
100
AcDbVertex
100
AcDb2dVertex
 10
6.650641669790296
 20
5.18462303140021
 30
0.0
 70
    16
  0
VERTEX
  5
644
330
63E
100
AcDbEntity
  8
image
 62
     5
100
AcDbVertex
100
AcDb2dVertex
 10
6.792178357975434
 20
4.784939503295692
 30
0.0
 70
    16
  0
VERTEX
  5
645
330
63E
100
AcDbEntity
  8
image
 62
     5
100
AcDbVertex
100
AcDb2dVertex
 10
6.848793023312097
 20
4.438311313747666
 30
0.0
 70
    16
  0
VERTEX
  5
646
330
63E
100
AcDbEntity
  8
image
 62
     5
100
AcDbVertex
100
AcDb2dVertex
 10
6.862946702068004
 20
4.356959816982097
 30
0.0
 70
    16
  0
VERTEX
  5
647
330
63E
100
AcDbEntity
  8
image
 62
     5
100
AcDbVertex
100
AcDb2dVertex
 10
6.83463934455619
 20
4.318052557530144
 30
0.0
 70
    16
  0
VERTEX
  5
648
330
63E
100
AcDbEntity
  8
image
 62
     5
100
AcDbVertex
100
AcDb2dVertex
 10
6.767409407730859
 20
4.318052557530144
 30
0.0
 70
    16
  0
VERTEX
  5
649
330
63E
100
AcDbEntity
  8
image
 62
     5
100
AcDbVertex
100
AcDb2dVertex
 10
6.70725633512696
 20
4.325126613848202
 30
0.0
 70
    16
  0
SEQEND
  5
64A
330
63E
100
AcDbEntity
  8
image
 62
     5
  0
TEXT
  5
A89
330
2
100
AcDbEntity
  8
image
100
AcDbText
 10
1.679754392622223
 20
4.016968559327467
 30
0.0
 40
0.075
  1
L1L2L1L2L1L2
 50
90.0
  7
ARIAL
100
AcDbText
  0
CIRCLE
  5
A8A
102
{ACAD_REACTORS
330
B3F
102
}
330
2
100
AcDbEntity
  8
image
 62
     5
100
AcDbCircle
 10
1.722092620282488
 20
4.078797124201567
 30
0.0
 40
0.0131
  0
CIRCLE
  5
A8B
102
{ACAD_REACTORS
330
B3E
102
}
330
2
100
AcDbEntity
  8
image
 62
     5
100
AcDbCircle
 10
1.722092620282488
 20
4.196047486553013
 30
0.0
 40
0.0131
  0
CIRCLE
  5
A8C
330
2
100
AcDbEntity
  8
image
100
AcDbCircle
 10
1.722092620282488
 20
4.311867959267008
 30
0.0
 40
0.0131
  0
CIRCLE
  5
A8D
330
2
100
AcDbEntity
  8
image
100
AcDbCircle
 10
1.722092620282488
 20
4.431978100893359
 30
0.0
 40
0.0131
  0
CIRCLE
  5
A8E
330
2
100
AcDbEntity
  8
image
100
AcDbCircle
 10
1.722092620282488
 20
4.552088207936203
 30
0.0
 40
0.0131
  0
CIRCLE
  5
A8F
330
2
100
AcDbEntity
  8
image
100
AcDbCircle
 10
1.722092620282488
 20
4.652179963805241
 30
0.0
 40
0.0131
  0
POLYLINE
  5
A90
330
2
100
AcDbEntity
  8
image
 62
     5
100
AcDb2dPolyline
 66
     1
 10
0.0
 20
0.0
 30
0.0
 70
     4
 40
0.0131
 41
0.0131
 75
     6
  0
VERTEX
  5
ABB
330
A90
100
AcDbEntity
  8
image
 62
     5
100
AcDbVertex
100
AcDb2dVertex
 10
5.984432134920147
 20
4.332943147799469
 30
0.0
 40
0.0262
 41
0.0262
 70
    16
  0
VERTEX
  5
AC0
330
A90
100
AcDbEntity
  8
image
 62
     5
100
AcDbVertex
100
AcDb2dVertex
 10
5.984432134920147
 20
4.332943147799469
 30
0.0
 40
0.0262
 41
0.0262
 70
     8
  0
VERTEX
  5
AC1
330
A90
100
AcDbEntity
  8
image
 62
     5
100
AcDbVertex
100
AcDb2dVertex
 10
5.873833959132438
 20
4.323238221822082
 30
0.0
 40
0.0262
 41
0.0262
 70
     8
  0
VERTEX
  5
AC2
330
A90
100
AcDbEntity
  8
image
 62
     5
100
AcDbVertex
100
AcDb2dVertex
 10
5.768789940765895
 20
4.309765894881093
 30
0.0
 40
0.0262
 41
0.0262
 70
     8
  0
VERTEX
  5
AC3
330
A90
100
AcDbEntity
  8
image
 62
     5
100
AcDbVertex
100
AcDb2dVertex
 10
5.666655244754901
 20
4.293781967297705
 30
0.0
 40
0.0262
 41
0.0262
 70
     8
  0
VERTEX
  5
AC4
330
A90
100
AcDbEntity
  8
image
 62
     5
100
AcDbVertex
100
AcDb2dVertex
 10
5.564785036033843
 20
4.276542239393116
 30
0.0
 40
0.0262
 41
0.0262
 70
     8
  0
VERTEX
  5
AC5
330
A90
100
AcDbEntity
  8
image
 62
     5
100
AcDbVertex
100
AcDb2dVertex
 10
5.460534479537106
 20
4.259302511488527
 30
0.0
 40
0.0262
 41
0.0262
 70
     8
  0
VERTEX
  5
AC6
330
A90
100
AcDbEntity
  8
image
 62
     5
100
AcDbVertex
100
AcDb2dVertex
 10
5.351258740199076
 20
4.243318583905137
 30
0.0
 40
0.0262
 41
0.0262
 70
     8
  0
VERTEX
  5
AC7
330
A90
100
AcDbEntity
  8
image
 62
     5
100
AcDbVertex
100
AcDb2dVertex
 10
5.234312982954138
 20
4.229846256964149
 30
0.0
 40
0.0262
 41
0.0262
 70
     8
  0
VERTEX
  5
AC8
330
A90
100
AcDbEntity
  8
image
 62
     5
100
AcDbVertex
100
AcDb2dVertex
 10
5.10705237273668
 20
4.220141330986761
 30
0.0
 40
0.0262
 41
0.0262
 70
     8
  0
VERTEX
  5
ABC
330
A90
100
AcDbEntity
  8
image
 62
     5
100
AcDbVertex
100
AcDb2dVertex
 10
5.679747158421937
 20
4.313202813430081
 30
0.0
 40
0.0262
 41
0.0262
 70
    16
  0
VERTEX
  5
ABD
330
A90
100
AcDbEntity
  8
image
 62
     5
100
AcDbVertex
100
AcDb2dVertex
 10
5.462518101782702
 20
4.239881665356151
 30
0.0
 40
0.0262
 41
0.0262
 70
    16
  0
VERTEX
  5
ABE
330
A90
100
AcDbEntity
  8
image
 62
     5
100
AcDbVertex
100
AcDb2dVertex
 10
5.10705237273668
 20
4.220141330986761
 30
0.0
 40
0.0262
 41
0.0262
 70
    16
  0
SEQEND
  5
ABF
330
A90
100
AcDbEntity
  8
image
 62
     5
  0
POLYLINE
  5
A91
330
2
100
AcDbEntity
  8
image
 62
     5
100
AcDb2dPolyline
 66
     1
 10
0.0
 20
0.0
 30
0.0
 70
     4
 40
0.0131
 41
0.0131
 75
     6
  0
VERTEX
  5
A92
330
A91
100
AcDbEntity
  8
image
 62
     5
100
AcDbVertex
100
AcDb2dVertex
 10
6.500703810973243
 20
4.32730306214636
 30
0.0
 40
0.0262
 41
0.0262
 70
    16
  0
VERTEX
  5
A9A
330
A91
100
AcDbEntity
  8
image
 62
     5
100
AcDbVertex
100
AcDb2dVertex
 10
6.500703810973243
 20
4.327303062146359
 30
0.0
 40
0.0262
 41
0.0262
 70
     8
  0
VERTEX
  5
A9B
330
A91
100
AcDbEntity
  8
image
 62
     5
100
AcDbVertex
100
AcDb2dVertex
 10
6.461151130951797
 20
4.315479431369658
 30
0.0
 40
0.0262
 41
0.0262
 70
     8
  0
VERTEX
  5
A9C
330
A91
100
AcDbEntity
  8
image
 62
     5
100
AcDbVertex
100
AcDb2dVertex
 10
6.428400636488186
 20
4.301452640885111
 30
0.0
 40
0.0262
 41
0.0262
 70
     8
  0
VERTEX
  5
A9D
330
A91
100
AcDbEntity
  8
image
 62
     5
100
AcDbVertex
100
AcDb2dVertex
 10
6.401187765799773
 20
4.285663322755871
 30
0.0
 40
0.0262
 41
0.0262
 70
     8
  0
VERTEX
  5
A9E
330
A91
100
AcDbEntity
  8
image
 62
     5
100
AcDbVertex
100
AcDb2dVertex
 10
6.378247957103921
 20
4.268552109045089
 30
0.0
 40
0.0262
 41
0.0262
 70
     8
  0
VERTEX
  5
A9F
330
A91
100
AcDbEntity
  8
image
 62
     5
100
AcDbVertex
100
AcDb2dVertex
 10
6.358316648617993
 20
4.250559631815916
 30
0.0
 40
0.0262
 41
0.0262
 70
     8
  0
VERTEX
  5
AA0
330
A91
100
AcDbEntity
  8
image
 62
     5
100
AcDbVertex
100
AcDb2dVertex
 10
6.340129278559352
 20
4.232126523131506
 30
0.0
 40
0.0262
 41
0.0262
 70
     8
  0
VERTEX
  5
AA1
330
A91
100
AcDbEntity
  8
image
 62
     5
100
AcDbVertex
100
AcDb2dVertex
 10
6.322421285145361
 20
4.213693415055008
 30
0.0
 40
0.0262
 41
0.0262
 70
     8
  0
VERTEX
  5
AA2
330
A91
100
AcDbEntity
  8
image
 62
     5
100
AcDbVertex
100
AcDb2dVertex
 10
6.303928106593383
 20
4.195700939649575
 30
0.0
 40
0.0262
 41
0.0262
 70
     8
  0
VERTEX
  5
AA3
330
A91
100
AcDbEntity
  8
image
 62
     5
100
AcDbVertex
100
AcDb2dVertex
 10
6.283573441976171
 20
4.178541075828193
 30
0.0
 40
0.0262
 41
0.0262
 70
     8
  0
VERTEX
  5
AA4
330
A91
100
AcDbEntity
  8
image
 62
     5
100
AcDbVertex
100
AcDb2dVertex
 10
6.261034033788028
 20
4.162411189903187
 30
0.0
 40
0.0262
 41
0.0262
 70
     8
  0
VERTEX
  5
AA5
330
A91
100
AcDbEntity
  8
image
 62
     5
100
AcDbVertex
100
AcDb2dVertex
 10
6.236174885378645
 20
4.147459995036714
 30
0.0
 40
0.0262
 41
0.0262
 70
     8
  0
VERTEX
  5
AA6
330
A91
100
AcDbEntity
  8
image
 62
     5
100
AcDbVertex
100
AcDb2dVertex
 10
6.208861000097714
 20
4.133836204390934
 30
0.0
 40
0.0262
 41
0.0262
 70
     8
  0
VERTEX
  5
AA7
330
A91
100
AcDbEntity
  8
image
 62
     5
100
AcDbVertex
100
AcDb2dVertex
 10
6.178957381294928
 20
4.121688531128005
 30
0.0
 40
0.0262
 41
0.0262
 70
     8
  0
VERTEX
  5
AA8
330
A91
100
AcDbEntity
  8
image
 62
     5
100
AcDbVertex
100
AcDb2dVertex
 10
6.146329032319979
 20
4.111165688410086
 30
0.0
 40
0.0262
 41
0.0262
 70
     8
  0
VERTEX
  5
AA9
330
A91
100
AcDbEntity
  8
image
 62
     5
100
AcDbVertex
100
AcDb2dVertex
 10
6.110840956522558
 20
4.102416389399334
 30
0.0
 40
0.0262
 41
0.0262
 70
     8
  0
VERTEX
  5
AAA
330
A91
100
AcDbEntity
  8
image
 62
     5
100
AcDbVertex
100
AcDb2dVertex
 10
6.072358157252359
 20
4.09558934725791
 30
0.0
 40
0.0262
 41
0.0262
 70
     8
  0
VERTEX
  5
AAB
330
A91
100
AcDbEntity
  8
image
 62
     5
100
AcDbVertex
100
AcDb2dVertex
 10
6.030742882776879
 20
4.090785081073585
 30
0.0
 40
0.0262
 41
0.0262
 70
     8
  0
VERTEX
  5
AAC
330
A91
100
AcDbEntity
  8
image
 62
     5
100
AcDbVertex
100
AcDb2dVertex
 10
5.98584636103485
 20
4.087911333636577
 30
0.0
 40
0.0262
 41
0.0262
 70
     8
  0
VERTEX
  5
AAD
330
A91
100
AcDbEntity
  8
image
 62
     5
100
AcDbVertex
100
AcDb2dVertex
 10
5.937517064882808
 20
4.086827653662721
 30
0.0
 40
0.0262
 41
0.0262
 70
     8
  0
VERTEX
  5
AAE
330
A91
100
AcDbEntity
  8
image
 62
     5
100
AcDbVertex
100
AcDb2dVertex
 10
5.88560346717729
 20
4.087393589867849
 30
0.0
 40
0.0262
 41
0.0262
 70
     8
  0
VERTEX
  5
AAF
330
A91
100
AcDbEntity
  8
image
 62
     5
100
AcDbVertex
100
AcDb2dVertex
 10
5.829954040774836
 20
4.089468690967794
 30
0.0
 40
0.0262
 41
0.0262
 70
     8
  0
VERTEX
  5
AB0
330
A91
100
AcDbEntity
  8
image
 62
     5
100
AcDbVertex
100
AcDb2dVertex
 10
5.770417258531983
 20
4.092912505678387
 30
0.0
 40
0.0262
 41
0.0262
 70
     8
  0
VERTEX
  5
AB1
330
A91
100
AcDbEntity
  8
image
 62
     5
100
AcDbVertex
100
AcDb2dVertex
 10
5.706841593305266
 20
4.097584582715463
 30
0.0
 40
0.0262
 41
0.0262
 70
     8
  0
VERTEX
  5
AB2
330
A91
100
AcDbEntity
  8
image
 62
     5
100
AcDbVertex
100
AcDb2dVertex
 10
5.639075517951226
 20
4.103344470794854
 30
0.0
 40
0.0262
 41
0.0262
 70
     8
  0
VERTEX
  5
AB3
330
A91
100
AcDbEntity
  8
image
 62
     5
100
AcDbVertex
100
AcDb2dVertex
 10
5.567317394934635
 20
4.110146270804528
 30
0.0
 40
0.0262
 41
0.0262
 70
     8
  0
VERTEX
  5
AB4
330
A91
100
AcDbEntity
  8
image
 62
     5
100
AcDbVertex
100
AcDb2dVertex
 10
5.493165145153213
 20
4.118322292320997
 30
0.0
 40
0.0262
 41
0.0262
 70
     8
  0
VERTEX
  5
AB5
330
A91
100
AcDbEntity
  8
image
 62
     5
100
AcDbVertex
100
AcDb2dVertex
 10
5.418566579112912
 20
4.128299397092908
 30
0.0
 40
0.0262
 41
0.0262
 70
     8
  0
VERTEX
  5
AB6
330
A91
100
AcDbEntity
  8
image
 62
     5
100
AcDbVertex
100
AcDb2dVertex
 10
5.345469507319691
 20
4.14050444686891
 30
0.0
 40
0.0262
 41
0.0262
 70
     8
  0
VERTEX
  5
AB7
330
A91
100
AcDbEntity
  8
image
 62
     5
100
AcDbVertex
100
AcDb2dVertex
 10
5.275821740279502
 20
4.155364303397648
 30
0.0
 40
0.0262
 41
0.0262
 70
     8
  0
VERTEX
  5
AB8
330
A91
100
AcDbEntity
  8
image
 62
     5
100
AcDbVertex
100
AcDb2dVertex
 10
5.211571088498299
 20
4.173305828427772
 30
0.0
 40
0.0262
 41
0.0262
 70
     8
  0
VERTEX
  5
AB9
330
A91
100
AcDbEntity
  8
image
 62
     5
100
AcDbVertex
100
AcDb2dVertex
 10
5.154665362482042
 20
4.194755883707927
 30
0.0
 40
0.0262
 41
0.0262
 70
     8
  0
VERTEX
  5
ABA
330
A91
100
AcDbEntity
  8
image
 62
     5
100
AcDbVertex
100
AcDb2dVertex
 10
5.10705237273668
 20
4.220141330986762
 30
0.0
 40
0.0262
 41
0.0262
 70
     8
  0
VERTEX
  5
A93
330
A91
100
AcDbEntity
  8
image
 62
     5
100
AcDbVertex
100
AcDb2dVertex
 10
6.38503636192104
 20
4.299102599297307
 30
0.0
 40
0.0262
 41
0.0262
 70
    16
  0
VERTEX
  5
A94
330
A91
100
AcDbEntity
  8
image
 62
     5
100
AcDbVertex
100
AcDb2dVertex
 10
6.325792073746702
 20
4.186300782484599
 30
0.0
 40
0.0262
 41
0.0262
 70
    16
  0
VERTEX
  5
A95
330
A91
100
AcDbEntity
  8
image
 62
     5
100
AcDbVertex
100
AcDb2dVertex
 10
6.105741838565291
 20
4.073499000255396
 30
0.0
 40
0.0262
 41
0.0262
 70
    16
  0
VERTEX
  5
A96
330
A91
100
AcDbEntity
  8
image
 62
     5
100
AcDbVertex
100
AcDb2dVertex
 10
5.685389515506287
 20
4.09323930004128
 30
0.0
 40
0.0262
 41
0.0262
 70
    16
  0
VERTEX
  5
A97
330
A91
100
AcDbEntity
  8
image
 62
     5
100
AcDbVertex
100
AcDb2dVertex
 10
5.219898643246708
 20
4.146820182912832
 30
0.0
 40
0.0262
 41
0.0262
 70
    16
  0
VERTEX
  5
A98
330
A91
100
AcDbEntity
  8
image
 62
     5
100
AcDbVertex
100
AcDb2dVertex
 10
5.10705237273668
 20
4.220141330986761
 30
0.0
 40
0.0262
 41
0.0262
 70
    16
  0
SEQEND
  5
A99
330
A91
100
AcDbEntity
  8
image
 62
     5
  0
POLYLINE
  5
AC9
330
2
100
AcDbEntity
  8
image
100
AcDb2dPolyline
 66
     1
 10
0.0
 20
0.0
 30
0.0
 70
     4
 40
0.0262
 41
0.0262
 75
     6
  0
VERTEX
  5
ACA
330
AC9
100
AcDbEntity
  8
image
100
AcDbVertex
100
AcDb2dVertex
 10
5.10705237273668
 20
4.220141330986762
 30
0.0
 40
0.0524
 41
0.0524
 70
    16
  0
VERTEX
  5
AD2
330
AC9
100
AcDbEntity
  8
image
100
AcDbVertex
100
AcDb2dVertex
 10
5.10705237273668
 20
4.220141330986762
 30
0.0
 40
0.0524
 41
0.0524
 70
     8
  0
VERTEX
  5
AD3
330
AC9
100
AcDbEntity
  8
image
100
AcDbVertex
100
AcDb2dVertex
 10
4.865862527105166
 20
4.237181185955932
 30
0.0
 40
0.0524
 41
0.0524
 70
     8
  0
VERTEX
  5
AD4
330
AC9
100
AcDbEntity
  8
image
100
AcDbVertex
100
AcDb2dVertex
 10
4.665768016627596
 20
4.251732877396355
 30
0.0
 40
0.0524
 41
0.0524
 70
     8
  0
VERTEX
  5
AD5
330
AC9
100
AcDbEntity
  8
image
100
AcDbVertex
100
AcDb2dVertex
 10
4.501182992217756
 20
4.264091445066479
 30
0.0
 40
0.0524
 41
0.0524
 70
     8
  0
VERTEX
  5
AD6
330
AC9
100
AcDbEntity
  8
image
100
AcDbVertex
100
AcDb2dVertex
 10
4.366521604789443
 20
4.274551928724753
 30
0.0
 40
0.0524
 41
0.0524
 70
     8
  0
VERTEX
  5
AD7
330
AC9
100
AcDbEntity
  8
image
100
AcDbVertex
100
AcDb2dVertex
 10
4.256198005256445
 20
4.283409368129628
 30
0.0
 40
0.0524
 41
0.0524
 70
     8
  0
VERTEX
  5
AD8
330
AC9
100
AcDbEntity
  8
image
100
AcDbVertex
100
AcDb2dVertex
 10
4.164626344532555
 20
4.290958803039553
 30
0.0
 40
0.0524
 41
0.0524
 70
     8
  0
VERTEX
  5
AD9
330
AC9
100
AcDbEntity
  8
image
100
AcDbVertex
100
AcDb2dVertex
 10
4.086220773531564
 20
4.297495273212977
 30
0.0
 40
0.0524
 41
0.0524
 70
     8
  0
VERTEX
  5
ADA
330
AC9
100
AcDbEntity
  8
image
100
AcDbVertex
100
AcDb2dVertex
 10
4.015395443167264
 20
4.303313818408349
 30
0.0
 40
0.0524
 41
0.0524
 70
     8
  0
VERTEX
  5
ADB
330
AC9
100
AcDbEntity
  8
image
100
AcDbVertex
100
AcDb2dVertex
 10
3.947426229505655
 20
4.308648977760129
 30
0.0
 40
0.0524
 41
0.0524
 70
     8
  0
VERTEX
  5
ADC
330
AC9
100
AcDbEntity
  8
image
100
AcDbVertex
100
AcDb2dVertex
 10
3.881035909221573
 20
4.313493287906817
 30
0.0
 40
0.0524
 41
0.0524
 70
     8
  0
VERTEX
  5
ADD
330
AC9
100
AcDbEntity
  8
image
100
AcDbVertex
100
AcDb2dVertex
 10
3.815808984142057
 20
4.317778784862923
 30
0.0
 40
0.0524
 41
0.0524
 70
     8
  0
VERTEX
  5
ADE
330
AC9
100
AcDbEntity
  8
image
100
AcDbVertex
100
AcDb2dVertex
 10
3.751329956094151
 20
4.321437504642957
 30
0.0
 40
0.0524
 41
0.0524
 70
     8
  0
VERTEX
  5
ADF
330
AC9
100
AcDbEntity
  8
image
100
AcDbVertex
100
AcDb2dVertex
 10
3.687183326904897
 20
4.324401483261429
 30
0.0
 40
0.0524
 41
0.0524
 70
     8
  0
VERTEX
  5
AE0
330
AC9
100
AcDbEntity
  8
image
100
AcDbVertex
100
AcDb2dVertex
 10
3.622953598401336
 20
4.326602756732848
 30
0.0
 40
0.0524
 41
0.0524
 70
     8
  0
VERTEX
  5
AE1
330
AC9
100
AcDbEntity
  8
image
100
AcDbVertex
100
AcDb2dVertex
 10
3.558225272410513
 20
4.327973361071726
 30
0.0
 40
0.0524
 41
0.0524
 70
     8
  0
VERTEX
  5
AE2
330
AC9
100
AcDbEntity
  8
image
100
AcDbVertex
100
AcDb2dVertex
 10
3.492582850759468
 20
4.328445332292572
 30
0.0
 40
0.0524
 41
0.0524
 70
     8
  0
VERTEX
  5
AE3
330
AC9
100
AcDbEntity
  8
image
100
AcDbVertex
100
AcDb2dVertex
 10
3.425663716839055
 20
4.327928051849385
 30
0.0
 40
0.0524
 41
0.0524
 70
     8
  0
VERTEX
  5
AE4
330
AC9
100
AcDbEntity
  8
image
100
AcDbVertex
100
AcDb2dVertex
 10
3.357316780295375
 20
4.326240282954119
 30
0.0
 40
0.0524
 41
0.0524
 70
     8
  0
VERTEX
  5
AE5
330
AC9
100
AcDbEntity
  8
image
100
AcDbVertex
100
AcDb2dVertex
 10
3.287443832338338
 20
4.323178134258218
 30
0.0
 40
0.0524
 41
0.0524
 70
     8
  0
VERTEX
  5
AE6
330
AC9
100
AcDbEntity
  8
image
100
AcDbVertex
100
AcDb2dVertex
 10
3.215946664177854
 20
4.318537714413126
 30
0.0
 40
0.0524
 41
0.0524
 70
     8
  0
VERTEX
  5
AE7
330
AC9
100
AcDbEntity
  8
image
100
AcDbVertex
100
AcDb2dVertex
 10
3.142727067023839
 20
4.312115132070283
 30
0.0
 40
0.0524
 41
0.0524
 70
     8
  0
VERTEX
  5
AE8
330
AC9
100
AcDbEntity
  8
image
100
AcDbVertex
100
AcDb2dVertex
 10
3.067686832086199
 20
4.303706495881137
 30
0.0
 40
0.0524
 41
0.0524
 70
     8
  0
VERTEX
  5
AE9
330
AC9
100
AcDbEntity
  8
image
100
AcDbVertex
100
AcDb2dVertex
 10
2.990727750574849
 20
4.293107914497128
 30
0.0
 40
0.0524
 41
0.0524
 70
     8
  0
VERTEX
  5
AEA
330
AC9
100
AcDbEntity
  8
image
100
AcDbVertex
100
AcDb2dVertex
 10
2.911751613699699
 20
4.280115496569701
 30
0.0
 40
0.0524
 41
0.0524
 70
     8
  0
VERTEX
  5
AEB
330
AC9
100
AcDbEntity
  8
image
100
AcDbVertex
100
AcDb2dVertex
 10
2.830833966570972
 20
4.264726725011772
 30
0.0
 40
0.0524
 41
0.0524
 70
     8
  0
VERTEX
  5
AEC
330
AC9
100
AcDbEntity
  8
image
100
AcDbVertex
100
AcDb2dVertex
 10
2.748745369900145
 20
4.247744579782164
 30
0.0
 40
0.0524
 41
0.0524
 70
     8
  0
VERTEX
  5
AED
330
AC9
100
AcDbEntity
  8
image
100
AcDbVertex
100
AcDb2dVertex
 10
2.666430138299002
 20
4.23017341510117
 30
0.0
 40
0.0524
 41
0.0524
 70
     8
  0
VERTEX
  5
AEE
330
AC9
100
AcDbEntity
  8
image
100
AcDbVertex
100
AcDb2dVertex
 10
2.584832586379331
 20
4.213017585189083
 30
0.0
 40
0.0524
 41
0.0524
 70
     8
  0
VERTEX
  5
AEF
330
AC9
100
AcDbEntity
  8
image
100
AcDbVertex
100
AcDb2dVertex
 10
2.504897028752921
 20
4.1972814442662
 30
0.0
 40
0.0524
 41
0.0524
 70
     8
  0
VERTEX
  5
AF0
330
AC9
100
AcDbEntity
  8
image
100
AcDbVertex
100
AcDb2dVertex
 10
2.427567780031555
 20
4.183969346552816
 30
0.0
 40
0.0524
 41
0.0524
 70
     8
  0
VERTEX
  5
AF1
330
AC9
100
AcDbEntity
  8
image
100
AcDbVertex
100
AcDb2dVertex
 10
2.353789154827024
 20
4.174085646269225
 30
0.0
 40
0.0524
 41
0.0524
 70
     8
  0
VERTEX
  5
AF2
330
AC9
100
AcDbEntity
  8
image
100
AcDbVertex
100
AcDb2dVertex
 10
2.284505467751113
 20
4.168634697635721
 30
0.0
 40
0.0524
 41
0.0524
 70
     8
  0
VERTEX
  5
ACB
330
AC9
100
AcDbEntity
  8
image
100
AcDbVertex
100
AcDb2dVertex
 10
4.404120471659652
 20
4.269160753172613
 30
0.0
 40
0.0524
 41
0.0524
 70
    16
  0
VERTEX
  5
ACC
330
AC9
100
AcDbEntity
  8
image
100
AcDbVertex
100
AcDb2dVertex
 10
3.994121933295447
 20
4.307824594084105
 30
0.0
 40
0.0524
 41
0.0524
 70
    16
  0
VERTEX
  5
ACD
330
AC9
100
AcDbEntity
  8
image
100
AcDbVertex
100
AcDb2dVertex
 10
3.506765184980046
 20
4.338755701396805
 30
0.0
 40
0.0524
 41
0.0524
 70
    16
  0
VERTEX
  5
ACE
330
AC9
100
AcDbEntity
  8
image
100
AcDbVertex
100
AcDb2dVertex
 10
2.934314431341178
 20
4.307824594084105
 30
0.0
 40
0.0524
 41
0.0524
 70
    16
  0
VERTEX
  5
ACF
330
AC9
100
AcDbEntity
  8
image
100
AcDbVertex
100
AcDb2dVertex
 10
2.462429325016016
 20
4.176367465818019
 30
0.0
 40
0.0524
 41
0.0524
 70
    16
  0
VERTEX
  5
AD0
330
AC9
100
AcDbEntity
  8
image
100
AcDbVertex
100
AcDb2dVertex
 10
2.284505467751113
 20
4.168634697635721
 30
0.0
 40
0.0524
 41
0.0524
 70
    16
  0
SEQEND
  5
AD1
330
AC9
100
AcDbEntity
  8
image
  0
POLYLINE
  5
AF3
330
2
100
AcDbEntity
  8
image
 62
     5
100
AcDb2dPolyline
 66
     1
 10
0.0
 20
0.0
 30
0.0
 70
     4
 40
0.0262
 41
0.0262
 75
     6
  0
VERTEX
  5
B0C
330
AF3
100
AcDbEntity
  8
image
 62
     5
100
AcDbVertex
100
AcDb2dVertex
 10
2.284505467751113
 20
4.168634697635721
 30
0.0
 70
    16
  0
VERTEX
  5
B12
330
AF3
100
AcDbEntity
  8
image
 62
     5
100
AcDbVertex
100
AcDb2dVertex
 10
2.284505467751113
 20
4.168634697635721
 30
0.0
 70
     8
  0
VERTEX
  5
B13
330
AF3
100
AcDbEntity
  8
image
 62
     5
100
AcDbVertex
100
AcDb2dVertex
 10
2.243451285275268
 20
4.179866889123179
 30
0.0
 70
     8
  0
VERTEX
  5
B14
330
AF3
100
AcDbEntity
  8
image
 62
     5
100
AcDbVertex
100
AcDb2dVertex
 10
2.207543836899398
 20
4.188995509275468
 30
0.0
 70
     8
  0
VERTEX
  5
B15
330
AF3
100
AcDbEntity
  8
image
 62
     5
100
AcDbVertex
100
AcDb2dVertex
 10
2.17590835588982
 20
4.19625670035042
 30
0.0
 70
     8
  0
VERTEX
  5
B16
330
AF3
100
AcDbEntity
  8
image
 62
     5
100
AcDbVertex
100
AcDb2dVertex
 10
2.147670075512845
 20
4.201886604605865
 30
0.0
 70
     8
  0
VERTEX
  5
B17
330
AF3
100
AcDbEntity
  8
image
 62
     5
100
AcDbVertex
100
AcDb2dVertex
 10
2.121954229034791
 20
4.206121364299637
 30
0.0
 70
     8
  0
VERTEX
  5
B18
330
AF3
100
AcDbEntity
  8
image
 62
     5
100
AcDbVertex
100
AcDb2dVertex
 10
2.097886049721969
 20
4.209197121689565
 30
0.0
 70
     8
  0
VERTEX
  5
B19
330
AF3
100
AcDbEntity
  8
image
 62
     5
100
AcDbVertex
100
AcDb2dVertex
 10
2.074590770840696
 20
4.211350019033483
 30
0.0
 70
     8
  0
VERTEX
  5
B1A
330
AF3
100
AcDbEntity
  8
image
 62
     5
100
AcDbVertex
100
AcDb2dVertex
 10
2.051193625657287
 20
4.212816198589222
 30
0.0
 70
     8
  0
VERTEX
  5
B1B
330
AF3
100
AcDbEntity
  8
image
 62
     5
100
AcDbVertex
100
AcDb2dVertex
 10
2.026754838358
 20
4.213769081171161
 30
0.0
 70
     8
  0
VERTEX
  5
B1C
330
AF3
100
AcDbEntity
  8
image
 62
     5
100
AcDbVertex
100
AcDb2dVertex
 10
2.000074596808874
 20
4.214131201819872
 30
0.0
 70
     8
  0
VERTEX
  5
B1D
330
AF3
100
AcDbEntity
  8
image
 62
     5
100
AcDbVertex
100
AcDb2dVertex
 10
1.969888079795889
 20
4.213762374132474
 30
0.0
 70
     8
  0
VERTEX
  5
B1E
330
AF3
100
AcDbEntity
  8
image
 62
     5
100
AcDbVertex
100
AcDb2dVertex
 10
1.934930466105029
 20
4.212522411706085
 30
0.0
 70
     8
  0
VERTEX
  5
B1F
330
AF3
100
AcDbEntity
  8
image
 62
     5
100
AcDbVertex
100
AcDb2dVertex
 10
1.893936934522278
 20
4.210271128137826
 30
0.0
 70
     8
  0
VERTEX
  5
B20
330
AF3
100
AcDbEntity
  8
image
 62
     5
100
AcDbVertex
100
AcDb2dVertex
 10
1.845642663833615
 20
4.206868337024815
 30
0.0
 70
     8
  0
VERTEX
  5
B21
330
AF3
100
AcDbEntity
  8
image
 62
     5
100
AcDbVertex
100
AcDb2dVertex
 10
1.788782832825024
 20
4.202173851964171
 30
0.0
 70
     8
  0
VERTEX
  5
B22
330
AF3
100
AcDbEntity
  8
image
 62
     5
100
AcDbVertex
100
AcDb2dVertex
 10
1.722092620282488
 20
4.196047486553013
 30
0.0
 70
     8
  0
VERTEX
  5
B0D
330
AF3
100
AcDbEntity
  8
image
 62
     5
100
AcDbVertex
100
AcDb2dVertex
 10
2.167387765252284
 20
4.201601874278352
 30
0.0
 70
    16
  0
VERTEX
  5
B0E
330
AF3
100
AcDbEntity
  8
image
 62
     5
100
AcDbVertex
100
AcDb2dVertex
 10
2.061611044706058
 20
4.217622337579594
 30
0.0
 70
    16
  0
VERTEX
  5
B0F
330
AF3
100
AcDbEntity
  8
image
 62
     5
100
AcDbVertex
100
AcDb2dVertex
 10
1.914164647964751
 20
4.214418244919346
 30
0.0
 70
    16
  0
VERTEX
  5
B10
330
AF3
100
AcDbEntity
  8
image
 62
     5
100
AcDbVertex
100
AcDb2dVertex
 10
1.722092620282488
 20
4.196047486553013
 30
0.0
 70
    16
  0
SEQEND
  5
B11
330
AF3
100
AcDbEntity
  8
image
 62
     5
  0
POLYLINE
  5
AF4
330
2
100
AcDbEntity
  8
image
 62
     5
100
AcDb2dPolyline
 66
     1
 10
0.0
 20
0.0
 30
0.0
 70
     4
 40
0.0262
 41
0.0262
 75
     6
  0
VERTEX
  5
AF5
330
AF4
100
AcDbEntity
  8
image
 62
     5
100
AcDbVertex
100
AcDb2dVertex
 10
2.284505467751113
 20
4.168634697635721
 30
0.0
 70
    16
  0
VERTEX
  5
AFB
330
AF4
100
AcDbEntity
  8
image
 62
     5
100
AcDbVertex
100
AcDb2dVertex
 10
2.284505467751113
 20
4.168634697635721
 30
0.0
 70
     8
  0
VERTEX
  5
AFC
330
AF4
100
AcDbEntity
  8
image
 62
     5
100
AcDbVertex
100
AcDb2dVertex
 10
2.263887340182549
 20
4.155979152371275
 30
0.0
 70
     8
  0
VERTEX
  5
AFD
330
AF4
100
AcDbEntity
  8
image
 62
     5
100
AcDbVertex
100
AcDb2dVertex
 10
2.240369891878641
 20
4.145735587292247
 30
0.0
 70
     8
  0
VERTEX
  5
AFE
330
AF4
100
AcDbEntity
  8
image
 62
     5
100
AcDbVertex
100
AcDb2dVertex
 10
2.21435871527766
 20
4.137542248152715
 30
0.0
 70
     8
  0
VERTEX
  5
AFF
330
AF4
100
AcDbEntity
  8
image
 62
     5
100
AcDbVertex
100
AcDb2dVertex
 10
2.186259402817873
 20
4.131037380706755
 30
0.0
 70
     8
  0
VERTEX
  5
B00
330
AF4
100
AcDbEntity
  8
image
 62
     5
100
AcDbVertex
100
AcDb2dVertex
 10
2.156477546937546
 20
4.125859230708448
 30
0.0
 70
     8
  0
VERTEX
  5
B01
330
AF4
100
AcDbEntity
  8
image
 62
     5
100
AcDbVertex
100
AcDb2dVertex
 10
2.12541874007495
 20
4.121646043911869
 30
0.0
 70
     8
  0
VERTEX
  5
B02
330
AF4
100
AcDbEntity
  8
image
 62
     5
100
AcDbVertex
100
AcDb2dVertex
 10
2.093488574668352
 20
4.1180360660711
 30
0.0
 70
     8
  0
VERTEX
  5
B03
330
AF4
100
AcDbEntity
  8
image
 62
     5
100
AcDbVertex
100
AcDb2dVertex
 10
2.061092643156023
 20
4.114667542940217
 30
0.0
 70
     8
  0
VERTEX
  5
B04
330
AF4
100
AcDbEntity
  8
image
 62
     5
100
AcDbVertex
100
AcDb2dVertex
 10
2.028418303438021
 20
4.111229102902719
 30
0.0
 70
     8
  0
VERTEX
  5
B05
330
AF4
100
AcDbEntity
  8
image
 62
     5
100
AcDbVertex
100
AcDb2dVertex
 10
1.994779975261597
 20
4.107610904859785
 30
0.0
 70
     8
  0
VERTEX
  5
B06
330
AF4
100
AcDbEntity
  8
image
 62
     5
100
AcDbVertex
100
AcDb2dVertex
 10
1.959273843835788
 20
4.103753490342013
 30
0.0
 70
     8
  0
VERTEX
  5
B07
330
AF4
100
AcDbEntity
  8
image
 62
     5
100
AcDbVertex
100
AcDb2dVertex
 10
1.920996094369641
 20
4.099597400880004
 30
0.0
 70
     8
  0
VERTEX
  5
B08
330
AF4
100
AcDbEntity
  8
image
 62
     5
100
AcDbVertex
100
AcDb2dVertex
 10
1.879042912072195
 20
4.095083178004355
 30
0.0
 70
     8
  0
VERTEX
  5
B09
330
AF4
100
AcDbEntity
  8
image
 62
     5
100
AcDbVertex
100
AcDb2dVertex
 10
1.832510482152494
 20
4.090151363245666
 30
0.0
 70
     8
  0
VERTEX
  5
B0A
330
AF4
100
AcDbEntity
  8
image
 62
     5
100
AcDbVertex
100
AcDb2dVertex
 10
1.780494989819578
 20
4.084742498134538
 30
0.0
 70
     8
  0
VERTEX
  5
B0B
330
AF4
100
AcDbEntity
  8
image
 62
     5
100
AcDbVertex
100
AcDb2dVertex
 10
1.722092620282488
 20
4.078797124201567
 30
0.0
 70
     8
  0
VERTEX
  5
AF6
330
AF4
100
AcDbEntity
  8
image
 62
     5
100
AcDbVertex
100
AcDb2dVertex
 10
2.23375008182719
 20
4.13134904402027
 30
0.0
 70
    16
  0
VERTEX
  5
AF7
330
AF4
100
AcDbEntity
  8
image
 62
     5
100
AcDbVertex
100
AcDb2dVertex
 10
2.061734495608989
 20
4.11595073799126
 30
0.0
 70
    16
  0
VERTEX
  5
AF8
330
AF4
100
AcDbEntity
  8
image
 62
     5
100
AcDbVertex
100
AcDb2dVertex
 10
1.887151499578918
 20
4.095419651758079
 30
0.0
 70
    16
  0
VERTEX
  5
AF9
330
AF4
100
AcDbEntity
  8
image
 62
     5
100
AcDbVertex
100
AcDb2dVertex
 10
1.722092620282488
 20
4.078797124201567
 30
0.0
 70
    16
  0
SEQEND
  5
AFA
330
AF4
100
AcDbEntity
  8
image
 62
     5
  0
LWPOLYLINE
  5
B24
330
2
100
AcDbEntity
  8
image
100
AcDbPolyline
 90
        4
 70
     0
 43
0.0
 10
3.747891523095681
 20
4.970632557841811
 42
0.5588132573414237
 10
3.750966854652595
 20
4.778471215451951
 42
-0.5805057762591173
 10
3.747891523095681
 20
4.594918647841823
 42
-0.4766769287470222
 10
3.750966854652595
 20
4.778471215451951
 42
-0.7161357091941387
  0
LWPOLYLINE
  5
B25
330
2
100
AcDbEntity
  8
image
100
AcDbPolyline
 90
        4
 70
     0
 43
0.0
 10
7.430048014067825
 20
4.970632557841811
 42
-0.5588132573414237
 10
7.426972682510911
 20
4.778471215451951
 42
0.5805057762591173
 10
7.430048014067825
 20
4.594918647841823
 42
0.4766769287470222
 10
7.426972682510911
 20
4.778471215451951
 42
0.7161357091941387
  0
TEXT
  5
B27
330
2
100
AcDbEntity
  8
image
100
AcDbText
 10
6.36000120049124
 20
7.064806901777521
 30
0.0
 40
0.125
  1
WHITE
  7
ARIAL
100
AcDbText
  0
TEXT
  5
B29
330
2
100
AcDbEntity
  8
image
 62
     5
100
AcDbText
 10
5.602495232062553
 20
5.435612263143958
 30
0.0
 40
0.125
  1
BLUE
  7
ARIAL
100
AcDbText
  0
TEXT
  5
B2B
330
2
100
AcDbEntity
  8
image
 62
     5
100
AcDbText
 10
6.642468903894535
 20
5.423799056260366
 30
0.0
 40
0.125
  1
BLUE
  7
ARIAL
100
AcDbText
  0
HATCH
  5
B3E
330
2
100
AcDbEntity
  8
image
 62
     5
100
AcDbHatch
 10
0.0
 20
0.0
 30
0.0
210
0.0
220
0.0
230
1.0
  2
SOLID
 70
     1
 71
     1
 91
        1
 92
        1
 93
        1
 72
     2
 10
1.722092620282488
 20
4.196047486553013
 40
0.0131
 50
0.0
 51
360.0
 73
     1
 97
        1
330
A8B
 75
     0
 76
     1
 98
        1
 10
-7.738216299341765
 20
0.7029080130966764
450
        0
451
        0
460
0.0
461
0.0
452
        0
462
0.0
453
        0
470

  0
HATCH
  5
B3F
330
2
100
AcDbEntity
  8
image
 62
     5
100
AcDbHatch
 10
0.0
 20
0.0
 30
0.0
210
0.0
220
0.0
230
1.0
  2
SOLID
 70
     1
 71
     1
 91
        1
 92
        1
 93
        1
 72
     2
 10
1.722092620282488
 20
4.078797124201567
 40
0.0131
 50
0.0
 51
360.0
 73
     1
 97
        1
330
A8A
 75
     0
 76
     1
 98
        1
 10
-7.738216299341765
 20
0.7029080130966764
450
        0
451
        0
460
0.0
461
0.0
452
        0
462
0.0
453
        0
470

  0
CIRCLE
  5
B41
102
{ACAD_REACTORS
330
B45
102
}
330
2
100
AcDbEntity
  8
image
 62
     5
100
AcDbCircle
 10
5.984432134920147
 20
4.332943147799469
 30
0.0
 40
0.0131
  0
CIRCLE
  5
B42
102
{ACAD_REACTORS
330
B45
102
}
330
2
100
AcDbEntity
  8
image
 62
     5
100
AcDbCircle
 10
6.176493804119651
 20
4.325126613848202
 30
0.0
 40
0.0131
  0
CIRCLE
  5
B43
102
{ACAD_REACTORS
330
B46
102
}
330
2
100
AcDbEntity
  8
image
 62
     5
100
AcDbCircle
 10
6.500703810973243
 20
4.327303062146359
 30
0.0
 40
0.0131
  0
CIRCLE
  5
B44
102
{ACAD_REACTORS
330
B46
102
}
330
2
100
AcDbEntity
  8
image
 62
     5
100
AcDbCircle
 10
6.707256335126963
 20
4.325126613848203
 30
0.0
 40
0.0131
  0
HATCH
  5
B45
330
2
100
AcDbEntity
  8
image
 62
     5
100
AcDbHatch
 10
0.0
 20
0.0
 30
0.0
210
0.0
220
0.0
230
1.0
  2
SOLID
 70
     1
 71
     1
 91
        2
 92
        1
 93
        1
 72
     2
 10
5.984432134920147
 20
4.332943147799469
 40
0.0131
 50
0.0
 51
360.0
 73
     1
 97
        1
330
B41
 92
        1
 93
        1
 72
     2
 10
6.176493804119651
 20
4.325126613848202
 40
0.0131
 50
0.0
 51
360.0
 73
     1
 97
        1
330
B42
 75
     0
 76
     1
 98
        1
 10
-7.738216299341765
 20
0.7029080130966764
450
        0
451
        0
460
0.0
461
0.0
452
        0
462
0.0
453
        0
470

  0
HATCH
  5
B46
330
2
100
AcDbEntity
  8
image
 62
     5
100
AcDbHatch
 10
0.0
 20
0.0
 30
0.0
210
0.0
220
0.0
230
1.0
  2
SOLID
 70
     1
 71
     1
 91
        2
 92
        1
 93
        1
 72
     2
 10
6.500703810973243
 20
4.327303062146359
 40
0.0131
 50
0.0
 51
360.0
 73
     1
 97
        1
330
B43
 92
        1
 93
        1
 72
     2
 10
6.707256335126963
 20
4.325126613848203
 40
0.0131
 50
0.0
 51
360.0
 73
     1
 97
        1
330
B44
 75
     0
 76
     1
 98
        1
 10
-7.738216299341765
 20
0.7029080130966764
450
        0
451
        0
460
0.0
461
0.0
452
        0
462
0.0
453
        0
470

  0
TEXT
  5
B52
330
2
100
AcDbEntity
  8
image
100
AcDbText
 10
5.596400628407774
 20
6.670289469148058
 30
0.0
 40
0.125
  1
WHITE
  7
ARIAL
100
AcDbText
  0
LWPOLYLINE
  5
B59
330
2
100
AcDbEntity
  8
image
100
AcDbPolyline
 90
        4
 70
     0
 43
0.0
 10
5.099211401859438
 20
8.074677503405805
 42
0.5588132573414237
 10
4.907050059469579
 20
8.071602171848891
 42
-0.5805057762591173
 10
4.723497491859451
 20
8.074677503405805
 42
-0.4766769287470222
 10
4.907050059469579
 20
8.071602171848891
 42
-0.7161357091941387
  0
INSERT
  5
BD1
330
2
100
AcDbEntity
  8
text-bubbles
100
AcDbBlockReference
 66
     1
  2
WID_FlagNote
 10
1.610908827946021
 20
6.560220923902661
 30
0.0
 41
0.2499994999999975
 42
0.2499994999999975
 43
0.2499994999999975
  0
ATTRIB
  5
BD3
330
BD1
100
AcDbEntity
  8
0
100
AcDbText
 10
1.564135600100171
 20
6.459241202045399
 30
0.0
 40
0.1249997499999987
  1
1
  7
WIDFlagNote
 72
     4
 11
1.612694507074932
 21
6.521996874623843
 31
0.0
100
AcDbAttribute
  2
NO.
 70
     0
  0
SEQEND
  5
BD2
330
BD1
100
AcDbEntity
  8
text-bubbles
  0
INSERT
  5
BD4
330
2
100
AcDbEntity
  8
text-bubbles
100
AcDbBlockReference
 66
     1
  2
WID_FlagNote
 10
9.117281234197365
 20
8.553393999066672
 30
0.0
 41
0.2499994999999975
 42
0.2499994999999975
 43
0.2499994999999975
  0
ATTRIB
  5
BD5
330
BD4
100
AcDbEntity
  8
0
100
AcDbText
 10
9.070508006351516
 20
8.45241427720941
 30
0.0
 40
0.1249997499999987
  1
1
  7
WIDFlagNote
 72
     4
 11
9.119066913326276
 21
8.515169949787853
 31
0.0
100
AcDbAttribute
  2
NO.
 70
     0
  0
SEQEND
  5
BD6
330
BD4
100
AcDbEntity
  8
text-bubbles
  0
INSERT
  5
BE3
330
2
100
AcDbEntity
  8
text-bubbles
100
AcDbBlockReference
 66
     1
  2
WID_FlagNote
 10
9.117281234197365
 20
7.928510875250656
 30
0.0
 41
0.2499994999999975
 42
0.2499994999999975
 43
0.2499994999999975
  0
ATTRIB
  5
BE4
330
BE3
100
AcDbEntity
  8
0
100
AcDbText
 10
9.070508006351516
 20
7.827531153393395
 30
0.0
 40
0.1249997499999987
  1
2
  7
WIDFlagNote
 72
     4
 11
9.119066913326276
 21
7.890286825971839
 31
0.0
100
AcDbAttribute
  2
NO.
 70
     0
  0
SEQEND
  5
BE5
330
BE3
100
AcDbEntity
  8
text-bubbles
  0
INSERT
  5
BE6
330
2
100
AcDbEntity
  8
text-bubbles
100
AcDbBlockReference
 66
     1
  2
WID_FlagNote
 10
9.117281234197365
 20
7.513380991333239
 30
0.0
 41
0.2499994999999975
 42
0.2499994999999975
 43
0.2499994999999975
  0
ATTRIB
  5
BE7
330
BE6
100
AcDbEntity
  8
0
100
AcDbText
 10
9.070508006351516
 20
7.413509725649238
 30
0.0
 40
0.1249997499999987
  1
3
  7
WIDFlagNote
 72
     4
 11
9.119066913326276
 21
7.475156942054422
 31
0.0
100
AcDbAttribute
  2
NO.
 70
     0
  0
SEQEND
  5
BE8
330
BE6
100
AcDbEntity
  8
text-bubbles
  0
INSERT
  5
BE9
330
2
100
AcDbEntity
  8
text-bubbles
100
AcDbBlockReference
 66
     1
  2
WID_FlagNote
 10
9.117281234197365
 20
6.89476411371444
 30
0.0
 41
0.2499994999999975
 42
0.2499994999999975
 43
0.2499994999999975
  0
ATTRIB
  5
BEA
330
BE9
100
AcDbEntity
  8
0
100
AcDbText
 10
9.070508006351516
 20
6.794040189435623
 30
0.0
 40
0.1249997499999987
  1
4
  7
WIDFlagNote
 72
     4
 11
9.119066913326276
 21
6.856540064435622
 31
0.0
100
AcDbAttribute
  2
NO.
 70
     0
  0
SEQEND
  5
BEB
330
BE9
100
AcDbEntity
  8
text-bubbles
  0
INSERT
  5
BEC
330
2
100
AcDbEntity
  8
text-bubbles
100
AcDbBlockReference
 66
     1
  2
WID_FlagNote
 10
9.117281234197365
 20
6.433914087207914
 30
0.0
 41
0.2499994999999975
 42
0.2499994999999975
 43
0.2499994999999975
  0
ATTRIB
  5
BED
330
BEC
100
AcDbEntity
  8
0
100
AcDbText
 10
9.070508006351516
 20
6.335108644767432
 30
0.0
 40
0.1249997499999987
  1
5
  7
WIDFlagNote
 72
     4
 11
9.119066913326276
 21
6.395690037929096
 31
0.0
100
AcDbAttribute
  2
NO.
 70
     0
  0
SEQEND
  5
BEE
330
BEC
100
AcDbEntity
  8
text-bubbles
  0
INSERT
  5
BEF
330
2
100
AcDbEntity
  8
text-bubbles
100
AcDbBlockReference
 66
     1
  2
WID_FlagNote
 10
9.117281234197365
 20
6.027539501859013
 30
0.0
 41
0.2499994999999975
 42
0.2499994999999975
 43
0.2499994999999975
  0
ATTRIB
  5
BF0
330
BEF
100
AcDbEntity
  8
0
100
AcDbText
 10
9.070508006351516
 20
5.927625603245271
 30
0.0
 40
0.1249997499999987
  1
6
  7
WIDFlagNote
 72
     4
 11
9.119066913326276
 21
5.989315452580195
 31
0.0
100
AcDbAttribute
  2
NO.
 70
     0
  0
SEQEND
  5
BF1
330
BEF
100
AcDbEntity
  8
text-bubbles
  0
INSERT
  5
BF5
330
2
100
AcDbEntity
  8
text-bubbles
100
AcDbBlockReference
 66
     1
  2
WID_FlagNote
 10
9.117281234197365
 20
5.378880679671843
 30
0.0
 41
0.2499994999999975
 42
0.2499994999999975
 43
0.2499994999999975
  0
ATTRIB
  5
BF6
330
BF5
100
AcDbEntity
  8
0
100
AcDbText
 10
9.070508006351516
 20
5.278966781058101
 30
0.0
 40
0.1249997499999987
  1
7
  7
WIDFlagNote
 72
     4
 11
9.119066913326276
 21
5.340656630393025
 31
0.0
100
AcDbAttribute
  2
NO.
 70
     0
  0
SEQEND
  5
BF7
330
BF5
100
AcDbEntity
  8
text-bubbles
  0
LEADER
  5
BFC
102
{ACAD_XDICTIONARY
360
BFD
102
}
102
{ACAD_REACTORS
330
BFE
102
}
330
2
100
AcDbEntity
  8
text-bubbles
100
AcDbLeader
  3
STANDARD
 76
     2
 10
1.041108391887405
 20
5.869374839701773
 30
0.0
 10
1.612694507074934
 20
6.381364369359923
 30
0.0
1001
ACAD
1000
DSTYLE
1002
{
1070
   147
1040
0.09
1070
    77
1070
     0
1002
}
  0
INSERT
  5
BFF
330
2
100
AcDbEntity
  8
text-bubbles
100
AcDbBlockReference
 66
     1
  2
WID_FlagNote
 10
6.396942622028083
 20
8.037757321320299
 30
0.0
 41
0.2499994999999975
 42
0.2499994999999975
 43
0.2499994999999975
  0
ATTRIB
  5
C00
330
BFF
100
AcDbEntity
  8
0
100
AcDbText
 10
6.350169394182233
 20
7.937843422706557
 30
0.0
 40
0.1249997499999987
  1
6
  7
WIDFlagNote
 72
     4
 11
6.398728301156994
 21
7.999533272041482
 31
0.0
100
AcDbAttribute
  2
NO.
 70
     0
  0
SEQEND
  5
C01
330
BFF
100
AcDbEntity
  8
text-bubbles
  0
INSERT
  5
C02
330
2
100
AcDbEntity
  8
text-bubbles
100
AcDbBlockReference
 66
     1
  2
WID_FlagNote
 10
5.745185978841696
 20
8.037757321320299
 30
0.0
 41
0.2499994999999975
 42
0.2499994999999975
 43
0.2499994999999975
  0
ATTRIB
  5
C03
330
C02
100
AcDbEntity
  8
0
100
AcDbText
 10
5.698412750995847
 20
7.938951878879818
 30
0.0
 40
0.1249997499999987
  1
5
  7
WIDFlagNote
 72
     4
 11
5.746971657970608
 21
7.999533272041482
 31
0.0
100
AcDbAttribute
  2
NO.
 70
     0
  0
SEQEND
  5
C04
330
C02
100
AcDbEntity
  8
text-bubbles
  0
LEADER
  5
C05
102
{ACAD_XDICTIONARY
360
C06
102
}
102
{ACAD_REACTORS
330
C07
102
}
330
2
100
AcDbEntity
  8
text-bubbles
100
AcDbLeader
  3
STANDARD
 76
     2
 10
5.463408165774794
 20
7.413070990117168
 30
0.0
 10
5.746971657970609
 20
7.858900766777562
 30
0.0
1001
ACAD
1000
DSTYLE
1002
{
1070
   147
1040
0.09
1070
    77
1070
     0
1002
}
  0
LEADER
  5
C08
102
{ACAD_XDICTIONARY
360
C09
102
}
102
{ACAD_REACTORS
330
C0A
102
}
330
2
100
AcDbEntity
  8
text-bubbles
100
AcDbLeader
  3
STANDARD
 76
     2
 10
6.000408635128033
 20
7.607173901808332
 30
0.0
 10
6.398728301156996
 20
7.858900766777562
 30
0.0
1001
ACAD
1000
DSTYLE
1002
{
1070
   147
1040
0.09
1070
    77
1070
     0
1002
}
  0
INSERT
  5
C0B
330
2
100
AcDbEntity
  8
text-bubbles
100
AcDbBlockReference
 66
     1
  2
WID_FlagNote
 10
6.909069109775442
 20
6.742308081803904
 30
0.0
 41
0.2499994999999975
 42
0.2499994999999975
 43
0.2499994999999975
  0
ATTRIB
  5
C0C
330
C0B
100
AcDbEntity
  8
0
100
AcDbText
 10
6.862295881929592
 20
6.642394183190162
 30
0.0
 40
0.1249997499999987
  1
7
  7
WIDFlagNote
 72
     4
 11
6.910854788904353
 21
6.704084032525086
 31
0.0
100
AcDbAttribute
  2
NO.
 70
     0
  0
SEQEND
  5
C0D
330
C0B
100
AcDbEntity
  8
text-bubbles
  0
LEADER
  5
C0E
330
2
100
AcDbEntity
  8
text-bubbles
100
AcDbLeader
  3
STANDARD
 76
     2
 10
6.512535122875393
 20
6.311724662291936
 30
0.0
 10
6.910854788904355
 20
6.563451527261166
 30
0.0
1001
ACAD
1000
DSTYLE
1002
{
1070
   147
1040
0.09
1070
    77
1070
     0
1002
}
  0
INSERT
  5
C11
330
2
100
AcDbEntity
  8
text-bubbles
100
AcDbBlockReference
 66
     1
  2
WID_FlagNote
 10
4.023381135627296
 20
7.240665319918488
 30
0.0
 41
0.2499994999999975
 42
0.2499994999999975
 43
0.2499994999999975
  0
ATTRIB
  5
C12
330
C11
100
AcDbEntity
  8
0
100
AcDbText
 10
3.976607907781446
 20
7.13994139563967
 30
0.0
 40
0.1249997499999987
  1
4
  7
WIDFlagNote
 72
     4
 11
4.025166814756207
 21
7.20244127063967
 31
0.0
100
AcDbAttribute
  2
NO.
 70
     0
  0
SEQEND
  5
C13
330
C11
100
AcDbEntity
  8
text-bubbles
  0
LEADER
  5
C14
102
{ACAD_XDICTIONARY
360
C15
102
}
102
{ACAD_REACTORS
330
C16
102
}
330
2
100
AcDbEntity
  8
text-bubbles
100
AcDbLeader
  3
STANDARD
 76
     2
 10
4.574030643949026
 20
6.921205967069918
 30
0.0
 10
4.165799320020127
 20
7.20244127063967
 30
0.0
1001
ACAD
1000
DSTYLE
1002
{
1070
   147
1040
0.09
1070
    77
1070
     0
1002
}
  0
INSERT
  5
C17
330
2
100
AcDbEntity
  8
text-bubbles
100
AcDbBlockReference
 66
     1
  2
WID_FlagNote
 10
4.012040911017686
 20
3.675175853407785
 30
0.0
 41
0.2499994999999975
 42
0.2499994999999975
 43
0.2499994999999975
  0
ATTRIB
  5
C18
330
C17
100
AcDbEntity
  8
0
100
AcDbText
 10
3.965267683171837
 20
3.574196131550523
 30
0.0
 40
0.1249997499999987
  1
2
  7
WIDFlagNote
 72
     4
 11
4.013826590146598
 21
3.636951804128967
 31
0.0
100
AcDbAttribute
  2
NO.
 70
     0
  0
SEQEND
  5
C19
330
C17
100
AcDbEntity
  8
text-bubbles
  0
INSERT
  5
C1A
330
2
100
AcDbEntity
  8
text-bubbles
100
AcDbBlockReference
 66
     1
  2
WID_FlagNote
 10
5.23658795798034
 20
3.675175853407785
 30
0.0
 41
0.2499994999999975
 42
0.2499994999999975
 43
0.2499994999999975
  0
ATTRIB
  5
C1B
330
C1A
100
AcDbEntity
  8
0
100
AcDbText
 10
5.18981473013449
 20
3.575304587723783
 30
0.0
 40
0.1249997499999987
  1
3
  7
WIDFlagNote
 72
     4
 11
5.238373637109251
 21
3.636951804128967
 31
0.0
100
AcDbAttribute
  2
NO.
 70
     0
  0
SEQEND
  5
C1C
330
C1A
100
AcDbEntity
  8
text-bubbles
  0
LINE
  5
C2C
330
2
100
AcDbEntity
  8
image
100
AcDbLine
 10
4.606162523675505
 20
7.011557057002161
 30
0.0
 11
4.621305483174923
 21
6.992651918971
 31
0.0
  0
LINE
  5
C2D
330
2
100
AcDbEntity
  8
image
100
AcDbLine
 10
5.154211346859439
 20
7.180656902208205
 30
0.0
 11
5.154211346859439
 21
7.19806674590301
 31
0.0
  0
LINE
  5
C2E
330
2
100
AcDbEntity
  8
image
100
AcDbLine
 10
5.15421134685944
 20
7.229373974813198
 30
0.0
 11
5.15421134685944
 21
7.381509046680504
 31
0.0
  0
POLYLINE
  5
CAB
330
2
100
AcDbEntity
  8
image
 62
     5
100
AcDb2dPolyline
 66
     1
 10
0.0
 20
0.0
 30
0.0
 70
     4
 40
0.0131
 41
0.0131
 75
     6
  0
VERTEX
  5
CAC
330
CAB
100
AcDbEntity
  8
image
 62
     5
100
AcDbVertex
100
AcDb2dVertex
 10
6.686366817507639
 20
4.32092075907239
 30
0.0
 40
0.0262
 41
0.0262
 70
    16
  0
VERTEX
  5
CAD
330
CAB
100
AcDbEntity
  8
image
 62
     5
100
AcDbVertex
100
AcDb2dVertex
 10
6.686366817507639
 20
4.32092075907239
 30
0.0
 40
0.0262
 41
0.0262
 70
     8
  0
VERTEX
  5
CAE
330
CAB
100
AcDbEntity
  8
image
 62
     5
100
AcDbVertex
100
AcDb2dVertex
 10
6.796964993295349
 20
4.311215833095003
 30
0.0
 40
0.0262
 41
0.0262
 70
     8
  0
VERTEX
  5
CAF
330
CAB
100
AcDbEntity
  8
image
 62
     5
100
AcDbVertex
100
AcDb2dVertex
 10
6.902009011661892
 20
4.297743506154014
 30
0.0
 40
0.0262
 41
0.0262
 70
     8
  0
VERTEX
  5
CB0
330
CAB
100
AcDbEntity
  8
image
 62
     5
100
AcDbVertex
100
AcDb2dVertex
 10
7.004143707672886
 20
4.281759578570626
 30
0.0
 40
0.0262
 41
0.0262
 70
     8
  0
VERTEX
  5
CB1
330
CAB
100
AcDbEntity
  8
image
 62
     5
100
AcDbVertex
100
AcDb2dVertex
 10
7.106013916393944
 20
4.264519850666037
 30
0.0
 40
0.0262
 41
0.0262
 70
     8
  0
VERTEX
  5
CB2
330
CAB
100
AcDbEntity
  8
image
 62
     5
100
AcDbVertex
100
AcDb2dVertex
 10
7.210264472890681
 20
4.247280122761448
 30
0.0
 40
0.0262
 41
0.0262
 70
     8
  0
VERTEX
  5
CB3
330
CAB
100
AcDbEntity
  8
image
 62
     5
100
AcDbVertex
100
AcDb2dVertex
 10
7.319540212228709
 20
4.231296195178058
 30
0.0
 40
0.0262
 41
0.0262
 70
     8
  0
VERTEX
  5
CB4
330
CAB
100
AcDbEntity
  8
image
 62
     5
100
AcDbVertex
100
AcDb2dVertex
 10
7.43648596947365
 20
4.21782386823707
 30
0.0
 40
0.0262
 41
0.0262
 70
     8
  0
VERTEX
  5
CB5
330
CAB
100
AcDbEntity
  8
image
 62
     5
100
AcDbVertex
100
AcDb2dVertex
 10
7.563746579691105
 20
4.208118942259682
 30
0.0
 40
0.0262
 41
0.0262
 70
     8
  0
VERTEX
  5
CB6
330
CAB
100
AcDbEntity
  8
image
 62
     5
100
AcDbVertex
100
AcDb2dVertex
 10
6.99105179400585
 20
4.301180424703002
 30
0.0
 40
0.0262
 41
0.0262
 70
    16
  0
VERTEX
  5
CB7
330
CAB
100
AcDbEntity
  8
image
 62
     5
100
AcDbVertex
100
AcDb2dVertex
 10
7.208280850645085
 20
4.227859276629072
 30
0.0
 40
0.0262
 41
0.0262
 70
    16
  0
VERTEX
  5
CB8
330
CAB
100
AcDbEntity
  8
image
 62
     5
100
AcDbVertex
100
AcDb2dVertex
 10
7.563746579691105
 20
4.208118942259682
 30
0.0
 40
0.0262
 41
0.0262
 70
    16
  0
SEQEND
  5
CB9
330
CAB
100
AcDbEntity
  8
image
 62
     5
  0
POLYLINE
  5
CBA
330
2
100
AcDbEntity
  8
image
 62
     5
100
AcDb2dPolyline
 66
     1
 10
0.0
 20
0.0
 30
0.0
 70
     4
 40
0.0131
 41
0.0131
 75
     6
  0
VERTEX
  5
CBB
330
CBA
100
AcDbEntity
  8
image
 62
     5
100
AcDbVertex
100
AcDb2dVertex
 10
6.170095141454543
 20
4.315280673419281
 30
0.0
 40
0.0262
 41
0.0262
 70
    16
  0
VERTEX
  5
CBC
330
CBA
100
AcDbEntity
  8
image
 62
     5
100
AcDbVertex
100
AcDb2dVertex
 10
6.170095141454543
 20
4.31528067341928
 30
0.0
 40
0.0262
 41
0.0262
 70
     8
  0
VERTEX
  5
CBD
330
CBA
100
AcDbEntity
  8
image
 62
     5
100
AcDbVertex
100
AcDb2dVertex
 10
6.209647821475989
 20
4.303457042642579
 30
0.0
 40
0.0262
 41
0.0262
 70
     8
  0
VERTEX
  5
CBE
330
CBA
100
AcDbEntity
  8
image
 62
     5
100
AcDbVertex
100
AcDb2dVertex
 10
6.242398315939601
 20
4.289430252158032
 30
0.0
 40
0.0262
 41
0.0262
 70
     8
  0
VERTEX
  5
CBF
330
CBA
100
AcDbEntity
  8
image
 62
     5
100
AcDbVertex
100
AcDb2dVertex
 10
6.269611186628013
 20
4.273640934028792
 30
0.0
 40
0.0262
 41
0.0262
 70
     8
  0
VERTEX
  5
CC0
330
CBA
100
AcDbEntity
  8
image
 62
     5
100
AcDbVertex
100
AcDb2dVertex
 10
6.292550995323866
 20
4.25652972031801
 30
0.0
 40
0.0262
 41
0.0262
 70
     8
  0
VERTEX
  5
CC1
330
CBA
100
AcDbEntity
  8
image
 62
     5
100
AcDbVertex
100
AcDb2dVertex
 10
6.312482303809794
 20
4.238537243088837
 30
0.0
 40
0.0262
 41
0.0262
 70
     8
  0
VERTEX
  5
CC2
330
CBA
100
AcDbEntity
  8
image
 62
     5
100
AcDbVertex
100
AcDb2dVertex
 10
6.330669673868435
 20
4.220104134404427
 30
0.0
 40
0.0262
 41
0.0262
 70
     8
  0
VERTEX
  5
CC3
330
CBA
100
AcDbEntity
  8
image
 62
     5
100
AcDbVertex
100
AcDb2dVertex
 10
6.348377667282425
 20
4.201671026327929
 30
0.0
 40
0.0262
 41
0.0262
 70
     8
  0
VERTEX
  5
CC4
330
CBA
100
AcDbEntity
  8
image
 62
     5
100
AcDbVertex
100
AcDb2dVertex
 10
6.366870845834403
 20
4.183678550922496
 30
0.0
 40
0.0262
 41
0.0262
 70
     8
  0
VERTEX
  5
CC5
330
CBA
100
AcDbEntity
  8
image
 62
     5
100
AcDbVertex
100
AcDb2dVertex
 10
6.387225510451616
 20
4.166518687101114
 30
0.0
 40
0.0262
 41
0.0262
 70
     8
  0
VERTEX
  5
CC6
330
CBA
100
AcDbEntity
  8
image
 62
     5
100
AcDbVertex
100
AcDb2dVertex
 10
6.409764918639758
 20
4.150388801176108
 30
0.0
 40
0.0262
 41
0.0262
 70
     8
  0
VERTEX
  5
CC7
330
CBA
100
AcDbEntity
  8
image
 62
     5
100
AcDbVertex
100
AcDb2dVertex
 10
6.434624067049142
 20
4.135437606309635
 30
0.0
 40
0.0262
 41
0.0262
 70
     8
  0
VERTEX
  5
CC8
330
CBA
100
AcDbEntity
  8
image
 62
     5
100
AcDbVertex
100
AcDb2dVertex
 10
6.461937952330073
 20
4.121813815663855
 30
0.0
 40
0.0262
 41
0.0262
 70
     8
  0
VERTEX
  5
CC9
330
CBA
100
AcDbEntity
  8
image
 62
     5
100
AcDbVertex
100
AcDb2dVertex
 10
6.491841571132859
 20
4.109666142400926
 30
0.0
 40
0.0262
 41
0.0262
 70
     8
  0
VERTEX
  5
CCA
330
CBA
100
AcDbEntity
  8
image
 62
     5
100
AcDbVertex
100
AcDb2dVertex
 10
6.524469920107808
 20
4.099143299683007
 30
0.0
 40
0.0262
 41
0.0262
 70
     8
  0
VERTEX
  5
CCB
330
CBA
100
AcDbEntity
  8
image
 62
     5
100
AcDbVertex
100
AcDb2dVertex
 10
6.559957995905229
 20
4.090394000672255
 30
0.0
 40
0.0262
 41
0.0262
 70
     8
  0
VERTEX
  5
CCC
330
CBA
100
AcDbEntity
  8
image
 62
     5
100
AcDbVertex
100
AcDb2dVertex
 10
6.598440795175427
 20
4.083566958530831
 30
0.0
 40
0.0262
 41
0.0262
 70
     8
  0
VERTEX
  5
CCD
330
CBA
100
AcDbEntity
  8
image
 62
     5
100
AcDbVertex
100
AcDb2dVertex
 10
6.640056069650908
 20
4.078762692346506
 30
0.0
 40
0.0262
 41
0.0262
 70
     8
  0
VERTEX
  5
CCE
330
CBA
100
AcDbEntity
  8
image
 62
     5
100
AcDbVertex
100
AcDb2dVertex
 10
6.684952591392937
 20
4.075888944909499
 30
0.0
 40
0.0262
 41
0.0262
 70
     8
  0
VERTEX
  5
CCF
330
CBA
100
AcDbEntity
  8
image
 62
     5
100
AcDbVertex
100
AcDb2dVertex
 10
6.733281887544979
 20
4.074805264935642
 30
0.0
 40
0.0262
 41
0.0262
 70
     8
  0
VERTEX
  5
CD0
330
CBA
100
AcDbEntity
  8
image
 62
     5
100
AcDbVertex
100
AcDb2dVertex
 10
6.785195485250497
 20
4.07537120114077
 30
0.0
 40
0.0262
 41
0.0262
 70
     8
  0
VERTEX
  5
CD1
330
CBA
100
AcDbEntity
  8
image
 62
     5
100
AcDbVertex
100
AcDb2dVertex
 10
6.840844911652951
 20
4.077446302240715
 30
0.0
 40
0.0262
 41
0.0262
 70
     8
  0
VERTEX
  5
CD2
330
CBA
100
AcDbEntity
  8
image
 62
     5
100
AcDbVertex
100
AcDb2dVertex
 10
6.900381693895804
 20
4.080890116951308
 30
0.0
 40
0.0262
 41
0.0262
 70
     8
  0
VERTEX
  5
CD3
330
CBA
100
AcDbEntity
  8
image
 62
     5
100
AcDbVertex
100
AcDb2dVertex
 10
6.96395735912252
 20
4.085562193988384
 30
0.0
 40
0.0262
 41
0.0262
 70
     8
  0
VERTEX
  5
CD4
330
CBA
100
AcDbEntity
  8
image
 62
     5
100
AcDbVertex
100
AcDb2dVertex
 10
7.03172343447656
 20
4.091322082067775
 30
0.0
 40
0.0262
 41
0.0262
 70
     8
  0
VERTEX
  5
CD5
330
CBA
100
AcDbEntity
  8
image
 62
     5
100
AcDbVertex
100
AcDb2dVertex
 10
7.103481557493152
 20
4.098123882077449
 30
0.0
 40
0.0262
 41
0.0262
 70
     8
  0
VERTEX
  5
CD6
330
CBA
100
AcDbEntity
  8
image
 62
     5
100
AcDbVertex
100
AcDb2dVertex
 10
7.177633807274574
 20
4.106299903593918
 30
0.0
 40
0.0262
 41
0.0262
 70
     8
  0
VERTEX
  5
CD7
330
CBA
100
AcDbEntity
  8
image
 62
     5
100
AcDbVertex
100
AcDb2dVertex
 10
7.252232373314875
 20
4.116277008365829
 30
0.0
 40
0.0262
 41
0.0262
 70
     8
  0
VERTEX
  5
CD8
330
CBA
100
AcDbEntity
  8
image
 62
     5
100
AcDbVertex
100
AcDb2dVertex
 10
7.325329445108096
 20
4.128482058141831
 30
0.0
 40
0.0262
 41
0.0262
 70
     8
  0
VERTEX
  5
CD9
330
CBA
100
AcDbEntity
  8
image
 62
     5
100
AcDbVertex
100
AcDb2dVertex
 10
7.394977212148283
 20
4.143341914670569
 30
0.0
 40
0.0262
 41
0.0262
 70
     8
  0
VERTEX
  5
CDA
330
CBA
100
AcDbEntity
  8
image
 62
     5
100
AcDbVertex
100
AcDb2dVertex
 10
7.459227863929488
 20
4.161283439700693
 30
0.0
 40
0.0262
 41
0.0262
 70
     8
  0
VERTEX
  5
CDB
330
CBA
100
AcDbEntity
  8
image
 62
     5
100
AcDbVertex
100
AcDb2dVertex
 10
7.516133589945745
 20
4.182733494980848
 30
0.0
 40
0.0262
 41
0.0262
 70
     8
  0
VERTEX
  5
CDC
330
CBA
100
AcDbEntity
  8
image
 62
     5
100
AcDbVertex
100
AcDb2dVertex
 10
7.563746579691105
 20
4.208118942259683
 30
0.0
 40
0.0262
 41
0.0262
 70
     8
  0
VERTEX
  5
CDD
330
CBA
100
AcDbEntity
  8
image
 62
     5
100
AcDbVertex
100
AcDb2dVertex
 10
6.285762590506747
 20
4.287080210570228
 30
0.0
 40
0.0262
 41
0.0262
 70
    16
  0
VERTEX
  5
CDE
330
CBA
100
AcDbEntity
  8
image
 62
     5
100
AcDbVertex
100
AcDb2dVertex
 10
6.345006878681084
 20
4.17427839375752
 30
0.0
 40
0.0262
 41
0.0262
 70
    16
  0
VERTEX
  5
CDF
330
CBA
100
AcDbEntity
  8
image
 62
     5
100
AcDbVertex
100
AcDb2dVertex
 10
6.565057113862495
 20
4.061476611528317
 30
0.0
 40
0.0262
 41
0.0262
 70
    16
  0
VERTEX
  5
CE0
330
CBA
100
AcDbEntity
  8
image
 62
     5
100
AcDbVertex
100
AcDb2dVertex
 10
6.9854094369215
 20
4.081216911314201
 30
0.0
 40
0.0262
 41
0.0262
 70
    16
  0
VERTEX
  5
CE1
330
CBA
100
AcDbEntity
  8
image
 62
     5
100
AcDbVertex
100
AcDb2dVertex
 10
7.450900309181079
 20
4.134797794185753
 30
0.0
 40
0.0262
 41
0.0262
 70
    16
  0
VERTEX
  5
CE2
330
CBA
100
AcDbEntity
  8
image
 62
     5
100
AcDbVertex
100
AcDb2dVertex
 10
7.563746579691105
 20
4.208118942259682
 30
0.0
 40
0.0262
 41
0.0262
 70
    16
  0
SEQEND
  5
CE3
330
CBA
100
AcDbEntity
  8
image
 62
     5
  0
POLYLINE
  5
CE4
330
2
100
AcDbEntity
  8
image
 62
     5
100
AcDb2dPolyline
 66
     1
 10
0.0
 20
0.0
 30
0.0
 70
     4
 40
0.0262
 41
0.0262
 75
     6
  0
VERTEX
  5
CE5
330
CE4
100
AcDbEntity
  8
image
 62
     5
100
AcDbVertex
100
AcDb2dVertex
 10
8.105309974536947
 20
4.242749766138641
 30
0.0
 70
    16
  0
VERTEX
  5
CE6
330
CE4
100
AcDbEntity
  8
image
 62
     5
100
AcDbVertex
100
AcDb2dVertex
 10
8.105309974536947
 20
4.242749766138641
 30
0.0
 70
     8
  0
VERTEX
  5
CE7
330
CE4
100
AcDbEntity
  8
image
 62
     5
100
AcDbVertex
100
AcDb2dVertex
 10
8.14636415701279
 20
4.253981957626098
 30
0.0
 70
     8
  0
VERTEX
  5
CE8
330
CE4
100
AcDbEntity
  8
image
 62
     5
100
AcDbVertex
100
AcDb2dVertex
 10
8.182271605388663
 20
4.263110577778387
 30
0.0
 70
     8
  0
VERTEX
  5
CE9
330
CE4
100
AcDbEntity
  8
image
 62
     5
100
AcDbVertex
100
AcDb2dVertex
 10
8.21390708639824
 20
4.27037176885334
 30
0.0
 70
     8
  0
VERTEX
  5
CEA
330
CE4
100
AcDbEntity
  8
image
 62
     5
100
AcDbVertex
100
AcDb2dVertex
 10
8.242145366775215
 20
4.276001673108785
 30
0.0
 70
     8
  0
VERTEX
  5
CEB
330
CE4
100
AcDbEntity
  8
image
 62
     5
100
AcDbVertex
100
AcDb2dVertex
 10
8.267861213253269
 20
4.280236432802556
 30
0.0
 70
     8
  0
VERTEX
  5
CEC
330
CE4
100
AcDbEntity
  8
image
 62
     5
100
AcDbVertex
100
AcDb2dVertex
 10
8.291929392566089
 20
4.283312190192485
 30
0.0
 70
     8
  0
VERTEX
  5
CED
330
CE4
100
AcDbEntity
  8
image
 62
     5
100
AcDbVertex
100
AcDb2dVertex
 10
8.315224671447364
 20
4.285465087536403
 30
0.0
 70
     8
  0
VERTEX
  5
CEE
330
CE4
100
AcDbEntity
  8
image
 62
     5
100
AcDbVertex
100
AcDb2dVertex
 10
8.338621816630773
 20
4.286931267092142
 30
0.0
 70
     8
  0
VERTEX
  5
CEF
330
CE4
100
AcDbEntity
  8
image
 62
     5
100
AcDbVertex
100
AcDb2dVertex
 10
8.363060603930058
 20
4.287884149674081
 30
0.0
 70
     8
  0
VERTEX
  5
CF0
330
CE4
100
AcDbEntity
  8
image
 62
     5
100
AcDbVertex
100
AcDb2dVertex
 10
8.389740845479188
 20
4.288246270322792
 30
0.0
 70
     8
  0
VERTEX
  5
CF1
330
CE4
100
AcDbEntity
  8
image
 62
     5
100
AcDbVertex
100
AcDb2dVertex
 10
8.41992736249217
 20
4.287877442635394
 30
0.0
 70
     8
  0
VERTEX
  5
CF2
330
CE4
100
AcDbEntity
  8
image
 62
     5
100
AcDbVertex
100
AcDb2dVertex
 10
8.454884976183031
 20
4.286637480209005
 30
0.0
 70
     8
  0
VERTEX
  5
CF3
330
CE4
100
AcDbEntity
  8
image
 62
     5
100
AcDbVertex
100
AcDb2dVertex
 10
8.49587850776578
 20
4.284386196640745
 30
0.0
 70
     8
  0
VERTEX
  5
CF4
330
CE4
100
AcDbEntity
  8
image
 62
     5
100
AcDbVertex
100
AcDb2dVertex
 10
8.544172778454445
 20
4.280983405527734
 30
0.0
 70
     8
  0
VERTEX
  5
CF5
330
CE4
100
AcDbEntity
  8
image
 62
     5
100
AcDbVertex
100
AcDb2dVertex
 10
8.601032609463036
 20
4.276288920467091
 30
0.0
 70
     8
  0
VERTEX
  5
CF6
330
CE4
100
AcDbEntity
  8
image
 62
     5
100
AcDbVertex
100
AcDb2dVertex
 10
8.667722822005572
 20
4.270162555055933
 30
0.0
 70
     8
  0
VERTEX
  5
CF7
330
CE4
100
AcDbEntity
  8
image
 62
     5
100
AcDbVertex
100
AcDb2dVertex
 10
8.222427677035774
 20
4.275716942781272
 30
0.0
 70
    16
  0
VERTEX
  5
CF8
330
CE4
100
AcDbEntity
  8
image
 62
     5
100
AcDbVertex
100
AcDb2dVertex
 10
8.328204397582002
 20
4.291737406082514
 30
0.0
 70
    16
  0
VERTEX
  5
CF9
330
CE4
100
AcDbEntity
  8
image
 62
     5
100
AcDbVertex
100
AcDb2dVertex
 10
8.475650794323307
 20
4.288533313422266
 30
0.0
 70
    16
  0
VERTEX
  5
CFA
330
CE4
100
AcDbEntity
  8
image
 62
     5
100
AcDbVertex
100
AcDb2dVertex
 10
8.667722822005572
 20
4.270162555055933
 30
0.0
 70
    16
  0
SEQEND
  5
CFB
330
CE4
100
AcDbEntity
  8
image
 62
     5
  0
POLYLINE
  5
CFC
330
2
100
AcDbEntity
  8
image
 62
     5
100
AcDb2dPolyline
 66
     1
 10
0.0
 20
0.0
 30
0.0
 70
     4
 40
0.0262
 41
0.0262
 75
     6
  0
VERTEX
  5
CFD
330
CFC
100
AcDbEntity
  8
image
 62
     5
100
AcDbVertex
100
AcDb2dVertex
 10
8.105309974536947
 20
4.242749766138641
 30
0.0
 70
    16
  0
VERTEX
  5
CFE
330
CFC
100
AcDbEntity
  8
image
 62
     5
100
AcDbVertex
100
AcDb2dVertex
 10
8.105309974536947
 20
4.242749766138641
 30
0.0
 70
     8
  0
VERTEX
  5
CFF
330
CFC
100
AcDbEntity
  8
image
 62
     5
100
AcDbVertex
100
AcDb2dVertex
 10
8.125928102105511
 20
4.230094220874195
 30
0.0
 70
     8
  0
VERTEX
  5
D00
330
CFC
100
AcDbEntity
  8
image
 62
     5
100
AcDbVertex
100
AcDb2dVertex
 10
8.149445550409417
 20
4.219850655795167
 30
0.0
 70
     8
  0
VERTEX
  5
D01
330
CFC
100
AcDbEntity
  8
image
 62
     5
100
AcDbVertex
100
AcDb2dVertex
 10
8.175456727010399
 20
4.211657316655634
 30
0.0
 70
     8
  0
VERTEX
  5
D02
330
CFC
100
AcDbEntity
  8
image
 62
     5
100
AcDbVertex
100
AcDb2dVertex
 10
8.203556039470186
 20
4.205152449209675
 30
0.0
 70
     8
  0
VERTEX
  5
D03
330
CFC
100
AcDbEntity
  8
image
 62
     5
100
AcDbVertex
100
AcDb2dVertex
 10
8.233337895350516
 20
4.199974299211367
 30
0.0
 70
     8
  0
VERTEX
  5
D04
330
CFC
100
AcDbEntity
  8
image
 62
     5
100
AcDbVertex
100
AcDb2dVertex
 10
8.264396702213112
 20
4.195761112414789
 30
0.0
 70
     8
  0
VERTEX
  5
D05
330
CFC
100
AcDbEntity
  8
image
 62
     5
100
AcDbVertex
100
AcDb2dVertex
 10
8.296326867619708
 20
4.19215113457402
 30
0.0
 70
     8
  0
VERTEX
  5
D06
330
CFC
100
AcDbEntity
  8
image
 62
     5
100
AcDbVertex
100
AcDb2dVertex
 10
8.328722799132037
 20
4.188782611443137
 30
0.0
 70
     8
  0
VERTEX
  5
D07
330
CFC
100
AcDbEntity
  8
image
 62
     5
100
AcDbVertex
100
AcDb2dVertex
 10
8.361397138850037
 20
4.185344171405639
 30
0.0
 70
     8
  0
VERTEX
  5
D08
330
CFC
100
AcDbEntity
  8
image
 62
     5
100
AcDbVertex
100
AcDb2dVertex
 10
8.395035467026463
 20
4.181725973362705
 30
0.0
 70
     8
  0
VERTEX
  5
D09
330
CFC
100
AcDbEntity
  8
image
 62
     5
100
AcDbVertex
100
AcDb2dVertex
 10
8.430541598452272
 20
4.177868558844933
 30
0.0
 70
     8
  0
VERTEX
  5
D0A
330
CFC
100
AcDbEntity
  8
image
 62
     5
100
AcDbVertex
100
AcDb2dVertex
 10
8.468819347918419
 20
4.173712469382923
 30
0.0
 70
     8
  0
VERTEX
  5
D0B
330
CFC
100
AcDbEntity
  8
image
 62
     5
100
AcDbVertex
100
AcDb2dVertex
 10
8.510772530215866
 20
4.169198246507275
 30
0.0
 70
     8
  0
VERTEX
  5
D0C
330
CFC
100
AcDbEntity
  8
image
 62
     5
100
AcDbVertex
100
AcDb2dVertex
 10
8.557304960135567
 20
4.164266431748586
 30
0.0
 70
     8
  0
VERTEX
  5
D0D
330
CFC
100
AcDbEntity
  8
image
 62
     5
100
AcDbVertex
100
AcDb2dVertex
 10
8.60932045246848
 20
4.158857566637458
 30
0.0
 70
     8
  0
VERTEX
  5
D0E
330
CFC
100
AcDbEntity
  8
image
 62
     5
100
AcDbVertex
100
AcDb2dVertex
 10
8.667722822005572
 20
4.152912192704486
 30
0.0
 70
     8
  0
VERTEX
  5
D0F
330
CFC
100
AcDbEntity
  8
image
 62
     5
100
AcDbVertex
100
AcDb2dVertex
 10
8.156065360460871
 20
4.205464112523189
 30
0.0
 70
    16
  0
VERTEX
  5
D10
330
CFC
100
AcDbEntity
  8
image
 62
     5
100
AcDbVertex
100
AcDb2dVertex
 10
8.328080946679072
 20
4.19006580649418
 30
0.0
 70
    16
  0
VERTEX
  5
D11
330
CFC
100
AcDbEntity
  8
image
 62
     5
100
AcDbVertex
100
AcDb2dVertex
 10
8.502663942709141
 20
4.169534720260998
 30
0.0
 70
    16
  0
VERTEX
  5
D12
330
CFC
100
AcDbEntity
  8
image
 62
     5
100
AcDbVertex
100
AcDb2dVertex
 10
8.667722822005572
 20
4.152912192704486
 30
0.0
 70
    16
  0
SEQEND
  5
D13
330
CFC
100
AcDbEntity
  8
image
 62
     5
  0
MTEXT
  5
D40
330
2
100
AcDbEntity
  8
text-bubbles
100
AcDbMText
 10
9.395578536276504
 20
8.577436080443252
 30
0.0
 40
0.125
 41
4.339299999999999
 71
     1
 72
     5
  3
TWO-WIRE DECODER CONTROLLER:\P  RAIN BIRD ESP-LXD CONTROLLER\P\PTWO-WIRE CABLE TO ESP-LXD CONTROLLER\P\PCOMMUNICATION WIRE TO \P  ESP-LXD CONTROLLER\P\PSOLENOID VALVE OR MASTER VALVE\P\PSOLENOID WIRE (1 OF 2)\P\PDB SERIES WIRE CONNECTOR:\P  RAIN BIRD
  3
 DBTWC25 (1 0F 4)\P\PFIELD DECODER:\P  RAIN BIRD FD-102TURF M13004 DECODER\P\PCOMMUNICATION WIRE TO NEXT DEVICE\P  (FIELD DECODER, SENSOR DECODER \P  OR LINE SURGE PROTECTOR)\P\PTWO-WIRE CABLE TO NEXT DEVICE\P  (FIELD DECODER, SENSOR DECODER\P  OR LI
  1
NE SURGE PROTECTOR)
  7
ROMANS
 73
     1
 44
1.0
  0
MTEXT
  5
D57
102
{ACAD_XDICTIONARY
360
F8F
102
}
330
2
100
AcDbEntity
  8
text-bubbles
100
AcDbMText
 10
7.604409767519706
 20
2.962300182194097
 30
0.0
 40
0.125
 41
5.837708338807644
 71
     1
 72
     5
  1
NOTE:\P\pi-0.375,l0.375;1. MAXIMUM LENGTH OF SECONDARY WIRE PATH (14 AWG) FROM FIELD DECODER TO SOLENOID IS 450 FEET.
  7
ROMANS
 73
     1
 44
1.0
  0
INSERT
  5
D58
330
2
100
AcDbEntity
  8
text-bubbles
100
AcDbBlockReference
 66
     1
  2
WID_FlagNote
 10
9.117281234197365
 20
4.756797175799034
 30
0.0
 41
0.2499994999999975
 42
0.2499994999999975
 43
0.2499994999999975
  0
ATTRIB
  5
D59
330
D58
100
AcDbEntity
  8
0
100
AcDbText
 10
9.070508006351516
 20
4.656883277185292
 30
0.0
 40
0.1249997499999987
  1
8
  7
WIDFlagNote
 72
     4
 11
9.119066913326276
 21
4.718573126520216
 31
0.0
100
AcDbAttribute
  2
NO.
 70
     0
  0
SEQEND
  5
D5A
330
D58
100
AcDbEntity
  8
text-bubbles
  0
INSERT
  5
D5B
330
2
100
AcDbEntity
  8
text-bubbles
100
AcDbBlockReference
 66
     1
  2
WID_FlagNote
 10
9.117281234197365
 20
3.875413812391789
 30
0.0
 41
0.2499994999999975
 42
0.2499994999999975
 43
0.2499994999999975
  0
ATTRIB
  5
D5C
330
D5B
100
AcDbEntity
  8
0
100
AcDbText
 10
9.070508006351516
 20
3.775499913778047
 30
0.0
 40
0.1249997499999987
  1
9
  7
WIDFlagNote
 72
     4
 11
9.119066913326276
 21
3.837189763112971
 31
0.0
100
AcDbAttribute
  2
NO.
 70
     0
  0
SEQEND
  5
D5D
330
D5B
100
AcDbEntity
  8
text-bubbles
  0
POLYLINE
  5
D61
330
2
100
AcDbEntity
  8
image
100
AcDb2dPolyline
 66
     1
 10
0.0
 20
0.0
 30
0.0
 40
0.0262
 41
0.0262
  0
VERTEX
  5
D62
330
D61
100
AcDbEntity
  8
image
100
AcDbVertex
100
AcDb2dVertex
 10
7.563746579691105
 20
4.208118942259683
 30
0.0
 40
0.0524
 41
0.0524
  0
VERTEX
  5
D63
330
D61
100
AcDbEntity
  8
image
100
AcDbVertex
100
AcDb2dVertex
 10
7.804936425322622
 20
4.225158797228854
 30
0.0
 40
0.0524
 41
0.0524
  0
VERTEX
  5
D64
330
D61
100
AcDbEntity
  8
image
100
AcDbVertex
100
AcDb2dVertex
 10
8.005030935800192
 20
4.239710488669276
 30
0.0
 40
0.0524
 41
0.0524
  0
VERTEX
  5
D65
330
D61
100
AcDbEntity
  8
image
100
AcDbVertex
100
AcDb2dVertex
 10
8.105309974536949
 20
4.24724036746941
 30
0.0
 40
0.0524
 41
0.0524
  0
SEQEND
  5
D66
330
D61
100
AcDbEntity
  8
image
  0
INSERT
  5
D67
330
2
100
AcDbEntity
  8
text-bubbles
100
AcDbBlockReference
 66
     1
  2
WID_FlagNote
 10
7.167193888141419
 20
3.675175853407785
 30
0.0
 41
0.2499994999999975
 42
0.2499994999999975
 43
0.2499994999999975
  0
ATTRIB
  5
D68
330
D67
100
AcDbEntity
  8
0
100
AcDbText
 10
7.120420660295569
 20
3.575261954794042
 30
0.0
 40
0.1249997499999987
  1
9
  7
WIDFlagNote
 72
     4
 11
7.16897956727033
 21
3.636951804128967
 31
0.0
100
AcDbAttribute
  2
NO.
 70
     0
  0
SEQEND
  5
D69
330
D67
100
AcDbEntity
  8
text-bubbles
  0
LEADER
  5
D6A
330
2
100
AcDbEntity
  8
text-bubbles
100
AcDbLeader
  3
STANDARD
 76
     2
 10
7.637289019354835
 20
4.181074864732648
 30
0.0
 10
7.278539938780792
 20
3.725122244364322
 30
0.0
1001
ACAD
1000
DSTYLE
1002
{
1070
   147
1040
0.09
1070
    77
1070
     0
1002
}
  0
INSERT
  5
D6D
330
2
100
AcDbEntity
  8
text-bubbles
100
AcDbBlockReference
 66
     1
  2
WID_FlagNote
 10
6.487697074093368
 20
3.675175853407785
 30
0.0
 41
0.2499994999999975
 42
0.2499994999999975
 43
0.2499994999999975
  0
ATTRIB
  5
D6E
330
D6D
100
AcDbEntity
  8
0
100
AcDbText
 10
6.440923846247518
 20
3.575261954794042
 30
0.0
 40
0.1249997499999987
  1
8
  7
WIDFlagNote
 72
     4
 11
6.489482753222279
 21
3.636951804128967
 31
0.0
100
AcDbAttribute
  2
NO.
 70
     0
  0
SEQEND
  5
D6F
330
D6D
100
AcDbEntity
  8
text-bubbles
  0
LEADER
  5
D70
330
2
100
AcDbEntity
  8
text-bubbles
100
AcDbLeader
  3
STANDARD
 76
     2
 10
7.001200888040798
 20
4.282220125453588
 30
0.0
 10
6.599043124732741
 20
3.725122244364322
 30
0.0
1001
ACAD
1000
DSTYLE
1002
{
1070
   147
1040
0.09
1070
    77
1070
     0
1002
}
  0
LEADER
  5
D72
330
2
100
AcDbEntity
  8
text-bubbles
100
AcDbLeader
  3
STANDARD
 76
     2
 10
7.071855711893366
 20
4.079801479124496
 30
0.0
 10
6.599043124732741
 20
3.725122244364322
 30
0.0
1001
ACAD
1000
DSTYLE
1002
{
1070
   147
1040
0.09
1070
    77
1070
     0
1002
}
  0
LEADER
  5
D73
330
2
100
AcDbEntity
  8
text-bubbles
100
AcDbLeader
  3
STANDARD
 76
     2
 10
5.699771138829827
 20
4.298652751961567
 30
0.0
 10
5.347934008619713
 20
3.725122244364322
 30
0.0
1001
ACAD
1000
DSTYLE
1002
{
1070
   147
1040
0.09
1070
    77
1070
     0
1002
}
  0
LEADER
  5
D74
330
2
100
AcDbEntity
  8
text-bubbles
100
AcDbLeader
  3
STANDARD
 76
     2
 10
5.771419678926978
 20
4.088080405039372
 30
0.0
 10
5.347934008619713
 20
3.725122244364322
 30
0.0
1001
ACAD
1000
DSTYLE
1002
{
1070
   147
1040
0.09
1070
    77
1070
     0
1002
}
  0
LEADER
  5
D75
330
2
100
AcDbEntity
  8
text-bubbles
100
AcDbLeader
  3
STANDARD
 76
     2
 10
4.553394382977312
 20
4.264961178088272
 30
0.0
 10
4.123386961657059
 20
3.725122244364322
 30
0.0
1001
ACAD
1000
DSTYLE
1002
{
1070
   147
1040
0.09
1070
    77
1070
     0
1002
}
  0
INSERT
  5
DCA
330
2
100
AcDbEntity
  8
title
100
AcDbBlockReference
 66
     1
  2
titleblock
 10
0.0
 20
0.0
 30
0.0
  0
ATTRIB
  5
DCC
330
DCA
100
AcDbEntity
  8
title
100
AcDbText
 10
0.5055556038023421
 20
0.7842270964783673
 30
0.0
 40
0.2
  1
D
  7
L200
 72
     4
 11
0.6064423705144839
 21
0.8842270964783672
 31
0.0
100
AcDbAttribute
  2
D
 70
     0
  0
ATTRIB
  5
DCD
330
DCA
100
AcDbEntity
  8
title
100
AcDbText
 10
1.231442370514484
 20
1.34371230274675
 30
0.0
 40
0.2
  1

  7
L200
100
AcDbAttribute
  2
TITLE1
 70
     0
  0
ATTRIB
  5
DCE
330
DCA
100
AcDbEntity
  8
title
100
AcDbText
 10
1.231442370514484
 20
0.9842270964783674
 30
0.0
 40
0.2
  1
FD-102TURF DECODER 
  7
L200
100
AcDbAttribute
  2
TITLE2
 70
     0
  0
ATTRIB
  5
DCF
330
DCA
100
AcDbEntity
  8
title
100
AcDbText
 10
2.713645751168312
 20
0.5927927664583189
 30
0.0
 40
0.2
  1
WIRING TO VALVE AND CONTROLLER
  7
L200
100
AcDbAttribute
  2
TITLE3
 70
     0
  0
ATTRIB
  5
DD0
330
DCA
100
AcDbEntity
  8
title
100
AcDbText
 10
2.713645751168312
 20
0.2692560808167741
 30
0.0
 40
0.2
  1

  7
L200
100
AcDbAttribute
  2
TITLE4
 70
     0
  0
ATTRIB
  5
DD1
330
DCA
100
AcDbEntity
  8
title
 62
     7
100
AcDbText
 10
7.617214829966379
 20
0.9696027915446398
 30
0.0
 40
0.08
  1
11-22-10
  7
L80
 72
     2
 11
8.261024353775903
 21
0.9696027915446398
 31
0.0
100
AcDbAttribute
  2
REVISED
 70
     0
  0
ATTRIB
  5
DD2
330
DCA
100
AcDbEntity
  8
title
 62
     7
100
AcDbText
 10
0.2639423705144838
 20
0.0847116480207214
 30
0.0
 40
0.08
  1
FD102 PLAN.DWG
  7
L80
100
AcDbAttribute
  2
DWG-NAME
 70
     0
  0
ATTRIB
  5
DD3
330
DCA
100
AcDbEntity
  8
title
 62
     7
100
AcDbText
 10
1.231442370514484
 20
0.7005637793954894
 30
0.0
 40
0.1
  1
N.T.S.
  7
L100
100
AcDbAttribute
  2
SCALE
 70
     0
  0
SEQEND
  5
DCB
330
DCA
100
AcDbEntity
  8
title
  0
ENDSEC
  0
SECTION
  2
OBJECTS
  0
DICTIONARY
  5
7
330
0
100
AcDbDictionary
281
     1
  3
ACAD_COLOR
350
DF2
  3
ACAD_GROUP
350
1F
  3
ACAD_LAYOUT
350
B
  3
ACAD_MATERIAL
350
DF1
  3
ACAD_MLEADERSTYLE
350
E6B
  3
ACAD_MLINESTYLE
350
20
  3
ACAD_PLOTSETTINGS
350
21
  3
ACAD_PLOTSTYLENAME
350
6
  3
ACAD_SCALELIST
350
E49
  3
ACAD_TABLESTYLE
350
DF3
  3
ACAD_VISUALSTYLE
350
E38
  3
AcadDim
350
BFA
  3
ACDB_RECOMPOSE_DATA
350
EBE
  3
AcDbVariableDictionary
350
193
  3
WID_ControllerAssemblies
350
B68
  3
WID_Layers
350
B65
  3
WID_Pipes
350
B69
  3
WID_PlantTypes
350
E90
  3
WID_SprinklerAssemblies
350
B67
  3
WID_Stations
350
B6A
  3
WID_ValveAssemblies
350
B66
  3
WID_Variables
350
B64
1001
BBSI_PltSel
1000
1
1000

1001
BBSI_Bookmarks
1000
1
1000
1
1000
0
1000
1
1000
0
1000
0
1000
0
1000
0
1000
0
1000
0
1000
0
1001
BBSI_BookmarksEx
1000
0
1000
0
1000

1000
0
1001
BBSI_Plots
1000

1000
ANSI_B_(17.00_x_11.00_Inches)
1000
431.799987792969
1000
279.399993896484
1000
0
1000
1
1000
1
1000
0
1000
30.734
1000
1
1000
0
1000
1
1000
1.26865319146327
1000
0
1000
1
1000
OKIColorShaded.ctb
1000
0
1000
0
1000
1
1000
1
1000
0
1000
0
1000
7.99209077014757
1000
0.0729660058682455
1000
21.6919415465522
1000
7.88041719160068
1000

1000

  0
DICTIONARY
  5
E12
330
10
100
AcDbDictionary
280
     1
281
     1
  3
ACAD_LAYERFILTERS
360
F6E
  0
DICTIONARY
  5
C2F
330
2
100
AcDbDictionary
280
     1
281
     1
  3
ACAD_SORTENTS
360
C30
  0
DICTIONARY
  5
F42
330
DBC
100
AcDbDictionary
280
     1
281
     1
  3
ACAD_SORTENTS
360
F43
  0
DICTIONARY
  5
BFD
330
BFC
100
AcDbDictionary
280
     1
281
     1
  3
ACAD_DIMASSOC
360
BFE
  0
DICTIONARY
  5
C06
330
C05
100
AcDbDictionary
280
     1
281
     1
  3
ACAD_DIMASSOC
360
C07
  0
DICTIONARY
  5
C09
330
C08
100
AcDbDictionary
280
     1
281
     1
  3
ACAD_DIMASSOC
360
C0A
  0
DICTIONARY
  5
C15
330
C14
100
AcDbDictionary
280
     1
281
     1
  3
ACAD_DIMASSOC
360
C16
  0
DICTIONARY
  5
F8F
330
D57
100
AcDbDictionary
280
     1
281
     1
  3
ACAD_MTEXT_2008_RT
360
F90
  0
DICTIONARY
  5
DF2
102
{ACAD_REACTORS
330
7
102
}
330
7
100
AcDbDictionary
281
     1
  0
DICTIONARY
  5
1F
102
{ACAD_REACTORS
330
7
102
}
330
7
100
AcDbDictionary
281
     1
  0
DICTIONARY
  5
B
102
{ACAD_REACTORS
330
7
102
}
330
7
100
AcDbDictionary
281
     1
  3
Layout1
350
F
  3
Model
350
A
  0
DICTIONARY
  5
DF1
102
{ACAD_REACTORS
330
7
102
}
330
7
100
AcDbDictionary
281
     1
  3
ByBlock
350
E28
  3
ByLayer
350
E20
  3
Global
350
E30
  0
DICTIONARY
  5
E6B
102
{ACAD_REACTORS
330
7
102
}
330
7
100
AcDbDictionary
281
     1
  3
Standard
350
E6C
  0
DICTIONARY
  5
20
102
{ACAD_REACTORS
330
7
102
}
330
7
100
AcDbDictionary
281
     1
  3
Standard
350
24
  0
DICTIONARY
  5
21
102
{ACAD_REACTORS
330
7
102
}
330
7
100
AcDbDictionary
281
     1
  0
ACDBDICTIONARYWDFLT
  5
6
102
{ACAD_REACTORS
330
7
102
}
330
7
100
AcDbDictionary
281
     1
  3
Normal
350
5
100
AcDbDictionaryWithDefault
340
5
  0
DICTIONARY
  5
E49
102
{ACAD_REACTORS
330
7
102
}
330
7
100
AcDbDictionary
281
     1
  3
A0
350
E4A
  3
A1
350
E4B
  3
A2
350
E4C
  3
A3
350
E4D
  3
A4
350
E4E
  3
A5
350
E4F
  3
A6
350
E50
  3
A7
350
E51
  3
A8
350
E52
  3
A9
350
E53
  3
B0
350
E54
  3
B1
350
E55
  3
B2
350
E56
  3
B3
350
E57
  3
B4
350
E58
  3
B5
350
E59
  3
B6
350
E5A
  3
B7
350
E5B
  3
B8
350
E5C
  3
B9
350
E5D
  3
C0
350
E5E
  3
C1
350
E5F
  3
C2
350
E60
  3
C3
350
E61
  3
C4
350
E62
  3
C5
350
E63
  3
C6
350
E64
  3
C7
350
E65
  3
C8
350
E66
  3
C9
350
E67
  3
D0
350
E68
  3
D1
350
E69
  3
D2
350
E6A
  0
DICTIONARY
  5
DF3
102
{ACAD_REACTORS
330
7
102
}
330
7
100
AcDbDictionary
281
     1
  3
Standard
350
DF4
  0
DICTIONARY
  5
E38
102
{ACAD_REACTORS
330
7
102
}
330
7
100
AcDbDictionary
281
     1
  3
2dWireframe
350
E3E
  3
3D Hidden
350
E40
  3
3dWireframe
350
E3F
  3
Basic
350
E3D
  3
Brighten
350
E44
  3
ColorChange
350
E48
  3
Conceptual
350
E41
  3
Dim
350
E43
  3
Facepattern
350
E47
  3
Flat
350
E39
  3
FlatWithEdges
350
E3A
  3
Gouraud
350
E3B
  3
GouraudWithEdges
350
E3C
  3
Linepattern
350
E46
  3
Realistic
350
E42
  3
Thicken
350
E45
  0
XRECORD
  5
BFA
102
{ACAD_REACTORS
330
7
102
}
330
7
100
AcDbXrecord
280
     1
 90
   990106
  3

 60
     4
 61
     0
 62
     1
 63
     3
 64
     0
 65
     0
 66
     0
 67
     2
 68
     1
 69
     0
 70
     0
 71
     1
 72
     0
 40
0.0
170
     1
  0
XRECORD
  5
EBE
102
{ACAD_REACTORS
330
7
102
}
330
7
100
AcDbXrecord
280
     1
 90
        1
330
D57
330
DF4
  0
DICTIONARY
  5
193
102
{ACAD_REACTORS
330
7
102
}
330
7
100
AcDbDictionary
281
     1
  3
CANNOSCALE
350
EC1
  3
CMLEADERSTYLE
350
EBF
  3
CTABLESTYLE
350
E14
  3
DIMASSOC
350
195
  3
DRAWORDERCTL
350
E15
  3
HIDETEXT
350
194
  3
LAYEREVAL
350
F87
  3
LAYERNOTIFY
350
EC3
  3
LIGHTINGUNITS
350
EC2
  3
MSLTSCALE
350
EC0
  3
SORTENTS
350
C32
  0
DICTIONARY
  5
B68
102
{ACAD_REACTORS
330
7
102
}
330
7
100
AcDbDictionary
281
     1
  0
DICTIONARY
  5
B65
102
{ACAD_REACTORS
330
7
102
}
330
7
100
AcDbDictionary
281
     1
  3
CHECK_ARC
350
BBA
  3
CHECK_ARC2
350
BA3
  3
CHECK_ARC3
350
DFD
  3
CONTINUATION
350
B98
  3
CONTROLLER
350
BC7
  3
CONTROLLER2
350
BB6
  3
CONTROLLER3
350
E10
  3
DEFAULT
350
BC8
  3
DESIGN_ARC
350
B84
  3
DESIGN_ARC2
350
BA4
  3
DESIGN_ARC3
350
DFE
  3
DRIP
350
BC2
  3
DRIP2
350
BAC
  3
DRIP3
350
E06
  3
FITTING
350
BC6
  3
FITTING2
350
BB5
  3
FITTING3
350
E0F
  3
FLOW
350
BC5
  3
FLOW2
350
BB4
  3
FLOW3
350
E0E
  3
HPLATERALGC
350
B9D
  3
HPLATERALGC2
350
BB0
  3
HPLATERALGC3
350
E0A
  3
HPLATERALSHRUBS
350
B9E
  3
HPLATERALSHRUBS2
350
BB1
  3
HPLATERALSHRUBS3
350
E0B
  3
HPLATERALTREES
350
B9F
  3
HPLATERALTREES2
350
BB2
  3
HPLATERALTREES3
350
E0C
  3
HPNODEGC
350
B9A
  3
HPNODEGC2
350
BAD
  3
HPNODEGC3
350
E07
  3
HPNODESHRUBS
350
B9B
  3
HPNODESHRUBS2
350
BAE
  3
HPNODESHRUBS3
350
E08
  3
HPNODETREES
350
B9C
  3
HPNODETREES2
350
BAF
  3
HPNODETREES3
350
E09
  3
IDEACATCHCAN
350
E8A
  3
IDEACATCHCAN2
350
E8B
  3
IDEACATCHCAN3
350
E8C
  3
IDEANOTE
350
E8D
  3
IDEANOTE2
350
E8E
  3
IDEANOTE3
350
E8F
  3
IDEAPERIMETER
350
E87
  3
IDEAPERIMETER2
350
E88
  3
IDEAPERIMETER3
350
E89
  3
LABEL
350
BBC
  3
LABEL2
350
BA6
  3
LABEL3
350
E00
  3
LATERAL
350
BC1
  3
LATERAL2
350
BAB
  3
LATERAL3
350
E05
  3
LINESOURCEAREA
350
E73
  3
LINESOURCEAREA2
350
E74
  3
LINESOURCEAREA3
350
E75
  3
LINESOURCEEMITTER
350
E7F
  3
LINESOURCEEMITTER2
350
E80
  3
LINESOURCEEMITTER3
350
E81
  3
LINESOURCEEXHAUST
350
E79
  3
LINESOURCEEXHAUST2
350
E7A
  3
LINESOURCEEXHAUST3
350
E7B
  3
LINESOURCEHEADER
350
E76
  3
LINESOURCEHEADER2
350
E77
  3
LINESOURCEHEADER3
350
E78
  3
LINESOURCEPERIMETER
350
E7C
  3
LINESOURCEPERIMETER2
350
E7D
  3
LINESOURCEPERIMETER3
350
E7E
  3
MAINLINE
350
BBF
  3
MAINLINE2
350
BA9
  3
MAINLINE3
350
E03
  3
MANIFOLD
350
BC0
  3
MANIFOLD2
350
BAA
  3
MANIFOLD3
350
E04
  3
MARKER
350
B97
  3
NOTE
350
BC4
  3
PERIMETER
350
BB8
  3
PERIMETER2
350
BA1
  3
PERIMETER3
350
DFB
  3
PIPE_SIZE
350
BBD
  3
PIPE_SIZE2
350
BA7
  3
PIPE_SIZE3
350
E01
  3
SEGMENTID
350
BBE
  3
SEGMENTID2
350
BA8
  3
SEGMENTID3
350
E02
  3
SLEEVE
350
BC3
  3
SLEEVE2
350
BB3
  3
SLEEVE3
350
E0D
  3
SPRINKLER
350
BB9
  3
SPRINKLER2
350
BA2
  3
SPRINKLER3
350
DFC
  3
VALVE
350
BBB
  3
VALVE2
350
BA5
  3
VALVE3
350
DFF
  0
DICTIONARY
  5
B69
102
{ACAD_REACTORS
330
7
102
}
330
7
100
AcDbDictionary
281
     1
  0
DICTIONARY
  5
E90
102
{ACAD_REACTORS
330
7
102
}
330
7
100
AcDbDictionary
281
     1
  3
Annuals
350
E96
  3
Bluegrass
350
E92
  3
Seed Mix
350
E93
  3
Shrubs
350
E94
  3
Trees
350
E95
  0
DICTIONARY
  5
B67
102
{ACAD_REACTORS
330
7
102
}
330
7
100
AcDbDictionary
281
     1
  0
DICTIONARY
  5
B6A
102
{ACAD_REACTORS
330
7
102
}
330
7
100
AcDbDictionary
281
     1
  0
DICTIONARY
  5
B66
102
{ACAD_REACTORS
330
7
102
}
330
7
100
AcDbDictionary
281
     1
  0
DICTIONARY
  5
B64
102
{ACAD_REACTORS
330
7
102
}
330
7
100
AcDbDictionary
281
     1
  3
ConduitFollowTarget
350
E82
  3
ConduitLabelOffsetAngle
350
B85
  3
ConduitLabelOffsetDistance
350
B86
  3
ConduitLabelPlotSize
350
B87
  3
ConduitLeaderOffsetDistance
350
B88
  3
ConduitLeaderPlotSize
350
B89
  3
ConduitUseLeader
350
B8A
  3
DEFAULTPLANTTYPE
350
E91
  3
SegmentFollowTarget
350
E83
  3
SegmentLabelOffsetAngle
350
B8B
  3
SegmentLabelOffsetDistance
350
B8C
  3
SegmentLabelPlotSize
350
B8D
  3
SegmentLeaderOffsetDistance
350
B8E
  3
SegmentLeaderPlotSize
350
B8F
  3
SegmentUseLeader
350
B90
  3
ValveFollowTarget
350
E84
  3
ValveLabelOffsetAngle
350
B91
  3
ValveLabelOffsetDistance
350
B92
  3
ValveLabelPlotSize
350
B93
  3
ValveLeaderOffsetDistance
350
B94
  3
ValveLeaderPlotSize
350
B95
  3
ValveUseLeader
350
B96
  3
VERSION
350
BB7
  0
DICTIONARY
  5
F6E
102
{ACAD_REACTORS
330
E12
102
}
330
E12
100
AcDbDictionary
281
     1
  3
_0100-
350
F71
  3
_0280-
350
F70
  3
_Add Alternate
350
F73
  3
_Bid Alternate
350
F74
  3
_Color 253
350
F76
  3
_Color 8
350
F72
  3
_Color 84
350
F75
  3
_Contours
350
F7C
  3
_Demo
350
F77
  3
_Existing
350
F78
  3
_Hardscape
350
F7B
  3
_NoXref
350
F6F
  3
_Row
350
F79
  3
_Utility
350
F7A
  0
SORTENTSTABLE
  5
C30
102
{ACAD_REACTORS
330
C2F
102
}
330
C2F
100
AcDbSortentsTable
330
2
331
52A
  5
52A
331
A8F
  5
A8D
331
C11
  5
C08
331
2C1
  5
2C1
331
24B
  5
24B
331
18D
  5
18D
331
156
  5
156
331
117
  5
117
331
28A
  5
28A
331
21C
  5
21C
331
15E
  5
15E
331
11F
  5
11F
331
292
  5
292
331
25B
  5
25B
331
19D
  5
19D
331
127
  5
127
331
166
  5
166
331
29A
  5
29A
331
46
  5
46
331
2A2
  5
2A2
331
263
  5
263
331
22C
  5
22C
331
1A5
  5
1A5
331
16E
  5
16E
331
12F
  5
12F
331
4E
  5
4E
331
56
  5
56
331
5E
  5
5E
331
63E
  5
C2D
331
51B
  5
51B
331
523
  5
523
331
B25
  5
AF3
331
2AA
  5
2AA
331
26B
  5
26B
331
234
  5
234
331
176
  5
176
331
C02
  5
BF5
331
137
  5
137
331
1D5
  5
1D5
331
2B2
  5
2B2
331
23C
  5
23C
331
17E
  5
17E
331
B45
  5
B42
331
13F
  5
13F
331
1E5
  5
1E5
331
273
  5
273
331
2BA
  5
2BA
331
244
  5
244
331
1ED
  5
1ED
331
186
  5
186
331
147
  5
147
331
283
  5
283
331
14F
  5
14F
331
2F
  5
2F
331
10E
  5
10E
331
37
  5
37
331
3F
  5
3F
331
A90
  5
A8E
331
110
  5
110
331
2C2
  5
2C2
331
24C
  5
24C
331
18E
  5
18E
331
C1A
  5
C11
331
BE3
  5
BE0
331
118
  5
118
331
157
  5
157
331
28B
  5
28B
331
293
  5
293
331
21D
  5
21D
331
15F
  5
15F
331
120
  5
120
331
25C
  5
25C
331
19E
  5
19E
331
167
  5
167
331
128
  5
128
331
29B
  5
29B
331
47
  5
47
331
264
  5
264
331
22D
  5
22D
331
16F
  5
16F
331
2A3
  5
2A3
331
4F
  5
4F
331
57
  5
57
331
5F
  5
5F
331
130
  5
130
331
26C
  5
26C
331
235
  5
235
331
1D6
  5
1D6
331
177
  5
177
331
B3E
  5
B27
331
138
  5
138
331
2AB
  5
2AB
331
2B3
  5
2B3
331
23D
  5
23D
331
1E6
  5
1E6
331
17F
  5
17F
331
B46
  5
B43
331
140
  5
140
331
274
  5
274
331
2BB
  5
2BB
331
245
  5
245
331
187
  5
187
331
148
  5
148
331
28
  5
28
331
284
  5
284
331
30
  5
30
331
10F
  5
10F
331
38
  5
38
331
A89
  5
63D
331
C0B
  5
C02
331
A91
  5
A8F
331
150
  5
150
331
BD4
  5
B58
331
111
  5
111
331
2C3
  5
2C3
331
28C
  5
28C
331
18F
  5
18F
331
158
  5
158
331
119
  5
119
331
294
  5
294
331
BEC
  5
BE3
331
121
  5
121
331
160
  5
160
331
25D
  5
25D
331
19F
  5
19F
331
129
  5
129
331
168
  5
168
331
226
  5
226
331
29C
  5
29C
331
40
  5
40
331
2A4
  5
2A4
331
265
  5
265
331
22E
  5
22E
331
48
  5
48
331
50
  5
50
331
58
  5
58
331
51D
  5
51D
331
525
  5
525
331
B27
  5
AF4
331
170
  5
170
331
BFC
  5
BF3
331
131
  5
131
331
26D
  5
26D
331
236
  5
236
331
1D7
  5
1D7
331
178
  5
178
331
B3F
  5
B29
331
139
  5
139
331
2AC
  5
2AC
331
2B4
  5
2B4
331
23E
  5
23E
331
1E7
  5
1E7
331
180
  5
180
331
141
  5
141
331
275
  5
275
331
2BC
  5
2BC
331
246
  5
246
331
149
  5
149
331
60
  5
60
331
68
  5
68
331
285
  5
285
331
1F7
  5
1F7
331
29
  5
29
331
108
  5
108
331
31
  5
31
331
39
  5
39
331
AC9
  5
C2E
331
A8A
  5
63E
331
188
  5
188
331
C14
  5
C0B
331
112
  5
112
331
151
  5
151
331
2C4
  5
2C4
331
28D
  5
28D
331
190
  5
190
331
11A
  5
11A
331
159
  5
159
331
295
  5
295
331
161
  5
161
331
C2C
  5
C1A
331
122
  5
122
331
25E
  5
25E
331
227
  5
227
331
1A0
  5
1A0
331
169
  5
169
331
12A
  5
12A
331
29D
  5
29D
331
41
  5
41
331
266
  5
266
331
22F
  5
22F
331
2A5
  5
2A5
331
49
  5
49
331
51
  5
51
331
59
  5
59
331
516
  5
516
331
51E
  5
51E
331
526
  5
526
331
BF5
  5
BF2
331
132
  5
132
331
171
  5
171
331
26E
  5
26E
331
237
  5
237
331
179
  5
179
331
C05
  5
BFC
331
13A
  5
13A
331
2AD
  5
2AD
331
2B5
  5
2B5
331
276
  5
276
331
1E8
  5
1E8
331
181
  5
181
331
142
  5
142
331
2BD
  5
2BD
331
14A
  5
14A
331
61
  5
61
331
69
  5
69
331
286
  5
286
331
2A
  5
2A
331
109
  5
109
331
32
  5
32
331
3A
  5
3A
331
A8B
  5
A89
331
189
  5
189
331
152
  5
152
331
113
  5
113
331
2C5
  5
2C5
331
28E
  5
28E
331
191
  5
191
331
15A
  5
15A
331
BE6
  5
BE1
331
11B
  5
11B
331
257
  5
257
331
C2D
  5
C1D
331
123
  5
123
331
162
  5
162
331
296
  5
296
331
29E
  5
29E
331
25F
  5
25F
331
1A1
  5
1A1
331
12B
  5
12B
331
16A
  5
16A
331
42
  5
42
331
2A6
  5
2A6
331
267
  5
267
331
4A
  5
4A
331
52
  5
52
331
5A
  5
5A
331
517
  5
517
331
51F
  5
51F
331
527
  5
527
331
B29
  5
B24
331
230
  5
230
331
172
  5
172
331
133
  5
133
331
238
  5
238
331
17A
  5
17A
331
B41
  5
B2B
331
13B
  5
13B
331
1E1
  5
1E1
331
26F
  5
26F
331
2AE
  5
2AE
331
2B6
  5
2B6
331
277
  5
277
331
1E9
  5
1E9
331
182
  5
182
331
143
  5
143
331
2BE
  5
2BE
331
14B
  5
14B
331
62
  5
62
331
287
  5
287
331
2B
  5
2B
331
10A
  5
10A
331
33
  5
33
331
3B
  5
3B
331
A8C
  5
A8A
331
C0E
  5
C05
331
B59
  5
B56
331
18A
  5
18A
331
114
  5
114
331
153
  5
153
331
2C6
  5
2C6
331
28F
  5
28F
331
15B
  5
15B
331
11C
  5
11C
331
258
  5
258
331
19A
  5
19A
331
163
  5
163
331
C2E
  5
C1E
331
BEF
  5
BE6
331
124
  5
124
331
297
  5
297
331
260
  5
260
331
229
  5
229
331
1A2
  5
1A2
331
16B
  5
16B
331
12C
  5
12C
331
29F
  5
29F
331
43
  5
43
331
2A7
  5
2A7
331
4B
  5
4B
331
53
  5
53
331
5B
  5
5B
331
4B8
  5
4B8
331
63B
  5
63B
331
518
  5
518
331
520
  5
520
331
AF3
  5
A90
331
268
  5
268
331
231
  5
231
331
1D2
  5
1D2
331
BFF
  5
BF4
331
134
  5
134
331
173
  5
173
331
2AF
  5
2AF
331
239
  5
239
331
1E2
  5
1E2
331
17B
  5
17B
331
B42
  5
B3E
331
13C
  5
13C
331
270
  5
270
331
2B7
  5
2B7
331
278
  5
278
331
1EA
  5
1EA
331
183
  5
183
331
144
  5
144
331
2BF
  5
2BF
331
14C
  5
14C
331
63
  5
63
331
2C
  5
2C
331
34
  5
34
331
10B
  5
10B
331
3C
  5
3C
331
528
  5
528
331
A8D
  5
A8B
331
B52
  5
B44
331
288
  5
288
331
18B
  5
18B
331
154
  5
154
331
C17
  5
C0E
331
115
  5
115
331
21A
  5
21A
331
15C
  5
15C
331
11D
  5
11D
331
290
  5
290
331
259
  5
259
331
19B
  5
19B
331
125
  5
125
331
164
  5
164
331
298
  5
298
331
2A0
  5
2A0
331
261
  5
261
331
1A3
  5
1A3
331
16C
  5
16C
331
12D
  5
12D
331
44
  5
44
331
4C
  5
4C
331
54
  5
54
331
5C
  5
5C
331
4B9
  5
4B9
331
63C
  5
63C
331
519
  5
519
331
521
  5
521
331
AF4
  5
A91
331
B2B
  5
B25
331
2A8
  5
2A8
331
269
  5
269
331
232
  5
232
331
1D3
  5
1D3
331
174
  5
174
331
135
  5
135
331
2B0
  5
2B0
331
271
  5
271
331
17C
  5
17C
331
B43
  5
B3F
331
13D
  5
13D
331
1E3
  5
1E3
331
2B8
  5
2B8
331
242
  5
242
331
1EB
  5
1EB
331
184
  5
184
331
145
  5
145
331
281
  5
281
331
14D
  5
14D
331
64
  5
64
331
2D
  5
2D
331
10C
  5
10C
331
35
  5
35
331
3D
  5
3D
331
529
  5
529
331
C08
  5
BFF
331
A8E
  5
A8C
331
BD1
  5
B57
331
2C0
  5
2C0
331
24A
  5
24A
331
18C
  5
18C
331
116
  5
116
331
155
  5
155
331
289
  5
289
331
291
  5
291
331
21B
  5
21B
331
15D
  5
15D
331
BE9
  5
BE2
331
11E
  5
11E
331
299
  5
299
331
25A
  5
25A
331
223
  5
223
331
19C
  5
19C
331
165
  5
165
331
126
  5
126
331
262
  5
262
331
22B
  5
22B
331
1A4
  5
1A4
331
16D
  5
16D
331
12E
  5
12E
331
2A1
  5
2A1
331
45
  5
45
331
4D
  5
4D
331
55
  5
55
331
5D
  5
5D
331
4BA
  5
4BA
331
63D
  5
C2C
331
51A
  5
51A
331
522
  5
522
331
B24
  5
AC9
331
26A
  5
26A
331
233
  5
233
331
175
  5
175
331
136
  5
136
331
2A9
  5
2A9
331
2B1
  5
2B1
331
272
  5
272
331
1E4
  5
1E4
331
17D
  5
17D
331
B44
  5
B41
331
13E
  5
13E
331
2B9
  5
2B9
331
243
  5
243
331
1EC
  5
1EC
331
185
  5
185
331
146
  5
146
331
65
  5
65
331
282
  5
282
331
14E
  5
14E
331
26
  5
26
331
2E
  5
2E
331
36
  5
36
331
10D
  5
10D
331
3E
  5
3E
  0
SORTENTSTABLE
  5
F43
102
{ACAD_REACTORS
330
F42
102
}
330
F42
100
AcDbSortentsTable
330
DBC
  0
DIMASSOC
  5
BFE
102
{ACAD_REACTORS
330
BFD
102
}
330
BFD
100
AcDbDimAssoc
330
BFC
 90
        1
 70
     0
 71
     0
  1
AcDbOsnapPointRef
 72
    10
331
21A
 73
     2
 91
        3
 40
0.7609642795621923
 10
1.041108391887405
 20
5.869374839701773
 30
0.0
 75
     0
  0
DIMASSOC
  5
C07
102
{ACAD_REACTORS
330
C06
102
}
330
C06
100
AcDbDimAssoc
330
C05
 90
        1
 70
     0
 71
     0
  1
AcDbOsnapPointRef
 72
    10
331
2C5
331
398
 73
     2
 91
        0
 40
0.392945980685856
 10
5.463408165774794
 20
7.413070990117168
 30
0.0
 75
     0
  0
DIMASSOC
  5
C0A
102
{ACAD_REACTORS
330
C09
102
}
330
C09
100
AcDbDimAssoc
330
C08
 90
        1
 70
     0
 71
     0
  1
AcDbOsnapPointRef
 72
    10
331
21C
 73
     2
 91
        0
 40
0.4996443585165693
 10
6.000408635128033
 20
7.607173901808332
 30
0.0
 75
     0
  0
DIMASSOC
  5
C16
102
{ACAD_REACTORS
330
C15
102
}
330
C15
100
AcDbDimAssoc
330
C14
 90
        1
 70
     0
 71
     0
  1
AcDbOsnapPointRef
 72
    10
331
16F
 73
     2
 91
        0
 40
2.670438289760848
 10
4.574030643949026
 20
6.921205967069918
 30
0.0
 75
     0
  0
XRECORD
  5
F90
102
{ACAD_REACTORS
330
F8F
102
}
330
F8F
100
AcDbXrecord
280
     1
 40
443238.0
  1
NOTE:\P\pxi-3,l3;1. MAXIMUM LENGTH OF SECONDARY WIRE PATH (14 AWG) FROM FIELD DECODER TO SOLENOID IS 450 FEET.
  0
LAYOUT
  5
F
102
{ACAD_REACTORS
330
B
102
}
330
B
100
AcDbPlotSettings
  1

  2
S:\AutoCAD 2002\Plotters\1055B&WDraftShaded.pc3
  4

  6

 40
0.0
 41
0.0
 42
0.0
 43
0.0
 44
0.0
 45
0.0
 46
0.0
 47
0.0
 48
0.0
 49
0.0
140
0.0
141
0.0
142
1.0
143
1.0
 70
   688
 72
     0
 73
     0
 74
     5
  7
OKIColorShaded.ctb
 75
    16
147
1.0
 76
     0
 77
     2
 78
   300
148
0.0
149
0.0
100
AcDbLayout
  1
Layout1
 70
     1
 71
     1
 10
0.0
 20
0.0
 11
12.0
 21
9.0
 12
0.0
 22
0.0
 32
0.0
 14
1.000000000000000E+20
 24
1.000000000000000E+20
 34
1.000000000000000E+20
 15
-1.000000000000000E+20
 25
-1.000000000000000E+20
 35
-1.000000000000000E+20
146
0.0
 13
0.0
 23
0.0
 33
0.0
 16
1.0
 26
0.0
 36
0.0
 17
0.0
 27
1.0
 37
0.0
 76
     0
330
C
  0
LAYOUT
  5
A
102
{ACAD_REACTORS
330
B
102
}
330
B
100
AcDbPlotSettings
  1

  2
OKI DOKI Color Laser.pc3
  4
Letter
  6

 40
5.027082920074462
 41
5.027070522308349
 42
5.027099609375
 43
5.027084350585937
 44
279.3999938964844
 45
215.8999938964844
 46
69.51127562268418
 47
-0.0000000000000019
 48
7.992090770147569
 49
0.0729660058682455
140
21.69194154655222
141
7.880417191600681
142
1.0
143
2.034755727814345
 70
 11956
 72
     0
 73
     1
 74
     1
  7
OKIColorShaded.ctb
 75
     0
147
0.4914594839716512
 76
     1
 77
     2
 78
   300
148
0.0
149
0.0
100
AcDbLayout
  1
Model
 70
     1
 71
     0
 10
0.0
 20
0.0
 11
12.0
 21
9.0
 12
0.0
 22
0.0
 32
0.0
 14
0.0
 24
0.0
 34
0.0
 15
0.0
 25
0.0
 35
0.0
146
0.0
 13
0.0
 23
0.0
 33
0.0
 16
1.0
 26
0.0
 36
0.0
 17
0.0
 27
1.0
 37
0.0
 76
     0
330
2
331
E1E
1001
ACAD_PSEXT
1000
OKI DOKI Color Laser.pc3
1000
OKI C9500(PCL)
1000
Front
1000

1070
     0
  0
MATERIAL
  5
E28
102
{ACAD_XDICTIONARY
360
E29
102
}
102
{ACAD_REACTORS
330
DF1
102
}
330
DF1
100
AcDbMaterial
  1
ByBlock
 72
     0
 43
0.0208333333333333
 43
0.0
 43
0.0
 43
0.0
 43
0.0
 43
0.0208333333333333
 43
0.0
 43
0.0
 43
0.0
 43
0.0
 43
1.0
 43
0.0
 43
0.0
 43
0.0
 43
0.0
 43
1.0
 77
     0
 47
0.0208333333333333
 47
0.0
 47
0.0
 47
0.0
 47
0.0
 47
0.0208333333333333
 47
0.0
 47
0.0
 47
0.0
 47
0.0
 47
1.0
 47
0.0
 47
0.0
 47
0.0
 47
0.0
 47
1.0
171
     0
 49
0.0208333333333333
 49
0.0
 49
0.0
 49
0.0
 49
0.0
 49
0.0208333333333333
 49
0.0
 49
0.0
 49
0.0
 49
0.0
 49
1.0
 49
0.0
 49
0.0
 49
0.0
 49
0.0
 49
1.0
175
     0
142
0.0208333333333333
142
0.0
142
0.0
142
0.0
142
0.0
142
0.0208333333333333
142
0.0
142
0.0
142
0.0
142
0.0
142
1.0
142
0.0
142
0.0
142
0.0
142
0.0
142
1.0
179
     0
144
0.0208333333333333
144
0.0
144
0.0
144
0.0
144
0.0
144
0.0208333333333333
144
0.0
144
0.0
144
0.0
144
0.0
144
1.0
144
0.0
144
0.0
144
0.0
144
0.0
144
1.0
147
0.0208333333333333
147
0.0
147
0.0
147
0.0
147
0.0
147
0.0208333333333333
147
0.0
147
0.0
147
0.0
147
0.0
147
1.0
147
0.0
147
0.0
147
0.0
147
0.0
147
1.0
  0
MATERIAL
  5
E20
102
{ACAD_XDICTIONARY
360
E21
102
}
102
{ACAD_REACTORS
330
DF1
102
}
330
DF1
100
AcDbMaterial
  1
ByLayer
 72
     0
 43
0.0208333333333333
 43
0.0
 43
0.0
 43
0.0
 43
0.0
 43
0.0208333333333333
 43
0.0
 43
0.0
 43
0.0
 43
0.0
 43
1.0
 43
0.0
 43
0.0
 43
0.0
 43
0.0
 43
1.0
 77
     0
 47
0.0208333333333333
 47
0.0
 47
0.0
 47
0.0
 47
0.0
 47
0.0208333333333333
 47
0.0
 47
0.0
 47
0.0
 47
0.0
 47
1.0
 47
0.0
 47
0.0
 47
0.0
 47
0.0
 47
1.0
171
     0
 49
0.0208333333333333
 49
0.0
 49
0.0
 49
0.0
 49
0.0
 49
0.0208333333333333
 49
0.0
 49
0.0
 49
0.0
 49
0.0
 49
1.0
 49
0.0
 49
0.0
 49
0.0
 49
0.0
 49
1.0
175
     0
142
0.0208333333333333
142
0.0
142
0.0
142
0.0
142
0.0
142
0.0208333333333333
142
0.0
142
0.0
142
0.0
142
0.0
142
1.0
142
0.0
142
0.0
142
0.0
142
0.0
142
1.0
179
     0
144
0.0208333333333333
144
0.0
144
0.0
144
0.0
144
0.0
144
0.0208333333333333
144
0.0
144
0.0
144
0.0
144
0.0
144
1.0
144
0.0
144
0.0
144
0.0
144
0.0
144
1.0
147
0.0208333333333333
147
0.0
147
0.0
147
0.0
147
0.0
147
0.0208333333333333
147
0.0
147
0.0
147
0.0
147
0.0
147
1.0
147
0.0
147
0.0
147
0.0
147
0.0
147
1.0
  0
MATERIAL
  5
E30
102
{ACAD_XDICTIONARY
360
E31
102
}
102
{ACAD_REACTORS
330
DF1
102
}
330
DF1
100
AcDbMaterial
  1
Global
 72
     0
 43
0.0208333333333333
 43
0.0
 43
0.0
 43
0.0
 43
0.0
 43
0.0208333333333333
 43
0.0
 43
0.0
 43
0.0
 43
0.0
 43
1.0
 43
0.0
 43
0.0
 43
0.0
 43
0.0
 43
1.0
 77
     0
 47
0.0208333333333333
 47
0.0
 47
0.0
 47
0.0
 47
0.0
 47
0.0208333333333333
 47
0.0
 47
0.0
 47
0.0
 47
0.0
 47
1.0
 47
0.0
 47
0.0
 47
0.0
 47
0.0
 47
1.0
171
     0
 49
0.0208333333333333
 49
0.0
 49
0.0
 49
0.0
 49
0.0
 49
0.0208333333333333
 49
0.0
 49
0.0
 49
0.0
 49
0.0
 49
1.0
 49
0.0
 49
0.0
 49
0.0
 49
0.0
 49
1.0
175
     0
142
0.0208333333333333
142
0.0
142
0.0
142
0.0
142
0.0
142
0.0208333333333333
142
0.0
142
0.0
142
0.0
142
0.0
142
1.0
142
0.0
142
0.0
142
0.0
142
0.0
142
1.0
179
     0
144
0.0208333333333333
144
0.0
144
0.0
144
0.0
144
0.0
144
0.0208333333333333
144
0.0
144
0.0
144
0.0
144
0.0
144
1.0
144
0.0
144
0.0
144
0.0
144
0.0
144
1.0
147
0.0208333333333333
147
0.0
147
0.0
147
0.0
147
0.0
147
0.0208333333333333
147
0.0
147
0.0
147
0.0
147
0.0
147
1.0
147
0.0
147
0.0
147
0.0
147
0.0
147
1.0
  0
MLEADERSTYLE
  5
E6C
102
{ACAD_REACTORS
330
E6B
102
}
330
E6B
100
AcDbMLeaderStyle
170
     2
171
     1
172
     0
 90
        2
 40
0.0
 41
0.0
173
     1
 91
-1056964608
340
15
 92
       -2
290
     1
 42
0.09
291
     1
 43
0.36
  3
Standard
 44
0.18
300

342
12
174
     1
178
     6
175
     1
176
     0
 93
-1056964608
 45
0.18
292
     0
297
     0
 46
0.18
 94
-1056964608
 47
1.0
 49
1.0
140
1.0
293
     1
141
0.0
294
     1
177
     0
142
1.0
295
     0
296
     0
143
0.125
1001
ACAD_MLEADERVER
1070
     2
  0
MLINESTYLE
  5
24
102
{ACAD_REACTORS
330
20
102
}
330
20
100
AcDbMlineStyle
  2
STANDARD
 70
     0
  3

 62
   256
 51
90.0
 52
90.0
 71
     2
 49
0.5
 62
   256
  6
BYLAYER
 49
-0.5
 62
   256
  6
BYLAYER
  0
ACDBPLACEHOLDER
  5
5
102
{ACAD_REACTORS
330
6
102
}
330
6
  0
SCALE
  5
E4A
102
{ACAD_REACTORS
330
E49
102
}
330
E49
100
AcDbScale
 70
     0
300
1:1
140
1.0
141
1.0
290
     1
  0
SCALE
  5
E4B
102
{ACAD_REACTORS
330
E49
102
}
330
E49
100
AcDbScale
 70
     0
300
1:2
140
1.0
141
2.0
290
     0
  0
SCALE
  5
E4C
102
{ACAD_REACTORS
330
E49
102
}
330
E49
100
AcDbScale
 70
     0
300
1:4
140
1.0
141
4.0
290
     0
  0
SCALE
  5
E4D
102
{ACAD_REACTORS
330
E49
102
}
330
E49
100
AcDbScale
 70
     0
300
1:5
140
1.0
141
5.0
290
     0
  0
SCALE
  5
E4E
102
{ACAD_REACTORS
330
E49
102
}
330
E49
100
AcDbScale
 70
     0
300
1:8
140
1.0
141
8.0
290
     0
  0
SCALE
  5
E4F
102
{ACAD_REACTORS
330
E49
102
}
330
E49
100
AcDbScale
 70
     0
300
1:10
140
1.0
141
10.0
290
     0
  0
SCALE
  5
E50
102
{ACAD_REACTORS
330
E49
102
}
330
E49
100
AcDbScale
 70
     0
300
1:16
140
1.0
141
16.0
290
     0
  0
SCALE
  5
E51
102
{ACAD_REACTORS
330
E49
102
}
330
E49
100
AcDbScale
 70
     0
300
1:20
140
1.0
141
20.0
290
     0
  0
SCALE
  5
E52
102
{ACAD_REACTORS
330
E49
102
}
330
E49
100
AcDbScale
 70
     0
300
1:30
140
1.0
141
30.0
290
     0
  0
SCALE
  5
E53
102
{ACAD_REACTORS
330
E49
102
}
330
E49
100
AcDbScale
 70
     0
300
1:40
140
1.0
141
40.0
290
     0
  0
SCALE
  5
E54
102
{ACAD_REACTORS
330
E49
102
}
330
E49
100
AcDbScale
 70
     0
300
1:50
140
1.0
141
50.0
290
     0
  0
SCALE
  5
E55
102
{ACAD_REACTORS
330
E49
102
}
330
E49
100
AcDbScale
 70
     0
300
1:100
140
1.0
141
100.0
290
     0
  0
SCALE
  5
E56
102
{ACAD_REACTORS
330
E49
102
}
330
E49
100
AcDbScale
 70
     0
300
2:1
140
2.0
141
1.0
290
     0
  0
SCALE
  5
E57
102
{ACAD_REACTORS
330
E49
102
}
330
E49
100
AcDbScale
 70
     0
300
4:1
140
4.0
141
1.0
290
     0
  0
SCALE
  5
E58
102
{ACAD_REACTORS
330
E49
102
}
330
E49
100
AcDbScale
 70
     0
300
8:1
140
8.0
141
1.0
290
     0
  0
SCALE
  5
E59
102
{ACAD_REACTORS
330
E49
102
}
330
E49
100
AcDbScale
 70
     0
300
10:1
140
10.0
141
1.0
290
     0
  0
SCALE
  5
E5A
102
{ACAD_REACTORS
330
E49
102
}
330
E49
100
AcDbScale
 70
     0
300
100:1
140
100.0
141
1.0
290
     0
  0
SCALE
  5
E5B
102
{ACAD_REACTORS
330
E49
102
}
330
E49
100
AcDbScale
 70
     0
300
1/128" = 1'-0"
140
0.0078125
141
12.0
290
     0
  0
SCALE
  5
E5C
102
{ACAD_REACTORS
330
E49
102
}
330
E49
100
AcDbScale
 70
     0
300
1/64" = 1'-0"
140
0.015625
141
12.0
290
     0
  0
SCALE
  5
E5D
102
{ACAD_REACTORS
330
E49
102
}
330
E49
100
AcDbScale
 70
     0
300
1/32" = 1'-0"
140
0.03125
141
12.0
290
     0
  0
SCALE
  5
E5E
102
{ACAD_REACTORS
330
E49
102
}
330
E49
100
AcDbScale
 70
     0
300
1/16" = 1'-0"
140
0.0625
141
12.0
290
     0
  0
SCALE
  5
E5F
102
{ACAD_REACTORS
330
E49
102
}
330
E49
100
AcDbScale
 70
     0
300
3/32" = 1'-0"
140
0.09375
141
12.0
290
     0
  0
SCALE
  5
E60
102
{ACAD_REACTORS
330
E49
102
}
330
E49
100
AcDbScale
 70
     0
300
1/8" = 1'-0"
140
0.125
141
12.0
290
     0
  0
SCALE
  5
E61
102
{ACAD_REACTORS
330
E49
102
}
330
E49
100
AcDbScale
 70
     0
300
3/16" = 1'-0"
140
0.1875
141
12.0
290
     0
  0
SCALE
  5
E62
102
{ACAD_REACTORS
330
E49
102
}
330
E49
100
AcDbScale
 70
     0
300
1/4" = 1'-0"
140
0.25
141
12.0
290
     0
  0
SCALE
  5
E63
102
{ACAD_REACTORS
330
E49
102
}
330
E49
100
AcDbScale
 70
     0
300
3/8" = 1'-0"
140
0.375
141
12.0
290
     0
  0
SCALE
  5
E64
102
{ACAD_REACTORS
330
E49
102
}
330
E49
100
AcDbScale
 70
     0
300
1/2" = 1'-0"
140
0.5
141
12.0
290
     0
  0
SCALE
  5
E65
102
{ACAD_REACTORS
330
E49
102
}
330
E49
100
AcDbScale
 70
     0
300
3/4" = 1'-0"
140
0.75
141
12.0
290
     0
  0
SCALE
  5
E66
102
{ACAD_REACTORS
330
E49
102
}
330
E49
100
AcDbScale
 70
     0
300
1" = 1'-0"
140
1.0
141
12.0
290
     0
  0
SCALE
  5
E67
102
{ACAD_REACTORS
330
E49
102
}
330
E49
100
AcDbScale
 70
     0
300
1-1/2" = 1'-0"
140
1.5
141
12.0
290
     0
  0
SCALE
  5
E68
102
{ACAD_REACTORS
330
E49
102
}
330
E49
100
AcDbScale
 70
     0
300
3" = 1'-0"
140
3.0
141
12.0
290
     0
  0
SCALE
  5
E69
102
{ACAD_REACTORS
330
E49
102
}
330
E49
100
AcDbScale
 70
     0
300
6" = 1'-0"
140
6.0
141
12.0
290
     0
  0
SCALE
  5
E6A
102
{ACAD_REACTORS
330
E49
102
}
330
E49
100
AcDbScale
 70
     0
300
1'-0" = 1'-0"
140
12.0
141
12.0
290
     0
  0
TABLESTYLE
  5
DF4
102
{ACAD_XDICTIONARY
360
EBC
102
}
102
{ACAD_REACTORS
330
DF3
102
}
330
DF3
100
AcDbTableStyle
  3
Standard
 70
     0
 71
     0
 40
0.06
 41
0.06
280
     0
281
     0
  7
STANDARD
140
0.18
170
     2
 62
     0
 63
     7
283
     0
274
    -2
284
     1
 64
     0
275
    -2
285
     1
 65
     0
276
    -2
286
     1
 66
     0
277
    -2
287
     1
 67
     0
278
    -2
288
     1
 68
     0
279
    -2
289
     1
 69
     0
  7
STANDARD
140
0.25
170
     5
 62
     0
 63
     7
283
     0
274
    -2
284
     1
 64
     0
275
    -2
285
     1
 65
     0
276
    -2
286
     1
 66
     0
277
    -2
287
     1
 67
     0
278
    -2
288
     1
 68
     0
279
    -2
289
     1
 69
     0
  7
STANDARD
140
0.18
170
     5
 62
     0
 63
     7
283
     0
274
    -2
284
     1
 64
     0
275
    -2
285
     1
 65
     0
276
    -2
286
     1
 66
     0
277
    -2
287
     1
 67
     0
278
    -2
288
     1
 68
     0
279
    -2
289
     1
 69
     0
  0
VISUALSTYLE
  5
E3E
102
{ACAD_REACTORS
330
E38
102
}
330
E38
100
AcDbVisualStyle
  2
2dWireframe
 70
     4
 71
     0
 72
     2
 73
     0
 90
        0
 40
-0.6
 41
-30.0
 62
     5
 63
     7
421
 16777215
 74
     1
 91
        4
 64
     7
 65
   257
 75
     1
175
     1
 42
1.0
 92
        0
 66
   257
 43
1.0
 76
     1
 77
     6
 78
     2
 67
     7
 79
     5
170
     0
171
     0
290
     0
174
     0
 93
        1
 44
0.0
173
     0
291
     0
 45
0.0
1001
ACAD
1000
AcDbSavedByObjectVersion
1070
     0
  0
VISUALSTYLE
  5
E40
102
{ACAD_REACTORS
330
E38
102
}
330
E38
100
AcDbVisualStyle
  2
3D Hidden
 70
     6
 71
     1
 72
     2
 73
     2
 90
        0
 40
-0.6
 41
-30.0
 62
     5
 63
     7
421
 16777215
 74
     2
 91
        2
 64
     7
 65
   257
 75
     2
175
     1
 42
40.0
 92
        0
 66
   257
 43
1.0
 76
     1
 77
     6
 78
     2
 67
     7
 79
     3
170
     0
171
     0
290
     0
174
     0
 93
        1
 44
0.0
173
     0
291
     0
 45
0.0
1001
ACAD
1000
AcDbSavedByObjectVersion
1070
     0
  0
VISUALSTYLE
  5
E3F
102
{ACAD_REACTORS
330
E38
102
}
330
E38
100
AcDbVisualStyle
  2
3dWireframe
 70
     5
 71
     0
 72
     2
 73
     0
 90
        0
 40
-0.6
 41
-30.0
 62
     5
 63
     7
421
 16777215
 74
     1
 91
        4
 64
     7
 65
   257
 75
     1
175
     1
 42
1.0
 92
        0
 66
   257
 43
1.0
 76
     1
 77
     6
 78
     2
 67
     7
 79
     5
170
     0
171
     0
290
     0
174
     0
 93
        1
 44
0.0
173
     0
291
     0
 45
0.0
1001
ACAD
1000
AcDbSavedByObjectVersion
1070
     0
  0
VISUALSTYLE
  5
E3D
102
{ACAD_REACTORS
330
E38
102
}
330
E38
100
AcDbVisualStyle
  2
Basic
 70
     7
 71
     1
 72
     0
 73
     1
 90
        0
 40
-0.6
 41
-30.0
 62
     5
 63
     7
421
 16777215
 74
     0
 91
        4
 64
     7
 65
   257
 75
     1
175
     1
 42
1.0
 92
        8
 66
     7
 43
1.0
 76
     1
 77
     6
 78
     2
 67
     7
 79
     5
170
     0
171
     0
290
     0
174
     0
 93
        1
 44
0.0
173
     0
291
     1
 45
0.0
1001
ACAD
1000
AcDbSavedByObjectVersion
1070
     0
  0
VISUALSTYLE
  5
E44
102
{ACAD_REACTORS
330
E38
102
}
330
E38
100
AcDbVisualStyle
  2
Brighten
 70
    12
 71
     2
 72
     2
 73
     0
 90
        0
 40
-0.6
 41
-30.0
 62
     5
 63
     7
421
 16777215
 74
     1
 91
        4
 64
     7
 65
   257
 75
     1
175
     1
 42
1.0
 92
        8
 66
     7
 43
1.0
 76
     1
 77
     6
 78
     2
 67
     7
 79
     5
170
     0
171
     0
290
     0
174
     0
 93
        1
 44
50.0
173
     0
291
     1
 45
0.0
1001
ACAD
1000
AcDbSavedByObjectVersion
1070
     0
  0
VISUALSTYLE
  5
E48
102
{ACAD_REACTORS
330
E38
102
}
330
E38
100
AcDbVisualStyle
  2
ColorChange
 70
    16
 71
     2
 72
     2
 73
     3
 90
        0
 40
-0.6
 41
-30.0
 62
     5
 63
     8
421
  8421504
 74
     1
 91
        4
 64
     7
 65
   257
 75
     1
175
     1
 42
1.0
 92
        8
 66
     8
424
  8421504
 43
1.0
 76
     1
 77
     6
 78
     2
 67
     7
 79
     5
170
     0
171
     0
290
     0
174
     0
 93
        1
 44
0.0
173
     0
291
     1
 45
0.0
1001
ACAD
1000
AcDbSavedByObjectVersion
1070
     0
  0
VISUALSTYLE
  5
E41
102
{ACAD_REACTORS
330
E38
102
}
330
E38
100
AcDbVisualStyle
  2
Conceptual
 70
     9
 71
     3
 72
     2
 73
     0
 90
        0
 40
-0.6
 41
-30.0
 62
     5
 63
     7
421
 16777215
 74
     2
 91
        2
 64
     7
 65
   257
 75
     1
175
     1
 42
40.0
 92
        8
 66
     7
 43
1.0
 76
     1
 77
     6
 78
     2
 67
     7
 79
     3
170
     0
171
     0
290
     0
174
     0
 93
        1
 44
0.0
173
     0
291
     0
 45
0.0
1001
ACAD
1000
AcDbSavedByObjectVersion
1070
     0
  0
VISUALSTYLE
  5
E43
102
{ACAD_REACTORS
330
E38
102
}
330
E38
100
AcDbVisualStyle
  2
Dim
 70
    11
 71
     2
 72
     2
 73
     0
 90
        0
 40
-0.6
 41
-30.0
 62
     5
 63
     7
421
 16777215
 74
     1
 91
        4
 64
     7
 65
   257
 75
     1
175
     1
 42
1.0
 92
        8
 66
     7
 43
1.0
 76
     1
 77
     6
 78
     2
 67
     7
 79
     5
170
     0
171
     0
290
     0
174
     0
 93
        1
 44
-50.0
173
     0
291
     1
 45
0.0
1001
ACAD
1000
AcDbSavedByObjectVersion
1070
     0
  0
VISUALSTYLE
  5
E47
102
{ACAD_REACTORS
330
E38
102
}
330
E38
100
AcDbVisualStyle
  2
Facepattern
 70
    15
 71
     2
 72
     2
 73
     0
 90
        0
 40
-0.6
 41
-30.0
 62
     5
 63
     7
421
 16777215
 74
     1
 91
        4
 64
     7
 65
   257
 75
     1
175
     1
 42
1.0
 92
        8
 66
     7
 43
1.0
 76
     1
 77
     6
 78
     2
 67
     7
 79
     5
170
     0
171
     0
290
     0
174
     0
 93
        1
 44
0.0
173
     0
291
     1
 45
0.0
1001
ACAD
1000
AcDbSavedByObjectVersion
1070
     0
  0
VISUALSTYLE
  5
E39
102
{ACAD_REACTORS
330
E38
102
}
330
E38
100
AcDbVisualStyle
  2
Flat
 70
     0
 71
     2
 72
     1
 73
     1
 90
        2
 40
-0.6
 41
30.0
 62
     5
 63
     7
421
 16777215
 74
     0
 91
        4
 64
     7
 65
   257
 75
     1
175
     1
 42
1.0
 92
        8
 66
     7
 43
1.0
 76
     1
 77
     6
 78
     2
 67
     7
 79
     5
170
     0
171
     0
290
     0
174
     0
 93
       13
 44
0.0
173
     0
291
     1
 45
0.0
1001
ACAD
1000
AcDbSavedByObjectVersion
1070
     0
  0
VISUALSTYLE
  5
E3A
102
{ACAD_REACTORS
330
E38
102
}
330
E38
100
AcDbVisualStyle
  2
FlatWithEdges
 70
     1
 71
     2
 72
     1
 73
     1
 90
        2
 40
-0.6
 41
30.0
 62
     5
 63
     7
421
 16777215
 74
     1
 91
        4
 64
     7
 65
   257
 75
     1
175
     1
 42
1.0
 92
        0
 66
   257
 43
1.0
 76
     1
 77
     6
 78
     2
 67
     7
 79
     5
170
     0
171
     0
290
     0
174
     0
 93
       13
 44
0.0
173
     0
291
     1
 45
0.0
1001
ACAD
1000
AcDbSavedByObjectVersion
1070
     0
  0
VISUALSTYLE
  5
E3B
102
{ACAD_REACTORS
330
E38
102
}
330
E38
100
AcDbVisualStyle
  2
Gouraud
 70
     2
 71
     2
 72
     2
 73
     1
 90
        2
 40
-0.6
 41
30.0
 62
     5
 63
     7
421
 16777215
 74
     0
 91
        4
 64
     7
 65
   257
 75
     1
175
     1
 42
1.0
 92
        0
 66
     7
 43
1.0
 76
     1
 77
     6
 78
     2
 67
     7
 79
     5
170
     0
171
     0
290
     0
174
     0
 93
       13
 44
0.0
173
     0
291
     1
 45
0.0
1001
ACAD
1000
AcDbSavedByObjectVersion
1070
     0
  0
VISUALSTYLE
  5
E3C
102
{ACAD_REACTORS
330
E38
102
}
330
E38
100
AcDbVisualStyle
  2
GouraudWithEdges
 70
     3
 71
     2
 72
     2
 73
     1
 90
        2
 40
-0.6
 41
30.0
 62
     5
 63
     7
421
 16777215
 74
     1
 91
        4
 64
     7
 65
   257
 75
     1
175
     1
 42
1.0
 92
        0
 66
   257
 43
1.0
 76
     1
 77
     6
 78
     2
 67
     7
 79
     5
170
     0
171
     0
290
     0
174
     0
 93
       13
 44
0.0
173
     0
291
     1
 45
0.0
1001
ACAD
1000
AcDbSavedByObjectVersion
1070
     0
  0
VISUALSTYLE
  5
E46
102
{ACAD_REACTORS
330
E38
102
}
330
E38
100
AcDbVisualStyle
  2
Linepattern
 70
    14
 71
     2
 72
     2
 73
     0
 90
        0
 40
-0.6
 41
-30.0
 62
     5
 63
     7
421
 16777215
 74
     1
 91
        4
 64
     7
 65
   257
 75
     7
175
     7
 42
1.0
 92
        8
 66
     7
 43
1.0
 76
     1
 77
     6
 78
     2
 67
     7
 79
     5
170
     0
171
     0
290
     0
174
     0
 93
        1
 44
0.0
173
     0
291
     1
 45
0.0
1001
ACAD
1000
AcDbSavedByObjectVersion
1070
     0
  0
VISUALSTYLE
  5
E42
102
{ACAD_REACTORS
330
E38
102
}
330
E38
100
AcDbVisualStyle
  2
Realistic
 70
     8
 71
     2
 72
     2
 73
     0
 90
        0
 40
-0.6
 41
-30.0
 62
     5
 63
     7
421
 16777215
 74
     1
 91
        0
 64
     7
 65
   257
 75
     1
175
     1
 42
1.0
 92
        8
 66
     8
424
  7895160
 43
1.0
 76
     1
 77
     6
 78
     2
 67
     7
 79
     5
170
     0
171
     0
290
     0
174
     0
 93
       13
 44
0.0
173
     0
291
     0
 45
0.0
1001
ACAD
1000
AcDbSavedByObjectVersion
1070
     0
  0
VISUALSTYLE
  5
E45
102
{ACAD_REACTORS
330
E38
102
}
330
E38
100
AcDbVisualStyle
  2
Thicken
 70
    13
 71
     2
 72
     2
 73
     0
 90
        0
 40
-0.6
 41
-30.0
 62
     5
 63
     7
421
 16777215
 74
     1
 91
        4
 64
     7
 65
   257
 75
     1
175
     1
 42
1.0
 92
       12
 66
     7
 43
1.0
 76
     1
 77
     6
 78
     2
 67
     7
 79
     5
170
     0
171
     0
290
     0
174
     0
 93
        1
 44
0.0
173
     0
291
     1
 45
0.0
1001
ACAD
1000
AcDbSavedByObjectVersion
1070
     0
  0
DICTIONARYVAR
  5
EC1
102
{ACAD_REACTORS
330
193
102
}
330
193
100
DictionaryVariables
280
     0
  1
1:1
  0
DICTIONARYVAR
  5
EBF
102
{ACAD_REACTORS
330
193
102
}
330
193
100
DictionaryVariables
280
     0
  1
STANDARD
  0
DICTIONARYVAR
  5
E14
102
{ACAD_REACTORS
330
193
102
}
330
193
100
DictionaryVariables
280
     0
  1
STANDARD
  0
DICTIONARYVAR
  5
195
102
{ACAD_REACTORS
330
193
102
}
330
193
100
DictionaryVariables
280
     0
  1
1
  0
DICTIONARYVAR
  5
E15
102
{ACAD_REACTORS
330
193
102
}
330
193
100
DictionaryVariables
280
     0
  1
3
  0
DICTIONARYVAR
  5
194
102
{ACAD_REACTORS
330
193
102
}
330
193
100
DictionaryVariables
280
     0
  1
1
  0
DICTIONARYVAR
  5
F87
102
{ACAD_REACTORS
330
193
102
}
330
193
100
DictionaryVariables
280
     0
  1
0
  0
DICTIONARYVAR
  5
EC3
102
{ACAD_REACTORS
330
193
102
}
330
193
100
DictionaryVariables
280
     0
  1
15
  0
DICTIONARYVAR
  5
EC2
102
{ACAD_REACTORS
330
193
102
}
330
193
100
DictionaryVariables
280
     0
  1
0
  0
DICTIONARYVAR
  5
EC0
102
{ACAD_REACTORS
330
193
102
}
330
193
100
DictionaryVariables
280
     0
  1
0
  0
DICTIONARYVAR
  5
C32
102
{ACAD_REACTORS
330
193
102
}
330
193
100
DictionaryVariables
280
     0
  1
1
  0
XRECORD
  5
BBA
102
{ACAD_REACTORS
330
B65
102
}
330
B65
100
AcDbXrecord
280
     1
1000
CHECK_ARC
1000
0280-CheckArc
1070
     4
1000
CONTINUOUS
  0
XRECORD
  5
BA3
102
{ACAD_REACTORS
330
B65
102
}
330
B65
100
AcDbXrecord
280
     1
1000
CHECK_ARC2
1000
0280-CheckArc2
1070
     5
1000
CONTINUOUS
  0
XRECORD
  5
DFD
102
{ACAD_REACTORS
330
B65
102
}
330
B65
100
AcDbXrecord
280
     1
1000
CHECK_ARC3
1000
0280-CheckArc3
1070
     5
1000
CONTINUOUS
  0
XRECORD
  5
B98
102
{ACAD_REACTORS
330
B65
102
}
330
B65
100
AcDbXrecord
280
     1
1000
CONTINUATION
1000
0280-PipeContinuation
1070
     3
1000
CONTINUOUS
  0
XRECORD
  5
BC7
102
{ACAD_REACTORS
330
B65
102
}
330
B65
100
AcDbXrecord
280
     1
1000
CONTROLLER
1000
0280-Controller
1070
     3
1000
CONTINUOUS
  0
XRECORD
  5
BB6
102
{ACAD_REACTORS
330
B65
102
}
330
B65
100
AcDbXrecord
280
     1
1000
CONTROLLER2
1000
0280-Controller2
1070
     5
1000
CONTINUOUS
  0
XRECORD
  5
E10
102
{ACAD_REACTORS
330
B65
102
}
330
B65
100
AcDbXrecord
280
     1
1000
CONTROLLER3
1000
0280-Controller3
1070
     5
1000
CONTINUOUS
  0
XRECORD
  5
BC8
102
{ACAD_REACTORS
330
B65
102
}
330
B65
100
AcDbXrecord
280
     1
1000
DEFAULT
1000
0
1070
     6
1000
CONTINUOUS
  0
XRECORD
  5
B84
102
{ACAD_REACTORS
330
B65
102
}
330
B65
100
AcDbXrecord
280
     1
1000
DESIGN_ARC
1000
0280-DesignArc
1070
     9
1000
CONTINUOUS
  0
XRECORD
  5
BA4
102
{ACAD_REACTORS
330
B65
102
}
330
B65
100
AcDbXrecord
280
     1
1000
DESIGN_ARC2
1000
0280-DesignArc2
1070
     8
1000
CONTINUOUS
  0
XRECORD
  5
DFE
102
{ACAD_REACTORS
330
B65
102
}
330
B65
100
AcDbXrecord
280
     1
1000
DESIGN_ARC3
1000
0280-DesignArc3
1070
     8
1000
CONTINUOUS
  0
XRECORD
  5
BC2
102
{ACAD_REACTORS
330
B65
102
}
330
B65
100
AcDbXrecord
280
     1
1000
DRIP
1000
0280-Drip
1070
     2
1000
CONTINUOUS
  0
XRECORD
  5
BAC
102
{ACAD_REACTORS
330
B65
102
}
330
B65
100
AcDbXrecord
280
     1
1000
DRIP2
1000
0280-Drip2
1070
     5
1000
CONTINUOUS
  0
XRECORD
  5
E06
102
{ACAD_REACTORS
330
B65
102
}
330
B65
100
AcDbXrecord
280
     1
1000
DRIP3
1000
0280-Drip3
1070
     5
1000
CONTINUOUS
  0
XRECORD
  5
BC6
102
{ACAD_REACTORS
330
B65
102
}
330
B65
100
AcDbXrecord
280
     1
1000
FITTING
1000
0280-Lateral
1070
     3
1000
CONTINUOUS
  0
XRECORD
  5
BB5
102
{ACAD_REACTORS
330
B65
102
}
330
B65
100
AcDbXrecord
280
     1
1000
FITTING2
1000
0280-Lateral2
1070
     5
1000
CONTINUOUS
  0
XRECORD
  5
E0F
102
{ACAD_REACTORS
330
B65
102
}
330
B65
100
AcDbXrecord
280
     1
1000
FITTING3
1000
0280-Lateral3
1070
     5
1000
CONTINUOUS
  0
XRECORD
  5
BC5
102
{ACAD_REACTORS
330
B65
102
}
330
B65
100
AcDbXrecord
280
     1
1000
FLOW
1000
0100-Flow
1070
     3
1000
CONTINUOUS
  0
XRECORD
  5
BB4
102
{ACAD_REACTORS
330
B65
102
}
330
B65
100
AcDbXrecord
280
     1
1000
FLOW2
1000
0100-Flow2
1070
     5
1000
CONTINUOUS
  0
XRECORD
  5
E0E
102
{ACAD_REACTORS
330
B65
102
}
330
B65
100
AcDbXrecord
280
     1
1000
FLOW3
1000
0100-Flow3
1070
     5
1000
CONTINUOUS
  0
XRECORD
  5
B9D
102
{ACAD_REACTORS
330
B65
102
}
330
B65
100
AcDbXrecord
280
     1
1000
HPLATERALGC
1000
0280-HPDripGC
1070
     5
1000
HIDDEN2
  0
XRECORD
  5
BB0
102
{ACAD_REACTORS
330
B65
102
}
330
B65
100
AcDbXrecord
280
     1
1000
HPLATERALGC2
1000
0280-HPDripGC2
1070
     6
1000
HIDDEN2
  0
XRECORD
  5
E0A
102
{ACAD_REACTORS
330
B65
102
}
330
B65
100
AcDbXrecord
280
     1
1000
HPLATERALGC3
1000
0280-HPDripGC3
1070
     6
1000
HIDDEN2
  0
XRECORD
  5
B9E
102
{ACAD_REACTORS
330
B65
102
}
330
B65
100
AcDbXrecord
280
     1
1000
HPLATERALSHRUBS
1000
0280-HPDripShrubs
1070
     6
1000
CONTINUOUS
  0
XRECORD
  5
BB1
102
{ACAD_REACTORS
330
B65
102
}
330
B65
100
AcDbXrecord
280
     1
1000
HPLATERALSHRUBS2
1000
0280-HPDripShrubs2
1070
     4
1000
CONTINUOUS
  0
XRECORD
  5
E0B
102
{ACAD_REACTORS
330
B65
102
}
330
B65
100
AcDbXrecord
280
     1
1000
HPLATERALSHRUBS3
1000
0280-HPDripShrubs3
1070
     4
1000
CONTINUOUS
  0
XRECORD
  5
B9F
102
{ACAD_REACTORS
330
B65
102
}
330
B65
100
AcDbXrecord
280
     1
1000
HPLATERALTREES
1000
0280-HPDripTrees
1070
     4
1000
HIDDEN2
  0
XRECORD
  5
BB2
102
{ACAD_REACTORS
330
B65
102
}
330
B65
100
AcDbXrecord
280
     1
1000
HPLATERALTREES2
1000
0280-HPDripTrees2
1070
     5
1000
HIDDEN2
  0
XRECORD
  5
E0C
102
{ACAD_REACTORS
330
B65
102
}
330
B65
100
AcDbXrecord
280
     1
1000
HPLATERALTREES3
1000
0280-HPDripTrees3
1070
     5
1000
HIDDEN2
  0
XRECORD
  5
B9A
102
{ACAD_REACTORS
330
B65
102
}
330
B65
100
AcDbXrecord
280
     1
1000
HPNODEGC
1000
0280-HPDripNodeGC
1070
     5
1000
CONTINUOUS
  0
XRECORD
  5
BAD
102
{ACAD_REACTORS
330
B65
102
}
330
B65
100
AcDbXrecord
280
     1
1000
HPNODEGC2
1000
0280-HPDripNodeGC2
1070
     6
1000
CONTINUOUS
  0
XRECORD
  5
E07
102
{ACAD_REACTORS
330
B65
102
}
330
B65
100
AcDbXrecord
280
     1
1000
HPNODEGC3
1000
0280-HPDripNodeGC3
1070
     6
1000
CONTINUOUS
  0
XRECORD
  5
B9B
102
{ACAD_REACTORS
330
B65
102
}
330
B65
100
AcDbXrecord
280
     1
1000
HPNODESHRUBS
1000
0280-HPDripNodeShrubs
1070
     6
1000
CONTINUOUS
  0
XRECORD
  5
BAE
102
{ACAD_REACTORS
330
B65
102
}
330
B65
100
AcDbXrecord
280
     1
1000
HPNODESHRUBS2
1000
0280-HPDripNodeShrubs2
1070
     4
1000
CONTINUOUS
  0
XRECORD
  5
E08
102
{ACAD_REACTORS
330
B65
102
}
330
B65
100
AcDbXrecord
280
     1
1000
HPNODESHRUBS3
1000
0280-HPDripNodeShrubs3
1070
     4
1000
CONTINUOUS
  0
XRECORD
  5
B9C
102
{ACAD_REACTORS
330
B65
102
}
330
B65
100
AcDbXrecord
280
     1
1000
HPNODETREES
1000
0280-HPDripNodeTrees
1070
     4
1000
CONTINUOUS
  0
XRECORD
  5
BAF
102
{ACAD_REACTORS
330
B65
102
}
330
B65
100
AcDbXrecord
280
     1
1000
HPNODETREES2
1000
0280-HPDripNodeTrees2
1070
     5
1000
CONTINUOUS
  0
XRECORD
  5
E09
102
{ACAD_REACTORS
330
B65
102
}
330
B65
100
AcDbXrecord
280
     1
1000
HPNODETREES3
1000
0280-HPDripNodeTrees3
1070
     5
1000
CONTINUOUS
  0
XRECORD
  5
E8A
102
{ACAD_REACTORS
330
B65
102
}
330
B65
100
AcDbXrecord
280
     1
1000
IDEACATCHCAN
1000
0280-IDEACatchCan
1070
     5
1000
CONTINUOUS
  0
XRECORD
  5
E8B
102
{ACAD_REACTORS
330
B65
102
}
330
B65
100
AcDbXrecord
280
     1
1000
IDEACATCHCAN2
1000
0280-IDEACatchCan2
1070
     3
1000
CONTINUOUS
  0
XRECORD
  5
E8C
102
{ACAD_REACTORS
330
B65
102
}
330
B65
100
AcDbXrecord
280
     1
1000
IDEACATCHCAN3
1000
0280-IDEACatchCan3
1070
     3
1000
CONTINUOUS
  0
XRECORD
  5
E8D
102
{ACAD_REACTORS
330
B65
102
}
330
B65
100
AcDbXrecord
280
     1
1000
IDEANOTE
1000
0280-IDEANote
1070
     5
1000
CONTINUOUS
  0
XRECORD
  5
E8E
102
{ACAD_REACTORS
330
B65
102
}
330
B65
100
AcDbXrecord
280
     1
1000
IDEANOTE2
1000
0280-IDEANote2
1070
     3
1000
CONTINUOUS
  0
XRECORD
  5
E8F
102
{ACAD_REACTORS
330
B65
102
}
330
B65
100
AcDbXrecord
280
     1
1000
IDEANOTE3
1000
0280-IDEANote3
1070
     3
1000
CONTINUOUS
  0
XRECORD
  5
E87
102
{ACAD_REACTORS
330
B65
102
}
330
B65
100
AcDbXrecord
280
     1
1000
IDEAPERIMETER
1000
0280-IDEAPerimeter
1070
     5
1000
HIDDEN2
  0
XRECORD
  5
E88
102
{ACAD_REACTORS
330
B65
102
}
330
B65
100
AcDbXrecord
280
     1
1000
IDEAPERIMETER2
1000
0280-IDEAPerimeter2
1070
     3
1000
HIDDEN2
  0
XRECORD
  5
E89
102
{ACAD_REACTORS
330
B65
102
}
330
B65
100
AcDbXrecord
280
     1
1000
IDEAPERIMETER3
1000
0280-IDEAPerimeter3
1070
     3
1000
HIDDEN2
  0
XRECORD
  5
BBC
102
{ACAD_REACTORS
330
B65
102
}
330
B65
100
AcDbXrecord
280
     1
1000
LABEL
1000
0280-Designator
1070
     1
1000
CONTINUOUS
  0
XRECORD
  5
BA6
102
{ACAD_REACTORS
330
B65
102
}
330
B65
100
AcDbXrecord
280
     1
1000
LABEL2
1000
0280-Designator2
1070
     6
1000
CONTINUOUS
  0
XRECORD
  5
E00
102
{ACAD_REACTORS
330
B65
102
}
330
B65
100
AcDbXrecord
280
     1
1000
LABEL3
1000
0280-Designator3
1070
     6
1000
CONTINUOUS
  0
XRECORD
  5
BC1
102
{ACAD_REACTORS
330
B65
102
}
330
B65
100
AcDbXrecord
280
     1
1000
LATERAL
1000
0280-Lateral
1070
     3
1000
CONTINUOUS
  0
XRECORD
  5
BAB
102
{ACAD_REACTORS
330
B65
102
}
330
B65
100
AcDbXrecord
280
     1
1000
LATERAL2
1000
0280-Lateral2
1070
     5
1000
DASHED
  0
XRECORD
  5
E05
102
{ACAD_REACTORS
330
B65
102
}
330
B65
100
AcDbXrecord
280
     1
1000
LATERAL3
1000
0280-Lateral3
1070
     5
1000
DASHED
  0
XRECORD
  5
E73
102
{ACAD_REACTORS
330
B65
102
}
330
B65
100
AcDbXrecord
280
     1
1000
LINESOURCEAREA
1000
0280-LineSourceDripArea
1070
     3
1000
CONTINUOUS
  0
XRECORD
  5
E74
102
{ACAD_REACTORS
330
B65
102
}
330
B65
100
AcDbXrecord
280
     1
1000
LINESOURCEAREA2
1000
0280-LineSourceDripArea2
1070
     5
1000
CONTINUOUS
  0
XRECORD
  5
E75
102
{ACAD_REACTORS
330
B65
102
}
330
B65
100
AcDbXrecord
280
     1
1000
LINESOURCEAREA3
1000
0280-LineSourceDripArea3
1070
     5
1000
CONTINUOUS
  0
XRECORD
  5
E7F
102
{ACAD_REACTORS
330
B65
102
}
330
B65
100
AcDbXrecord
280
     1
1000
LINESOURCEEMITTER
1000
0280-LineSourceDripEmitterPipe
1070
     8
1000
CONTINUOUS
  0
XRECORD
  5
E80
102
{ACAD_REACTORS
330
B65
102
}
330
B65
100
AcDbXrecord
280
     1
1000
LINESOURCEEMITTER2
1000
0280-LineSourceDripEmitterPipe2
1070
   253
1000
CONTINUOUS
  0
XRECORD
  5
E81
102
{ACAD_REACTORS
330
B65
102
}
330
B65
100
AcDbXrecord
280
     1
1000
LINESOURCEEMITTER3
1000
0280-LineSourceDripEmitterPipe3
1070
   253
1000
CONTINUOUS
  0
XRECORD
  5
E79
102
{ACAD_REACTORS
330
B65
102
}
330
B65
100
AcDbXrecord
280
     1
1000
LINESOURCEEXHAUST
1000
0280-LineSourceDripExhaustPipe
1070
     7
1000
CONTINUOUS
  0
XRECORD
  5
E7A
102
{ACAD_REACTORS
330
B65
102
}
330
B65
100
AcDbXrecord
280
     1
1000
LINESOURCEEXHAUST2
1000
0280-LineSourceDripExhaustPipe2
1070
     5
1000
CONTINUOUS
  0
XRECORD
  5
E7B
102
{ACAD_REACTORS
330
B65
102
}
330
B65
100
AcDbXrecord
280
     1
1000
LINESOURCEEXHAUST3
1000
0280-LineSourceDripExhaustPipe3
1070
     5
1000
CONTINUOUS
  0
XRECORD
  5
E76
102
{ACAD_REACTORS
330
B65
102
}
330
B65
100
AcDbXrecord
280
     1
1000
LINESOURCEHEADER
1000
0280-LineSourceDripHeaderPipe
1070
     7
1000
CONTINUOUS
  0
XRECORD
  5
E77
102
{ACAD_REACTORS
330
B65
102
}
330
B65
100
AcDbXrecord
280
     1
1000
LINESOURCEHEADER2
1000
0280-LineSourceDripHeaderPipe2
1070
     5
1000
CONTINUOUS
  0
XRECORD
  5
E78
102
{ACAD_REACTORS
330
B65
102
}
330
B65
100
AcDbXrecord
280
     1
1000
LINESOURCEHEADER3
1000
0280-LineSourceDripHeaderPipe3
1070
     5
1000
CONTINUOUS
  0
XRECORD
  5
E7C
102
{ACAD_REACTORS
330
B65
102
}
330
B65
100
AcDbXrecord
280
     1
1000
LINESOURCEPERIMETER
1000
0280-LineSourceDripPerimeter
1070
     2
1000
HIDDEN2
  0
XRECORD
  5
E7D
102
{ACAD_REACTORS
330
B65
102
}
330
B65
100
AcDbXrecord
280
     1
1000
LINESOURCEPERIMETER2
1000
0280-LineSourceDripPerimeter2
1070
     6
1000
HIDDEN2
  0
XRECORD
  5
E7E
102
{ACAD_REACTORS
330
B65
102
}
330
B65
100
AcDbXrecord
280
     1
1000
LINESOURCEPERIMETER3
1000
0280-LineSourceDripPerimeter3
1070
     6
1000
HIDDEN2
  0
XRECORD
  5
BBF
102
{ACAD_REACTORS
330
B65
102
}
330
B65
100
AcDbXrecord
280
     1
1000
MAINLINE
1000
0280-Mainline
1070
     1
1000
CONTINUOUS
  0
XRECORD
  5
BA9
102
{ACAD_REACTORS
330
B65
102
}
330
B65
100
AcDbXrecord
280
     1
1000
MAINLINE2
1000
0280-Mainline2
1070
     6
1000
CONTINUOUS
  0
XRECORD
  5
E03
102
{ACAD_REACTORS
330
B65
102
}
330
B65
100
AcDbXrecord
280
     1
1000
MAINLINE3
1000
0280-Mainline3
1070
     6
1000
CONTINUOUS
  0
XRECORD
  5
BC0
102
{ACAD_REACTORS
330
B65
102
}
330
B65
100
AcDbXrecord
280
     1
1000
MANIFOLD
1000
0280-Manifold
1070
     4
1000
CONTINUOUS
  0
XRECORD
  5
BAA
102
{ACAD_REACTORS
330
B65
102
}
330
B65
100
AcDbXrecord
280
     1
1000
MANIFOLD2
1000
0280-Manifold2
1070
     3
1000
CONTINUOUS
  0
XRECORD
  5
E04
102
{ACAD_REACTORS
330
B65
102
}
330
B65
100
AcDbXrecord
280
     1
1000
MANIFOLD3
1000
0280-Manifold3
1070
     3
1000
CONTINUOUS
  0
XRECORD
  5
B97
102
{ACAD_REACTORS
330
B65
102
}
330
B65
100
AcDbXrecord
280
     1
1000
MARKER
1000
0280-Marker
1070
     6
1000
CONTINUOUS
  0
XRECORD
  5
BC4
102
{ACAD_REACTORS
330
B65
102
}
330
B65
100
AcDbXrecord
280
     1
1000
NOTE
1000
0100-Note
1070
     6
1000
CONTINUOUS
  0
XRECORD
  5
BB8
102
{ACAD_REACTORS
330
B65
102
}
330
B65
100
AcDbXrecord
280
     1
1000
PERIMETER
1000
0100-WID_Perimeter
1070
     8
1000
CONTINUOUS
  0
XRECORD
  5
BA1
102
{ACAD_REACTORS
330
B65
102
}
330
B65
100
AcDbXrecord
280
     1
1000
PERIMETER2
1000
0100-WID_Perimeter2
1070
     9
1000
CONTINUOUS
  0
XRECORD
  5
DFB
102
{ACAD_REACTORS
330
B65
102
}
330
B65
100
AcDbXrecord
280
     1
1000
PERIMETER3
1000
0100-WID_Perimeter3
1070
     9
1000
CONTINUOUS
  0
XRECORD
  5
BBD
102
{ACAD_REACTORS
330
B65
102
}
330
B65
100
AcDbXrecord
280
     1
1000
PIPE_SIZE
1000
0280-PipeSize
1070
     2
1000
CONTINUOUS
  0
XRECORD
  5
BA7
102
{ACAD_REACTORS
330
B65
102
}
330
B65
100
AcDbXrecord
280
     1
1000
PIPE_SIZE2
1000
0280-PipeSize2
1070
     4
1000
CONTINUOUS
  0
XRECORD
  5
E01
102
{ACAD_REACTORS
330
B65
102
}
330
B65
100
AcDbXrecord
280
     1
1000
PIPE_SIZE3
1000
0280-PipeSize3
1070
     4
1000
CONTINUOUS
  0
XRECORD
  5
BBE
102
{ACAD_REACTORS
330
B65
102
}
330
B65
100
AcDbXrecord
280
     1
1000
SEGMENTID
1000
0280-PipeSegment
1070
   140
1000
CONTINUOUS
  0
XRECORD
  5
BA8
102
{ACAD_REACTORS
330
B65
102
}
330
B65
100
AcDbXrecord
280
     1
1000
SEGMENTID2
1000
0280-PipeSegment2
1070
    60
1000
CONTINUOUS
  0
XRECORD
  5
E02
102
{ACAD_REACTORS
330
B65
102
}
330
B65
100
AcDbXrecord
280
     1
1000
SEGMENTID3
1000
0280-PipeSegment3
1070
    60
1000
CONTINUOUS
  0
XRECORD
  5
BC3
102
{ACAD_REACTORS
330
B65
102
}
330
B65
100
AcDbXrecord
280
     1
1000
SLEEVE
1000
0280-Sleeve
1070
     2
1000
CONTINUOUS
  0
XRECORD
  5
BB3
102
{ACAD_REACTORS
330
B65
102
}
330
B65
100
AcDbXrecord
280
     1
1000
SLEEVE2
1000
0280-Sleeve2
1070
     5
1000
CONTINUOUS
  0
XRECORD
  5
E0D
102
{ACAD_REACTORS
330
B65
102
}
330
B65
100
AcDbXrecord
280
     1
1000
SLEEVE3
1000
0280-Sleeve3
1070
     5
1000
CONTINUOUS
  0
XRECORD
  5
BB9
102
{ACAD_REACTORS
330
B65
102
}
330
B65
100
AcDbXrecord
280
     1
1000
SPRINKLER
1000
0280-Sprinkler
1070
     5
1000
CONTINUOUS
  0
XRECORD
  5
BA2
102
{ACAD_REACTORS
330
B65
102
}
330
B65
100
AcDbXrecord
280
     1
1000
SPRINKLER2
1000
0280-Sprinkler2
1070
     2
1000
CONTINUOUS
  0
XRECORD
  5
DFC
102
{ACAD_REACTORS
330
B65
102
}
330
B65
100
AcDbXrecord
280
     1
1000
SPRINKLER3
1000
0280-Sprinkler3
1070
     2
1000
CONTINUOUS
  0
XRECORD
  5
BBB
102
{ACAD_REACTORS
330
B65
102
}
330
B65
100
AcDbXrecord
280
     1
1000
VALVE
1000
0280-Valve
1070
     1
1000
CONTINUOUS
  0
XRECORD
  5
BA5
102
{ACAD_REACTORS
330
B65
102
}
330
B65
100
AcDbXrecord
280
     1
1000
VALVE2
1000
0280-Valve2
1070
     6
1000
CONTINUOUS
  0
XRECORD
  5
DFF
102
{ACAD_REACTORS
330
B65
102
}
330
B65
100
AcDbXrecord
280
     1
1000
VALVE3
1000
0280-Valve3
1070
     6
1000
CONTINUOUS
  0
XRECORD
  5
E96
102
{ACAD_REACTORS
330
E90
102
}
330
E90
100
AcDbXrecord
280
     1
1000
Annuals
1040
1.0
1070
    -1
  0
XRECORD
  5
E92
102
{ACAD_REACTORS
330
E90
102
}
330
E90
100
AcDbXrecord
280
     1
1000
Bluegrass
1040
0.9
1070
     0
  0
XRECORD
  5
E93
102
{ACAD_REACTORS
330
E90
102
}
330
E90
100
AcDbXrecord
280
     1
1000
Seed Mix
1040
0.735
1070
     0
  0
XRECORD
  5
E94
102
{ACAD_REACTORS
330
E90
102
}
330
E90
100
AcDbXrecord
280
     1
1000
Shrubs
1040
1.0
1070
    -1
  0
XRECORD
  5
E95
102
{ACAD_REACTORS
330
E90
102
}
330
E90
100
AcDbXrecord
280
     1
1000
Trees
1040
1.0
1070
    -1
  0
XRECORD
  5
E82
102
{ACAD_REACTORS
330
B64
102
}
330
B64
100
AcDbXrecord
280
     1
1000
True
  0
XRECORD
  5
B85
102
{ACAD_REACTORS
330
B64
102
}
330
B64
100
AcDbXrecord
280
     1
1000
0.78539
  0
XRECORD
  5
B86
102
{ACAD_REACTORS
330
B64
102
}
330
B64
100
AcDbXrecord
280
     1
1000
0.008255
  0
XRECORD
  5
B87
102
{ACAD_REACTORS
330
B64
102
}
330
B64
100
AcDbXrecord
280
     1
1000
0.00381
  0
XRECORD
  5
B88
102
{ACAD_REACTORS
330
B64
102
}
330
B64
100
AcDbXrecord
280
     1
1000
0.0
  0
XRECORD
  5
B89
102
{ACAD_REACTORS
330
B64
102
}
330
B64
100
AcDbXrecord
280
     1
1000
0.00762
  0
XRECORD
  5
B8A
102
{ACAD_REACTORS
330
B64
102
}
330
B64
100
AcDbXrecord
280
     1
1000
True
  0
XRECORD
  5
E91
102
{ACAD_REACTORS
330
B64
102
}
330
B64
100
AcDbXrecord
280
     1
1000
Bluegrass
  0
XRECORD
  5
E83
102
{ACAD_REACTORS
330
B64
102
}
330
B64
100
AcDbXrecord
280
     1
1000
True
  0
XRECORD
  5
B8B
102
{ACAD_REACTORS
330
B64
102
}
330
B64
100
AcDbXrecord
280
     1
1000
3.9968
  0
XRECORD
  5
B8C
102
{ACAD_REACTORS
330
B64
102
}
330
B64
100
AcDbXrecord
280
     1
1000
0.00254
  0
XRECORD
  5
B8D
102
{ACAD_REACTORS
330
B64
102
}
330
B64
100
AcDbXrecord
280
     1
1000
0.00254
  0
XRECORD
  5
B8E
102
{ACAD_REACTORS
330
B64
102
}
330
B64
100
AcDbXrecord
280
     1
1000
0.0
  0
XRECORD
  5
B8F
102
{ACAD_REACTORS
330
B64
102
}
330
B64
100
AcDbXrecord
280
     1
1000
0.0012954
  0
XRECORD
  5
B90
102
{ACAD_REACTORS
330
B64
102
}
330
B64
100
AcDbXrecord
280
     1
1000
True
  0
XRECORD
  5
E84
102
{ACAD_REACTORS
330
B64
102
}
330
B64
100
AcDbXrecord
280
     1
1000
True
  0
XRECORD
  5
B91
102
{ACAD_REACTORS
330
B64
102
}
330
B64
100
AcDbXrecord
280
     1
1000
3.92699
  0
XRECORD
  5
B92
102
{ACAD_REACTORS
330
B64
102
}
330
B64
100
AcDbXrecord
280
     1
1000
0.03175
  0
XRECORD
  5
B93
102
{ACAD_REACTORS
330
B64
102
}
330
B64
100
AcDbXrecord
280
     1
1000
0.0127
  0
XRECORD
  5
B94
102
{ACAD_REACTORS
330
B64
102
}
330
B64
100
AcDbXrecord
280
     1
1000
0.0
  0
XRECORD
  5
B95
102
{ACAD_REACTORS
330
B64
102
}
330
B64
100
AcDbXrecord
280
     1
1000
0.01998
  0
XRECORD
  5
B96
102
{ACAD_REACTORS
330
B64
102
}
330
B64
100
AcDbXrecord
280
     1
1000
True
  0
XRECORD
  5
BB7
102
{ACAD_REACTORS
330
B64
102
}
330
B64
100
AcDbXrecord
280
     1
1000
3.3
  0
XRECORD
  5
F71
102
{ACAD_REACTORS
330
F6E
102
}
330
F6E
100
AcDbXrecord
280
     1
  1
_0100-
  1
*0100-*
  1
*
  1
*
 70
     0
  1
*
  1
*
  0
XRECORD
  5
F70
102
{ACAD_REACTORS
330
F6E
102
}
330
F6E
100
AcDbXrecord
280
     1
  1
_0280-
  1
*0280-*
  1
*
  1
*
 70
     0
  1
*
  1
*
  0
XRECORD
  5
F73
102
{ACAD_REACTORS
330
F6E
102
}
330
F6E
100
AcDbXrecord
280
     1
  1
_Add Alternate
  1
*add*alt*
  1
*
  1
*
 70
     0
  1
*
  1
*
  0
XRECORD
  5
F74
102
{ACAD_REACTORS
330
F6E
102
}
330
F6E
100
AcDbXrecord
280
     1
  1
_Bid Alternate
  1
*bid*alt*
  1
*
  1
*
 70
     0
  1
*
  1
*
  0
XRECORD
  5
F76
102
{ACAD_REACTORS
330
F6E
102
}
330
F6E
100
AcDbXrecord
280
     1
  1
_Color 253
  1
*
  1
253
  1
*
 70
     0
  1
*
  1
*
  0
XRECORD
  5
F72
102
{ACAD_REACTORS
330
F6E
102
}
330
F6E
100
AcDbXrecord
280
     1
  1
_Color 8
  1
*
  1
8
  1
*
 70
     0
  1
*
  1
*
  0
XRECORD
  5
F75
102
{ACAD_REACTORS
330
F6E
102
}
330
F6E
100
AcDbXrecord
280
     1
  1
_Color 84
  1
*
  1
84
  1
*
 70
     0
  1
*
  1
*
  0
XRECORD
  5
F7C
102
{ACAD_REACTORS
330
F6E
102
}
330
F6E
100
AcDbXrecord
280
     1
  1
_Contours
  1
*contour*,*cont-*,*cp cont*,*p-cont*
  1
*
  1
*
 70
     0
  1
*
  1
*
  0
XRECORD
  5
F77
102
{ACAD_REACTORS
330
F6E
102
}
330
F6E
100
AcDbXrecord
280
     1
  1
_Demo
  1
*demo*
  1
*
  1
*
 70
     0
  1
*
  1
*
  0
XRECORD
  5
F78
102
{ACAD_REACTORS
330
F6E
102
}
330
F6E
100
AcDbXrecord
280
     1
  1
_Existing
  1
*exist*,*ex*
  1
*
  1
*
 70
     0
  1
*
  1
*
  0
XRECORD
  5
F7B
102
{ACAD_REACTORS
330
F6E
102
}
330
F6E
100
AcDbXrecord
280
     1
  1
_Hardscape
  1
*sidewalk*,*sw*,*curb*,*walk*,*-lip*,*tbc*
  1
*
  1
*
 70
     0
  1
*
  1
*
  0
XRECORD
  5
F6F
102
{ACAD_REACTORS
330
F6E
102
}
330
F6E
100
AcDbXrecord
280
     1
  1
_NoXref
  1
~*|*
  1
*
  1
*
 70
     0
  1
*
  1
*
  0
XRECORD
  5
F79
102
{ACAD_REACTORS
330
F6E
102
}
330
F6E
100
AcDbXrecord
280
     1
  1
_Row
  1
*row*
  1
*
  1
*
 70
     0
  1
*
  1
*
  0
XRECORD
  5
F7A
102
{ACAD_REACTORS
330
F6E
102
}
330
F6E
100
AcDbXrecord
280
     1
  1
_Utility
  1
*ut-*,*utility*,*wat*
  1
*
  1
*
 70
     0
  1
*
  1
*
  0
DICTIONARY
  5
E29
330
E28
100
AcDbDictionary
280
     1
281
     1
  3
ACAD_XREC_ROUNDTRIP
360
F94
  3
BUMPTILE
360
E2B
  3
DIFFUSETILE
360
E2A
  3
OPACITYTILE
360
E2E
  3
REFLECTIONTILE
360
E2D
  3
REFRACTIONTILE
360
E2F
  3
SPECULARTILE
360
E2C
  0
DICTIONARY
  5
E21
330
E20
100
AcDbDictionary
280
     1
281
     1
  3
ACAD_XREC_ROUNDTRIP
360
F93
  3
BUMPTILE
360
E23
  3
DIFFUSETILE
360
E22
  3
OPACITYTILE
360
E26
  3
REFLECTIONTILE
360
E25
  3
REFRACTIONTILE
360
E27
  3
SPECULARTILE
360
E24
  0
DICTIONARY
  5
E31
330
E30
100
AcDbDictionary
280
     1
281
     1
  3
ACAD_XREC_ROUNDTRIP
360
F95
  3
BUMPTILE
360
E33
  3
DIFFUSETILE
360
E32
  3
OPACITYTILE
360
E36
  3
REFLECTIONTILE
360
E35
  3
REFRACTIONTILE
360
E37
  3
SPECULARTILE
360
E34
  0
DICTIONARY
  5
EBC
330
DF4
100
AcDbDictionary
280
     1
281
     1
  3
ACAD_ROUNDTRIP_2008_TABLESTYLE_CELLSTYLEMAP
360
F91
  3
ACAD_XREC_ROUNDTRIP
360
F92
  0
XRECORD
  5
F94
102
{ACAD_REACTORS
330
E29
102
}
330
E29
100
AcDbXrecord
280
     1
102
MATERIAL
148
0.0
149
0.0
149
0.0
 93
        0
 94
      127
282
     0
 72
     0
 77
     0
171
     0
175
     0
179
     0
273
     0
  0
XRECORD
  5
E2B
102
{ACAD_REACTORS
330
E29
102
}
330
E29
100
AcDbXrecord
280
     1
270
     1
271
     1
  0
XRECORD
  5
E2A
102
{ACAD_REACTORS
330
E29
102
}
330
E29
100
AcDbXrecord
280
     1
270
     1
271
     1
  0
XRECORD
  5
E2E
102
{ACAD_REACTORS
330
E29
102
}
330
E29
100
AcDbXrecord
280
     1
270
     1
271
     1
  0
XRECORD
  5
E2D
102
{ACAD_REACTORS
330
E29
102
}
330
E29
100
AcDbXrecord
280
     1
270
     1
271
     1
  0
XRECORD
  5
E2F
102
{ACAD_REACTORS
330
E29
102
}
330
E29
100
AcDbXrecord
280
     1
270
     1
271
     1
  0
XRECORD
  5
E2C
102
{ACAD_REACTORS
330
E29
102
}
330
E29
100
AcDbXrecord
280
     1
270
     1
271
     1
  0
XRECORD
  5
F93
102
{ACAD_REACTORS
330
E21
102
}
330
E21
100
AcDbXrecord
280
     1
102
MATERIAL
148
0.0
149
0.0
149
0.0
 93
        0
 94
      127
282
     0
 72
     0
 77
     0
171
     0
175
     0
179
     0
273
     0
  0
XRECORD
  5
E23
102
{ACAD_REACTORS
330
E21
102
}
330
E21
100
AcDbXrecord
280
     1
270
     1
271
     1
  0
XRECORD
  5
E22
102
{ACAD_REACTORS
330
E21
102
}
330
E21
100
AcDbXrecord
280
     1
270
     1
271
     1
  0
XRECORD
  5
E26
102
{ACAD_REACTORS
330
E21
102
}
330
E21
100
AcDbXrecord
280
     1
270
     1
271
     1
  0
XRECORD
  5
E25
102
{ACAD_REACTORS
330
E21
102
}
330
E21
100
AcDbXrecord
280
     1
270
     1
271
     1
  0
XRECORD
  5
E27
102
{ACAD_REACTORS
330
E21
102
}
330
E21
100
AcDbXrecord
280
     1
270
     1
271
     1
  0
XRECORD
  5
E24
102
{ACAD_REACTORS
330
E21
102
}
330
E21
100
AcDbXrecord
280
     1
270
     1
271
     1
  0
XRECORD
  5
F95
102
{ACAD_REACTORS
330
E31
102
}
330
E31
100
AcDbXrecord
280
     1
102
MATERIAL
148
0.0
149
0.0
149
0.0
 93
        0
 94
      127
282
     0
 72
     0
 77
     0
171
     0
175
     0
179
     0
273
     0
  0
XRECORD
  5
E33
102
{ACAD_REACTORS
330
E31
102
}
330
E31
100
AcDbXrecord
280
     1
270
     1
271
     1
  0
XRECORD
  5
E32
102
{ACAD_REACTORS
330
E31
102
}
330
E31
100
AcDbXrecord
280
     1
270
     1
271
     1
  0
XRECORD
  5
E36
102
{ACAD_REACTORS
330
E31
102
}
330
E31
100
AcDbXrecord
280
     1
270
     1
271
     1
  0
XRECORD
  5
E35
102
{ACAD_REACTORS
330
E31
102
}
330
E31
100
AcDbXrecord
280
     1
270
     1
271
     1
  0
XRECORD
  5
E37
102
{ACAD_REACTORS
330
E31
102
}
330
E31
100
AcDbXrecord
280
     1
270
     1
271
     1
  0
XRECORD
  5
E34
102
{ACAD_REACTORS
330
E31
102
}
330
E31
100
AcDbXrecord
280
     1
270
     1
271
     1
  0
CELLSTYLEMAP
  5
F91
102
{ACAD_REACTORS
330
EBC
102
}
330
EBC
100
AcDbCellStyleMap
 90
        3
300
CELLSTYLE
  1
TABLEFORMAT_BEGIN
 90
        5
170
     1
 91
        0
 92
    32768
 62
   257
 93
        1
300
CONTENTFORMAT
  1
CONTENTFORMAT_BEGIN
 90
        0
 91
        0
 92
        4
 93
        0
300

 40
0.0
140
1.0
 94
        5
 62
     0
340
12
144
0.25
309
CONTENTFORMAT_END
171
     0
 94
        6
 95
        1
302
GRIDFORMAT
  1
GRIDFORMAT_BEGIN
 90
        0
 91
        1
 62
     0
 92
       -2
340
0
 93
        0
 40
0.045
309
GRIDFORMAT_END
 95
        2
302
GRIDFORMAT
  1
GRIDFORMAT_BEGIN
 90
        0
 91
        1
 62
     0
 92
       -2
340
0
 93
        0
 40
0.045
309
GRIDFORMAT_END
 95
        4
302
GRIDFORMAT
  1
GRIDFORMAT_BEGIN
 90
        0
 91
        1
 62
     0
 92
       -2
340
0
 93
        0
 40
0.045
309
GRIDFORMAT_END
 95
        8
302
GRIDFORMAT
  1
GRIDFORMAT_BEGIN
 90
        0
 91
        1
 62
     0
 92
       -2
340
0
 93
        0
 40
0.045
309
GRIDFORMAT_END
 95
       16
302
GRIDFORMAT
  1
GRIDFORMAT_BEGIN
 90
        0
 91
        1
 62
     0
 92
       -2
340
0
 93
        0
 40
0.045
309
GRIDFORMAT_END
 95
       32
302
GRIDFORMAT
  1
GRIDFORMAT_BEGIN
 90
        0
 91
        1
 62
     0
 92
       -2
340
0
 93
        0
 40
0.045
309
GRIDFORMAT_END
309
TABLEFORMAT_END
  1
CELLSTYLE_BEGIN
 90
        1
 91
        1
300
_TITLE
309
CELLSTYLE_END
300
CELLSTYLE
  1
TABLEFORMAT_BEGIN
 90
        5
170
     1
 91
        0
 92
        0
 62
   257
 93
        1
300
CONTENTFORMAT
  1
CONTENTFORMAT_BEGIN
 90
        0
 91
        0
 92
        4
 93
        0
300

 40
0.0
140
1.0
 94
        5
 62
     0
340
12
144
0.18
309
CONTENTFORMAT_END
171
     0
 94
        6
 95
        1
302
GRIDFORMAT
  1
GRIDFORMAT_BEGIN
 90
        0
 91
        1
 62
     0
 92
       -2
340
0
 93
        0
 40
0.045
309
GRIDFORMAT_END
 95
        2
302
GRIDFORMAT
  1
GRIDFORMAT_BEGIN
 90
        0
 91
        1
 62
     0
 92
       -2
340
0
 93
        0
 40
0.045
309
GRIDFORMAT_END
 95
        4
302
GRIDFORMAT
  1
GRIDFORMAT_BEGIN
 90
        0
 91
        1
 62
     0
 92
       -2
340
0
 93
        0
 40
0.045
309
GRIDFORMAT_END
 95
        8
302
GRIDFORMAT
  1
GRIDFORMAT_BEGIN
 90
        0
 91
        1
 62
     0
 92
       -2
340
0
 93
        0
 40
0.045
309
GRIDFORMAT_END
 95
       16
302
GRIDFORMAT
  1
GRIDFORMAT_BEGIN
 90
        0
 91
        1
 62
     0
 92
       -2
340
0
 93
        0
 40
0.045
309
GRIDFORMAT_END
 95
       32
302
GRIDFORMAT
  1
GRIDFORMAT_BEGIN
 90
        0
 91
        1
 62
     0
 92
       -2
340
0
 93
        0
 40
0.045
309
GRIDFORMAT_END
309
TABLEFORMAT_END
  1
CELLSTYLE_BEGIN
 90
        2
 91
        1
300
_HEADER
309
CELLSTYLE_END
300
CELLSTYLE
  1
TABLEFORMAT_BEGIN
 90
        5
170
     1
 91
        0
 92
        0
 62
   257
 93
        1
300
CONTENTFORMAT
  1
CONTENTFORMAT_BEGIN
 90
        0
 91
        0
 92
        4
 93
        0
300

 40
0.0
140
1.0
 94
        2
 62
     0
340
12
144
0.18
309
CONTENTFORMAT_END
171
     0
 94
        6
 95
        1
302
GRIDFORMAT
  1
GRIDFORMAT_BEGIN
 90
        0
 91
        1
 62
     0
 92
       -2
340
0
 93
        0
 40
0.045
309
GRIDFORMAT_END
 95
        2
302
GRIDFORMAT
  1
GRIDFORMAT_BEGIN
 90
        0
 91
        1
 62
     0
 92
       -2
340
0
 93
        0
 40
0.045
309
GRIDFORMAT_END
 95
        4
302
GRIDFORMAT
  1
GRIDFORMAT_BEGIN
 90
        0
 91
        1
 62
     0
 92
       -2
340
0
 93
        0
 40
0.045
309
GRIDFORMAT_END
 95
        8
302
GRIDFORMAT
  1
GRIDFORMAT_BEGIN
 90
        0
 91
        1
 62
     0
 92
       -2
340
0
 93
        0
 40
0.045
309
GRIDFORMAT_END
 95
       16
302
GRIDFORMAT
  1
GRIDFORMAT_BEGIN
 90
        0
 91
        1
 62
     0
 92
       -2
340
0
 93
        0
 40
0.045
309
GRIDFORMAT_END
 95
       32
302
GRIDFORMAT
  1
GRIDFORMAT_BEGIN
 90
        0
 91
        1
 62
     0
 92
       -2
340
0
 93
        0
 40
0.045
309
GRIDFORMAT_END
309
TABLEFORMAT_END
  1
CELLSTYLE_BEGIN
 90
        3
 91
        2
300
_DATA
309
CELLSTYLE_END
  0
XRECORD
  5
F92
102
{ACAD_REACTORS
330
EBC
102
}
330
EBC
100
AcDbXrecord
280
     1
102
ACAD_ROUNDTRIP_PRE2007_TABLESTYLE
 90
        4
 91
        0
  1

 92
        4
 93
        0
  2

 94
        4
 95
        0
  3

  0
ENDSEC
  0
EOF
