  0
SECTION
  2
HEADER
  9
$ACADVER
  1
AC1018
  9
$ACADMAINTVER
 70
   104
  9
$DWGCODEPAGE
  3
ANSI_1252
  9
$LASTSAVEDBY
  1
dweyer
  9
$INSBASE
 10
9.713154852155369
 20
4.039980797564772
 30
0.0
  9
$EXTMIN
 10
0.0
 20
0.0
 30
0.0
  9
$EXTMAX
 10
16.48999999999999
 20
10.44
 30
0.03
  9
$LIMMIN
 10
0.0
 20
0.0
  9
$LIMMAX
 10
12.0
 20
9.0
  9
$ORTHOMODE
 70
     1
  9
$REGENMODE
 70
     1
  9
$FILLMODE
 70
     1
  9
$QTEXTMODE
 70
     0
  9
$MIRRTEXT
 70
     0
  9
$LTSCALE
 40
1.0
  9
$ATTMODE
 70
     1
  9
$TEXTSIZE
 40
0.125
  9
$TRACEWID
 40
0.05
  9
$TEXTSTYLE
  7
ROMANS
  9
$CLAYER
  8
title
  9
$CELTYPE
  6
ByLayer
  9
$CECOLOR
 62
   256
  9
$CELTSCALE
 40
1.0
  9
$DISPSILH
 70
     0
  9
$DIMSCALE
 40
1.0
  9
$DIMASZ
 40
0.18
  9
$DIMEXO
 40
0.0625
  9
$DIMDLI
 40
0.38
  9
$DIMRND
 40
0.0
  9
$DIMDLE
 40
0.0
  9
$DIMEXE
 40
0.125
  9
$DIMTP
 40
0.0
  9
$DIMTM
 40
0.0
  9
$DIMTXT
 40
0.125
  9
$DIMCEN
 40
0.09
  9
$DIMTSZ
 40
0.0
  9
$DIMTOL
 70
     0
  9
$DIMLIM
 70
     0
  9
$DIMTIH
 70
     1
  9
$DIMTOH
 70
     1
  9
$DIMSE1
 70
     0
  9
$DIMSE2
 70
     0
  9
$DIMTAD
 70
     0
  9
$DIMZIN
 70
     0
  9
$DIMBLK
  1

  9
$DIMASO
 70
     1
  9
$DIMSHO
 70
     1
  9
$DIMPOST
  1

  9
$DIMAPOST
  1

  9
$DIMALT
 70
     0
  9
$DIMALTD
 70
     2
  9
$DIMALTF
 40
25.4
  9
$DIMLFAC
 40
1.0
  9
$DIMTOFL
 70
     0
  9
$DIMTVP
 40
0.0
  9
$DIMTIX
 70
     0
  9
$DIMSOXD
 70
     0
  9
$DIMSAH
 70
     0
  9
$DIMBLK1
  1

  9
$DIMBLK2
  1

  9
$DIMSTYLE
  2
STANDARD
  9
$DIMCLRD
 70
   256
  9
$DIMCLRE
 70
   256
  9
$DIMCLRT
 70
   256
  9
$DIMTFAC
 40
1.0
  9
$DIMGAP
 40
0.09
  9
$DIMJUST
 70
     0
  9
$DIMSD1
 70
     0
  9
$DIMSD2
 70
     0
  9
$DIMTOLJ
 70
     1
  9
$DIMTZIN
 70
     0
  9
$DIMALTZ
 70
     0
  9
$DIMALTTZ
 70
     0
  9
$DIMUPT
 70
     0
  9
$DIMDEC
 70
     4
  9
$DIMTDEC
 70
     4
  9
$DIMALTU
 70
     2
  9
$DIMALTTD
 70
     2
  9
$DIMTXSTY
  7
ARIAL
  9
$DIMAUNIT
 70
     0
  9
$DIMADEC
 70
     0
  9
$DIMALTRND
 40
0.0
  9
$DIMAZIN
 70
     0
  9
$DIMDSEP
 70
    46
  9
$DIMATFIT
 70
     3
  9
$DIMFRAC
 70
     0
  9
$DIMLDRBLK
  1

  9
$DIMLUNIT
 70
     2
  9
$DIMLWD
 70
    -1
  9
$DIMLWE
 70
    -1
  9
$DIMTMOVE
 70
     2
  9
$LUNITS
 70
     2
  9
$LUPREC
 70
     3
  9
$SKETCHINC
 40
0.1
  9
$FILLETRAD
 40
0.0
  9
$AUNITS
 70
     0
  9
$AUPREC
 70
     0
  9
$MENU
  1
ACAD
  9
$ELEVATION
 40
0.0
  9
$PELEVATION
 40
0.0
  9
$THICKNESS
 40
0.0
  9
$LIMCHECK
 70
     0
  9
$CHAMFERA
 40
0.0
  9
$CHAMFERB
 40
0.0
  9
$CHAMFERC
 40
0.0
  9
$CHAMFERD
 40
0.0
  9
$SKPOLY
 70
     0
  9
$TDCREATE
 40
2451522.402094838
  9
$TDUCREATE
 40
2451522.693761505
  9
$TDUPDATE
 40
2455575.513037257
  9
$TDUUPDATE
 40
2455575.804703924
  9
$TDINDWG
 40
0.3714928009
  9
$TDUSRTIMER
 40
0.3714928009
  9
$USRTIMER
 70
     1
  9
$ANGBASE
 50
0.0
  9
$ANGDIR
 70
     0
  9
$PDMODE
 70
     3
  9
$PDSIZE
 40
-5.0
  9
$PLINEWID
 40
0.0
  9
$SPLFRAME
 70
     0
  9
$SPLINETYPE
 70
     6
  9
$SPLINESEGS
 70
     8
  9
$HANDSEED
  5
FA6
  9
$SURFTAB1
 70
     6
  9
$SURFTAB2
 70
     6
  9
$SURFTYPE
 70
     6
  9
$SURFU
 70
     6
  9
$SURFV
 70
     6
  9
$UCSBASE
  2

  9
$UCSNAME
  2

  9
$UCSORG
 10
0.0
 20
0.0
 30
0.0
  9
$UCSXDIR
 10
1.0
 20
0.0
 30
0.0
  9
$UCSYDIR
 10
0.0
 20
1.0
 30
0.0
  9
$UCSORTHOREF
  2

  9
$UCSORTHOVIEW
 70
     0
  9
$UCSORGTOP
 10
0.0
 20
0.0
 30
0.0
  9
$UCSORGBOTTOM
 10
0.0
 20
0.0
 30
0.0
  9
$UCSORGLEFT
 10
0.0
 20
0.0
 30
0.0
  9
$UCSORGRIGHT
 10
0.0
 20
0.0
 30
0.0
  9
$UCSORGFRONT
 10
0.0
 20
0.0
 30
0.0
  9
$UCSORGBACK
 10
0.0
 20
0.0
 30
0.0
  9
$PUCSBASE
  2

  9
$PUCSNAME
  2

  9
$PUCSORG
 10
0.0
 20
0.0
 30
0.0
  9
$PUCSXDIR
 10
1.0
 20
0.0
 30
0.0
  9
$PUCSYDIR
 10
0.0
 20
1.0
 30
0.0
  9
$PUCSORTHOREF
  2

  9
$PUCSORTHOVIEW
 70
     0
  9
$PUCSORGTOP
 10
0.0
 20
0.0
 30
0.0
  9
$PUCSORGBOTTOM
 10
0.0
 20
0.0
 30
0.0
  9
$PUCSORGLEFT
 10
0.0
 20
0.0
 30
0.0
  9
$PUCSORGRIGHT
 10
0.0
 20
0.0
 30
0.0
  9
$PUCSORGFRONT
 10
0.0
 20
0.0
 30
0.0
  9
$PUCSORGBACK
 10
0.0
 20
0.0
 30
0.0
  9
$USERI1
 70
     0
  9
$USERI2
 70
     0
  9
$USERI3
 70
     0
  9
$USERI4
 70
     0
  9
$USERI5
 70
     0
  9
$USERR1
 40
0.0
  9
$USERR2
 40
0.0
  9
$USERR3
 40
0.0
  9
$USERR4
 40
0.0
  9
$USERR5
 40
0.0
  9
$WORLDVIEW
 70
     1
  9
$SHADEDGE
 70
     3
  9
$SHADEDIF
 70
    70
  9
$TILEMODE
 70
     1
  9
$MAXACTVP
 70
    16
  9
$PINSBASE
 10
0.0
 20
0.0
 30
0.0
  9
$PLIMCHECK
 70
     0
  9
$PEXTMIN
 10
1.000000000000000E+20
 20
1.000000000000000E+20
 30
1.000000000000000E+20
  9
$PEXTMAX
 10
-1.000000000000000E+20
 20
-1.000000000000000E+20
 30
-1.000000000000000E+20
  9
$PLIMMIN
 10
0.0
 20
0.0
  9
$PLIMMAX
 10
12.0
 20
9.0
  9
$UNITMODE
 70
     0
  9
$VISRETAIN
 70
     0
  9
$PLINEGEN
 70
     1
  9
$PSLTSCALE
 70
     1
  9
$TREEDEPTH
 70
 -3020
  9
$CMLSTYLE
  2
Standard
  9
$CMLJUST
 70
     0
  9
$CMLSCALE
 40
1.0
  9
$PROXYGRAPHICS
 70
     1
  9
$MEASUREMENT
 70
     0
  9
$CELWEIGHT
370
    -1
  9
$ENDCAPS
280
     0
  9
$JOINSTYLE
280
     0
  9
$LWDISPLAY
290
     0
  9
$INSUNITS
 70
     0
  9
$HYPERLINKBASE
  1

  9
$STYLESHEET
  1
OKIColorShaded.ctb
  9
$XEDIT
290
     1
  9
$CEPSNTYPE
380
     0
  9
$PSTYLEMODE
290
     1
  9
$FINGERPRINTGUID
  2
{0B396345-2890-4771-A518-E8087B2E1799}
  9
$VERSIONGUID
  2
{A8FC0197-DD09-4305-A6A1-D512AF91FC2B}
  9
$EXTNAMES
290
     1
  9
$PSVPSCALE
 40
0.0
  9
$OLESTARTUP
290
     1
  9
$SORTENTS
280
    48
  9
$INDEXCTL
280
     0
  9
$HIDETEXT
280
     1
  9
$XCLIPFRAME
290
     0
  9
$HALOGAP
280
     0
  9
$OBSCOLOR
 70
   257
  9
$OBSLTYPE
280
     0
  9
$INTERSECTIONDISPLAY
280
     0
  9
$INTERSECTIONCOLOR
 70
   257
  9
$DIMASSOC
280
     1
  9
$PROJECTNAME
  1

  0
ENDSEC
  0
SECTION
  2
CLASSES
  0
CLASS
  1
ACDBDICTIONARYWDFLT
  2
AcDbDictionaryWithDefault
  3
ObjectDBX Classes
 90
        0
 91
        1
280
     0
281
     0
  0
CLASS
  1
DICTIONARYVAR
  2
AcDbDictionaryVar
  3
ObjectDBX Classes
 90
        0
 91
       11
280
     0
281
     0
  0
CLASS
  1
DIMASSOC
  2
AcDbDimAssoc
  3
"AcDbDimAssoc|Product Desc:     AcDim ARX App For Dimension|Company:          Autodesk, Inc.|WEB Address:      www.autodesk.com"
 90
        0
 91
        4
280
     0
281
     0
  0
CLASS
  1
SORTENTSTABLE
  2
AcDbSortentsTable
  3
ObjectDBX Classes
 90
        0
 91
        3
280
     0
281
     0
  0
CLASS
  1
MATERIAL
  2
AcDbMaterial
  3
ObjectDBX Classes
 90
     1153
 91
        3
280
     0
281
     0
  0
CLASS
  1
VISUALSTYLE
  2
AcDbVisualStyle
  3
ObjectDBX Classes
 90
     4095
 91
       16
280
     0
281
     0
  0
CLASS
  1
TABLESTYLE
  2
AcDbTableStyle
  3
ObjectDBX Classes
 90
     4095
 91
        1
280
     0
281
     0
  0
CLASS
  1
SCALE
  2
AcDbScale
  3
ObjectDBX Classes
 90
     1153
 91
        1
280
     0
281
     0
  0
CLASS
  1
MLEADERSTYLE
  2
AcDbMLeaderStyle
  3
ACDB_MLEADERSTYLE_CLASS
 90
     4095
 91
        1
280
     0
281
     0
  0
CLASS
  1
EXACXREFPANELOBJECT
  2
ExAcXREFPanelObject
  3
EXAC_ESW
 90
     1025
 91
        0
280
     0
281
     0
  0
CLASS
  1
NPOCOLLECTION
  2
AcDbImpNonPersistentObjectsCollection
  3
ObjectDBX Classes
 90
     1153
 91
        0
280
     0
281
     0
  0
CLASS
  1
CELLSTYLEMAP
  2
AcDbCellStyleMap
  3
ObjectDBX Classes
 90
     1152
 91
       11
280
     0
281
     0
  0
ENDSEC
  0
SECTION
  2
TABLES
  0
TABLE
  2
VPORT
  5
19
330
0
100
AcDbSymbolTable
 70
     1
  0
VPORT
  5
E15
330
19
100
AcDbSymbolTableRecord
100
AcDbViewportTableRecord
  2
*Active
 70
     0
 10
0.0
 20
0.0
 11
1.0
 21
1.0
 12
8.244999999999997
 22
5.219999999999999
 13
0.0
 23
0.0
 14
0.14
 24
0.14
 15
0.14
 25
0.14
 16
0.0
 26
0.0
 36
1.0
 17
0.0
 27
0.0
 37
0.0
 40
10.53157894736842
 41
2.281112737920937
 42
50.0
 43
0.0
 44
0.0
 50
0.0
 51
0.0
 71
     0
 72
  1000
 73
     1
 74
     1
 75
     0
 76
     0
 77
     0
 78
     0
281
     0
 65
     1
110
0.0
120
0.0
130
0.0
111
1.0
121
0.0
131
0.0
112
0.0
122
1.0
132
0.0
 79
     0
146
0.0
  0
ENDTAB
  0
TABLE
  2
LTYPE
  5
14
330
0
100
AcDbSymbolTable
 70
     1
  0
LTYPE
  5
15
330
14
100
AcDbSymbolTableRecord
100
AcDbLinetypeTableRecord
  2
ByBlock
 70
     0
  3

 72
    65
 73
     0
 40
0.0
  0
LTYPE
  5
16
330
14
100
AcDbSymbolTableRecord
100
AcDbLinetypeTableRecord
  2
ByLayer
 70
     0
  3

 72
    65
 73
     0
 40
0.0
  0
LTYPE
  5
8
330
14
100
AcDbSymbolTableRecord
100
AcDbLinetypeTableRecord
  2
CONTINUOUS
 70
     0
  3
Solid line
 72
    65
 73
     0
 40
0.0
  0
ENDTAB
  0
TABLE
  2
LAYER
  5
10
102
{ACAD_XDICTIONARY
360
EA9
102
}
330
0
100
AcDbSymbolTable
 70
     5
  0
LAYER
  5
4
330
10
100
AcDbSymbolTableRecord
100
AcDbLayerTableRecord
  2
0
 70
     0
 62
     7
  6
CONTINUOUS
370
    -3
390
5
  0
LAYER
  5
22
330
10
100
AcDbSymbolTableRecord
100
AcDbLayerTableRecord
  2
image
 70
     0
 62
     7
  6
CONTINUOUS
370
    -3
390
5
  0
LAYER
  5
BCA
330
10
100
AcDbSymbolTableRecord
100
AcDbLayerTableRecord
  2
text-bubbles
 70
     0
 62
     6
  6
CONTINUOUS
370
    -3
390
5
  0
LAYER
  5
DD1
330
10
100
AcDbSymbolTableRecord
100
AcDbLayerTableRecord
  2
title
 70
     0
 62
     4
  6
CONTINUOUS
370
    -3
390
5
  0
ENDTAB
  0
TABLE
  2
STYLE
  5
11
330
0
100
AcDbSymbolTable
 70
     7
  0
STYLE
  5
12
330
11
100
AcDbSymbolTableRecord
100
AcDbTextStyleTableRecord
  2
STANDARD
 70
     0
 40
0.0
 41
1.0
 50
0.0
 71
     0
 42
0.2
  3
txt
  4

  0
STYLE
  5
23
330
11
100
AcDbSymbolTableRecord
100
AcDbTextStyleTableRecord
  2
ARIAL
 70
     0
 40
0.0
 41
1.0
 50
0.0
 71
     0
 42
0.125
  3
ARIAL.TTF
  4

1001
ACAD
1000
Arial
1071
       34
  0
STYLE
  5
1FB
330
11
100
AcDbSymbolTableRecord
100
AcDbTextStyleTableRecord
  2
ROMANS
 70
     0
 40
0.0
 41
1.0
 50
0.0
 71
     0
 42
0.125
  3
ROMANS.SHX
  4

  0
STYLE
  5
BCB
330
11
100
AcDbSymbolTableRecord
100
AcDbTextStyleTableRecord
  2
WIDFlagNote
 70
     0
 40
0.0
 41
1.0
 50
0.0
 71
     0
 42
0.2
  3
ARIAL.TTF
  4

1001
ACAD
1000
Arial
1071
       34
  0
STYLE
  5
DD2
330
11
100
AcDbSymbolTableRecord
100
AcDbTextStyleTableRecord
  2
L100
 70
     0
 40
0.1
 41
1.0
 50
0.0
 71
     0
 42
0.1
  3
romans.shx
  4

  0
STYLE
  5
DD3
330
11
100
AcDbSymbolTableRecord
100
AcDbTextStyleTableRecord
  2
L200
 70
     0
 40
0.2
 41
1.0
 50
0.0
 71
     0
 42
0.081
  3
ARIAL.TTF
  4

1001
ACAD
1000
Arial
1071
       34
  0
STYLE
  5
DD4
330
11
100
AcDbSymbolTableRecord
100
AcDbTextStyleTableRecord
  2
L80
 70
     0
 40
0.08
 41
1.0
 50
0.0
 71
     0
 42
0.08
  3
ROMANS
  4

  0
ENDTAB
  0
TABLE
  2
VIEW
  5
17
330
0
100
AcDbSymbolTable
 70
     0
  0
ENDTAB
  0
TABLE
  2
UCS
  5
18
330
0
100
AcDbSymbolTable
 70
     0
  0
ENDTAB
  0
TABLE
  2
APPID
  5
1B
330
0
100
AcDbSymbolTable
 70
    11
  0
APPID
  5
1C
330
1B
100
AcDbSymbolTableRecord
100
AcDbRegAppTableRecord
  2
ACAD
 70
     0
  0
APPID
  5
EE5
330
1B
100
AcDbSymbolTableRecord
100
AcDbRegAppTableRecord
  2
BBSI_PltSel
 70
     0
  0
APPID
  5
EE6
330
1B
100
AcDbSymbolTableRecord
100
AcDbRegAppTableRecord
  2
BBSI_Plots
 70
     0
  0
APPID
  5
EE7
330
1B
100
AcDbSymbolTableRecord
100
AcDbRegAppTableRecord
  2
BBSI_Bookmarks
 70
     0
  0
APPID
  5
EE8
330
1B
100
AcDbSymbolTableRecord
100
AcDbRegAppTableRecord
  2
BBSI_BookmarksEx
 70
     0
  0
APPID
  5
EEC
330
1B
100
AcDbSymbolTableRecord
100
AcDbRegAppTableRecord
  2
ACAD_PSEXT
 70
     0
  0
APPID
  5
F07
330
1B
100
AcDbSymbolTableRecord
100
AcDbRegAppTableRecord
  2
ACAD_MLEADERVER
 70
     0
  0
APPID
  5
F0F
330
1B
100
AcDbSymbolTableRecord
100
AcDbRegAppTableRecord
  2
ACAD_EXEMPT_FROM_CAD_STANDARDS
 70
     0
  0
APPID
  5
F1E
330
1B
100
AcDbSymbolTableRecord
100
AcDbRegAppTableRecord
  2
BBSI_StampsEx
 70
     0
  0
APPID
  5
F1F
330
1B
100
AcDbSymbolTableRecord
100
AcDbRegAppTableRecord
  2
BBSI_Attachs
 70
     0
  0
APPID
  5
F20
330
1B
100
AcDbSymbolTableRecord
100
AcDbRegAppTableRecord
  2
BBSI_DigSigs
 70
     0
  0
ENDTAB
  0
TABLE
  2
DIMSTYLE
  5
1D
330
0
100
AcDbSymbolTable
 70
     1
100
AcDbDimStyleTable
 71
     0
  0
DIMSTYLE
105
25
330
1D
100
AcDbSymbolTableRecord
100
AcDbDimStyleTableRecord
  2
STANDARD
 70
     0
279
     2
340
12
  0
ENDTAB
  0
TABLE
  2
BLOCK_RECORD
  5
1
330
0
100
AcDbSymbolTable
 70
     2
  0
BLOCK_RECORD
  5
2
102
{ACAD_XDICTIONARY
360
C2F
102
}
330
1
100
AcDbSymbolTableRecord
100
AcDbBlockTableRecord
  2
*Model_Space
340
A
  0
BLOCK_RECORD
  5
C
330
1
100
AcDbSymbolTableRecord
100
AcDbBlockTableRecord
  2
*Paper_Space
340
F
  0
BLOCK_RECORD
  5
BCC
330
1
100
AcDbSymbolTableRecord
100
AcDbBlockTableRecord
  2
WID_FlagNote
340
0
102
{BLKREFS
331
BD1
331
BD4
331
BE3
331
BE6
331
BE9
331
BEC
331
BEF
331
BF5
331
BFF
331
C02
331
C0B
331
C11
331
C17
331
C1A
331
D58
331
D5B
331
D67
331
D6D
102
}
  0
BLOCK_RECORD
  5
DD7
102
{ACAD_XDICTIONARY
360
F73
102
}
330
1
100
AcDbSymbolTableRecord
100
AcDbBlockTableRecord
  2
titleblock
340
0
102
{BLKREFS
331
DE5
102
}
  0
ENDTAB
  0
ENDSEC
  0
SECTION
  2
BLOCKS
  0
BLOCK
  5
3
330
2
100
AcDbEntity
  8
0
100
AcDbBlockBegin
  2
*Model_Space
 70
     0
 10
0.0
 20
0.0
 30
0.0
  3
*Model_Space
  1

  0
ENDBLK
  5
9
330
2
100
AcDbEntity
  8
0
100
AcDbBlockEnd
  0
BLOCK
  5
D
330
C
100
AcDbEntity
 67
     1
  8
0
100
AcDbBlockBegin
  2
*Paper_Space
 70
     0
 10
0.0
 20
0.0
 30
0.0
  3
*Paper_Space
  1

  0
ENDBLK
  5
E
330
C
100
AcDbEntity
 67
     1
  8
0
100
AcDbBlockEnd
  0
BLOCK
  5
BCF
330
BCC
100
AcDbEntity
  8
0
100
AcDbBlockBegin
  2
WID_FlagNote
 70
     2
 10
0.0
 20
0.0
 30
0.0
  3
WID_FlagNote
  1

  0
ATTDEF
  5
BCD
330
BCC
100
AcDbEntity
  8
0
100
AcDbText
 10
-0.1870932855699673
 20
-0.4039196952684445
 30
0.0
 40
0.5
  1
1
  7
WIDFlagNote
 72
     4
 11
0.0071427308011105
 21
-0.1528965029082807
 31
0.0
100
AcDbAttributeDefinition
  3
NUMBER
  2
NO.
 70
     0
  0
CIRCLE
  5
BCE
330
BCC
100
AcDbEntity
  8
0
100
AcDbCircle
 10
0.0071427308011105
 20
-0.1528965029082807
 30
0.0
 40
0.562531146117974
  0
ENDBLK
  5
BD0
330
BCC
100
AcDbEntity
  8
0
100
AcDbBlockEnd
  0
BLOCK
  5
DE3
330
DD7
100
AcDbEntity
  8
0
100
AcDbBlockBegin
  2
titleblock
 70
     2
 10
0.0
 20
0.0
 30
0.0
  3
titleblock
  1

  0
LWPOLYLINE
  5
DD8
330
DD7
100
AcDbEntity
  8
title
100
AcDbPolyline
 90
        4
 70
     1
 43
0.0
 10
0.0
 20
0.0
 10
16.48999999999999
 20
0.0000000000000001
 10
16.48999999999999
 20
10.44
 10
0.0
 20
10.44
  0
ATTDEF
  5
DD9
330
DD7
100
AcDbEntity
  8
title
100
AcDbText
 10
0.5055556038023421
 20
0.7842270964783673
 30
0.0
 40
0.2
  1
D
  7
L200
 72
     4
 11
0.6064423705144839
 21
0.8842270964783672
 31
0.0
100
AcDbAttributeDefinition
  3
#
  2
D
 70
     0
  0
ATTDEF
  5
DDA
330
DD7
100
AcDbEntity
  8
title
100
AcDbText
 10
1.231442370514484
 20
1.34371230274675
 30
0.0
 40
0.2
  1

  7
L200
100
AcDbAttributeDefinition
  3
DETAIL TITLE TOP LINE
  2
TITLE1
 70
     0
  0
ATTDEF
  5
DDB
330
DD7
100
AcDbEntity
  8
title
100
AcDbText
 10
1.231442370514484
 20
0.9842270964783674
 30
0.0
 40
0.2
  1
TITLE
  7
L200
100
AcDbAttributeDefinition
  3
DETAIL TITLE TOP 2ND LINE
  2
TITLE2
 70
     0
  0
ATTDEF
  5
DDC
330
DD7
100
AcDbEntity
  8
title
100
AcDbText
 10
2.713645751168312
 20
0.5927927664583189
 30
0.0
 40
0.2
  1
TITLE2
  7
L200
100
AcDbAttributeDefinition
  3
DETAIL TITLE BOTTOM 1
  2
TITLE3
 70
     0
  0
ATTDEF
  5
DDD
330
DD7
100
AcDbEntity
  8
title
100
AcDbText
 10
2.713645751168312
 20
0.2692560808167741
 30
0.0
 40
0.2
  1

  7
L200
100
AcDbAttributeDefinition
  3
DETAIL TITLE BOTTOM 2
  2
TITLE4
 70
     0
  0
ATTDEF
  5
DDE
330
DD7
100
AcDbEntity
  8
title
 62
     7
100
AcDbText
 10
8.177214829966379
 20
0.9696027915446398
 30
0.0
 40
0.08
  1
-
  7
L80
 72
     2
 11
8.261024353775903
 21
0.9696027915446398
 31
0.0
100
AcDbAttributeDefinition
  3
REVISION DATE
  2
REVISED
 70
     0
  0
ATTDEF
  5
DDF
330
DD7
100
AcDbEntity
  8
title
 62
     7
100
AcDbText
 10
0.2639423705144838
 20
0.0847116480207214
 30
0.0
 40
0.08
  1
-
  7
L80
100
AcDbAttributeDefinition
  3
DWG-NAME
  2
DWG-NAME
 70
     0
  0
LWPOLYLINE
  5
DE0
330
DD7
100
AcDbEntity
  8
title
 62
     3
100
AcDbPolyline
 90
        2
 70
     1
 43
0.03
 10
0.6064423705144839
 20
0.5417270964783675
 42
0.9999999999999998
 10
0.6064423705144839
 20
1.226727096478367
 42
0.9999999999999998
  0
ATTDEF
  5
DE1
330
DD7
100
AcDbEntity
  8
title
 62
     7
100
AcDbText
 10
1.231442370514484
 20
0.7005637793954894
 30
0.0
 40
0.1
  1
N.T.S.
  7
L100
100
AcDbAttributeDefinition
  3
SCALE
  2
SCALE
 70
     0
  0
LWPOLYLINE
  5
DE2
330
DD7
100
AcDbEntity
  8
title
 62
     3
100
AcDbPolyline
 90
        2
 70
     0
 43
0.04
 39
0.03
 10
0.9489423705144833
 20
0.8842270964783672
 10
8.261024353775903
 20
0.8842270964783672
  0
ENDBLK
  5
DE4
330
DD7
100
AcDbEntity
  8
0
100
AcDbBlockEnd
  0
ENDSEC
  0
SECTION
  2
ENTITIES
  0
ARC
  5
26
330
2
100
AcDbEntity
  8
image
100
AcDbCircle
 10
5.034752697700502
 20
6.755076781772899
 30
0.0
 40
0.3785710499999999
100
AcDbArc
 50
191.4302436995927
 51
228.7974911895485
  0
ARC
  5
28
330
2
100
AcDbEntity
  8
image
100
AcDbCircle
 10
5.034752697700502
 20
6.755076781772899
 30
0.0
 40
0.3785710499999999
100
AcDbArc
 50
311.4302436995928
 51
348.7974911895488
  0
ARC
  5
29
330
2
100
AcDbEntity
  8
image
100
AcDbCircle
 10
5.034752697700502
 20
6.755076781772899
 30
0.0
 40
0.3528567899999999
100
AcDbArc
 50
184.5396682798319
 51
235.68806660931
  0
ARC
  5
2A
330
2
100
AcDbEntity
  8
image
100
AcDbCircle
 10
5.034752697700502
 20
6.755076781772899
 30
0.0
 40
0.3528567899999999
100
AcDbArc
 50
304.5396682798317
 51
355.6880666093099
  0
LINE
  5
2B
330
2
100
AcDbEntity
  8
image
100
AcDbLine
 10
5.165518005358256
 20
6.494313500982443
 30
0.0
 11
5.034823106973894
 21
6.719648315737273
 31
0.0
  0
LINE
  5
2C
330
2
100
AcDbEntity
  8
image
100
AcDbLine
 10
5.196164752325534
 20
6.512088710219657
 30
0.0
 11
5.065469853941172
 21
6.737423524974506
 31
0.0
  0
LINE
  5
2D
330
2
100
AcDbEntity
  8
image
100
AcDbLine
 10
4.87430772599068
 20
6.511449063012364
 30
0.0
 11
5.004105950733238
 21
6.73730157253567
 31
0.0
  0
LINE
  5
2E
330
2
100
AcDbEntity
  8
image
100
AcDbLine
 10
4.905024882231336
 20
6.49379580621397
 30
0.0
 11
5.034823106973894
 21
6.719648315737273
 31
0.0
  0
ARC
  5
2F
330
2
100
AcDbEntity
  8
image
100
AcDbCircle
 10
5.034752697700502
 20
6.755076781772899
 30
0.0
 40
0.291713994
100
AcDbArc
 50
114.5856235096336
 51
66.00053121023929
  0
ARC
  5
30
330
2
100
AcDbEntity
  8
image
100
AcDbCircle
 10
4.787539904442615
 20
7.063708128227133
 30
0.0
 40
0.07428564
100
AcDbArc
 50
38.6946241630309
 51
218.6946241630309
  0
ARC
  5
31
330
2
100
AcDbEntity
  8
image
100
AcDbCircle
 10
5.034752697700502
 20
6.755076781772899
 30
0.0
 40
0.3528567899999999
100
AcDbArc
 50
133.1204249982903
 51
175.6880666093096
  0
ARC
  5
32
330
2
100
AcDbEntity
  8
image
100
AcDbCircle
 10
4.787539904442615
 20
7.063708128227133
 30
0.0
 40
0.06571422
100
AcDbArc
 50
38.6946241630309
 51
218.6946241630309
  0
CIRCLE
  5
33
330
2
100
AcDbEntity
  8
image
100
AcDbCircle
 10
5.430185189505712
 20
6.755862650243557
 30
0.0
 40
0.05142852
  0
LINE
  5
34
330
2
100
AcDbEntity
  8
image
100
AcDbLine
 10
5.277609597700507
 20
7.141875876311992
 30
0.0
 11
5.277609597700507
 21
7.160052068046716
 31
0.0
  0
LWPOLYLINE
  5
35
330
2
100
AcDbEntity
  8
image
100
AcDbPolyline
 90
        7
 70
     0
 43
0.0
 10
5.209896504469687
 20
7.199101291715281
 10
5.128805425934904
 20
7.339083682181112
 10
4.935948680697256
 20
7.338802649006286
 10
4.839763689947153
 20
7.171643291751877
 10
4.936435444434684
 20
7.004764967672315
 10
5.129292189672318
 20
7.005046000847144
 10
5.208737607967304
 20
7.143113748792331
  0
ARC
  5
36
330
2
100
AcDbEntity
  8
image
100
AcDbCircle
 10
5.032620435184787
 20
7.171924324926706
 30
0.0
 40
0.19285695
100
AcDbArc
 50
9.591194790102319
 51
352.6678373480148
  0
LINE
  5
37
330
2
100
AcDbEntity
  8
image
100
AcDbLine
 10
4.79189579770051
 20
7.137865949824956
 30
0.0
 11
4.79189579770051
 21
7.387219006772895
 31
0.0
  0
LINE
  5
38
330
2
100
AcDbEntity
  8
image
100
AcDbLine
 10
4.79189579770051
 20
7.387219006772895
 30
0.0
 11
5.277609597700509
 21
7.387219006772895
 31
0.0
  0
LINE
  5
39
330
2
100
AcDbEntity
  8
image
100
AcDbLine
 10
4.846895742700516
 20
7.387219006772895
 30
0.0
 11
4.846895742700516
 21
8.080387463498198
 31
0.0
  0
LINE
  5
3A
330
2
100
AcDbEntity
  8
image
100
AcDbLine
 10
5.034752697700517
 20
7.381592819968407
 30
0.0
 11
5.01241102762774
 21
7.363719483910188
 31
0.0
  0
LINE
  5
3B
330
2
100
AcDbEntity
  8
image
100
AcDbLine
 10
5.034752697700517
 20
7.381592819968407
 30
0.0
 11
5.057836666222035
 21
7.363125645151171
 31
0.0
  0
LINE
  5
3C
330
2
100
AcDbEntity
  8
image
100
AcDbLine
 10
5.222609652700503
 20
7.387219006772895
 30
0.0
 11
5.222609652700507
 21
8.080387463498198
 31
0.0
  0
LWPOLYLINE
  5
3D
330
2
100
AcDbEntity
  8
image
100
AcDbPolyline
 90
        7
 70
     0
 43
0.0
 10
5.187208969273319
 20
7.192666148366377
 10
5.115642183196746
 20
7.316207356276891
 10
4.949178538706481
 20
7.315964783446744
 10
4.866156790694523
 20
7.17168175209656
 10
4.949598687172828
 20
7.027641293576525
 10
5.116062331663107
 20
7.027883866406668
 10
5.177988820079816
 20
7.135505564137609
  0
LINE
  5
3E
330
2
100
AcDbEntity
  8
image
100
AcDbLine
 10
5.065399444667781
 20
6.772851991010131
 30
0.0
 11
5.195197669410339
 21
6.998704500533435
 31
0.0
  0
LINE
  5
3F
330
2
100
AcDbEntity
  8
image
100
AcDbLine
 10
5.034682288427125
 20
6.790505247808525
 30
0.0
 11
5.164480513169683
 21
7.016357757331832
 31
0.0
  0
LINE
  5
40
330
2
100
AcDbEntity
  8
image
100
AcDbLine
 10
5.325892567794715
 20
6.773369685778593
 30
0.0
 11
5.065399444667781
 21
6.772851991010131
 31
0.0
  0
LINE
  5
41
330
2
100
AcDbEntity
  8
image
100
AcDbLine
 10
5.325962977068106
 20
6.737941219742968
 30
0.0
 11
5.065469853941172
 21
6.737423524974506
 31
0.0
  0
LINE
  5
42
330
2
100
AcDbEntity
  8
image
100
AcDbLine
 10
5.004035541459847
 20
6.772730038571296
 30
0.0
 11
4.87334064307547
 21
6.998064853326127
 31
0.0
  0
LINE
  5
43
330
2
100
AcDbEntity
  8
image
100
AcDbLine
 10
5.034682288427125
 20
6.790505247808525
 30
0.0
 11
4.903987390042749
 21
7.015840062563356
 31
0.0
  0
LINE
  5
44
330
2
100
AcDbEntity
  8
image
100
AcDbLine
 10
4.845519034368654
 20
7.110149239359714
 30
0.0
 11
4.853706021265344
 21
7.099928244094726
 31
0.0
  0
ARC
  5
45
330
2
100
AcDbEntity
  8
image
100
AcDbCircle
 10
5.034752697700502
 20
6.755076781772899
 30
0.0
 40
0.3528567899999999
100
AcDbArc
 50
117.7336579011792
 51
124.268823327769
  0
CIRCLE
  5
46
330
2
100
AcDbEntity
  8
image
100
AcDbCircle
 10
4.787539904442615
 20
7.063708128227133
 30
0.0
 40
0.05142852
  0
LINE
  5
47
330
2
100
AcDbEntity
  8
image
100
AcDbLine
 10
4.73625067412343
 20
7.022625606840605
 30
0.0
 11
4.766727445780452
 21
6.984577061908428
 31
0.0
  0
LINE
  5
48
330
2
100
AcDbEntity
  8
image
100
AcDbLine
 10
4.8388291347618
 20
7.104790649613633
 30
0.0
 11
4.869305906418821
 21
7.066742104681452
 31
0.0
  0
LINE
  5
49
330
2
100
AcDbEntity
  8
image
100
AcDbLine
 10
4.806267176634738
 20
7.086030027118582
 30
0.0
 11
4.788427444349798
 21
7.071740454462403
 31
0.0
  0
LINE
  5
4A
330
2
100
AcDbEntity
  8
image
100
AcDbLine
 10
4.786652364535418
 20
7.055675801991853
 30
0.0
 11
4.768812632250492
 21
7.041386229335671
 31
0.0
  0
LINE
  5
4B
330
2
100
AcDbEntity
  8
image
100
AcDbLine
 10
4.779507578207335
 20
7.064595668134316
 30
0.0
 11
4.761667845922394
 21
7.050306095478138
 31
0.0
  0
LINE
  5
4C
330
2
100
AcDbEntity
  8
image
100
AcDbLine
 10
4.813411962962836
 20
7.077110160976118
 30
0.0
 11
4.795572230677896
 21
7.062820588319937
 31
0.0
  0
LINE
  5
4D
330
2
100
AcDbEntity
  8
image
100
AcDbLine
 10
4.8009419371916
 20
7.037836069706916
 30
0.0
 11
4.786652364535418
 21
7.055675801991853
 31
0.0
  0
LINE
  5
4E
330
2
100
AcDbEntity
  8
image
100
AcDbLine
 10
4.779507578207335
 20
7.064595668134316
 30
0.0
 11
4.765218005551153
 21
7.08243540041926
 31
0.0
  0
LINE
  5
4F
330
2
100
AcDbEntity
  8
image
100
AcDbLine
 10
4.809861803334078
 20
7.04498085603501
 30
0.0
 11
4.795572230677896
 21
7.062820588319937
 31
0.0
  0
LINE
  5
50
330
2
100
AcDbEntity
  8
image
100
AcDbLine
 10
4.788427444349798
 20
7.071740454462403
 30
0.0
 11
4.77413787169363
 21
7.08958018674734
 31
0.0
  0
LINE
  5
51
330
2
100
AcDbEntity
  8
image
100
AcDbLine
 10
4.809861803334078
 20
7.04498085603501
 30
0.0
 11
4.8009419371916
 21
7.037836069706916
 31
0.0
  0
LINE
  5
52
330
2
100
AcDbEntity
  8
image
100
AcDbLine
 10
4.768812632250492
 20
7.041386229335671
 30
0.0
 11
4.761667845922394
 21
7.050306095478138
 31
0.0
  0
LINE
  5
53
330
2
100
AcDbEntity
  8
image
100
AcDbLine
 10
4.765218005551153
 20
7.08243540041926
 30
0.0
 11
4.77413787169363
 21
7.08958018674734
 31
0.0
  0
LINE
  5
54
330
2
100
AcDbEntity
  8
image
100
AcDbLine
 10
4.813411962962836
 20
7.077110160976118
 30
0.0
 11
4.806267176634738
 21
7.086030027118582
 31
0.0
  0
TEXT
  5
55
330
2
100
AcDbEntity
  8
image
100
AcDbText
 10
4.921349573973605
 20
6.840428540762079
 30
0.0
 40
0.0309853983026941
  1
OFF
 50
141.7356063178646
  7
ARIAL
100
AcDbText
  0
LINE
  5
56
330
2
100
AcDbEntity
  8
image
100
AcDbLine
 10
4.914684963188326
 20
6.798111966922235
 30
0.0
 11
4.935789648794246
 21
6.841298355851254
 31
0.0
  0
LINE
  5
57
330
2
100
AcDbEntity
  8
image
100
AcDbLine
 10
4.888154596765025
 20
6.907046176642381
 30
0.0
 11
4.870948027149756
 21
6.892798490295476
 31
0.0
  0
LINE
  5
58
330
2
100
AcDbEntity
  8
image
100
AcDbLine
 10
4.817816836353435
 20
6.918810375558937
 30
0.0
 11
4.888154596765025
 21
6.907046176642381
 31
0.0
  0
LINE
  5
59
330
2
100
AcDbEntity
  8
image
100
AcDbLine
 10
4.817816836353435
 20
6.918810375558937
 30
0.0
 11
4.816937620479526
 21
6.847501022067874
 31
0.0
  0
ARC
  5
5A
330
2
100
AcDbEntity
  8
image
100
AcDbCircle
 10
5.020350924201315
 20
7.014335575938503
 30
0.0
 40
0.1925941038401695
100
AcDbArc
 50
219.127853238955
 51
243.9557784742147
  0
ARC
  5
5B
330
2
100
AcDbEntity
  8
image
100
AcDbCircle
 10
5.020350924201315
 20
7.014335575938503
 30
0.0
 40
0.2406614726390981
100
AcDbArc
 50
219.2818494222607
 51
243.9557784742147
  0
LINE
  5
5C
330
2
100
AcDbEntity
  8
image
100
AcDbLine
 10
4.816937620479526
 20
6.847501022067874
 30
0.0
 11
4.834069121073673
 21
6.861964206461394
 31
0.0
  0
ARC
  5
5D
330
2
100
AcDbEntity
  8
image
100
AcDbCircle
 10
5.034752697700502
 20
6.755076781772899
 30
0.0
 40
0.10714275
100
AcDbArc
 50
129.6304664655075
 51
170.5972684236357
  0
ARC
  5
5E
330
2
100
AcDbEntity
  8
image
100
AcDbCircle
 10
5.034752697700502
 20
6.755076781772899
 30
0.0
 40
0.10714275
100
AcDbArc
 50
189.6304664655087
 51
230.5972684236351
  0
ARC
  5
5F
330
2
100
AcDbEntity
  8
image
100
AcDbCircle
 10
5.034752697700502
 20
6.755076781772899
 30
0.0
 40
0.10714275
100
AcDbArc
 50
249.6304664655061
 51
290.5972684236341
  0
LINE
  5
60
330
2
100
AcDbEntity
  8
image
100
AcDbLine
 10
5.004105950733238
 20
6.73730157253567
 30
0.0
 11
4.743612827606304
 21
6.736783877767194
 31
0.0
  0
LINE
  5
61
330
2
100
AcDbEntity
  8
image
100
AcDbLine
 10
5.004035541459847
 20
6.772730038571296
 30
0.0
 11
4.743542418332912
 21
6.77221234380282
 31
0.0
  0
CIRCLE
  5
62
330
2
100
AcDbEntity
  8
image
100
AcDbCircle
 10
5.034752697700502
 20
6.755076781772899
 30
0.0
 40
0.0354285360000007
  0
ARC
  5
63
330
2
100
AcDbEntity
  8
image
100
AcDbCircle
 10
5.034752697700502
 20
6.755076781772899
 30
0.0
 40
0.10714275
100
AcDbArc
 50
69.63046646550613
 51
110.5972684236341
  0
ARC
  5
64
330
2
100
AcDbEntity
  8
image
100
AcDbCircle
 10
5.034752697700502
 20
6.755076781772899
 30
0.0
 40
0.3785710499999999
100
AcDbArc
 50
11.43024369959235
 51
40.89830281092754
  0
ARC
  5
65
330
2
100
AcDbEntity
  8
image
100
AcDbCircle
 10
5.034752697700502
 20
6.755076781772899
 30
0.0
 40
0.3528567899999999
100
AcDbArc
 50
4.539668279829967
 51
47.78887823068956
  0
LINE
  5
68
330
2
100
AcDbEntity
  8
image
100
AcDbLine
 10
5.335745315459012
 20
7.022077294000155
 30
0.0
 11
5.320904281213435
 21
7.002934222958643
 31
0.0
  0
ARC
  5
69
330
2
100
AcDbEntity
  8
image
100
AcDbCircle
 10
5.277036481846186
 20
7.067592447147561
 30
0.0
 40
0.07428564
100
AcDbArc
 50
322.2146790659497
 51
147.4478151533969
  0
ARC
  5
108
330
2
100
AcDbEntity
  8
image
100
AcDbCircle
 10
5.034752697700502
 20
6.755076781772899
 30
0.0
 40
0.3528567899999999
100
AcDbArc
 50
56.64047990120985
 51
62.85249681869322
  0
CIRCLE
  5
109
330
2
100
AcDbEntity
  8
image
100
AcDbCircle
 10
5.277036481846186
 20
7.067592447147561
 30
0.0
 40
0.05142852
  0
LINE
  5
10A
330
2
100
AcDbEntity
  8
image
100
AcDbLine
 10
5.225101744419481
 20
7.107855851854878
 30
0.0
 11
5.195232628552551
 21
7.069328442138967
 31
0.0
  0
LINE
  5
10B
330
2
100
AcDbEntity
  8
image
100
AcDbLine
 10
5.32897121927292
 20
7.027329042440246
 30
0.0
 11
5.29910210340599
 21
6.988801632724321
 31
0.0
  0
ARC
  5
10C
330
2
100
AcDbEntity
  8
image
100
AcDbCircle
 10
5.277036481846186
 20
7.067592447147561
 30
0.0
 40
0.06571422
100
AcDbArc
 50
322.2146790659497
 51
142.2146790659497
  0
LINE
  5
10D
330
2
100
AcDbEntity
  8
image
100
AcDbLine
 10
5.303117968093237
 20
7.054602683138
 30
0.0
 11
5.285053711596978
 21
7.068607345644906
 31
0.0
  0
LINE
  5
10E
330
2
100
AcDbEntity
  8
image
100
AcDbLine
 10
5.269019252095409
 20
7.066577548650229
 30
0.0
 11
5.250954995599149
 21
7.080582211157125
 31
0.0
  0
LINE
  5
10F
330
2
100
AcDbEntity
  8
image
100
AcDbLine
 10
5.276021583348855
 20
7.075609676898352
 30
0.0
 11
5.25795732685261
 21
7.089614339405247
 31
0.0
  0
LINE
  5
110
330
2
100
AcDbEntity
  8
image
100
AcDbLine
 10
5.296115636839791
 20
7.045570554889877
 30
0.0
 11
5.278051380343532
 21
7.059575217396773
 31
0.0
  0
LINE
  5
111
330
2
100
AcDbEntity
  8
image
100
AcDbLine
 10
5.255014589588517
 20
7.04851329215397
 30
0.0
 11
5.269019252095409
 21
7.066577548650229
 31
0.0
  0
LINE
  5
112
330
2
100
AcDbEntity
  8
image
100
AcDbLine
 10
5.276021583348855
 20
7.075609676898352
 30
0.0
 11
5.290026245855747
 21
7.093673933394597
 31
0.0
  0
LINE
  5
113
330
2
100
AcDbEntity
  8
image
100
AcDbLine
 10
5.26404671783664
 20
7.041510960900527
 30
0.0
 11
5.278051380343532
 21
7.059575217396773
 31
0.0
  0
LINE
  5
114
330
2
100
AcDbEntity
  8
image
100
AcDbLine
 10
5.285053711596978
 20
7.068607345644906
 30
0.0
 11
5.299058374103884
 21
7.086671602141151
 31
0.0
  0
LINE
  5
115
330
2
100
AcDbEntity
  8
image
100
AcDbLine
 10
5.26404671783664
 20
7.041510960900527
 30
0.0
 11
5.255014589588517
 21
7.04851329215397
 31
0.0
  0
LINE
  5
116
330
2
100
AcDbEntity
  8
image
100
AcDbLine
 10
5.250954995599149
 20
7.080582211157125
 30
0.0
 11
5.25795732685261
 21
7.089614339405247
 31
0.0
  0
LINE
  5
117
330
2
100
AcDbEntity
  8
image
100
AcDbLine
 10
5.290026245855747
 20
7.093673933394597
 30
0.0
 11
5.299058374103884
 21
7.086671602141151
 31
0.0
  0
LINE
  5
118
330
2
100
AcDbEntity
  8
image
100
AcDbLine
 10
5.296115636839791
 20
7.045570554889877
 30
0.0
 11
5.303117968093237
 21
7.054602683138
 31
0.0
  0
TEXT
  5
119
330
2
100
AcDbEntity
  8
image
100
AcDbText
 10
5.213425207910907
 20
6.886389518815949
 30
0.0
 40
0.0309853983026941
  1
ON
 50
222.2839090722839
  7
ARIAL
100
AcDbText
  0
LINE
  5
11A
330
2
100
AcDbEntity
  8
image
100
AcDbLine
 10
5.25424222624189
 20
6.843450957410155
 30
0.0
 11
5.237381540745735
 21
6.858228957951755
 31
0.0
  0
LINE
  5
11B
330
2
100
AcDbEntity
  8
image
100
AcDbLine
 10
5.254683900632974
 20
6.91476436315969
 30
0.0
 11
5.25424222624189
 21
6.843450957410155
 31
0.0
  0
LINE
  5
11C
330
2
100
AcDbEntity
  8
image
100
AcDbLine
 10
5.184140317644226
 20
6.904304926512541
 30
0.0
 11
5.201080050581145
 21
6.889740996679222
 31
0.0
  0
LINE
  5
11D
330
2
100
AcDbEntity
  8
image
100
AcDbLine
 10
5.254683900632974
 20
6.91476436315969
 30
0.0
 11
5.184140317644226
 21
6.904304926512541
 31
0.0
  0
LINE
  5
11E
330
2
100
AcDbEntity
  8
image
100
AcDbLine
 10
5.15559690267141
 20
6.795880778595233
 30
0.0
 11
5.135295703786942
 21
6.839450645098427
 31
0.0
  0
ARC
  5
11F
330
2
100
AcDbEntity
  8
image
100
AcDbCircle
 10
5.053953801708038
 20
7.014024365343434
 30
0.0
 40
0.1925941038401695
100
AcDbArc
 50
294.982970515579
 51
319.8108957508388
  0
ARC
  5
120
330
2
100
AcDbEntity
  8
image
100
AcDbCircle
 10
5.053953801708038
 20
7.014024365343434
 30
0.0
 40
0.2406614726390981
100
AcDbArc
 50
294.982970515579
 51
319.656899567533
  0
LINE
  5
121
330
2
100
AcDbEntity
  8
image
100
AcDbLine
 10
5.430332821853133
 20
6.681577156943067
 30
0.0
 11
5.406110700783875
 21
6.6815290187611
 31
0.0
  0
LINE
  5
122
330
2
100
AcDbEntity
  8
image
100
AcDbLine
 10
5.430037557158277
 20
6.830148143544079
 30
0.0
 11
5.405815436089019
 21
6.830100005362112
 31
0.0
  0
ARC
  5
123
330
2
100
AcDbEntity
  8
image
100
AcDbCircle
 10
5.20090398783754
 20
6.658040039326781
 30
0.0
 40
0.0714285
100
AcDbArc
 50
195.368358167844
 51
254.631641832156
  0
ARC
  5
124
330
2
100
AcDbEntity
  8
image
100
AcDbCircle
 10
5.20090398783754
 20
6.658040039326781
 30
0.0
 40
0.0714285
100
AcDbArc
 50
105.398678254182
 51
164.6013217458179
  0
ARC
  5
125
330
2
100
AcDbEntity
  8
image
100
AcDbCircle
 10
5.20090398783754
 20
6.658040039326781
 30
0.0
 40
0.0714285
100
AcDbArc
 50
15.38192117103866
 51
74.61807882896131
  0
ARC
  5
126
330
2
100
AcDbEntity
  8
image
100
AcDbCircle
 10
5.20090398783754
 20
6.652827006295851
 30
0.0
 40
0.0255944712389982
100
AcDbArc
 50
190.7795613320426
 51
349.2204386679534
  0
ARC
  5
127
330
2
100
AcDbEntity
  8
image
100
AcDbCircle
 10
5.20090398783754
 20
6.663424519985468
 30
0.0
 40
0.0255629600684277
100
AcDbArc
 50
10.40206377549104
 51
169.5979362245071
  0
LINE
  5
128
330
2
100
AcDbEntity
  8
image
100
AcDbLine
 10
5.175761155837539
 20
6.668040029326789
 30
0.0
 11
5.158046887837533
 21
6.668040029326789
 31
0.0
  0
LINE
  5
129
330
2
100
AcDbEntity
  8
image
100
AcDbLine
 10
5.175761155837539
 20
6.64804004932678
 30
0.0
 11
5.158046887837533
 21
6.64804004932678
 31
0.0
  0
LINE
  5
12A
330
2
100
AcDbEntity
  8
image
100
AcDbLine
 10
5.243761087837532
 20
6.668040029326789
 30
0.0
 11
5.22604681983754
 21
6.668040029326789
 31
0.0
  0
LINE
  5
12B
330
2
100
AcDbEntity
  8
image
100
AcDbLine
 10
5.243761087837532
 20
6.64804004932678
 30
0.0
 11
5.22604681983754
 21
6.64804004932678
 31
0.0
  0
LINE
  5
12C
330
2
100
AcDbEntity
  8
image
100
AcDbLine
 10
5.158046887837533
 20
6.64804004932678
 30
0.0
 11
5.158046887837533
 21
6.668040029326789
 31
0.0
  0
LINE
  5
12D
330
2
100
AcDbEntity
  8
image
100
AcDbLine
 10
5.243761087837532
 20
6.668040029326789
 30
0.0
 11
5.243761087837532
 21
6.64804004932678
 31
0.0
  0
ARC
  5
12E
330
2
100
AcDbEntity
  8
image
100
AcDbCircle
 10
5.106758858516647
 20
6.563894910005899
 30
0.0
 40
0.0793466534212069
100
AcDbArc
 50
13.96242951831129
 51
76.03757048168716
  0
ARC
  5
12F
330
2
100
AcDbEntity
  8
image
100
AcDbCircle
 10
5.106182046825798
 20
6.752761980338519
 30
0.0
 40
0.0800467040505458
100
AcDbArc
 50
284.2634826608927
 51
345.7365173391074
  0
ARC
  5
130
330
2
100
AcDbEntity
  8
image
100
AcDbCircle
 10
5.29428484519075
 20
6.564659181973567
 30
0.0
 40
0.078422534797866
100
AcDbArc
 50
103.5552731076238
 51
166.4447268923759
  0
ARC
  5
131
330
2
100
AcDbEntity
  8
image
100
AcDbCircle
 10
5.295306336367962
 20
6.752442387857215
 30
0.0
 40
0.0796585569616851
100
AcDbArc
 50
194.0973326192699
 51
255.9026673807312
  0
LINE
  5
132
330
2
100
AcDbEntity
  8
image
100
AcDbLine
 10
5.125904062837525
 20
6.640897199326786
 30
0.0
 11
5.125904062837525
 21
6.675182879326783
 31
0.0
  0
LINE
  5
133
330
2
100
AcDbEntity
  8
image
100
AcDbLine
 10
5.27590391283754
 20
6.675182879326783
 30
0.0
 11
5.27590391283754
 21
6.640897199326786
 31
0.0
  0
LINE
  5
134
330
2
100
AcDbEntity
  8
image
100
AcDbLine
 10
5.218046827837531
 20
6.583040114326777
 30
0.0
 11
5.183761147837534
 21
6.583040114326777
 31
0.0
  0
LINE
  5
135
330
2
100
AcDbEntity
  8
image
100
AcDbLine
 10
5.183761147837534
 20
6.733039964326778
 30
0.0
 11
5.218046827837531
 21
6.733039964326778
 31
0.0
  0
ARC
  5
136
330
2
100
AcDbEntity
  8
image
100
AcDbCircle
 10
5.20090398783754
 20
6.658040039326781
 30
0.0
 40
0.0714285
100
AcDbArc
 50
285.3276516595353
 51
344.6723483404647
  0
LINE
  5
137
330
2
100
AcDbEntity
  8
image
100
AcDbLine
 10
5.430054591659915
 20
6.821576740470934
 30
0.0
 11
5.381305068628796
 21
6.821479857402639
 31
0.0
  0
LINE
  5
138
330
2
100
AcDbEntity
  8
image
100
AcDbLine
 10
5.430315787351508
 20
6.690148560016197
 30
0.0
 11
5.381566264320388
 21
6.690051676947902
 31
0.0
  0
LINE
  5
139
330
2
100
AcDbEntity
  8
image
100
AcDbLine
 10
5.401602489594173
 20
6.761520137286911
 30
0.0
 11
5.424459564455863
 21
6.761565562624568
 31
0.0
  0
LINE
  5
13A
330
2
100
AcDbEntity
  8
image
100
AcDbLine
 10
5.40162520226301
 20
6.750091599856066
 30
0.0
 11
5.424482277124701
 21
6.750137025193723
 31
0.0
  0
LINE
  5
13B
330
2
100
AcDbEntity
  8
image
100
AcDbLine
 10
5.40162520226301
 20
6.750091599856066
 30
0.0
 11
5.401602489594173
 21
6.761520137286911
 31
0.0
  0
ARC
  5
13C
330
2
100
AcDbEntity
  8
image
100
AcDbCircle
 10
5.034752697700502
 20
6.755076781772899
 30
0.0
 40
0.10714275
100
AcDbArc
 50
309.6304664655075
 51
350.5972684236336
  0
ARC
  5
13D
330
2
100
AcDbEntity
  8
image
100
AcDbCircle
 10
5.034752697700502
 20
6.755076781772899
 30
0.0
 40
0.10714275
100
AcDbArc
 50
9.630466465505611
 51
50.5972684236351
  0
LINE
  5
13E
330
2
100
AcDbEntity
  8
image
100
AcDbLine
 10
5.071895517700516
 20
6.202745539701538
 30
0.0
 11
5.106181197700513
 21
6.202745539701538
 31
0.0
  0
LINE
  5
13F
330
2
100
AcDbEntity
  8
image
100
AcDbLine
 10
5.034752697700517
 20
6.259888339701532
 30
0.0
 11
5.106181197700513
 21
6.202745539701538
 31
0.0
  0
ARC
  5
140
330
2
100
AcDbEntity
  8
image
100
AcDbCircle
 10
5.034752697700502
 20
6.755076781772899
 30
0.0
 40
0.3785710499999999
100
AcDbArc
 50
251.4302436995921
 51
288.7974911895495
  0
ARC
  5
141
330
2
100
AcDbEntity
  8
image
100
AcDbCircle
 10
5.034752697700502
 20
6.755076781772899
 30
0.0
 40
0.3528567899999999
100
AcDbArc
 50
244.5396682798313
 51
295.6880666093101
  0
LINE
  5
142
330
2
100
AcDbEntity
  8
image
100
AcDbLine
 10
5.071895517700516
 20
6.131317039701528
 30
0.0
 11
5.071895517700516
 21
6.202745539701538
 31
0.0
  0
LINE
  5
143
330
2
100
AcDbEntity
  8
image
100
AcDbLine
 10
4.997609877700503
 20
6.131317039701528
 30
0.0
 11
4.997609877700503
 21
6.202745539701538
 31
0.0
  0
LINE
  5
144
330
2
100
AcDbEntity
  8
image
100
AcDbLine
 10
4.79189579770051
 20
6.353759009943601
 30
0.0
 11
4.79189579770051
 21
6.122934556772893
 31
0.0
  0
TEXT
  5
145
330
2
100
AcDbEntity
  8
image
100
AcDbText
 10
5.018708497514387
 20
6.233088020744432
 30
0.0
 40
0.0309853983026941
  1
FLOW
 50
270.0
 41
0.75
  7
ARIAL
100
AcDbText
  0
LINE
  5
146
330
2
100
AcDbEntity
  8
image
100
AcDbLine
 10
5.034752697700517
 20
6.259888339701532
 30
0.0
 11
4.963324197700506
 21
6.202745539701538
 31
0.0
  0
LINE
  5
147
330
2
100
AcDbEntity
  8
image
100
AcDbLine
 10
4.997609877700503
 20
6.202745539701538
 30
0.0
 11
4.963324197700506
 21
6.202745539701538
 31
0.0
  0
LINE
  5
148
330
2
100
AcDbEntity
  8
image
100
AcDbLine
 10
4.773310093352938
 20
6.449244157439451
 30
0.0
 11
4.785379464999101
 21
6.470245198709946
 31
0.0
  0
ARC
  5
149
330
2
100
AcDbEntity
  8
image
100
AcDbCircle
 10
4.837717033857535
 20
6.412229264152486
 30
0.0
 40
0.07428564
100
AcDbArc
 50
150.1138674445706
 51
330.1138674445706
  0
LINE
  5
14A
330
2
100
AcDbEntity
  8
image
100
AcDbLine
 10
4.902123974362146
 20
6.375214370865521
 30
0.0
 11
4.914193346008309
 21
6.396215412136015
 31
0.0
  0
LINE
  5
14B
330
2
100
AcDbEntity
  8
image
100
AcDbLine
 10
4.829915354335104
 20
6.410122183597266
 30
0.0
 11
4.818526156400656
 21
6.390304663442009
 31
0.0
  0
LINE
  5
14C
330
2
100
AcDbEntity
  8
image
100
AcDbLine
 10
4.83982411441274
 20
6.404427584630045
 30
0.0
 11
4.828434916478292
 21
6.384610064474784
 31
0.0
  0
LINE
  5
14D
330
2
100
AcDbEntity
  8
image
100
AcDbLine
 10
4.845518713379979
 20
6.414336344707677
 30
0.0
 11
4.865336233535236
 21
6.402947146773229
 31
0.0
  0
LINE
  5
14E
330
2
100
AcDbEntity
  8
image
100
AcDbLine
 10
4.83982411441274
 20
6.404427584630056
 30
0.0
 11
4.859641634568012
 21
6.393038386695607
 31
0.0
  0
LINE
  5
14F
330
2
100
AcDbEntity
  8
image
100
AcDbLine
 10
4.856907911314428
 20
6.434153864862949
 30
0.0
 11
4.845518713379979
 21
6.414336344707677
 31
0.0
  0
LINE
  5
150
330
2
100
AcDbEntity
  8
image
100
AcDbLine
 10
4.846999151236792
 20
6.439848463830173
 30
0.0
 11
4.835609953302343
 21
6.420030943674905
 31
0.0
  0
LINE
  5
151
330
2
100
AcDbEntity
  8
image
100
AcDbLine
 10
4.815792433147072
 20
6.431420141609365
 30
0.0
 11
4.835609953302343
 21
6.420030943674905
 31
0.0
  0
LINE
  5
152
330
2
100
AcDbEntity
  8
image
100
AcDbLine
 10
4.810097834179847
 20
6.421511381531729
 30
0.0
 11
4.829915354335104
 21
6.410122183597284
 31
0.0
  0
LINE
  5
153
330
2
100
AcDbEntity
  8
image
100
AcDbLine
 10
4.815792433147072
 20
6.431420141609365
 30
0.0
 11
4.810097834179847
 21
6.421511381531729
 31
0.0
  0
LINE
  5
154
330
2
100
AcDbEntity
  8
image
100
AcDbLine
 10
4.865336233535236
 20
6.402947146773229
 30
0.0
 11
4.859641634568012
 21
6.393038386695607
 31
0.0
  0
LINE
  5
155
330
2
100
AcDbEntity
  8
image
100
AcDbLine
 10
4.846999151236792
 20
6.439848463830173
 30
0.0
 11
4.856907911314428
 21
6.434153864862949
 31
0.0
  0
LINE
  5
156
330
2
100
AcDbEntity
  8
image
100
AcDbLine
 10
4.828434916478292
 20
6.384610064474784
 30
0.0
 11
4.818526156400656
 21
6.390304663442009
 31
0.0
  0
LINE
  5
157
330
2
100
AcDbEntity
  8
image
100
AcDbLine
 10
4.780741663411154
 20
6.444973208214022
 30
0.0
 11
4.805032521728369
 21
6.487239975115503
 31
0.0
  0
LINE
  5
158
330
2
100
AcDbEntity
  8
image
100
AcDbLine
 10
4.894692404303929
 20
6.379485320090939
 30
0.0
 11
4.918983262621145
 21
6.421752086992398
 31
0.0
  0
ARC
  5
159
330
2
100
AcDbEntity
  8
image
100
AcDbCircle
 10
4.837717033857535
 20
6.412229264152486
 30
0.0
 40
0.06571422
100
AcDbArc
 50
150.1138674445706
 51
330.1138674445706
  0
CIRCLE
  5
15A
330
2
100
AcDbEntity
  8
image
100
AcDbCircle
 10
4.837717033857535
 20
6.412229264152486
 30
0.0
 40
0.05142852
  0
LINE
  5
15B
330
2
100
AcDbEntity
  8
image
100
AcDbLine
 10
5.277609597700509
 20
6.353503299307362
 30
0.0
 11
5.277609597700509
 21
6.122934556772893
 31
0.0
  0
LINE
  5
15C
330
2
100
AcDbEntity
  8
image
100
AcDbLine
 10
5.168890217505554
 20
6.375744532609619
 30
0.0
 11
5.156737468082459
 21
6.396697435698147
 31
0.0
  0
ARC
  5
15D
330
2
100
AcDbEntity
  8
image
100
AcDbCircle
 10
5.233149525662744
 20
6.413015132623147
 30
0.0
 40
0.07428564
100
AcDbArc
 50
210.1138674445706
 51
30.1138674445706
  0
LINE
  5
15E
330
2
100
AcDbEntity
  8
image
100
AcDbLine
 10
5.29740883381992
 20
6.4502857326367
 30
0.0
 11
5.285256084396825
 21
6.471238635725228
 31
0.0
  0
CIRCLE
  5
15F
330
2
100
AcDbEntity
  8
image
100
AcDbCircle
 10
5.233149525662744
 20
6.413015132623147
 30
0.0
 40
0.05142852
  0
LINE
  5
160
330
2
100
AcDbEntity
  8
image
100
AcDbLine
 10
5.289994298263328
 20
6.445985278788985
 30
0.0
 11
5.265535633549424
 21
6.488155162622149
 31
0.0
  0
LINE
  5
161
330
2
100
AcDbEntity
  8
image
100
AcDbLine
 10
5.176304753062145
 20
6.38004498645732
 30
0.0
 11
5.151846088348255
 21
6.422214870290506
 31
0.0
  0
ARC
  5
162
330
2
100
AcDbEntity
  8
image
100
AcDbCircle
 10
5.233149525662744
 20
6.413015132623147
 30
0.0
 40
0.06571422
100
AcDbArc
 50
210.1138674445706
 51
30.1138674445706
  0
LINE
  5
163
330
2
100
AcDbEntity
  8
image
100
AcDbLine
 10
5.211301376372551
 20
6.3937372627597
 30
0.0
 11
5.231073471190148
 21
6.405205139686941
 31
0.0
  0
LINE
  5
164
330
2
100
AcDbEntity
  8
image
100
AcDbLine
 10
5.235225580135326
 20
6.42082512555936
 30
0.0
 11
5.254997674952923
 21
6.432293002486606
 31
0.0
  0
LINE
  5
165
330
2
100
AcDbEntity
  8
image
100
AcDbLine
 10
5.240959518598947
 20
6.410939078150565
 30
0.0
 11
5.260731613416544
 21
6.422406955077804
 31
0.0
  0
LINE
  5
166
330
2
100
AcDbEntity
  8
image
100
AcDbLine
 10
5.20556743790893
 20
6.403623310168498
 30
0.0
 11
5.225339532726527
 21
6.41509118709574
 31
0.0
  0
LINE
  5
167
330
2
100
AcDbEntity
  8
image
100
AcDbLine
 10
5.223757703208084
 20
6.440597220376957
 30
0.0
 11
5.235225580135326
 21
6.42082512555936
 31
0.0
  0
LINE
  5
168
330
2
100
AcDbEntity
  8
image
100
AcDbLine
 10
5.240959518598961
 20
6.410939078150565
 30
0.0
 11
5.252427395526188
 21
6.391166983332968
 31
0.0
  0
LINE
  5
169
330
2
100
AcDbEntity
  8
image
100
AcDbLine
 10
5.213871655799286
 20
6.434863281913337
 30
0.0
 11
5.225339532726527
 21
6.41509118709574
 31
0.0
  0
LINE
  5
16A
330
2
100
AcDbEntity
  8
image
100
AcDbLine
 10
5.231073471190148
 20
6.405205139686927
 30
0.0
 11
5.24254134811739
 21
6.385433044869344
 31
0.0
  0
LINE
  5
16B
330
2
100
AcDbEntity
  8
image
100
AcDbLine
 10
5.213871655799286
 20
6.434863281913337
 30
0.0
 11
5.223757703208084
 21
6.440597220376957
 31
0.0
  0
LINE
  5
16C
330
2
100
AcDbEntity
  8
image
100
AcDbLine
 10
5.254997674952923
 20
6.432293002486606
 30
0.0
 11
5.260731613416544
 21
6.422406955077804
 31
0.0
  0
LINE
  5
16D
330
2
100
AcDbEntity
  8
image
100
AcDbLine
 10
5.252427395526188
 20
6.391166983332968
 30
0.0
 11
5.24254134811739
 21
6.385433044869344
 31
0.0
  0
LINE
  5
16E
330
2
100
AcDbEntity
  8
image
100
AcDbLine
 10
5.20556743790893
 20
6.403623310168498
 30
0.0
 11
5.211301376372551
 21
6.3937372627597
 31
0.0
  0
ARC
  5
16F
102
{ACAD_REACTORS
330
C16
102
}
330
2
100
AcDbEntity
  8
image
100
AcDbCircle
 10
5.034752697700502
 20
6.755076781772899
 30
0.0
 40
0.3785710499999999
100
AcDbArc
 50
140.0110004180524
 51
168.7974911895491
  0
LINE
  5
170
330
2
100
AcDbEntity
  8
image
100
AcDbLine
 10
4.639172573547886
 20
6.828576406602735
 30
0.0
 11
4.663394694617144
 21
6.828624544784688
 31
0.0
  0
ARC
  5
171
330
2
100
AcDbEntity
  8
image
100
AcDbCircle
 10
4.639320205895307
 20
6.754290913302227
 30
0.0
 40
0.07428564
100
AcDbArc
 50
90.11386744457057
 51
270.1138674445705
  0
LINE
  5
172
330
2
100
AcDbEntity
  8
image
100
AcDbLine
 10
4.639467838242742
 20
6.680005420001723
 30
0.0
 11
4.663689959311986
 21
6.680053558183672
 31
0.0
  0
CIRCLE
  5
173
330
2
100
AcDbEntity
  8
image
100
AcDbCircle
 10
4.639320205895307
 20
6.754290913302227
 30
0.0
 40
0.05142852
  0
LINE
  5
174
330
2
100
AcDbEntity
  8
image
100
AcDbLine
 10
4.639450803741103
 20
6.688576823074853
 30
0.0
 11
4.688200326772223
 21
6.688673706143163
 31
0.0
  0
LINE
  5
175
330
2
100
AcDbEntity
  8
image
100
AcDbLine
 10
4.639189608049511
 20
6.820005003529601
 30
0.0
 11
4.68793913108063
 21
6.820101886597896
 31
0.0
  0
ARC
  5
176
330
2
100
AcDbEntity
  8
image
100
AcDbCircle
 10
4.639320205895307
 20
6.754290913302227
 30
0.0
 40
0.06571422
100
AcDbArc
 50
90.11386744457057
 51
270.1138674445705
  0
LINE
  5
177
330
2
100
AcDbEntity
  8
image
100
AcDbLine
 10
4.633549155507799
 20
6.782850900544929
 30
0.0
 11
4.633594580845473
 21
6.759993825683238
 31
0.0
  0
LINE
  5
178
330
2
100
AcDbEntity
  8
image
100
AcDbLine
 10
4.645045830945155
 20
6.74858800092122
 30
0.0
 11
4.64509125628283
 21
6.725730926059529
 31
0.0
  0
LINE
  5
179
330
2
100
AcDbEntity
  8
image
100
AcDbLine
 10
4.63361729351431
 20
6.748565288252393
 30
0.0
 11
4.633662718851971
 21
6.725708213390703
 31
0.0
  0
LINE
  5
17A
330
2
100
AcDbEntity
  8
image
100
AcDbLine
 10
4.644977692938658
 20
6.782873613213766
 30
0.0
 11
4.645023118276318
 21
6.760016538352076
 31
0.0
  0
LINE
  5
17B
330
2
100
AcDbEntity
  8
image
100
AcDbLine
 10
4.667902905806846
 20
6.748633426258891
 30
0.0
 11
4.645045830945155
 21
6.74858800092122
 31
0.0
  0
LINE
  5
17C
330
2
100
AcDbEntity
  8
image
100
AcDbLine
 10
4.63361729351431
 20
6.748565288252379
 30
0.0
 11
4.610760218652606
 21
6.748519862914722
 31
0.0
  0
LINE
  5
17D
330
2
100
AcDbEntity
  8
image
100
AcDbLine
 10
4.667880193138008
 20
6.760061963689736
 30
0.0
 11
4.645023118276318
 21
6.760016538352076
 31
0.0
  0
LINE
  5
17E
330
2
100
AcDbEntity
  8
image
100
AcDbLine
 10
4.633594580845473
 20
6.759993825683238
 30
0.0
 11
4.610737505983783
 21
6.759948400345567
 31
0.0
  0
LINE
  5
17F
330
2
100
AcDbEntity
  8
image
100
AcDbLine
 10
4.667880193138008
 20
6.760061963689736
 30
0.0
 11
4.667902905806846
 21
6.748633426258891
 31
0.0
  0
LINE
  5
180
330
2
100
AcDbEntity
  8
image
100
AcDbLine
 10
4.64509125628283
 20
6.725730926059529
 30
0.0
 11
4.633662718851971
 21
6.725708213390703
 31
0.0
  0
LINE
  5
181
330
2
100
AcDbEntity
  8
image
100
AcDbLine
 10
4.610760218652606
 20
6.748519862914722
 30
0.0
 11
4.610737505983783
 21
6.759948400345567
 31
0.0
  0
LINE
  5
182
330
2
100
AcDbEntity
  8
image
100
AcDbLine
 10
4.644977692938658
 20
6.782873613213766
 30
0.0
 11
4.633549155507799
 21
6.782850900544929
 31
0.0
  0
ARC
  5
183
330
2
100
AcDbEntity
  8
image
100
AcDbCircle
 10
5.430185189505712
 20
6.755862650243557
 30
0.0
 40
0.07428564
100
AcDbArc
 50
270.1138674445706
 51
90.11386744457057
  0
ARC
  5
184
330
2
100
AcDbEntity
  8
image
100
AcDbCircle
 10
5.430185189505712
 20
6.755862650243557
 30
0.0
 40
0.07428564
100
AcDbArc
 50
270.1138674445706
 51
90.11386744457057
  0
ARC
  5
185
330
2
100
AcDbEntity
  8
image
100
AcDbCircle
 10
5.430185189505712
 20
6.755862650243557
 30
0.0
 40
0.06571422
100
AcDbArc
 50
270.1138674445706
 51
90.11386744457057
  0
LINE
  5
186
330
2
100
AcDbEntity
  8
image
100
AcDbLine
 10
5.435888101886723
 20
6.761588275293409
 30
0.0
 11
5.458745176748413
 21
6.76163370063108
 31
0.0
  0
LINE
  5
187
330
2
100
AcDbEntity
  8
image
100
AcDbLine
 10
5.435910814555546
 20
6.750159737862563
 30
0.0
 11
5.458767889417236
 21
6.750205163200234
 31
0.0
  0
LINE
  5
188
330
2
100
AcDbEntity
  8
image
100
AcDbLine
 10
5.43595623989322
 20
6.727302663000873
 30
0.0
 11
5.435910814555546
 21
6.750159737862563
 31
0.0
  0
LINE
  5
189
330
2
100
AcDbEntity
  8
image
100
AcDbLine
 10
5.424459564455863
 20
6.761565562624568
 30
0.0
 11
5.424414139118203
 21
6.784422637486272
 31
0.0
  0
LINE
  5
18A
330
2
100
AcDbEntity
  8
image
100
AcDbLine
 10
5.435888101886709
 20
6.761588275293409
 30
0.0
 11
5.435842676549048
 21
6.784445350155099
 31
0.0
  0
LINE
  5
18B
330
2
100
AcDbEntity
  8
image
100
AcDbLine
 10
5.424527702462375
 20
6.727279950332032
 30
0.0
 11
5.424482277124701
 21
6.750137025193723
 31
0.0
  0
LINE
  5
18C
330
2
100
AcDbEntity
  8
image
100
AcDbLine
 10
5.424414139118203
 20
6.784422637486272
 30
0.0
 11
5.435842676549048
 21
6.784445350155099
 31
0.0
  0
LINE
  5
18D
330
2
100
AcDbEntity
  8
image
100
AcDbLine
 10
5.424527702462375
 20
6.727279950332032
 30
0.0
 11
5.43595623989322
 21
6.727302663000873
 31
0.0
  0
LINE
  5
18E
330
2
100
AcDbEntity
  8
image
100
AcDbLine
 10
5.458745176748413
 20
6.76163370063108
 30
0.0
 11
5.458767889417236
 21
6.750205163200234
 31
0.0
  0
LINE
  5
18F
330
2
100
AcDbEntity
  8
image
100
AcDbLine
 10
5.277609597700509
 20
6.122934556772893
 30
0.0
 11
4.79189579770051
 21
6.122934556772893
 31
0.0
  0
LINE
  5
190
330
2
100
AcDbEntity
  8
image
100
AcDbLine
 10
5.206181097700513
 20
6.122934556772893
 30
0.0
 11
5.206181097700509
 21
5.337506169658841
 31
0.0
  0
LINE
  5
191
330
2
100
AcDbEntity
  8
image
100
AcDbLine
 10
4.863324297700502
 20
5.337506169658841
 30
0.0
 11
4.863324297700506
 21
6.122934556772893
 31
0.0
  0
LINE
  5
19A
330
2
100
AcDbEntity
  8
image
100
AcDbLine
 10
3.87128977393675
 20
4.976342517934202
 30
0.0
 11
4.430732145975865
 21
4.976342517934202
 31
0.0
  0
LINE
  5
19B
330
2
100
AcDbEntity
  8
image
100
AcDbLine
 10
3.87128977393675
 20
4.600628607934214
 30
0.0
 11
4.430732145975861
 21
4.600628607934214
 31
0.0
  0
LINE
  5
19C
330
2
100
AcDbEntity
  8
image
100
AcDbLine
 10
4.430732145975865
 20
5.047771017934198
 30
0.0
 11
4.79189579770051
 21
5.047771017934198
 31
0.0
  0
LINE
  5
19D
330
2
100
AcDbEntity
  8
image
100
AcDbLine
 10
4.430732145975861
 20
4.529200107934219
 30
0.0
 11
5.638773249425144
 21
4.529200107934218
 31
0.0
  0
LINE
  5
19E
330
2
100
AcDbEntity
  8
image
100
AcDbLine
 10
4.79189579770051
 20
5.047771017934198
 30
0.0
 11
4.79189579770051
 21
5.337506169658841
 31
0.0
  0
LINE
  5
19F
330
2
100
AcDbEntity
  8
image
100
AcDbLine
 10
5.277609597700509
 20
5.337506169658841
 30
0.0
 11
5.277609597700509
 21
5.047771017934198
 31
0.0
  0
LINE
  5
1A0
330
2
100
AcDbEntity
  8
image
100
AcDbLine
 10
4.79189579770051
 20
5.337506169658841
 30
0.0
 11
5.277609597700509
 21
5.337506169658841
 31
0.0
  0
LINE
  5
1A1
330
2
100
AcDbEntity
  8
image
100
AcDbLine
 10
4.430732145975861
 20
4.529200107934218
 30
0.0
 11
4.430732145975865
 21
5.047771017934198
 31
0.0
  0
LINE
  5
1A2
330
2
100
AcDbEntity
  8
image
100
AcDbLine
 10
5.638773249425147
 20
5.047771017934198
 30
0.0
 11
5.638773249425144
 21
4.529200107934218
 31
0.0
  0
LINE
  5
1A3
330
2
100
AcDbEntity
  8
image
100
AcDbLine
 10
5.638773249425147
 20
4.976342517934202
 30
0.0
 11
7.553446264908894
 21
4.976342517934202
 31
0.0
  0
LINE
  5
1A4
330
2
100
AcDbEntity
  8
image
100
AcDbLine
 10
5.638773249425147
 20
4.600628607934214
 30
0.0
 11
7.553446264908894
 21
4.600628607934214
 31
0.0
  0
LINE
  5
1A5
330
2
100
AcDbEntity
  8
image
100
AcDbLine
 10
5.277609597700513
 20
5.047771017934198
 30
0.0
 11
5.638773249425147
 21
5.047771017934198
 31
0.0
  0
LWPOLYLINE
  5
1D2
330
2
100
AcDbEntity
  8
image
100
AcDbPolyline
 90
        2
 70
     0
 43
0.0
 10
6.012175348960605
 20
6.291104468825725
 10
6.021663048781009
 20
6.291104468825725
  0
LWPOLYLINE
  5
1D3
330
2
100
AcDbEntity
  8
image
100
AcDbPolyline
 90
        2
 70
     0
 43
0.0
 10
6.637543048513498
 20
6.291104468825725
 10
6.628055348693097
 20
6.291104468825725
  0
ARC
  5
1D5
330
2
100
AcDbEntity
  8
image
100
AcDbCircle
 10
6.324859198737049
 20
6.285203048904541
 30
0.0
 40
0.312739534865845
100
AcDbArc
 50
91.12737078578346
 51
76.41591114851613
  0
LWPOLYLINE
  5
1D6
330
2
100
AcDbEntity
  8
image
100
AcDbPolyline
 90
        2
 70
     0
 43
0.0
 10
6.213777443068297
 20
5.999339567816143
 10
6.43594095440625
 20
5.999339567816313
  0
ARC
  5
1D7
330
2
100
AcDbEntity
  8
image
100
AcDbCircle
 10
6.324859198737049
 20
6.285203048904541
 30
0.0
 40
0.3032535772340587
100
AcDbArc
 50
1.115066153689924
 51
76.21889079708044
  0
LWPOLYLINE
  5
1E1
330
2
100
AcDbEntity
  8
image
100
AcDbPolyline
 90
        4
 70
     0
 43
0.0
 10
6.262799677344988
 20
6.257328995256788
 10
6.034078516207157
 20
6.257328995256788
 42
0.4265656311639141
 10
6.021872895081939
 20
6.244599820002147
 42
0.0090044280057988
 10
6.022527755847606
 20
6.233697855935126
 42
0.0090044280057988
  0
LWPOLYLINE
  5
1E2
330
2
100
AcDbEntity
  8
image
100
AcDbPolyline
 90
        2
 70
     0
 43
0.0
 10
6.262799677344988
 20
6.257328995256788
 10
6.289521398187238
 20
6.233697855935126
  0
LWPOLYLINE
  5
1E3
330
2
100
AcDbEntity
  8
image
100
AcDbPolyline
 90
        2
 70
     0
 43
0.0
 10
6.289521398187238
 20
6.181411714949746
 10
6.289521398187238
 20
6.233697855935126
  0
LWPOLYLINE
  5
1E4
330
2
100
AcDbEntity
  8
image
100
AcDbPolyline
 90
        4
 70
     0
 43
0.0
 10
6.386918720129118
 20
6.257328995256788
 10
6.615639881267389
 20
6.257328995256788
 42
-0.4265656311639141
 10
6.627845502392611
 20
6.244599820002147
 42
-0.0090044280057988
 10
6.627190641626937
 20
6.233697855935126
 42
-0.0090044280057988
  0
LWPOLYLINE
  5
1E5
330
2
100
AcDbEntity
  8
image
100
AcDbPolyline
 90
        2
 70
     0
 43
0.0
 10
6.360196999286868
 20
6.233697855935126
 10
6.386918720129118
 20
6.257328995256788
  0
LWPOLYLINE
  5
1E6
330
2
100
AcDbEntity
  8
image
100
AcDbPolyline
 90
        2
 70
     0
 43
0.0
 10
6.360196999286868
 20
6.181411714949746
 10
6.360196999286868
 20
6.233697855935126
  0
LWPOLYLINE
  5
1E7
330
2
100
AcDbEntity
  8
image
100
AcDbPolyline
 90
        2
 70
     0
 43
0.0
 10
6.360196999286868
 20
6.181411714949746
 10
6.289521398187238
 20
6.181411714949746
  0
ARC
  5
1E8
330
2
100
AcDbEntity
  8
image
100
AcDbCircle
 10
6.324859198737049
 20
6.285203048904541
 30
0.0
 40
0.3066872776337978
100
AcDbArc
 50
189.6680927812357
 51
248.7647082492459
  0
ARC
  5
1E9
330
2
100
AcDbEntity
  8
image
100
AcDbCircle
 10
6.324859198737049
 20
6.285203048904541
 30
0.0
 40
0.3066872776337978
100
AcDbArc
 50
291.2352917508421
 51
350.3319072187642
  0
CIRCLE
  5
1EA
102
{ACAD_REACTORS
330
1F7
102
}
330
2
100
AcDbEntity
  8
image
 62
     5
100
AcDbCircle
 10
6.307190298462144
 20
6.195211407905791
 30
0.0
 40
0.0130715352463461
  0
CIRCLE
  5
1EB
102
{ACAD_REACTORS
330
1F7
102
}
330
2
100
AcDbEntity
  8
image
100
AcDbCircle
 10
6.342528099011955
 20
6.195211407905791
 30
0.0
 40
0.0130715352463461
  0
ARC
  5
1EC
330
2
100
AcDbEntity
  8
image
100
AcDbCircle
 10
6.342528099011955
 20
6.222810779853528
 30
0.0
 40
0.0130715352463461
100
AcDbArc
 50
179.9999999999922
 51
0.0000000000155724
  0
ARC
  5
1ED
330
2
100
AcDbEntity
  8
image
100
AcDbCircle
 10
6.307190298462144
 20
6.222810779853528
 30
0.0
 40
0.0130715352463461
100
AcDbArc
 50
179.7787546213657
 51
0.0000000020711325
  0
HATCH
  5
1F7
330
2
100
AcDbEntity
  8
image
 62
     5
100
AcDbHatch
 10
0.0
 20
0.0
 30
0.0
210
0.0
220
0.0
230
1.0
  2
SOLID
 70
     1
 71
     1
 91
        2
 92
        7
 72
     1
 73
     1
 93
        2
 10
6.32026183370849
 20
6.195211407905791
 42
1.0
 10
6.294118763215798
 20
6.195211407905791
 42
1.0
 97
        1
330
1EA
 92
        7
 72
     1
 73
     1
 93
        2
 10
6.355599634258301
 20
6.195211407905791
 42
1.0
 10
6.329456563765609
 20
6.195211407905791
 42
1.0
 97
        1
330
1EB
 75
     0
 76
     1
 47
0.0013567699850511
 98
        2
 10
6.30813781536248
 20
6.196936343835908
 10
6.341730679034641
 20
6.194539080190999
450
        0
451
        0
460
0.0
461
0.0
452
        0
462
0.0
453
        0
470

  0
LWPOLYLINE
  5
21A
102
{ACAD_REACTORS
330
BFE
102
}
330
2
100
AcDbEntity
  8
image
100
AcDbPolyline
 90
        4
 70
     1
 43
0.0
 10
0.8074196893243499
 20
3.478898189594783
 10
2.301284090636835
 20
3.478898189594783
 10
2.301284090636835
 20
5.875084799794164
 10
0.8074196893243499
 20
5.875084799794164
  0
LINE
  5
21B
330
2
100
AcDbEntity
  8
image
100
AcDbLine
 10
1.952664539601412
 20
5.875084799794164
 30
0.0
 11
1.952664539601412
 21
3.478898189594783
 31
0.0
  0
LINE
  5
21C
102
{ACAD_REACTORS
330
C0A
102
}
330
2
100
AcDbEntity
  8
image
100
AcDbLine
 10
5.99889579633996
 20
7.612883861900723
 30
0.0
 11
6.24889579633996
 21
7.612883861900723
 31
0.0
  0
LINE
  5
21D
330
2
100
AcDbEntity
  8
image
100
AcDbLine
 10
5.955145796339957
 20
7.390383861900723
 30
0.0
 11
6.292645796339959
 21
7.390383861900723
 31
0.0
  0
LINE
  5
223
330
2
100
AcDbEntity
  8
image
100
AcDbLine
 10
5.99889579633996
 20
7.612883861900723
 30
0.0
 11
5.99889579633996
 21
7.562883861900724
 31
0.0
  0
LINE
  5
226
330
2
100
AcDbEntity
  8
image
100
AcDbLine
 10
5.995350156460718
 20
7.576993671624702
 30
0.0
 11
5.951679205825703
 21
7.532158162306087
 31
0.0
  0
LINE
  5
227
330
2
100
AcDbEntity
  8
image
100
AcDbLine
 10
5.942645796339961
 20
7.5057431788038
 30
0.0
 11
5.942645796339961
 21
7.402883861900724
 31
0.0
  0
ARC
  5
229
330
2
100
AcDbEntity
  8
image
100
AcDbCircle
 10
5.955145796339957
 20
7.402883861900724
 30
0.0
 40
0.0125
100
AcDbArc
 50
180.0
 51
270.0000000000001
  0
ARC
  5
22B
330
2
100
AcDbEntity
  8
image
100
AcDbCircle
 10
5.986395796339957
 20
7.585715450963103
 30
0.0
 40
0.0125
100
AcDbArc
 50
315.7538483330708
 51
0.0
  0
ARC
  5
22C
330
2
100
AcDbEntity
  8
image
100
AcDbCircle
 10
6.292645796339959
 20
7.402883861900724
 30
0.0
 40
0.0125
100
AcDbArc
 50
269.9999999999999
 51
0.000000000000007
  0
LINE
  5
22D
330
2
100
AcDbEntity
  8
image
100
AcDbLine
 10
6.252441436219202
 20
7.576993671624702
 30
0.0
 11
6.301600156460716
 21
7.526524052176744
 31
0.0
  0
LINE
  5
22E
330
2
100
AcDbEntity
  8
image
100
AcDbLine
 10
6.305145796339958
 20
7.517802272838343
 30
0.0
 11
6.305145796339958
 21
7.512534843155608
 31
0.0
  0
ARC
  5
22F
330
2
100
AcDbEntity
  8
image
100
AcDbCircle
 10
6.292645796339959
 20
7.517802272838343
 30
0.0
 40
0.0125
100
AcDbArc
 50
0.000000000000007
 51
44.24615166692921
  0
LINE
  5
230
330
2
100
AcDbEntity
  8
image
100
AcDbLine
 10
6.24889579633996
 20
7.612883861900723
 30
0.0
 11
6.24889579633996
 21
7.562883861900724
 31
0.0
  0
ARC
  5
231
330
2
100
AcDbEntity
  8
image
100
AcDbCircle
 10
6.261395796339959
 20
7.585715450963103
 30
0.0
 40
0.0125
100
AcDbArc
 50
180.0
 51
224.2461516669292
  0
LINE
  5
232
330
2
100
AcDbEntity
  8
image
100
AcDbLine
 10
5.955145796339957
 20
7.471633861900723
 30
0.0
 11
6.042645796339956
 21
7.471633861900723
 31
0.0
  0
LINE
  5
233
330
2
100
AcDbEntity
  8
image
100
AcDbLine
 10
6.192645796339961
 20
7.612883861900723
 30
0.0
 11
6.192645796339961
 21
7.409133861900723
 31
0.0
  0
LINE
  5
234
330
2
100
AcDbEntity
  8
image
100
AcDbLine
 10
6.055145796339958
 20
7.612883861900723
 30
0.0
 11
6.055145796339958
 21
7.409133861900723
 31
0.0
  0
LINE
  5
235
330
2
100
AcDbEntity
  8
image
100
AcDbLine
 10
6.03014579633996
 20
7.409133861900723
 30
0.0
 11
6.21764579633996
 21
7.409133861900723
 31
0.0
  0
LINE
  5
236
330
2
100
AcDbEntity
  8
image
100
AcDbLine
 10
6.21764579633996
 20
7.409133861900723
 30
0.0
 11
6.21764579633996
 21
7.390383861900723
 31
0.0
  0
LINE
  5
237
330
2
100
AcDbEntity
  8
image
100
AcDbLine
 10
6.03014579633996
 20
7.409133861900723
 30
0.0
 11
6.03014579633996
 21
7.390383861900723
 31
0.0
  0
LINE
  5
238
330
2
100
AcDbEntity
  8
image
100
AcDbLine
 10
6.205145796339957
 20
7.471633861900723
 30
0.0
 11
6.292645796339959
 21
7.471633861900723
 31
0.0
  0
ARC
  5
239
330
2
100
AcDbEntity
  8
image
100
AcDbCircle
 10
5.955145796339957
 20
7.459133861900724
 30
0.0
 40
0.0125
100
AcDbArc
 50
90.00000000000012
 51
180.0000000000002
  0
LINE
  5
23C
330
2
100
AcDbEntity
  8
image
100
AcDbLine
 10
6.011395796339959
 20
7.550383861900723
 30
0.0
 11
6.042645796339959
 21
7.550383861900723
 31
0.0
  0
ARC
  5
23D
330
2
100
AcDbEntity
  8
image
100
AcDbCircle
 10
6.011395796339959
 20
7.562883861900724
 30
0.0
 40
0.0125
100
AcDbArc
 50
180.0
 51
270.0
  0
ARC
  5
23E
330
2
100
AcDbEntity
  8
image
100
AcDbCircle
 10
6.236395796339957
 20
7.562883861900724
 30
0.0
 40
0.0125
100
AcDbArc
 50
270.0
 51
0.0
  0
CIRCLE
  5
242
330
2
100
AcDbEntity
  8
image
100
AcDbCircle
 10
6.12389579633996
 20
7.479758861900723
 30
0.0
 40
0.055
  0
ARC
  5
243
330
2
100
AcDbEntity
  8
image
100
AcDbCircle
 10
6.20514579633996
 20
7.537883861900724
 30
0.0
 40
0.0125
100
AcDbArc
 50
90.0
 51
179.9999999999998
  0
ARC
  5
244
330
2
100
AcDbEntity
  8
image
100
AcDbCircle
 10
6.205145796339957
 20
7.484133861900723
 30
0.0
 40
0.0125
100
AcDbArc
 50
179.9999999999998
 51
269.9999999999999
  0
ARC
  5
245
330
2
100
AcDbEntity
  8
image
100
AcDbCircle
 10
6.042645796339959
 20
7.537883861900724
 30
0.0
 40
0.0125
100
AcDbArc
 50
0.0000000000002417
 51
90.0
  0
ARC
  5
246
330
2
100
AcDbEntity
  8
image
100
AcDbCircle
 10
6.042645796339956
 20
7.484133861900723
 30
0.0
 40
0.0125
100
AcDbArc
 50
270.0
 51
0.0000000000002417
  0
ARC
  5
24A
330
2
100
AcDbEntity
  8
image
100
AcDbCircle
 10
6.027344239677711
 20
7.511386377979235
 30
0.0
 40
0.0350314297262623
100
AcDbArc
 50
37.47512798231477
 51
147.6240431488353
  0
ARC
  5
24B
330
2
100
AcDbEntity
  8
image
100
AcDbCircle
 10
6.220447353002208
 20
7.511386377979235
 30
0.0
 40
0.0350314297262623
100
AcDbArc
 50
217.4751279823145
 51
343.6421568356831
  0
LINE
  5
24C
330
2
100
AcDbEntity
  8
image
100
AcDbLine
 10
6.20514579633996
 20
7.550383861900723
 30
0.0
 11
6.236395796339957
 21
7.550383861900723
 31
0.0
  0
LINE
  5
257
330
2
100
AcDbEntity
  8
image
100
AcDbLine
 10
6.222631925707309
 20
7.193520515237924
 30
0.0
 11
6.271790645948824
 21
7.143050895789967
 31
0.0
  0
LINE
  5
258
330
2
100
AcDbEntity
  8
image
100
AcDbLine
 10
5.965540645948825
 20
7.193520515237924
 30
0.0
 11
5.916381925707307
 21
7.143050895789967
 31
0.0
  0
LINE
  5
259
330
2
100
AcDbEntity
  8
image
100
AcDbLine
 10
6.162836285828069
 20
7.229410705513945
 30
0.0
 11
6.162836285828069
 21
7.025660705513946
 31
0.0
  0
LINE
  5
25A
330
2
100
AcDbEntity
  8
image
100
AcDbLine
 10
6.025336285828066
 20
7.229410705513945
 30
0.0
 11
6.025336285828066
 21
7.025660705513946
 31
0.0
  0
ARC
  5
25B
330
2
100
AcDbEntity
  8
image
100
AcDbCircle
 10
6.190637842490316
 20
7.127913221592457
 30
0.0
 40
0.0350314297262623
100
AcDbArc
 50
217.4751279823145
 51
330.4141336263485
  0
ARC
  5
25C
330
2
100
AcDbEntity
  8
image
100
AcDbCircle
 10
5.997534729165819
 20
7.127913221592457
 30
0.0
 40
0.0350314297262623
100
AcDbArc
 50
37.47512798231477
 51
174.6079591557715
  0
CIRCLE
  5
25D
330
2
100
AcDbEntity
  8
image
100
AcDbCircle
 10
6.094086285828067
 20
7.096285705513945
 30
0.0
 40
0.055
  0
LINE
  5
25E
330
2
100
AcDbEntity
  8
image
100
AcDbLine
 10
5.925336285828064
 20
7.088160705513946
 30
0.0
 11
6.012836285828063
 21
7.088160705513946
 31
0.0
  0
LINE
  5
25F
330
2
100
AcDbEntity
  8
image
100
AcDbLine
 10
5.925336285828064
 20
7.006910705513945
 30
0.0
 11
6.262836285828067
 21
7.006910705513945
 31
0.0
  0
ARC
  5
260
330
2
100
AcDbEntity
  8
image
100
AcDbCircle
 10
5.925336285828064
 20
7.134329116451565
 30
0.0
 40
0.0125
100
AcDbArc
 50
135.7538483330708
 51
180.0
  0
ARC
  5
261
330
2
100
AcDbEntity
  8
image
100
AcDbCircle
 10
5.925336285828064
 20
7.075660705513946
 30
0.0
 40
0.0125
100
AcDbArc
 50
90.00000000000012
 51
180.0000000000002
  0
ARC
  5
262
330
2
100
AcDbEntity
  8
image
100
AcDbCircle
 10
5.925336285828064
 20
7.019410705513946
 30
0.0
 40
0.0125
100
AcDbArc
 50
180.0
 51
270.0000000000001
  0
LINE
  5
263
330
2
100
AcDbEntity
  8
image
100
AcDbLine
 10
5.912836285828069
 20
7.134329116451565
 30
0.0
 11
5.912836285828069
 21
7.128750048992722
 31
0.0
  0
ARC
  5
264
330
2
100
AcDbEntity
  8
image
100
AcDbCircle
 10
6.262836285828067
 20
7.134329116451565
 30
0.0
 40
0.0125
100
AcDbArc
 50
0.000000000000007
 51
44.24615166692921
  0
ARC
  5
265
330
2
100
AcDbEntity
  8
image
100
AcDbCircle
 10
6.262836285828067
 20
7.075660705513946
 30
0.0
 40
0.0125
100
AcDbArc
 50
359.9999999999998
 51
89.99999999999991
  0
ARC
  5
266
330
2
100
AcDbEntity
  8
image
100
AcDbCircle
 10
6.262836285828067
 20
7.019410705513946
 30
0.0
 40
0.0125
100
AcDbArc
 50
269.9999999999999
 51
0.000000000000007
  0
ARC
  5
267
330
2
100
AcDbEntity
  8
image
100
AcDbCircle
 10
6.175336285828064
 20
7.100660705513945
 30
0.0
 40
0.0125
100
AcDbArc
 50
179.9999999999998
 51
269.9999999999999
  0
LINE
  5
268
330
2
100
AcDbEntity
  8
image
100
AcDbLine
 10
6.187836285828067
 20
7.025660705513946
 30
0.0
 11
6.187836285828067
 21
7.006910705513945
 31
0.0
  0
ARC
  5
269
330
2
100
AcDbEntity
  8
image
100
AcDbCircle
 10
6.012836285828063
 20
7.100660705513945
 30
0.0
 40
0.0125
100
AcDbArc
 50
270.0
 51
0.0000000000002417
  0
LINE
  5
26A
330
2
100
AcDbEntity
  8
image
100
AcDbLine
 10
6.000336285828067
 20
7.025660705513946
 30
0.0
 11
6.000336285828067
 21
7.006910705513945
 31
0.0
  0
LINE
  5
26B
330
2
100
AcDbEntity
  8
image
100
AcDbLine
 10
6.000336285828067
 20
7.025660705513946
 30
0.0
 11
6.187836285828067
 21
7.025660705513946
 31
0.0
  0
LINE
  5
26C
330
2
100
AcDbEntity
  8
image
100
AcDbLine
 10
6.175336285828064
 20
7.088160705513946
 30
0.0
 11
6.262836285828067
 21
7.088160705513946
 31
0.0
  0
LINE
  5
26D
330
2
100
AcDbEntity
  8
image
100
AcDbLine
 10
6.275336285828066
 20
7.134329116451565
 30
0.0
 11
6.275336285828062
 21
7.129701369553556
 31
0.0
  0
LINE
  5
26E
330
2
100
AcDbEntity
  8
image
100
AcDbLine
 10
5.981586285828067
 20
7.166910705513945
 30
0.0
 11
6.012836285828067
 21
7.166910705513945
 31
0.0
  0
LINE
  5
26F
330
2
100
AcDbEntity
  8
image
100
AcDbLine
 10
5.969086285828067
 20
7.229410705513945
 30
0.0
 11
6.219086285828067
 21
7.229410705513945
 31
0.0
  0
ARC
  5
270
330
2
100
AcDbEntity
  8
image
100
AcDbCircle
 10
5.981586285828067
 20
7.179410705513946
 30
0.0
 40
0.0125
100
AcDbArc
 50
180.0
 51
270.0
  0
LINE
  5
271
330
2
100
AcDbEntity
  8
image
100
AcDbLine
 10
5.969086285828067
 20
7.229410705513945
 30
0.0
 11
5.969086285828067
 21
7.179410705513946
 31
0.0
  0
ARC
  5
272
330
2
100
AcDbEntity
  8
image
100
AcDbCircle
 10
5.956586285828064
 20
7.202242294576326
 30
0.0
 40
0.0125
100
AcDbArc
 50
315.7538483330708
 51
0.0
  0
ARC
  5
273
330
2
100
AcDbEntity
  8
image
100
AcDbCircle
 10
6.206586285828064
 20
7.179410705513946
 30
0.0
 40
0.0125
100
AcDbArc
 50
270.0
 51
0.0
  0
LINE
  5
274
330
2
100
AcDbEntity
  8
image
100
AcDbLine
 10
6.219086285828067
 20
7.229410705513945
 30
0.0
 11
6.219086285828067
 21
7.179410705513946
 31
0.0
  0
ARC
  5
275
330
2
100
AcDbEntity
  8
image
100
AcDbCircle
 10
6.231586285828067
 20
7.202242294576326
 30
0.0
 40
0.0125
100
AcDbArc
 50
180.0
 51
224.2461516669292
  0
ARC
  5
276
330
2
100
AcDbEntity
  8
image
100
AcDbCircle
 10
6.175336285828068
 20
7.154410705513946
 30
0.0
 40
0.0125
100
AcDbArc
 50
90.0
 51
179.9999999999998
  0
ARC
  5
277
330
2
100
AcDbEntity
  8
image
100
AcDbCircle
 10
6.012836285828067
 20
7.154410705513946
 30
0.0
 40
0.0125
100
AcDbArc
 50
0.0000000000002417
 51
90.0
  0
LINE
  5
278
330
2
100
AcDbEntity
  8
image
100
AcDbLine
 10
6.175336285828068
 20
7.166910705513945
 30
0.0
 11
6.206586285828064
 21
7.166910705513945
 31
0.0
  0
CIRCLE
  5
281
330
2
100
AcDbEntity
  8
image
100
AcDbCircle
 10
6.726481409472023
 20
4.301436296016675
 30
0.0
 40
0.055
  0
ARC
  5
282
330
2
100
AcDbEntity
  8
image
100
AcDbCircle
 10
6.629929852809775
 20
4.333063812095187
 30
0.0
 40
0.0350314297262623
100
AcDbArc
 50
37.47512798231477
 51
322.5248720176856
  0
ARC
  5
283
330
2
100
AcDbEntity
  8
image
100
AcDbCircle
 10
6.823032966134272
 20
4.333063812095187
 30
0.0
 40
0.0350314297262623
100
AcDbArc
 50
217.4751279823145
 51
142.5248720176852
  0
LINE
  5
284
330
2
100
AcDbEntity
  8
image
100
AcDbLine
 10
6.657731409472022
 20
4.434561296016675
 30
0.0
 11
6.657731409472022
 21
4.230811296016676
 31
0.0
  0
LINE
  5
285
330
2
100
AcDbEntity
  8
image
100
AcDbLine
 10
6.795231409472025
 20
4.434561296016675
 30
0.0
 11
6.795231409472025
 21
4.230811296016676
 31
0.0
  0
LINE
  5
286
330
2
100
AcDbEntity
  8
image
100
AcDbLine
 10
6.597935769592782
 20
4.398671105740654
 30
0.0
 11
6.548777049351263
 21
4.348201486292697
 31
0.0
  0
LINE
  5
287
330
2
100
AcDbEntity
  8
image
100
AcDbLine
 10
6.855027049351265
 20
4.398671105740654
 30
0.0
 11
6.90418576959278
 21
4.348201486292697
 31
0.0
  0
ARC
  5
288
330
2
100
AcDbEntity
  8
image
100
AcDbCircle
 10
6.302228712709242
 20
4.333063812095187
 30
0.0
 40
0.0350314297262623
100
AcDbArc
 50
217.4751279823145
 51
142.5248720176852
  0
ARC
  5
289
330
2
100
AcDbEntity
  8
image
100
AcDbCircle
 10
6.109125599384745
 20
4.333063812095187
 30
0.0
 40
0.0350314297262623
100
AcDbArc
 50
37.47512798231477
 51
322.5248720176856
  0
CIRCLE
  5
28A
330
2
100
AcDbEntity
  8
image
100
AcDbCircle
 10
6.205677156046993
 20
4.301436296016675
 30
0.0
 40
0.055
  0
LINE
  5
28B
330
2
100
AcDbEntity
  8
image
100
AcDbLine
 10
6.136927156046992
 20
4.434561296016675
 30
0.0
 11
6.136927156046992
 21
4.230811296016676
 31
0.0
  0
LINE
  5
28C
330
2
100
AcDbEntity
  8
image
100
AcDbLine
 10
6.274427156046995
 20
4.434561296016675
 30
0.0
 11
6.274427156046995
 21
4.230811296016676
 31
0.0
  0
LINE
  5
28D
330
2
100
AcDbEntity
  8
image
100
AcDbLine
 10
6.334222795926235
 20
4.398671105740654
 30
0.0
 11
6.38338151616775
 21
4.348201486292697
 31
0.0
  0
LINE
  5
28E
330
2
100
AcDbEntity
  8
image
100
AcDbLine
 10
6.077131516167751
 20
4.398671105740654
 30
0.0
 11
6.027972795926233
 21
4.348201486292697
 31
0.0
  0
LINE
  5
28F
330
2
100
AcDbEntity
  8
image
100
AcDbLine
 10
6.03692715604699
 20
4.293311296016676
 30
0.0
 11
6.124427156046989
 21
4.293311296016676
 31
0.0
  0
LINE
  5
290
330
2
100
AcDbEntity
  8
image
100
AcDbLine
 10
6.03692715604699
 20
4.212061296016675
 30
0.0
 11
6.374427156046992
 21
4.212061296016675
 31
0.0
  0
ARC
  5
291
330
2
100
AcDbEntity
  8
image
100
AcDbCircle
 10
6.03692715604699
 20
4.280811296016676
 30
0.0
 40
0.0125
100
AcDbArc
 50
90.00000000000012
 51
180.0000000000002
  0
ARC
  5
292
330
2
100
AcDbEntity
  8
image
100
AcDbCircle
 10
6.03692715604699
 20
4.339479706954295
 30
0.0
 40
0.0125
100
AcDbArc
 50
135.7538483330708
 51
180.0
  0
ARC
  5
293
330
2
100
AcDbEntity
  8
image
100
AcDbCircle
 10
6.03692715604699
 20
4.224561296016676
 30
0.0
 40
0.0125
100
AcDbArc
 50
180.0
 51
270.0000000000001
  0
LINE
  5
294
330
2
100
AcDbEntity
  8
image
100
AcDbLine
 10
6.024427156046995
 20
4.339479706954295
 30
0.0
 11
6.024427156046995
 21
4.224561296016676
 31
0.0
  0
ARC
  5
295
330
2
100
AcDbEntity
  8
image
100
AcDbCircle
 10
6.124427156046989
 20
4.305811296016675
 30
0.0
 40
0.0125
100
AcDbArc
 50
270.0
 51
0.0000000000002417
  0
ARC
  5
296
330
2
100
AcDbEntity
  8
image
100
AcDbCircle
 10
6.28692715604699
 20
4.305811296016675
 30
0.0
 40
0.0125
100
AcDbArc
 50
179.9999999999998
 51
269.9999999999999
  0
ARC
  5
297
330
2
100
AcDbEntity
  8
image
100
AcDbCircle
 10
6.374427156046992
 20
4.280811296016676
 30
0.0
 40
0.0125
100
AcDbArc
 50
359.9999999999998
 51
89.99999999999991
  0
LINE
  5
298
330
2
100
AcDbEntity
  8
image
100
AcDbLine
 10
6.28692715604699
 20
4.293311296016676
 30
0.0
 11
6.374427156046992
 21
4.293311296016676
 31
0.0
  0
LINE
  5
299
330
2
100
AcDbEntity
  8
image
100
AcDbLine
 10
6.111927156046993
 20
4.230811296016676
 30
0.0
 11
6.111927156046993
 21
4.212061296016675
 31
0.0
  0
LINE
  5
29A
330
2
100
AcDbEntity
  8
image
100
AcDbLine
 10
6.299427156046993
 20
4.230811296016676
 30
0.0
 11
6.299427156046993
 21
4.212061296016675
 31
0.0
  0
LINE
  5
29B
330
2
100
AcDbEntity
  8
image
100
AcDbLine
 10
6.111927156046993
 20
4.230811296016676
 30
0.0
 11
6.299427156046993
 21
4.230811296016676
 31
0.0
  0
ARC
  5
29C
330
2
100
AcDbEntity
  8
image
100
AcDbCircle
 10
6.374427156046992
 20
4.339479706954295
 30
0.0
 40
0.0125
100
AcDbArc
 50
0.000000000000007
 51
44.24615166692921
  0
LINE
  5
29D
330
2
100
AcDbEntity
  8
image
100
AcDbLine
 10
6.386927156046992
 20
4.339479706954295
 30
0.0
 11
6.386927156046992
 21
4.224561296016676
 31
0.0
  0
ARC
  5
29E
330
2
100
AcDbEntity
  8
image
100
AcDbCircle
 10
6.374427156046992
 20
4.224561296016676
 30
0.0
 40
0.0125
100
AcDbArc
 50
269.9999999999999
 51
0.000000000000007
  0
LINE
  5
29F
330
2
100
AcDbEntity
  8
image
100
AcDbLine
 10
6.632731409472023
 20
4.230811296016676
 30
0.0
 11
6.820231409472023
 21
4.230811296016676
 31
0.0
  0
LINE
  5
2A0
330
2
100
AcDbEntity
  8
image
100
AcDbLine
 10
6.557731409472021
 20
4.212061296016675
 30
0.0
 11
6.895231409472023
 21
4.212061296016675
 31
0.0
  0
LINE
  5
2A1
330
2
100
AcDbEntity
  8
image
100
AcDbLine
 10
6.632731409472023
 20
4.230811296016676
 30
0.0
 11
6.632731409472023
 21
4.212061296016675
 31
0.0
  0
ARC
  5
2A2
330
2
100
AcDbEntity
  8
image
100
AcDbCircle
 10
6.645231409472019
 20
4.305811296016675
 30
0.0
 40
0.0125
100
AcDbArc
 50
270.0
 51
0.0000000000002417
  0
LINE
  5
2A3
330
2
100
AcDbEntity
  8
image
100
AcDbLine
 10
6.545231409472025
 20
4.339479706954295
 30
0.0
 11
6.545231409472025
 21
4.224561296016676
 31
0.0
  0
ARC
  5
2A4
330
2
100
AcDbEntity
  8
image
100
AcDbCircle
 10
6.557731409472021
 20
4.224561296016676
 30
0.0
 40
0.0125
100
AcDbArc
 50
180.0
 51
270.0000000000001
  0
ARC
  5
2A5
330
2
100
AcDbEntity
  8
image
100
AcDbCircle
 10
6.557731409472021
 20
4.280811296016676
 30
0.0
 40
0.0125
100
AcDbArc
 50
90.00000000000012
 51
180.0000000000002
  0
ARC
  5
2A6
330
2
100
AcDbEntity
  8
image
100
AcDbCircle
 10
6.557731409472021
 20
4.339479706954295
 30
0.0
 40
0.0125
100
AcDbArc
 50
135.7538483330708
 51
180.0
  0
LINE
  5
2A7
330
2
100
AcDbEntity
  8
image
100
AcDbLine
 10
6.557731409472021
 20
4.293311296016676
 30
0.0
 11
6.645231409472019
 21
4.293311296016676
 31
0.0
  0
LINE
  5
2A8
330
2
100
AcDbEntity
  8
image
100
AcDbLine
 10
6.907731409472022
 20
4.339479706954295
 30
0.0
 11
6.907731409472022
 21
4.224561296016676
 31
0.0
  0
LINE
  5
2A9
330
2
100
AcDbEntity
  8
image
100
AcDbLine
 10
6.807731409472021
 20
4.293311296016676
 30
0.0
 11
6.895231409472023
 21
4.293311296016676
 31
0.0
  0
LINE
  5
2AA
330
2
100
AcDbEntity
  8
image
100
AcDbLine
 10
6.820231409472023
 20
4.230811296016676
 30
0.0
 11
6.820231409472023
 21
4.212061296016675
 31
0.0
  0
ARC
  5
2AB
330
2
100
AcDbEntity
  8
image
100
AcDbCircle
 10
6.807731409472021
 20
4.305811296016675
 30
0.0
 40
0.0125
100
AcDbArc
 50
179.9999999999998
 51
269.9999999999999
  0
ARC
  5
2AC
330
2
100
AcDbEntity
  8
image
100
AcDbCircle
 10
6.895231409472023
 20
4.224561296016676
 30
0.0
 40
0.0125
100
AcDbArc
 50
269.9999999999999
 51
0.000000000000007
  0
ARC
  5
2AD
330
2
100
AcDbEntity
  8
image
100
AcDbCircle
 10
6.895231409472023
 20
4.280811296016676
 30
0.0
 40
0.0125
100
AcDbArc
 50
359.9999999999998
 51
89.99999999999991
  0
ARC
  5
2AE
330
2
100
AcDbEntity
  8
image
100
AcDbCircle
 10
6.895231409472023
 20
4.339479706954295
 30
0.0
 40
0.0125
100
AcDbArc
 50
0.000000000000007
 51
44.24615166692921
  0
LINE
  5
2AF
330
2
100
AcDbEntity
  8
image
100
AcDbLine
 10
6.093177156046992
 20
4.372061296016675
 30
0.0
 11
6.124427156046992
 21
4.372061296016675
 31
0.0
  0
LINE
  5
2B0
330
2
100
AcDbEntity
  8
image
100
AcDbLine
 10
6.080677156046993
 20
4.434561296016675
 30
0.0
 11
6.330677156046993
 21
4.434561296016675
 31
0.0
  0
ARC
  5
2B1
330
2
100
AcDbEntity
  8
image
100
AcDbCircle
 10
6.093177156046992
 20
4.384561296016676
 30
0.0
 40
0.0125
100
AcDbArc
 50
180.0
 51
270.0
  0
ARC
  5
2B2
330
2
100
AcDbEntity
  8
image
100
AcDbCircle
 10
6.06817715604699
 20
4.407392885079056
 30
0.0
 40
0.0125
100
AcDbArc
 50
315.7538483330708
 51
0.0
  0
LINE
  5
2B3
330
2
100
AcDbEntity
  8
image
100
AcDbLine
 10
6.080677156046993
 20
4.434561296016675
 30
0.0
 11
6.080677156046993
 21
4.384561296016676
 31
0.0
  0
LINE
  5
2B4
330
2
100
AcDbEntity
  8
image
100
AcDbLine
 10
6.286927156046994
 20
4.372061296016675
 30
0.0
 11
6.31817715604699
 21
4.372061296016675
 31
0.0
  0
ARC
  5
2B5
330
2
100
AcDbEntity
  8
image
100
AcDbCircle
 10
6.124427156046992
 20
4.359561296016676
 30
0.0
 40
0.0125
100
AcDbArc
 50
0.0000000000002417
 51
90.0
  0
ARC
  5
2B6
330
2
100
AcDbEntity
  8
image
100
AcDbCircle
 10
6.286927156046994
 20
4.359561296016676
 30
0.0
 40
0.0125
100
AcDbArc
 50
90.0
 51
179.9999999999998
  0
ARC
  5
2B7
330
2
100
AcDbEntity
  8
image
100
AcDbCircle
 10
6.31817715604699
 20
4.384561296016676
 30
0.0
 40
0.0125
100
AcDbArc
 50
270.0
 51
0.0
  0
ARC
  5
2B8
330
2
100
AcDbEntity
  8
image
100
AcDbCircle
 10
6.343177156046992
 20
4.407392885079056
 30
0.0
 40
0.0125
100
AcDbArc
 50
180.0
 51
224.2461516669292
  0
LINE
  5
2B9
330
2
100
AcDbEntity
  8
image
100
AcDbLine
 10
6.330677156046993
 20
4.434561296016675
 30
0.0
 11
6.330677156046993
 21
4.384561296016676
 31
0.0
  0
LINE
  5
2BA
330
2
100
AcDbEntity
  8
image
100
AcDbLine
 10
6.601481409472023
 20
4.434561296016675
 30
0.0
 11
6.851481409472023
 21
4.434561296016675
 31
0.0
  0
ARC
  5
2BB
330
2
100
AcDbEntity
  8
image
100
AcDbCircle
 10
6.645231409472023
 20
4.359561296016676
 30
0.0
 40
0.0125
100
AcDbArc
 50
0.0000000000002417
 51
90.0
  0
ARC
  5
2BC
330
2
100
AcDbEntity
  8
image
100
AcDbCircle
 10
6.588981409472021
 20
4.407392885079056
 30
0.0
 40
0.0125
100
AcDbArc
 50
315.7538483330708
 51
0.0
  0
LINE
  5
2BD
330
2
100
AcDbEntity
  8
image
100
AcDbLine
 10
6.601481409472023
 20
4.434561296016675
 30
0.0
 11
6.601481409472023
 21
4.384561296016676
 31
0.0
  0
ARC
  5
2BE
330
2
100
AcDbEntity
  8
image
100
AcDbCircle
 10
6.613981409472023
 20
4.384561296016676
 30
0.0
 40
0.0125
100
AcDbArc
 50
180.0
 51
270.0
  0
LINE
  5
2BF
330
2
100
AcDbEntity
  8
image
100
AcDbLine
 10
6.613981409472023
 20
4.372061296016675
 30
0.0
 11
6.645231409472023
 21
4.372061296016675
 31
0.0
  0
LINE
  5
2C0
330
2
100
AcDbEntity
  8
image
100
AcDbLine
 10
6.807731409472024
 20
4.372061296016675
 30
0.0
 11
6.838981409472021
 21
4.372061296016675
 31
0.0
  0
ARC
  5
2C1
330
2
100
AcDbEntity
  8
image
100
AcDbCircle
 10
6.807731409472024
 20
4.359561296016676
 30
0.0
 40
0.0125
100
AcDbArc
 50
90.0
 51
179.9999999999998
  0
ARC
  5
2C2
330
2
100
AcDbEntity
  8
image
100
AcDbCircle
 10
6.863981409472023
 20
4.407392885079056
 30
0.0
 40
0.0125
100
AcDbArc
 50
180.0
 51
224.2461516669292
  0
LINE
  5
2C3
330
2
100
AcDbEntity
  8
image
100
AcDbLine
 10
6.851481409472023
 20
4.434561296016675
 30
0.0
 11
6.851481409472023
 21
4.384561296016676
 31
0.0
  0
ARC
  5
2C4
330
2
100
AcDbEntity
  8
image
100
AcDbCircle
 10
6.838981409472021
 20
4.384561296016676
 30
0.0
 40
0.0125
100
AcDbArc
 50
270.0
 51
0.0
  0
POLYLINE
  5
2C5
102
{ACAD_REACTORS
330
C07
102
}
330
2
100
AcDbEntity
  8
image
100
AcDb2dPolyline
 66
     1
 10
0.0
 20
0.0
 30
0.0
 70
     4
 75
     6
  0
VERTEX
  5
371
330
2C5
100
AcDbEntity
  8
image
100
AcDbVertex
100
AcDb2dVertex
 10
5.174572859812771
 20
7.189935906217936
 30
0.0
 70
    16
  0
VERTEX
  5
37C
330
2C5
100
AcDbEntity
  8
image
100
AcDbVertex
100
AcDb2dVertex
 10
5.174572859812771
 20
7.189935906217936
 30
0.0
 70
     8
  0
VERTEX
  5
37D
330
2C5
100
AcDbEntity
  8
image
100
AcDbVertex
100
AcDb2dVertex
 10
5.192472755179247
 20
7.193803477081802
 30
0.0
 70
     8
  0
VERTEX
  5
37E
330
2C5
100
AcDbEntity
  8
image
100
AcDbVertex
100
AcDb2dVertex
 10
5.208652729196467
 20
7.19862286551465
 30
0.0
 70
     8
  0
VERTEX
  5
37F
330
2C5
100
AcDbEntity
  8
image
100
AcDbVertex
100
AcDb2dVertex
 10
5.223501037915591
 20
7.204334363467095
 30
0.0
 70
     8
  0
VERTEX
  5
380
330
2C5
100
AcDbEntity
  8
image
100
AcDbVertex
100
AcDb2dVertex
 10
5.237405937387771
 20
7.210878262889753
 30
0.0
 70
     8
  0
VERTEX
  5
381
330
2C5
100
AcDbEntity
  8
image
100
AcDbVertex
100
AcDb2dVertex
 10
5.250755683664175
 20
7.218194855733242
 30
0.0
 70
     8
  0
VERTEX
  5
382
330
2C5
100
AcDbEntity
  8
image
100
AcDbVertex
100
AcDb2dVertex
 10
5.263938532795949
 20
7.226224433948178
 30
0.0
 70
     8
  0
VERTEX
  5
383
330
2C5
100
AcDbEntity
  8
image
100
AcDbVertex
100
AcDb2dVertex
 10
5.277342740834258
 20
7.234907289485176
 30
0.0
 70
     8
  0
VERTEX
  5
384
330
2C5
100
AcDbEntity
  8
image
100
AcDbVertex
100
AcDb2dVertex
 10
5.291356563830253
 20
7.244183714294853
 30
0.0
 70
     8
  0
VERTEX
  5
385
330
2C5
100
AcDbEntity
  8
image
100
AcDbVertex
100
AcDb2dVertex
 10
5.306263434536917
 20
7.253979365955448
 30
0.0
 70
     8
  0
VERTEX
  5
386
330
2C5
100
AcDbEntity
  8
image
100
AcDbVertex
100
AcDb2dVertex
 10
5.321927492514491
 20
7.264161364555677
 30
0.0
 70
     8
  0
VERTEX
  5
387
330
2C5
100
AcDbEntity
  8
image
100
AcDbVertex
100
AcDb2dVertex
 10
5.338108054025036
 20
7.274582195811881
 30
0.0
 70
     8
  0
VERTEX
  5
388
330
2C5
100
AcDbEntity
  8
image
100
AcDbVertex
100
AcDb2dVertex
 10
5.354564435330621
 20
7.285094345440395
 30
0.0
 70
     8
  0
VERTEX
  5
389
330
2C5
100
AcDbEntity
  8
image
100
AcDbVertex
100
AcDb2dVertex
 10
5.371055952693302
 20
7.295550299157564
 30
0.0
 70
     8
  0
VERTEX
  5
38A
330
2C5
100
AcDbEntity
  8
image
100
AcDbVertex
100
AcDb2dVertex
 10
5.387341922375144
 20
7.305802542679723
 30
0.0
 70
     8
  0
VERTEX
  5
38B
330
2C5
100
AcDbEntity
  8
image
100
AcDbVertex
100
AcDb2dVertex
 10
5.403181660638212
 20
7.315703561723212
 30
0.0
 70
     8
  0
VERTEX
  5
38C
330
2C5
100
AcDbEntity
  8
image
100
AcDbVertex
100
AcDb2dVertex
 10
5.418334483744574
 20
7.32510584200437
 30
0.0
 70
     8
  0
VERTEX
  5
38D
330
2C5
100
AcDbEntity
  8
image
100
AcDbVertex
100
AcDb2dVertex
 10
5.432631444606608
 20
7.333903430805795
 30
0.0
 70
     8
  0
VERTEX
  5
38E
330
2C5
100
AcDbEntity
  8
image
100
AcDbVertex
100
AcDb2dVertex
 10
5.446190542737999
 20
7.342156621675105
 30
0.0
 70
     8
  0
VERTEX
  5
38F
330
2C5
100
AcDbEntity
  8
image
100
AcDbVertex
100
AcDb2dVertex
 10
5.45920151430276
 20
7.349967269726178
 30
0.0
 70
     8
  0
VERTEX
  5
390
330
2C5
100
AcDbEntity
  8
image
100
AcDbVertex
100
AcDb2dVertex
 10
5.4718540954649
 20
7.357437230072891
 30
0.0
 70
     8
  0
VERTEX
  5
391
330
2C5
100
AcDbEntity
  8
image
100
AcDbVertex
100
AcDb2dVertex
 10
5.484338022388422
 20
7.36466835782912
 30
0.0
 70
     8
  0
VERTEX
  5
392
330
2C5
100
AcDbEntity
  8
image
100
AcDbVertex
100
AcDb2dVertex
 10
5.496843031237341
 20
7.371762508108746
 30
0.0
 70
     8
  0
VERTEX
  5
393
330
2C5
100
AcDbEntity
  8
image
100
AcDbVertex
100
AcDb2dVertex
 10
5.50955885817566
 20
7.378821536025643
 30
0.0
 70
     8
  0
VERTEX
  5
394
330
2C5
100
AcDbEntity
  8
image
100
AcDbVertex
100
AcDb2dVertex
 10
5.522675239367389
 20
7.385947296693688
 30
0.0
 70
     8
  0
VERTEX
  5
395
330
2C5
100
AcDbEntity
  8
image
100
AcDbVertex
100
AcDb2dVertex
 10
5.536345603426402
 20
7.393219986370921
 30
0.0
 70
     8
  0
VERTEX
  5
396
330
2C5
100
AcDbEntity
  8
image
100
AcDbVertex
100
AcDb2dVertex
 10
5.550578148766023
 20
7.400633165892012
 30
0.0
 70
     8
  0
VERTEX
  5
397
330
2C5
100
AcDbEntity
  8
image
100
AcDbVertex
100
AcDb2dVertex
 10
5.565344766249436
 20
7.408158737235801
 30
0.0
 70
     8
  0
VERTEX
  5
398
102
{ACAD_REACTORS
330
C07
102
}
330
2C5
100
AcDbEntity
  8
image
100
AcDbVertex
100
AcDb2dVertex
 10
5.580617346739826
 20
7.415768602381119
 30
0.0
 70
     8
  0
VERTEX
  5
399
330
2C5
100
AcDbEntity
  8
image
100
AcDbVertex
100
AcDb2dVertex
 10
5.596367781100381
 20
7.423434663306803
 30
0.0
 70
     8
  0
VERTEX
  5
39A
330
2C5
100
AcDbEntity
  8
image
100
AcDbVertex
100
AcDb2dVertex
 10
5.612567960194285
 20
7.431128821991686
 30
0.0
 70
     8
  0
VERTEX
  5
39B
330
2C5
100
AcDbEntity
  8
image
100
AcDbVertex
100
AcDb2dVertex
 10
5.629189774884727
 20
7.438822980414604
 30
0.0
 70
     8
  0
VERTEX
  5
39C
330
2C5
100
AcDbEntity
  8
image
100
AcDbVertex
100
AcDb2dVertex
 10
5.64620511603489
 20
7.446489040554393
 30
0.0
 70
     8
  0
VERTEX
  5
39D
330
2C5
100
AcDbEntity
  8
image
100
AcDbVertex
100
AcDb2dVertex
 10
5.663576504844209
 20
7.454095392175442
 30
0.0
 70
     8
  0
VERTEX
  5
39E
330
2C5
100
AcDbEntity
  8
image
100
AcDbVertex
100
AcDb2dVertex
 10
5.681228983857133
 20
7.461596376184376
 30
0.0
 70
     8
  0
VERTEX
  5
39F
330
2C5
100
AcDbEntity
  8
image
100
AcDbVertex
100
AcDb2dVertex
 10
5.69907822595435
 20
7.468942821273374
 30
0.0
 70
     8
  0
VERTEX
  5
3A0
330
2C5
100
AcDbEntity
  8
image
100
AcDbVertex
100
AcDb2dVertex
 10
5.717039904016553
 20
7.476085556134618
 30
0.0
 70
     8
  0
VERTEX
  5
3A1
330
2C5
100
AcDbEntity
  8
image
100
AcDbVertex
100
AcDb2dVertex
 10
5.735029690924436
 20
7.482975409460287
 30
0.0
 70
     8
  0
VERTEX
  5
3A2
330
2C5
100
AcDbEntity
  8
image
100
AcDbVertex
100
AcDb2dVertex
 10
5.752963259558692
 20
7.489563209942565
 30
0.0
 70
     8
  0
VERTEX
  5
3A3
330
2C5
100
AcDbEntity
  8
image
100
AcDbVertex
100
AcDb2dVertex
 10
5.770756282800013
 20
7.495799786273629
 30
0.0
 70
     8
  0
VERTEX
  5
3A4
330
2C5
100
AcDbEntity
  8
image
100
AcDbVertex
100
AcDb2dVertex
 10
5.788324433529089
 20
7.501635967145659
 30
0.0
 70
     8
  0
VERTEX
  5
3A5
330
2C5
100
AcDbEntity
  8
image
100
AcDbVertex
100
AcDb2dVertex
 10
5.805602123978376
 20
7.507027556880689
 30
0.0
 70
     8
  0
VERTEX
  5
3A6
330
2C5
100
AcDbEntity
  8
image
100
AcDbVertex
100
AcDb2dVertex
 10
5.822598723787363
 20
7.511950262320146
 30
0.0
 70
     8
  0
VERTEX
  5
3A7
330
2C5
100
AcDbEntity
  8
image
100
AcDbVertex
100
AcDb2dVertex
 10
5.839342341947288
 20
7.516384765935313
 30
0.0
 70
     8
  0
VERTEX
  5
3A8
330
2C5
100
AcDbEntity
  8
image
100
AcDbVertex
100
AcDb2dVertex
 10
5.855861087449406
 20
7.520311750197466
 30
0.0
 70
     8
  0
VERTEX
  5
3A9
330
2C5
100
AcDbEntity
  8
image
100
AcDbVertex
100
AcDb2dVertex
 10
5.872183069284963
 20
7.523711897577886
 30
0.0
 70
     8
  0
VERTEX
  5
3AA
330
2C5
100
AcDbEntity
  8
image
100
AcDbVertex
100
AcDb2dVertex
 10
5.888336396445202
 20
7.526565890547853
 30
0.0
 70
     8
  0
VERTEX
  5
3AB
330
2C5
100
AcDbEntity
  8
image
100
AcDbVertex
100
AcDb2dVertex
 10
5.904349177921373
 20
7.528854411578647
 30
0.0
 70
     8
  0
VERTEX
  5
3AC
330
2C5
100
AcDbEntity
  8
image
100
AcDbVertex
100
AcDb2dVertex
 10
5.92024952270472
 20
7.530558143141547
 30
0.0
 70
     8
  0
VERTEX
  5
3AD
330
2C5
100
AcDbEntity
  8
image
100
AcDbVertex
100
AcDb2dVertex
 10
5.936062611830253
 20
7.531661280064174
 30
0.0
 70
     8
  0
VERTEX
  5
3AE
330
2C5
100
AcDbEntity
  8
image
100
AcDbVertex
100
AcDb2dVertex
 10
5.951801914508044
 20
7.532162066599507
 30
0.0
 70
     8
  0
VERTEX
  5
3AF
330
2C5
100
AcDbEntity
  8
image
100
AcDbVertex
100
AcDb2dVertex
 10
5.96747797199192
 20
7.532062259356871
 30
0.0
 70
     8
  0
VERTEX
  5
3B0
330
2C5
100
AcDbEntity
  8
image
100
AcDbVertex
100
AcDb2dVertex
 10
5.983101325535715
 20
7.531363614945586
 30
0.0
 70
     8
  0
VERTEX
  5
3B1
330
2C5
100
AcDbEntity
  8
image
100
AcDbVertex
100
AcDb2dVertex
 10
5.998682516393257
 20
7.530067889974972
 30
0.0
 70
     8
  0
VERTEX
  5
3B2
330
2C5
100
AcDbEntity
  8
image
100
AcDbVertex
100
AcDb2dVertex
 10
6.014232085818386
 20
7.528176841054353
 30
0.0
 70
     8
  0
VERTEX
  5
3B3
330
2C5
100
AcDbEntity
  8
image
100
AcDbVertex
100
AcDb2dVertex
 10
6.029760575064925
 20
7.525692224793051
 30
0.0
 70
     8
  0
VERTEX
  5
3B4
330
2C5
100
AcDbEntity
  8
image
100
AcDbVertex
100
AcDb2dVertex
 10
6.045278525386711
 20
7.522615797800385
 30
0.0
 70
     8
  0
VERTEX
  5
372
330
2C5
100
AcDbEntity
  8
image
100
AcDbVertex
100
AcDb2dVertex
 10
5.224944259078961
 20
7.198927264607931
 30
0.0
 70
    16
  0
VERTEX
  5
373
330
2C5
100
AcDbEntity
  8
image
100
AcDbVertex
100
AcDb2dVertex
 10
5.280712606402554
 20
7.238489194579699
 30
0.0
 70
    16
  0
VERTEX
  5
374
330
2C5
100
AcDbEntity
  8
image
100
AcDbVertex
100
AcDb2dVertex
 10
5.428228871954159
 20
7.33199920782828
 30
0.0
 70
    16
  0
VERTEX
  5
375
330
2C5
100
AcDbEntity
  8
image
100
AcDbVertex
100
AcDb2dVertex
 10
5.516378808248246
 20
7.384149026133409
 30
0.0
 70
    16
  0
VERTEX
  5
376
330
2C5
100
AcDbEntity
  8
image
100
AcDbVertex
100
AcDb2dVertex
 10
5.642307331257201
 20
7.447088467800217
 30
0.0
 70
    16
  0
VERTEX
  5
377
330
2C5
100
AcDbEntity
  8
image
100
AcDbVertex
100
AcDb2dVertex
 10
5.791622562932287
 20
7.506431345992078
 30
0.0
 70
    16
  0
VERTEX
  5
378
330
2C5
100
AcDbEntity
  8
image
100
AcDbVertex
100
AcDb2dVertex
 10
5.9211490181882
 20
7.537001951105429
 30
0.0
 70
    16
  0
VERTEX
  5
379
330
2C5
100
AcDbEntity
  8
image
100
AcDbVertex
100
AcDb2dVertex
 10
6.003902006424885
 20
7.531607122658801
 30
0.0
 70
    16
  0
VERTEX
  5
37A
330
2C5
100
AcDbEntity
  8
image
100
AcDbVertex
100
AcDb2dVertex
 10
6.045278525386711
 20
7.522615797800385
 30
0.0
 70
    16
  0
SEQEND
  5
37B
330
2C5
100
AcDbEntity
  8
image
  0
POLYLINE
  5
2C6
330
2
100
AcDbEntity
  8
image
100
AcDb2dPolyline
 66
     1
 10
0.0
 20
0.0
 30
0.0
 70
     4
 75
     6
  0
VERTEX
  5
32D
330
2C6
100
AcDbEntity
  8
image
100
AcDbVertex
100
AcDb2dVertex
 10
5.179176820723762
 20
7.164143590619486
 30
0.0
 70
    16
  0
VERTEX
  5
338
330
2C6
100
AcDbEntity
  8
image
100
AcDbVertex
100
AcDb2dVertex
 10
5.179176820723759
 20
7.164143590619486
 30
0.0
 70
     8
  0
VERTEX
  5
339
330
2C6
100
AcDbEntity
  8
image
100
AcDbVertex
100
AcDb2dVertex
 10
5.19907469443345
 20
7.168416970884319
 30
0.0
 70
     8
  0
VERTEX
  5
33A
330
2C6
100
AcDbEntity
  8
image
100
AcDbVertex
100
AcDb2dVertex
 10
5.216938296269136
 20
7.173670701421373
 30
0.0
 70
     8
  0
VERTEX
  5
33B
330
2C6
100
AcDbEntity
  8
image
100
AcDbVertex
100
AcDb2dVertex
 10
5.233184593270079
 20
7.179829662902786
 30
0.0
 70
     8
  0
VERTEX
  5
33C
330
2C6
100
AcDbEntity
  8
image
100
AcDbVertex
100
AcDb2dVertex
 10
5.248230552475542
 20
7.18681873600069
 30
0.0
 70
     8
  0
VERTEX
  5
33D
330
2C6
100
AcDbEntity
  8
image
100
AcDbVertex
100
AcDb2dVertex
 10
5.262493140924787
 20
7.194562801387222
 30
0.0
 70
     8
  0
VERTEX
  5
33E
330
2C6
100
AcDbEntity
  8
image
100
AcDbVertex
100
AcDb2dVertex
 10
5.276389325657076
 20
7.202986739734516
 30
0.0
 70
     8
  0
VERTEX
  5
33F
330
2C6
100
AcDbEntity
  8
image
100
AcDbVertex
100
AcDb2dVertex
 10
5.290336073711669
 20
7.212015431714707
 30
0.0
 70
     8
  0
VERTEX
  5
340
330
2C6
100
AcDbEntity
  8
image
100
AcDbVertex
100
AcDb2dVertex
 10
5.304750352127827
 20
7.221573757999928
 30
0.0
 70
     8
  0
VERTEX
  5
341
330
2C6
100
AcDbEntity
  8
image
100
AcDbVertex
100
AcDb2dVertex
 10
5.319941807069332
 20
7.231576155101784
 30
0.0
 70
     8
  0
VERTEX
  5
342
330
2C6
100
AcDbEntity
  8
image
100
AcDbVertex
100
AcDb2dVertex
 10
5.335790801198038
 20
7.241895282889728
 30
0.0
 70
     8
  0
VERTEX
  5
343
330
2C6
100
AcDbEntity
  8
image
100
AcDbVertex
100
AcDb2dVertex
 10
5.352070376300323
 20
7.252393357072685
 30
0.0
 70
     8
  0
VERTEX
  5
344
330
2C6
100
AcDbEntity
  8
image
100
AcDbVertex
100
AcDb2dVertex
 10
5.368553574162559
 20
7.262932593359577
 30
0.0
 70
     8
  0
VERTEX
  5
345
330
2C6
100
AcDbEntity
  8
image
100
AcDbVertex
100
AcDb2dVertex
 10
5.385013436571126
 20
7.273375207459325
 30
0.0
 70
     8
  0
VERTEX
  5
346
330
2C6
100
AcDbEntity
  8
image
100
AcDbVertex
100
AcDb2dVertex
 10
5.401223005312397
 20
7.283583415080855
 30
0.0
 70
     8
  0
VERTEX
  5
347
330
2C6
100
AcDbEntity
  8
image
100
AcDbVertex
100
AcDb2dVertex
 10
5.416955322172745
 20
7.293419431933088
 30
0.0
 70
     8
  0
VERTEX
  5
348
330
2C6
100
AcDbEntity
  8
image
100
AcDbVertex
100
AcDb2dVertex
 10
5.431983428938549
 20
7.302745473724947
 30
0.0
 70
     8
  0
VERTEX
  5
349
330
2C6
100
AcDbEntity
  8
image
100
AcDbVertex
100
AcDb2dVertex
 10
5.446149668294237
 20
7.311463650429608
 30
0.0
 70
     8
  0
VERTEX
  5
34A
330
2C6
100
AcDbEntity
  8
image
100
AcDbVertex
100
AcDb2dVertex
 10
5.459573586516475
 20
7.31963564907727
 30
0.0
 70
     8
  0
VERTEX
  5
34B
330
2C6
100
AcDbEntity
  8
image
100
AcDbVertex
100
AcDb2dVertex
 10
5.472444030779984
 20
7.327363050962382
 30
0.0
 70
     8
  0
VERTEX
  5
34C
330
2C6
100
AcDbEntity
  8
image
100
AcDbVertex
100
AcDb2dVertex
 10
5.484949848259491
 20
7.3347474373794
 30
0.0
 70
     8
  0
VERTEX
  5
34D
330
2C6
100
AcDbEntity
  8
image
100
AcDbVertex
100
AcDb2dVertex
 10
5.497279886129708
 20
7.341890389622772
 30
0.0
 70
     8
  0
VERTEX
  5
34E
330
2C6
100
AcDbEntity
  8
image
100
AcDbVertex
100
AcDb2dVertex
 10
5.509622991565366
 20
7.348893488986952
 30
0.0
 70
     8
  0
VERTEX
  5
34F
330
2C6
100
AcDbEntity
  8
image
100
AcDbVertex
100
AcDb2dVertex
 10
5.522168011741177
 20
7.355858316766392
 30
0.0
 70
     8
  0
VERTEX
  5
350
330
2C6
100
AcDbEntity
  8
image
100
AcDbVertex
100
AcDb2dVertex
 10
5.53510379383187
 20
7.362886454255541
 30
0.0
 70
     8
  0
VERTEX
  5
351
330
2C6
100
AcDbEntity
  8
image
100
AcDbVertex
100
AcDb2dVertex
 10
5.548582923767172
 20
7.370057878544717
 30
0.0
 70
     8
  0
VERTEX
  5
352
330
2C6
100
AcDbEntity
  8
image
100
AcDbVertex
100
AcDb2dVertex
 10
5.562612942496832
 20
7.377366149907681
 30
0.0
 70
     8
  0
VERTEX
  5
353
330
2C6
100
AcDbEntity
  8
image
100
AcDbVertex
100
AcDb2dVertex
 10
5.577165129725615
 20
7.384783224414062
 30
0.0
 70
     8
  0
VERTEX
  5
354
330
2C6
100
AcDbEntity
  8
image
100
AcDbVertex
100
AcDb2dVertex
 10
5.592210765158275
 20
7.392281058133487
 30
0.0
 70
     8
  0
VERTEX
  5
355
330
2C6
100
AcDbEntity
  8
image
100
AcDbVertex
100
AcDb2dVertex
 10
5.607721128499571
 20
7.399831607135583
 30
0.0
 70
     8
  0
VERTEX
  5
356
330
2C6
100
AcDbEntity
  8
image
100
AcDbVertex
100
AcDb2dVertex
 10
5.623667499454269
 20
7.407406827489978
 30
0.0
 70
     8
  0
VERTEX
  5
357
330
2C6
100
AcDbEntity
  8
image
100
AcDbVertex
100
AcDb2dVertex
 10
5.640021157727121
 20
7.414978675266295
 30
0.0
 70
     8
  0
VERTEX
  5
358
330
2C6
100
AcDbEntity
  8
image
100
AcDbVertex
100
AcDb2dVertex
 10
5.656753383022889
 20
7.422519106534165
 30
0.0
 70
     8
  0
VERTEX
  5
359
330
2C6
100
AcDbEntity
  8
image
100
AcDbVertex
100
AcDb2dVertex
 10
5.673825580686886
 20
7.429996552835657
 30
0.0
 70
     8
  0
VERTEX
  5
35A
330
2C6
100
AcDbEntity
  8
image
100
AcDbVertex
100
AcDb2dVertex
 10
5.691159658626618
 20
7.437365347602602
 30
0.0
 70
     8
  0
VERTEX
  5
35B
330
2C6
100
AcDbEntity
  8
image
100
AcDbVertex
100
AcDb2dVertex
 10
5.708667650390152
 20
7.444576299739276
 30
0.0
 70
     8
  0
VERTEX
  5
35C
330
2C6
100
AcDbEntity
  8
image
100
AcDbVertex
100
AcDb2dVertex
 10
5.726261589525551
 20
7.451580218149958
 30
0.0
 70
     8
  0
VERTEX
  5
35D
330
2C6
100
AcDbEntity
  8
image
100
AcDbVertex
100
AcDb2dVertex
 10
5.743853509580874
 20
7.458327911738921
 30
0.0
 70
     8
  0
VERTEX
  5
35E
330
2C6
100
AcDbEntity
  8
image
100
AcDbVertex
100
AcDb2dVertex
 10
5.761355444104184
 20
7.46477018941044
 30
0.0
 70
     8
  0
VERTEX
  5
35F
330
2C6
100
AcDbEntity
  8
image
100
AcDbVertex
100
AcDb2dVertex
 10
5.778679426643547
 20
7.470857860068793
 30
0.0
 70
     8
  0
VERTEX
  5
360
330
2C6
100
AcDbEntity
  8
image
100
AcDbVertex
100
AcDb2dVertex
 10
5.79573749074702
 20
7.476541732618256
 30
0.0
 70
     8
  0
VERTEX
  5
361
330
2C6
100
AcDbEntity
  8
image
100
AcDbVertex
100
AcDb2dVertex
 10
5.812460936213495
 20
7.481778289441912
 30
0.0
 70
     8
  0
VERTEX
  5
362
330
2C6
100
AcDbEntity
  8
image
100
AcDbVertex
100
AcDb2dVertex
 10
5.828858127845128
 20
7.486546706838089
 30
0.0
 70
     8
  0
VERTEX
  5
363
330
2C6
100
AcDbEntity
  8
image
100
AcDbVertex
100
AcDb2dVertex
 10
5.844956696694902
 20
7.490831834583925
 30
0.0
 70
     8
  0
VERTEX
  5
364
330
2C6
100
AcDbEntity
  8
image
100
AcDbVertex
100
AcDb2dVertex
 10
5.860784273815804
 20
7.494618522456557
 30
0.0
 70
     8
  0
VERTEX
  5
365
330
2C6
100
AcDbEntity
  8
image
100
AcDbVertex
100
AcDb2dVertex
 10
5.876368490260821
 20
7.49789162023312
 30
0.0
 70
     8
  0
VERTEX
  5
366
330
2C6
100
AcDbEntity
  8
image
100
AcDbVertex
100
AcDb2dVertex
 10
5.891736977082929
 20
7.500635977690754
 30
0.0
 70
     8
  0
VERTEX
  5
367
330
2C6
100
AcDbEntity
  8
image
100
AcDbVertex
100
AcDb2dVertex
 10
5.906917365335116
 20
7.502836444606593
 30
0.0
 70
     8
  0
VERTEX
  5
368
330
2C6
100
AcDbEntity
  8
image
100
AcDbVertex
100
AcDb2dVertex
 10
5.921937286070365
 20
7.504477870757778
 30
0.0
 70
     8
  0
VERTEX
  5
369
330
2C6
100
AcDbEntity
  8
image
100
AcDbVertex
100
AcDb2dVertex
 10
5.936824525479705
 20
7.505547737821514
 30
0.0
 70
     8
  0
VERTEX
  5
36A
330
2C6
100
AcDbEntity
  8
image
100
AcDbVertex
100
AcDb2dVertex
 10
5.951607490306328
 20
7.506044055075287
 30
0.0
 70
     8
  0
VERTEX
  5
36B
330
2C6
100
AcDbEntity
  8
image
100
AcDbVertex
100
AcDb2dVertex
 10
5.966314742431473
 20
7.505967463696659
 30
0.0
 70
     8
  0
VERTEX
  5
36C
330
2C6
100
AcDbEntity
  8
image
100
AcDbVertex
100
AcDb2dVertex
 10
5.980974843736385
 20
7.505318604863187
 30
0.0
 70
     8
  0
VERTEX
  5
36D
330
2C6
100
AcDbEntity
  8
image
100
AcDbVertex
100
AcDb2dVertex
 10
5.995616356102297
 20
7.504098119752431
 30
0.0
 70
     8
  0
VERTEX
  5
36E
330
2C6
100
AcDbEntity
  8
image
100
AcDbVertex
100
AcDb2dVertex
 10
6.010267841410451
 20
7.502306649541944
 30
0.0
 70
     8
  0
VERTEX
  5
36F
330
2C6
100
AcDbEntity
  8
image
100
AcDbVertex
100
AcDb2dVertex
 10
6.024957861542086
 20
7.499944835409291
 30
0.0
 70
     8
  0
VERTEX
  5
370
330
2C6
100
AcDbEntity
  8
image
100
AcDbVertex
100
AcDb2dVertex
 10
6.039714978378443
 20
7.497013318532026
 30
0.0
 70
     8
  0
VERTEX
  5
32E
330
2C6
100
AcDbEntity
  8
image
100
AcDbVertex
100
AcDb2dVertex
 10
5.235320817149835
 20
7.174165364893529
 30
0.0
 70
    16
  0
VERTEX
  5
32F
330
2C6
100
AcDbEntity
  8
image
100
AcDbVertex
100
AcDb2dVertex
 10
5.29531571318567
 20
7.216725598243481
 30
0.0
 70
    16
  0
VERTEX
  5
330
330
2C6
100
AcDbEntity
  8
image
100
AcDbVertex
100
AcDb2dVertex
 10
5.441915890892369
 20
7.309654906807098
 30
0.0
 70
    16
  0
VERTEX
  5
331
330
2C6
100
AcDbEntity
  8
image
100
AcDbVertex
100
AcDb2dVertex
 10
5.528921296876125
 20
7.361127616877805
 30
0.0
 70
    16
  0
VERTEX
  5
332
330
2C6
100
AcDbEntity
  8
image
100
AcDbVertex
100
AcDb2dVertex
 10
5.653021684594348
 20
7.423153351214926
 30
0.0
 70
    16
  0
VERTEX
  5
333
330
2C6
100
AcDbEntity
  8
image
100
AcDbVertex
100
AcDb2dVertex
 10
5.79951226288381
 20
7.48137361746749
 30
0.0
 70
    16
  0
VERTEX
  5
334
330
2C6
100
AcDbEntity
  8
image
100
AcDbVertex
100
AcDb2dVertex
 10
5.923354208352543
 20
7.510602574624648
 30
0.0
 70
    16
  0
VERTEX
  5
335
330
2C6
100
AcDbEntity
  8
image
100
AcDbVertex
100
AcDb2dVertex
 10
6.000247816202987
 20
7.505589730595271
 30
0.0
 70
    16
  0
VERTEX
  5
336
330
2C6
100
AcDbEntity
  8
image
100
AcDbVertex
100
AcDb2dVertex
 10
6.039714978378443
 20
7.497013318532026
 30
0.0
 70
    16
  0
SEQEND
  5
337
330
2C6
100
AcDbEntity
  8
image
  0
ARC
  5
4B8
330
2
100
AcDbEntity
  8
image
100
AcDbCircle
 10
6.324859198737049
 20
6.285203048904541
 30
0.0
 40
0.3032535772340587
100
AcDbArc
 50
91.28197463762433
 51
178.8849338463101
  0
ARC
  5
4B9
330
2
100
AcDbEntity
  8
image
100
AcDbCircle
 10
6.324859198737049
 20
6.285203048904541
 30
0.0
 40
0.312739534865845
100
AcDbArc
 50
81.22880316047254
 51
86.31866677727343
  0
ARC
  5
4BA
330
2
100
AcDbEntity
  8
image
100
AcDbCircle
 10
6.324859198737049
 20
6.285203048904541
 30
0.0
 40
0.3032535772340587
100
AcDbArc
 50
81.18217829872888
 51
86.32220961832747
  0
ARC
  5
516
330
2
100
AcDbEntity
  8
image
100
AcDbCircle
 10
6.027344239677711
 20
7.511386377979235
 30
0.0
 40
0.0350314297262623
100
AcDbArc
 50
191.6483819924572
 51
322.5248720176856
  0
ARC
  5
517
330
2
100
AcDbEntity
  8
image
100
AcDbCircle
 10
6.220447353002208
 20
7.511386377979235
 30
0.0
 40
0.0350314297262623
100
AcDbArc
 50
28.94429599337358
 51
142.5248720176852
  0
LINE
  5
518
330
2
100
AcDbEntity
  8
image
100
AcDbLine
 10
6.305145796339962
 20
7.459133861900724
 30
0.0
 11
6.305145796339958
 21
7.402883861900724
 31
0.0
  0
ARC
  5
519
330
2
100
AcDbEntity
  8
image
100
AcDbCircle
 10
6.04003531971144
 20
7.510349439708271
 30
0.0
 40
0.013339968013349
100
AcDbArc
 50
268.6239868916715
 51
66.855908210981
  0
ARC
  5
51A
330
2
100
AcDbEntity
  8
image
100
AcDbCircle
 10
5.180565352823483
 20
7.177698509571074
 30
0.0
 40
0.0136258522366882
100
AcDbArc
 50
116.0903868915409
 51
264.1511644133183
  0
ARC
  5
51B
330
2
100
AcDbEntity
  8
image
100
AcDbCircle
 10
5.18040291889015
 20
7.148537665167355
 30
0.0
 40
0.0132538119164081
100
AcDbArc
 50
107.7065629312488
 51
270.231726665304
  0
ARC
  5
51D
330
2
100
AcDbEntity
  8
image
100
AcDbCircle
 10
6.209004718888339
 20
7.516921717438753
 30
0.0
 40
0.0132633313801349
100
AcDbArc
 50
99.00104270897932
 51
260.9989572910044
  0
LINE
  5
51E
330
2
100
AcDbEntity
  8
image
100
AcDbLine
 10
5.912836285828069
 20
7.102522180573107
 30
0.0
 11
5.912836285828069
 21
7.019410705513946
 31
0.0
  0
ARC
  5
51F
330
2
100
AcDbEntity
  8
image
100
AcDbCircle
 10
5.997534729165819
 20
7.127913221592457
 30
0.0
 40
0.0350314297262623
100
AcDbArc
 50
219.9179899318286
 51
322.5248720176856
  0
ARC
  5
520
330
2
100
AcDbEntity
  8
image
100
AcDbCircle
 10
6.006466803860737
 20
7.12067574773998
 30
0.0
 40
0.0131024694816802
100
AcDbArc
 50
271.6791717538894
 51
93.90402194373862
  0
ARC
  5
521
330
2
100
AcDbEntity
  8
image
100
AcDbCircle
 10
6.190637842490316
 20
7.127913221592457
 30
0.0
 40
0.0350314297262623
100
AcDbArc
 50
13.99092919295138
 51
142.5248720176852
  0
LINE
  5
522
330
2
100
AcDbEntity
  8
image
100
AcDbLine
 10
6.275336285828073
 20
7.103098826233091
 30
0.0
 11
6.275336285828066
 21
7.019410705513946
 31
0.0
  0
ARC
  5
523
330
2
100
AcDbEntity
  8
image
100
AcDbCircle
 10
6.187296973672596
 20
7.125275876127526
 30
0.0
 40
0.0135953011672814
100
AcDbArc
 50
105.5133394751973
 51
254.4866605248149
  0
LWPOLYLINE
  5
525
330
2
100
AcDbEntity
  8
image
100
AcDbPolyline
 90
        8
 70
     0
 43
0.0
 10
5.180456522371789
 20
7.135283961647875
 10
5.265983155138252
 20
7.158962519795222
 10
5.314560010420523
 20
7.1635148002931
 10
5.454218531465754
 20
7.166549676312738
 10
5.656116132814213
 20
7.125579084768679
 10
5.853459675718008
 20
7.09978280625965
 10
5.952131472013386
 20
7.104335086757528
 10
6.006850743960326
 20
7.107578904741826
  0
LWPOLYLINE
  5
526
330
2
100
AcDbEntity
  8
image
100
AcDbPolyline
 90
        8
 70
     0
 43
0.0
 10
5.17346586438458
 20
7.160534124041529
 10
5.261228545722586
 20
7.184831745566084
 10
5.313051182253497
 20
7.189688197805683
 10
5.456567989951226
 20
7.192806917056303
 10
5.660424649610275
 20
7.151438778551218
 10
5.854562423245516
 20
7.126061550575441
 10
5.950752457569697
 20
7.130499333546708
 10
6.00530030138068
 20
7.133732989084567
  0
POLYLINE
  5
527
330
2
100
AcDbEntity
  8
image
100
AcDb2dPolyline
 66
     1
 10
0.0
 20
0.0
 30
0.0
 70
     4
 75
     6
  0
VERTEX
  5
5F7
330
527
100
AcDbEntity
  8
image
100
AcDbVertex
100
AcDb2dVertex
 10
6.294118860669696
 20
6.22286125494266
 30
0.0
 70
    16
  0
VERTEX
  5
602
330
527
100
AcDbEntity
  8
image
100
AcDbVertex
100
AcDb2dVertex
 10
6.294118860669696
 20
6.22286125494266
 30
0.0
 70
     8
  0
VERTEX
  5
603
330
527
100
AcDbEntity
  8
image
100
AcDbVertex
100
AcDb2dVertex
 10
6.295972595297596
 20
6.250045148516726
 30
0.0
 70
     8
  0
VERTEX
  5
604
330
527
100
AcDbEntity
  8
image
100
AcDbVertex
100
AcDb2dVertex
 10
6.297612073634249
 20
6.276962804605703
 30
0.0
 70
     8
  0
VERTEX
  5
605
330
527
100
AcDbEntity
  8
image
100
AcDbVertex
100
AcDb2dVertex
 10
6.299100746026367
 20
6.303648801400095
 30
0.0
 70
     8
  0
VERTEX
  5
606
330
527
100
AcDbEntity
  8
image
100
AcDbVertex
100
AcDb2dVertex
 10
6.300502062820671
 20
6.330137717090401
 30
0.0
 70
     8
  0
VERTEX
  5
607
330
527
100
AcDbEntity
  8
image
100
AcDbVertex
100
AcDb2dVertex
 10
6.30187947436387
 20
6.356464129867127
 30
0.0
 70
     8
  0
VERTEX
  5
608
330
527
100
AcDbEntity
  8
image
100
AcDbVertex
100
AcDb2dVertex
 10
6.303296431002687
 20
6.382662617920773
 30
0.0
 70
     8
  0
VERTEX
  5
609
330
527
100
AcDbEntity
  8
image
100
AcDbVertex
100
AcDb2dVertex
 10
6.304816383083833
 20
6.408767759441843
 30
0.0
 70
     8
  0
VERTEX
  5
60A
330
527
100
AcDbEntity
  8
image
100
AcDbVertex
100
AcDb2dVertex
 10
6.306502780954032
 20
6.434814132620838
 30
0.0
 70
     8
  0
VERTEX
  5
60B
330
527
100
AcDbEntity
  8
image
100
AcDbVertex
100
AcDb2dVertex
 10
6.308396652182123
 20
6.460872885234405
 30
0.0
 70
     8
  0
VERTEX
  5
60C
330
527
100
AcDbEntity
  8
image
100
AcDbVertex
100
AcDb2dVertex
 10
6.310449333225522
 20
6.487161443403778
 30
0.0
 70
     8
  0
VERTEX
  5
60D
330
527
100
AcDbEntity
  8
image
100
AcDbVertex
100
AcDb2dVertex
 10
6.31258973776376
 20
6.513933802836328
 30
0.0
 70
     8
  0
VERTEX
  5
60E
330
527
100
AcDbEntity
  8
image
100
AcDbVertex
100
AcDb2dVertex
 10
6.314746779476381
 20
6.541443959239437
 30
0.0
 70
     8
  0
VERTEX
  5
60F
330
527
100
AcDbEntity
  8
image
100
AcDbVertex
100
AcDb2dVertex
 10
6.316849372042925
 20
6.569945908320478
 30
0.0
 70
     8
  0
VERTEX
  5
610
330
527
100
AcDbEntity
  8
image
100
AcDbVertex
100
AcDb2dVertex
 10
6.318826429142932
 20
6.599693645786828
 30
0.0
 70
     8
  0
VERTEX
  5
611
330
527
100
AcDbEntity
  8
image
100
AcDbVertex
100
AcDb2dVertex
 10
6.320606864455944
 20
6.630941167345865
 30
0.0
 70
     8
  0
VERTEX
  5
612
330
527
100
AcDbEntity
  8
image
100
AcDbVertex
100
AcDb2dVertex
 10
6.322119591661495
 20
6.663942468704963
 30
0.0
 70
     8
  0
VERTEX
  5
613
330
527
100
AcDbEntity
  8
image
100
AcDbVertex
100
AcDb2dVertex
 10
6.323309405423897
 20
6.69878423094042
 30
0.0
 70
     8
  0
VERTEX
  5
614
330
527
100
AcDbEntity
  8
image
100
AcDbVertex
100
AcDb2dVertex
 10
6.324184624346509
 20
6.734883876604229
 30
0.0
 70
     8
  0
VERTEX
  5
615
330
527
100
AcDbEntity
  8
image
100
AcDbVertex
100
AcDb2dVertex
 10
6.324769448017464
 20
6.771491513617297
 30
0.0
 70
     8
  0
VERTEX
  5
616
330
527
100
AcDbEntity
  8
image
100
AcDbVertex
100
AcDb2dVertex
 10
6.325088076024895
 20
6.807857249900539
 30
0.0
 70
     8
  0
VERTEX
  5
617
330
527
100
AcDbEntity
  8
image
100
AcDbVertex
100
AcDb2dVertex
 10
6.325164707956931
 20
6.843231193374865
 30
0.0
 70
     8
  0
VERTEX
  5
618
330
527
100
AcDbEntity
  8
image
100
AcDbVertex
100
AcDb2dVertex
 10
6.3250235434017
 20
6.876863451961186
 30
0.0
 70
     8
  0
VERTEX
  5
619
330
527
100
AcDbEntity
  8
image
100
AcDbVertex
100
AcDb2dVertex
 10
6.324688781947338
 20
6.908004133580417
 30
0.0
 70
     8
  0
VERTEX
  5
61A
330
527
100
AcDbEntity
  8
image
100
AcDbVertex
100
AcDb2dVertex
 10
6.324184623181968
 20
6.935903346153466
 30
0.0
 70
     8
  0
VERTEX
  5
61B
330
527
100
AcDbEntity
  8
image
100
AcDbVertex
100
AcDb2dVertex
 10
6.323531233429042
 20
6.960005726049148
 30
0.0
 70
     8
  0
VERTEX
  5
61C
330
527
100
AcDbEntity
  8
image
100
AcDbVertex
100
AcDb2dVertex
 10
6.322732645953239
 20
6.980534023427884
 30
0.0
 70
     8
  0
VERTEX
  5
61D
330
527
100
AcDbEntity
  8
image
100
AcDbVertex
100
AcDb2dVertex
 10
6.321788860754564
 20
6.997905516897992
 30
0.0
 70
     8
  0
VERTEX
  5
61E
330
527
100
AcDbEntity
  8
image
100
AcDbVertex
100
AcDb2dVertex
 10
6.320699877833016
 20
7.012537485067797
 30
0.0
 70
     8
  0
VERTEX
  5
61F
330
527
100
AcDbEntity
  8
image
100
AcDbVertex
100
AcDb2dVertex
 10
6.319465697188595
 20
7.02484720654562
 30
0.0
 70
     8
  0
VERTEX
  5
620
330
527
100
AcDbEntity
  8
image
100
AcDbVertex
100
AcDb2dVertex
 10
6.318086318821302
 20
7.035251959939783
 30
0.0
 70
     8
  0
VERTEX
  5
621
330
527
100
AcDbEntity
  8
image
100
AcDbVertex
100
AcDb2dVertex
 10
6.316561742731137
 20
7.044169023858607
 30
0.0
 70
     8
  0
VERTEX
  5
622
330
527
100
AcDbEntity
  8
image
100
AcDbVertex
100
AcDb2dVertex
 10
6.314891968918095
 20
7.052015676910414
 30
0.0
 70
     8
  0
VERTEX
  5
623
330
527
100
AcDbEntity
  8
image
100
AcDbVertex
100
AcDb2dVertex
 10
6.313076997398356
 20
7.059143179004701
 30
0.0
 70
     8
  0
VERTEX
  5
624
330
527
100
AcDbEntity
  8
image
100
AcDbVertex
100
AcDb2dVertex
 10
6.31111682825279
 20
7.065638715255664
 30
0.0
 70
     8
  0
VERTEX
  5
625
330
527
100
AcDbEntity
  8
image
100
AcDbVertex
100
AcDb2dVertex
 10
6.309011461578441
 20
7.071523452078674
 30
0.0
 70
     8
  0
VERTEX
  5
626
330
527
100
AcDbEntity
  8
image
100
AcDbVertex
100
AcDb2dVertex
 10
6.306760897472349
 20
7.076818555889103
 30
0.0
 70
     8
  0
VERTEX
  5
627
330
527
100
AcDbEntity
  8
image
100
AcDbVertex
100
AcDb2dVertex
 10
6.304365136031568
 20
7.081545193102323
 30
0.0
 70
     8
  0
VERTEX
  5
628
330
527
100
AcDbEntity
  8
image
100
AcDbVertex
100
AcDb2dVertex
 10
6.301824177353138
 20
7.085724530133706
 30
0.0
 70
     8
  0
VERTEX
  5
629
330
527
100
AcDbEntity
  8
image
100
AcDbVertex
100
AcDb2dVertex
 10
6.299138021534099
 20
7.089377733398622
 30
0.0
 70
     8
  0
VERTEX
  5
62A
330
527
100
AcDbEntity
  8
image
100
AcDbVertex
100
AcDb2dVertex
 10
6.296306668671503
 20
7.092525969312442
 30
0.0
 70
     8
  0
VERTEX
  5
62B
330
527
100
AcDbEntity
  8
image
100
AcDbVertex
100
AcDb2dVertex
 10
6.293318019011719
 20
7.095197459691382
 30
0.0
 70
     8
  0
VERTEX
  5
62C
330
527
100
AcDbEntity
  8
image
100
AcDbVertex
100
AcDb2dVertex
 10
6.290111573398418
 20
7.097448647955017
 30
0.0
 70
     8
  0
VERTEX
  5
62D
330
527
100
AcDbEntity
  8
image
100
AcDbVertex
100
AcDb2dVertex
 10
6.286614732824594
 20
7.099343032923771
 30
0.0
 70
     8
  0
VERTEX
  5
62E
330
527
100
AcDbEntity
  8
image
100
AcDbVertex
100
AcDb2dVertex
 10
6.282754898283245
 20
7.100944113418064
 30
0.0
 70
     8
  0
VERTEX
  5
62F
330
527
100
AcDbEntity
  8
image
100
AcDbVertex
100
AcDb2dVertex
 10
6.278459470767364
 20
7.102315388258316
 30
0.0
 70
     8
  0
VERTEX
  5
630
330
527
100
AcDbEntity
  8
image
100
AcDbVertex
100
AcDb2dVertex
 10
6.273655851269952
 20
7.103520356264947
 30
0.0
 70
     8
  0
VERTEX
  5
631
330
527
100
AcDbEntity
  8
image
100
AcDbVertex
100
AcDb2dVertex
 10
6.268271440784003
 20
7.104622516258379
 30
0.0
 70
     8
  0
VERTEX
  5
632
330
527
100
AcDbEntity
  8
image
100
AcDbVertex
100
AcDb2dVertex
 10
6.262233640302516
 20
7.105685367059031
 30
0.0
 70
     8
  0
VERTEX
  5
633
330
527
100
AcDbEntity
  8
image
100
AcDbVertex
100
AcDb2dVertex
 10
6.25547368562646
 20
7.10675635861067
 30
0.0
 70
     8
  0
VERTEX
  5
634
330
527
100
AcDbEntity
  8
image
100
AcDbVertex
100
AcDb2dVertex
 10
6.247938151788721
 20
7.107818745350444
 30
0.0
 70
     8
  0
VERTEX
  5
635
330
527
100
AcDbEntity
  8
image
100
AcDbVertex
100
AcDb2dVertex
 10
6.239577448630159
 20
7.108839732838845
 30
0.0
 70
     8
  0
VERTEX
  5
636
330
527
100
AcDbEntity
  8
image
100
AcDbVertex
100
AcDb2dVertex
 10
6.230341985991634
 20
7.109786526636368
 30
0.0
 70
     8
  0
VERTEX
  5
637
330
527
100
AcDbEntity
  8
image
100
AcDbVertex
100
AcDb2dVertex
 10
6.220182173714009
 20
7.110626332303503
 30
0.0
 70
     8
  0
VERTEX
  5
638
330
527
100
AcDbEntity
  8
image
100
AcDbVertex
100
AcDb2dVertex
 10
6.209048421638145
 20
7.111326355400747
 30
0.0
 70
     8
  0
VERTEX
  5
639
330
527
100
AcDbEntity
  8
image
100
AcDbVertex
100
AcDb2dVertex
 10
6.196891139604906
 20
7.111853801488591
 30
0.0
 70
     8
  0
VERTEX
  5
63A
330
527
100
AcDbEntity
  8
image
100
AcDbVertex
100
AcDb2dVertex
 10
6.183660737455147
 20
7.112175876127526
 30
0.0
 70
     8
  0
VERTEX
  5
5F8
330
527
100
AcDbEntity
  8
image
100
AcDbVertex
100
AcDb2dVertex
 10
6.299404228373957
 20
6.295737357289622
 30
0.0
 70
    16
  0
VERTEX
  5
5F9
330
527
100
AcDbEntity
  8
image
100
AcDbVertex
100
AcDb2dVertex
 10
6.304050555505893
 20
6.435072160904276
 30
0.0
 70
    16
  0
VERTEX
  5
5FA
330
527
100
AcDbEntity
  8
image
100
AcDbVertex
100
AcDb2dVertex
 10
6.325733398892614
 20
6.642526196625624
 30
0.0
 70
    16
  0
VERTEX
  5
5FB
330
527
100
AcDbEntity
  8
image
100
AcDbVertex
100
AcDb2dVertex
 10
6.325733398892614
 20
6.978477864823002
 30
0.0
 70
    16
  0
VERTEX
  5
5FC
330
527
100
AcDbEntity
  8
image
100
AcDbVertex
100
AcDb2dVertex
 10
6.31644074462874
 20
7.058982421003165
 30
0.0
 70
    16
  0
VERTEX
  5
5FD
330
527
100
AcDbEntity
  8
image
100
AcDbVertex
100
AcDb2dVertex
 10
6.29785543610099
 20
7.097686512626825
 30
0.0
 70
    16
  0
VERTEX
  5
5FE
330
527
100
AcDbEntity
  8
image
100
AcDbVertex
100
AcDb2dVertex
 10
6.269977522996326
 20
7.105427344364189
 30
0.0
 70
    16
  0
VERTEX
  5
5FF
330
527
100
AcDbEntity
  8
image
100
AcDbVertex
100
AcDb2dVertex
 10
6.220416716817981
 20
7.111619989635133
 30
0.0
 70
    16
  0
VERTEX
  5
600
330
527
100
AcDbEntity
  8
image
100
AcDbVertex
100
AcDb2dVertex
 10
6.183660737455147
 20
7.112175876127526
 30
0.0
 70
    16
  0
SEQEND
  5
601
330
527
100
AcDbEntity
  8
image
  0
POLYLINE
  5
528
330
2
100
AcDbEntity
  8
image
100
AcDb2dPolyline
 66
     1
 10
0.0
 20
0.0
 30
0.0
 70
     4
  0
VERTEX
  5
5B3
330
528
100
AcDbEntity
  8
image
100
AcDbVertex
100
AcDb2dVertex
 10
6.32025022620011
 20
6.222810779854
 30
0.0
 70
    16
  0
VERTEX
  5
5BE
330
528
100
AcDbEntity
  8
image
100
AcDbVertex
100
AcDb2dVertex
 10
6.320250226200109
 20
6.222810779854
 30
0.0
 70
     8
  0
VERTEX
  5
5BF
330
528
100
AcDbEntity
  8
image
100
AcDbVertex
100
AcDb2dVertex
 10
6.322115891033064
 20
6.24954527187698
 30
0.0
 70
     8
  0
VERTEX
  5
5C0
330
528
100
AcDbEntity
  8
image
100
AcDbVertex
100
AcDb2dVertex
 10
6.32376382322567
 20
6.276107985562219
 30
0.0
 70
     8
  0
VERTEX
  5
5C1
330
528
100
AcDbEntity
  8
image
100
AcDbVertex
100
AcDb2dVertex
 10
6.3252581177047
 20
6.302522368823846
 30
0.0
 70
     8
  0
VERTEX
  5
5C2
330
528
100
AcDbEntity
  8
image
100
AcDbVertex
100
AcDb2dVertex
 10
6.326662869396933
 20
6.328811869575993
 30
0.0
 70
     8
  0
VERTEX
  5
5C3
330
528
100
AcDbEntity
  8
image
100
AcDbVertex
100
AcDb2dVertex
 10
6.328042173229142
 20
6.354999935732788
 30
0.0
 70
     8
  0
VERTEX
  5
5C4
330
528
100
AcDbEntity
  8
image
100
AcDbVertex
100
AcDb2dVertex
 10
6.329460124128104
 20
6.381110015208362
 30
0.0
 70
     8
  0
VERTEX
  5
5C5
330
528
100
AcDbEntity
  8
image
100
AcDbVertex
100
AcDb2dVertex
 10
6.330980817020591
 20
6.407165555916845
 30
0.0
 70
     8
  0
VERTEX
  5
5C6
330
528
100
AcDbEntity
  8
image
100
AcDbVertex
100
AcDb2dVertex
 10
6.332668346833383
 20
6.433190005772369
 30
0.0
 70
     8
  0
VERTEX
  5
5C7
330
528
100
AcDbEntity
  8
image
100
AcDbVertex
100
AcDb2dVertex
 10
6.334564241902814
 20
6.459245686030071
 30
0.0
 70
     8
  0
VERTEX
  5
5C8
330
528
100
AcDbEntity
  8
image
100
AcDbVertex
100
AcDb2dVertex
 10
6.336619764203486
 20
6.485550411309129
 30
0.0
 70
     8
  0
VERTEX
  5
5C9
330
528
100
AcDbEntity
  8
image
100
AcDbVertex
100
AcDb2dVertex
 10
6.338763609119565
 20
6.512360869569731
 30
0.0
 70
     8
  0
VERTEX
  5
5CA
330
528
100
AcDbEntity
  8
image
100
AcDbVertex
100
AcDb2dVertex
 10
6.340924472035217
 20
6.539933748772063
 30
0.0
 70
     8
  0
VERTEX
  5
5CB
330
528
100
AcDbEntity
  8
image
100
AcDbVertex
100
AcDb2dVertex
 10
6.343031048334603
 20
6.568525736876311
 30
0.0
 70
     8
  0
VERTEX
  5
5CC
330
528
100
AcDbEntity
  8
image
100
AcDbVertex
100
AcDb2dVertex
 10
6.345012033401891
 20
6.598393521842663
 30
0.0
 70
     8
  0
VERTEX
  5
5CD
330
528
100
AcDbEntity
  8
image
100
AcDbVertex
100
AcDb2dVertex
 10
6.346796122621244
 20
6.629793791631306
 30
0.0
 70
     8
  0
VERTEX
  5
5CE
330
528
100
AcDbEntity
  8
image
100
AcDbVertex
100
AcDb2dVertex
 10
6.348312011376826
 20
6.662983234202425
 30
0.0
 70
     8
  0
VERTEX
  5
5CF
330
528
100
AcDbEntity
  8
image
100
AcDbVertex
100
AcDb2dVertex
 10
6.349504106739496
 20
6.698050955763583
 30
0.0
 70
     8
  0
VERTEX
  5
5D0
330
528
100
AcDbEntity
  8
image
100
AcDbVertex
100
AcDb2dVertex
 10
6.350379662526876
 20
6.734415735511832
 30
0.0
 70
     8
  0
VERTEX
  5
5D1
330
528
100
AcDbEntity
  8
image
100
AcDbVertex
100
AcDb2dVertex
 10
6.350961644243277
 20
6.771328770891598
 30
0.0
 70
     8
  0
VERTEX
  5
5D2
330
528
100
AcDbEntity
  8
image
100
AcDbVertex
100
AcDb2dVertex
 10
6.351273017393015
 20
6.808041259347308
 30
0.0
 70
     8
  0
VERTEX
  5
5D3
330
528
100
AcDbEntity
  8
image
100
AcDbVertex
100
AcDb2dVertex
 10
6.351336747480406
 20
6.843804398323388
 30
0.0
 70
     8
  0
VERTEX
  5
5D4
330
528
100
AcDbEntity
  8
image
100
AcDbVertex
100
AcDb2dVertex
 10
6.351175800009761
 20
6.877869385264268
 30
0.0
 70
     8
  0
VERTEX
  5
5D5
330
528
100
AcDbEntity
  8
image
100
AcDbVertex
100
AcDb2dVertex
 10
6.350813140485394
 20
6.909487417614371
 30
0.0
 70
     8
  0
VERTEX
  5
5D6
330
528
100
AcDbEntity
  8
image
100
AcDbVertex
100
AcDb2dVertex
 10
6.350271734411618
 20
6.937909692818127
 30
0.0
 70
     8
  0
VERTEX
  5
5D7
330
528
100
AcDbEntity
  8
image
100
AcDbVertex
100
AcDb2dVertex
 10
6.349568864812518
 20
6.962583651195431
 30
0.0
 70
     8
  0
VERTEX
  5
5D8
330
528
100
AcDbEntity
  8
image
100
AcDbVertex
100
AcDb2dVertex
 10
6.34869908479124
 20
6.98374170456806
 30
0.0
 70
     8
  0
VERTEX
  5
5D9
330
528
100
AcDbEntity
  8
image
100
AcDbVertex
100
AcDb2dVertex
 10
6.347651264970696
 20
7.001812507633263
 30
0.0
 70
     8
  0
VERTEX
  5
5DA
330
528
100
AcDbEntity
  8
image
100
AcDbVertex
100
AcDb2dVertex
 10
6.346414275973804
 20
7.017224715088289
 30
0.0
 70
     8
  0
VERTEX
  5
5DB
330
528
100
AcDbEntity
  8
image
100
AcDbVertex
100
AcDb2dVertex
 10
6.344976988423479
 20
7.030406981630385
 30
0.0
 70
     8
  0
VERTEX
  5
5DC
330
528
100
AcDbEntity
  8
image
100
AcDbVertex
100
AcDb2dVertex
 10
6.343328272942631
 20
7.041787961956798
 30
0.0
 70
     8
  0
VERTEX
  5
5DD
330
528
100
AcDbEntity
  8
image
100
AcDbVertex
100
AcDb2dVertex
 10
6.341457000154179
 20
7.051796310764778
 30
0.0
 70
     8
  0
VERTEX
  5
5DE
330
528
100
AcDbEntity
  8
image
100
AcDbVertex
100
AcDb2dVertex
 10
6.339352040681035
 20
7.06086068275157
 30
0.0
 70
     8
  0
VERTEX
  5
5DF
330
528
100
AcDbEntity
  8
image
100
AcDbVertex
100
AcDb2dVertex
 10
6.337004157634535
 20
7.069335369015096
 30
0.0
 70
     8
  0
VERTEX
  5
5E0
330
528
100
AcDbEntity
  8
image
100
AcDbVertex
100
AcDb2dVertex
 10
6.33441168407969
 20
7.077277206255949
 30
0.0
 70
     8
  0
VERTEX
  5
5E1
330
528
100
AcDbEntity
  8
image
100
AcDbVertex
100
AcDb2dVertex
 10
6.331574845569928
 20
7.084668667575399
 30
0.0
 70
     8
  0
VERTEX
  5
5E2
330
528
100
AcDbEntity
  8
image
100
AcDbVertex
100
AcDb2dVertex
 10
6.328493867658684
 20
7.091492226074709
 30
0.0
 70
     8
  0
VERTEX
  5
5E3
330
528
100
AcDbEntity
  8
image
100
AcDbVertex
100
AcDb2dVertex
 10
6.325168975899385
 20
7.097730354855149
 30
0.0
 70
     8
  0
VERTEX
  5
5E4
330
528
100
AcDbEntity
  8
image
100
AcDbVertex
100
AcDb2dVertex
 10
6.321600395845466
 20
7.103365527017982
 30
0.0
 70
     8
  0
VERTEX
  5
5E5
330
528
100
AcDbEntity
  8
image
100
AcDbVertex
100
AcDb2dVertex
 10
6.317788353050355
 20
7.108380215664477
 30
0.0
 70
     8
  0
VERTEX
  5
5E6
330
528
100
AcDbEntity
  8
image
100
AcDbVertex
100
AcDb2dVertex
 10
6.313733073067481
 20
7.112756893895901
 30
0.0
 70
     8
  0
VERTEX
  5
5E7
330
528
100
AcDbEntity
  8
image
100
AcDbVertex
100
AcDb2dVertex
 10
6.309427390037562
 20
7.116494116717131
 30
0.0
 70
     8
  0
VERTEX
  5
5E8
330
528
100
AcDbEntity
  8
image
100
AcDbVertex
100
AcDb2dVertex
 10
6.304834572450442
 20
7.119654766747498
 30
0.0
 70
     8
  0
VERTEX
  5
5E9
330
528
100
AcDbEntity
  8
image
100
AcDbVertex
100
AcDb2dVertex
 10
6.299910497383246
 20
7.122317808509942
 30
0.0
 70
     8
  0
VERTEX
  5
5EA
330
528
100
AcDbEntity
  8
image
100
AcDbVertex
100
AcDb2dVertex
 10
6.294611041913105
 20
7.124562206527406
 30
0.0
 70
     8
  0
VERTEX
  5
5EB
330
528
100
AcDbEntity
  8
image
100
AcDbVertex
100
AcDb2dVertex
 10
6.288892083117147
 20
7.126466925322832
 30
0.0
 70
     8
  0
VERTEX
  5
5EC
330
528
100
AcDbEntity
  8
image
100
AcDbVertex
100
AcDb2dVertex
 10
6.282709498072499
 20
7.128110929419161
 30
0.0
 70
     8
  0
VERTEX
  5
5ED
330
528
100
AcDbEntity
  8
image
100
AcDbVertex
100
AcDb2dVertex
 10
6.276019163856288
 20
7.129573183339336
 30
0.0
 70
     8
  0
VERTEX
  5
5EE
330
528
100
AcDbEntity
  8
image
100
AcDbVertex
100
AcDb2dVertex
 10
6.268776957545645
 20
7.130932651606297
 30
0.0
 70
     8
  0
VERTEX
  5
5EF
330
528
100
AcDbEntity
  8
image
100
AcDbVertex
100
AcDb2dVertex
 10
6.260935591710339
 20
7.132250308554211
 30
0.0
 70
     8
  0
VERTEX
  5
5F0
330
528
100
AcDbEntity
  8
image
100
AcDbVertex
100
AcDb2dVertex
 10
6.252435120890716
 20
7.133515167762139
 30
0.0
 70
     8
  0
VERTEX
  5
5F1
330
528
100
AcDbEntity
  8
image
100
AcDbVertex
100
AcDb2dVertex
 10
6.243212435119767
 20
7.134698252620364
 30
0.0
 70
     8
  0
VERTEX
  5
5F2
330
528
100
AcDbEntity
  8
image
100
AcDbVertex
100
AcDb2dVertex
 10
6.23320442443048
 20
7.135770586519173
 30
0.0
 70
     8
  0
VERTEX
  5
5F3
330
528
100
AcDbEntity
  8
image
100
AcDbVertex
100
AcDb2dVertex
 10
6.222347978855848
 20
7.13670319284885
 30
0.0
 70
     8
  0
VERTEX
  5
5F4
330
528
100
AcDbEntity
  8
image
100
AcDbVertex
100
AcDb2dVertex
 10
6.210579988428859
 20
7.13746709499968
 30
0.0
 70
     8
  0
VERTEX
  5
5F5
330
528
100
AcDbEntity
  8
image
100
AcDbVertex
100
AcDb2dVertex
 10
6.197837343182502
 20
7.138033316361947
 30
0.0
 70
     8
  0
VERTEX
  5
5F6
330
528
100
AcDbEntity
  8
image
100
AcDbVertex
100
AcDb2dVertex
 10
6.184056933149767
 20
7.138372880325936
 30
0.0
 70
     8
  0
VERTEX
  5
5B4
330
528
100
AcDbEntity
  8
image
100
AcDbVertex
100
AcDb2dVertex
 10
6.3255726158767
 20
6.29435263895594
 30
0.0
 70
    16
  0
VERTEX
  5
5B5
330
528
100
AcDbEntity
  8
image
100
AcDbVertex
100
AcDb2dVertex
 10
6.330205073797893
 20
6.433271530453227
 30
0.0
 70
    16
  0
VERTEX
  5
5B6
330
528
100
AcDbEntity
  8
image
100
AcDbVertex
100
AcDb2dVertex
 10
6.351933398892613
 20
6.641160719614008
 30
0.0
 70
    16
  0
VERTEX
  5
5B7
330
528
100
AcDbEntity
  8
image
100
AcDbVertex
100
AcDb2dVertex
 10
6.351933398892613
 20
6.979984996305294
 30
0.0
 70
    16
  0
VERTEX
  5
5B8
330
528
100
AcDbEntity
  8
image
100
AcDbVertex
100
AcDb2dVertex
 10
6.34196341200665
 20
7.066357452073576
 30
0.0
 70
    16
  0
VERTEX
  5
5B9
330
528
100
AcDbEntity
  8
image
100
AcDbVertex
100
AcDb2dVertex
 10
6.316325197167001
 20
7.119749291909826
 30
0.0
 70
    16
  0
VERTEX
  5
5BA
330
528
100
AcDbEntity
  8
image
100
AcDbVertex
100
AcDb2dVertex
 10
6.27513423773024
 20
7.131186743662524
 30
0.0
 70
    16
  0
VERTEX
  5
5BB
330
528
100
AcDbEntity
  8
image
100
AcDbVertex
100
AcDb2dVertex
 10
6.222244477367349
 20
7.137795343272749
 30
0.0
 70
    16
  0
VERTEX
  5
5BC
330
528
100
AcDbEntity
  8
image
100
AcDbVertex
100
AcDb2dVertex
 10
6.184056933149767
 20
7.138372880325936
 30
0.0
 70
    16
  0
SEQEND
  5
5BD
330
528
100
AcDbEntity
  8
image
  0
POLYLINE
  5
529
330
2
100
AcDbEntity
  8
image
100
AcDb2dPolyline
 66
     1
 10
0.0
 20
0.0
 30
0.0
 70
     4
 75
     6
  0
VERTEX
  5
56F
330
529
100
AcDbEntity
  8
image
100
AcDbVertex
100
AcDb2dVertex
 10
6.329456563765608
 20
6.22281077985353
 30
0.0
 70
    16
  0
VERTEX
  5
57A
330
529
100
AcDbEntity
  8
image
100
AcDbVertex
100
AcDb2dVertex
 10
6.329456563765608
 20
6.22281077985353
 30
0.0
 70
     8
  0
VERTEX
  5
57B
330
529
100
AcDbEntity
  8
image
100
AcDbVertex
100
AcDb2dVertex
 10
6.332516661263339
 20
6.265172089163568
 30
0.0
 70
     8
  0
VERTEX
  5
57C
330
529
100
AcDbEntity
  8
image
100
AcDbVertex
100
AcDb2dVertex
 10
6.337257805852713
 20
6.313399891708813
 30
0.0
 70
     8
  0
VERTEX
  5
57D
330
529
100
AcDbEntity
  8
image
100
AcDbVertex
100
AcDb2dVertex
 10
6.343286951242772
 20
6.366086104122686
 30
0.0
 70
     8
  0
VERTEX
  5
57E
330
529
100
AcDbEntity
  8
image
100
AcDbVertex
100
AcDb2dVertex
 10
6.350211051142542
 20
6.4218226430386
 30
0.0
 70
     8
  0
VERTEX
  5
57F
330
529
100
AcDbEntity
  8
image
100
AcDbVertex
100
AcDb2dVertex
 10
6.357637059261053
 20
6.479201425089973
 30
0.0
 70
     8
  0
VERTEX
  5
580
330
529
100
AcDbEntity
  8
image
100
AcDbVertex
100
AcDb2dVertex
 10
6.365171929307342
 20
6.536814366910224
 30
0.0
 70
     8
  0
VERTEX
  5
581
330
529
100
AcDbEntity
  8
image
100
AcDbVertex
100
AcDb2dVertex
 10
6.372422614990439
 20
6.593253385132767
 30
0.0
 70
     8
  0
VERTEX
  5
582
330
529
100
AcDbEntity
  8
image
100
AcDbVertex
100
AcDb2dVertex
 10
6.378996070019374
 20
6.647110396391019
 30
0.0
 70
     8
  0
VERTEX
  5
583
330
529
100
AcDbEntity
  8
image
100
AcDbVertex
100
AcDb2dVertex
 10
6.384572022172525
 20
6.69731726710721
 30
0.0
 70
     8
  0
VERTEX
  5
584
330
529
100
AcDbEntity
  8
image
100
AcDbVertex
100
AcDb2dVertex
 10
6.389121295505644
 20
6.744165662858828
 30
0.0
 70
     8
  0
VERTEX
  5
585
330
529
100
AcDbEntity
  8
image
100
AcDbVertex
100
AcDb2dVertex
 10
6.392687488143826
 20
6.788287199012168
 30
0.0
 70
     8
  0
VERTEX
  5
586
330
529
100
AcDbEntity
  8
image
100
AcDbVertex
100
AcDb2dVertex
 10
6.395314198212167
 20
6.830313490933528
 30
0.0
 70
     8
  0
VERTEX
  5
587
330
529
100
AcDbEntity
  8
image
100
AcDbVertex
100
AcDb2dVertex
 10
6.39704502383576
 20
6.870876153989209
 30
0.0
 70
     8
  0
VERTEX
  5
588
330
529
100
AcDbEntity
  8
image
100
AcDbVertex
100
AcDb2dVertex
 10
6.397923563139707
 20
6.910606803545505
 30
0.0
 70
     8
  0
VERTEX
  5
589
330
529
100
AcDbEntity
  8
image
100
AcDbVertex
100
AcDb2dVertex
 10
6.397993414249102
 20
6.950137054968717
 30
0.0
 70
     8
  0
VERTEX
  5
58A
330
529
100
AcDbEntity
  8
image
100
AcDbVertex
100
AcDb2dVertex
 10
6.397298175289035
 20
6.990098523625141
 30
0.0
 70
     8
  0
VERTEX
  5
58B
330
529
100
AcDbEntity
  8
image
100
AcDbVertex
100
AcDb2dVertex
 10
6.395893164660543
 20
7.030918705927188
 30
0.0
 70
     8
  0
VERTEX
  5
58C
330
529
100
AcDbEntity
  8
image
100
AcDbVertex
100
AcDb2dVertex
 10
6.393880581868378
 20
7.072208622471707
 30
0.0
 70
     8
  0
VERTEX
  5
58D
330
529
100
AcDbEntity
  8
image
100
AcDbVertex
100
AcDb2dVertex
 10
6.391374346693227
 20
7.11337517490166
 30
0.0
 70
     8
  0
VERTEX
  5
58E
330
529
100
AcDbEntity
  8
image
100
AcDbVertex
100
AcDb2dVertex
 10
6.388488378915786
 20
7.153825264860012
 30
0.0
 70
     8
  0
VERTEX
  5
58F
330
529
100
AcDbEntity
  8
image
100
AcDbVertex
100
AcDb2dVertex
 10
6.385336598316735
 20
7.192965793989721
 30
0.0
 70
     8
  0
VERTEX
  5
590
330
529
100
AcDbEntity
  8
image
100
AcDbVertex
100
AcDb2dVertex
 10
6.382032924676765
 20
7.23020366393375
 30
0.0
 70
     8
  0
VERTEX
  5
591
330
529
100
AcDbEntity
  8
image
100
AcDbVertex
100
AcDb2dVertex
 10
6.378691277776569
 20
7.264945776335061
 30
0.0
 70
     8
  0
VERTEX
  5
592
330
529
100
AcDbEntity
  8
image
100
AcDbVertex
100
AcDb2dVertex
 10
6.37542557739683
 20
7.296599032836615
 30
0.0
 70
     8
  0
VERTEX
  5
593
330
529
100
AcDbEntity
  8
image
100
AcDbVertex
100
AcDb2dVertex
 10
6.372319681153891
 20
7.324714260285565
 30
0.0
 70
     8
  0
VERTEX
  5
594
330
529
100
AcDbEntity
  8
image
100
AcDbVertex
100
AcDb2dVertex
 10
6.369337198006698
 20
7.349417986345819
 30
0.0
 70
     8
  0
VERTEX
  5
595
330
529
100
AcDbEntity
  8
image
100
AcDbVertex
100
AcDb2dVertex
 10
6.36641167474985
 20
7.370980663885477
 30
0.0
 70
     8
  0
VERTEX
  5
596
330
529
100
AcDbEntity
  8
image
100
AcDbVertex
100
AcDb2dVertex
 10
6.363476658177942
 20
7.389672745772639
 30
0.0
 70
     8
  0
VERTEX
  5
597
330
529
100
AcDbEntity
  8
image
100
AcDbVertex
100
AcDb2dVertex
 10
6.360465695085574
 20
7.405764684875402
 30
0.0
 70
     8
  0
VERTEX
  5
598
330
529
100
AcDbEntity
  8
image
100
AcDbVertex
100
AcDb2dVertex
 10
6.357312332267349
 20
7.419526934061865
 30
0.0
 70
     8
  0
VERTEX
  5
599
330
529
100
AcDbEntity
  8
image
100
AcDbVertex
100
AcDb2dVertex
 10
6.353950116517859
 20
7.431229946200129
 30
0.0
 70
     8
  0
VERTEX
  5
59A
330
529
100
AcDbEntity
  8
image
100
AcDbVertex
100
AcDb2dVertex
 10
6.350312594631704
 20
7.441144174158294
 30
0.0
 70
     8
  0
VERTEX
  5
59B
330
529
100
AcDbEntity
  8
image
100
AcDbVertex
100
AcDb2dVertex
 10
6.346353633834143
 20
7.449523188593875
 30
0.0
 70
     8
  0
VERTEX
  5
59C
330
529
100
AcDbEntity
  8
image
100
AcDbVertex
100
AcDb2dVertex
 10
6.342108383073066
 20
7.456553031322076
 30
0.0
 70
     8
  0
VERTEX
  5
59D
330
529
100
AcDbEntity
  8
image
100
AcDbVertex
100
AcDb2dVertex
 10
6.337632311727018
 20
7.462402861947515
 30
0.0
 70
     8
  0
VERTEX
  5
59E
330
529
100
AcDbEntity
  8
image
100
AcDbVertex
100
AcDb2dVertex
 10
6.332980889174548
 20
7.467241840074812
 30
0.0
 70
     8
  0
VERTEX
  5
59F
330
529
100
AcDbEntity
  8
image
100
AcDbVertex
100
AcDb2dVertex
 10
6.328209584794203
 20
7.471239125308587
 30
0.0
 70
     8
  0
VERTEX
  5
5A0
330
529
100
AcDbEntity
  8
image
100
AcDbVertex
100
AcDb2dVertex
 10
6.323373867964532
 20
7.474563877253459
 30
0.0
 70
     8
  0
VERTEX
  5
5A1
330
529
100
AcDbEntity
  8
image
100
AcDbVertex
100
AcDb2dVertex
 10
6.318529208064086
 20
7.477385255514047
 30
0.0
 70
     8
  0
VERTEX
  5
5A2
330
529
100
AcDbEntity
  8
image
100
AcDbVertex
100
AcDb2dVertex
 10
6.313731074471407
 20
7.479872419694972
 30
0.0
 70
     8
  0
VERTEX
  5
5A3
330
529
100
AcDbEntity
  8
image
100
AcDbVertex
100
AcDb2dVertex
 10
6.309023304769754
 20
7.482169572258108
 30
0.0
 70
     8
  0
VERTEX
  5
5A4
330
529
100
AcDbEntity
  8
image
100
AcDbVertex
100
AcDb2dVertex
 10
6.304403209361206
 20
7.484321087094333
 30
0.0
 70
     8
  0
VERTEX
  5
5A5
330
529
100
AcDbEntity
  8
image
100
AcDbVertex
100
AcDb2dVertex
 10
6.299856466852551
 20
7.486346380951784
 30
0.0
 70
     8
  0
VERTEX
  5
5A6
330
529
100
AcDbEntity
  8
image
100
AcDbVertex
100
AcDb2dVertex
 10
6.295368755850576
 20
7.488264870578595
 30
0.0
 70
     8
  0
VERTEX
  5
5A7
330
529
100
AcDbEntity
  8
image
100
AcDbVertex
100
AcDb2dVertex
 10
6.290925754962069
 20
7.490095972722899
 30
0.0
 70
     8
  0
VERTEX
  5
5A8
330
529
100
AcDbEntity
  8
image
100
AcDbVertex
100
AcDb2dVertex
 10
6.28651314279382
 20
7.491859104132831
 30
0.0
 70
     8
  0
VERTEX
  5
5A9
330
529
100
AcDbEntity
  8
image
100
AcDbVertex
100
AcDb2dVertex
 10
6.282116597952617
 20
7.493573681556526
 30
0.0
 70
     8
  0
VERTEX
  5
5AA
330
529
100
AcDbEntity
  8
image
100
AcDbVertex
100
AcDb2dVertex
 10
6.27772179904525
 20
7.495259121742117
 30
0.0
 70
     8
  0
VERTEX
  5
5AB
330
529
100
AcDbEntity
  8
image
100
AcDbVertex
100
AcDb2dVertex
 10
6.273248061288102
 20
7.49692272816627
 30
0.0
 70
     8
  0
VERTEX
  5
5AC
330
529
100
AcDbEntity
  8
image
100
AcDbVertex
100
AcDb2dVertex
 10
6.268349246335981
 20
7.49852335121977
 30
0.0
 70
     8
  0
VERTEX
  5
5AD
330
529
100
AcDbEntity
  8
image
100
AcDbVertex
100
AcDb2dVertex
 10
6.262612852453303
 20
7.50000772802193
 30
0.0
 70
     8
  0
VERTEX
  5
5AE
330
529
100
AcDbEntity
  8
image
100
AcDbVertex
100
AcDb2dVertex
 10
6.255626377904475
 20
7.501322595692073
 30
0.0
 70
     8
  0
VERTEX
  5
5AF
330
529
100
AcDbEntity
  8
image
100
AcDbVertex
100
AcDb2dVertex
 10
6.246977320953904
 20
7.502414691349509
 30
0.0
 70
     8
  0
VERTEX
  5
5B0
330
529
100
AcDbEntity
  8
image
100
AcDbVertex
100
AcDb2dVertex
 10
6.236253179866006
 20
7.503230752113557
 30
0.0
 70
     8
  0
VERTEX
  5
5B1
330
529
100
AcDbEntity
  8
image
100
AcDbVertex
100
AcDb2dVertex
 10
6.223041452905187
 20
7.503717515103534
 30
0.0
 70
     8
  0
VERTEX
  5
5B2
330
529
100
AcDbEntity
  8
image
100
AcDbVertex
100
AcDb2dVertex
 10
6.206929638335859
 20
7.503821717438754
 30
0.0
 70
     8
  0
VERTEX
  5
570
330
529
100
AcDbEntity
  8
image
100
AcDbVertex
100
AcDb2dVertex
 10
6.335026053156491
 20
6.326700650707499
 30
0.0
 70
    16
  0
VERTEX
  5
571
330
529
100
AcDbEntity
  8
image
100
AcDbVertex
100
AcDb2dVertex
 10
6.390412357434081
 20
6.689671359920335
 30
0.0
 70
    16
  0
VERTEX
  5
572
330
529
100
AcDbEntity
  8
image
100
AcDbVertex
100
AcDb2dVertex
 10
6.404994089362221
 20
6.978761642563689
 30
0.0
 70
    16
  0
VERTEX
  5
573
330
529
100
AcDbEntity
  8
image
100
AcDbVertex
100
AcDb2dVertex
 10
6.373400336851256
 20
7.335873211575757
 30
0.0
 70
    16
  0
VERTEX
  5
574
330
529
100
AcDbEntity
  8
image
100
AcDbVertex
100
AcDb2dVertex
 10
6.353958027613741
 20
7.457339708152975
 30
0.0
 70
    16
  0
VERTEX
  5
575
330
529
100
AcDbEntity
  8
image
100
AcDbVertex
100
AcDb2dVertex
 10
6.31264312048402
 20
7.481633000762101
 30
0.0
 70
    16
  0
VERTEX
  5
576
330
529
100
AcDbEntity
  8
image
100
AcDbVertex
100
AcDb2dVertex
 10
6.277855937278635
 20
7.495362806968456
 30
0.0
 70
    16
  0
VERTEX
  5
577
330
529
100
AcDbEntity
  8
image
100
AcDbVertex
100
AcDb2dVertex
 10
6.254127928874828
 20
7.504101270200672
 30
0.0
 70
    16
  0
VERTEX
  5
578
330
529
100
AcDbEntity
  8
image
100
AcDbVertex
100
AcDb2dVertex
 10
6.206929638335855
 20
7.503821717438754
 30
0.0
 70
    16
  0
SEQEND
  5
579
330
529
100
AcDbEntity
  8
image
  0
POLYLINE
  5
52A
330
2
100
AcDbEntity
  8
image
100
AcDb2dPolyline
 66
     1
 10
0.0
 20
0.0
 30
0.0
 70
     4
  0
VERTEX
  5
52B
330
52A
100
AcDbEntity
  8
image
100
AcDbVertex
100
AcDb2dVertex
 10
6.355618995533438
 20
6.222810779853531
 30
0.0
 70
    16
  0
VERTEX
  5
536
330
52A
100
AcDbEntity
  8
image
100
AcDbVertex
100
AcDb2dVertex
 10
6.355618995533438
 20
6.222810779853531
 30
0.0
 70
     8
  0
VERTEX
  5
537
330
52A
100
AcDbEntity
  8
image
100
AcDbVertex
100
AcDb2dVertex
 10
6.358656610539878
 20
6.264288156933171
 30
0.0
 70
     8
  0
VERTEX
  5
538
330
52A
100
AcDbEntity
  8
image
100
AcDbVertex
100
AcDb2dVertex
 10
6.363381454795446
 20
6.311859875803653
 30
0.0
 70
     8
  0
VERTEX
  5
539
330
52A
100
AcDbEntity
  8
image
100
AcDbVertex
100
AcDb2dVertex
 10
6.369399931369647
 20
6.364092174055571
 30
0.0
 70
     8
  0
VERTEX
  5
53A
330
52A
100
AcDbEntity
  8
image
100
AcDbVertex
100
AcDb2dVertex
 10
6.376318443331991
 20
6.419551289279519
 30
0.0
 70
     8
  0
VERTEX
  5
53B
330
52A
100
AcDbEntity
  8
image
100
AcDbVertex
100
AcDb2dVertex
 10
6.383743393751981
 20
6.476803459066093
 30
0.0
 70
     8
  0
VERTEX
  5
53C
330
52A
100
AcDbEntity
  8
image
100
AcDbVertex
100
AcDb2dVertex
 10
6.391281185699121
 20
6.534414921005886
 30
0.0
 70
     8
  0
VERTEX
  5
53D
330
52A
100
AcDbEntity
  8
image
100
AcDbVertex
100
AcDb2dVertex
 10
6.398538222242919
 20
6.590951912689495
 30
0.0
 70
     8
  0
VERTEX
  5
53E
330
52A
100
AcDbEntity
  8
image
100
AcDbVertex
100
AcDb2dVertex
 10
6.405120906452879
 20
6.644980671707512
 30
0.0
 70
     8
  0
VERTEX
  5
53F
330
52A
100
AcDbEntity
  8
image
100
AcDbVertex
100
AcDb2dVertex
 10
6.410708328517676
 20
6.695410530603819
 30
0.0
 70
     8
  0
VERTEX
  5
540
330
52A
100
AcDbEntity
  8
image
100
AcDbVertex
100
AcDb2dVertex
 10
6.415270327102653
 20
6.742523201735436
 30
0.0
 70
     8
  0
VERTEX
  5
541
330
52A
100
AcDbEntity
  8
image
100
AcDbVertex
100
AcDb2dVertex
 10
6.41884942799232
 20
6.786943492412672
 30
0.0
 70
     8
  0
VERTEX
  5
542
330
52A
100
AcDbEntity
  8
image
100
AcDbVertex
100
AcDb2dVertex
 10
6.421488156971188
 20
6.829296209945833
 30
0.0
 70
     8
  0
VERTEX
  5
543
330
52A
100
AcDbEntity
  8
image
100
AcDbVertex
100
AcDb2dVertex
 10
6.423229039823768
 20
6.870206161645225
 30
0.0
 70
     8
  0
VERTEX
  5
544
330
52A
100
AcDbEntity
  8
image
100
AcDbVertex
100
AcDb2dVertex
 10
6.42411460233457
 20
6.910298154821158
 30
0.0
 70
     8
  0
VERTEX
  5
545
330
52A
100
AcDbEntity
  8
image
100
AcDbVertex
100
AcDb2dVertex
 10
6.424187370288109
 20
6.950196996783937
 30
0.0
 70
     8
  0
VERTEX
  5
546
330
52A
100
AcDbEntity
  8
image
100
AcDbVertex
100
AcDb2dVertex
 10
6.423489869468891
 20
6.99052749484387
 30
0.0
 70
     8
  0
VERTEX
  5
547
330
52A
100
AcDbEntity
  8
image
100
AcDbVertex
100
AcDb2dVertex
 10
6.422076051020972
 20
7.03171497964422
 30
0.0
 70
     8
  0
VERTEX
  5
548
330
52A
100
AcDbEntity
  8
image
100
AcDbVertex
100
AcDb2dVertex
 10
6.420045567526589
 20
7.073386875160089
 30
0.0
 70
     8
  0
VERTEX
  5
549
330
52A
100
AcDbEntity
  8
image
100
AcDbVertex
100
AcDb2dVertex
 10
6.417509496927522
 20
7.114971128699529
 30
0.0
 70
     8
  0
VERTEX
  5
54A
330
52A
100
AcDbEntity
  8
image
100
AcDbVertex
100
AcDb2dVertex
 10
6.414578917165551
 20
7.155895687570598
 30
0.0
 70
     8
  0
VERTEX
  5
54B
330
52A
100
AcDbEntity
  8
image
100
AcDbVertex
100
AcDb2dVertex
 10
6.411364906182456
 20
7.195588499081353
 30
0.0
 70
     8
  0
VERTEX
  5
54C
330
52A
100
AcDbEntity
  8
image
100
AcDbVertex
100
AcDb2dVertex
 10
6.407978541920014
 20
7.233477510539847
 30
0.0
 70
     8
  0
VERTEX
  5
54D
330
52A
100
AcDbEntity
  8
image
100
AcDbVertex
100
AcDb2dVertex
 10
6.40453090232001
 20
7.268990669254137
 30
0.0
 70
     8
  0
VERTEX
  5
54E
330
52A
100
AcDbEntity
  8
image
100
AcDbVertex
100
AcDb2dVertex
 10
6.40113306532422
 20
7.301555922532281
 30
0.0
 70
     8
  0
VERTEX
  5
54F
330
52A
100
AcDbEntity
  8
image
100
AcDbVertex
100
AcDb2dVertex
 10
6.397863769997035
 20
7.330736369741304
 30
0.0
 70
     8
  0
VERTEX
  5
550
330
52A
100
AcDbEntity
  8
image
100
AcDbVertex
100
AcDb2dVertex
 10
6.394672399893289
 20
7.356635718484113
 30
0.0
 70
     8
  0
VERTEX
  5
551
330
52A
100
AcDbEntity
  8
image
100
AcDbVertex
100
AcDb2dVertex
 10
6.391475999690417
 20
7.379492828422589
 30
0.0
 70
     8
  0
VERTEX
  5
552
330
52A
100
AcDbEntity
  8
image
100
AcDbVertex
100
AcDb2dVertex
 10
6.388191614065863
 20
7.399546559218608
 30
0.0
 70
     8
  0
VERTEX
  5
553
330
52A
100
AcDbEntity
  8
image
100
AcDbVertex
100
AcDb2dVertex
 10
6.384736287697064
 20
7.417035770534051
 30
0.0
 70
     8
  0
VERTEX
  5
554
330
52A
100
AcDbEntity
  8
image
100
AcDbVertex
100
AcDb2dVertex
 10
6.381027065261463
 20
7.432199322030795
 30
0.0
 70
     8
  0
VERTEX
  5
555
330
52A
100
AcDbEntity
  8
image
100
AcDbVertex
100
AcDb2dVertex
 10
6.376980991436498
 20
7.44527607337072
 30
0.0
 70
     8
  0
VERTEX
  5
556
330
52A
100
AcDbEntity
  8
image
100
AcDbVertex
100
AcDb2dVertex
 10
6.372515110899612
 20
7.456504884215704
 30
0.0
 70
     8
  0
VERTEX
  5
557
330
52A
100
AcDbEntity
  8
image
100
AcDbVertex
100
AcDb2dVertex
 10
6.367576220074237
 20
7.466112794767645
 30
0.0
 70
     8
  0
VERTEX
  5
558
330
52A
100
AcDbEntity
  8
image
100
AcDbVertex
100
AcDb2dVertex
 10
6.362230122367785
 20
7.474279567388521
 30
0.0
 70
     8
  0
VERTEX
  5
559
330
52A
100
AcDbEntity
  8
image
100
AcDbVertex
100
AcDb2dVertex
 10
6.356572372933658
 20
7.48117314498033
 30
0.0
 70
     8
  0
VERTEX
  5
55A
330
52A
100
AcDbEntity
  8
image
100
AcDbVertex
100
AcDb2dVertex
 10
6.350698526925265
 20
7.48696147044507
 30
0.0
 70
     8
  0
VERTEX
  5
55B
330
52A
100
AcDbEntity
  8
image
100
AcDbVertex
100
AcDb2dVertex
 10
6.344704139496009
 20
7.491812486684739
 30
0.0
 70
     8
  0
VERTEX
  5
55C
330
52A
100
AcDbEntity
  8
image
100
AcDbVertex
100
AcDb2dVertex
 10
6.338684765799294
 20
7.495894136601334
 30
0.0
 70
     8
  0
VERTEX
  5
55D
330
52A
100
AcDbEntity
  8
image
100
AcDbVertex
100
AcDb2dVertex
 10
6.332735960988527
 20
7.499374363096853
 30
0.0
 70
     8
  0
VERTEX
  5
55E
330
52A
100
AcDbEntity
  8
image
100
AcDbVertex
100
AcDb2dVertex
 10
6.326953280217111
 20
7.502421109073295
 30
0.0
 70
     8
  0
VERTEX
  5
55F
330
52A
100
AcDbEntity
  8
image
100
AcDbVertex
100
AcDb2dVertex
 10
6.321409033847482
 20
7.505180228916532
 30
0.0
 70
     8
  0
VERTEX
  5
560
330
52A
100
AcDbEntity
  8
image
100
AcDbVertex
100
AcDb2dVertex
 10
6.31608255307819
 20
7.507709222947946
 30
0.0
 70
     8
  0
VERTEX
  5
561
330
52A
100
AcDbEntity
  8
image
100
AcDbVertex
100
AcDb2dVertex
 10
6.310929924316818
 20
7.510043502972793
 30
0.0
 70
     8
  0
VERTEX
  5
562
330
52A
100
AcDbEntity
  8
image
100
AcDbVertex
100
AcDb2dVertex
 10
6.305907233970946
 20
7.51221848079633
 30
0.0
 70
     8
  0
VERTEX
  5
563
330
52A
100
AcDbEntity
  8
image
100
AcDbVertex
100
AcDb2dVertex
 10
6.300970568448155
 20
7.514269568223815
 30
0.0
 70
     8
  0
VERTEX
  5
564
330
52A
100
AcDbEntity
  8
image
100
AcDbVertex
100
AcDb2dVertex
 10
6.296076014156028
 20
7.516232177060503
 30
0.0
 70
     8
  0
VERTEX
  5
565
330
52A
100
AcDbEntity
  8
image
100
AcDbVertex
100
AcDb2dVertex
 10
6.291179657502143
 20
7.518141719111652
 30
0.0
 70
     8
  0
VERTEX
  5
566
330
52A
100
AcDbEntity
  8
image
100
AcDbVertex
100
AcDb2dVertex
 10
6.286237584894085
 20
7.520033606182519
 30
0.0
 70
     8
  0
VERTEX
  5
567
330
52A
100
AcDbEntity
  8
image
100
AcDbVertex
100
AcDb2dVertex
 10
6.281141407859303
 20
7.521926138199058
 30
0.0
 70
     8
  0
VERTEX
  5
568
330
52A
100
AcDbEntity
  8
image
100
AcDbVertex
100
AcDb2dVertex
 10
6.275524838404743
 20
7.523769167570002
 30
0.0
 70
     8
  0
VERTEX
  5
569
330
52A
100
AcDbEntity
  8
image
100
AcDbVertex
100
AcDb2dVertex
 10
6.268957113657222
 20
7.525495434824788
 30
0.0
 70
     8
  0
VERTEX
  5
56A
330
52A
100
AcDbEntity
  8
image
100
AcDbVertex
100
AcDb2dVertex
 10
6.261007470743555
 20
7.527037680492849
 30
0.0
 70
     8
  0
VERTEX
  5
56B
330
52A
100
AcDbEntity
  8
image
100
AcDbVertex
100
AcDb2dVertex
 10
6.251245146790555
 20
7.528328645103616
 30
0.0
 70
     8
  0
VERTEX
  5
56C
330
52A
100
AcDbEntity
  8
image
100
AcDbVertex
100
AcDb2dVertex
 10
6.23923937892504
 20
7.529301069186525
 30
0.0
 70
     8
  0
VERTEX
  5
56D
330
52A
100
AcDbEntity
  8
image
100
AcDbVertex
100
AcDb2dVertex
 10
6.224559404273826
 20
7.529887693271007
 30
0.0
 70
     8
  0
VERTEX
  5
56E
330
52A
100
AcDbEntity
  8
image
100
AcDbVertex
100
AcDb2dVertex
 10
6.206774459963726
 20
7.530021257886495
 30
0.0
 70
     8
  0
VERTEX
  5
52C
330
52A
100
AcDbEntity
  8
image
100
AcDbVertex
100
AcDb2dVertex
 10
6.361119799280219
 20
6.32401687420309
 30
0.0
 70
    16
  0
VERTEX
  5
52D
330
52A
100
AcDbEntity
  8
image
100
AcDbVertex
100
AcDb2dVertex
 10
6.416512365272415
 20
6.687028619174137
 30
0.0
 70
    16
  0
VERTEX
  5
52E
330
52A
100
AcDbEntity
  8
image
100
AcDbVertex
100
AcDb2dVertex
 10
6.431252461343499
 20
6.979258551830955
 30
0.0
 70
    16
  0
VERTEX
  5
52F
330
52A
100
AcDbEntity
  8
image
100
AcDbVertex
100
AcDb2dVertex
 10
6.399417006166933
 20
7.339102142565257
 30
0.0
 70
    16
  0
VERTEX
  5
530
330
52A
100
AcDbEntity
  8
image
100
AcDbVertex
100
AcDb2dVertex
 10
6.377877905934093
 20
7.473668413101703
 30
0.0
 70
    16
  0
VERTEX
  5
531
330
52A
100
AcDbEntity
  8
image
100
AcDbVertex
100
AcDb2dVertex
 10
6.324162035494373
 20
7.505253510322152
 30
0.0
 70
    16
  0
VERTEX
  5
532
330
52A
100
AcDbEntity
  8
image
100
AcDbVertex
100
AcDb2dVertex
 10
6.287193633391085
 20
7.519844200049458
 30
0.0
 70
    16
  0
VERTEX
  5
533
330
52A
100
AcDbEntity
  8
image
100
AcDbVertex
100
AcDb2dVertex
 10
6.258723838000888
 20
7.530328951066575
 30
0.0
 70
    16
  0
VERTEX
  5
534
330
52A
100
AcDbEntity
  8
image
100
AcDbVertex
100
AcDb2dVertex
 10
6.206774459963726
 20
7.530021257886495
 30
0.0
 70
    16
  0
SEQEND
  5
535
330
52A
100
AcDbEntity
  8
image
  0
ARC
  5
63B
330
2
100
AcDbEntity
  8
image
100
AcDbCircle
 10
6.292645796339963
 20
7.459133861900724
 30
0.0
 40
0.0125
100
AcDbArc
 50
359.9999999999998
 51
89.99999999999991
  0
LINE
  5
63C
330
2
100
AcDbEntity
  8
image
100
AcDbLine
 10
6.305145796339955
 20
7.483975274560027
 30
0.0
 11
6.305145796339955
 21
7.459133861900724
 31
0.0
  0
POLYLINE
  5
63D
330
2
100
AcDbEntity
  8
image
 62
     5
100
AcDb2dPolyline
 66
     1
 10
0.0
 20
0.0
 30
0.0
 70
     4
 40
0.0262
 41
0.0262
 75
     6
  0
VERTEX
  5
68C
330
63D
100
AcDbEntity
  8
image
 62
     5
100
AcDbVertex
100
AcDb2dVertex
 10
6.307190298462144
 20
6.195211407905791
 30
0.0
 70
    16
  0
VERTEX
  5
696
330
63D
100
AcDbEntity
  8
image
 62
     5
100
AcDbVertex
100
AcDb2dVertex
 10
6.307190298462144
 20
6.195211407905791
 30
0.0
 70
     8
  0
VERTEX
  5
697
330
63D
100
AcDbEntity
  8
image
 62
     5
100
AcDbVertex
100
AcDb2dVertex
 10
6.309064964740374
 20
6.067807935973535
 30
0.0
 70
     8
  0
VERTEX
  5
698
330
63D
100
AcDbEntity
  8
image
 62
     5
100
AcDbVertex
100
AcDb2dVertex
 10
6.312028992334957
 20
5.95532160215454
 30
0.0
 70
     8
  0
VERTEX
  5
699
330
63D
100
AcDbEntity
  8
image
 62
     5
100
AcDbVertex
100
AcDb2dVertex
 10
6.315824080871381
 20
5.85605561937503
 30
0.0
 70
     8
  0
VERTEX
  5
69A
330
63D
100
AcDbEntity
  8
image
 62
     5
100
AcDbVertex
100
AcDb2dVertex
 10
6.320191929975136
 20
5.768313200561228
 30
0.0
 70
     8
  0
VERTEX
  5
69B
330
63D
100
AcDbEntity
  8
image
 62
     5
100
AcDbVertex
100
AcDb2dVertex
 10
6.324874239271705
 20
5.690397558639356
 30
0.0
 70
     8
  0
VERTEX
  5
69C
330
63D
100
AcDbEntity
  8
image
 62
     5
100
AcDbVertex
100
AcDb2dVertex
 10
6.329612708386575
 20
5.620611906535636
 30
0.0
 70
     8
  0
VERTEX
  5
69D
330
63D
100
AcDbEntity
  8
image
 62
     5
100
AcDbVertex
100
AcDb2dVertex
 10
6.334149036945239
 20
5.557259457176293
 30
0.0
 70
     8
  0
VERTEX
  5
69E
330
63D
100
AcDbEntity
  8
image
 62
     5
100
AcDbVertex
100
AcDb2dVertex
 10
6.33822492457318
 20
5.498643423487548
 30
0.0
 70
     8
  0
VERTEX
  5
69F
330
63D
100
AcDbEntity
  8
image
 62
     5
100
AcDbVertex
100
AcDb2dVertex
 10
6.341649309370106
 20
5.44327037140928
 30
0.0
 70
     8
  0
VERTEX
  5
6A0
330
63D
100
AcDbEntity
  8
image
 62
     5
100
AcDbVertex
100
AcDb2dVertex
 10
6.344500083332592
 20
5.390460278935981
 30
0.0
 70
     8
  0
VERTEX
  5
6A1
330
63D
100
AcDbEntity
  8
image
 62
     5
100
AcDbVertex
100
AcDb2dVertex
 10
6.346922376931432
 20
5.339736477075801
 30
0.0
 70
     8
  0
VERTEX
  5
6A2
330
63D
100
AcDbEntity
  8
image
 62
     5
100
AcDbVertex
100
AcDb2dVertex
 10
6.349061320637426
 20
5.290622296836886
 30
0.0
 70
     8
  0
VERTEX
  5
6A3
330
63D
100
AcDbEntity
  8
image
 62
     5
100
AcDbVertex
100
AcDb2dVertex
 10
6.351062044921361
 20
5.242641069227385
 30
0.0
 70
     8
  0
VERTEX
  5
6A4
330
63D
100
AcDbEntity
  8
image
 62
     5
100
AcDbVertex
100
AcDb2dVertex
 10
6.353069680254035
 20
5.195316125255445
 30
0.0
 70
     8
  0
VERTEX
  5
6A5
330
63D
100
AcDbEntity
  8
image
 62
     5
100
AcDbVertex
100
AcDb2dVertex
 10
6.355229357106244
 20
5.148170795929216
 30
0.0
 70
     8
  0
VERTEX
  5
6A6
330
63D
100
AcDbEntity
  8
image
 62
     5
100
AcDbVertex
100
AcDb2dVertex
 10
6.357686205948782
 20
5.100728412256843
 30
0.0
 70
     8
  0
VERTEX
  5
6A7
330
63D
100
AcDbEntity
  8
image
 62
     5
100
AcDbVertex
100
AcDb2dVertex
 10
6.360546195063447
 20
5.052668892157718
 30
0.0
 70
     8
  0
VERTEX
  5
6A8
330
63D
100
AcDbEntity
  8
image
 62
     5
100
AcDbVertex
100
AcDb2dVertex
 10
6.363758643976082
 20
5.004298501196204
 30
0.0
 70
     8
  0
VERTEX
  5
6A9
330
63D
100
AcDbEntity
  8
image
 62
     5
100
AcDbVertex
100
AcDb2dVertex
 10
6.367233710023528
 20
4.956080091847907
 30
0.0
 70
     8
  0
VERTEX
  5
6AA
330
63D
100
AcDbEntity
  8
image
 62
     5
100
AcDbVertex
100
AcDb2dVertex
 10
6.370881550542636
 20
4.908476516588432
 30
0.0
 70
     8
  0
VERTEX
  5
6AB
330
63D
100
AcDbEntity
  8
image
 62
     5
100
AcDbVertex
100
AcDb2dVertex
 10
6.374612322870246
 20
4.861950627893387
 30
0.0
 70
     8
  0
VERTEX
  5
6AC
330
63D
100
AcDbEntity
  8
image
 62
     5
100
AcDbVertex
100
AcDb2dVertex
 10
6.37833618434321
 20
4.816965278238376
 30
0.0
 70
     8
  0
VERTEX
  5
6AD
330
63D
100
AcDbEntity
  8
image
 62
     5
100
AcDbVertex
100
AcDb2dVertex
 10
6.381963292298371
 20
4.773983320099006
 30
0.0
 70
     8
  0
VERTEX
  5
6AE
330
63D
100
AcDbEntity
  8
image
 62
     5
100
AcDbVertex
100
AcDb2dVertex
 10
6.385403804072572
 20
4.733467605950881
 30
0.0
 70
     8
  0
VERTEX
  5
6AF
330
63D
100
AcDbEntity
  8
image
 62
     5
100
AcDbVertex
100
AcDb2dVertex
 10
6.388582850779856
 20
4.695775061830614
 30
0.0
 70
     8
  0
VERTEX
  5
6B0
330
63D
100
AcDbEntity
  8
image
 62
     5
100
AcDbVertex
100
AcDb2dVertex
 10
6.391485458643026
 20
4.660838908018833
 30
0.0
 70
     8
  0
VERTEX
  5
6B1
330
63D
100
AcDbEntity
  8
image
 62
     5
100
AcDbVertex
100
AcDb2dVertex
 10
6.394111627662089
 20
4.628486438357172
 30
0.0
 70
     8
  0
VERTEX
  5
6B2
330
63D
100
AcDbEntity
  8
image
 62
     5
100
AcDbVertex
100
AcDb2dVertex
 10
6.396461357837038
 20
4.598544946687264
 30
0.0
 70
     8
  0
VERTEX
  5
6B3
330
63D
100
AcDbEntity
  8
image
 62
     5
100
AcDbVertex
100
AcDb2dVertex
 10
6.398534649167872
 20
4.570841726850741
 30
0.0
 70
     8
  0
VERTEX
  5
6B4
330
63D
100
AcDbEntity
  8
image
 62
     5
100
AcDbVertex
100
AcDb2dVertex
 10
6.4003315016546
 20
4.545204072689239
 30
0.0
 70
     8
  0
VERTEX
  5
6B5
330
63D
100
AcDbEntity
  8
image
 62
     5
100
AcDbVertex
100
AcDb2dVertex
 10
6.401851915297212
 20
4.521459278044391
 30
0.0
 70
     8
  0
VERTEX
  5
6B6
330
63D
100
AcDbEntity
  8
image
 62
     5
100
AcDbVertex
100
AcDb2dVertex
 10
6.403095890095714
 20
4.49943463675783
 30
0.0
 70
     8
  0
VERTEX
  5
6B7
330
63D
100
AcDbEntity
  8
image
 62
     5
100
AcDbVertex
100
AcDb2dVertex
 10
6.404062274216736
 20
4.478975864665564
 30
0.0
 70
     8
  0
VERTEX
  5
6B8
330
63D
100
AcDbEntity
  8
image
 62
     5
100
AcDbVertex
100
AcDb2dVertex
 10
6.40474530849343
 20
4.460002365581092
 30
0.0
 70
     8
  0
VERTEX
  5
6B9
330
63D
100
AcDbEntity
  8
image
 62
     5
100
AcDbVertex
100
AcDb2dVertex
 10
6.40513808192558
 20
4.442451965312291
 30
0.0
 70
     8
  0
VERTEX
  5
6BA
330
63D
100
AcDbEntity
  8
image
 62
     5
100
AcDbVertex
100
AcDb2dVertex
 10
6.405233683512966
 20
4.426262489667035
 30
0.0
 70
     8
  0
VERTEX
  5
6BB
330
63D
100
AcDbEntity
  8
image
 62
     5
100
AcDbVertex
100
AcDb2dVertex
 10
6.405025202255378
 20
4.411371764453199
 30
0.0
 70
     8
  0
VERTEX
  5
6BC
330
63D
100
AcDbEntity
  8
image
 62
     5
100
AcDbVertex
100
AcDb2dVertex
 10
6.404505727152601
 20
4.397717615478658
 30
0.0
 70
     8
  0
VERTEX
  5
6BD
330
63D
100
AcDbEntity
  8
image
 62
     5
100
AcDbVertex
100
AcDb2dVertex
 10
6.40366834720441
 20
4.385237868551286
 30
0.0
 70
     8
  0
VERTEX
  5
6BE
330
63D
100
AcDbEntity
  8
image
 62
     5
100
AcDbVertex
100
AcDb2dVertex
 10
6.402506151410596
 20
4.373870349478958
 30
0.0
 70
     8
  0
VERTEX
  5
6BF
330
63D
100
AcDbEntity
  8
image
 62
     5
100
AcDbVertex
100
AcDb2dVertex
 10
6.400854428302912
 20
4.363582819767428
 30
0.0
 70
     8
  0
VERTEX
  5
6C0
330
63D
100
AcDbEntity
  8
image
 62
     5
100
AcDbVertex
100
AcDb2dVertex
 10
6.397917264540994
 20
4.354462783713961
 30
0.0
 70
     8
  0
VERTEX
  5
6C1
330
63D
100
AcDbEntity
  8
image
 62
     5
100
AcDbVertex
100
AcDb2dVertex
 10
6.392740946316456
 20
4.346627681313703
 30
0.0
 70
     8
  0
VERTEX
  5
6C2
330
63D
100
AcDbEntity
  8
image
 62
     5
100
AcDbVertex
100
AcDb2dVertex
 10
6.384371759820899
 20
4.340194952561796
 30
0.0
 70
     8
  0
VERTEX
  5
6C3
330
63D
100
AcDbEntity
  8
image
 62
     5
100
AcDbVertex
100
AcDb2dVertex
 10
6.371855991245938
 20
4.335282037453388
 30
0.0
 70
     8
  0
VERTEX
  5
6C4
330
63D
100
AcDbEntity
  8
image
 62
     5
100
AcDbVertex
100
AcDb2dVertex
 10
6.354239926783185
 20
4.332006375983621
 30
0.0
 70
     8
  0
VERTEX
  5
6C5
330
63D
100
AcDbEntity
  8
image
 62
     5
100
AcDbVertex
100
AcDb2dVertex
 10
6.330569852624241
 20
4.330485408147642
 30
0.0
 70
     8
  0
VERTEX
  5
6C6
330
63D
100
AcDbEntity
  8
image
 62
     5
100
AcDbVertex
100
AcDb2dVertex
 10
6.29989205496072
 20
4.330836573940593
 30
0.0
 70
     8
  0
VERTEX
  5
68D
330
63D
100
AcDbEntity
  8
image
 62
     5
100
AcDbVertex
100
AcDb2dVertex
 10
6.310507326449391
 20
5.834071043425403
 30
0.0
 70
    16
  0
VERTEX
  5
68E
330
63D
100
AcDbEntity
  8
image
 62
     5
100
AcDbVertex
100
AcDb2dVertex
 10
6.345891498495673
 20
5.466220718454779
 30
0.0
 70
    16
  0
VERTEX
  5
68F
330
63D
100
AcDbEntity
  8
image
 62
     5
100
AcDbVertex
100
AcDb2dVertex
 10
6.352968313030148
 20
5.108981461195455
 30
0.0
 70
    16
  0
VERTEX
  5
690
330
63D
100
AcDbEntity
  8
image
 62
     5
100
AcDbVertex
100
AcDb2dVertex
 10
6.388352485076429
 20
4.702223910304456
 30
0.0
 70
    16
  0
VERTEX
  5
691
330
63D
100
AcDbEntity
  8
image
 62
     5
100
AcDbVertex
100
AcDb2dVertex
 10
6.406044571099572
 20
4.482928533292009
 30
0.0
 70
    16
  0
VERTEX
  5
692
330
63D
100
AcDbEntity
  8
image
 62
     5
100
AcDbVertex
100
AcDb2dVertex
 10
6.406044571099572
 20
4.362669777074488
 30
0.0
 70
    16
  0
VERTEX
  5
693
330
63D
100
AcDbEntity
  8
image
 62
     5
100
AcDbVertex
100
AcDb2dVertex
 10
6.391890892343669
 20
4.327299562547353
 30
0.0
 70
    16
  0
VERTEX
  5
694
330
63D
100
AcDbEntity
  8
image
 62
     5
100
AcDbVertex
100
AcDb2dVertex
 10
6.29989205496072
 20
4.330836573940593
 30
0.0
 70
    16
  0
SEQEND
  5
695
330
63D
100
AcDbEntity
  8
image
 62
     5
  0
POLYLINE
  5
63E
330
2
100
AcDbEntity
  8
image
 62
     5
100
AcDb2dPolyline
 66
     1
 10
0.0
 20
0.0
 30
0.0
 70
     4
 40
0.0262
 41
0.0262
 75
     6
  0
VERTEX
  5
63F
330
63E
100
AcDbEntity
  8
image
 62
     5
100
AcDbVertex
100
AcDb2dVertex
 10
6.342528099011955
 20
6.195211407905791
 30
0.0
 70
    16
  0
VERTEX
  5
64B
330
63E
100
AcDbEntity
  8
image
 62
     5
100
AcDbVertex
100
AcDb2dVertex
 10
6.342528099011955
 20
6.195211407905791
 30
0.0
 70
     8
  0
VERTEX
  5
64C
330
63E
100
AcDbEntity
  8
image
 62
     5
100
AcDbVertex
100
AcDb2dVertex
 10
6.377469208552982
 20
6.132733931228479
 30
0.0
 70
     8
  0
VERTEX
  5
64D
330
63E
100
AcDbEntity
  8
image
 62
     5
100
AcDbVertex
100
AcDb2dVertex
 10
6.408454324107298
 20
6.0774778089642
 30
0.0
 70
     8
  0
VERTEX
  5
64E
330
63E
100
AcDbEntity
  8
image
 62
     5
100
AcDbVertex
100
AcDb2dVertex
 10
6.435989350722374
 20
6.028340362796956
 30
0.0
 70
     8
  0
VERTEX
  5
64F
330
63E
100
AcDbEntity
  8
image
 62
     5
100
AcDbVertex
100
AcDb2dVertex
 10
6.460580193445702
 20
5.984218914410746
 30
0.0
 70
     8
  0
VERTEX
  5
650
330
63E
100
AcDbEntity
  8
image
 62
     5
100
AcDbVertex
100
AcDb2dVertex
 10
6.482732757324759
 20
5.944010785489568
 30
0.0
 70
     8
  0
VERTEX
  5
651
330
63E
100
AcDbEntity
  8
image
 62
     5
100
AcDbVertex
100
AcDb2dVertex
 10
6.502952947407022
 20
5.906613297717424
 30
0.0
 70
     8
  0
VERTEX
  5
652
330
63E
100
AcDbEntity
  8
image
 62
     5
100
AcDbVertex
100
AcDb2dVertex
 10
6.52174666873998
 20
5.870923772778311
 30
0.0
 70
     8
  0
VERTEX
  5
653
330
63E
100
AcDbEntity
  8
image
 62
     5
100
AcDbVertex
100
AcDb2dVertex
 10
6.53961982637111
 20
5.835839532356233
 30
0.0
 70
     8
  0
VERTEX
  5
654
330
63E
100
AcDbEntity
  8
image
 62
     5
100
AcDbVertex
100
AcDb2dVertex
 10
6.55699458375262
 20
5.800433618236418
 30
0.0
 70
     8
  0
VERTEX
  5
655
330
63E
100
AcDbEntity
  8
image
 62
     5
100
AcDbVertex
100
AcDb2dVertex
 10
6.573958137955626
 20
5.76448195260901
 30
0.0
 70
     8
  0
VERTEX
  5
656
330
63E
100
AcDbEntity
  8
image
 62
     5
100
AcDbVertex
100
AcDb2dVertex
 10
6.590513944455983
 20
5.727936177765386
 30
0.0
 70
     8
  0
VERTEX
  5
657
330
63E
100
AcDbEntity
  8
image
 62
     5
100
AcDbVertex
100
AcDb2dVertex
 10
6.606665458729535
 20
5.69074793599692
 30
0.0
 70
     8
  0
VERTEX
  5
658
330
63E
100
AcDbEntity
  8
image
 62
     5
100
AcDbVertex
100
AcDb2dVertex
 10
6.622416136252125
 20
5.652868869594989
 30
0.0
 70
     8
  0
VERTEX
  5
659
330
63E
100
AcDbEntity
  8
image
 62
     5
100
AcDbVertex
100
AcDb2dVertex
 10
6.637769432499604
 20
5.614250620850967
 30
0.0
 70
     8
  0
VERTEX
  5
65A
330
63E
100
AcDbEntity
  8
image
 62
     5
100
AcDbVertex
100
AcDb2dVertex
 10
6.652728802947818
 20
5.57484483205623
 30
0.0
 70
     8
  0
VERTEX
  5
65B
330
63E
100
AcDbEntity
  8
image
 62
     5
100
AcDbVertex
100
AcDb2dVertex
 10
6.667297703072611
 20
5.534603145502153
 30
0.0
 70
     8
  0
VERTEX
  5
65C
330
63E
100
AcDbEntity
  8
image
 62
     5
100
AcDbVertex
100
AcDb2dVertex
 10
6.681499745373146
 20
5.493488717210905
 30
0.0
 70
     8
  0
VERTEX
  5
65D
330
63E
100
AcDbEntity
  8
image
 62
     5
100
AcDbVertex
100
AcDb2dVertex
 10
6.695439170441824
 20
5.451510758127822
 30
0.0
 70
     8
  0
VERTEX
  5
65E
330
63E
100
AcDbEntity
  8
image
 62
     5
100
AcDbVertex
100
AcDb2dVertex
 10
6.709240375894355
 20
5.408689992929042
 30
0.0
 70
     8
  0
VERTEX
  5
65F
330
63E
100
AcDbEntity
  8
image
 62
     5
100
AcDbVertex
100
AcDb2dVertex
 10
6.723027759346452
 20
5.365047146290693
 30
0.0
 70
     8
  0
VERTEX
  5
660
330
63E
100
AcDbEntity
  8
image
 62
     5
100
AcDbVertex
100
AcDb2dVertex
 10
6.73692571841383
 20
5.320602942888909
 30
0.0
 70
     8
  0
VERTEX
  5
661
330
63E
100
AcDbEntity
  8
image
 62
     5
100
AcDbVertex
100
AcDb2dVertex
 10
6.751058650712201
 20
5.275378107399822
 30
0.0
 70
     8
  0
VERTEX
  5
662
330
63E
100
AcDbEntity
  8
image
 62
     5
100
AcDbVertex
100
AcDb2dVertex
 10
6.76555095385728
 20
5.229393364499562
 30
0.0
 70
     8
  0
VERTEX
  5
663
330
63E
100
AcDbEntity
  8
image
 62
     5
100
AcDbVertex
100
AcDb2dVertex
 10
6.780527025464779
 20
5.182669438864266
 30
0.0
 70
     8
  0
VERTEX
  5
664
330
63E
100
AcDbEntity
  8
image
 62
     5
100
AcDbVertex
100
AcDb2dVertex
 10
6.796050216200184
 20
5.135255839551621
 30
0.0
 70
     8
  0
VERTEX
  5
665
330
63E
100
AcDbEntity
  8
image
 62
     5
100
AcDbVertex
100
AcDb2dVertex
 10
6.811939688928079
 20
5.08731721314555
 30
0.0
 70
     8
  0
VERTEX
  5
666
330
63E
100
AcDbEntity
  8
image
 62
     5
100
AcDbVertex
100
AcDb2dVertex
 10
6.82795355956282
 20
5.039046990611536
 30
0.0
 70
     8
  0
VERTEX
  5
667
330
63E
100
AcDbEntity
  8
image
 62
     5
100
AcDbVertex
100
AcDb2dVertex
 10
6.843849944018769
 20
4.99063860291506
 30
0.0
 70
     8
  0
VERTEX
  5
668
330
63E
100
AcDbEntity
  8
image
 62
     5
100
AcDbVertex
100
AcDb2dVertex
 10
6.859386958210277
 20
4.942285481021604
 30
0.0
 70
     8
  0
VERTEX
  5
669
330
63E
100
AcDbEntity
  8
image
 62
     5
100
AcDbVertex
100
AcDb2dVertex
 10
6.874322718051709
 20
4.894181055896648
 30
0.0
 70
     8
  0
VERTEX
  5
66A
330
63E
100
AcDbEntity
  8
image
 62
     5
100
AcDbVertex
100
AcDb2dVertex
 10
6.888415339457415
 20
4.846518758505675
 30
0.0
 70
     8
  0
VERTEX
  5
66B
330
63E
100
AcDbEntity
  8
image
 62
     5
100
AcDbVertex
100
AcDb2dVertex
 10
6.901422938341758
 20
4.799492019814166
 30
0.0
 70
     8
  0
VERTEX
  5
66C
330
63E
100
AcDbEntity
  8
image
 62
     5
100
AcDbVertex
100
AcDb2dVertex
 10
6.913157766585277
 20
4.753331114765432
 30
0.0
 70
     8
  0
VERTEX
  5
66D
330
63E
100
AcDbEntity
  8
image
 62
     5
100
AcDbVertex
100
AcDb2dVertex
 10
6.923648619933251
 20
4.708413694214118
 30
0.0
 70
     8
  0
VERTEX
  5
66E
330
63E
100
AcDbEntity
  8
image
 62
     5
100
AcDbVertex
100
AcDb2dVertex
 10
6.932978430097135
 20
4.665154252992693
 30
0.0
 70
     8
  0
VERTEX
  5
66F
330
63E
100
AcDbEntity
  8
image
 62
     5
100
AcDbVertex
100
AcDb2dVertex
 10
6.941230128788395
 20
4.623967285933632
 30
0.0
 70
     8
  0
VERTEX
  5
670
330
63E
100
AcDbEntity
  8
image
 62
     5
100
AcDbVertex
100
AcDb2dVertex
 10
6.948486647718487
 20
4.585267287869406
 30
0.0
 70
     8
  0
VERTEX
  5
671
330
63E
100
AcDbEntity
  8
image
 62
     5
100
AcDbVertex
100
AcDb2dVertex
 10
6.954830918598874
 20
4.549468753632488
 30
0.0
 70
     8
  0
VERTEX
  5
672
330
63E
100
AcDbEntity
  8
image
 62
     5
100
AcDbVertex
100
AcDb2dVertex
 10
6.960345873141017
 20
4.516986178055351
 30
0.0
 70
     8
  0
VERTEX
  5
673
330
63E
100
AcDbEntity
  8
image
 62
     5
100
AcDbVertex
100
AcDb2dVertex
 10
6.965114443056377
 20
4.488234055970466
 30
0.0
 70
     8
  0
VERTEX
  5
674
330
63E
100
AcDbEntity
  8
image
 62
     5
100
AcDbVertex
100
AcDb2dVertex
 10
6.969205738088325
 20
4.463485263131632
 30
0.0
 70
     8
  0
VERTEX
  5
675
330
63E
100
AcDbEntity
  8
image
 62
     5
100
AcDbVertex
100
AcDb2dVertex
 10
6.972633580107904
 20
4.442446198977935
 30
0.0
 70
     8
  0
VERTEX
  5
676
330
63E
100
AcDbEntity
  8
image
 62
     5
100
AcDbVertex
100
AcDb2dVertex
 10
6.97539796901807
 20
4.42468164386979
 30
0.0
 70
     8
  0
VERTEX
  5
677
330
63E
100
AcDbEntity
  8
image
 62
     5
100
AcDbVertex
100
AcDb2dVertex
 10
6.977498904721779
 20
4.409756378167608
 30
0.0
 70
     8
  0
VERTEX
  5
678
330
63E
100
AcDbEntity
  8
image
 62
     5
100
AcDbVertex
100
AcDb2dVertex
 10
6.978936387121981
 20
4.397235182231801
 30
0.0
 70
     8
  0
VERTEX
  5
679
330
63E
100
AcDbEntity
  8
image
 62
     5
100
AcDbVertex
100
AcDb2dVertex
 10
6.979710416121639
 20
4.386682836422782
 30
0.0
 70
     8
  0
VERTEX
  5
67A
330
63E
100
AcDbEntity
  8
image
 62
     5
100
AcDbVertex
100
AcDb2dVertex
 10
6.979820991623698
 20
4.377664121100963
 30
0.0
 70
     8
  0
VERTEX
  5
67B
330
63E
100
AcDbEntity
  8
image
 62
     5
100
AcDbVertex
100
AcDb2dVertex
 10
6.979268113531121
 20
4.369743816626757
 30
0.0
 70
     8
  0
VERTEX
  5
67C
330
63E
100
AcDbEntity
  8
image
 62
     5
100
AcDbVertex
100
AcDb2dVertex
 10
6.978041991231963
 20
4.362558088607194
 30
0.0
 70
     8
  0
VERTEX
  5
67D
330
63E
100
AcDbEntity
  8
image
 62
     5
100
AcDbVertex
100
AcDb2dVertex
 10
6.976093672054675
 20
4.356028643635769
 30
0.0
 70
     8
  0
VERTEX
  5
67E
330
63E
100
AcDbEntity
  8
image
 62
     5
100
AcDbVertex
100
AcDb2dVertex
 10
6.973364412812825
 20
4.350148573552598
 30
0.0
 70
     8
  0
VERTEX
  5
67F
330
63E
100
AcDbEntity
  8
image
 62
     5
100
AcDbVertex
100
AcDb2dVertex
 10
6.96979547031996
 20
4.344910970197794
 30
0.0
 70
     8
  0
VERTEX
  5
680
330
63E
100
AcDbEntity
  8
image
 62
     5
100
AcDbVertex
100
AcDb2dVertex
 10
6.965328101389646
 20
4.340308925411471
 30
0.0
 70
     8
  0
VERTEX
  5
681
330
63E
100
AcDbEntity
  8
image
 62
     5
100
AcDbVertex
100
AcDb2dVertex
 10
6.959903562835437
 20
4.336335531033743
 30
0.0
 70
     8
  0
VERTEX
  5
682
330
63E
100
AcDbEntity
  8
image
 62
     5
100
AcDbVertex
100
AcDb2dVertex
 10
6.95346311147089
 20
4.332983878904723
 30
0.0
 70
     8
  0
VERTEX
  5
683
330
63E
100
AcDbEntity
  8
image
 62
     5
100
AcDbVertex
100
AcDb2dVertex
 10
6.945948004109565
 20
4.330247060864528
 30
0.0
 70
     8
  0
VERTEX
  5
684
330
63E
100
AcDbEntity
  8
image
 62
     5
100
AcDbVertex
100
AcDb2dVertex
 10
6.937281068344324
 20
4.328120471505975
 30
0.0
 70
     8
  0
VERTEX
  5
685
330
63E
100
AcDbEntity
  8
image
 62
     5
100
AcDbVertex
100
AcDb2dVertex
 10
6.927311414885275
 20
4.326608716432721
 30
0.0
 70
     8
  0
VERTEX
  5
686
330
63E
100
AcDbEntity
  8
image
 62
     5
100
AcDbVertex
100
AcDb2dVertex
 10
6.915869725221829
 20
4.325718704001123
 30
0.0
 70
     8
  0
VERTEX
  5
687
330
63E
100
AcDbEntity
  8
image
 62
     5
100
AcDbVertex
100
AcDb2dVertex
 10
6.902786680843396
 20
4.325457342567542
 30
0.0
 70
     8
  0
VERTEX
  5
688
330
63E
100
AcDbEntity
  8
image
 62
     5
100
AcDbVertex
100
AcDb2dVertex
 10
6.887892963239389
 20
4.325831540488338
 30
0.0
 70
     8
  0
VERTEX
  5
689
330
63E
100
AcDbEntity
  8
image
 62
     5
100
AcDbVertex
100
AcDb2dVertex
 10
6.871019253899218
 20
4.326848206119873
 30
0.0
 70
     8
  0
VERTEX
  5
68A
330
63E
100
AcDbEntity
  8
image
 62
     5
100
AcDbVertex
100
AcDb2dVertex
 10
6.851996234312293
 20
4.328514247818504
 30
0.0
 70
     8
  0
VERTEX
  5
68B
330
63E
100
AcDbEntity
  8
image
 62
     5
100
AcDbVertex
100
AcDb2dVertex
 10
6.830654585968032
 20
4.330836573940594
 30
0.0
 70
     8
  0
VERTEX
  5
640
330
63E
100
AcDbEntity
  8
image
 62
     5
100
AcDbVertex
100
AcDb2dVertex
 10
6.441428743145857
 20
6.017996172379136
 30
0.0
 70
    16
  0
VERTEX
  5
641
330
63E
100
AcDbEntity
  8
image
 62
     5
100
AcDbVertex
100
AcDb2dVertex
 10
6.544042852017474
 20
5.841145066211883
 30
0.0
 70
    16
  0
VERTEX
  5
642
330
63E
100
AcDbEntity
  8
image
 62
     5
100
AcDbVertex
100
AcDb2dVertex
 10
6.671425861446708
 20
5.544035203827109
 30
0.0
 70
    16
  0
VERTEX
  5
643
330
63E
100
AcDbEntity
  8
image
 62
     5
100
AcDbVertex
100
AcDb2dVertex
 10
6.774039920631365
 20
5.190332991492601
 30
0.0
 70
    16
  0
VERTEX
  5
644
330
63E
100
AcDbEntity
  8
image
 62
     5
100
AcDbVertex
100
AcDb2dVertex
 10
6.915576608816502
 20
4.790649463388083
 30
0.0
 70
    16
  0
VERTEX
  5
645
330
63E
100
AcDbEntity
  8
image
 62
     5
100
AcDbVertex
100
AcDb2dVertex
 10
6.972191274153166
 20
4.444021273840057
 30
0.0
 70
    16
  0
VERTEX
  5
646
330
63E
100
AcDbEntity
  8
image
 62
     5
100
AcDbVertex
100
AcDb2dVertex
 10
6.986344952909073
 20
4.362669777074488
 30
0.0
 70
    16
  0
VERTEX
  5
647
330
63E
100
AcDbEntity
  8
image
 62
     5
100
AcDbVertex
100
AcDb2dVertex
 10
6.958037595397259
 20
4.323762517622535
 30
0.0
 70
    16
  0
VERTEX
  5
648
330
63E
100
AcDbEntity
  8
image
 62
     5
100
AcDbVertex
100
AcDb2dVertex
 10
6.890807658571928
 20
4.323762517622535
 30
0.0
 70
    16
  0
VERTEX
  5
649
330
63E
100
AcDbEntity
  8
image
 62
     5
100
AcDbVertex
100
AcDb2dVertex
 10
6.830654585968028
 20
4.330836573940593
 30
0.0
 70
    16
  0
SEQEND
  5
64A
330
63E
100
AcDbEntity
  8
image
 62
     5
  0
TEXT
  5
A89
330
2
100
AcDbEntity
  8
image
100
AcDbText
 10
1.803152643463292
 20
4.022678519419858
 30
0.0
 40
0.075
  1
L1L2L1L2L1L2
 50
90.0
  7
ARIAL
100
AcDbText
  0
CIRCLE
  5
A8A
102
{ACAD_REACTORS
330
B3F
102
}
330
2
100
AcDbEntity
  8
image
 62
     5
100
AcDbCircle
 10
1.845490871123557
 20
4.084507084293957
 30
0.0
 40
0.0131
  0
CIRCLE
  5
A8B
102
{ACAD_REACTORS
330
B3E
102
}
330
2
100
AcDbEntity
  8
image
 62
     5
100
AcDbCircle
 10
1.845490871123557
 20
4.201757446645404
 30
0.0
 40
0.0131
  0
CIRCLE
  5
A8C
330
2
100
AcDbEntity
  8
image
100
AcDbCircle
 10
1.845490871123557
 20
4.317577919359399
 30
0.0
 40
0.0131
  0
CIRCLE
  5
A8D
330
2
100
AcDbEntity
  8
image
100
AcDbCircle
 10
1.845490871123557
 20
4.43768806098575
 30
0.0
 40
0.0131
  0
CIRCLE
  5
A8E
330
2
100
AcDbEntity
  8
image
100
AcDbCircle
 10
1.845490871123557
 20
4.557798168028595
 30
0.0
 40
0.0131
  0
CIRCLE
  5
A8F
330
2
100
AcDbEntity
  8
image
100
AcDbCircle
 10
1.845490871123557
 20
4.657889923897632
 30
0.0
 40
0.0131
  0
POLYLINE
  5
A90
330
2
100
AcDbEntity
  8
image
 62
     5
100
AcDb2dPolyline
 66
     1
 10
0.0
 20
0.0
 30
0.0
 70
     4
 40
0.0131
 41
0.0131
 75
     6
  0
VERTEX
  5
ABB
330
A90
100
AcDbEntity
  8
image
 62
     5
100
AcDbVertex
100
AcDb2dVertex
 10
6.107830385761216
 20
4.338653107891861
 30
0.0
 40
0.0262
 41
0.0262
 70
    16
  0
VERTEX
  5
AC0
330
A90
100
AcDbEntity
  8
image
 62
     5
100
AcDbVertex
100
AcDb2dVertex
 10
6.107830385761216
 20
4.338653107891861
 30
0.0
 40
0.0262
 41
0.0262
 70
     8
  0
VERTEX
  5
AC1
330
A90
100
AcDbEntity
  8
image
 62
     5
100
AcDbVertex
100
AcDb2dVertex
 10
5.997232209973507
 20
4.328948181914473
 30
0.0
 40
0.0262
 41
0.0262
 70
     8
  0
VERTEX
  5
AC2
330
A90
100
AcDbEntity
  8
image
 62
     5
100
AcDbVertex
100
AcDb2dVertex
 10
5.892188191606964
 20
4.315475854973485
 30
0.0
 40
0.0262
 41
0.0262
 70
     8
  0
VERTEX
  5
AC3
330
A90
100
AcDbEntity
  8
image
 62
     5
100
AcDbVertex
100
AcDb2dVertex
 10
5.790053495595969
 20
4.299491927390096
 30
0.0
 40
0.0262
 41
0.0262
 70
     8
  0
VERTEX
  5
AC4
330
A90
100
AcDbEntity
  8
image
 62
     5
100
AcDbVertex
100
AcDb2dVertex
 10
5.688183286874911
 20
4.282252199485506
 30
0.0
 40
0.0262
 41
0.0262
 70
     8
  0
VERTEX
  5
AC5
330
A90
100
AcDbEntity
  8
image
 62
     5
100
AcDbVertex
100
AcDb2dVertex
 10
5.583932730378174
 20
4.265012471580917
 30
0.0
 40
0.0262
 41
0.0262
 70
     8
  0
VERTEX
  5
AC6
330
A90
100
AcDbEntity
  8
image
 62
     5
100
AcDbVertex
100
AcDb2dVertex
 10
5.474656991040145
 20
4.249028543997528
 30
0.0
 40
0.0262
 41
0.0262
 70
     8
  0
VERTEX
  5
AC7
330
A90
100
AcDbEntity
  8
image
 62
     5
100
AcDbVertex
100
AcDb2dVertex
 10
5.357711233795207
 20
4.23555621705654
 30
0.0
 40
0.0262
 41
0.0262
 70
     8
  0
VERTEX
  5
AC8
330
A90
100
AcDbEntity
  8
image
 62
     5
100
AcDbVertex
100
AcDb2dVertex
 10
5.230450623577748
 20
4.225851291079152
 30
0.0
 40
0.0262
 41
0.0262
 70
     8
  0
VERTEX
  5
ABC
330
A90
100
AcDbEntity
  8
image
 62
     5
100
AcDbVertex
100
AcDb2dVertex
 10
5.803145409263006
 20
4.318912773522471
 30
0.0
 40
0.0262
 41
0.0262
 70
    16
  0
VERTEX
  5
ABD
330
A90
100
AcDbEntity
  8
image
 62
     5
100
AcDbVertex
100
AcDb2dVertex
 10
5.585916352623771
 20
4.245591625448541
 30
0.0
 40
0.0262
 41
0.0262
 70
    16
  0
VERTEX
  5
ABE
330
A90
100
AcDbEntity
  8
image
 62
     5
100
AcDbVertex
100
AcDb2dVertex
 10
5.230450623577748
 20
4.225851291079152
 30
0.0
 40
0.0262
 41
0.0262
 70
    16
  0
SEQEND
  5
ABF
330
A90
100
AcDbEntity
  8
image
 62
     5
  0
POLYLINE
  5
A91
330
2
100
AcDbEntity
  8
image
 62
     5
100
AcDb2dPolyline
 66
     1
 10
0.0
 20
0.0
 30
0.0
 70
     4
 40
0.0131
 41
0.0131
 75
     6
  0
VERTEX
  5
A92
330
A91
100
AcDbEntity
  8
image
 62
     5
100
AcDbVertex
100
AcDb2dVertex
 10
6.624102061814312
 20
4.333013022238751
 30
0.0
 40
0.0262
 41
0.0262
 70
    16
  0
VERTEX
  5
A9A
330
A91
100
AcDbEntity
  8
image
 62
     5
100
AcDbVertex
100
AcDb2dVertex
 10
6.624102061814312
 20
4.33301302223875
 30
0.0
 40
0.0262
 41
0.0262
 70
     8
  0
VERTEX
  5
A9B
330
A91
100
AcDbEntity
  8
image
 62
     5
100
AcDbVertex
100
AcDb2dVertex
 10
6.584549381792866
 20
4.321189391462049
 30
0.0
 40
0.0262
 41
0.0262
 70
     8
  0
VERTEX
  5
A9C
330
A91
100
AcDbEntity
  8
image
 62
     5
100
AcDbVertex
100
AcDb2dVertex
 10
6.551798887329255
 20
4.307162600977502
 30
0.0
 40
0.0262
 41
0.0262
 70
     8
  0
VERTEX
  5
A9D
330
A91
100
AcDbEntity
  8
image
 62
     5
100
AcDbVertex
100
AcDb2dVertex
 10
6.524586016640842
 20
4.291373282848262
 30
0.0
 40
0.0262
 41
0.0262
 70
     8
  0
VERTEX
  5
A9E
330
A91
100
AcDbEntity
  8
image
 62
     5
100
AcDbVertex
100
AcDb2dVertex
 10
6.50164620794499
 20
4.274262069137479
 30
0.0
 40
0.0262
 41
0.0262
 70
     8
  0
VERTEX
  5
A9F
330
A91
100
AcDbEntity
  8
image
 62
     5
100
AcDbVertex
100
AcDb2dVertex
 10
6.481714899459062
 20
4.256269591908307
 30
0.0
 40
0.0262
 41
0.0262
 70
     8
  0
VERTEX
  5
AA0
330
A91
100
AcDbEntity
  8
image
 62
     5
100
AcDbVertex
100
AcDb2dVertex
 10
6.463527529400421
 20
4.237836483223897
 30
0.0
 40
0.0262
 41
0.0262
 70
     8
  0
VERTEX
  5
AA1
330
A91
100
AcDbEntity
  8
image
 62
     5
100
AcDbVertex
100
AcDb2dVertex
 10
6.44581953598643
 20
4.219403375147399
 30
0.0
 40
0.0262
 41
0.0262
 70
     8
  0
VERTEX
  5
AA2
330
A91
100
AcDbEntity
  8
image
 62
     5
100
AcDbVertex
100
AcDb2dVertex
 10
6.427326357434452
 20
4.201410899741966
 30
0.0
 40
0.0262
 41
0.0262
 70
     8
  0
VERTEX
  5
AA3
330
A91
100
AcDbEntity
  8
image
 62
     5
100
AcDbVertex
100
AcDb2dVertex
 10
6.40697169281724
 20
4.184251035920584
 30
0.0
 40
0.0262
 41
0.0262
 70
     8
  0
VERTEX
  5
AA4
330
A91
100
AcDbEntity
  8
image
 62
     5
100
AcDbVertex
100
AcDb2dVertex
 10
6.384432284629097
 20
4.168121149995577
 30
0.0
 40
0.0262
 41
0.0262
 70
     8
  0
VERTEX
  5
AA5
330
A91
100
AcDbEntity
  8
image
 62
     5
100
AcDbVertex
100
AcDb2dVertex
 10
6.359573136219713
 20
4.153169955129105
 30
0.0
 40
0.0262
 41
0.0262
 70
     8
  0
VERTEX
  5
AA6
330
A91
100
AcDbEntity
  8
image
 62
     5
100
AcDbVertex
100
AcDb2dVertex
 10
6.332259250938783
 20
4.139546164483324
 30
0.0
 40
0.0262
 41
0.0262
 70
     8
  0
VERTEX
  5
AA7
330
A91
100
AcDbEntity
  8
image
 62
     5
100
AcDbVertex
100
AcDb2dVertex
 10
6.302355632135997
 20
4.127398491220396
 30
0.0
 40
0.0262
 41
0.0262
 70
     8
  0
VERTEX
  5
AA8
330
A91
100
AcDbEntity
  8
image
 62
     5
100
AcDbVertex
100
AcDb2dVertex
 10
6.269727283161047
 20
4.116875648502476
 30
0.0
 40
0.0262
 41
0.0262
 70
     8
  0
VERTEX
  5
AA9
330
A91
100
AcDbEntity
  8
image
 62
     5
100
AcDbVertex
100
AcDb2dVertex
 10
6.234239207363627
 20
4.108126349491725
 30
0.0
 40
0.0262
 41
0.0262
 70
     8
  0
VERTEX
  5
AAA
330
A91
100
AcDbEntity
  8
image
 62
     5
100
AcDbVertex
100
AcDb2dVertex
 10
6.195756408093428
 20
4.101299307350301
 30
0.0
 40
0.0262
 41
0.0262
 70
     8
  0
VERTEX
  5
AAB
330
A91
100
AcDbEntity
  8
image
 62
     5
100
AcDbVertex
100
AcDb2dVertex
 10
6.154141133617947
 20
4.096495041165976
 30
0.0
 40
0.0262
 41
0.0262
 70
     8
  0
VERTEX
  5
AAC
330
A91
100
AcDbEntity
  8
image
 62
     5
100
AcDbVertex
100
AcDb2dVertex
 10
6.109244611875919
 20
4.093621293728968
 30
0.0
 40
0.0262
 41
0.0262
 70
     8
  0
VERTEX
  5
AAD
330
A91
100
AcDbEntity
  8
image
 62
     5
100
AcDbVertex
100
AcDb2dVertex
 10
6.060915315723876
 20
4.092537613755112
 30
0.0
 40
0.0262
 41
0.0262
 70
     8
  0
VERTEX
  5
AAE
330
A91
100
AcDbEntity
  8
image
 62
     5
100
AcDbVertex
100
AcDb2dVertex
 10
6.009001718018359
 20
4.09310354996024
 30
0.0
 40
0.0262
 41
0.0262
 70
     8
  0
VERTEX
  5
AAF
330
A91
100
AcDbEntity
  8
image
 62
     5
100
AcDbVertex
100
AcDb2dVertex
 10
5.953352291615905
 20
4.095178651060185
 30
0.0
 40
0.0262
 41
0.0262
 70
     8
  0
VERTEX
  5
AB0
330
A91
100
AcDbEntity
  8
image
 62
     5
100
AcDbVertex
100
AcDb2dVertex
 10
5.893815509373052
 20
4.098622465770778
 30
0.0
 40
0.0262
 41
0.0262
 70
     8
  0
VERTEX
  5
AB1
330
A91
100
AcDbEntity
  8
image
 62
     5
100
AcDbVertex
100
AcDb2dVertex
 10
5.830239844146335
 20
4.103294542807854
 30
0.0
 40
0.0262
 41
0.0262
 70
     8
  0
VERTEX
  5
AB2
330
A91
100
AcDbEntity
  8
image
 62
     5
100
AcDbVertex
100
AcDb2dVertex
 10
5.762473768792295
 20
4.109054430887245
 30
0.0
 40
0.0262
 41
0.0262
 70
     8
  0
VERTEX
  5
AB3
330
A91
100
AcDbEntity
  8
image
 62
     5
100
AcDbVertex
100
AcDb2dVertex
 10
5.690715645775703
 20
4.115856230896919
 30
0.0
 40
0.0262
 41
0.0262
 70
     8
  0
VERTEX
  5
AB4
330
A91
100
AcDbEntity
  8
image
 62
     5
100
AcDbVertex
100
AcDb2dVertex
 10
5.616563395994282
 20
4.124032252413388
 30
0.0
 40
0.0262
 41
0.0262
 70
     8
  0
VERTEX
  5
AB5
330
A91
100
AcDbEntity
  8
image
 62
     5
100
AcDbVertex
100
AcDb2dVertex
 10
5.541964829953981
 20
4.134009357185299
 30
0.0
 40
0.0262
 41
0.0262
 70
     8
  0
VERTEX
  5
AB6
330
A91
100
AcDbEntity
  8
image
 62
     5
100
AcDbVertex
100
AcDb2dVertex
 10
5.46886775816076
 20
4.146214406961301
 30
0.0
 40
0.0262
 41
0.0262
 70
     8
  0
VERTEX
  5
AB7
330
A91
100
AcDbEntity
  8
image
 62
     5
100
AcDbVertex
100
AcDb2dVertex
 10
5.39921999112057
 20
4.161074263490039
 30
0.0
 40
0.0262
 41
0.0262
 70
     8
  0
VERTEX
  5
AB8
330
A91
100
AcDbEntity
  8
image
 62
     5
100
AcDbVertex
100
AcDb2dVertex
 10
5.334969339339368
 20
4.179015788520163
 30
0.0
 40
0.0262
 41
0.0262
 70
     8
  0
VERTEX
  5
AB9
330
A91
100
AcDbEntity
  8
image
 62
     5
100
AcDbVertex
100
AcDb2dVertex
 10
5.27806361332311
 20
4.200465843800317
 30
0.0
 40
0.0262
 41
0.0262
 70
     8
  0
VERTEX
  5
ABA
330
A91
100
AcDbEntity
  8
image
 62
     5
100
AcDbVertex
100
AcDb2dVertex
 10
5.230450623577748
 20
4.225851291079153
 30
0.0
 40
0.0262
 41
0.0262
 70
     8
  0
VERTEX
  5
A93
330
A91
100
AcDbEntity
  8
image
 62
     5
100
AcDbVertex
100
AcDb2dVertex
 10
6.508434612762108
 20
4.304812559389698
 30
0.0
 40
0.0262
 41
0.0262
 70
    16
  0
VERTEX
  5
A94
330
A91
100
AcDbEntity
  8
image
 62
     5
100
AcDbVertex
100
AcDb2dVertex
 10
6.449190324587771
 20
4.192010742576989
 30
0.0
 40
0.0262
 41
0.0262
 70
    16
  0
VERTEX
  5
A95
330
A91
100
AcDbEntity
  8
image
 62
     5
100
AcDbVertex
100
AcDb2dVertex
 10
6.22914008940636
 20
4.079208960347787
 30
0.0
 40
0.0262
 41
0.0262
 70
    16
  0
VERTEX
  5
A96
330
A91
100
AcDbEntity
  8
image
 62
     5
100
AcDbVertex
100
AcDb2dVertex
 10
5.808787766347355
 20
4.098949260133671
 30
0.0
 40
0.0262
 41
0.0262
 70
    16
  0
VERTEX
  5
A97
330
A91
100
AcDbEntity
  8
image
 62
     5
100
AcDbVertex
100
AcDb2dVertex
 10
5.343296894087776
 20
4.152530143005223
 30
0.0
 40
0.0262
 41
0.0262
 70
    16
  0
VERTEX
  5
A98
330
A91
100
AcDbEntity
  8
image
 62
     5
100
AcDbVertex
100
AcDb2dVertex
 10
5.230450623577748
 20
4.225851291079152
 30
0.0
 40
0.0262
 41
0.0262
 70
    16
  0
SEQEND
  5
A99
330
A91
100
AcDbEntity
  8
image
 62
     5
  0
POLYLINE
  5
AC9
330
2
100
AcDbEntity
  8
image
 62
     8
100
AcDb2dPolyline
 66
     1
 10
0.0
 20
0.0
 30
0.0
 70
     4
 40
0.0262
 41
0.0262
 75
     6
  0
VERTEX
  5
ACA
330
AC9
100
AcDbEntity
  8
image
 62
     8
100
AcDbVertex
100
AcDb2dVertex
 10
5.230450623577748
 20
4.225851291079153
 30
0.0
 40
0.0524
 41
0.0524
 70
    16
  0
VERTEX
  5
AD2
330
AC9
100
AcDbEntity
  8
image
 62
     8
100
AcDbVertex
100
AcDb2dVertex
 10
5.230450623577748
 20
4.225851291079153
 30
0.0
 40
0.0524
 41
0.0524
 70
     8
  0
VERTEX
  5
AD3
330
AC9
100
AcDbEntity
  8
image
 62
     8
100
AcDbVertex
100
AcDb2dVertex
 10
4.989260777946235
 20
4.242891146048323
 30
0.0
 40
0.0524
 41
0.0524
 70
     8
  0
VERTEX
  5
AD4
330
AC9
100
AcDbEntity
  8
image
 62
     8
100
AcDbVertex
100
AcDb2dVertex
 10
4.789166267468665
 20
4.257442837488746
 30
0.0
 40
0.0524
 41
0.0524
 70
     8
  0
VERTEX
  5
AD5
330
AC9
100
AcDbEntity
  8
image
 62
     8
100
AcDbVertex
100
AcDb2dVertex
 10
4.624581243058825
 20
4.26980140515887
 30
0.0
 40
0.0524
 41
0.0524
 70
     8
  0
VERTEX
  5
AD6
330
AC9
100
AcDbEntity
  8
image
 62
     8
100
AcDbVertex
100
AcDb2dVertex
 10
4.489919855630512
 20
4.280261888817144
 30
0.0
 40
0.0524
 41
0.0524
 70
     8
  0
VERTEX
  5
AD7
330
AC9
100
AcDbEntity
  8
image
 62
     8
100
AcDbVertex
100
AcDb2dVertex
 10
4.379596256097514
 20
4.289119328222019
 30
0.0
 40
0.0524
 41
0.0524
 70
     8
  0
VERTEX
  5
AD8
330
AC9
100
AcDbEntity
  8
image
 62
     8
100
AcDbVertex
100
AcDb2dVertex
 10
4.288024595373624
 20
4.296668763131944
 30
0.0
 40
0.0524
 41
0.0524
 70
     8
  0
VERTEX
  5
AD9
330
AC9
100
AcDbEntity
  8
image
 62
     8
100
AcDbVertex
100
AcDb2dVertex
 10
4.209619024372633
 20
4.303205233305368
 30
0.0
 40
0.0524
 41
0.0524
 70
     8
  0
VERTEX
  5
ADA
330
AC9
100
AcDbEntity
  8
image
 62
     8
100
AcDbVertex
100
AcDb2dVertex
 10
4.138793694008333
 20
4.309023778500741
 30
0.0
 40
0.0524
 41
0.0524
 70
     8
  0
VERTEX
  5
ADB
330
AC9
100
AcDbEntity
  8
image
 62
     8
100
AcDbVertex
100
AcDb2dVertex
 10
4.070824480346724
 20
4.31435893785252
 30
0.0
 40
0.0524
 41
0.0524
 70
     8
  0
VERTEX
  5
ADC
330
AC9
100
AcDbEntity
  8
image
 62
     8
100
AcDbVertex
100
AcDb2dVertex
 10
4.004434160062642
 20
4.319203247999208
 30
0.0
 40
0.0524
 41
0.0524
 70
     8
  0
VERTEX
  5
ADD
330
AC9
100
AcDbEntity
  8
image
 62
     8
100
AcDbVertex
100
AcDb2dVertex
 10
3.939207234983125
 20
4.323488744955314
 30
0.0
 40
0.0524
 41
0.0524
 70
     8
  0
VERTEX
  5
ADE
330
AC9
100
AcDbEntity
  8
image
 62
     8
100
AcDbVertex
100
AcDb2dVertex
 10
3.87472820693522
 20
4.327147464735348
 30
0.0
 40
0.0524
 41
0.0524
 70
     8
  0
VERTEX
  5
ADF
330
AC9
100
AcDbEntity
  8
image
 62
     8
100
AcDbVertex
100
AcDb2dVertex
 10
3.810581577745965
 20
4.330111443353819
 30
0.0
 40
0.0524
 41
0.0524
 70
     8
  0
VERTEX
  5
AE0
330
AC9
100
AcDbEntity
  8
image
 62
     8
100
AcDbVertex
100
AcDb2dVertex
 10
3.746351849242405
 20
4.332312716825239
 30
0.0
 40
0.0524
 41
0.0524
 70
     8
  0
VERTEX
  5
AE1
330
AC9
100
AcDbEntity
  8
image
 62
     8
100
AcDbVertex
100
AcDb2dVertex
 10
3.681623523251582
 20
4.333683321164118
 30
0.0
 40
0.0524
 41
0.0524
 70
     8
  0
VERTEX
  5
AE2
330
AC9
100
AcDbEntity
  8
image
 62
     8
100
AcDbVertex
100
AcDb2dVertex
 10
3.615981101600537
 20
4.334155292384963
 30
0.0
 40
0.0524
 41
0.0524
 70
     8
  0
VERTEX
  5
AE3
330
AC9
100
AcDbEntity
  8
image
 62
     8
100
AcDbVertex
100
AcDb2dVertex
 10
3.549061967680124
 20
4.333638011941776
 30
0.0
 40
0.0524
 41
0.0524
 70
     8
  0
VERTEX
  5
AE4
330
AC9
100
AcDbEntity
  8
image
 62
     8
100
AcDbVertex
100
AcDb2dVertex
 10
3.480715031136444
 20
4.331950243046509
 30
0.0
 40
0.0524
 41
0.0524
 70
     8
  0
VERTEX
  5
AE5
330
AC9
100
AcDbEntity
  8
image
 62
     8
100
AcDbVertex
100
AcDb2dVertex
 10
3.410842083179407
 20
4.32888809435061
 30
0.0
 40
0.0524
 41
0.0524
 70
     8
  0
VERTEX
  5
AE6
330
AC9
100
AcDbEntity
  8
image
 62
     8
100
AcDbVertex
100
AcDb2dVertex
 10
3.339344915018923
 20
4.324247674505516
 30
0.0
 40
0.0524
 41
0.0524
 70
     8
  0
VERTEX
  5
AE7
330
AC9
100
AcDbEntity
  8
image
 62
     8
100
AcDbVertex
100
AcDb2dVertex
 10
3.266125317864908
 20
4.317825092162674
 30
0.0
 40
0.0524
 41
0.0524
 70
     8
  0
VERTEX
  5
AE8
330
AC9
100
AcDbEntity
  8
image
 62
     8
100
AcDbVertex
100
AcDb2dVertex
 10
3.191085082927267
 20
4.309416455973527
 30
0.0
 40
0.0524
 41
0.0524
 70
     8
  0
VERTEX
  5
AE9
330
AC9
100
AcDbEntity
  8
image
 62
     8
100
AcDbVertex
100
AcDb2dVertex
 10
3.114126001415918
 20
4.298817874589519
 30
0.0
 40
0.0524
 41
0.0524
 70
     8
  0
VERTEX
  5
AEA
330
AC9
100
AcDbEntity
  8
image
 62
     8
100
AcDbVertex
100
AcDb2dVertex
 10
3.035149864540768
 20
4.285825456662092
 30
0.0
 40
0.0524
 41
0.0524
 70
     8
  0
VERTEX
  5
AEB
330
AC9
100
AcDbEntity
  8
image
 62
     8
100
AcDbVertex
100
AcDb2dVertex
 10
2.954232217412041
 20
4.270436685104163
 30
0.0
 40
0.0524
 41
0.0524
 70
     8
  0
VERTEX
  5
AEC
330
AC9
100
AcDbEntity
  8
image
 62
     8
100
AcDbVertex
100
AcDb2dVertex
 10
2.872143620741214
 20
4.253454539874555
 30
0.0
 40
0.0524
 41
0.0524
 70
     8
  0
VERTEX
  5
AED
330
AC9
100
AcDbEntity
  8
image
 62
     8
100
AcDbVertex
100
AcDb2dVertex
 10
2.789828389140071
 20
4.23588337519356
 30
0.0
 40
0.0524
 41
0.0524
 70
     8
  0
VERTEX
  5
AEE
330
AC9
100
AcDbEntity
  8
image
 62
     8
100
AcDbVertex
100
AcDb2dVertex
 10
2.7082308372204
 20
4.218727545281474
 30
0.0
 40
0.0524
 41
0.0524
 70
     8
  0
VERTEX
  5
AEF
330
AC9
100
AcDbEntity
  8
image
 62
     8
100
AcDbVertex
100
AcDb2dVertex
 10
2.62829527959399
 20
4.202991404358591
 30
0.0
 40
0.0524
 41
0.0524
 70
     8
  0
VERTEX
  5
AF0
330
AC9
100
AcDbEntity
  8
image
 62
     8
100
AcDbVertex
100
AcDb2dVertex
 10
2.550966030872624
 20
4.189679306645207
 30
0.0
 40
0.0524
 41
0.0524
 70
     8
  0
VERTEX
  5
AF1
330
AC9
100
AcDbEntity
  8
image
 62
     8
100
AcDbVertex
100
AcDb2dVertex
 10
2.477187405668093
 20
4.179795606361616
 30
0.0
 40
0.0524
 41
0.0524
 70
     8
  0
VERTEX
  5
AF2
330
AC9
100
AcDbEntity
  8
image
 62
     8
100
AcDbVertex
100
AcDb2dVertex
 10
2.407903718592182
 20
4.174344657728112
 30
0.0
 40
0.0524
 41
0.0524
 70
     8
  0
VERTEX
  5
ACB
330
AC9
100
AcDbEntity
  8
image
 62
     8
100
AcDbVertex
100
AcDb2dVertex
 10
4.527518722500721
 20
4.274870713265004
 30
0.0
 40
0.0524
 41
0.0524
 70
    16
  0
VERTEX
  5
ACC
330
AC9
100
AcDbEntity
  8
image
 62
     8
100
AcDbVertex
100
AcDb2dVertex
 10
4.117520184136516
 20
4.313534554176497
 30
0.0
 40
0.0524
 41
0.0524
 70
    16
  0
VERTEX
  5
ACD
330
AC9
100
AcDbEntity
  8
image
 62
     8
100
AcDbVertex
100
AcDb2dVertex
 10
3.630163435821115
 20
4.344465661489197
 30
0.0
 40
0.0524
 41
0.0524
 70
    16
  0
VERTEX
  5
ACE
330
AC9
100
AcDbEntity
  8
image
 62
     8
100
AcDbVertex
100
AcDb2dVertex
 10
3.057712682182247
 20
4.313534554176497
 30
0.0
 40
0.0524
 41
0.0524
 70
    16
  0
VERTEX
  5
ACF
330
AC9
100
AcDbEntity
  8
image
 62
     8
100
AcDbVertex
100
AcDb2dVertex
 10
2.585827575857084
 20
4.18207742591041
 30
0.0
 40
0.0524
 41
0.0524
 70
    16
  0
VERTEX
  5
AD0
330
AC9
100
AcDbEntity
  8
image
 62
     8
100
AcDbVertex
100
AcDb2dVertex
 10
2.407903718592182
 20
4.174344657728112
 30
0.0
 40
0.0524
 41
0.0524
 70
    16
  0
SEQEND
  5
AD1
330
AC9
100
AcDbEntity
  8
image
 62
     8
  0
POLYLINE
  5
AF3
330
2
100
AcDbEntity
  8
image
 62
     5
100
AcDb2dPolyline
 66
     1
 10
0.0
 20
0.0
 30
0.0
 70
     4
 40
0.0262
 41
0.0262
 75
     6
  0
VERTEX
  5
B0C
330
AF3
100
AcDbEntity
  8
image
 62
     5
100
AcDbVertex
100
AcDb2dVertex
 10
2.407903718592182
 20
4.174344657728112
 30
0.0
 70
    16
  0
VERTEX
  5
B12
330
AF3
100
AcDbEntity
  8
image
 62
     5
100
AcDbVertex
100
AcDb2dVertex
 10
2.407903718592182
 20
4.174344657728112
 30
0.0
 70
     8
  0
VERTEX
  5
B13
330
AF3
100
AcDbEntity
  8
image
 62
     5
100
AcDbVertex
100
AcDb2dVertex
 10
2.366849536116337
 20
4.18557684921557
 30
0.0
 70
     8
  0
VERTEX
  5
B14
330
AF3
100
AcDbEntity
  8
image
 62
     5
100
AcDbVertex
100
AcDb2dVertex
 10
2.330942087740467
 20
4.194705469367859
 30
0.0
 70
     8
  0
VERTEX
  5
B15
330
AF3
100
AcDbEntity
  8
image
 62
     5
100
AcDbVertex
100
AcDb2dVertex
 10
2.299306606730889
 20
4.201966660442811
 30
0.0
 70
     8
  0
VERTEX
  5
B16
330
AF3
100
AcDbEntity
  8
image
 62
     5
100
AcDbVertex
100
AcDb2dVertex
 10
2.271068326353914
 20
4.207596564698256
 30
0.0
 70
     8
  0
VERTEX
  5
B17
330
AF3
100
AcDbEntity
  8
image
 62
     5
100
AcDbVertex
100
AcDb2dVertex
 10
2.24535247987586
 20
4.211831324392028
 30
0.0
 70
     8
  0
VERTEX
  5
B18
330
AF3
100
AcDbEntity
  8
image
 62
     5
100
AcDbVertex
100
AcDb2dVertex
 10
2.221284300563038
 20
4.214907081781956
 30
0.0
 70
     8
  0
VERTEX
  5
B19
330
AF3
100
AcDbEntity
  8
image
 62
     5
100
AcDbVertex
100
AcDb2dVertex
 10
2.197989021681765
 20
4.217059979125874
 30
0.0
 70
     8
  0
VERTEX
  5
B1A
330
AF3
100
AcDbEntity
  8
image
 62
     5
100
AcDbVertex
100
AcDb2dVertex
 10
2.174591876498356
 20
4.218526158681613
 30
0.0
 70
     8
  0
VERTEX
  5
B1B
330
AF3
100
AcDbEntity
  8
image
 62
     5
100
AcDbVertex
100
AcDb2dVertex
 10
2.150153089199069
 20
4.219479041263552
 30
0.0
 70
     8
  0
VERTEX
  5
B1C
330
AF3
100
AcDbEntity
  8
image
 62
     5
100
AcDbVertex
100
AcDb2dVertex
 10
2.123472847649942
 20
4.219841161912263
 30
0.0
 70
     8
  0
VERTEX
  5
B1D
330
AF3
100
AcDbEntity
  8
image
 62
     5
100
AcDbVertex
100
AcDb2dVertex
 10
2.093286330636958
 20
4.219472334224865
 30
0.0
 70
     8
  0
VERTEX
  5
B1E
330
AF3
100
AcDbEntity
  8
image
 62
     5
100
AcDbVertex
100
AcDb2dVertex
 10
2.058328716946098
 20
4.218232371798476
 30
0.0
 70
     8
  0
VERTEX
  5
B1F
330
AF3
100
AcDbEntity
  8
image
 62
     5
100
AcDbVertex
100
AcDb2dVertex
 10
2.017335185363346
 20
4.215981088230217
 30
0.0
 70
     8
  0
VERTEX
  5
B20
330
AF3
100
AcDbEntity
  8
image
 62
     5
100
AcDbVertex
100
AcDb2dVertex
 10
1.969040914674684
 20
4.212578297117206
 30
0.0
 70
     8
  0
VERTEX
  5
B21
330
AF3
100
AcDbEntity
  8
image
 62
     5
100
AcDbVertex
100
AcDb2dVertex
 10
1.912181083666093
 20
4.207883812056562
 30
0.0
 70
     8
  0
VERTEX
  5
B22
330
AF3
100
AcDbEntity
  8
image
 62
     5
100
AcDbVertex
100
AcDb2dVertex
 10
1.845490871123557
 20
4.201757446645404
 30
0.0
 70
     8
  0
VERTEX
  5
B0D
330
AF3
100
AcDbEntity
  8
image
 62
     5
100
AcDbVertex
100
AcDb2dVertex
 10
2.290786016093353
 20
4.207311834370743
 30
0.0
 70
    16
  0
VERTEX
  5
B0E
330
AF3
100
AcDbEntity
  8
image
 62
     5
100
AcDbVertex
100
AcDb2dVertex
 10
2.185009295547127
 20
4.223332297671985
 30
0.0
 70
    16
  0
VERTEX
  5
B0F
330
AF3
100
AcDbEntity
  8
image
 62
     5
100
AcDbVertex
100
AcDb2dVertex
 10
2.03756289880582
 20
4.220128205011737
 30
0.0
 70
    16
  0
VERTEX
  5
B10
330
AF3
100
AcDbEntity
  8
image
 62
     5
100
AcDbVertex
100
AcDb2dVertex
 10
1.845490871123557
 20
4.201757446645404
 30
0.0
 70
    16
  0
SEQEND
  5
B11
330
AF3
100
AcDbEntity
  8
image
 62
     5
  0
POLYLINE
  5
AF4
330
2
100
AcDbEntity
  8
image
 62
     5
100
AcDb2dPolyline
 66
     1
 10
0.0
 20
0.0
 30
0.0
 70
     4
 40
0.0262
 41
0.0262
 75
     6
  0
VERTEX
  5
AF5
330
AF4
100
AcDbEntity
  8
image
 62
     5
100
AcDbVertex
100
AcDb2dVertex
 10
2.407903718592182
 20
4.174344657728112
 30
0.0
 70
    16
  0
VERTEX
  5
AFB
330
AF4
100
AcDbEntity
  8
image
 62
     5
100
AcDbVertex
100
AcDb2dVertex
 10
2.407903718592182
 20
4.174344657728112
 30
0.0
 70
     8
  0
VERTEX
  5
AFC
330
AF4
100
AcDbEntity
  8
image
 62
     5
100
AcDbVertex
100
AcDb2dVertex
 10
2.387285591023617
 20
4.161689112463666
 30
0.0
 70
     8
  0
VERTEX
  5
AFD
330
AF4
100
AcDbEntity
  8
image
 62
     5
100
AcDbVertex
100
AcDb2dVertex
 10
2.36376814271971
 20
4.151445547384638
 30
0.0
 70
     8
  0
VERTEX
  5
AFE
330
AF4
100
AcDbEntity
  8
image
 62
     5
100
AcDbVertex
100
AcDb2dVertex
 10
2.337756966118728
 20
4.143252208245105
 30
0.0
 70
     8
  0
VERTEX
  5
AFF
330
AF4
100
AcDbEntity
  8
image
 62
     5
100
AcDbVertex
100
AcDb2dVertex
 10
2.309657653658941
 20
4.136747340799146
 30
0.0
 70
     8
  0
VERTEX
  5
B00
330
AF4
100
AcDbEntity
  8
image
 62
     5
100
AcDbVertex
100
AcDb2dVertex
 10
2.279875797778615
 20
4.131569190800838
 30
0.0
 70
     8
  0
VERTEX
  5
B01
330
AF4
100
AcDbEntity
  8
image
 62
     5
100
AcDbVertex
100
AcDb2dVertex
 10
2.248816990916019
 20
4.12735600400426
 30
0.0
 70
     8
  0
VERTEX
  5
B02
330
AF4
100
AcDbEntity
  8
image
 62
     5
100
AcDbVertex
100
AcDb2dVertex
 10
2.216886825509421
 20
4.123746026163491
 30
0.0
 70
     8
  0
VERTEX
  5
B03
330
AF4
100
AcDbEntity
  8
image
 62
     5
100
AcDbVertex
100
AcDb2dVertex
 10
2.184490893997091
 20
4.120377503032608
 30
0.0
 70
     8
  0
VERTEX
  5
B04
330
AF4
100
AcDbEntity
  8
image
 62
     5
100
AcDbVertex
100
AcDb2dVertex
 10
2.15181655427909
 20
4.11693906299511
 30
0.0
 70
     8
  0
VERTEX
  5
B05
330
AF4
100
AcDbEntity
  8
image
 62
     5
100
AcDbVertex
100
AcDb2dVertex
 10
2.118178226102665
 20
4.113320864952176
 30
0.0
 70
     8
  0
VERTEX
  5
B06
330
AF4
100
AcDbEntity
  8
image
 62
     5
100
AcDbVertex
100
AcDb2dVertex
 10
2.082672094676857
 20
4.109463450434404
 30
0.0
 70
     8
  0
VERTEX
  5
B07
330
AF4
100
AcDbEntity
  8
image
 62
     5
100
AcDbVertex
100
AcDb2dVertex
 10
2.04439434521071
 20
4.105307360972394
 30
0.0
 70
     8
  0
VERTEX
  5
B08
330
AF4
100
AcDbEntity
  8
image
 62
     5
100
AcDbVertex
100
AcDb2dVertex
 10
2.002441162913264
 20
4.100793138096746
 30
0.0
 70
     8
  0
VERTEX
  5
B09
330
AF4
100
AcDbEntity
  8
image
 62
     5
100
AcDbVertex
100
AcDb2dVertex
 10
1.955908732993563
 20
4.095861323338057
 30
0.0
 70
     8
  0
VERTEX
  5
B0A
330
AF4
100
AcDbEntity
  8
image
 62
     5
100
AcDbVertex
100
AcDb2dVertex
 10
1.903893240660647
 20
4.090452458226929
 30
0.0
 70
     8
  0
VERTEX
  5
B0B
330
AF4
100
AcDbEntity
  8
image
 62
     5
100
AcDbVertex
100
AcDb2dVertex
 10
1.845490871123557
 20
4.084507084293957
 30
0.0
 70
     8
  0
VERTEX
  5
AF6
330
AF4
100
AcDbEntity
  8
image
 62
     5
100
AcDbVertex
100
AcDb2dVertex
 10
2.357148332668259
 20
4.137059004112661
 30
0.0
 70
    16
  0
VERTEX
  5
AF7
330
AF4
100
AcDbEntity
  8
image
 62
     5
100
AcDbVertex
100
AcDb2dVertex
 10
2.185132746450058
 20
4.121660698083651
 30
0.0
 70
    16
  0
VERTEX
  5
AF8
330
AF4
100
AcDbEntity
  8
image
 62
     5
100
AcDbVertex
100
AcDb2dVertex
 10
2.010549750419986
 20
4.10112961185047
 30
0.0
 70
    16
  0
VERTEX
  5
AF9
330
AF4
100
AcDbEntity
  8
image
 62
     5
100
AcDbVertex
100
AcDb2dVertex
 10
1.845490871123557
 20
4.084507084293957
 30
0.0
 70
    16
  0
SEQEND
  5
AFA
330
AF4
100
AcDbEntity
  8
image
 62
     5
  0
LWPOLYLINE
  5
B24
330
2
100
AcDbEntity
  8
image
100
AcDbPolyline
 90
        4
 70
     0
 43
0.0
 10
3.87128977393675
 20
4.976342517934202
 42
0.5588132573414237
 10
3.874365105493664
 20
4.784181175544341
 42
-0.5805057762591173
 10
3.87128977393675
 20
4.600628607934214
 42
-0.4766769287470222
 10
3.874365105493664
 20
4.784181175544341
 42
-0.7161357091941387
  0
LWPOLYLINE
  5
B25
330
2
100
AcDbEntity
  8
image
100
AcDbPolyline
 90
        4
 70
     0
 43
0.0
 10
7.553446264908894
 20
4.976342517934202
 42
-0.5588132573414237
 10
7.550370933351979
 20
4.784181175544341
 42
0.5805057762591173
 10
7.553446264908894
 20
4.600628607934214
 42
0.4766769287470222
 10
7.550370933351979
 20
4.784181175544341
 42
0.7161357091941387
  0
TEXT
  5
B27
330
2
100
AcDbEntity
  8
image
100
AcDbText
 10
6.483399451332308
 20
7.070516861869911
 30
0.0
 40
0.125
  1
WHITE
  7
ARIAL
100
AcDbText
  0
TEXT
  5
B29
330
2
100
AcDbEntity
  8
image
 62
     5
100
AcDbText
 10
5.725893482903622
 20
5.441322223236348
 30
0.0
 40
0.125
  1
BLUE
  7
ARIAL
100
AcDbText
  0
TEXT
  5
B2B
330
2
100
AcDbEntity
  8
image
 62
     5
100
AcDbText
 10
6.765867154735603
 20
5.429509016352757
 30
0.0
 40
0.125
  1
BLUE
  7
ARIAL
100
AcDbText
  0
HATCH
  5
B3E
330
2
100
AcDbEntity
  8
image
 62
     5
100
AcDbHatch
 10
0.0
 20
0.0
 30
0.0
210
0.0
220
0.0
230
1.0
  2
SOLID
 70
     1
 71
     1
 91
        1
 92
        1
 93
        1
 72
     2
 10
1.845490871123557
 20
4.201757446645404
 40
0.0131
 50
0.0
 51
360.0
 73
     1
 97
        1
330
A8B
 75
     0
 76
     1
 98
        1
 10
-7.614818048500696
 20
0.7086179731890671
450
        0
451
        0
460
0.0
461
0.0
452
        0
462
0.0
453
        0
470

  0
HATCH
  5
B3F
330
2
100
AcDbEntity
  8
image
 62
     5
100
AcDbHatch
 10
0.0
 20
0.0
 30
0.0
210
0.0
220
0.0
230
1.0
  2
SOLID
 70
     1
 71
     1
 91
        1
 92
        1
 93
        1
 72
     2
 10
1.845490871123557
 20
4.084507084293957
 40
0.0131
 50
0.0
 51
360.0
 73
     1
 97
        1
330
A8A
 75
     0
 76
     1
 98
        1
 10
-7.614818048500696
 20
0.7086179731890671
450
        0
451
        0
460
0.0
461
0.0
452
        0
462
0.0
453
        0
470

  0
CIRCLE
  5
B41
102
{ACAD_REACTORS
330
B45
102
}
330
2
100
AcDbEntity
  8
image
 62
     5
100
AcDbCircle
 10
6.107830385761216
 20
4.338653107891861
 30
0.0
 40
0.0131
  0
CIRCLE
  5
B42
102
{ACAD_REACTORS
330
B45
102
}
330
2
100
AcDbEntity
  8
image
 62
     5
100
AcDbCircle
 10
6.29989205496072
 20
4.330836573940593
 30
0.0
 40
0.0131
  0
CIRCLE
  5
B43
102
{ACAD_REACTORS
330
B46
102
}
330
2
100
AcDbEntity
  8
image
 62
     5
100
AcDbCircle
 10
6.624102061814312
 20
4.33301302223875
 30
0.0
 40
0.0131
  0
CIRCLE
  5
B44
102
{ACAD_REACTORS
330
B46
102
}
330
2
100
AcDbEntity
  8
image
 62
     5
100
AcDbCircle
 10
6.830654585968032
 20
4.330836573940594
 30
0.0
 40
0.0131
  0
HATCH
  5
B45
330
2
100
AcDbEntity
  8
image
 62
     5
100
AcDbHatch
 10
0.0
 20
0.0
 30
0.0
210
0.0
220
0.0
230
1.0
  2
SOLID
 70
     1
 71
     1
 91
        2
 92
        1
 93
        1
 72
     2
 10
6.107830385761216
 20
4.338653107891861
 40
0.0131
 50
0.0
 51
360.0
 73
     1
 97
        1
330
B41
 92
        1
 93
        1
 72
     2
 10
6.29989205496072
 20
4.330836573940593
 40
0.0131
 50
0.0
 51
360.0
 73
     1
 97
        1
330
B42
 75
     0
 76
     1
 98
        1
 10
-7.614818048500696
 20
0.7086179731890671
450
        0
451
        0
460
0.0
461
0.0
452
        0
462
0.0
453
        0
470

  0
HATCH
  5
B46
330
2
100
AcDbEntity
  8
image
 62
     5
100
AcDbHatch
 10
0.0
 20
0.0
 30
0.0
210
0.0
220
0.0
230
1.0
  2
SOLID
 70
     1
 71
     1
 91
        2
 92
        1
 93
        1
 72
     2
 10
6.624102061814312
 20
4.33301302223875
 40
0.0131
 50
0.0
 51
360.0
 73
     1
 97
        1
330
B43
 92
        1
 93
        1
 72
     2
 10
6.830654585968032
 20
4.330836573940594
 40
0.0131
 50
0.0
 51
360.0
 73
     1
 97
        1
330
B44
 75
     0
 76
     1
 98
        1
 10
-7.614818048500696
 20
0.7086179731890671
450
        0
451
        0
460
0.0
461
0.0
452
        0
462
0.0
453
        0
470

  0
TEXT
  5
B52
330
2
100
AcDbEntity
  8
image
100
AcDbText
 10
5.719798879248843
 20
6.675999429240449
 30
0.0
 40
0.125
  1
WHITE
  7
ARIAL
100
AcDbText
  0
LWPOLYLINE
  5
B59
330
2
100
AcDbEntity
  8
image
100
AcDbPolyline
 90
        4
 70
     0
 43
0.0
 10
5.222609652700507
 20
8.080387463498196
 42
0.5588132573414237
 10
5.030448310310648
 20
8.077312131941281
 42
-0.5805057762591173
 10
4.846895742700519
 20
8.080387463498196
 42
-0.4766769287470222
 10
5.030448310310648
 20
8.077312131941281
 42
-0.7161357091941387
  0
INSERT
  5
BD1
330
2
100
AcDbEntity
  8
text-bubbles
100
AcDbBlockReference
 66
     1
  2
WID_FlagNote
 10
1.73430707878709
 20
6.565930883995052
 30
0.0
 41
0.2499994999999975
 42
0.2499994999999975
 43
0.2499994999999975
  0
ATTRIB
  5
BD3
330
BD1
100
AcDbEntity
  8
0
100
AcDbText
 10
1.68753385094124
 20
6.46495116213779
 30
0.0
 40
0.1249997499999987
  1
1
  7
WIDFlagNote
 72
     4
 11
1.736092757916001
 21
6.527706834716234
 31
0.0
100
AcDbAttribute
  2
NO.
 70
     0
  0
SEQEND
  5
BD2
330
BD1
100
AcDbEntity
  8
text-bubbles
  0
INSERT
  5
BD4
330
2
100
AcDbEntity
  8
text-bubbles
100
AcDbBlockReference
 66
     1
  2
WID_FlagNote
 10
9.115059097004087
 20
8.568972342596042
 30
0.0
 41
0.2499994999999975
 42
0.2499994999999975
 43
0.2499994999999975
  0
ATTRIB
  5
BD5
330
BD4
100
AcDbEntity
  8
0
100
AcDbText
 10
9.068285869158238
 20
8.46799262073878
 30
0.0
 40
0.1249997499999987
  1
1
  7
WIDFlagNote
 72
     4
 11
9.116844776132998
 21
8.530748293317223
 31
0.0
100
AcDbAttribute
  2
NO.
 70
     0
  0
SEQEND
  5
BD6
330
BD4
100
AcDbEntity
  8
text-bubbles
  0
INSERT
  5
BE3
330
2
100
AcDbEntity
  8
text-bubbles
100
AcDbBlockReference
 66
     1
  2
WID_FlagNote
 10
9.115059097004087
 20
7.945789945502639
 30
0.0
 41
0.2499994999999975
 42
0.2499994999999975
 43
0.2499994999999975
  0
ATTRIB
  5
BE4
330
BE3
100
AcDbEntity
  8
0
100
AcDbText
 10
9.068285869158238
 20
7.844810223645377
 30
0.0
 40
0.1249997499999987
  1
2
  7
WIDFlagNote
 72
     4
 11
9.116844776132998
 21
7.907565896223821
 31
0.0
100
AcDbAttribute
  2
NO.
 70
     0
  0
SEQEND
  5
BE5
330
BE3
100
AcDbEntity
  8
text-bubbles
  0
INSERT
  5
BE6
330
2
100
AcDbEntity
  8
text-bubbles
100
AcDbBlockReference
 66
     1
  2
WID_FlagNote
 10
9.115059097004087
 20
7.520304788217925
 30
0.0
 41
0.2499994999999975
 42
0.2499994999999975
 43
0.2499994999999975
  0
ATTRIB
  5
BE7
330
BE6
100
AcDbEntity
  8
0
100
AcDbText
 10
9.068285869158238
 20
7.420433522533923
 30
0.0
 40
0.1249997499999987
  1
3
  7
WIDFlagNote
 72
     4
 11
9.116844776132998
 21
7.482080738939107
 31
0.0
100
AcDbAttribute
  2
NO.
 70
     0
  0
SEQEND
  5
BE8
330
BE6
100
AcDbEntity
  8
text-bubbles
  0
INSERT
  5
BE9
330
2
100
AcDbEntity
  8
text-bubbles
100
AcDbBlockReference
 66
     1
  2
WID_FlagNote
 10
9.115059097004087
 20
6.900474073806831
 30
0.0
 41
0.2499994999999975
 42
0.2499994999999975
 43
0.2499994999999975
  0
ATTRIB
  5
BEA
330
BE9
100
AcDbEntity
  8
0
100
AcDbText
 10
9.068285869158238
 20
6.799750149528014
 30
0.0
 40
0.1249997499999987
  1
4
  7
WIDFlagNote
 72
     4
 11
9.116844776132998
 21
6.862250024528013
 31
0.0
100
AcDbAttribute
  2
NO.
 70
     0
  0
SEQEND
  5
BEB
330
BE9
100
AcDbEntity
  8
text-bubbles
  0
INSERT
  5
BEC
330
2
100
AcDbEntity
  8
text-bubbles
100
AcDbBlockReference
 66
     1
  2
WID_FlagNote
 10
9.115059097004087
 20
6.439624047300305
 30
0.0
 41
0.2499994999999975
 42
0.2499994999999975
 43
0.2499994999999975
  0
ATTRIB
  5
BED
330
BEC
100
AcDbEntity
  8
0
100
AcDbText
 10
9.068285869158238
 20
6.340818604859823
 30
0.0
 40
0.1249997499999987
  1
5
  7
WIDFlagNote
 72
     4
 11
9.116844776132998
 21
6.401399998021487
 31
0.0
100
AcDbAttribute
  2
NO.
 70
     0
  0
SEQEND
  5
BEE
330
BEC
100
AcDbEntity
  8
text-bubbles
  0
INSERT
  5
BEF
330
2
100
AcDbEntity
  8
text-bubbles
100
AcDbBlockReference
 66
     1
  2
WID_FlagNote
 10
9.115059097004087
 20
6.033249461951404
 30
0.0
 41
0.2499994999999975
 42
0.2499994999999975
 43
0.2499994999999975
  0
ATTRIB
  5
BF0
330
BEF
100
AcDbEntity
  8
0
100
AcDbText
 10
9.068285869158238
 20
5.933335563337662
 30
0.0
 40
0.1249997499999987
  1
6
  7
WIDFlagNote
 72
     4
 11
9.116844776132998
 21
5.995025412672586
 31
0.0
100
AcDbAttribute
  2
NO.
 70
     0
  0
SEQEND
  5
BF1
330
BEF
100
AcDbEntity
  8
text-bubbles
  0
INSERT
  5
BF5
330
2
100
AcDbEntity
  8
text-bubbles
100
AcDbBlockReference
 66
     1
  2
WID_FlagNote
 10
9.115059097004087
 20
5.379021812351812
 30
0.0
 41
0.2499994999999975
 42
0.2499994999999975
 43
0.2499994999999975
  0
ATTRIB
  5
BF6
330
BF5
100
AcDbEntity
  8
0
100
AcDbText
 10
9.068285869158238
 20
5.279107913738069
 30
0.0
 40
0.1249997499999987
  1
7
  7
WIDFlagNote
 72
     4
 11
9.116844776132998
 21
5.340797763072994
 31
0.0
100
AcDbAttribute
  2
NO.
 70
     0
  0
SEQEND
  5
BF7
330
BF5
100
AcDbEntity
  8
text-bubbles
  0
LEADER
  5
BFC
102
{ACAD_XDICTIONARY
360
BFD
102
}
102
{ACAD_REACTORS
330
BFE
102
}
330
2
100
AcDbEntity
  8
text-bubbles
100
AcDbLeader
  3
STANDARD
 76
     2
 10
1.164506642728474
 20
5.875084799794164
 30
0.0
 10
1.736092757916003
 20
6.387074329452314
 30
0.0
1001
ACAD
1000
DSTYLE
1002
{
1070
   147
1040
0.09
1070
    77
1070
     0
1002
}
  0
INSERT
  5
BFF
330
2
100
AcDbEntity
  8
text-bubbles
100
AcDbBlockReference
 66
     1
  2
WID_FlagNote
 10
6.520340872869152
 20
8.04346728141269
 30
0.0
 41
0.2499994999999975
 42
0.2499994999999975
 43
0.2499994999999975
  0
ATTRIB
  5
C00
330
BFF
100
AcDbEntity
  8
0
100
AcDbText
 10
6.473567645023302
 20
7.943553382798948
 30
0.0
 40
0.1249997499999987
  1
6
  7
WIDFlagNote
 72
     4
 11
6.522126551998063
 21
8.005243232133873
 31
0.0
100
AcDbAttribute
  2
NO.
 70
     0
  0
SEQEND
  5
C01
330
BFF
100
AcDbEntity
  8
text-bubbles
  0
INSERT
  5
C02
330
2
100
AcDbEntity
  8
text-bubbles
100
AcDbBlockReference
 66
     1
  2
WID_FlagNote
 10
5.868584229682765
 20
8.04346728141269
 30
0.0
 41
0.2499994999999975
 42
0.2499994999999975
 43
0.2499994999999975
  0
ATTRIB
  5
C03
330
C02
100
AcDbEntity
  8
0
100
AcDbText
 10
5.821811001836915
 20
7.944661838972209
 30
0.0
 40
0.1249997499999987
  1
5
  7
WIDFlagNote
 72
     4
 11
5.870369908811676
 21
8.005243232133873
 31
0.0
100
AcDbAttribute
  2
NO.
 70
     0
  0
SEQEND
  5
C04
330
C02
100
AcDbEntity
  8
text-bubbles
  0
LEADER
  5
C05
102
{ACAD_XDICTIONARY
360
C06
102
}
102
{ACAD_REACTORS
330
C07
102
}
330
2
100
AcDbEntity
  8
text-bubbles
100
AcDbLeader
  3
STANDARD
 76
     2
 10
5.586806416615862
 20
7.418780950209559
 30
0.0
 10
5.870369908811678
 20
7.864610726869953
 30
0.0
1001
ACAD
1000
DSTYLE
1002
{
1070
   147
1040
0.09
1070
    77
1070
     0
1002
}
  0
LEADER
  5
C08
102
{ACAD_XDICTIONARY
360
C09
102
}
102
{ACAD_REACTORS
330
C0A
102
}
330
2
100
AcDbEntity
  8
text-bubbles
100
AcDbLeader
  3
STANDARD
 76
     2
 10
6.123806885969102
 20
7.612883861900723
 30
0.0
 10
6.522126551998065
 20
7.864610726869953
 30
0.0
1001
ACAD
1000
DSTYLE
1002
{
1070
   147
1040
0.09
1070
    77
1070
     0
1002
}
  0
INSERT
  5
C0B
330
2
100
AcDbEntity
  8
text-bubbles
100
AcDbBlockReference
 66
     1
  2
WID_FlagNote
 10
7.032467360616511
 20
6.748018041896295
 30
0.0
 41
0.2499994999999975
 42
0.2499994999999975
 43
0.2499994999999975
  0
ATTRIB
  5
C0C
330
C0B
100
AcDbEntity
  8
0
100
AcDbText
 10
6.985694132770661
 20
6.648104143282552
 30
0.0
 40
0.1249997499999987
  1
7
  7
WIDFlagNote
 72
     4
 11
7.034253039745422
 21
6.709793992617477
 31
0.0
100
AcDbAttribute
  2
NO.
 70
     0
  0
SEQEND
  5
C0D
330
C0B
100
AcDbEntity
  8
text-bubbles
  0
LEADER
  5
C0E
330
2
100
AcDbEntity
  8
text-bubbles
100
AcDbLeader
  3
STANDARD
 76
     2
 10
6.635933373716461
 20
6.317434622384327
 30
0.0
 10
7.034253039745424
 20
6.569161487353557
 30
0.0
1001
ACAD
1000
DSTYLE
1002
{
1070
   147
1040
0.09
1070
    77
1070
     0
1002
}
  0
INSERT
  5
C11
330
2
100
AcDbEntity
  8
text-bubbles
100
AcDbBlockReference
 66
     1
  2
WID_FlagNote
 10
4.146779386468365
 20
7.246375280010878
 30
0.0
 41
0.2499994999999975
 42
0.2499994999999975
 43
0.2499994999999975
  0
ATTRIB
  5
C12
330
C11
100
AcDbEntity
  8
0
100
AcDbText
 10
4.100006158622515
 20
7.145651355732061
 30
0.0
 40
0.1249997499999987
  1
4
  7
WIDFlagNote
 72
     4
 11
4.148565065597276
 21
7.20815123073206
 31
0.0
100
AcDbAttribute
  2
NO.
 70
     0
  0
SEQEND
  5
C13
330
C11
100
AcDbEntity
  8
text-bubbles
  0
LEADER
  5
C14
102
{ACAD_XDICTIONARY
360
C15
102
}
102
{ACAD_REACTORS
330
C16
102
}
330
2
100
AcDbEntity
  8
text-bubbles
100
AcDbLeader
  3
STANDARD
 76
     2
 10
4.697428894790094
 20
6.926915927162309
 30
0.0
 10
4.289197570861196
 20
7.20815123073206
 30
0.0
1001
ACAD
1000
DSTYLE
1002
{
1070
   147
1040
0.09
1070
    77
1070
     0
1002
}
  0
INSERT
  5
C17
330
2
100
AcDbEntity
  8
text-bubbles
100
AcDbBlockReference
 66
     1
  2
WID_FlagNote
 10
4.135439161858755
 20
3.680885813500175
 30
0.0
 41
0.2499994999999975
 42
0.2499994999999975
 43
0.2499994999999975
  0
ATTRIB
  5
C18
330
C17
100
AcDbEntity
  8
0
100
AcDbText
 10
4.088665934012905
 20
3.579906091642913
 30
0.0
 40
0.1249997499999987
  1
2
  7
WIDFlagNote
 72
     4
 11
4.137224840987666
 21
3.642661764221357
 31
0.0
100
AcDbAttribute
  2
NO.
 70
     0
  0
SEQEND
  5
C19
330
C17
100
AcDbEntity
  8
text-bubbles
  0
INSERT
  5
C1A
330
2
100
AcDbEntity
  8
text-bubbles
100
AcDbBlockReference
 66
     1
  2
WID_FlagNote
 10
5.359986208821409
 20
3.680885813500175
 30
0.0
 41
0.2499994999999975
 42
0.2499994999999975
 43
0.2499994999999975
  0
ATTRIB
  5
C1B
330
C1A
100
AcDbEntity
  8
0
100
AcDbText
 10
5.313212980975559
 20
3.581014547816174
 30
0.0
 40
0.1249997499999987
  1
3
  7
WIDFlagNote
 72
     4
 11
5.36177188795032
 21
3.642661764221357
 31
0.0
100
AcDbAttribute
  2
NO.
 70
     0
  0
SEQEND
  5
C1C
330
C1A
100
AcDbEntity
  8
text-bubbles
  0
LINE
  5
C2C
330
2
100
AcDbEntity
  8
image
100
AcDbLine
 10
4.729560774516574
 20
7.017267017094552
 30
0.0
 11
4.744703734015992
 21
6.998361879063391
 31
0.0
  0
LINE
  5
C2D
330
2
100
AcDbEntity
  8
image
100
AcDbLine
 10
5.277609597700507
 20
7.186366862300596
 30
0.0
 11
5.277609597700507
 21
7.203776705995401
 31
0.0
  0
LINE
  5
C2E
330
2
100
AcDbEntity
  8
image
100
AcDbLine
 10
5.277609597700509
 20
7.235083934905589
 30
0.0
 11
5.277609597700509
 21
7.387219006772895
 31
0.0
  0
POLYLINE
  5
CAB
330
2
100
AcDbEntity
  8
image
 62
     5
100
AcDb2dPolyline
 66
     1
 10
0.0
 20
0.0
 30
0.0
 70
     4
 40
0.0131
 41
0.0131
 75
     6
  0
VERTEX
  5
CAC
330
CAB
100
AcDbEntity
  8
image
 62
     5
100
AcDbVertex
100
AcDb2dVertex
 10
6.809765068348708
 20
4.326630719164782
 30
0.0
 40
0.0262
 41
0.0262
 70
    16
  0
VERTEX
  5
CAD
330
CAB
100
AcDbEntity
  8
image
 62
     5
100
AcDbVertex
100
AcDb2dVertex
 10
6.809765068348708
 20
4.326630719164782
 30
0.0
 40
0.0262
 41
0.0262
 70
     8
  0
VERTEX
  5
CAE
330
CAB
100
AcDbEntity
  8
image
 62
     5
100
AcDbVertex
100
AcDb2dVertex
 10
6.920363244136417
 20
4.316925793187394
 30
0.0
 40
0.0262
 41
0.0262
 70
     8
  0
VERTEX
  5
CAF
330
CAB
100
AcDbEntity
  8
image
 62
     5
100
AcDbVertex
100
AcDb2dVertex
 10
7.025407262502961
 20
4.303453466246405
 30
0.0
 40
0.0262
 41
0.0262
 70
     8
  0
VERTEX
  5
CB0
330
CAB
100
AcDbEntity
  8
image
 62
     5
100
AcDbVertex
100
AcDb2dVertex
 10
7.127541958513955
 20
4.287469538663017
 30
0.0
 40
0.0262
 41
0.0262
 70
     8
  0
VERTEX
  5
CB1
330
CAB
100
AcDbEntity
  8
image
 62
     5
100
AcDbVertex
100
AcDb2dVertex
 10
7.229412167235013
 20
4.270229810758428
 30
0.0
 40
0.0262
 41
0.0262
 70
     8
  0
VERTEX
  5
CB2
330
CAB
100
AcDbEntity
  8
image
 62
     5
100
AcDbVertex
100
AcDb2dVertex
 10
7.33366272373175
 20
4.252990082853838
 30
0.0
 40
0.0262
 41
0.0262
 70
     8
  0
VERTEX
  5
CB3
330
CAB
100
AcDbEntity
  8
image
 62
     5
100
AcDbVertex
100
AcDb2dVertex
 10
7.442938463069777
 20
4.237006155270449
 30
0.0
 40
0.0262
 41
0.0262
 70
     8
  0
VERTEX
  5
CB4
330
CAB
100
AcDbEntity
  8
image
 62
     5
100
AcDbVertex
100
AcDb2dVertex
 10
7.559884220314719
 20
4.223533828329461
 30
0.0
 40
0.0262
 41
0.0262
 70
     8
  0
VERTEX
  5
CB5
330
CAB
100
AcDbEntity
  8
image
 62
     5
100
AcDbVertex
100
AcDb2dVertex
 10
7.687144830532174
 20
4.213828902352073
 30
0.0
 40
0.0262
 41
0.0262
 70
     8
  0
VERTEX
  5
CB6
330
CAB
100
AcDbEntity
  8
image
 62
     5
100
AcDbVertex
100
AcDb2dVertex
 10
7.114450044846918
 20
4.306890384795392
 30
0.0
 40
0.0262
 41
0.0262
 70
    16
  0
VERTEX
  5
CB7
330
CAB
100
AcDbEntity
  8
image
 62
     5
100
AcDbVertex
100
AcDb2dVertex
 10
7.331679101486153
 20
4.233569236721463
 30
0.0
 40
0.0262
 41
0.0262
 70
    16
  0
VERTEX
  5
CB8
330
CAB
100
AcDbEntity
  8
image
 62
     5
100
AcDbVertex
100
AcDb2dVertex
 10
7.687144830532174
 20
4.213828902352073
 30
0.0
 40
0.0262
 41
0.0262
 70
    16
  0
SEQEND
  5
CB9
330
CAB
100
AcDbEntity
  8
image
 62
     5
  0
POLYLINE
  5
CBA
330
2
100
AcDbEntity
  8
image
 62
     5
100
AcDb2dPolyline
 66
     1
 10
0.0
 20
0.0
 30
0.0
 70
     4
 40
0.0131
 41
0.0131
 75
     6
  0
VERTEX
  5
CBB
330
CBA
100
AcDbEntity
  8
image
 62
     5
100
AcDbVertex
100
AcDb2dVertex
 10
6.293493392295612
 20
4.320990633511672
 30
0.0
 40
0.0262
 41
0.0262
 70
    16
  0
VERTEX
  5
CBC
330
CBA
100
AcDbEntity
  8
image
 62
     5
100
AcDbVertex
100
AcDb2dVertex
 10
6.293493392295612
 20
4.320990633511671
 30
0.0
 40
0.0262
 41
0.0262
 70
     8
  0
VERTEX
  5
CBD
330
CBA
100
AcDbEntity
  8
image
 62
     5
100
AcDbVertex
100
AcDb2dVertex
 10
6.333046072317058
 20
4.30916700273497
 30
0.0
 40
0.0262
 41
0.0262
 70
     8
  0
VERTEX
  5
CBE
330
CBA
100
AcDbEntity
  8
image
 62
     5
100
AcDbVertex
100
AcDb2dVertex
 10
6.365796566780669
 20
4.295140212250423
 30
0.0
 40
0.0262
 41
0.0262
 70
     8
  0
VERTEX
  5
CBF
330
CBA
100
AcDbEntity
  8
image
 62
     5
100
AcDbVertex
100
AcDb2dVertex
 10
6.393009437469082
 20
4.279350894121183
 30
0.0
 40
0.0262
 41
0.0262
 70
     8
  0
VERTEX
  5
CC0
330
CBA
100
AcDbEntity
  8
image
 62
     5
100
AcDbVertex
100
AcDb2dVertex
 10
6.415949246164935
 20
4.262239680410401
 30
0.0
 40
0.0262
 41
0.0262
 70
     8
  0
VERTEX
  5
CC1
330
CBA
100
AcDbEntity
  8
image
 62
     5
100
AcDbVertex
100
AcDb2dVertex
 10
6.435880554650863
 20
4.244247203181228
 30
0.0
 40
0.0262
 41
0.0262
 70
     8
  0
VERTEX
  5
CC2
330
CBA
100
AcDbEntity
  8
image
 62
     5
100
AcDbVertex
100
AcDb2dVertex
 10
6.454067924709503
 20
4.225814094496818
 30
0.0
 40
0.0262
 41
0.0262
 70
     8
  0
VERTEX
  5
CC3
330
CBA
100
AcDbEntity
  8
image
 62
     5
100
AcDbVertex
100
AcDb2dVertex
 10
6.471775918123494
 20
4.20738098642032
 30
0.0
 40
0.0262
 41
0.0262
 70
     8
  0
VERTEX
  5
CC4
330
CBA
100
AcDbEntity
  8
image
 62
     5
100
AcDbVertex
100
AcDb2dVertex
 10
6.490269096675472
 20
4.189388511014887
 30
0.0
 40
0.0262
 41
0.0262
 70
     8
  0
VERTEX
  5
CC5
330
CBA
100
AcDbEntity
  8
image
 62
     5
100
AcDbVertex
100
AcDb2dVertex
 10
6.510623761292684
 20
4.172228647193505
 30
0.0
 40
0.0262
 41
0.0262
 70
     8
  0
VERTEX
  5
CC6
330
CBA
100
AcDbEntity
  8
image
 62
     5
100
AcDbVertex
100
AcDb2dVertex
 10
6.533163169480827
 20
4.156098761268498
 30
0.0
 40
0.0262
 41
0.0262
 70
     8
  0
VERTEX
  5
CC7
330
CBA
100
AcDbEntity
  8
image
 62
     5
100
AcDbVertex
100
AcDb2dVertex
 10
6.558022317890211
 20
4.141147566402026
 30
0.0
 40
0.0262
 41
0.0262
 70
     8
  0
VERTEX
  5
CC8
330
CBA
100
AcDbEntity
  8
image
 62
     5
100
AcDbVertex
100
AcDb2dVertex
 10
6.585336203171141
 20
4.127523775756245
 30
0.0
 40
0.0262
 41
0.0262
 70
     8
  0
VERTEX
  5
CC9
330
CBA
100
AcDbEntity
  8
image
 62
     5
100
AcDbVertex
100
AcDb2dVertex
 10
6.615239821973927
 20
4.115376102493317
 30
0.0
 40
0.0262
 41
0.0262
 70
     8
  0
VERTEX
  5
CCA
330
CBA
100
AcDbEntity
  8
image
 62
     5
100
AcDbVertex
100
AcDb2dVertex
 10
6.647868170948877
 20
4.104853259775397
 30
0.0
 40
0.0262
 41
0.0262
 70
     8
  0
VERTEX
  5
CCB
330
CBA
100
AcDbEntity
  8
image
 62
     5
100
AcDbVertex
100
AcDb2dVertex
 10
6.683356246746297
 20
4.096103960764646
 30
0.0
 40
0.0262
 41
0.0262
 70
     8
  0
VERTEX
  5
CCC
330
CBA
100
AcDbEntity
  8
image
 62
     5
100
AcDbVertex
100
AcDb2dVertex
 10
6.721839046016496
 20
4.089276918623222
 30
0.0
 40
0.0262
 41
0.0262
 70
     8
  0
VERTEX
  5
CCD
330
CBA
100
AcDbEntity
  8
image
 62
     5
100
AcDbVertex
100
AcDb2dVertex
 10
6.763454320491977
 20
4.084472652438897
 30
0.0
 40
0.0262
 41
0.0262
 70
     8
  0
VERTEX
  5
CCE
330
CBA
100
AcDbEntity
  8
image
 62
     5
100
AcDbVertex
100
AcDb2dVertex
 10
6.808350842234005
 20
4.081598905001889
 30
0.0
 40
0.0262
 41
0.0262
 70
     8
  0
VERTEX
  5
CCF
330
CBA
100
AcDbEntity
  8
image
 62
     5
100
AcDbVertex
100
AcDb2dVertex
 10
6.856680138386048
 20
4.080515225028033
 30
0.0
 40
0.0262
 41
0.0262
 70
     8
  0
VERTEX
  5
CD0
330
CBA
100
AcDbEntity
  8
image
 62
     5
100
AcDbVertex
100
AcDb2dVertex
 10
6.908593736091566
 20
4.081081161233161
 30
0.0
 40
0.0262
 41
0.0262
 70
     8
  0
VERTEX
  5
CD1
330
CBA
100
AcDbEntity
  8
image
 62
     5
100
AcDbVertex
100
AcDb2dVertex
 10
6.964243162494019
 20
4.083156262333106
 30
0.0
 40
0.0262
 41
0.0262
 70
     8
  0
VERTEX
  5
CD2
330
CBA
100
AcDbEntity
  8
image
 62
     5
100
AcDbVertex
100
AcDb2dVertex
 10
7.023779944736872
 20
4.086600077043699
 30
0.0
 40
0.0262
 41
0.0262
 70
     8
  0
VERTEX
  5
CD3
330
CBA
100
AcDbEntity
  8
image
 62
     5
100
AcDbVertex
100
AcDb2dVertex
 10
7.087355609963589
 20
4.091272154080775
 30
0.0
 40
0.0262
 41
0.0262
 70
     8
  0
VERTEX
  5
CD4
330
CBA
100
AcDbEntity
  8
image
 62
     5
100
AcDbVertex
100
AcDb2dVertex
 10
7.155121685317629
 20
4.097032042160166
 30
0.0
 40
0.0262
 41
0.0262
 70
     8
  0
VERTEX
  5
CD5
330
CBA
100
AcDbEntity
  8
image
 62
     5
100
AcDbVertex
100
AcDb2dVertex
 10
7.226879808334221
 20
4.10383384216984
 30
0.0
 40
0.0262
 41
0.0262
 70
     8
  0
VERTEX
  5
CD6
330
CBA
100
AcDbEntity
  8
image
 62
     5
100
AcDbVertex
100
AcDb2dVertex
 10
7.301032058115643
 20
4.112009863686309
 30
0.0
 40
0.0262
 41
0.0262
 70
     8
  0
VERTEX
  5
CD7
330
CBA
100
AcDbEntity
  8
image
 62
     5
100
AcDbVertex
100
AcDb2dVertex
 10
7.375630624155943
 20
4.12198696845822
 30
0.0
 40
0.0262
 41
0.0262
 70
     8
  0
VERTEX
  5
CD8
330
CBA
100
AcDbEntity
  8
image
 62
     5
100
AcDbVertex
100
AcDb2dVertex
 10
7.448727695949164
 20
4.134192018234222
 30
0.0
 40
0.0262
 41
0.0262
 70
     8
  0
VERTEX
  5
CD9
330
CBA
100
AcDbEntity
  8
image
 62
     5
100
AcDbVertex
100
AcDb2dVertex
 10
7.518375462989352
 20
4.14905187476296
 30
0.0
 40
0.0262
 41
0.0262
 70
     8
  0
VERTEX
  5
CDA
330
CBA
100
AcDbEntity
  8
image
 62
     5
100
AcDbVertex
100
AcDb2dVertex
 10
7.582626114770556
 20
4.166993399793084
 30
0.0
 40
0.0262
 41
0.0262
 70
     8
  0
VERTEX
  5
CDB
330
CBA
100
AcDbEntity
  8
image
 62
     5
100
AcDbVertex
100
AcDb2dVertex
 10
7.639531840786814
 20
4.188443455073239
 30
0.0
 40
0.0262
 41
0.0262
 70
     8
  0
VERTEX
  5
CDC
330
CBA
100
AcDbEntity
  8
image
 62
     5
100
AcDbVertex
100
AcDb2dVertex
 10
7.687144830532174
 20
4.213828902352074
 30
0.0
 40
0.0262
 41
0.0262
 70
     8
  0
VERTEX
  5
CDD
330
CBA
100
AcDbEntity
  8
image
 62
     5
100
AcDbVertex
100
AcDb2dVertex
 10
6.409160841347816
 20
4.292790170662619
 30
0.0
 40
0.0262
 41
0.0262
 70
    16
  0
VERTEX
  5
CDE
330
CBA
100
AcDbEntity
  8
image
 62
     5
100
AcDbVertex
100
AcDb2dVertex
 10
6.468405129522153
 20
4.17998835384991
 30
0.0
 40
0.0262
 41
0.0262
 70
    16
  0
VERTEX
  5
CDF
330
CBA
100
AcDbEntity
  8
image
 62
     5
100
AcDbVertex
100
AcDb2dVertex
 10
6.688455364703564
 20
4.067186571620708
 30
0.0
 40
0.0262
 41
0.0262
 70
    16
  0
VERTEX
  5
CE0
330
CBA
100
AcDbEntity
  8
image
 62
     5
100
AcDbVertex
100
AcDb2dVertex
 10
7.108807687762569
 20
4.086926871406592
 30
0.0
 40
0.0262
 41
0.0262
 70
    16
  0
VERTEX
  5
CE1
330
CBA
100
AcDbEntity
  8
image
 62
     5
100
AcDbVertex
100
AcDb2dVertex
 10
7.574298560022148
 20
4.140507754278144
 30
0.0
 40
0.0262
 41
0.0262
 70
    16
  0
VERTEX
  5
CE2
330
CBA
100
AcDbEntity
  8
image
 62
     5
100
AcDbVertex
100
AcDb2dVertex
 10
7.687144830532174
 20
4.213828902352073
 30
0.0
 40
0.0262
 41
0.0262
 70
    16
  0
SEQEND
  5
CE3
330
CBA
100
AcDbEntity
  8
image
 62
     5
  0
POLYLINE
  5
CE4
330
2
100
AcDbEntity
  8
image
 62
     5
100
AcDb2dPolyline
 66
     1
 10
0.0
 20
0.0
 30
0.0
 70
     4
 40
0.0262
 41
0.0262
 75
     6
  0
VERTEX
  5
CE5
330
CE4
100
AcDbEntity
  8
image
 62
     5
100
AcDbVertex
100
AcDb2dVertex
 10
8.228708225378015
 20
4.248459726231032
 30
0.0
 70
    16
  0
VERTEX
  5
CE6
330
CE4
100
AcDbEntity
  8
image
 62
     5
100
AcDbVertex
100
AcDb2dVertex
 10
8.228708225378015
 20
4.248459726231032
 30
0.0
 70
     8
  0
VERTEX
  5
CE7
330
CE4
100
AcDbEntity
  8
image
 62
     5
100
AcDbVertex
100
AcDb2dVertex
 10
8.269762407853859
 20
4.259691917718489
 30
0.0
 70
     8
  0
VERTEX
  5
CE8
330
CE4
100
AcDbEntity
  8
image
 62
     5
100
AcDbVertex
100
AcDb2dVertex
 10
8.305669856229732
 20
4.268820537870778
 30
0.0
 70
     8
  0
VERTEX
  5
CE9
330
CE4
100
AcDbEntity
  8
image
 62
     5
100
AcDbVertex
100
AcDb2dVertex
 10
8.337305337239309
 20
4.27608172894573
 30
0.0
 70
     8
  0
VERTEX
  5
CEA
330
CE4
100
AcDbEntity
  8
image
 62
     5
100
AcDbVertex
100
AcDb2dVertex
 10
8.365543617616284
 20
4.281711633201176
 30
0.0
 70
     8
  0
VERTEX
  5
CEB
330
CE4
100
AcDbEntity
  8
image
 62
     5
100
AcDbVertex
100
AcDb2dVertex
 10
8.391259464094337
 20
4.285946392894947
 30
0.0
 70
     8
  0
VERTEX
  5
CEC
330
CE4
100
AcDbEntity
  8
image
 62
     5
100
AcDbVertex
100
AcDb2dVertex
 10
8.415327643407158
 20
4.289022150284876
 30
0.0
 70
     8
  0
VERTEX
  5
CED
330
CE4
100
AcDbEntity
  8
image
 62
     5
100
AcDbVertex
100
AcDb2dVertex
 10
8.438622922288432
 20
4.291175047628794
 30
0.0
 70
     8
  0
VERTEX
  5
CEE
330
CE4
100
AcDbEntity
  8
image
 62
     5
100
AcDbVertex
100
AcDb2dVertex
 10
8.462020067471842
 20
4.292641227184533
 30
0.0
 70
     8
  0
VERTEX
  5
CEF
330
CE4
100
AcDbEntity
  8
image
 62
     5
100
AcDbVertex
100
AcDb2dVertex
 10
8.486458854771127
 20
4.293594109766472
 30
0.0
 70
     8
  0
VERTEX
  5
CF0
330
CE4
100
AcDbEntity
  8
image
 62
     5
100
AcDbVertex
100
AcDb2dVertex
 10
8.513139096320257
 20
4.293956230415183
 30
0.0
 70
     8
  0
VERTEX
  5
CF1
330
CE4
100
AcDbEntity
  8
image
 62
     5
100
AcDbVertex
100
AcDb2dVertex
 10
8.543325613333239
 20
4.293587402727784
 30
0.0
 70
     8
  0
VERTEX
  5
CF2
330
CE4
100
AcDbEntity
  8
image
 62
     5
100
AcDbVertex
100
AcDb2dVertex
 10
8.578283227024099
 20
4.292347440301396
 30
0.0
 70
     8
  0
VERTEX
  5
CF3
330
CE4
100
AcDbEntity
  8
image
 62
     5
100
AcDbVertex
100
AcDb2dVertex
 10
8.619276758606849
 20
4.290096156733136
 30
0.0
 70
     8
  0
VERTEX
  5
CF4
330
CE4
100
AcDbEntity
  8
image
 62
     5
100
AcDbVertex
100
AcDb2dVertex
 10
8.667571029295514
 20
4.286693365620125
 30
0.0
 70
     8
  0
VERTEX
  5
CF5
330
CE4
100
AcDbEntity
  8
image
 62
     5
100
AcDbVertex
100
AcDb2dVertex
 10
8.724430860304105
 20
4.281998880559481
 30
0.0
 70
     8
  0
VERTEX
  5
CF6
330
CE4
100
AcDbEntity
  8
image
 62
     5
100
AcDbVertex
100
AcDb2dVertex
 10
8.791121072846641
 20
4.275872515148324
 30
0.0
 70
     8
  0
VERTEX
  5
CF7
330
CE4
100
AcDbEntity
  8
image
 62
     5
100
AcDbVertex
100
AcDb2dVertex
 10
8.345825927876843
 20
4.281426902873663
 30
0.0
 70
    16
  0
VERTEX
  5
CF8
330
CE4
100
AcDbEntity
  8
image
 62
     5
100
AcDbVertex
100
AcDb2dVertex
 10
8.451602648423071
 20
4.297447366174905
 30
0.0
 70
    16
  0
VERTEX
  5
CF9
330
CE4
100
AcDbEntity
  8
image
 62
     5
100
AcDbVertex
100
AcDb2dVertex
 10
8.599049045164376
 20
4.294243273514656
 30
0.0
 70
    16
  0
VERTEX
  5
CFA
330
CE4
100
AcDbEntity
  8
image
 62
     5
100
AcDbVertex
100
AcDb2dVertex
 10
8.791121072846641
 20
4.275872515148324
 30
0.0
 70
    16
  0
SEQEND
  5
CFB
330
CE4
100
AcDbEntity
  8
image
 62
     5
  0
POLYLINE
  5
CFC
330
2
100
AcDbEntity
  8
image
 62
     5
100
AcDb2dPolyline
 66
     1
 10
0.0
 20
0.0
 30
0.0
 70
     4
 40
0.0262
 41
0.0262
 75
     6
  0
VERTEX
  5
CFD
330
CFC
100
AcDbEntity
  8
image
 62
     5
100
AcDbVertex
100
AcDb2dVertex
 10
8.228708225378015
 20
4.248459726231032
 30
0.0
 70
    16
  0
VERTEX
  5
CFE
330
CFC
100
AcDbEntity
  8
image
 62
     5
100
AcDbVertex
100
AcDb2dVertex
 10
8.228708225378015
 20
4.248459726231032
 30
0.0
 70
     8
  0
VERTEX
  5
CFF
330
CFC
100
AcDbEntity
  8
image
 62
     5
100
AcDbVertex
100
AcDb2dVertex
 10
8.24932635294658
 20
4.235804180966586
 30
0.0
 70
     8
  0
VERTEX
  5
D00
330
CFC
100
AcDbEntity
  8
image
 62
     5
100
AcDbVertex
100
AcDb2dVertex
 10
8.272843801250486
 20
4.225560615887558
 30
0.0
 70
     8
  0
VERTEX
  5
D01
330
CFC
100
AcDbEntity
  8
image
 62
     5
100
AcDbVertex
100
AcDb2dVertex
 10
8.298854977851467
 20
4.217367276748025
 30
0.0
 70
     8
  0
VERTEX
  5
D02
330
CFC
100
AcDbEntity
  8
image
 62
     5
100
AcDbVertex
100
AcDb2dVertex
 10
8.326954290311254
 20
4.210862409302066
 30
0.0
 70
     8
  0
VERTEX
  5
D03
330
CFC
100
AcDbEntity
  8
image
 62
     5
100
AcDbVertex
100
AcDb2dVertex
 10
8.356736146191584
 20
4.205684259303758
 30
0.0
 70
     8
  0
VERTEX
  5
D04
330
CFC
100
AcDbEntity
  8
image
 62
     5
100
AcDbVertex
100
AcDb2dVertex
 10
8.38779495305418
 20
4.20147107250718
 30
0.0
 70
     8
  0
VERTEX
  5
D05
330
CFC
100
AcDbEntity
  8
image
 62
     5
100
AcDbVertex
100
AcDb2dVertex
 10
8.419725118460776
 20
4.197861094666411
 30
0.0
 70
     8
  0
VERTEX
  5
D06
330
CFC
100
AcDbEntity
  8
image
 62
     5
100
AcDbVertex
100
AcDb2dVertex
 10
8.452121049973106
 20
4.194492571535528
 30
0.0
 70
     8
  0
VERTEX
  5
D07
330
CFC
100
AcDbEntity
  8
image
 62
     5
100
AcDbVertex
100
AcDb2dVertex
 10
8.484795389691106
 20
4.19105413149803
 30
0.0
 70
     8
  0
VERTEX
  5
D08
330
CFC
100
AcDbEntity
  8
image
 62
     5
100
AcDbVertex
100
AcDb2dVertex
 10
8.518433717867532
 20
4.187435933455096
 30
0.0
 70
     8
  0
VERTEX
  5
D09
330
CFC
100
AcDbEntity
  8
image
 62
     5
100
AcDbVertex
100
AcDb2dVertex
 10
8.553939849293341
 20
4.183578518937324
 30
0.0
 70
     8
  0
VERTEX
  5
D0A
330
CFC
100
AcDbEntity
  8
image
 62
     5
100
AcDbVertex
100
AcDb2dVertex
 10
8.592217598759487
 20
4.179422429475314
 30
0.0
 70
     8
  0
VERTEX
  5
D0B
330
CFC
100
AcDbEntity
  8
image
 62
     5
100
AcDbVertex
100
AcDb2dVertex
 10
8.634170781056935
 20
4.174908206599666
 30
0.0
 70
     8
  0
VERTEX
  5
D0C
330
CFC
100
AcDbEntity
  8
image
 62
     5
100
AcDbVertex
100
AcDb2dVertex
 10
8.680703210976636
 20
4.169976391840977
 30
0.0
 70
     8
  0
VERTEX
  5
D0D
330
CFC
100
AcDbEntity
  8
image
 62
     5
100
AcDbVertex
100
AcDb2dVertex
 10
8.732718703309549
 20
4.164567526729848
 30
0.0
 70
     8
  0
VERTEX
  5
D0E
330
CFC
100
AcDbEntity
  8
image
 62
     5
100
AcDbVertex
100
AcDb2dVertex
 10
8.791121072846641
 20
4.158622152796877
 30
0.0
 70
     8
  0
VERTEX
  5
D0F
330
CFC
100
AcDbEntity
  8
image
 62
     5
100
AcDbVertex
100
AcDb2dVertex
 10
8.27946361130194
 20
4.21117407261558
 30
0.0
 70
    16
  0
VERTEX
  5
D10
330
CFC
100
AcDbEntity
  8
image
 62
     5
100
AcDbVertex
100
AcDb2dVertex
 10
8.451479197520141
 20
4.195775766586571
 30
0.0
 70
    16
  0
VERTEX
  5
D11
330
CFC
100
AcDbEntity
  8
image
 62
     5
100
AcDbVertex
100
AcDb2dVertex
 10
8.626062193550209
 20
4.175244680353389
 30
0.0
 70
    16
  0
VERTEX
  5
D12
330
CFC
100
AcDbEntity
  8
image
 62
     5
100
AcDbVertex
100
AcDb2dVertex
 10
8.791121072846641
 20
4.158622152796877
 30
0.0
 70
    16
  0
SEQEND
  5
D13
330
CFC
100
AcDbEntity
  8
image
 62
     5
  0
MTEXT
  5
D40
330
2
100
AcDbEntity
  8
text-bubbles
100
AcDbMText
 10
9.393356399083225
 20
8.582322199222904
 30
0.0
 40
0.125
 41
4.339299999999999
 71
     1
 72
     5
  3
TWO-WIRE DECODER CONTROLLER:\P  RAIN BIRD ESP-LXD CONTROLLER\P\PTWO-WIRE TO ESP-LXD CONTROLLER\P\PCOMMUNICATION WIRE TO \P  ESP-LXD CONTROLLER\P\PSOLENOID VALVE OR MASTER VALVE\P\PSOLENOID WIRE (1 OF 2)\P\PDB SERIES WIRE CONNECTOR:\P  RAIN BIRD DBTWC
  3
25 (1 0F 2)\P\PFIELD DECODER: \P  RAIN BIRD FD-101TURF M13011 DECODER\P\PCOMMUNICATION WIRE TO NEXT DEVICE\P  (FIELD DECODER, SENSOR DECODER  \P  OR LINE SURGE PROTECTOR)\P\PTWO-WIRE CABLE TO NEXT DEVICE\P  (FIELD DECODER, SENSOR DECODER\P  OR LINE S
  1
URGE PROTECTOR)
  7
ROMANS
 73
     1
 44
1.0
  0
MTEXT
  5
D57
102
{ACAD_XDICTIONARY
360
F9F
102
}
330
2
100
AcDbEntity
  8
text-bubbles
100
AcDbMText
 10
2.171957802905724
 20
2.968010142286487
 30
0.0
 40
0.125
 41
8.034471016694537
 71
     1
 72
     5
  1
NOTE:\P\pi-0.375,l0.375;1. MAXIMUM LENGTH OF SECONDARY WIRE PATH (14 AWG) FROM FIELD DECODER\P\pi0,l0,t0.625;   TO SOLENOID IS 450 FEET.
  7
ROMANS
 73
     1
 44
1.0
  0
INSERT
  5
D58
330
2
100
AcDbEntity
  8
text-bubbles
100
AcDbBlockReference
 66
     1
  2
WID_FlagNote
 10
9.115059097004087
 20
4.763393407711834
 30
0.0
 41
0.2499994999999975
 42
0.2499994999999975
 43
0.2499994999999975
  0
ATTRIB
  5
D59
330
D58
100
AcDbEntity
  8
0
100
AcDbText
 10
9.068285869158238
 20
4.663479509098092
 30
0.0
 40
0.1249997499999987
  1
8
  7
WIDFlagNote
 72
     4
 11
9.116844776132998
 21
4.725169358433016
 31
0.0
100
AcDbAttribute
  2
NO.
 70
     0
  0
SEQEND
  5
D5A
330
D58
100
AcDbEntity
  8
text-bubbles
  0
INSERT
  5
D5B
330
2
100
AcDbEntity
  8
text-bubbles
100
AcDbBlockReference
 66
     1
  2
WID_FlagNote
 10
9.115059097004087
 20
3.886870933927937
 30
0.0
 41
0.2499994999999975
 42
0.2499994999999975
 43
0.2499994999999975
  0
ATTRIB
  5
D5C
330
D5B
100
AcDbEntity
  8
0
100
AcDbText
 10
9.068285869158238
 20
3.786957035314194
 30
0.0
 40
0.1249997499999987
  1
9
  7
WIDFlagNote
 72
     4
 11
9.116844776132998
 21
3.848646884649119
 31
0.0
100
AcDbAttribute
  2
NO.
 70
     0
  0
SEQEND
  5
D5D
330
D5B
100
AcDbEntity
  8
text-bubbles
  0
POLYLINE
  5
D61
330
2
100
AcDbEntity
  8
image
 62
     8
100
AcDb2dPolyline
 66
     1
 10
0.0
 20
0.0
 30
0.0
 40
0.0262
 41
0.0262
  0
VERTEX
  5
D62
330
D61
100
AcDbEntity
  8
image
 62
     8
100
AcDbVertex
100
AcDb2dVertex
 10
7.687144830532174
 20
4.213828902352074
 30
0.0
 40
0.0524
 41
0.0524
  0
VERTEX
  5
D63
330
D61
100
AcDbEntity
  8
image
 62
     8
100
AcDbVertex
100
AcDb2dVertex
 10
7.928334676163691
 20
4.230868757321244
 30
0.0
 40
0.0524
 41
0.0524
  0
VERTEX
  5
D64
330
D61
100
AcDbEntity
  8
image
 62
     8
100
AcDbVertex
100
AcDb2dVertex
 10
8.128429186641261
 20
4.245420448761667
 30
0.0
 40
0.0524
 41
0.0524
  0
VERTEX
  5
D65
330
D61
100
AcDbEntity
  8
image
 62
     8
100
AcDbVertex
100
AcDb2dVertex
 10
8.228708225378017
 20
4.252950327561801
 30
0.0
 40
0.0524
 41
0.0524
  0
SEQEND
  5
D66
330
D61
100
AcDbEntity
  8
image
 62
     8
  0
INSERT
  5
D67
330
2
100
AcDbEntity
  8
text-bubbles
100
AcDbBlockReference
 66
     1
  2
WID_FlagNote
 10
7.290592138982487
 20
3.680885813500175
 30
0.0
 41
0.2499994999999975
 42
0.2499994999999975
 43
0.2499994999999975
  0
ATTRIB
  5
D68
330
D67
100
AcDbEntity
  8
0
100
AcDbText
 10
7.243818911136638
 20
3.580971914886433
 30
0.0
 40
0.1249997499999987
  1
9
  7
WIDFlagNote
 72
     4
 11
7.292377818111399
 21
3.642661764221357
 31
0.0
100
AcDbAttribute
  2
NO.
 70
     0
  0
SEQEND
  5
D69
330
D67
100
AcDbEntity
  8
text-bubbles
  0
LEADER
  5
D6A
330
2
100
AcDbEntity
  8
text-bubbles
100
AcDbLeader
  3
STANDARD
 76
     2
 10
7.760687270195903
 20
4.186784824825039
 30
0.0
 10
7.40193818962186
 20
3.730832204456712
 30
0.0
1001
ACAD
1000
DSTYLE
1002
{
1070
   147
1040
0.09
1070
    77
1070
     0
1002
}
  0
INSERT
  5
D6D
330
2
100
AcDbEntity
  8
text-bubbles
100
AcDbBlockReference
 66
     1
  2
WID_FlagNote
 10
6.611095324934437
 20
3.680885813500175
 30
0.0
 41
0.2499994999999975
 42
0.2499994999999975
 43
0.2499994999999975
  0
ATTRIB
  5
D6E
330
D6D
100
AcDbEntity
  8
0
100
AcDbText
 10
6.564322097088587
 20
3.580971914886433
 30
0.0
 40
0.1249997499999987
  1
8
  7
WIDFlagNote
 72
     4
 11
6.612881004063348
 21
3.642661764221357
 31
0.0
100
AcDbAttribute
  2
NO.
 70
     0
  0
SEQEND
  5
D6F
330
D6D
100
AcDbEntity
  8
text-bubbles
  0
LEADER
  5
D70
330
2
100
AcDbEntity
  8
text-bubbles
100
AcDbLeader
  3
STANDARD
 76
     2
 10
7.124599138881867
 20
4.287930085545979
 30
0.0
 10
6.72244137557381
 20
3.730832204456712
 30
0.0
1001
ACAD
1000
DSTYLE
1002
{
1070
   147
1040
0.09
1070
    77
1070
     0
1002
}
  0
LEADER
  5
D72
330
2
100
AcDbEntity
  8
text-bubbles
100
AcDbLeader
  3
STANDARD
 76
     2
 10
7.195253962734435
 20
4.085511439216887
 30
0.0
 10
6.72244137557381
 20
3.730832204456712
 30
0.0
1001
ACAD
1000
DSTYLE
1002
{
1070
   147
1040
0.09
1070
    77
1070
     0
1002
}
  0
LEADER
  5
D73
330
2
100
AcDbEntity
  8
text-bubbles
100
AcDbLeader
  3
STANDARD
 76
     2
 10
5.823169389670896
 20
4.304362712053958
 30
0.0
 10
5.471332259460782
 20
3.730832204456712
 30
0.0
1001
ACAD
1000
DSTYLE
1002
{
1070
   147
1040
0.09
1070
    77
1070
     0
1002
}
  0
LEADER
  5
D74
330
2
100
AcDbEntity
  8
text-bubbles
100
AcDbLeader
  3
STANDARD
 76
     2
 10
5.894817929768047
 20
4.093790365131763
 30
0.0
 10
5.471332259460782
 20
3.730832204456712
 30
0.0
1001
ACAD
1000
DSTYLE
1002
{
1070
   147
1040
0.09
1070
    77
1070
     0
1002
}
  0
LEADER
  5
D75
330
2
100
AcDbEntity
  8
text-bubbles
100
AcDbLeader
  3
STANDARD
 76
     2
 10
4.676792633818381
 20
4.270671138180663
 30
0.0
 10
4.246785212498128
 20
3.730832204456712
 30
0.0
1001
ACAD
1000
DSTYLE
1002
{
1070
   147
1040
0.09
1070
    77
1070
     0
1002
}
  0
INSERT
  5
DE5
330
2
100
AcDbEntity
  8
title
100
AcDbBlockReference
 66
     1
  2
titleblock
 10
0.0
 20
0.0
 30
0.0
  0
ATTRIB
  5
DE7
330
DE5
100
AcDbEntity
  8
title
100
AcDbText
 10
0.5055556038023421
 20
0.7842270964783673
 30
0.0
 40
0.2
  1
D
  7
L200
 72
     4
 11
0.6064423705144839
 21
0.8842270964783672
 31
0.0
100
AcDbAttribute
  2
D
 70
     0
  0
ATTRIB
  5
DE8
330
DE5
100
AcDbEntity
  8
title
100
AcDbText
 10
1.231442370514484
 20
1.34371230274675
 30
0.0
 40
0.2
  1

  7
L200
100
AcDbAttribute
  2
TITLE1
 70
     0
  0
ATTRIB
  5
DE9
330
DE5
100
AcDbEntity
  8
title
100
AcDbText
 10
1.231442370514484
 20
0.9842270964783674
 30
0.0
 40
0.2
  1
FD-101TURF DECODER
  7
L200
100
AcDbAttribute
  2
TITLE2
 70
     0
  0
ATTRIB
  5
DEA
330
DE5
100
AcDbEntity
  8
title
100
AcDbText
 10
2.713645751168312
 20
0.5927927664583189
 30
0.0
 40
0.2
  1
WIRING TO VALVE AND CONTROLLER
  7
L200
100
AcDbAttribute
  2
TITLE3
 70
     0
  0
ATTRIB
  5
DEB
330
DE5
100
AcDbEntity
  8
title
100
AcDbText
 10
2.713645751168312
 20
0.2692560808167741
 30
0.0
 40
0.2
  1

  7
L200
100
AcDbAttribute
  2
TITLE4
 70
     0
  0
ATTRIB
  5
DEC
330
DE5
100
AcDbEntity
  8
title
 62
     7
100
AcDbText
 10
7.617214829966379
 20
0.9696027915446398
 30
0.0
 40
0.08
  1
11-29-10
  7
L80
 72
     2
 11
8.261024353775903
 21
0.9696027915446398
 31
0.0
100
AcDbAttribute
  2
REVISED
 70
     0
  0
ATTRIB
  5
DED
330
DE5
100
AcDbEntity
  8
title
 62
     7
100
AcDbText
 10
0.2639423705144838
 20
0.0847116480207214
 30
0.0
 40
0.08
  1
FD101 PLAN.DWG
  7
L80
100
AcDbAttribute
  2
DWG-NAME
 70
     0
  0
ATTRIB
  5
DEE
330
DE5
100
AcDbEntity
  8
title
 62
     7
100
AcDbText
 10
1.231442370514484
 20
0.7005637793954894
 30
0.0
 40
0.1
  1
N.T.S.
  7
L100
100
AcDbAttribute
  2
SCALE
 70
     0
  0
SEQEND
  5
DE6
330
DE5
100
AcDbEntity
  8
title
  0
ENDSEC
  0
SECTION
  2
OBJECTS
  0
DICTIONARY
  5
7
330
0
100
AcDbDictionary
281
     1
  3
ACAD_COLOR
350
E41
  3
ACAD_GROUP
350
1F
  3
ACAD_LAYOUT
350
B
  3
ACAD_MATERIAL
350
E17
  3
ACAD_MLEADERSTYLE
350
E66
  3
ACAD_MLINESTYLE
350
20
  3
ACAD_PLOTSETTINGS
350
21
  3
ACAD_PLOTSTYLENAME
350
6
  3
ACAD_SCALELIST
350
E44
  3
ACAD_TABLESTYLE
350
E42
  3
ACAD_VISUALSTYLE
350
E30
  3
AcadDim
350
BFA
  3
ACDB_RECOMPOSE_DATA
350
EC7
  3
AcDbVariableDictionary
350
193
  3
WID_ControllerAssemblies
350
B68
  3
WID_Layers
350
B65
  3
WID_Pipes
350
B69
  3
WID_PlantTypes
350
EA0
  3
WID_SprinklerAssemblies
350
B67
  3
WID_Stations
350
B6A
  3
WID_ValveAssemblies
350
B66
  3
WID_Variables
350
B64
1001
BBSI_PltSel
1000
1
1000

1001
BBSI_Bookmarks
1000
1
1000
1
1000
0
1000
1
1000
0
1000
0
1000
0
1000
0
1000
0
1000
0
1000
0
1001
BBSI_BookmarksEx
1000
0
1000
0
1000

1000
0
1001
BBSI_Plots
1000

1000
ANSI_B_(17.00_x_11.00_Inches)
1000
431.799987792969
1000
279.399993896484
1000
0
1000
1
1000
1
1000
0
1000
30.734
1000
1
1000
0
1000
1
1000
1.26863151748196
1000
0
1000
1
1000
OKIColorShaded.ctb
1000
0
1000
0
1000
1
1000
1
1000
0
1000
0
1000
8.01969536521878
1000
0.0157325968894071
1000
21.6577808165039
1000
8.03090770866323
1000

1000

  0
DICTIONARY
  5
EA9
330
10
100
AcDbDictionary
280
     1
281
     1
  3
ACAD_LAYERFILTERS
360
F7E
  0
DICTIONARY
  5
C2F
330
2
100
AcDbDictionary
280
     1
281
     1
  3
ACAD_SORTENTS
360
C30
  0
DICTIONARY
  5
F73
330
DD7
100
AcDbDictionary
280
     1
281
     1
  3
ACAD_SORTENTS
360
F74
  0
DICTIONARY
  5
BFD
330
BFC
100
AcDbDictionary
280
     1
281
     1
  3
ACAD_DIMASSOC
360
BFE
  0
DICTIONARY
  5
C06
330
C05
100
AcDbDictionary
280
     1
281
     1
  3
ACAD_DIMASSOC
360
C07
  0
DICTIONARY
  5
C09
330
C08
100
AcDbDictionary
280
     1
281
     1
  3
ACAD_DIMASSOC
360
C0A
  0
DICTIONARY
  5
C15
330
C14
100
AcDbDictionary
280
     1
281
     1
  3
ACAD_DIMASSOC
360
C16
  0
DICTIONARY
  5
F9F
330
D57
100
AcDbDictionary
280
     1
281
     1
  3
ACAD_MTEXT_2008_RT
360
FA0
  0
DICTIONARY
  5
E41
102
{ACAD_REACTORS
330
7
102
}
330
7
100
AcDbDictionary
281
     1
  0
DICTIONARY
  5
1F
102
{ACAD_REACTORS
330
7
102
}
330
7
100
AcDbDictionary
281
     1
  0
DICTIONARY
  5
B
102
{ACAD_REACTORS
330
7
102
}
330
7
100
AcDbDictionary
281
     1
  3
Layout1
350
F
  3
Model
350
A
  0
DICTIONARY
  5
E17
102
{ACAD_REACTORS
330
7
102
}
330
7
100
AcDbDictionary
281
     1
  3
ByBlock
350
E20
  3
ByLayer
350
E18
  3
Global
350
E28
  0
DICTIONARY
  5
E66
102
{ACAD_REACTORS
330
7
102
}
330
7
100
AcDbDictionary
281
     1
  3
Standard
350
F06
  0
DICTIONARY
  5
20
102
{ACAD_REACTORS
330
7
102
}
330
7
100
AcDbDictionary
281
     1
  3
Standard
350
24
  0
DICTIONARY
  5
21
102
{ACAD_REACTORS
330
7
102
}
330
7
100
AcDbDictionary
281
     1
  0
ACDBDICTIONARYWDFLT
  5
6
102
{ACAD_REACTORS
330
7
102
}
330
7
100
AcDbDictionary
281
     1
  3
Normal
350
5
100
AcDbDictionaryWithDefault
340
5
  0
DICTIONARY
  5
E44
102
{ACAD_REACTORS
330
7
102
}
330
7
100
AcDbDictionary
281
     1
  3
A0
350
E45
  0
DICTIONARY
  5
E42
102
{ACAD_REACTORS
330
7
102
}
330
7
100
AcDbDictionary
281
     1
  3
Standard
350
E43
  0
DICTIONARY
  5
E30
102
{ACAD_REACTORS
330
7
102
}
330
7
100
AcDbDictionary
281
     1
  3
2dWireframe
350
E36
  3
3D Hidden
350
E38
  3
3dWireframe
350
E37
  3
Basic
350
E35
  3
Brighten
350
E3C
  3
ColorChange
350
E40
  3
Conceptual
350
E39
  3
Dim
350
E3B
  3
Facepattern
350
E3F
  3
Flat
350
E31
  3
FlatWithEdges
350
E32
  3
Gouraud
350
E33
  3
GouraudWithEdges
350
E34
  3
Linepattern
350
E3E
  3
Realistic
350
E3A
  3
Thicken
350
E3D
  0
XRECORD
  5
BFA
102
{ACAD_REACTORS
330
7
102
}
330
7
100
AcDbXrecord
280
     1
 90
   990106
  3

 60
     4
 61
     0
 62
     1
 63
     3
 64
     0
 65
     0
 66
     0
 67
     2
 68
     1
 69
     0
 70
     0
 71
     1
 72
     0
 40
0.0
170
     1
  0
XRECORD
  5
EC7
102
{ACAD_REACTORS
330
7
102
}
330
7
100
AcDbXrecord
280
     1
 90
        1
330
D57
330
E43
  0
DICTIONARY
  5
193
102
{ACAD_REACTORS
330
7
102
}
330
7
100
AcDbDictionary
281
     1
  3
CANNOSCALE
350
ECB
  3
CMLEADERSTYLE
350
EC9
  3
CTABLESTYLE
350
EC8
  3
DIMASSOC
350
195
  3
HIDETEXT
350
194
  3
LAYEREVAL
350
F97
  3
LAYERNOTIFY
350
ECD
  3
LIGHTINGUNITS
350
ECC
  3
MSLTSCALE
350
ECA
  3
SORTENTS
350
C32
  0
DICTIONARY
  5
B68
102
{ACAD_REACTORS
330
7
102
}
330
7
100
AcDbDictionary
281
     1
  0
DICTIONARY
  5
B65
102
{ACAD_REACTORS
330
7
102
}
330
7
100
AcDbDictionary
281
     1
  3
CHECK_ARC
350
BBA
  3
CHECK_ARC2
350
BA3
  3
CHECK_ARC3
350
E83
  3
CONTINUATION
350
B98
  3
CONTROLLER
350
BC7
  3
CONTROLLER2
350
BB6
  3
CONTROLLER3
350
E96
  3
DEFAULT
350
BC8
  3
DESIGN_ARC
350
B84
  3
DESIGN_ARC2
350
BA4
  3
DESIGN_ARC3
350
E84
  3
DRIP
350
BC2
  3
DRIP2
350
BAC
  3
DRIP3
350
E8C
  3
FITTING
350
BC6
  3
FITTING2
350
BB5
  3
FITTING3
350
E95
  3
FLOW
350
BC5
  3
FLOW2
350
BB4
  3
FLOW3
350
E94
  3
HPLATERALGC
350
B9D
  3
HPLATERALGC2
350
BB0
  3
HPLATERALGC3
350
E90
  3
HPLATERALSHRUBS
350
B9E
  3
HPLATERALSHRUBS2
350
BB1
  3
HPLATERALSHRUBS3
350
E91
  3
HPLATERALTREES
350
B9F
  3
HPLATERALTREES2
350
BB2
  3
HPLATERALTREES3
350
E92
  3
HPNODEGC
350
B9A
  3
HPNODEGC2
350
BAD
  3
HPNODEGC3
350
E8D
  3
HPNODESHRUBS
350
B9B
  3
HPNODESHRUBS2
350
BAE
  3
HPNODESHRUBS3
350
E8E
  3
HPNODETREES
350
B9C
  3
HPNODETREES2
350
BAF
  3
HPNODETREES3
350
E8F
  3
IDEACATCHCAN
350
E9A
  3
IDEACATCHCAN2
350
E9B
  3
IDEACATCHCAN3
350
E9C
  3
IDEANOTE
350
E9D
  3
IDEANOTE2
350
E9E
  3
IDEANOTE3
350
E9F
  3
IDEAPERIMETER
350
E97
  3
IDEAPERIMETER2
350
E98
  3
IDEAPERIMETER3
350
E99
  3
LABEL
350
BBC
  3
LABEL2
350
BA6
  3
LABEL3
350
E86
  3
LATERAL
350
BC1
  3
LATERAL2
350
BAB
  3
LATERAL3
350
E8B
  3
LINESOURCEAREA
350
E6D
  3
LINESOURCEAREA2
350
E6E
  3
LINESOURCEAREA3
350
E6F
  3
LINESOURCEEMITTER
350
E79
  3
LINESOURCEEMITTER2
350
E7A
  3
LINESOURCEEMITTER3
350
E7B
  3
LINESOURCEEXHAUST
350
E73
  3
LINESOURCEEXHAUST2
350
E74
  3
LINESOURCEEXHAUST3
350
E75
  3
LINESOURCEHEADER
350
E70
  3
LINESOURCEHEADER2
350
E71
  3
LINESOURCEHEADER3
350
E72
  3
LINESOURCEPERIMETER
350
E76
  3
LINESOURCEPERIMETER2
350
E77
  3
LINESOURCEPERIMETER3
350
E78
  3
MAINLINE
350
BBF
  3
MAINLINE2
350
BA9
  3
MAINLINE3
350
E89
  3
MANIFOLD
350
BC0
  3
MANIFOLD2
350
BAA
  3
MANIFOLD3
350
E8A
  3
MARKER
350
B97
  3
NOTE
350
BC4
  3
PERIMETER
350
BB8
  3
PERIMETER2
350
BA1
  3
PERIMETER3
350
E81
  3
PIPE_SIZE
350
BBD
  3
PIPE_SIZE2
350
BA7
  3
PIPE_SIZE3
350
E87
  3
SEGMENTID
350
BBE
  3
SEGMENTID2
350
BA8
  3
SEGMENTID3
350
E88
  3
SLEEVE
350
BC3
  3
SLEEVE2
350
BB3
  3
SLEEVE3
350
E93
  3
SPRINKLER
350
BB9
  3
SPRINKLER2
350
BA2
  3
SPRINKLER3
350
E82
  3
VALVE
350
BBB
  3
VALVE2
350
BA5
  3
VALVE3
350
E85
  0
DICTIONARY
  5
B69
102
{ACAD_REACTORS
330
7
102
}
330
7
100
AcDbDictionary
281
     1
  0
DICTIONARY
  5
EA0
102
{ACAD_REACTORS
330
7
102
}
330
7
100
AcDbDictionary
281
     1
  3
Annuals
350
EA6
  3
Bluegrass
350
EA2
  3
Seed Mix
350
EA3
  3
Shrubs
350
EA4
  3
Trees
350
EA5
  0
DICTIONARY
  5
B67
102
{ACAD_REACTORS
330
7
102
}
330
7
100
AcDbDictionary
281
     1
  0
DICTIONARY
  5
B6A
102
{ACAD_REACTORS
330
7
102
}
330
7
100
AcDbDictionary
281
     1
  0
DICTIONARY
  5
B66
102
{ACAD_REACTORS
330
7
102
}
330
7
100
AcDbDictionary
281
     1
  0
DICTIONARY
  5
B64
102
{ACAD_REACTORS
330
7
102
}
330
7
100
AcDbDictionary
281
     1
  3
ConduitFollowTarget
350
E7C
  3
ConduitLabelOffsetAngle
350
B85
  3
ConduitLabelOffsetDistance
350
B86
  3
ConduitLabelPlotSize
350
B87
  3
ConduitLeaderOffsetDistance
350
B88
  3
ConduitLeaderPlotSize
350
B89
  3
ConduitUseLeader
350
B8A
  3
DEFAULTPLANTTYPE
350
EA1
  3
SegmentFollowTarget
350
E7D
  3
SegmentLabelOffsetAngle
350
B8B
  3
SegmentLabelOffsetDistance
350
B8C
  3
SegmentLabelPlotSize
350
B8D
  3
SegmentLeaderOffsetDistance
350
B8E
  3
SegmentLeaderPlotSize
350
B8F
  3
SegmentUseLeader
350
B90
  3
ValveFollowTarget
350
E7E
  3
ValveLabelOffsetAngle
350
B91
  3
ValveLabelOffsetDistance
350
B92
  3
ValveLabelPlotSize
350
B93
  3
ValveLeaderOffsetDistance
350
B94
  3
ValveLeaderPlotSize
350
B95
  3
ValveUseLeader
350
B96
  3
VERSION
350
BB7
  0
DICTIONARY
  5
F7E
102
{ACAD_REACTORS
330
EA9
102
}
330
EA9
100
AcDbDictionary
281
     1
  3
_0100-
350
F81
  3
_0280-
350
F80
  3
_Add Alternate
350
F83
  3
_Bid Alternate
350
F84
  3
_Color 253
350
F86
  3
_Color 8
350
F82
  3
_Color 84
350
F85
  3
_Contours
350
F8C
  3
_Demo
350
F87
  3
_Existing
350
F88
  3
_Hardscape
350
F8B
  3
_NoXref
350
F7F
  3
_Row
350
F89
  3
_Utility
350
F8A
  0
SORTENTSTABLE
  5
C30
102
{ACAD_REACTORS
330
C2F
102
}
330
C2F
100
AcDbSortentsTable
330
2
331
42
  5
42
331
4A
  5
4A
331
52
  5
52
331
5A
  5
5A
331
A89
  5
63D
331
A91
  5
A8F
331
BEC
  5
BE3
331
150
  5
150
331
111
  5
111
331
2C3
  5
2C3
331
28C
  5
28C
331
158
  5
158
331
119
  5
119
331
18F
  5
18F
331
52A
  5
52A
331
BFC
  5
BF3
331
294
  5
294
331
121
  5
121
331
160
  5
160
331
25D
  5
25D
331
19F
  5
19F
331
129
  5
129
331
168
  5
168
331
226
  5
226
331
29C
  5
29C
331
2A4
  5
2A4
331
265
  5
265
331
22E
  5
22E
331
62
  5
62
331
2B
  5
2B
331
10A
  5
10A
331
33
  5
33
331
3B
  5
3B
331
B27
  5
AF4
331
170
  5
170
331
131
  5
131
331
B3F
  5
B29
331
C14
  5
C0B
331
26D
  5
26D
331
236
  5
236
331
178
  5
178
331
139
  5
139
331
1D7
  5
1D7
331
2AC
  5
2AC
331
2B4
  5
2B4
331
23E
  5
23E
331
1E7
  5
1E7
331
141
  5
141
331
180
  5
180
331
275
  5
275
331
63E
  5
C2D
331
2BC
  5
2BC
331
246
  5
246
331
149
  5
149
331
51B
  5
51B
331
285
  5
285
331
1F7
  5
1F7
331
523
  5
523
331
43
  5
43
331
4B
  5
4B
331
53
  5
53
331
5B
  5
5B
331
A8A
  5
63E
331
AC9
  5
C2E
331
C2C
  5
C1A
331
188
  5
188
331
112
  5
112
331
151
  5
151
331
BF5
  5
BF2
331
2C4
  5
2C4
331
28D
  5
28D
331
190
  5
190
331
11A
  5
11A
331
159
  5
159
331
295
  5
295
331
161
  5
161
331
122
  5
122
331
25E
  5
25E
331
227
  5
227
331
169
  5
169
331
12A
  5
12A
331
1A0
  5
1A0
331
29D
  5
29D
331
266
  5
266
331
22F
  5
22F
331
2A5
  5
2A5
331
63
  5
63
331
2C
  5
2C
331
34
  5
34
331
10B
  5
10B
331
3C
  5
3C
331
C05
  5
BFC
331
132
  5
132
331
171
  5
171
331
26E
  5
26E
331
237
  5
237
331
13A
  5
13A
331
179
  5
179
331
2AD
  5
2AD
331
2B5
  5
2B5
331
276
  5
276
331
181
  5
181
331
142
  5
142
331
1E8
  5
1E8
331
2BD
  5
2BD
331
14A
  5
14A
331
286
  5
286
331
44
  5
44
331
4C
  5
4C
331
54
  5
54
331
5C
  5
5C
331
A8B
  5
A89
331
BE6
  5
BE1
331
C2D
  5
C1D
331
189
  5
189
331
152
  5
152
331
113
  5
113
331
2C5
  5
2C5
331
28E
  5
28E
331
15A
  5
15A
331
11B
  5
11B
331
191
  5
191
331
257
  5
257
331
123
  5
123
331
162
  5
162
331
296
  5
296
331
29E
  5
29E
331
25F
  5
25F
331
1A1
  5
1A1
331
12B
  5
12B
331
16A
  5
16A
331
2A6
  5
2A6
331
267
  5
267
331
64
  5
64
331
2D
  5
2D
331
10C
  5
10C
331
35
  5
35
331
3D
  5
3D
331
B29
  5
B24
331
C0E
  5
C05
331
230
  5
230
331
172
  5
172
331
133
  5
133
331
B41
  5
B2B
331
2AE
  5
2AE
331
238
  5
238
331
17A
  5
17A
331
13B
  5
13B
331
1E1
  5
1E1
331
26F
  5
26F
331
2B6
  5
2B6
331
277
  5
277
331
1E9
  5
1E9
331
143
  5
143
331
182
  5
182
331
2BE
  5
2BE
331
14B
  5
14B
331
51D
  5
51D
331
287
  5
287
331
525
  5
525
331
45
  5
45
331
4D
  5
4D
331
55
  5
55
331
5D
  5
5D
331
A8C
  5
A8A
331
B59
  5
B56
331
C2E
  5
C1E
331
BEF
  5
BE6
331
18A
  5
18A
331
114
  5
114
331
153
  5
153
331
2C6
  5
2C6
331
28F
  5
28F
331
15B
  5
15B
331
11C
  5
11C
331
BFF
  5
BF4
331
258
  5
258
331
19A
  5
19A
331
163
  5
163
331
124
  5
124
331
297
  5
297
331
260
  5
260
331
229
  5
229
331
16B
  5
16B
331
12C
  5
12C
331
1A2
  5
1A2
331
29F
  5
29F
331
2A7
  5
2A7
331
65
  5
65
331
26
  5
26
331
2E
  5
2E
331
36
  5
36
331
10D
  5
10D
331
3E
  5
3E
331
AF3
  5
A90
331
268
  5
268
331
231
  5
231
331
1D2
  5
1D2
331
134
  5
134
331
173
  5
173
331
B42
  5
B3E
331
C17
  5
C0E
331
2AF
  5
2AF
331
239
  5
239
331
1E2
  5
1E2
331
13C
  5
13C
331
17B
  5
17B
331
270
  5
270
331
2B7
  5
2B7
331
278
  5
278
331
183
  5
183
331
144
  5
144
331
1EA
  5
1EA
331
516
  5
516
331
2BF
  5
2BF
331
14C
  5
14C
331
51E
  5
51E
331
526
  5
526
331
46
  5
46
331
4E
  5
4E
331
56
  5
56
331
5E
  5
5E
331
A8D
  5
A8B
331
B52
  5
B44
331
288
  5
288
331
154
  5
154
331
115
  5
115
331
18B
  5
18B
331
21A
  5
21A
331
15C
  5
15C
331
11D
  5
11D
331
290
  5
290
331
259
  5
259
331
19B
  5
19B
331
125
  5
125
331
164
  5
164
331
298
  5
298
331
2A0
  5
2A0
331
261
  5
261
331
1A3
  5
1A3
331
16C
  5
16C
331
12D
  5
12D
331
2F
  5
2F
331
10E
  5
10E
331
37
  5
37
331
3F
  5
3F
331
B2B
  5
B25
331
AF4
  5
A91
331
C08
  5
BFF
331
2A8
  5
2A8
331
269
  5
269
331
232
  5
232
331
174
  5
174
331
135
  5
135
331
1D3
  5
1D3
331
B43
  5
B3F
331
BD1
  5
B57
331
2B0
  5
2B0
331
271
  5
271
331
17C
  5
17C
331
13D
  5
13D
331
1E3
  5
1E3
331
2B8
  5
2B8
331
242
  5
242
331
1EB
  5
1EB
331
145
  5
145
331
184
  5
184
331
517
  5
517
331
281
  5
281
331
14D
  5
14D
331
51F
  5
51F
331
527
  5
527
331
47
  5
47
331
4F
  5
4F
331
57
  5
57
331
5F
  5
5F
331
A8E
  5
A8C
331
BE9
  5
BE2
331
2C0
  5
2C0
331
24A
  5
24A
331
18C
  5
18C
331
116
  5
116
331
155
  5
155
331
289
  5
289
331
291
  5
291
331
21B
  5
21B
331
15D
  5
15D
331
11E
  5
11E
331
299
  5
299
331
25A
  5
25A
331
223
  5
223
331
165
  5
165
331
126
  5
126
331
19C
  5
19C
331
262
  5
262
331
22B
  5
22B
331
16D
  5
16D
331
12E
  5
12E
331
1A4
  5
1A4
331
2A1
  5
2A1
331
28
  5
28
331
30
  5
30
331
10F
  5
10F
331
38
  5
38
331
B24
  5
AC9
331
C11
  5
C08
331
26A
  5
26A
331
233
  5
233
331
136
  5
136
331
175
  5
175
331
2A9
  5
2A9
331
4B8
  5
4B8
331
B44
  5
B41
331
2B1
  5
2B1
331
272
  5
272
331
1E4
  5
1E4
331
17D
  5
17D
331
13E
  5
13E
331
63B
  5
63B
331
2B9
  5
2B9
331
243
  5
243
331
185
  5
185
331
146
  5
146
331
1EC
  5
1EC
331
518
  5
518
331
282
  5
282
331
14E
  5
14E
331
520
  5
520
331
40
  5
40
331
48
  5
48
331
50
  5
50
331
58
  5
58
331
A8F
  5
A8D
331
528
  5
528
331
2C1
  5
2C1
331
24B
  5
24B
331
156
  5
156
331
117
  5
117
331
18D
  5
18D
331
28A
  5
28A
331
21C
  5
21C
331
15E
  5
15E
331
11F
  5
11F
331
292
  5
292
331
25B
  5
25B
331
19D
  5
19D
331
127
  5
127
331
166
  5
166
331
29A
  5
29A
331
2A2
  5
2A2
331
263
  5
263
331
22C
  5
22C
331
1A5
  5
1A5
331
16E
  5
16E
331
12F
  5
12F
331
60
  5
60
331
68
  5
68
331
29
  5
29
331
108
  5
108
331
31
  5
31
331
39
  5
39
331
B25
  5
AF3
331
C02
  5
BF5
331
4B9
  5
4B9
331
2AA
  5
2AA
331
26B
  5
26B
331
234
  5
234
331
176
  5
176
331
B45
  5
B42
331
137
  5
137
331
1D5
  5
1D5
331
63C
  5
63C
331
2B2
  5
2B2
331
23C
  5
23C
331
17E
  5
17E
331
13F
  5
13F
331
1E5
  5
1E5
331
273
  5
273
331
519
  5
519
331
2BA
  5
2BA
331
244
  5
244
331
1ED
  5
1ED
331
147
  5
147
331
186
  5
186
331
521
  5
521
331
283
  5
283
331
14F
  5
14F
331
41
  5
41
331
49
  5
49
331
51
  5
51
331
59
  5
59
331
C1A
  5
C11
331
A90
  5
A8E
331
BE3
  5
BE0
331
110
  5
110
331
529
  5
529
331
2C2
  5
2C2
331
24C
  5
24C
331
18E
  5
18E
331
118
  5
118
331
157
  5
157
331
28B
  5
28B
331
293
  5
293
331
21D
  5
21D
331
15F
  5
15F
331
120
  5
120
331
25C
  5
25C
331
167
  5
167
331
128
  5
128
331
19E
  5
19E
331
29B
  5
29B
331
264
  5
264
331
22D
  5
22D
331
16F
  5
16F
331
2A3
  5
2A3
331
61
  5
61
331
69
  5
69
331
2A
  5
2A
331
109
  5
109
331
32
  5
32
331
3A
  5
3A
331
C0B
  5
C02
331
B3E
  5
B27
331
130
  5
130
331
4BA
  5
4BA
331
26C
  5
26C
331
235
  5
235
331
1D6
  5
1D6
331
B46
  5
B43
331
BD4
  5
B58
331
138
  5
138
331
177
  5
177
331
2AB
  5
2AB
331
63D
  5
C2C
331
2B3
  5
2B3
331
23D
  5
23D
331
1E6
  5
1E6
331
17F
  5
17F
331
140
  5
140
331
274
  5
274
331
51A
  5
51A
331
2BB
  5
2BB
331
245
  5
245
331
187
  5
187
331
148
  5
148
331
522
  5
522
331
284
  5
284
  0
SORTENTSTABLE
  5
F74
102
{ACAD_REACTORS
330
F73
102
}
330
F73
100
AcDbSortentsTable
330
DD7
  0
DIMASSOC
  5
BFE
102
{ACAD_REACTORS
330
BFD
102
}
330
BFD
100
AcDbDimAssoc
330
BFC
 90
        1
 70
     0
 71
     0
  1
AcDbOsnapPointRef
 72
    10
331
21A
 73
     2
 91
        3
 40
0.7609642795621923
 10
1.164506642728474
 20
5.875084799794164
 30
0.0
 75
     0
  0
DIMASSOC
  5
C07
102
{ACAD_REACTORS
330
C06
102
}
330
C06
100
AcDbDimAssoc
330
C05
 90
        1
 70
     0
 71
     0
  1
AcDbOsnapPointRef
 72
    10
331
2C5
331
398
 73
     2
 91
        0
 40
0.392945980685856
 10
5.586806416615862
 20
7.418780950209559
 30
0.0
 75
     0
  0
DIMASSOC
  5
C0A
102
{ACAD_REACTORS
330
C09
102
}
330
C09
100
AcDbDimAssoc
330
C08
 90
        1
 70
     0
 71
     0
  1
AcDbOsnapPointRef
 72
    10
331
21C
 73
     2
 91
        0
 40
0.4996443585165693
 10
6.123806885969102
 20
7.612883861900723
 30
0.0
 75
     0
  0
DIMASSOC
  5
C16
102
{ACAD_REACTORS
330
C15
102
}
330
C15
100
AcDbDimAssoc
330
C14
 90
        1
 70
     0
 71
     0
  1
AcDbOsnapPointRef
 72
    10
331
16F
 73
     2
 91
        0
 40
2.670438289760848
 10
4.697428894790094
 20
6.926915927162309
 30
0.0
 75
     0
  0
XRECORD
  5
FA0
102
{ACAD_REACTORS
330
F9F
102
}
330
F9F
100
AcDbXrecord
280
     1
 40
600183.0
  1
NOTE:\P\pxi-3,l3;1. MAXIMUM LENGTH OF SECONDARY WIRE PATH (14 AWG) FROM FIELD DECODER\P\pi0,l0,t5;   TO SOLENOID IS 450 FEET.
  0
LAYOUT
  5
F
102
{ACAD_REACTORS
330
B
102
}
330
B
100
AcDbPlotSettings
  1

  2
S:\AutoCAD 2002\Plotters\1055B&WDraftShaded.pc3
  4

  6

 40
0.0
 41
0.0
 42
0.0
 43
0.0
 44
0.0
 45
0.0
 46
0.0
 47
0.0
 48
0.0
 49
0.0
140
0.0
141
0.0
142
1.0
143
1.0
 70
   688
 72
     0
 73
     0
 74
     5
  7
OKIColorShaded.ctb
 75
    16
147
1.0
 76
     0
 77
     2
 78
   300
148
0.0
149
0.0
100
AcDbLayout
  1
Layout1
 70
     1
 71
     1
 10
0.0
 20
0.0
 11
12.0
 21
9.0
 12
0.0
 22
0.0
 32
0.0
 14
1.000000000000000E+20
 24
1.000000000000000E+20
 34
1.000000000000000E+20
 15
-1.000000000000000E+20
 25
-1.000000000000000E+20
 35
-1.000000000000000E+20
146
0.0
 13
0.0
 23
0.0
 33
0.0
 16
1.0
 26
0.0
 36
0.0
 17
0.0
 27
1.0
 37
0.0
 76
     0
330
C
  0
LAYOUT
  5
A
102
{ACAD_REACTORS
330
B
102
}
330
B
100
AcDbPlotSettings
  1

  2
Bluebeam PS9 HighRes.pc3
  4
ANSI_B_(17.00_x_11.00_Inches)
  6

 40
5.842000007629394
 41
5.842000007629394
 42
5.84197998046875
 43
5.84197998046875
 44
431.7999877929687
 45
279.3999938964844
 46
-0.0000000000000071
 47
0.8679790135366431
 48
8.01969536521878
 49
0.0157325968894071
140
21.6577808165039
141
8.03090770866323
142
1.0
143
0.9969770068712529
 70
 11956
 72
     0
 73
     0
 74
     1
  7
OKIColorShaded.ctb
 75
     0
147
1.003032159325553
 76
     0
 77
     2
 78
   300
148
0.0
149
0.0
100
AcDbLayout
  1
Model
 70
     1
 71
     0
 10
0.0
 20
0.0
 11
12.0
 21
9.0
 12
0.0
 22
0.0
 32
0.0
 14
0.0
 24
0.0
 34
0.0
 15
0.0
 25
0.0
 35
0.0
146
0.0
 13
0.0
 23
0.0
 33
0.0
 16
1.0
 26
0.0
 36
0.0
 17
0.0
 27
1.0
 37
0.0
 76
     0
330
2
331
E15
1001
ACAD_PSEXT
1000
Bluebeam PS9 HighRes.pc3
1000
PostScript Level 2
1000
File
1000

1070
     0
  0
MATERIAL
  5
E20
102
{ACAD_XDICTIONARY
360
E21
102
}
102
{ACAD_REACTORS
330
E17
102
}
330
E17
100
AcDbMaterial
  1
ByBlock
 72
     0
 43
0.0208333333333333
 43
0.0
 43
0.0
 43
0.0
 43
0.0
 43
0.0208333333333333
 43
0.0
 43
0.0
 43
0.0
 43
0.0
 43
1.0
 43
0.0
 43
0.0
 43
0.0
 43
0.0
 43
1.0
 77
     0
 47
0.0208333333333333
 47
0.0
 47
0.0
 47
0.0
 47
0.0
 47
0.0208333333333333
 47
0.0
 47
0.0
 47
0.0
 47
0.0
 47
1.0
 47
0.0
 47
0.0
 47
0.0
 47
0.0
 47
1.0
171
     0
 49
0.0208333333333333
 49
0.0
 49
0.0
 49
0.0
 49
0.0
 49
0.0208333333333333
 49
0.0
 49
0.0
 49
0.0
 49
0.0
 49
1.0
 49
0.0
 49
0.0
 49
0.0
 49
0.0
 49
1.0
175
     0
142
0.0208333333333333
142
0.0
142
0.0
142
0.0
142
0.0
142
0.0208333333333333
142
0.0
142
0.0
142
0.0
142
0.0
142
1.0
142
0.0
142
0.0
142
0.0
142
0.0
142
1.0
179
     0
144
0.0208333333333333
144
0.0
144
0.0
144
0.0
144
0.0
144
0.0208333333333333
144
0.0
144
0.0
144
0.0
144
0.0
144
1.0
144
0.0
144
0.0
144
0.0
144
0.0
144
1.0
147
0.0208333333333333
147
0.0
147
0.0
147
0.0
147
0.0
147
0.0208333333333333
147
0.0
147
0.0
147
0.0
147
0.0
147
1.0
147
0.0
147
0.0
147
0.0
147
0.0
147
1.0
  0
MATERIAL
  5
E18
102
{ACAD_XDICTIONARY
360
E19
102
}
102
{ACAD_REACTORS
330
E17
102
}
330
E17
100
AcDbMaterial
  1
ByLayer
 72
     0
 43
0.0208333333333333
 43
0.0
 43
0.0
 43
0.0
 43
0.0
 43
0.0208333333333333
 43
0.0
 43
0.0
 43
0.0
 43
0.0
 43
1.0
 43
0.0
 43
0.0
 43
0.0
 43
0.0
 43
1.0
 77
     0
 47
0.0208333333333333
 47
0.0
 47
0.0
 47
0.0
 47
0.0
 47
0.0208333333333333
 47
0.0
 47
0.0
 47
0.0
 47
0.0
 47
1.0
 47
0.0
 47
0.0
 47
0.0
 47
0.0
 47
1.0
171
     0
 49
0.0208333333333333
 49
0.0
 49
0.0
 49
0.0
 49
0.0
 49
0.0208333333333333
 49
0.0
 49
0.0
 49
0.0
 49
0.0
 49
1.0
 49
0.0
 49
0.0
 49
0.0
 49
0.0
 49
1.0
175
     0
142
0.0208333333333333
142
0.0
142
0.0
142
0.0
142
0.0
142
0.0208333333333333
142
0.0
142
0.0
142
0.0
142
0.0
142
1.0
142
0.0
142
0.0
142
0.0
142
0.0
142
1.0
179
     0
144
0.0208333333333333
144
0.0
144
0.0
144
0.0
144
0.0
144
0.0208333333333333
144
0.0
144
0.0
144
0.0
144
0.0
144
1.0
144
0.0
144
0.0
144
0.0
144
0.0
144
1.0
147
0.0208333333333333
147
0.0
147
0.0
147
0.0
147
0.0
147
0.0208333333333333
147
0.0
147
0.0
147
0.0
147
0.0
147
1.0
147
0.0
147
0.0
147
0.0
147
0.0
147
1.0
  0
MATERIAL
  5
E28
102
{ACAD_XDICTIONARY
360
E29
102
}
102
{ACAD_REACTORS
330
E17
102
}
330
E17
100
AcDbMaterial
  1
Global
 72
     0
 43
0.0208333333333333
 43
0.0
 43
0.0
 43
0.0
 43
0.0
 43
0.0208333333333333
 43
0.0
 43
0.0
 43
0.0
 43
0.0
 43
1.0
 43
0.0
 43
0.0
 43
0.0
 43
0.0
 43
1.0
 77
     0
 47
0.0208333333333333
 47
0.0
 47
0.0
 47
0.0
 47
0.0
 47
0.0208333333333333
 47
0.0
 47
0.0
 47
0.0
 47
0.0
 47
1.0
 47
0.0
 47
0.0
 47
0.0
 47
0.0
 47
1.0
171
     0
 49
0.0208333333333333
 49
0.0
 49
0.0
 49
0.0
 49
0.0
 49
0.0208333333333333
 49
0.0
 49
0.0
 49
0.0
 49
0.0
 49
1.0
 49
0.0
 49
0.0
 49
0.0
 49
0.0
 49
1.0
175
     0
142
0.0208333333333333
142
0.0
142
0.0
142
0.0
142
0.0
142
0.0208333333333333
142
0.0
142
0.0
142
0.0
142
0.0
142
1.0
142
0.0
142
0.0
142
0.0
142
0.0
142
1.0
179
     0
144
0.0208333333333333
144
0.0
144
0.0
144
0.0
144
0.0
144
0.0208333333333333
144
0.0
144
0.0
144
0.0
144
0.0
144
1.0
144
0.0
144
0.0
144
0.0
144
0.0
144
1.0
147
0.0208333333333333
147
0.0
147
0.0
147
0.0
147
0.0
147
0.0208333333333333
147
0.0
147
0.0
147
0.0
147
0.0
147
1.0
147
0.0
147
0.0
147
0.0
147
0.0
147
1.0
  0
MLEADERSTYLE
  5
F06
102
{ACAD_REACTORS
330
E66
102
}
330
E66
100
AcDbMLeaderStyle
170
     2
171
     1
172
     0
 90
        2
 40
0.0
 41
0.0
173
     1
 91
-1056964608
340
15
 92
       -2
290
     1
 42
0.09
291
     1
 43
0.36
  3
Standard
 44
0.18
300

342
12
174
     1
178
     6
175
     1
176
     0
 93
-1056964608
 45
0.18
292
     0
297
     0
 46
0.18
 94
-1056964608
 47
1.0
 49
1.0
140
1.0
293
     1
141
0.0
294
     1
177
     0
142
1.0
295
     0
296
     0
143
0.125
1001
ACAD_MLEADERVER
1070
     2
  0
MLINESTYLE
  5
24
102
{ACAD_REACTORS
330
20
102
}
330
20
100
AcDbMlineStyle
  2
STANDARD
 70
     0
  3

 62
   256
 51
90.0
 52
90.0
 71
     2
 49
0.5
 62
   256
  6
BYLAYER
 49
-0.5
 62
   256
  6
BYLAYER
  0
ACDBPLACEHOLDER
  5
5
102
{ACAD_REACTORS
330
6
102
}
330
6
  0
SCALE
  5
E45
102
{ACAD_REACTORS
330
E44
102
}
330
E44
100
AcDbScale
 70
     0
300
1:1
140
1.0
141
1.0
290
     1
  0
TABLESTYLE
  5
E43
102
{ACAD_XDICTIONARY
360
EC5
102
}
102
{ACAD_REACTORS
330
E42
102
}
330
E42
100
AcDbTableStyle
  3
Standard
 70
     0
 71
     0
 40
0.06
 41
0.06
280
     0
281
     0
  7
STANDARD
140
0.18
170
     2
 62
     0
 63
     7
283
     0
274
    -2
284
     1
 64
     0
275
    -2
285
     1
 65
     0
276
    -2
286
     1
 66
     0
277
    -2
287
     1
 67
     0
278
    -2
288
     1
 68
     0
279
    -2
289
     1
 69
     0
  7
STANDARD
140
0.25
170
     5
 62
     0
 63
     7
283
     0
274
    -2
284
     1
 64
     0
275
    -2
285
     1
 65
     0
276
    -2
286
     1
 66
     0
277
    -2
287
     1
 67
     0
278
    -2
288
     1
 68
     0
279
    -2
289
     1
 69
     0
  7
STANDARD
140
0.18
170
     5
 62
     0
 63
     7
283
     0
274
    -2
284
     1
 64
     0
275
    -2
285
     1
 65
     0
276
    -2
286
     1
 66
     0
277
    -2
287
     1
 67
     0
278
    -2
288
     1
 68
     0
279
    -2
289
     1
 69
     0
  0
VISUALSTYLE
  5
E36
102
{ACAD_REACTORS
330
E30
102
}
330
E30
100
AcDbVisualStyle
  2
2dWireframe
 70
     4
 71
     0
 72
     2
 73
     0
 90
        0
 40
-0.6
 41
-30.0
 62
     5
 63
     7
421
 16777215
 74
     1
 91
        4
 64
     7
 65
   257
 75
     1
175
     1
 42
1.0
 92
        0
 66
   257
 43
1.0
 76
     1
 77
     6
 78
     2
 67
     7
 79
     5
170
     0
171
     0
290
     0
174
     0
 93
        1
 44
0.0
173
     0
291
     0
 45
0.0
1001
ACAD
1000
AcDbSavedByObjectVersion
1070
     0
  0
VISUALSTYLE
  5
E38
102
{ACAD_REACTORS
330
E30
102
}
330
E30
100
AcDbVisualStyle
  2
3D Hidden
 70
     6
 71
     1
 72
     2
 73
     2
 90
        0
 40
-0.6
 41
-30.0
 62
     5
 63
     7
421
 16777215
 74
     2
 91
        2
 64
     7
 65
   257
 75
     2
175
     1
 42
40.0
 92
        0
 66
   257
 43
1.0
 76
     1
 77
     6
 78
     2
 67
     7
 79
     3
170
     0
171
     0
290
     0
174
     0
 93
        1
 44
0.0
173
     0
291
     0
 45
0.0
1001
ACAD
1000
AcDbSavedByObjectVersion
1070
     0
  0
VISUALSTYLE
  5
E37
102
{ACAD_REACTORS
330
E30
102
}
330
E30
100
AcDbVisualStyle
  2
3dWireframe
 70
     5
 71
     0
 72
     2
 73
     0
 90
        0
 40
-0.6
 41
-30.0
 62
     5
 63
     7
421
 16777215
 74
     1
 91
        4
 64
     7
 65
   257
 75
     1
175
     1
 42
1.0
 92
        0
 66
   257
 43
1.0
 76
     1
 77
     6
 78
     2
 67
     7
 79
     5
170
     0
171
     0
290
     0
174
     0
 93
        1
 44
0.0
173
     0
291
     0
 45
0.0
1001
ACAD
1000
AcDbSavedByObjectVersion
1070
     0
  0
VISUALSTYLE
  5
E35
102
{ACAD_REACTORS
330
E30
102
}
330
E30
100
AcDbVisualStyle
  2
Basic
 70
     7
 71
     1
 72
     0
 73
     1
 90
        0
 40
-0.6
 41
-30.0
 62
     5
 63
     7
421
 16777215
 74
     0
 91
        4
 64
     7
 65
   257
 75
     1
175
     1
 42
1.0
 92
        8
 66
     7
 43
1.0
 76
     1
 77
     6
 78
     2
 67
     7
 79
     5
170
     0
171
     0
290
     0
174
     0
 93
        1
 44
0.0
173
     0
291
     1
 45
0.0
1001
ACAD
1000
AcDbSavedByObjectVersion
1070
     0
  0
VISUALSTYLE
  5
E3C
102
{ACAD_REACTORS
330
E30
102
}
330
E30
100
AcDbVisualStyle
  2
Brighten
 70
    12
 71
     2
 72
     2
 73
     0
 90
        0
 40
-0.6
 41
-30.0
 62
     5
 63
     7
421
 16777215
 74
     1
 91
        4
 64
     7
 65
   257
 75
     1
175
     1
 42
1.0
 92
        8
 66
     7
 43
1.0
 76
     1
 77
     6
 78
     2
 67
     7
 79
     5
170
     0
171
     0
290
     0
174
     0
 93
        1
 44
50.0
173
     0
291
     1
 45
0.0
1001
ACAD
1000
AcDbSavedByObjectVersion
1070
     0
  0
VISUALSTYLE
  5
E40
102
{ACAD_REACTORS
330
E30
102
}
330
E30
100
AcDbVisualStyle
  2
ColorChange
 70
    16
 71
     2
 72
     2
 73
     3
 90
        0
 40
-0.6
 41
-30.0
 62
     5
 63
     8
421
  8421504
 74
     1
 91
        4
 64
     7
 65
   257
 75
     1
175
     1
 42
1.0
 92
        8
 66
     8
424
  8421504
 43
1.0
 76
     1
 77
     6
 78
     2
 67
     7
 79
     5
170
     0
171
     0
290
     0
174
     0
 93
        1
 44
0.0
173
     0
291
     1
 45
0.0
1001
ACAD
1000
AcDbSavedByObjectVersion
1070
     0
  0
VISUALSTYLE
  5
E39
102
{ACAD_REACTORS
330
E30
102
}
330
E30
100
AcDbVisualStyle
  2
Conceptual
 70
     9
 71
     3
 72
     2
 73
     0
 90
        0
 40
-0.6
 41
-30.0
 62
     5
 63
     7
421
 16777215
 74
     2
 91
        2
 64
     7
 65
   257
 75
     1
175
     1
 42
40.0
 92
        8
 66
     7
 43
1.0
 76
     1
 77
     6
 78
     2
 67
     7
 79
     3
170
     0
171
     0
290
     0
174
     0
 93
        1
 44
0.0
173
     0
291
     0
 45
0.0
1001
ACAD
1000
AcDbSavedByObjectVersion
1070
     0
  0
VISUALSTYLE
  5
E3B
102
{ACAD_REACTORS
330
E30
102
}
330
E30
100
AcDbVisualStyle
  2
Dim
 70
    11
 71
     2
 72
     2
 73
     0
 90
        0
 40
-0.6
 41
-30.0
 62
     5
 63
     7
421
 16777215
 74
     1
 91
        4
 64
     7
 65
   257
 75
     1
175
     1
 42
1.0
 92
        8
 66
     7
 43
1.0
 76
     1
 77
     6
 78
     2
 67
     7
 79
     5
170
     0
171
     0
290
     0
174
     0
 93
        1
 44
-50.0
173
     0
291
     1
 45
0.0
1001
ACAD
1000
AcDbSavedByObjectVersion
1070
     0
  0
VISUALSTYLE
  5
E3F
102
{ACAD_REACTORS
330
E30
102
}
330
E30
100
AcDbVisualStyle
  2
Facepattern
 70
    15
 71
     2
 72
     2
 73
     0
 90
        0
 40
-0.6
 41
-30.0
 62
     5
 63
     7
421
 16777215
 74
     1
 91
        4
 64
     7
 65
   257
 75
     1
175
     1
 42
1.0
 92
        8
 66
     7
 43
1.0
 76
     1
 77
     6
 78
     2
 67
     7
 79
     5
170
     0
171
     0
290
     0
174
     0
 93
        1
 44
0.0
173
     0
291
     1
 45
0.0
1001
ACAD
1000
AcDbSavedByObjectVersion
1070
     0
  0
VISUALSTYLE
  5
E31
102
{ACAD_REACTORS
330
E30
102
}
330
E30
100
AcDbVisualStyle
  2
Flat
 70
     0
 71
     2
 72
     1
 73
     1
 90
        2
 40
-0.6
 41
30.0
 62
     5
 63
     7
421
 16777215
 74
     0
 91
        4
 64
     7
 65
   257
 75
     1
175
     1
 42
1.0
 92
        8
 66
     7
 43
1.0
 76
     1
 77
     6
 78
     2
 67
     7
 79
     5
170
     0
171
     0
290
     0
174
     0
 93
       13
 44
0.0
173
     0
291
     1
 45
0.0
1001
ACAD
1000
AcDbSavedByObjectVersion
1070
     0
  0
VISUALSTYLE
  5
E32
102
{ACAD_REACTORS
330
E30
102
}
330
E30
100
AcDbVisualStyle
  2
FlatWithEdges
 70
     1
 71
     2
 72
     1
 73
     1
 90
        2
 40
-0.6
 41
30.0
 62
     5
 63
     7
421
 16777215
 74
     1
 91
        4
 64
     7
 65
   257
 75
     1
175
     1
 42
1.0
 92
        0
 66
   257
 43
1.0
 76
     1
 77
     6
 78
     2
 67
     7
 79
     5
170
     0
171
     0
290
     0
174
     0
 93
       13
 44
0.0
173
     0
291
     1
 45
0.0
1001
ACAD
1000
AcDbSavedByObjectVersion
1070
     0
  0
VISUALSTYLE
  5
E33
102
{ACAD_REACTORS
330
E30
102
}
330
E30
100
AcDbVisualStyle
  2
Gouraud
 70
     2
 71
     2
 72
     2
 73
     1
 90
        2
 40
-0.6
 41
30.0
 62
     5
 63
     7
421
 16777215
 74
     0
 91
        4
 64
     7
 65
   257
 75
     1
175
     1
 42
1.0
 92
        0
 66
     7
 43
1.0
 76
     1
 77
     6
 78
     2
 67
     7
 79
     5
170
     0
171
     0
290
     0
174
     0
 93
       13
 44
0.0
173
     0
291
     1
 45
0.0
1001
ACAD
1000
AcDbSavedByObjectVersion
1070
     0
  0
VISUALSTYLE
  5
E34
102
{ACAD_REACTORS
330
E30
102
}
330
E30
100
AcDbVisualStyle
  2
GouraudWithEdges
 70
     3
 71
     2
 72
     2
 73
     1
 90
        2
 40
-0.6
 41
30.0
 62
     5
 63
     7
421
 16777215
 74
     1
 91
        4
 64
     7
 65
   257
 75
     1
175
     1
 42
1.0
 92
        0
 66
   257
 43
1.0
 76
     1
 77
     6
 78
     2
 67
     7
 79
     5
170
     0
171
     0
290
     0
174
     0
 93
       13
 44
0.0
173
     0
291
     1
 45
0.0
1001
ACAD
1000
AcDbSavedByObjectVersion
1070
     0
  0
VISUALSTYLE
  5
E3E
102
{ACAD_REACTORS
330
E30
102
}
330
E30
100
AcDbVisualStyle
  2
Linepattern
 70
    14
 71
     2
 72
     2
 73
     0
 90
        0
 40
-0.6
 41
-30.0
 62
     5
 63
     7
421
 16777215
 74
     1
 91
        4
 64
     7
 65
   257
 75
     7
175
     7
 42
1.0
 92
        8
 66
     7
 43
1.0
 76
     1
 77
     6
 78
     2
 67
     7
 79
     5
170
     0
171
     0
290
     0
174
     0
 93
        1
 44
0.0
173
     0
291
     1
 45
0.0
1001
ACAD
1000
AcDbSavedByObjectVersion
1070
     0
  0
VISUALSTYLE
  5
E3A
102
{ACAD_REACTORS
330
E30
102
}
330
E30
100
AcDbVisualStyle
  2
Realistic
 70
     8
 71
     2
 72
     2
 73
     0
 90
        0
 40
-0.6
 41
-30.0
 62
     5
 63
     7
421
 16777215
 74
     1
 91
        0
 64
     7
 65
   257
 75
     1
175
     1
 42
1.0
 92
        8
 66
     8
424
  7895160
 43
1.0
 76
     1
 77
     6
 78
     2
 67
     7
 79
     5
170
     0
171
     0
290
     0
174
     0
 93
       13
 44
0.0
173
     0
291
     0
 45
0.0
1001
ACAD
1000
AcDbSavedByObjectVersion
1070
     0
  0
VISUALSTYLE
  5
E3D
102
{ACAD_REACTORS
330
E30
102
}
330
E30
100
AcDbVisualStyle
  2
Thicken
 70
    13
 71
     2
 72
     2
 73
     0
 90
        0
 40
-0.6
 41
-30.0
 62
     5
 63
     7
421
 16777215
 74
     1
 91
        4
 64
     7
 65
   257
 75
     1
175
     1
 42
1.0
 92
       12
 66
     7
 43
1.0
 76
     1
 77
     6
 78
     2
 67
     7
 79
     5
170
     0
171
     0
290
     0
174
     0
 93
        1
 44
0.0
173
     0
291
     1
 45
0.0
1001
ACAD
1000
AcDbSavedByObjectVersion
1070
     0
  0
DICTIONARYVAR
  5
ECB
102
{ACAD_REACTORS
330
193
102
}
330
193
100
DictionaryVariables
280
     0
  1
1:1
  0
DICTIONARYVAR
  5
EC9
102
{ACAD_REACTORS
330
193
102
}
330
193
100
DictionaryVariables
280
     0
  1
STANDARD
  0
DICTIONARYVAR
  5
EC8
102
{ACAD_REACTORS
330
193
102
}
330
193
100
DictionaryVariables
280
     0
  1
STANDARD
  0
DICTIONARYVAR
  5
195
102
{ACAD_REACTORS
330
193
102
}
330
193
100
DictionaryVariables
280
     0
  1
1
  0
DICTIONARYVAR
  5
194
102
{ACAD_REACTORS
330
193
102
}
330
193
100
DictionaryVariables
280
     0
  1
1
  0
DICTIONARYVAR
  5
F97
102
{ACAD_REACTORS
330
193
102
}
330
193
100
DictionaryVariables
280
     0
  1
0
  0
DICTIONARYVAR
  5
ECD
102
{ACAD_REACTORS
330
193
102
}
330
193
100
DictionaryVariables
280
     0
  1
15
  0
DICTIONARYVAR
  5
ECC
102
{ACAD_REACTORS
330
193
102
}
330
193
100
DictionaryVariables
280
     0
  1
0
  0
DICTIONARYVAR
  5
ECA
102
{ACAD_REACTORS
330
193
102
}
330
193
100
DictionaryVariables
280
     0
  1
0
  0
DICTIONARYVAR
  5
C32
102
{ACAD_REACTORS
330
193
102
}
330
193
100
DictionaryVariables
280
     0
  1
1
  0
XRECORD
  5
BBA
102
{ACAD_REACTORS
330
B65
102
}
330
B65
100
AcDbXrecord
280
     1
1000
CHECK_ARC
1000
0280-CheckArc
1070
     4
1000
CONTINUOUS
  0
XRECORD
  5
BA3
102
{ACAD_REACTORS
330
B65
102
}
330
B65
100
AcDbXrecord
280
     1
1000
CHECK_ARC2
1000
0280-CheckArc2
1070
     5
1000
CONTINUOUS
  0
XRECORD
  5
E83
102
{ACAD_REACTORS
330
B65
102
}
330
B65
100
AcDbXrecord
280
     1
1000
CHECK_ARC3
1000
0280-CheckArc3
1070
     5
1000
CONTINUOUS
  0
XRECORD
  5
B98
102
{ACAD_REACTORS
330
B65
102
}
330
B65
100
AcDbXrecord
280
     1
1000
CONTINUATION
1000
0280-PipeContinuation
1070
     3
1000
CONTINUOUS
  0
XRECORD
  5
BC7
102
{ACAD_REACTORS
330
B65
102
}
330
B65
100
AcDbXrecord
280
     1
1000
CONTROLLER
1000
0280-Controller
1070
     3
1000
CONTINUOUS
  0
XRECORD
  5
BB6
102
{ACAD_REACTORS
330
B65
102
}
330
B65
100
AcDbXrecord
280
     1
1000
CONTROLLER2
1000
0280-Controller2
1070
     5
1000
CONTINUOUS
  0
XRECORD
  5
E96
102
{ACAD_REACTORS
330
B65
102
}
330
B65
100
AcDbXrecord
280
     1
1000
CONTROLLER3
1000
0280-Controller3
1070
     5
1000
CONTINUOUS
  0
XRECORD
  5
BC8
102
{ACAD_REACTORS
330
B65
102
}
330
B65
100
AcDbXrecord
280
     1
1000
DEFAULT
1000
0
1070
     6
1000
CONTINUOUS
  0
XRECORD
  5
B84
102
{ACAD_REACTORS
330
B65
102
}
330
B65
100
AcDbXrecord
280
     1
1000
DESIGN_ARC
1000
0280-DesignArc
1070
     9
1000
CONTINUOUS
  0
XRECORD
  5
BA4
102
{ACAD_REACTORS
330
B65
102
}
330
B65
100
AcDbXrecord
280
     1
1000
DESIGN_ARC2
1000
0280-DesignArc2
1070
     8
1000
CONTINUOUS
  0
XRECORD
  5
E84
102
{ACAD_REACTORS
330
B65
102
}
330
B65
100
AcDbXrecord
280
     1
1000
DESIGN_ARC3
1000
0280-DesignArc3
1070
     8
1000
CONTINUOUS
  0
XRECORD
  5
BC2
102
{ACAD_REACTORS
330
B65
102
}
330
B65
100
AcDbXrecord
280
     1
1000
DRIP
1000
0280-Drip
1070
     2
1000
CONTINUOUS
  0
XRECORD
  5
BAC
102
{ACAD_REACTORS
330
B65
102
}
330
B65
100
AcDbXrecord
280
     1
1000
DRIP2
1000
0280-Drip2
1070
     5
1000
CONTINUOUS
  0
XRECORD
  5
E8C
102
{ACAD_REACTORS
330
B65
102
}
330
B65
100
AcDbXrecord
280
     1
1000
DRIP3
1000
0280-Drip3
1070
     5
1000
CONTINUOUS
  0
XRECORD
  5
BC6
102
{ACAD_REACTORS
330
B65
102
}
330
B65
100
AcDbXrecord
280
     1
1000
FITTING
1000
0280-Lateral
1070
     3
1000
CONTINUOUS
  0
XRECORD
  5
BB5
102
{ACAD_REACTORS
330
B65
102
}
330
B65
100
AcDbXrecord
280
     1
1000
FITTING2
1000
0280-Lateral2
1070
     5
1000
CONTINUOUS
  0
XRECORD
  5
E95
102
{ACAD_REACTORS
330
B65
102
}
330
B65
100
AcDbXrecord
280
     1
1000
FITTING3
1000
0280-Lateral3
1070
     5
1000
CONTINUOUS
  0
XRECORD
  5
BC5
102
{ACAD_REACTORS
330
B65
102
}
330
B65
100
AcDbXrecord
280
     1
1000
FLOW
1000
0100-Flow
1070
     3
1000
CONTINUOUS
  0
XRECORD
  5
BB4
102
{ACAD_REACTORS
330
B65
102
}
330
B65
100
AcDbXrecord
280
     1
1000
FLOW2
1000
0100-Flow2
1070
     5
1000
CONTINUOUS
  0
XRECORD
  5
E94
102
{ACAD_REACTORS
330
B65
102
}
330
B65
100
AcDbXrecord
280
     1
1000
FLOW3
1000
0100-Flow3
1070
     5
1000
CONTINUOUS
  0
XRECORD
  5
B9D
102
{ACAD_REACTORS
330
B65
102
}
330
B65
100
AcDbXrecord
280
     1
1000
HPLATERALGC
1000
0280-HPDripGC
1070
     5
1000
HIDDEN2
  0
XRECORD
  5
BB0
102
{ACAD_REACTORS
330
B65
102
}
330
B65
100
AcDbXrecord
280
     1
1000
HPLATERALGC2
1000
0280-HPDripGC2
1070
     6
1000
HIDDEN2
  0
XRECORD
  5
E90
102
{ACAD_REACTORS
330
B65
102
}
330
B65
100
AcDbXrecord
280
     1
1000
HPLATERALGC3
1000
0280-HPDripGC3
1070
     6
1000
HIDDEN2
  0
XRECORD
  5
B9E
102
{ACAD_REACTORS
330
B65
102
}
330
B65
100
AcDbXrecord
280
     1
1000
HPLATERALSHRUBS
1000
0280-HPDripShrubs
1070
     6
1000
CONTINUOUS
  0
XRECORD
  5
BB1
102
{ACAD_REACTORS
330
B65
102
}
330
B65
100
AcDbXrecord
280
     1
1000
HPLATERALSHRUBS2
1000
0280-HPDripShrubs2
1070
     4
1000
CONTINUOUS
  0
XRECORD
  5
E91
102
{ACAD_REACTORS
330
B65
102
}
330
B65
100
AcDbXrecord
280
     1
1000
HPLATERALSHRUBS3
1000
0280-HPDripShrubs3
1070
     4
1000
CONTINUOUS
  0
XRECORD
  5
B9F
102
{ACAD_REACTORS
330
B65
102
}
330
B65
100
AcDbXrecord
280
     1
1000
HPLATERALTREES
1000
0280-HPDripTrees
1070
     4
1000
HIDDEN2
  0
XRECORD
  5
BB2
102
{ACAD_REACTORS
330
B65
102
}
330
B65
100
AcDbXrecord
280
     1
1000
HPLATERALTREES2
1000
0280-HPDripTrees2
1070
     5
1000
HIDDEN2
  0
XRECORD
  5
E92
102
{ACAD_REACTORS
330
B65
102
}
330
B65
100
AcDbXrecord
280
     1
1000
HPLATERALTREES3
1000
0280-HPDripTrees3
1070
     5
1000
HIDDEN2
  0
XRECORD
  5
B9A
102
{ACAD_REACTORS
330
B65
102
}
330
B65
100
AcDbXrecord
280
     1
1000
HPNODEGC
1000
0280-HPDripNodeGC
1070
     5
1000
CONTINUOUS
  0
XRECORD
  5
BAD
102
{ACAD_REACTORS
330
B65
102
}
330
B65
100
AcDbXrecord
280
     1
1000
HPNODEGC2
1000
0280-HPDripNodeGC2
1070
     6
1000
CONTINUOUS
  0
XRECORD
  5
E8D
102
{ACAD_REACTORS
330
B65
102
}
330
B65
100
AcDbXrecord
280
     1
1000
HPNODEGC3
1000
0280-HPDripNodeGC3
1070
     6
1000
CONTINUOUS
  0
XRECORD
  5
B9B
102
{ACAD_REACTORS
330
B65
102
}
330
B65
100
AcDbXrecord
280
     1
1000
HPNODESHRUBS
1000
0280-HPDripNodeShrubs
1070
     6
1000
CONTINUOUS
  0
XRECORD
  5
BAE
102
{ACAD_REACTORS
330
B65
102
}
330
B65
100
AcDbXrecord
280
     1
1000
HPNODESHRUBS2
1000
0280-HPDripNodeShrubs2
1070
     4
1000
CONTINUOUS
  0
XRECORD
  5
E8E
102
{ACAD_REACTORS
330
B65
102
}
330
B65
100
AcDbXrecord
280
     1
1000
HPNODESHRUBS3
1000
0280-HPDripNodeShrubs3
1070
     4
1000
CONTINUOUS
  0
XRECORD
  5
B9C
102
{ACAD_REACTORS
330
B65
102
}
330
B65
100
AcDbXrecord
280
     1
1000
HPNODETREES
1000
0280-HPDripNodeTrees
1070
     4
1000
CONTINUOUS
  0
XRECORD
  5
BAF
102
{ACAD_REACTORS
330
B65
102
}
330
B65
100
AcDbXrecord
280
     1
1000
HPNODETREES2
1000
0280-HPDripNodeTrees2
1070
     5
1000
CONTINUOUS
  0
XRECORD
  5
E8F
102
{ACAD_REACTORS
330
B65
102
}
330
B65
100
AcDbXrecord
280
     1
1000
HPNODETREES3
1000
0280-HPDripNodeTrees3
1070
     5
1000
CONTINUOUS
  0
XRECORD
  5
E9A
102
{ACAD_REACTORS
330
B65
102
}
330
B65
100
AcDbXrecord
280
     1
1000
IDEACATCHCAN
1000
0280-IDEACatchCan
1070
     5
1000
CONTINUOUS
  0
XRECORD
  5
E9B
102
{ACAD_REACTORS
330
B65
102
}
330
B65
100
AcDbXrecord
280
     1
1000
IDEACATCHCAN2
1000
0280-IDEACatchCan2
1070
     3
1000
CONTINUOUS
  0
XRECORD
  5
E9C
102
{ACAD_REACTORS
330
B65
102
}
330
B65
100
AcDbXrecord
280
     1
1000
IDEACATCHCAN3
1000
0280-IDEACatchCan3
1070
     3
1000
CONTINUOUS
  0
XRECORD
  5
E9D
102
{ACAD_REACTORS
330
B65
102
}
330
B65
100
AcDbXrecord
280
     1
1000
IDEANOTE
1000
0280-IDEANote
1070
     5
1000
CONTINUOUS
  0
XRECORD
  5
E9E
102
{ACAD_REACTORS
330
B65
102
}
330
B65
100
AcDbXrecord
280
     1
1000
IDEANOTE2
1000
0280-IDEANote2
1070
     3
1000
CONTINUOUS
  0
XRECORD
  5
E9F
102
{ACAD_REACTORS
330
B65
102
}
330
B65
100
AcDbXrecord
280
     1
1000
IDEANOTE3
1000
0280-IDEANote3
1070
     3
1000
CONTINUOUS
  0
XRECORD
  5
E97
102
{ACAD_REACTORS
330
B65
102
}
330
B65
100
AcDbXrecord
280
     1
1000
IDEAPERIMETER
1000
0280-IDEAPerimeter
1070
     5
1000
HIDDEN2
  0
XRECORD
  5
E98
102
{ACAD_REACTORS
330
B65
102
}
330
B65
100
AcDbXrecord
280
     1
1000
IDEAPERIMETER2
1000
0280-IDEAPerimeter2
1070
     3
1000
HIDDEN2
  0
XRECORD
  5
E99
102
{ACAD_REACTORS
330
B65
102
}
330
B65
100
AcDbXrecord
280
     1
1000
IDEAPERIMETER3
1000
0280-IDEAPerimeter3
1070
     3
1000
HIDDEN2
  0
XRECORD
  5
BBC
102
{ACAD_REACTORS
330
B65
102
}
330
B65
100
AcDbXrecord
280
     1
1000
LABEL
1000
0280-Designator
1070
     1
1000
CONTINUOUS
  0
XRECORD
  5
BA6
102
{ACAD_REACTORS
330
B65
102
}
330
B65
100
AcDbXrecord
280
     1
1000
LABEL2
1000
0280-Designator2
1070
     6
1000
CONTINUOUS
  0
XRECORD
  5
E86
102
{ACAD_REACTORS
330
B65
102
}
330
B65
100
AcDbXrecord
280
     1
1000
LABEL3
1000
0280-Designator3
1070
     6
1000
CONTINUOUS
  0
XRECORD
  5
BC1
102
{ACAD_REACTORS
330
B65
102
}
330
B65
100
AcDbXrecord
280
     1
1000
LATERAL
1000
0280-Lateral
1070
     3
1000
CONTINUOUS
  0
XRECORD
  5
BAB
102
{ACAD_REACTORS
330
B65
102
}
330
B65
100
AcDbXrecord
280
     1
1000
LATERAL2
1000
0280-Lateral2
1070
     5
1000
DASHED
  0
XRECORD
  5
E8B
102
{ACAD_REACTORS
330
B65
102
}
330
B65
100
AcDbXrecord
280
     1
1000
LATERAL3
1000
0280-Lateral3
1070
     5
1000
DASHED
  0
XRECORD
  5
E6D
102
{ACAD_REACTORS
330
B65
102
}
330
B65
100
AcDbXrecord
280
     1
1000
LINESOURCEAREA
1000
0280-LineSourceDripArea
1070
     3
1000
CONTINUOUS
  0
XRECORD
  5
E6E
102
{ACAD_REACTORS
330
B65
102
}
330
B65
100
AcDbXrecord
280
     1
1000
LINESOURCEAREA2
1000
0280-LineSourceDripArea2
1070
     5
1000
CONTINUOUS
  0
XRECORD
  5
E6F
102
{ACAD_REACTORS
330
B65
102
}
330
B65
100
AcDbXrecord
280
     1
1000
LINESOURCEAREA3
1000
0280-LineSourceDripArea3
1070
     5
1000
CONTINUOUS
  0
XRECORD
  5
E79
102
{ACAD_REACTORS
330
B65
102
}
330
B65
100
AcDbXrecord
280
     1
1000
LINESOURCEEMITTER
1000
0280-LineSourceDripEmitterPipe
1070
     8
1000
CONTINUOUS
  0
XRECORD
  5
E7A
102
{ACAD_REACTORS
330
B65
102
}
330
B65
100
AcDbXrecord
280
     1
1000
LINESOURCEEMITTER2
1000
0280-LineSourceDripEmitterPipe2
1070
   253
1000
CONTINUOUS
  0
XRECORD
  5
E7B
102
{ACAD_REACTORS
330
B65
102
}
330
B65
100
AcDbXrecord
280
     1
1000
LINESOURCEEMITTER3
1000
0280-LineSourceDripEmitterPipe3
1070
   253
1000
CONTINUOUS
  0
XRECORD
  5
E73
102
{ACAD_REACTORS
330
B65
102
}
330
B65
100
AcDbXrecord
280
     1
1000
LINESOURCEEXHAUST
1000
0280-LineSourceDripExhaustPipe
1070
     7
1000
CONTINUOUS
  0
XRECORD
  5
E74
102
{ACAD_REACTORS
330
B65
102
}
330
B65
100
AcDbXrecord
280
     1
1000
LINESOURCEEXHAUST2
1000
0280-LineSourceDripExhaustPipe2
1070
     5
1000
CONTINUOUS
  0
XRECORD
  5
E75
102
{ACAD_REACTORS
330
B65
102
}
330
B65
100
AcDbXrecord
280
     1
1000
LINESOURCEEXHAUST3
1000
0280-LineSourceDripExhaustPipe3
1070
     5
1000
CONTINUOUS
  0
XRECORD
  5
E70
102
{ACAD_REACTORS
330
B65
102
}
330
B65
100
AcDbXrecord
280
     1
1000
LINESOURCEHEADER
1000
0280-LineSourceDripHeaderPipe
1070
     7
1000
CONTINUOUS
  0
XRECORD
  5
E71
102
{ACAD_REACTORS
330
B65
102
}
330
B65
100
AcDbXrecord
280
     1
1000
LINESOURCEHEADER2
1000
0280-LineSourceDripHeaderPipe2
1070
     5
1000
CONTINUOUS
  0
XRECORD
  5
E72
102
{ACAD_REACTORS
330
B65
102
}
330
B65
100
AcDbXrecord
280
     1
1000
LINESOURCEHEADER3
1000
0280-LineSourceDripHeaderPipe3
1070
     5
1000
CONTINUOUS
  0
XRECORD
  5
E76
102
{ACAD_REACTORS
330
B65
102
}
330
B65
100
AcDbXrecord
280
     1
1000
LINESOURCEPERIMETER
1000
0280-LineSourceDripPerimeter
1070
     2
1000
HIDDEN2
  0
XRECORD
  5
E77
102
{ACAD_REACTORS
330
B65
102
}
330
B65
100
AcDbXrecord
280
     1
1000
LINESOURCEPERIMETER2
1000
0280-LineSourceDripPerimeter2
1070
     6
1000
HIDDEN2
  0
XRECORD
  5
E78
102
{ACAD_REACTORS
330
B65
102
}
330
B65
100
AcDbXrecord
280
     1
1000
LINESOURCEPERIMETER3
1000
0280-LineSourceDripPerimeter3
1070
     6
1000
HIDDEN2
  0
XRECORD
  5
BBF
102
{ACAD_REACTORS
330
B65
102
}
330
B65
100
AcDbXrecord
280
     1
1000
MAINLINE
1000
0280-Mainline
1070
     1
1000
CONTINUOUS
  0
XRECORD
  5
BA9
102
{ACAD_REACTORS
330
B65
102
}
330
B65
100
AcDbXrecord
280
     1
1000
MAINLINE2
1000
0280-Mainline2
1070
     6
1000
CONTINUOUS
  0
XRECORD
  5
E89
102
{ACAD_REACTORS
330
B65
102
}
330
B65
100
AcDbXrecord
280
     1
1000
MAINLINE3
1000
0280-Mainline3
1070
     6
1000
CONTINUOUS
  0
XRECORD
  5
BC0
102
{ACAD_REACTORS
330
B65
102
}
330
B65
100
AcDbXrecord
280
     1
1000
MANIFOLD
1000
0280-Manifold
1070
     4
1000
CONTINUOUS
  0
XRECORD
  5
BAA
102
{ACAD_REACTORS
330
B65
102
}
330
B65
100
AcDbXrecord
280
     1
1000
MANIFOLD2
1000
0280-Manifold2
1070
     3
1000
CONTINUOUS
  0
XRECORD
  5
E8A
102
{ACAD_REACTORS
330
B65
102
}
330
B65
100
AcDbXrecord
280
     1
1000
MANIFOLD3
1000
0280-Manifold3
1070
     3
1000
CONTINUOUS
  0
XRECORD
  5
B97
102
{ACAD_REACTORS
330
B65
102
}
330
B65
100
AcDbXrecord
280
     1
1000
MARKER
1000
0280-Marker
1070
     6
1000
CONTINUOUS
  0
XRECORD
  5
BC4
102
{ACAD_REACTORS
330
B65
102
}
330
B65
100
AcDbXrecord
280
     1
1000
NOTE
1000
0100-Note
1070
     6
1000
CONTINUOUS
  0
XRECORD
  5
BB8
102
{ACAD_REACTORS
330
B65
102
}
330
B65
100
AcDbXrecord
280
     1
1000
PERIMETER
1000
0100-WID_Perimeter
1070
     8
1000
CONTINUOUS
  0
XRECORD
  5
BA1
102
{ACAD_REACTORS
330
B65
102
}
330
B65
100
AcDbXrecord
280
     1
1000
PERIMETER2
1000
0100-WID_Perimeter2
1070
     9
1000
CONTINUOUS
  0
XRECORD
  5
E81
102
{ACAD_REACTORS
330
B65
102
}
330
B65
100
AcDbXrecord
280
     1
1000
PERIMETER3
1000
0100-WID_Perimeter3
1070
     9
1000
CONTINUOUS
  0
XRECORD
  5
BBD
102
{ACAD_REACTORS
330
B65
102
}
330
B65
100
AcDbXrecord
280
     1
1000
PIPE_SIZE
1000
0280-PipeSize
1070
     2
1000
CONTINUOUS
  0
XRECORD
  5
BA7
102
{ACAD_REACTORS
330
B65
102
}
330
B65
100
AcDbXrecord
280
     1
1000
PIPE_SIZE2
1000
0280-PipeSize2
1070
     4
1000
CONTINUOUS
  0
XRECORD
  5
E87
102
{ACAD_REACTORS
330
B65
102
}
330
B65
100
AcDbXrecord
280
     1
1000
PIPE_SIZE3
1000
0280-PipeSize3
1070
     4
1000
CONTINUOUS
  0
XRECORD
  5
BBE
102
{ACAD_REACTORS
330
B65
102
}
330
B65
100
AcDbXrecord
280
     1
1000
SEGMENTID
1000
0280-PipeSegment
1070
   140
1000
CONTINUOUS
  0
XRECORD
  5
BA8
102
{ACAD_REACTORS
330
B65
102
}
330
B65
100
AcDbXrecord
280
     1
1000
SEGMENTID2
1000
0280-PipeSegment2
1070
    60
1000
CONTINUOUS
  0
XRECORD
  5
E88
102
{ACAD_REACTORS
330
B65
102
}
330
B65
100
AcDbXrecord
280
     1
1000
SEGMENTID3
1000
0280-PipeSegment3
1070
    60
1000
CONTINUOUS
  0
XRECORD
  5
BC3
102
{ACAD_REACTORS
330
B65
102
}
330
B65
100
AcDbXrecord
280
     1
1000
SLEEVE
1000
0280-Sleeve
1070
     2
1000
CONTINUOUS
  0
XRECORD
  5
BB3
102
{ACAD_REACTORS
330
B65
102
}
330
B65
100
AcDbXrecord
280
     1
1000
SLEEVE2
1000
0280-Sleeve2
1070
     5
1000
CONTINUOUS
  0
XRECORD
  5
E93
102
{ACAD_REACTORS
330
B65
102
}
330
B65
100
AcDbXrecord
280
     1
1000
SLEEVE3
1000
0280-Sleeve3
1070
     5
1000
CONTINUOUS
  0
XRECORD
  5
BB9
102
{ACAD_REACTORS
330
B65
102
}
330
B65
100
AcDbXrecord
280
     1
1000
SPRINKLER
1000
0280-Sprinkler
1070
     5
1000
CONTINUOUS
  0
XRECORD
  5
BA2
102
{ACAD_REACTORS
330
B65
102
}
330
B65
100
AcDbXrecord
280
     1
1000
SPRINKLER2
1000
0280-Sprinkler2
1070
     2
1000
CONTINUOUS
  0
XRECORD
  5
E82
102
{ACAD_REACTORS
330
B65
102
}
330
B65
100
AcDbXrecord
280
     1
1000
SPRINKLER3
1000
0280-Sprinkler3
1070
     2
1000
CONTINUOUS
  0
XRECORD
  5
BBB
102
{ACAD_REACTORS
330
B65
102
}
330
B65
100
AcDbXrecord
280
     1
1000
VALVE
1000
0280-Valve
1070
     1
1000
CONTINUOUS
  0
XRECORD
  5
BA5
102
{ACAD_REACTORS
330
B65
102
}
330
B65
100
AcDbXrecord
280
     1
1000
VALVE2
1000
0280-Valve2
1070
     6
1000
CONTINUOUS
  0
XRECORD
  5
E85
102
{ACAD_REACTORS
330
B65
102
}
330
B65
100
AcDbXrecord
280
     1
1000
VALVE3
1000
0280-Valve3
1070
     6
1000
CONTINUOUS
  0
XRECORD
  5
EA6
102
{ACAD_REACTORS
330
EA0
102
}
330
EA0
100
AcDbXrecord
280
     1
1000
Annuals
1040
1.0
1070
    -1
  0
XRECORD
  5
EA2
102
{ACAD_REACTORS
330
EA0
102
}
330
EA0
100
AcDbXrecord
280
     1
1000
Bluegrass
1040
0.9
1070
     0
  0
XRECORD
  5
EA3
102
{ACAD_REACTORS
330
EA0
102
}
330
EA0
100
AcDbXrecord
280
     1
1000
Seed Mix
1040
0.735
1070
     0
  0
XRECORD
  5
EA4
102
{ACAD_REACTORS
330
EA0
102
}
330
EA0
100
AcDbXrecord
280
     1
1000
Shrubs
1040
1.0
1070
    -1
  0
XRECORD
  5
EA5
102
{ACAD_REACTORS
330
EA0
102
}
330
EA0
100
AcDbXrecord
280
     1
1000
Trees
1040
1.0
1070
    -1
  0
XRECORD
  5
E7C
102
{ACAD_REACTORS
330
B64
102
}
330
B64
100
AcDbXrecord
280
     1
1000
True
  0
XRECORD
  5
B85
102
{ACAD_REACTORS
330
B64
102
}
330
B64
100
AcDbXrecord
280
     1
1000
0.78539
  0
XRECORD
  5
B86
102
{ACAD_REACTORS
330
B64
102
}
330
B64
100
AcDbXrecord
280
     1
1000
0.008255
  0
XRECORD
  5
B87
102
{ACAD_REACTORS
330
B64
102
}
330
B64
100
AcDbXrecord
280
     1
1000
0.00381
  0
XRECORD
  5
B88
102
{ACAD_REACTORS
330
B64
102
}
330
B64
100
AcDbXrecord
280
     1
1000
0.0
  0
XRECORD
  5
B89
102
{ACAD_REACTORS
330
B64
102
}
330
B64
100
AcDbXrecord
280
     1
1000
0.00762
  0
XRECORD
  5
B8A
102
{ACAD_REACTORS
330
B64
102
}
330
B64
100
AcDbXrecord
280
     1
1000
True
  0
XRECORD
  5
EA1
102
{ACAD_REACTORS
330
B64
102
}
330
B64
100
AcDbXrecord
280
     1
1000
Bluegrass
  0
XRECORD
  5
E7D
102
{ACAD_REACTORS
330
B64
102
}
330
B64
100
AcDbXrecord
280
     1
1000
True
  0
XRECORD
  5
B8B
102
{ACAD_REACTORS
330
B64
102
}
330
B64
100
AcDbXrecord
280
     1
1000
3.9968
  0
XRECORD
  5
B8C
102
{ACAD_REACTORS
330
B64
102
}
330
B64
100
AcDbXrecord
280
     1
1000
0.00254
  0
XRECORD
  5
B8D
102
{ACAD_REACTORS
330
B64
102
}
330
B64
100
AcDbXrecord
280
     1
1000
0.00254
  0
XRECORD
  5
B8E
102
{ACAD_REACTORS
330
B64
102
}
330
B64
100
AcDbXrecord
280
     1
1000
0.0
  0
XRECORD
  5
B8F
102
{ACAD_REACTORS
330
B64
102
}
330
B64
100
AcDbXrecord
280
     1
1000
0.0012954
  0
XRECORD
  5
B90
102
{ACAD_REACTORS
330
B64
102
}
330
B64
100
AcDbXrecord
280
     1
1000
True
  0
XRECORD
  5
E7E
102
{ACAD_REACTORS
330
B64
102
}
330
B64
100
AcDbXrecord
280
     1
1000
True
  0
XRECORD
  5
B91
102
{ACAD_REACTORS
330
B64
102
}
330
B64
100
AcDbXrecord
280
     1
1000
3.92699
  0
XRECORD
  5
B92
102
{ACAD_REACTORS
330
B64
102
}
330
B64
100
AcDbXrecord
280
     1
1000
0.03175
  0
XRECORD
  5
B93
102
{ACAD_REACTORS
330
B64
102
}
330
B64
100
AcDbXrecord
280
     1
1000
0.0127
  0
XRECORD
  5
B94
102
{ACAD_REACTORS
330
B64
102
}
330
B64
100
AcDbXrecord
280
     1
1000
0.0
  0
XRECORD
  5
B95
102
{ACAD_REACTORS
330
B64
102
}
330
B64
100
AcDbXrecord
280
     1
1000
0.01998
  0
XRECORD
  5
B96
102
{ACAD_REACTORS
330
B64
102
}
330
B64
100
AcDbXrecord
280
     1
1000
True
  0
XRECORD
  5
BB7
102
{ACAD_REACTORS
330
B64
102
}
330
B64
100
AcDbXrecord
280
     1
1000
3.3
  0
XRECORD
  5
F81
102
{ACAD_REACTORS
330
F7E
102
}
330
F7E
100
AcDbXrecord
280
     1
  1
_0100-
  1
*0100-*
  1
*
  1
*
 70
     0
  1
*
  1
*
  0
XRECORD
  5
F80
102
{ACAD_REACTORS
330
F7E
102
}
330
F7E
100
AcDbXrecord
280
     1
  1
_0280-
  1
*0280-*
  1
*
  1
*
 70
     0
  1
*
  1
*
  0
XRECORD
  5
F83
102
{ACAD_REACTORS
330
F7E
102
}
330
F7E
100
AcDbXrecord
280
     1
  1
_Add Alternate
  1
*add*alt*
  1
*
  1
*
 70
     0
  1
*
  1
*
  0
XRECORD
  5
F84
102
{ACAD_REACTORS
330
F7E
102
}
330
F7E
100
AcDbXrecord
280
     1
  1
_Bid Alternate
  1
*bid*alt*
  1
*
  1
*
 70
     0
  1
*
  1
*
  0
XRECORD
  5
F86
102
{ACAD_REACTORS
330
F7E
102
}
330
F7E
100
AcDbXrecord
280
     1
  1
_Color 253
  1
*
  1
253
  1
*
 70
     0
  1
*
  1
*
  0
XRECORD
  5
F82
102
{ACAD_REACTORS
330
F7E
102
}
330
F7E
100
AcDbXrecord
280
     1
  1
_Color 8
  1
*
  1
8
  1
*
 70
     0
  1
*
  1
*
  0
XRECORD
  5
F85
102
{ACAD_REACTORS
330
F7E
102
}
330
F7E
100
AcDbXrecord
280
     1
  1
_Color 84
  1
*
  1
84
  1
*
 70
     0
  1
*
  1
*
  0
XRECORD
  5
F8C
102
{ACAD_REACTORS
330
F7E
102
}
330
F7E
100
AcDbXrecord
280
     1
  1
_Contours
  1
*contour*,*cont-*,*cp cont*,*p-cont*
  1
*
  1
*
 70
     0
  1
*
  1
*
  0
XRECORD
  5
F87
102
{ACAD_REACTORS
330
F7E
102
}
330
F7E
100
AcDbXrecord
280
     1
  1
_Demo
  1
*demo*
  1
*
  1
*
 70
     0
  1
*
  1
*
  0
XRECORD
  5
F88
102
{ACAD_REACTORS
330
F7E
102
}
330
F7E
100
AcDbXrecord
280
     1
  1
_Existing
  1
*exist*,*ex*
  1
*
  1
*
 70
     0
  1
*
  1
*
  0
XRECORD
  5
F8B
102
{ACAD_REACTORS
330
F7E
102
}
330
F7E
100
AcDbXrecord
280
     1
  1
_Hardscape
  1
*sidewalk*,*sw*,*curb*,*walk*,*-lip*,*tbc*
  1
*
  1
*
 70
     0
  1
*
  1
*
  0
XRECORD
  5
F7F
102
{ACAD_REACTORS
330
F7E
102
}
330
F7E
100
AcDbXrecord
280
     1
  1
_NoXref
  1
~*|*
  1
*
  1
*
 70
     0
  1
*
  1
*
  0
XRECORD
  5
F89
102
{ACAD_REACTORS
330
F7E
102
}
330
F7E
100
AcDbXrecord
280
     1
  1
_Row
  1
*row*
  1
*
  1
*
 70
     0
  1
*
  1
*
  0
XRECORD
  5
F8A
102
{ACAD_REACTORS
330
F7E
102
}
330
F7E
100
AcDbXrecord
280
     1
  1
_Utility
  1
*ut-*,*utility*,*wat*
  1
*
  1
*
 70
     0
  1
*
  1
*
  0
DICTIONARY
  5
E21
330
E20
100
AcDbDictionary
280
     1
281
     1
  3
ACAD_XREC_ROUNDTRIP
360
FA3
  3
BUMPTILE
360
E23
  3
DIFFUSETILE
360
E22
  3
OPACITYTILE
360
E26
  3
REFLECTIONTILE
360
E25
  3
REFRACTIONTILE
360
E27
  3
SPECULARTILE
360
E24
  0
DICTIONARY
  5
E19
330
E18
100
AcDbDictionary
280
     1
281
     1
  3
ACAD_XREC_ROUNDTRIP
360
FA2
  3
BUMPTILE
360
E1B
  3
DIFFUSETILE
360
E1A
  3
OPACITYTILE
360
E1E
  3
REFLECTIONTILE
360
E1D
  3
REFRACTIONTILE
360
E1F
  3
SPECULARTILE
360
E1C
  0
DICTIONARY
  5
E29
330
E28
100
AcDbDictionary
280
     1
281
     1
  3
ACAD_XREC_ROUNDTRIP
360
FA4
  3
BUMPTILE
360
E2B
  3
DIFFUSETILE
360
E2A
  3
OPACITYTILE
360
E2E
  3
REFLECTIONTILE
360
E2D
  3
REFRACTIONTILE
360
E2F
  3
SPECULARTILE
360
E2C
  0
DICTIONARY
  5
EC5
330
E43
100
AcDbDictionary
280
     1
281
     1
  3
ACAD_ROUNDTRIP_2008_TABLESTYLE_CELLSTYLEMAP
360
FA1
  3
ACAD_XREC_ROUNDTRIP
360
FA5
  0
XRECORD
  5
FA3
102
{ACAD_REACTORS
330
E21
102
}
330
E21
100
AcDbXrecord
280
     1
102
MATERIAL
148
0.0
149
0.0
149
0.0
 93
        0
 94
      127
282
     0
 72
     0
 77
     0
171
     0
175
     0
179
     0
273
     0
  0
XRECORD
  5
E23
102
{ACAD_REACTORS
330
E21
102
}
330
E21
100
AcDbXrecord
280
     1
270
     1
271
     1
  0
XRECORD
  5
E22
102
{ACAD_REACTORS
330
E21
102
}
330
E21
100
AcDbXrecord
280
     1
270
     1
271
     1
  0
XRECORD
  5
E26
102
{ACAD_REACTORS
330
E21
102
}
330
E21
100
AcDbXrecord
280
     1
270
     1
271
     1
  0
XRECORD
  5
E25
102
{ACAD_REACTORS
330
E21
102
}
330
E21
100
AcDbXrecord
280
     1
270
     1
271
     1
  0
XRECORD
  5
E27
102
{ACAD_REACTORS
330
E21
102
}
330
E21
100
AcDbXrecord
280
     1
270
     1
271
     1
  0
XRECORD
  5
E24
102
{ACAD_REACTORS
330
E21
102
}
330
E21
100
AcDbXrecord
280
     1
270
     1
271
     1
  0
XRECORD
  5
FA2
102
{ACAD_REACTORS
330
E19
102
}
330
E19
100
AcDbXrecord
280
     1
102
MATERIAL
148
0.0
149
0.0
149
0.0
 93
        0
 94
      127
282
     0
 72
     0
 77
     0
171
     0
175
     0
179
     0
273
     0
  0
XRECORD
  5
E1B
102
{ACAD_REACTORS
330
E19
102
}
330
E19
100
AcDbXrecord
280
     1
270
     1
271
     1
  0
XRECORD
  5
E1A
102
{ACAD_REACTORS
330
E19
102
}
330
E19
100
AcDbXrecord
280
     1
270
     1
271
     1
  0
XRECORD
  5
E1E
102
{ACAD_REACTORS
330
E19
102
}
330
E19
100
AcDbXrecord
280
     1
270
     1
271
     1
  0
XRECORD
  5
E1D
102
{ACAD_REACTORS
330
E19
102
}
330
E19
100
AcDbXrecord
280
     1
270
     1
271
     1
  0
XRECORD
  5
E1F
102
{ACAD_REACTORS
330
E19
102
}
330
E19
100
AcDbXrecord
280
     1
270
     1
271
     1
  0
XRECORD
  5
E1C
102
{ACAD_REACTORS
330
E19
102
}
330
E19
100
AcDbXrecord
280
     1
270
     1
271
     1
  0
XRECORD
  5
FA4
102
{ACAD_REACTORS
330
E29
102
}
330
E29
100
AcDbXrecord
280
     1
102
MATERIAL
148
0.0
149
0.0
149
0.0
 93
        0
 94
      127
282
     0
 72
     0
 77
     0
171
     0
175
     0
179
     0
273
     0
  0
XRECORD
  5
E2B
102
{ACAD_REACTORS
330
E29
102
}
330
E29
100
AcDbXrecord
280
     1
270
     1
271
     1
  0
XRECORD
  5
E2A
102
{ACAD_REACTORS
330
E29
102
}
330
E29
100
AcDbXrecord
280
     1
270
     1
271
     1
  0
XRECORD
  5
E2E
102
{ACAD_REACTORS
330
E29
102
}
330
E29
100
AcDbXrecord
280
     1
270
     1
271
     1
  0
XRECORD
  5
E2D
102
{ACAD_REACTORS
330
E29
102
}
330
E29
100
AcDbXrecord
280
     1
270
     1
271
     1
  0
XRECORD
  5
E2F
102
{ACAD_REACTORS
330
E29
102
}
330
E29
100
AcDbXrecord
280
     1
270
     1
271
     1
  0
XRECORD
  5
E2C
102
{ACAD_REACTORS
330
E29
102
}
330
E29
100
AcDbXrecord
280
     1
270
     1
271
     1
  0
CELLSTYLEMAP
  5
FA1
102
{ACAD_REACTORS
330
EC5
102
}
330
EC5
100
AcDbCellStyleMap
 90
        3
300
CELLSTYLE
  1
TABLEFORMAT_BEGIN
 90
        5
170
     1
 91
        0
 92
    32768
 62
   257
 93
        1
300
CONTENTFORMAT
  1
CONTENTFORMAT_BEGIN
 90
        0
 91
        0
 92
      512
 93
        0
300

 40
0.0
140
1.0
 94
        5
 62
     0
340
12
144
0.25
309
CONTENTFORMAT_END
171
     0
 94
        0
309
TABLEFORMAT_END
  1
CELLSTYLE_BEGIN
 90
        1
 91
        1
300
_TITLE
309
CELLSTYLE_END
300
CELLSTYLE
  1
TABLEFORMAT_BEGIN
 90
        5
170
     1
 91
        0
 92
        0
 62
   257
 93
        1
300
CONTENTFORMAT
  1
CONTENTFORMAT_BEGIN
 90
        0
 91
        0
 92
      512
 93
        0
300

 40
0.0
140
1.0
 94
        5
 62
     0
340
12
144
0.18
309
CONTENTFORMAT_END
171
     0
 94
        0
309
TABLEFORMAT_END
  1
CELLSTYLE_BEGIN
 90
        2
 91
        1
300
_HEADER
309
CELLSTYLE_END
300
CELLSTYLE
  1
TABLEFORMAT_BEGIN
 90
        5
170
     1
 91
        0
 92
        0
 62
   257
 93
        1
300
CONTENTFORMAT
  1
CONTENTFORMAT_BEGIN
 90
        0
 91
        0
 92
      512
 93
        0
300

 40
0.0
140
1.0
 94
        2
 62
     0
340
12
144
0.18
309
CONTENTFORMAT_END
171
     0
 94
        0
309
TABLEFORMAT_END
  1
CELLSTYLE_BEGIN
 90
        3
 91
        2
300
_DATA
309
CELLSTYLE_END
  0
XRECORD
  5
FA5
102
{ACAD_REACTORS
330
EC5
102
}
330
EC5
100
AcDbXrecord
280
     1
102
ACAD_ROUNDTRIP_PRE2007_TABLESTYLE
 90
      512
 91
        0
  1

 92
      512
 93
        0
  2

 94
      512
 95
        0
  3

  0
ENDSEC
  0
EOF
