  0
SECTION
  2
HEADER
  9
$ACADVER
  1
AC1018
  9
$ACADMAINTVER
 70
   104
  9
$DWGCODEPAGE
  3
ANSI_1252
  9
$LASTSAVEDBY
  1
dweyer
  9
$INSBASE
 10
0.0
 20
0.0
 30
0.0
  9
$EXTMIN
 10
-0.4984554492313005
 20
-1.274218755967127
 30
0.0
  9
$EXTMAX
 10
9.836131975556137
 20
9.165781244032872
 30
0.03
  9
$LIMMIN
 10
0.0
 20
0.0
  9
$LIMMAX
 10
12.0
 20
9.0
  9
$ORTHOMODE
 70
     0
  9
$REGENMODE
 70
     1
  9
$FILLMODE
 70
     1
  9
$QTEXTMODE
 70
     0
  9
$MIRRTEXT
 70
     0
  9
$LTSCALE
 40
1.0
  9
$ATTMODE
 70
     1
  9
$TEXTSIZE
 40
0.125
  9
$TRACEWID
 40
0.05
  9
$TEXTSTYLE
  7
ROMANS
  9
$CLAYER
  8
0
  9
$CELTYPE
  6
ByLayer
  9
$CECOLOR
 62
   256
  9
$CELTSCALE
 40
1.0
  9
$DISPSILH
 70
     0
  9
$DIMSCALE
 40
1.0
  9
$DIMASZ
 40
0.18
  9
$DIMEXO
 40
0.0625
  9
$DIMDLI
 40
0.38
  9
$DIMRND
 40
0.0
  9
$DIMDLE
 40
0.0
  9
$DIMEXE
 40
0.125
  9
$DIMTP
 40
0.0
  9
$DIMTM
 40
0.0
  9
$DIMTXT
 40
0.125
  9
$DIMCEN
 40
0.09
  9
$DIMTSZ
 40
0.0
  9
$DIMTOL
 70
     0
  9
$DIMLIM
 70
     0
  9
$DIMTIH
 70
     1
  9
$DIMTOH
 70
     1
  9
$DIMSE1
 70
     0
  9
$DIMSE2
 70
     0
  9
$DIMTAD
 70
     0
  9
$DIMZIN
 70
     0
  9
$DIMBLK
  1

  9
$DIMASO
 70
     1
  9
$DIMSHO
 70
     1
  9
$DIMPOST
  1

  9
$DIMAPOST
  1

  9
$DIMALT
 70
     0
  9
$DIMALTD
 70
     2
  9
$DIMALTF
 40
25.4
  9
$DIMLFAC
 40
1.0
  9
$DIMTOFL
 70
     0
  9
$DIMTVP
 40
0.0
  9
$DIMTIX
 70
     0
  9
$DIMSOXD
 70
     0
  9
$DIMSAH
 70
     0
  9
$DIMBLK1
  1

  9
$DIMBLK2
  1

  9
$DIMSTYLE
  2
STANDARD
  9
$DIMCLRD
 70
   256
  9
$DIMCLRE
 70
   256
  9
$DIMCLRT
 70
   256
  9
$DIMTFAC
 40
1.0
  9
$DIMGAP
 40
0.09
  9
$DIMJUST
 70
     0
  9
$DIMSD1
 70
     0
  9
$DIMSD2
 70
     0
  9
$DIMTOLJ
 70
     1
  9
$DIMTZIN
 70
     0
  9
$DIMALTZ
 70
     0
  9
$DIMALTTZ
 70
     0
  9
$DIMUPT
 70
     0
  9
$DIMDEC
 70
     4
  9
$DIMTDEC
 70
     4
  9
$DIMALTU
 70
     2
  9
$DIMALTTD
 70
     2
  9
$DIMTXSTY
  7
Arial
  9
$DIMAUNIT
 70
     0
  9
$DIMADEC
 70
     0
  9
$DIMALTRND
 40
0.0
  9
$DIMAZIN
 70
     0
  9
$DIMDSEP
 70
    46
  9
$DIMATFIT
 70
     3
  9
$DIMFRAC
 70
     0
  9
$DIMLDRBLK
  1

  9
$DIMLUNIT
 70
     2
  9
$DIMLWD
 70
    -1
  9
$DIMLWE
 70
    -1
  9
$DIMTMOVE
 70
     2
  9
$LUNITS
 70
     2
  9
$LUPREC
 70
     3
  9
$SKETCHINC
 40
0.1
  9
$FILLETRAD
 40
0.0
  9
$AUNITS
 70
     0
  9
$AUPREC
 70
     0
  9
$MENU
  1
ACAD
  9
$ELEVATION
 40
0.0
  9
$PELEVATION
 40
0.0
  9
$THICKNESS
 40
0.0
  9
$LIMCHECK
 70
     0
  9
$CHAMFERA
 40
0.0
  9
$CHAMFERB
 40
0.0
  9
$CHAMFERC
 40
0.0
  9
$CHAMFERD
 40
0.0
  9
$SKPOLY
 70
     0
  9
$TDCREATE
 40
2451605.558833901
  9
$TDUCREATE
 40
2451605.850500568
  9
$TDUPDATE
 40
2455218.430590139
  9
$TDUUPDATE
 40
2455218.722256806
  9
$TDINDWG
 40
0.2500068981
  9
$TDUSRTIMER
 40
0.2500068981
  9
$USRTIMER
 70
     1
  9
$ANGBASE
 50
0.0
  9
$ANGDIR
 70
     0
  9
$PDMODE
 70
     0
  9
$PDSIZE
 40
0.0
  9
$PLINEWID
 40
0.0
  9
$SPLFRAME
 70
     0
  9
$SPLINETYPE
 70
     6
  9
$SPLINESEGS
 70
     8
  9
$HANDSEED
  5
19DC
  9
$SURFTAB1
 70
     6
  9
$SURFTAB2
 70
     6
  9
$SURFTYPE
 70
     6
  9
$SURFU
 70
     6
  9
$SURFV
 70
     6
  9
$UCSBASE
  2

  9
$UCSNAME
  2

  9
$UCSORG
 10
0.0
 20
0.0
 30
0.0
  9
$UCSXDIR
 10
1.0
 20
0.0
 30
0.0
  9
$UCSYDIR
 10
0.0
 20
1.0
 30
0.0
  9
$UCSORTHOREF
  2

  9
$UCSORTHOVIEW
 70
     0
  9
$UCSORGTOP
 10
0.0
 20
0.0
 30
0.0
  9
$UCSORGBOTTOM
 10
0.0
 20
0.0
 30
0.0
  9
$UCSORGLEFT
 10
0.0
 20
0.0
 30
0.0
  9
$UCSORGRIGHT
 10
0.0
 20
0.0
 30
0.0
  9
$UCSORGFRONT
 10
0.0
 20
0.0
 30
0.0
  9
$UCSORGBACK
 10
0.0
 20
0.0
 30
0.0
  9
$PUCSBASE
  2

  9
$PUCSNAME
  2

  9
$PUCSORG
 10
0.0
 20
0.0
 30
0.0
  9
$PUCSXDIR
 10
1.0
 20
0.0
 30
0.0
  9
$PUCSYDIR
 10
0.0
 20
1.0
 30
0.0
  9
$PUCSORTHOREF
  2

  9
$PUCSORTHOVIEW
 70
     0
  9
$PUCSORGTOP
 10
0.0
 20
0.0
 30
0.0
  9
$PUCSORGBOTTOM
 10
0.0
 20
0.0
 30
0.0
  9
$PUCSORGLEFT
 10
0.0
 20
0.0
 30
0.0
  9
$PUCSORGRIGHT
 10
0.0
 20
0.0
 30
0.0
  9
$PUCSORGFRONT
 10
0.0
 20
0.0
 30
0.0
  9
$PUCSORGBACK
 10
0.0
 20
0.0
 30
0.0
  9
$USERI1
 70
     0
  9
$USERI2
 70
     0
  9
$USERI3
 70
     0
  9
$USERI4
 70
     0
  9
$USERI5
 70
     0
  9
$USERR1
 40
0.0
  9
$USERR2
 40
0.0
  9
$USERR3
 40
0.0
  9
$USERR4
 40
0.0
  9
$USERR5
 40
0.0
  9
$WORLDVIEW
 70
     1
  9
$SHADEDGE
 70
     3
  9
$SHADEDIF
 70
    70
  9
$TILEMODE
 70
     1
  9
$MAXACTVP
 70
    16
  9
$PINSBASE
 10
0.0
 20
0.0
 30
0.0
  9
$PLIMCHECK
 70
     0
  9
$PEXTMIN
 10
1.000000000000000E+20
 20
1.000000000000000E+20
 30
1.000000000000000E+20
  9
$PEXTMAX
 10
-1.000000000000000E+20
 20
-1.000000000000000E+20
 30
-1.000000000000000E+20
  9
$PLIMMIN
 10
0.0
 20
0.0
  9
$PLIMMAX
 10
12.0
 20
9.0
  9
$UNITMODE
 70
     0
  9
$VISRETAIN
 70
     0
  9
$PLINEGEN
 70
     1
  9
$PSLTSCALE
 70
     1
  9
$TREEDEPTH
 70
  3020
  9
$CMLSTYLE
  2
Standard
  9
$CMLJUST
 70
     0
  9
$CMLSCALE
 40
1.0
  9
$PROXYGRAPHICS
 70
     1
  9
$MEASUREMENT
 70
     0
  9
$CELWEIGHT
370
    -1
  9
$ENDCAPS
280
     0
  9
$JOINSTYLE
280
     0
  9
$LWDISPLAY
290
     0
  9
$INSUNITS
 70
     0
  9
$HYPERLINKBASE
  1

  9
$STYLESHEET
  1
pdf bw shaded.ctb
  9
$XEDIT
290
     1
  9
$CEPSNTYPE
380
     0
  9
$PSTYLEMODE
290
     1
  9
$FINGERPRINTGUID
  2
{809E942E-D3FA-4AF4-BE5E-39ACFC237699}
  9
$VERSIONGUID
  2
{4BF2AB82-3F55-42D1-9901-D7390D81E323}
  9
$EXTNAMES
290
     1
  9
$PSVPSCALE
 40
0.0
  9
$OLESTARTUP
290
     1
  9
$SORTENTS
280
    48
  9
$INDEXCTL
280
     0
  9
$HIDETEXT
280
     1
  9
$XCLIPFRAME
290
     0
  9
$HALOGAP
280
     0
  9
$OBSCOLOR
 70
   257
  9
$OBSLTYPE
280
     0
  9
$INTERSECTIONDISPLAY
280
     0
  9
$INTERSECTIONCOLOR
 70
   257
  9
$DIMASSOC
280
     1
  9
$PROJECTNAME
  1

  0
ENDSEC
  0
SECTION
  2
CLASSES
  0
CLASS
  1
ACDBDICTIONARYWDFLT
  2
AcDbDictionaryWithDefault
  3
ObjectDBX Classes
 90
        0
 91
        1
280
     0
281
     0
  0
CLASS
  1
DICTIONARYVAR
  2
AcDbDictionaryVar
  3
ObjectDBX Classes
 90
        0
 91
       11
280
     0
281
     0
  0
CLASS
  1
MATERIAL
  2
AcDbMaterial
  3
ObjectDBX Classes
 90
     1153
 91
        3
280
     0
281
     0
  0
CLASS
  1
VISUALSTYLE
  2
AcDbVisualStyle
  3
ObjectDBX Classes
 90
     4095
 91
       16
280
     0
281
     0
  0
CLASS
  1
TABLESTYLE
  2
AcDbTableStyle
  3
ObjectDBX Classes
 90
     4095
 91
        1
280
     0
281
     0
  0
CLASS
  1
SCALE
  2
AcDbScale
  3
ObjectDBX Classes
 90
     1153
 91
       33
280
     0
281
     0
  0
CLASS
  1
MLEADERSTYLE
  2
AcDbMLeaderStyle
  3
ACDB_MLEADERSTYLE_CLASS
 90
     4095
 91
        1
280
     0
281
     0
  0
CLASS
  1
EXACXREFPANELOBJECT
  2
ExAcXREFPanelObject
  3
EXAC_ESW
 90
     1025
 91
        0
280
     0
281
     0
  0
CLASS
  1
NPOCOLLECTION
  2
AcDbImpNonPersistentObjectsCollection
  3
ObjectDBX Classes
 90
     1153
 91
        0
280
     0
281
     0
  0
CLASS
  1
PLOTSETTINGS
  2
AcDbPlotSettings
  3
ObjectDBX Classes
 90
        0
 91
       76
280
     0
281
     0
  0
CLASS
  1
LAYER_INDEX
  2
AcDbLayerIndex
  3
ObjectDBX Classes
 90
        0
 91
        0
280
     0
281
     0
  0
CLASS
  1
SPATIAL_INDEX
  2
AcDbSpatialIndex
  3
ObjectDBX Classes
 90
        0
 91
        0
280
     0
281
     0
  0
CLASS
  1
IDBUFFER
  2
AcDbIdBuffer
  3
ObjectDBX Classes
 90
        0
 91
        0
280
     0
281
     0
  0
CLASS
  1
CELLSTYLEMAP
  2
AcDbCellStyleMap
  3
ObjectDBX Classes
 90
     1152
 91
        7
280
     0
281
     0
  0
CLASS
  1
AEC_REFEDIT_STATUS_TRACKER
  2
AecDbRefEditStatusTracker
  3
AecArchBase50|Product Desc: Autodesk Architectural Desktop 2007 |Company: Autodesk,Inc. |WEB Address: www.autodesk.com
 90
      129
 91
        0
280
     0
281
     0
  0
CLASS
  1
SORTENTSTABLE
  2
AcDbSortentsTable
  3
ObjectDBX Classes
 90
        0
 91
        1
280
     0
281
     0
  0
ENDSEC
  0
SECTION
  2
TABLES
  0
TABLE
  2
VPORT
  5
10AB
330
0
100
AcDbSymbolTable
 70
     1
  0
VPORT
  5
11F0
330
10AB
100
AcDbSymbolTableRecord
100
AcDbViewportTableRecord
  2
*Active
 70
     0
 10
0.0
 20
0.0
 11
1.0
 21
1.0
 12
4.668838263162419
 22
3.945781244032871
 13
0.0
 23
0.0
 14
0.14
 24
0.14
 15
0.14
 25
0.14
 16
0.0
 26
0.0
 36
1.0
 17
0.0
 27
0.0
 37
0.0
 40
10.53266272189349
 41
2.308148148148148
 42
50.0
 43
0.0
 44
0.0
 50
0.0
 51
0.0
 71
     0
 72
  4000
 73
     1
 74
     1
 75
     0
 76
     0
 77
     0
 78
     0
281
     0
 65
     1
110
0.0
120
0.0
130
0.0
111
1.0
121
0.0
131
0.0
112
0.0
122
1.0
132
0.0
 79
     0
146
0.0
  0
ENDTAB
  0
TABLE
  2
LTYPE
  5
10A8
330
0
100
AcDbSymbolTable
 70
     1
  0
LTYPE
  5
10B6
330
10A8
100
AcDbSymbolTableRecord
100
AcDbLinetypeTableRecord
  2
ByBlock
 70
     0
  3

 72
    65
 73
     0
 40
0.0
  0
LTYPE
  5
10B7
330
10A8
100
AcDbSymbolTableRecord
100
AcDbLinetypeTableRecord
  2
ByLayer
 70
     0
  3

 72
    65
 73
     0
 40
0.0
  0
LTYPE
  5
10B8
330
10A8
100
AcDbSymbolTableRecord
100
AcDbLinetypeTableRecord
  2
CONTINUOUS
 70
     0
  3
Solid line
 72
    65
 73
     0
 40
0.0
  0
ENDTAB
  0
TABLE
  2
LAYER
  5
10A5
102
{ACAD_XDICTIONARY
360
10EB
102
}
330
0
100
AcDbSymbolTable
 70
     5
  0
LAYER
  5
10B3
330
10A5
100
AcDbSymbolTableRecord
100
AcDbLayerTableRecord
  2
0
 70
     0
 62
     7
  6
CONTINUOUS
370
    -3
390
10B2
  0
LAYER
  5
10CC
330
10A5
100
AcDbSymbolTableRecord
100
AcDbLayerTableRecord
  2
text_bubbles
 70
     0
 62
     6
  6
CONTINUOUS
370
    -3
390
10B2
  0
LAYER
  5
10CD
330
10A5
100
AcDbSymbolTableRecord
100
AcDbLayerTableRecord
  2
image
 70
     0
 62
     7
  6
CONTINUOUS
370
    -3
390
10B2
  0
LAYER
  5
118F
330
10A5
100
AcDbSymbolTableRecord
100
AcDbLayerTableRecord
  2
title
 70
     0
 62
     4
  6
CONTINUOUS
370
    -3
390
10B2
  0
ENDTAB
  0
TABLE
  2
STYLE
  5
10A6
330
0
100
AcDbSymbolTable
 70
     7
  0
STYLE
  5
10B4
330
10A6
100
AcDbSymbolTableRecord
100
AcDbTextStyleTableRecord
  2
STANDARD
 70
     0
 40
0.0
 41
1.0
 50
0.0
 71
     0
 42
0.2
  3
txt
  4

  0
STYLE
  5
10C7
330
10A6
100
AcDbSymbolTableRecord
100
AcDbTextStyleTableRecord
  2
ROMANS
 70
     0
 40
0.0
 41
1.0
 50
0.0
 71
     0
 42
0.125
  3
ROMANS.SHX
  4

  0
STYLE
  5
10C8
330
10A6
100
AcDbSymbolTableRecord
100
AcDbTextStyleTableRecord
  2
SIMPLEX
 70
     0
 40
0.0
 41
1.0
 50
0.0
 71
     0
 42
0.125
  3
SIMPLEX
  4

  0
STYLE
  5
1190
330
10A6
100
AcDbSymbolTableRecord
100
AcDbTextStyleTableRecord
  2
L100
 70
     0
 40
0.1
 41
1.0
 50
0.0
 71
     0
 42
0.1
  3
romans.shx
  4

  0
STYLE
  5
1191
330
10A6
100
AcDbSymbolTableRecord
100
AcDbTextStyleTableRecord
  2
L200
 70
     0
 40
0.2
 41
1.0
 50
0.0
 71
     0
 42
0.081
  3
ARIAL.TTF
  4

1001
ACAD
1000
Arial
1071
       34
  0
STYLE
  5
1192
330
10A6
100
AcDbSymbolTableRecord
100
AcDbTextStyleTableRecord
  2
L80
 70
     0
 40
0.08
 41
1.0
 50
0.0
 71
     0
 42
0.08
  3
ROMANS
  4

  0
STYLE
  5
1345
330
10A6
100
AcDbSymbolTableRecord
100
AcDbTextStyleTableRecord
  2
Arial
 70
     0
 40
0.0
 41
1.0
 50
0.0
 71
     0
 42
0.125
  3
ARIAL.TTF
  4

1001
ACAD
1000
Arial
1071
       34
  0
ENDTAB
  0
TABLE
  2
VIEW
  5
10A9
330
0
100
AcDbSymbolTable
 70
     0
  0
ENDTAB
  0
TABLE
  2
UCS
  5
10AA
330
0
100
AcDbSymbolTable
 70
     0
  0
ENDTAB
  0
TABLE
  2
APPID
  5
10AC
330
0
100
AcDbSymbolTable
 70
    14
  0
APPID
  5
10B5
330
10AC
100
AcDbSymbolTableRecord
100
AcDbRegAppTableRecord
  2
ACAD
 70
     0
  0
APPID
  5
10CA
330
10AC
100
AcDbSymbolTableRecord
100
AcDbRegAppTableRecord
  2
ABNSLEADERTOOLS
 70
     0
  0
APPID
  5
1193
330
10AC
100
AcDbSymbolTableRecord
100
AcDbRegAppTableRecord
  2
RAK
 70
     0
  0
APPID
  5
1194
330
10AC
100
AcDbSymbolTableRecord
100
AcDbRegAppTableRecord
  2
DCO15
 70
     0
  0
APPID
  5
1243
330
10AC
100
AcDbSymbolTableRecord
100
AcDbRegAppTableRecord
  2
ACAD_MLEADERVER
 70
     0
  0
APPID
  5
1257
330
10AC
100
AcDbSymbolTableRecord
100
AcDbRegAppTableRecord
  2
ACAD_PSEXT
 70
     0
  0
APPID
  5
12D8
330
10AC
100
AcDbSymbolTableRecord
100
AcDbRegAppTableRecord
  2
ACAD_EXEMPT_FROM_CAD_STANDARDS
 70
     0
  0
APPID
  5
1346
330
10AC
100
AcDbSymbolTableRecord
100
AcDbRegAppTableRecord
  2
BBSI_PltSel
 70
     0
  0
APPID
  5
1347
330
10AC
100
AcDbSymbolTableRecord
100
AcDbRegAppTableRecord
  2
BBSI_Plots
 70
     0
  0
APPID
  5
1348
330
10AC
100
AcDbSymbolTableRecord
100
AcDbRegAppTableRecord
  2
BBSI_Bookmarks
 70
     0
  0
APPID
  5
1349
330
10AC
100
AcDbSymbolTableRecord
100
AcDbRegAppTableRecord
  2
BBSI_BookmarksEx
 70
     0
  0
APPID
  5
135A
330
10AC
100
AcDbSymbolTableRecord
100
AcDbRegAppTableRecord
  2
BBSI_StampsEx
 70
     0
  0
APPID
  5
135B
330
10AC
100
AcDbSymbolTableRecord
100
AcDbRegAppTableRecord
  2
BBSI_Attachs
 70
     0
  0
APPID
  5
135C
330
10AC
100
AcDbSymbolTableRecord
100
AcDbRegAppTableRecord
  2
BBSI_DigSigs
 70
     0
  0
ENDTAB
  0
TABLE
  2
DIMSTYLE
  5
10AD
330
0
100
AcDbSymbolTable
 70
     1
100
AcDbDimStyleTable
 71
     1
340
10CB
  0
DIMSTYLE
105
10CB
330
10AD
100
AcDbSymbolTableRecord
100
AcDbDimStyleTableRecord
  2
STANDARD
 70
     0
279
     2
340
10B4
  0
ENDTAB
  0
TABLE
  2
BLOCK_RECORD
  5
10A4
330
0
100
AcDbSymbolTable
 70
     2
  0
BLOCK_RECORD
  5
10C1
102
{ACAD_XDICTIONARY
360
12AB
102
}
330
10A4
100
AcDbSymbolTableRecord
100
AcDbBlockTableRecord
  2
*Model_Space
340
10C4
  0
BLOCK_RECORD
  5
10BD
330
10A4
100
AcDbSymbolTableRecord
100
AcDbBlockTableRecord
  2
*Paper_Space
340
10C0
  0
BLOCK_RECORD
  5
10C5
330
10A4
100
AcDbSymbolTableRecord
100
AcDbBlockTableRecord
  2
*U0
340
0
102
{BLKREFS
331
9BB
102
}
  0
BLOCK_RECORD
  5
1195
102
{ACAD_XDICTIONARY
360
1316
102
}
330
10A4
100
AcDbSymbolTableRecord
100
AcDbBlockTableRecord
  2
titleblock
340
0
102
{BLKREFS
331
11A4
102
}
  0
ENDTAB
  0
ENDSEC
  0
SECTION
  2
BLOCKS
  0
BLOCK
  5
10D6
330
10C1
100
AcDbEntity
  8
0
100
AcDbBlockBegin
  2
*Model_Space
 70
     0
 10
0.0
 20
0.0
 30
0.0
  3
*Model_Space
  1

  0
ENDBLK
  5
10D7
330
10C1
100
AcDbEntity
  8
0
100
AcDbBlockEnd
  0
BLOCK
  5
10D4
330
10BD
100
AcDbEntity
 67
     1
  8
0
100
AcDbBlockBegin
  2
*Paper_Space
 70
     0
 10
0.0
 20
0.0
 30
0.0
  3
*Paper_Space
  1

  0
ENDBLK
  5
10D5
330
10BD
100
AcDbEntity
 67
     1
  8
0
100
AcDbBlockEnd
  0
BLOCK
  5
1009
330
10C5
100
AcDbEntity
  8
0
100
AcDbBlockBegin
  2
*U0
 70
     1
 10
0.0
 20
0.0
 30
0.0
  3
*U0
  1

  0
SOLID
  5
F89
330
10C5
100
AcDbEntity
  8
0
  6
Continuous
100
AcDbTrace
 10
3.52560214138319
 20
4.743065616962137
 30
0.0
 11
3.533975430180516
 21
4.742719295175727
 31
0.0
 12
3.545766839806102
 22
4.743062390154575
 32
0.0
 13
3.545766839806102
 23
4.743062390154575
 33
0.0
  0
SOLID
  5
F8A
330
10C5
100
AcDbEntity
  8
0
  6
Continuous
100
AcDbTrace
 10
3.557518351033997
 20
4.744090514166313
 30
0.0
 11
3.52560214138319
 21
4.743065616962137
 31
0.0
 12
3.545766839806102
 22
4.743062390154575
 32
0.0
 13
3.545766839806102
 23
4.743062390154575
 33
0.0
  0
SOLID
  5
F8B
330
10C5
100
AcDbEntity
  8
0
  6
Continuous
100
AcDbTrace
 10
3.517286050638753
 20
4.744102216592396
 30
0.0
 11
3.52560214138319
 21
4.743065616962137
 31
0.0
 12
3.557518351033997
 22
4.744090514166313
 32
0.0
 13
3.557518351033997
 23
4.744090514166313
 33
0.0
  0
SOLID
  5
F8C
330
10C5
100
AcDbEntity
  8
0
  6
Continuous
100
AcDbTrace
 10
3.569190200470061
 20
4.745800188364732
 30
0.0
 11
3.517286050638753
 21
4.744102216592396
 31
0.0
 12
3.557518351033997
 22
4.744090514166313
 32
0.0
 13
3.557518351033997
 23
4.744090514166313
 33
0.0
  0
SOLID
  5
F8D
330
10C5
100
AcDbEntity
  8
0
  6
Continuous
100
AcDbTrace
 10
3.509083965279394
 20
4.745822013039933
 30
0.0
 11
3.517286050638753
 21
4.744102216592396
 31
0.0
 12
3.569190200470061
 22
4.745800188364732
 32
0.0
 13
3.569190200470061
 23
4.745800188364732
 33
0.0
  0
SOLID
  5
F8E
330
10C5
100
AcDbEntity
  8
0
  6
Continuous
100
AcDbTrace
 10
3.580742894270437
 20
4.748185627753528
 30
0.0
 11
3.509083965279394
 21
4.745822013039933
 31
0.0
 12
3.569190200470061
 22
4.745800188364732
 32
0.0
 13
3.569190200470061
 23
4.745800188364732
 33
0.0
  0
SOLID
  5
F8F
330
10C5
100
AcDbEntity
  8
0
  6
Continuous
100
AcDbTrace
 10
3.501051913864924
 20
4.74821325835116
 30
0.0
 11
3.509083965279394
 21
4.745822013039933
 31
0.0
 12
3.580742894270437
 22
4.748185627753528
 32
0.0
 13
3.580742894270437
 23
4.748185627753528
 33
0.0
  0
SOLID
  5
F90
330
10C5
100
AcDbEntity
  8
0
  6
Continuous
100
AcDbTrace
 10
3.592137341776225
 20
4.751238760760903
 30
0.0
 11
3.501051913864924
 21
4.74821325835116
 31
0.0
 12
3.580742894270437
 22
4.748185627753528
 32
0.0
 13
3.580742894270437
 23
4.748185627753528
 33
0.0
  0
SOLID
  5
F91
330
10C5
100
AcDbEntity
  8
0
  6
Continuous
100
AcDbTrace
 10
3.493244763450895
 20
4.751259617895911
 30
0.0
 11
3.501051913864924
 21
4.74821325835116
 31
0.0
 12
3.592137341776225
 22
4.751238760760903
 32
0.0
 13
3.592137341776225
 23
4.751238760760903
 33
0.0
  0
SOLID
  5
F92
330
10C5
100
AcDbEntity
  8
0
  6
Continuous
100
AcDbTrace
 10
3.485715844790982
 20
4.754940281949528
 30
0.0
 11
3.493244763450895
 21
4.751259617895911
 31
0.0
 12
3.592137341776225
 22
4.751238760760903
 32
0.0
 13
3.592137341776225
 23
4.751238760760903
 33
0.0
  0
SOLID
  5
F93
330
10C5
100
AcDbEntity
  8
0
  6
Continuous
100
AcDbTrace
 10
3.603334987783891
 20
4.754949256551205
 30
0.0
 11
3.485715844790982
 21
4.754940281949528
 31
0.0
 12
3.592137341776225
 22
4.751238760760903
 32
0.0
 13
3.592137341776225
 23
4.751238760760903
 33
0.0
  0
SOLID
  5
F94
330
10C5
100
AcDbEntity
  8
0
  6
Continuous
100
AcDbTrace
 10
3.478516588033856
 20
4.759230107844379
 30
0.0
 11
3.485715844790982
 21
4.754940281949528
 31
0.0
 12
3.603334987783891
 22
4.754949256551205
 32
0.0
 13
3.603334987783891
 23
4.754949256551205
 33
0.0
  0
SOLID
  5
F95
330
10C5
100
AcDbEntity
  8
0
  6
Continuous
100
AcDbTrace
 10
3.614297943003879
 20
4.759304559981211
 30
0.0
 11
3.478516588033856
 21
4.759230107844379
 31
0.0
 12
3.603334987783891
 22
4.754949256551205
 32
0.0
 13
3.603334987783891
 23
4.754949256551205
 33
0.0
  0
SOLID
  5
F96
330
10C5
100
AcDbEntity
  8
0
  6
Continuous
100
AcDbTrace
 10
3.471696171403118
 20
4.764099791719776
 30
0.0
 11
3.478516588033856
 21
4.759230107844379
 31
0.0
 12
3.614297943003879
 22
4.759304559981211
 32
0.0
 13
3.614297943003879
 23
4.759304559981211
 33
0.0
  0
SOLID
  5
F97
330
10C5
100
AcDbEntity
  8
0
  6
Continuous
100
AcDbTrace
 10
3.624989112265963
 20
4.764289934082753
 30
0.0
 11
3.471696171403118
 21
4.764099791719776
 31
0.0
 12
3.614297943003879
 22
4.759304559981211
 32
0.0
 13
3.614297943003879
 23
4.759304559981211
 33
0.0
  0
SOLID
  5
F98
330
10C5
100
AcDbEntity
  8
0
  6
Continuous
100
AcDbTrace
 10
3.465301185260166
 20
4.769516068697058
 30
0.0
 11
3.471696171403118
 21
4.764099791719776
 31
0.0
 12
3.624989112265963
 22
4.764289934082753
 32
0.0
 13
3.624989112265963
 23
4.764289934082753
 33
0.0
  0
SOLID
  5
F99
330
10C5
100
AcDbEntity
  8
0
  6
Continuous
100
AcDbTrace
 10
3.635372320037573
 20
4.769888509927953
 30
0.0
 11
3.465301185260166
 21
4.769516068697058
 31
0.0
 12
3.624989112265963
 22
4.764289934082753
 32
0.0
 13
3.624989112265963
 23
4.764289934082753
 33
0.0
  0
SOLID
  5
F9A
330
10C5
100
AcDbEntity
  8
0
  6
Continuous
100
AcDbTrace
 10
3.459375313844789
 20
4.775441940112435
 30
0.0
 11
3.465301185260166
 21
4.769516068697058
 31
0.0
 12
3.635372320037573
 22
4.769888509927953
 32
0.0
 13
3.635372320037573
 23
4.769888509927953
 33
0.0
  0
SOLID
  5
F9B
330
10C5
100
AcDbEntity
  8
0
  6
Continuous
100
AcDbTrace
 10
3.645412432830335
 20
4.776081343708339
 30
0.0
 11
3.459375313844789
 21
4.775441940112435
 31
0.0
 12
3.635372320037573
 22
4.769888509927953
 32
0.0
 13
3.635372320037573
 23
4.769888509927953
 33
0.0
  0
SOLID
  5
F9C
330
10C5
100
AcDbEntity
  8
0
  6
Continuous
100
AcDbTrace
 10
3.453959036867508
 20
4.781836926255386
 30
0.0
 11
3.459375313844789
 21
4.775441940112435
 31
0.0
 12
3.645412432830335
 22
4.776081343708339
 32
0.0
 13
3.645412432830335
 23
4.776081343708339
 33
0.0
  0
SOLID
  5
F9D
330
10C5
100
AcDbEntity
  8
0
  6
Continuous
100
AcDbTrace
 10
3.655075478080681
 20
4.782847480834693
 30
0.0
 11
3.453959036867508
 21
4.781836926255386
 31
0.0
 12
3.645412432830335
 22
4.776081343708339
 32
0.0
 13
3.645412432830335
 23
4.776081343708339
 33
0.0
  0
SOLID
  5
F9E
330
10C5
100
AcDbEntity
  8
0
  6
Continuous
100
AcDbTrace
 10
3.44908935299211
 20
4.788657342886125
 30
0.0
 11
3.453959036867508
 21
4.781836926255386
 31
0.0
 12
3.655075478080681
 22
4.782847480834693
 32
0.0
 13
3.655075478080681
 23
4.782847480834693
 33
0.0
  0
SOLID
  5
F9F
330
10C5
100
AcDbEntity
  8
0
  6
Continuous
100
AcDbTrace
 10
3.66432875910225
 20
4.79016402684075
 30
0.0
 11
3.44908935299211
 21
4.788657342886125
 31
0.0
 12
3.655075478080681
 22
4.782847480834693
 32
0.0
 13
3.655075478080681
 23
4.782847480834693
 33
0.0
  0
SOLID
  5
FA0
330
10C5
100
AcDbEntity
  8
0
  6
Continuous
100
AcDbTrace
 10
3.444799527097258
 20
4.795856599643251
 30
0.0
 11
3.44908935299211
 21
4.788657342886125
 31
0.0
 12
3.66432875910225
 22
4.79016402684075
 32
0.0
 13
3.66432875910225
 23
4.79016402684075
 33
0.0
  0
SOLID
  5
FA1
330
10C5
100
AcDbEntity
  8
0
  6
Continuous
100
AcDbTrace
 10
3.673140965721121
 20
4.798006224850824
 30
0.0
 11
3.444799527097258
 21
4.795856599643251
 31
0.0
 12
3.66432875910225
 22
4.79016402684075
 32
0.0
 13
3.66432875910225
 23
4.79016402684075
 33
0.0
  0
SOLID
  5
FA2
330
10C5
100
AcDbEntity
  8
0
  6
Continuous
100
AcDbTrace
 10
3.441118863043642
 20
4.803385518303164
 30
0.0
 11
3.444799527097258
 21
4.795856599643251
 31
0.0
 12
3.673140965721121
 22
4.798006224850824
 32
0.0
 13
3.673140965721121
 23
4.798006224850824
 33
0.0
  0
SOLID
  5
FA3
330
10C5
100
AcDbEntity
  8
0
  6
Continuous
100
AcDbTrace
 10
3.681482280219534
 20
4.806347539349236
 30
0.0
 11
3.441118863043642
 21
4.803385518303164
 31
0.0
 12
3.673140965721121
 22
4.798006224850824
 32
0.0
 13
3.673140965721121
 23
4.798006224850824
 33
0.0
  0
SOLID
  5
FA4
330
10C5
100
AcDbEntity
  8
0
  6
Continuous
100
AcDbTrace
 10
3.438072503498891
 20
4.811192668717192
 30
0.0
 11
3.441118863043642
 21
4.803385518303164
 31
0.0
 12
3.681482280219534
 22
4.806347539349236
 32
0.0
 13
3.681482280219534
 23
4.806347539349236
 33
0.0
  0
SOLID
  5
FA5
330
10C5
100
AcDbEntity
  8
0
  6
Continuous
100
AcDbTrace
 10
3.689324478229607
 20
4.815159745968108
 30
0.0
 11
3.438072503498891
 21
4.811192668717192
 31
0.0
 12
3.681482280219534
 22
4.806347539349236
 32
0.0
 13
3.681482280219534
 23
4.806347539349236
 33
0.0
  0
SOLID
  5
FA6
330
10C5
100
AcDbEntity
  8
0
  6
Continuous
100
AcDbTrace
 10
3.435681258187664
 20
4.819224720131663
 30
0.0
 11
3.438072503498891
 21
4.811192668717192
 31
0.0
 12
3.689324478229607
 22
4.815159745968108
 32
0.0
 13
3.689324478229607
 23
4.815159745968108
 33
0.0
  0
SOLID
  5
FA7
330
10C5
100
AcDbEntity
  8
0
  6
Continuous
100
AcDbTrace
 10
3.696641024235664
 20
4.824413026989676
 30
0.0
 11
3.435681258187664
 21
4.819224720131663
 31
0.0
 12
3.689324478229607
 22
4.815159745968108
 32
0.0
 13
3.689324478229607
 23
4.815159745968108
 33
0.0
  0
SOLID
  5
FA8
330
10C5
100
AcDbEntity
  8
0
  6
Continuous
100
AcDbTrace
 10
3.433961461740127
 20
4.827426805491022
 30
0.0
 11
3.435681258187664
 21
4.819224720131663
 31
0.0
 12
3.696641024235664
 22
4.824413026989676
 32
0.0
 13
3.696641024235664
 23
4.824413026989676
 33
0.0
  0
SOLID
  5
FA9
330
10C5
100
AcDbEntity
  8
0
  6
Continuous
100
AcDbTrace
 10
3.703407161362018
 20
4.834076072240022
 30
0.0
 11
3.433961461740127
 21
4.827426805491022
 31
0.0
 12
3.696641024235664
 22
4.824413026989676
 32
0.0
 13
3.696641024235664
 23
4.824413026989676
 33
0.0
  0
SOLID
  5
FAA
330
10C5
100
AcDbEntity
  8
0
  6
Continuous
100
AcDbTrace
 10
3.432924862109867
 20
4.835742896235458
 30
0.0
 11
3.433961461740127
 21
4.827426805491022
 31
0.0
 12
3.703407161362018
 22
4.834076072240022
 32
0.0
 13
3.703407161362018
 23
4.834076072240022
 33
0.0
  0
SOLID
  5
FAB
330
10C5
100
AcDbEntity
  8
0
  6
Continuous
100
AcDbTrace
 10
3.709599995142404
 20
4.844116185032785
 30
0.0
 11
3.432924862109867
 21
4.835742896235458
 31
0.0
 12
3.703407161362018
 22
4.834076072240022
 32
0.0
 13
3.703407161362018
 23
4.834076072240022
 33
0.0
  0
SOLID
  5
FAC
330
10C5
100
AcDbEntity
  8
0
  6
Continuous
100
AcDbTrace
 10
3.432578540323459
 20
4.844116185032785
 30
0.0
 11
3.432924862109867
 21
4.835742896235458
 31
0.0
 12
3.709599995142404
 22
4.844116185032785
 32
0.0
 13
3.709599995142404
 23
4.844116185032785
 33
0.0
  0
SOLID
  5
FAD
330
10C5
100
AcDbEntity
  8
0
  6
Continuous
100
AcDbTrace
 10
3.432924862109867
 20
4.852489473830111
 30
0.0
 11
3.432578540323459
 21
4.844116185032785
 31
0.0
 12
3.709599995142404
 22
4.844116185032785
 32
0.0
 13
3.709599995142404
 23
4.844116185032785
 33
0.0
  0
SOLID
  5
FAE
330
10C5
100
AcDbEntity
  8
0
  6
Continuous
100
AcDbTrace
 10
3.715198570987604
 20
4.854499392804394
 30
0.0
 11
3.432924862109867
 21
4.852489473830111
 31
0.0
 12
3.709599995142404
 22
4.844116185032785
 32
0.0
 13
3.709599995142404
 23
4.844116185032785
 33
0.0
  0
SOLID
  5
FAF
330
10C5
100
AcDbEntity
  8
0
  6
Continuous
100
AcDbTrace
 10
3.433961461740127
 20
4.860805564574548
 30
0.0
 11
3.432924862109867
 21
4.852489473830111
 31
0.0
 12
3.715198570987604
 22
4.854499392804394
 32
0.0
 13
3.715198570987604
 23
4.854499392804394
 33
0.0
  0
SOLID
  5
FB0
330
10C5
100
AcDbEntity
  8
0
  6
Continuous
100
AcDbTrace
 10
3.720183945089146
 20
4.865190562066478
 30
0.0
 11
3.433961461740127
 21
4.860805564574548
 31
0.0
 12
3.715198570987604
 22
4.854499392804394
 32
0.0
 13
3.715198570987604
 23
4.854499392804394
 33
0.0
  0
SOLID
  5
FB1
330
10C5
100
AcDbEntity
  8
0
  6
Continuous
100
AcDbTrace
 10
3.435681258187664
 20
4.869007649933906
 30
0.0
 11
3.433961461740127
 21
4.860805564574548
 31
0.0
 12
3.720183945089146
 22
4.865190562066478
 32
0.0
 13
3.720183945089146
 23
4.865190562066478
 33
0.0
  0
SOLID
  5
FB2
330
10C5
100
AcDbEntity
  8
0
  6
Continuous
100
AcDbTrace
 10
3.724539248519152
 20
4.876153517286466
 30
0.0
 11
3.435681258187664
 21
4.869007649933906
 31
0.0
 12
3.720183945089146
 22
4.865190562066478
 32
0.0
 13
3.720183945089146
 23
4.865190562066478
 33
0.0
  0
SOLID
  5
FB3
330
10C5
100
AcDbEntity
  8
0
  6
Continuous
100
AcDbTrace
 10
3.438072503498891
 20
4.877039701348377
 30
0.0
 11
3.435681258187664
 21
4.869007649933906
 31
0.0
 12
3.724539248519152
 22
4.876153517286466
 32
0.0
 13
3.724539248519152
 23
4.876153517286466
 33
0.0
  0
SOLID
  5
FB4
330
10C5
100
AcDbEntity
  8
0
  6
Continuous
100
AcDbTrace
 10
3.441118863043642
 20
4.884846851762405
 30
0.0
 11
3.438072503498891
 21
4.877039701348377
 31
0.0
 12
3.724539248519152
 22
4.876153517286466
 32
0.0
 13
3.724539248519152
 23
4.876153517286466
 33
0.0
  0
SOLID
  5
FB5
330
10C5
100
AcDbEntity
  8
0
  6
Continuous
100
AcDbTrace
 10
3.728249744309455
 20
4.887351163294133
 30
0.0
 11
3.441118863043642
 21
4.884846851762405
 31
0.0
 12
3.724539248519152
 22
4.876153517286466
 32
0.0
 13
3.724539248519152
 23
4.876153517286466
 33
0.0
  0
SOLID
  5
FB6
330
10C5
100
AcDbEntity
  8
0
  6
Continuous
100
AcDbTrace
 10
3.444799527097258
 20
4.892375770422319
 30
0.0
 11
3.441118863043642
 21
4.884846851762405
 31
0.0
 12
3.728249744309455
 22
4.887351163294133
 32
0.0
 13
3.728249744309455
 23
4.887351163294133
 33
0.0
  0
SOLID
  5
FB7
330
10C5
100
AcDbEntity
  8
0
  6
Continuous
100
AcDbTrace
 10
3.73130287731683
 20
4.89874561079992
 30
0.0
 11
3.444799527097258
 21
4.892375770422319
 31
0.0
 12
3.728249744309455
 22
4.887351163294133
 32
0.0
 13
3.728249744309455
 23
4.887351163294133
 33
0.0
  0
SOLID
  5
FB8
330
10C5
100
AcDbEntity
  8
0
  6
Continuous
100
AcDbTrace
 10
3.44908935299211
 20
4.899575027179444
 30
0.0
 11
3.444799527097258
 21
4.892375770422319
 31
0.0
 12
3.73130287731683
 22
4.89874561079992
 32
0.0
 13
3.73130287731683
 23
4.89874561079992
 33
0.0
  0
SOLID
  5
FB9
330
10C5
100
AcDbEntity
  8
0
  6
Continuous
100
AcDbTrace
 10
3.453959036867508
 20
4.906395443810183
 30
0.0
 11
3.44908935299211
 21
4.899575027179444
 31
0.0
 12
3.73130287731683
 22
4.89874561079992
 32
0.0
 13
3.73130287731683
 23
4.89874561079992
 33
0.0
  0
SOLID
  5
FBA
330
10C5
100
AcDbEntity
  8
0
  6
Continuous
100
AcDbTrace
 10
3.733688316705626
 20
4.910298304600297
 30
0.0
 11
3.453959036867508
 21
4.906395443810183
 31
0.0
 12
3.73130287731683
 22
4.89874561079992
 32
0.0
 13
3.73130287731683
 23
4.89874561079992
 33
0.0
  0
SOLID
  5
FBB
330
10C5
100
AcDbEntity
  8
0
  6
Continuous
100
AcDbTrace
 10
3.459375313844789
 20
4.912790429953135
 30
0.0
 11
3.453959036867508
 21
4.906395443810183
 31
0.0
 12
3.733688316705626
 22
4.910298304600297
 32
0.0
 13
3.733688316705626
 23
4.910298304600297
 33
0.0
  0
SOLID
  5
FBC
330
10C5
100
AcDbEntity
  8
0
  6
Continuous
100
AcDbTrace
 10
3.465301185260166
 20
4.918716301368512
 30
0.0
 11
3.459375313844789
 21
4.912790429953135
 31
0.0
 12
3.733688316705626
 22
4.910298304600297
 32
0.0
 13
3.733688316705626
 23
4.910298304600297
 33
0.0
  0
SOLID
  5
FBD
330
10C5
100
AcDbEntity
  8
0
  6
Continuous
100
AcDbTrace
 10
3.735397990904044
 20
4.92197015403636
 30
0.0
 11
3.465301185260166
 21
4.918716301368512
 31
0.0
 12
3.733688316705626
 22
4.910298304600297
 32
0.0
 13
3.733688316705626
 23
4.910298304600297
 33
0.0
  0
SOLID
  5
FBE
330
10C5
100
AcDbEntity
  8
0
  6
Continuous
100
AcDbTrace
 10
3.471696171403118
 20
4.924132578345793
 30
0.0
 11
3.465301185260166
 21
4.918716301368512
 31
0.0
 12
3.735397990904044
 22
4.92197015403636
 32
0.0
 13
3.735397990904044
 23
4.92197015403636
 33
0.0
  0
SOLID
  5
FBF
330
10C5
100
AcDbEntity
  8
0
  6
Continuous
100
AcDbTrace
 10
3.478516588033856
 20
4.929002262221191
 30
0.0
 11
3.471696171403118
 21
4.924132578345793
 31
0.0
 12
3.735397990904044
 22
4.92197015403636
 32
0.0
 13
3.735397990904044
 23
4.92197015403636
 33
0.0
  0
SOLID
  5
FC0
330
10C5
100
AcDbEntity
  8
0
  6
Continuous
100
AcDbTrace
 10
3.485715844790982
 20
4.933292088116042
 30
0.0
 11
3.478516588033856
 21
4.929002262221191
 31
0.0
 12
3.735397990904044
 22
4.92197015403636
 32
0.0
 13
3.735397990904044
 23
4.92197015403636
 33
0.0
  0
SOLID
  5
FC1
330
10C5
100
AcDbEntity
  8
0
  6
Continuous
100
AcDbTrace
 10
3.736426114915783
 20
4.933721665264256
 30
0.0
 11
3.485715844790982
 21
4.933292088116042
 31
0.0
 12
3.735397990904044
 22
4.92197015403636
 32
0.0
 13
3.735397990904044
 23
4.92197015403636
 33
0.0
  0
SOLID
  5
FC2
330
10C5
100
AcDbEntity
  8
0
  6
Continuous
100
AcDbTrace
 10
3.493244763450895
 20
4.936972752169658
 30
0.0
 11
3.485715844790982
 21
4.933292088116042
 31
0.0
 12
3.736426114915783
 22
4.933721665264256
 32
0.0
 13
3.736426114915783
 23
4.933721665264256
 33
0.0
  0
SOLID
  5
FC3
330
10C5
100
AcDbEntity
  8
0
  6
Continuous
100
AcDbTrace
 10
3.501051913864924
 20
4.94001911171441
 30
0.0
 11
3.493244763450895
 21
4.936972752169658
 31
0.0
 12
3.736426114915783
 22
4.933721665264256
 32
0.0
 13
3.736426114915783
 23
4.933721665264256
 33
0.0
  0
SOLID
  5
FC4
330
10C5
100
AcDbEntity
  8
0
  6
Continuous
100
AcDbTrace
 10
3.509083965279394
 20
4.942410357025637
 30
0.0
 11
3.501051913864924
 21
4.94001911171441
 31
0.0
 12
3.736426114915783
 22
4.933721665264256
 32
0.0
 13
3.736426114915783
 23
4.933721665264256
 33
0.0
  0
SOLID
  5
FC5
330
10C5
100
AcDbEntity
  8
0
  6
Continuous
100
AcDbTrace
 10
3.517286050638753
 20
4.944130153473174
 30
0.0
 11
3.509083965279394
 21
4.942410357025637
 31
0.0
 12
3.736426114915783
 22
4.933721665264256
 32
0.0
 13
3.736426114915783
 23
4.933721665264256
 33
0.0
  0
SOLID
  5
FC6
330
10C5
100
AcDbEntity
  8
0
  6
Continuous
100
AcDbTrace
 10
3.52560214138319
 20
4.945166753103433
 30
0.0
 11
3.517286050638753
 21
4.944130153473174
 31
0.0
 12
3.736426114915783
 22
4.933721665264256
 32
0.0
 13
3.736426114915783
 23
4.933721665264256
 33
0.0
  0
SOLID
  5
FC7
330
10C5
100
AcDbEntity
  8
0
  6
Continuous
100
AcDbTrace
 10
3.73676920989463
 20
4.945513074889841
 30
0.0
 11
3.52560214138319
 21
4.945166753103433
 31
0.0
 12
3.736426114915783
 22
4.933721665264256
 32
0.0
 13
3.736426114915783
 23
4.933721665264256
 33
0.0
  0
SOLID
  5
FC8
330
10C5
100
AcDbEntity
  8
0
  6
Continuous
100
AcDbTrace
 10
3.533975430180516
 20
4.945513074889842
 30
0.0
 11
3.52560214138319
 21
4.945166753103433
 31
0.0
 12
3.73676920989463
 22
4.945513074889841
 32
0.0
 13
3.73676920989463
 23
4.945513074889841
 33
0.0
  0
SOLID
  5
FC9
330
10C5
100
AcDbEntity
  8
0
  6
Continuous
100
AcDbTrace
 10
3.542348718977842
 20
4.945859396676252
 30
0.0
 11
3.533975430180516
 21
4.945513074889842
 31
0.0
 12
3.73676920989463
 22
4.945513074889841
 32
0.0
 13
3.73676920989463
 23
4.945513074889841
 33
0.0
  0
SOLID
  5
FCA
330
10C5
100
AcDbEntity
  8
0
  6
Continuous
100
AcDbTrace
 10
3.550664809722279
 20
4.946895996306511
 30
0.0
 11
3.542348718977842
 21
4.945859396676252
 31
0.0
 12
3.73676920989463
 22
4.945513074889841
 32
0.0
 13
3.73676920989463
 23
4.945513074889841
 33
0.0
  0
SOLID
  5
FCB
330
10C5
100
AcDbEntity
  8
0
  6
Continuous
100
AcDbTrace
 10
3.558866895081638
 20
4.948615792754048
 30
0.0
 11
3.550664809722279
 21
4.946895996306511
 31
0.0
 12
3.73676920989463
 22
4.945513074889841
 32
0.0
 13
3.73676920989463
 23
4.945513074889841
 33
0.0
  0
SOLID
  5
FCC
330
10C5
100
AcDbEntity
  8
0
  6
Continuous
100
AcDbTrace
 10
3.566898946496108
 20
4.951007038065275
 30
0.0
 11
3.558866895081638
 21
4.948615792754048
 31
0.0
 12
3.73676920989463
 22
4.945513074889841
 32
0.0
 13
3.73676920989463
 23
4.945513074889841
 33
0.0
  0
SOLID
  5
FCD
330
10C5
100
AcDbEntity
  8
0
  6
Continuous
100
AcDbTrace
 10
3.574706096910137
 20
4.954053397610026
 30
0.0
 11
3.566898946496108
 21
4.951007038065275
 31
0.0
 12
3.73676920989463
 22
4.945513074889841
 32
0.0
 13
3.73676920989463
 23
4.945513074889841
 33
0.0
  0
SOLID
  5
FCE
330
10C5
100
AcDbEntity
  8
0
  6
Continuous
100
AcDbTrace
 10
3.736426114915783
 20
4.957304484515427
 30
0.0
 11
3.574706096910137
 21
4.954053397610026
 31
0.0
 12
3.73676920989463
 22
4.945513074889841
 32
0.0
 13
3.73676920989463
 23
4.945513074889841
 33
0.0
  0
SOLID
  5
FCF
330
10C5
100
AcDbEntity
  8
0
  6
Continuous
100
AcDbTrace
 10
3.582235015570049
 20
4.957734061663643
 30
0.0
 11
3.574706096910137
 21
4.954053397610026
 31
0.0
 12
3.736426114915783
 22
4.957304484515427
 32
0.0
 13
3.736426114915783
 23
4.957304484515427
 33
0.0
  0
SOLID
  5
FD0
330
10C5
100
AcDbEntity
  8
0
  6
Continuous
100
AcDbTrace
 10
3.589434272327176
 20
4.962023887558494
 30
0.0
 11
3.582235015570049
 21
4.957734061663643
 31
0.0
 12
3.736426114915783
 22
4.957304484515427
 32
0.0
 13
3.736426114915783
 23
4.957304484515427
 33
0.0
  0
SOLID
  5
FD1
330
10C5
100
AcDbEntity
  8
0
  6
Continuous
100
AcDbTrace
 10
3.596254688957915
 20
4.966893571433891
 30
0.0
 11
3.589434272327176
 21
4.962023887558494
 31
0.0
 12
3.736426114915783
 22
4.957304484515427
 32
0.0
 13
3.736426114915783
 23
4.957304484515427
 33
0.0
  0
SOLID
  5
FD2
330
10C5
100
AcDbEntity
  8
0
  6
Continuous
100
AcDbTrace
 10
3.735397990904044
 20
4.969055995743323
 30
0.0
 11
3.596254688957915
 21
4.966893571433891
 31
0.0
 12
3.736426114915783
 22
4.957304484515427
 32
0.0
 13
3.736426114915783
 23
4.957304484515427
 33
0.0
  0
SOLID
  5
FD3
330
10C5
100
AcDbEntity
  8
0
  6
Continuous
100
AcDbTrace
 10
3.602649675100866
 20
4.972309848411173
 30
0.0
 11
3.596254688957915
 21
4.966893571433891
 31
0.0
 12
3.735397990904044
 22
4.969055995743323
 32
0.0
 13
3.735397990904044
 23
4.969055995743323
 33
0.0
  0
SOLID
  5
FD4
330
10C5
100
AcDbEntity
  8
0
  6
Continuous
100
AcDbTrace
 10
3.608575546516243
 20
4.97823571982655
 30
0.0
 11
3.602649675100866
 21
4.972309848411173
 31
0.0
 12
3.735397990904044
 22
4.969055995743323
 32
0.0
 13
3.735397990904044
 23
4.969055995743323
 33
0.0
  0
SOLID
  5
FD5
330
10C5
100
AcDbEntity
  8
0
  6
Continuous
100
AcDbTrace
 10
3.733688316705626
 20
4.980727845179386
 30
0.0
 11
3.608575546516243
 21
4.97823571982655
 31
0.0
 12
3.735397990904044
 22
4.969055995743323
 32
0.0
 13
3.735397990904044
 23
4.969055995743323
 33
0.0
  0
SOLID
  5
FD6
330
10C5
100
AcDbEntity
  8
0
  6
Continuous
100
AcDbTrace
 10
3.613991823493524
 20
4.984630705969501
 30
0.0
 11
3.608575546516243
 21
4.97823571982655
 31
0.0
 12
3.733688316705626
 22
4.980727845179386
 32
0.0
 13
3.733688316705626
 23
4.980727845179386
 33
0.0
  0
SOLID
  5
FD7
330
10C5
100
AcDbEntity
  8
0
  6
Continuous
100
AcDbTrace
 10
3.618861507368922
 20
4.99145112260024
 30
0.0
 11
3.613991823493524
 21
4.984630705969501
 31
0.0
 12
3.733688316705626
 22
4.980727845179386
 32
0.0
 13
3.733688316705626
 23
4.980727845179386
 33
0.0
  0
SOLID
  5
FD8
330
10C5
100
AcDbEntity
  8
0
  6
Continuous
100
AcDbTrace
 10
3.73130287731683
 20
4.992280538979763
 30
0.0
 11
3.618861507368922
 21
4.99145112260024
 31
0.0
 12
3.733688316705626
 22
4.980727845179386
 32
0.0
 13
3.733688316705626
 23
4.980727845179386
 33
0.0
  0
SOLID
  5
FD9
330
10C5
100
AcDbEntity
  8
0
  6
Continuous
100
AcDbTrace
 10
3.623151333263773
 20
4.998650379357366
 30
0.0
 11
3.618861507368922
 21
4.99145112260024
 31
0.0
 12
3.73130287731683
 22
4.992280538979763
 32
0.0
 13
3.73130287731683
 23
4.992280538979763
 33
0.0
  0
SOLID
  5
FDA
330
10C5
100
AcDbEntity
  8
0
  6
Continuous
100
AcDbTrace
 10
3.728249744309455
 20
5.00367498648555
 30
0.0
 11
3.623151333263773
 21
4.998650379357366
 31
0.0
 12
3.73130287731683
 22
4.992280538979763
 32
0.0
 13
3.73130287731683
 23
4.992280538979763
 33
0.0
  0
SOLID
  5
FDB
330
10C5
100
AcDbEntity
  8
0
  6
Continuous
100
AcDbTrace
 10
3.62683199731739
 20
5.006179298017279
 30
0.0
 11
3.623151333263773
 21
4.998650379357366
 31
0.0
 12
3.728249744309455
 22
5.00367498648555
 32
0.0
 13
3.728249744309455
 23
5.00367498648555
 33
0.0
  0
SOLID
  5
FDC
330
10C5
100
AcDbEntity
  8
0
  6
Continuous
100
AcDbTrace
 10
3.629878356862141
 20
5.013986448431308
 30
0.0
 11
3.62683199731739
 21
5.006179298017279
 31
0.0
 12
3.728249744309455
 22
5.00367498648555
 32
0.0
 13
3.728249744309455
 23
5.00367498648555
 33
0.0
  0
SOLID
  5
FDD
330
10C5
100
AcDbEntity
  8
0
  6
Continuous
100
AcDbTrace
 10
3.724539248519152
 20
5.014872632493217
 30
0.0
 11
3.629878356862141
 21
5.013986448431308
 31
0.0
 12
3.728249744309455
 22
5.00367498648555
 32
0.0
 13
3.728249744309455
 23
5.00367498648555
 33
0.0
  0
SOLID
  5
FDE
330
10C5
100
AcDbEntity
  8
0
  6
Continuous
100
AcDbTrace
 10
3.632269602173368
 20
5.022018499845779
 30
0.0
 11
3.629878356862141
 21
5.013986448431308
 31
0.0
 12
3.724539248519152
 22
5.014872632493217
 32
0.0
 13
3.724539248519152
 23
5.014872632493217
 33
0.0
  0
SOLID
  5
FDF
330
10C5
100
AcDbEntity
  8
0
  6
Continuous
100
AcDbTrace
 10
3.720183945089146
 20
5.025835587713204
 30
0.0
 11
3.632269602173368
 21
5.022018499845779
 31
0.0
 12
3.724539248519152
 22
5.014872632493217
 32
0.0
 13
3.724539248519152
 23
5.014872632493217
 33
0.0
  0
SOLID
  5
FE0
330
10C5
100
AcDbEntity
  8
0
  6
Continuous
100
AcDbTrace
 10
3.633989398620905
 20
5.030220585205137
 30
0.0
 11
3.632269602173368
 21
5.022018499845779
 31
0.0
 12
3.720183945089146
 22
5.025835587713204
 32
0.0
 13
3.720183945089146
 23
5.025835587713204
 33
0.0
  0
SOLID
  5
FE1
330
10C5
100
AcDbEntity
  8
0
  6
Continuous
100
AcDbTrace
 10
3.715198570987604
 20
5.036526756975289
 30
0.0
 11
3.633989398620905
 21
5.030220585205137
 31
0.0
 12
3.720183945089146
 22
5.025835587713204
 32
0.0
 13
3.720183945089146
 23
5.025835587713204
 33
0.0
  0
SOLID
  5
FE2
330
10C5
100
AcDbEntity
  8
0
  6
Continuous
100
AcDbTrace
 10
3.635025998251165
 20
5.038536675949574
 30
0.0
 11
3.633989398620905
 21
5.030220585205137
 31
0.0
 12
3.715198570987604
 22
5.036526756975289
 32
0.0
 13
3.715198570987604
 23
5.036526756975289
 33
0.0
  0
SOLID
  5
FE3
330
10C5
100
AcDbEntity
  8
0
  6
Continuous
100
AcDbTrace
 10
3.709599995142404
 20
5.046909964746898
 30
0.0
 11
3.635025998251165
 21
5.038536675949574
 31
0.0
 12
3.715198570987604
 22
5.036526756975289
 32
0.0
 13
3.715198570987604
 23
5.036526756975289
 33
0.0
  0
SOLID
  5
FE4
330
10C5
100
AcDbEntity
  8
0
  6
Continuous
100
AcDbTrace
 10
3.635372320037573
 20
5.0469099647469
 30
0.0
 11
3.635025998251165
 21
5.038536675949574
 31
0.0
 12
3.709599995142404
 22
5.046909964746898
 32
0.0
 13
3.709599995142404
 23
5.046909964746898
 33
0.0
  0
SOLID
  5
FE5
330
10C5
100
AcDbEntity
  8
0
  6
Continuous
100
AcDbTrace
 10
3.635025998251165
 20
5.055283253544226
 30
0.0
 11
3.635372320037573
 21
5.0469099647469
 31
0.0
 12
3.709599995142404
 22
5.046909964746898
 32
0.0
 13
3.709599995142404
 23
5.046909964746898
 33
0.0
  0
SOLID
  5
FE6
330
10C5
100
AcDbEntity
  8
0
  6
Continuous
100
AcDbTrace
 10
3.703407161362018
 20
5.056950077539661
 30
0.0
 11
3.635025998251165
 21
5.055283253544226
 31
0.0
 12
3.709599995142404
 22
5.046909964746898
 32
0.0
 13
3.709599995142404
 23
5.046909964746898
 33
0.0
  0
SOLID
  5
FE7
330
10C5
100
AcDbEntity
  8
0
  6
Continuous
100
AcDbTrace
 10
3.633989398620905
 20
5.063599344288663
 30
0.0
 11
3.635025998251165
 21
5.055283253544226
 31
0.0
 12
3.703407161362018
 22
5.056950077539661
 32
0.0
 13
3.703407161362018
 23
5.056950077539661
 33
0.0
  0
SOLID
  5
FE8
330
10C5
100
AcDbEntity
  8
0
  6
Continuous
100
AcDbTrace
 10
3.696641024235664
 20
5.066613122790007
 30
0.0
 11
3.633989398620905
 21
5.063599344288663
 31
0.0
 12
3.703407161362018
 22
5.056950077539661
 32
0.0
 13
3.703407161362018
 23
5.056950077539661
 33
0.0
  0
SOLID
  5
FE9
330
10C5
100
AcDbEntity
  8
0
  6
Continuous
100
AcDbTrace
 10
3.632269602173368
 20
5.071801429648021
 30
0.0
 11
3.633989398620905
 21
5.063599344288663
 31
0.0
 12
3.696641024235664
 22
5.066613122790007
 32
0.0
 13
3.696641024235664
 23
5.066613122790007
 33
0.0
  0
SOLID
  5
FEA
330
10C5
100
AcDbEntity
  8
0
  6
Continuous
100
AcDbTrace
 10
3.689324478229607
 20
5.075866403811575
 30
0.0
 11
3.632269602173368
 21
5.071801429648021
 31
0.0
 12
3.696641024235664
 22
5.066613122790007
 32
0.0
 13
3.696641024235664
 23
5.066613122790007
 33
0.0
  0
SOLID
  5
FEB
330
10C5
100
AcDbEntity
  8
0
  6
Continuous
100
AcDbTrace
 10
3.629878356862141
 20
5.079833481062492
 30
0.0
 11
3.632269602173368
 21
5.071801429648021
 31
0.0
 12
3.689324478229607
 22
5.075866403811575
 32
0.0
 13
3.689324478229607
 23
5.075866403811575
 33
0.0
  0
SOLID
  5
FEC
330
10C5
100
AcDbEntity
  8
0
  6
Continuous
100
AcDbTrace
 10
3.681482280219534
 20
5.084678610430446
 30
0.0
 11
3.629878356862141
 21
5.079833481062492
 31
0.0
 12
3.689324478229607
 22
5.075866403811575
 32
0.0
 13
3.689324478229607
 23
5.075866403811575
 33
0.0
  0
SOLID
  5
FED
330
10C5
100
AcDbEntity
  8
0
  6
Continuous
100
AcDbTrace
 10
3.62683199731739
 20
5.087640631476521
 30
0.0
 11
3.629878356862141
 21
5.079833481062492
 31
0.0
 12
3.681482280219534
 22
5.084678610430446
 32
0.0
 13
3.681482280219534
 23
5.084678610430446
 33
0.0
  0
SOLID
  5
FEE
330
10C5
100
AcDbEntity
  8
0
  6
Continuous
100
AcDbTrace
 10
3.673140965721121
 20
5.093019924928859
 30
0.0
 11
3.62683199731739
 21
5.087640631476521
 31
0.0
 12
3.681482280219534
 22
5.084678610430446
 32
0.0
 13
3.681482280219534
 23
5.084678610430446
 33
0.0
  0
SOLID
  5
FEF
330
10C5
100
AcDbEntity
  8
0
  6
Continuous
100
AcDbTrace
 10
3.623151333263773
 20
5.095169550136434
 30
0.0
 11
3.62683199731739
 21
5.087640631476521
 31
0.0
 12
3.673140965721121
 22
5.093019924928859
 32
0.0
 13
3.673140965721121
 23
5.093019924928859
 33
0.0
  0
SOLID
  5
FF0
330
10C5
100
AcDbEntity
  8
0
  6
Continuous
100
AcDbTrace
 10
3.66432875910225
 20
5.100862122938933
 30
0.0
 11
3.623151333263773
 21
5.095169550136434
 31
0.0
 12
3.673140965721121
 22
5.093019924928859
 32
0.0
 13
3.673140965721121
 23
5.093019924928859
 33
0.0
  0
SOLID
  5
FF1
330
10C5
100
AcDbEntity
  8
0
  6
Continuous
100
AcDbTrace
 10
3.618861507368922
 20
5.10236880689356
 30
0.0
 11
3.623151333263773
 21
5.095169550136434
 31
0.0
 12
3.66432875910225
 22
5.100862122938933
 32
0.0
 13
3.66432875910225
 23
5.100862122938933
 33
0.0
  0
SOLID
  5
FF2
330
10C5
100
AcDbEntity
  8
0
  6
Continuous
100
AcDbTrace
 10
3.655075478080681
 20
5.10817866894499
 30
0.0
 11
3.618861507368922
 21
5.10236880689356
 31
0.0
 12
3.66432875910225
 22
5.100862122938933
 32
0.0
 13
3.66432875910225
 23
5.100862122938933
 33
0.0
  0
SOLID
  5
FF3
330
10C5
100
AcDbEntity
  8
0
  6
Continuous
100
AcDbTrace
 10
3.613991823493524
 20
5.109189223524299
 30
0.0
 11
3.618861507368922
 21
5.10236880689356
 31
0.0
 12
3.655075478080681
 22
5.10817866894499
 32
0.0
 13
3.655075478080681
 23
5.10817866894499
 33
0.0
  0
SOLID
  5
FF4
330
10C5
100
AcDbEntity
  8
0
  6
Continuous
100
AcDbTrace
 10
3.645412432830335
 20
5.114944806071344
 30
0.0
 11
3.613991823493524
 21
5.109189223524299
 31
0.0
 12
3.655075478080681
 22
5.10817866894499
 32
0.0
 13
3.655075478080681
 23
5.10817866894499
 33
0.0
  0
SOLID
  5
FF5
330
10C5
100
AcDbEntity
  8
0
  6
Continuous
100
AcDbTrace
 10
3.608575546516243
 20
5.11558420966725
 30
0.0
 11
3.613991823493524
 21
5.109189223524299
 31
0.0
 12
3.645412432830335
 22
5.114944806071344
 32
0.0
 13
3.645412432830335
 23
5.114944806071344
 33
0.0
  0
SOLID
  5
FF6
330
10C5
100
AcDbEntity
  8
0
  6
Continuous
100
AcDbTrace
 10
3.635372320037573
 20
5.121137639851729
 30
0.0
 11
3.608575546516243
 21
5.11558420966725
 31
0.0
 12
3.645412432830335
 22
5.114944806071344
 32
0.0
 13
3.645412432830335
 23
5.114944806071344
 33
0.0
  0
SOLID
  5
FF7
330
10C5
100
AcDbEntity
  8
0
  6
Continuous
100
AcDbTrace
 10
3.602649675100866
 20
5.121510081082627
 30
0.0
 11
3.608575546516243
 21
5.11558420966725
 31
0.0
 12
3.635372320037573
 22
5.121137639851729
 32
0.0
 13
3.635372320037573
 23
5.121137639851729
 33
0.0
  0
SOLID
  5
FF8
330
10C5
100
AcDbEntity
  8
0
  6
Continuous
100
AcDbTrace
 10
3.624989112265963
 20
5.126736215696929
 30
0.0
 11
3.602649675100866
 21
5.121510081082627
 31
0.0
 12
3.635372320037573
 22
5.121137639851729
 32
0.0
 13
3.635372320037573
 23
5.121137639851729
 33
0.0
  0
SOLID
  5
FF9
330
10C5
100
AcDbEntity
  8
0
  6
Continuous
100
AcDbTrace
 10
3.596254688957914
 20
5.126926358059908
 30
0.0
 11
3.602649675100866
 21
5.121510081082627
 31
0.0
 12
3.624989112265963
 22
5.126736215696929
 32
0.0
 13
3.624989112265963
 23
5.126736215696929
 33
0.0
  0
SOLID
  5
FFA
330
10C5
100
AcDbEntity
  8
0
  6
Continuous
100
AcDbTrace
 10
3.614297943003879
 20
5.131721589798472
 30
0.0
 11
3.596254688957914
 21
5.126926358059908
 31
0.0
 12
3.624989112265963
 22
5.126736215696929
 32
0.0
 13
3.624989112265963
 23
5.126736215696929
 33
0.0
  0
SOLID
  5
FFB
330
10C5
100
AcDbEntity
  8
0
  6
Continuous
100
AcDbTrace
 10
3.589434272327176
 20
5.131796041935306
 30
0.0
 11
3.596254688957914
 21
5.126926358059908
 31
0.0
 12
3.614297943003879
 22
5.131721589798472
 32
0.0
 13
3.614297943003879
 23
5.131721589798472
 33
0.0
  0
SOLID
  5
FFC
330
10C5
100
AcDbEntity
  8
0
  6
Continuous
100
AcDbTrace
 10
3.603334987783891
 20
5.136076893228477
 30
0.0
 11
3.589434272327176
 21
5.131796041935306
 31
0.0
 12
3.614297943003879
 22
5.131721589798472
 32
0.0
 13
3.614297943003879
 23
5.131721589798472
 33
0.0
  0
SOLID
  5
FFD
330
10C5
100
AcDbEntity
  8
0
  6
Continuous
100
AcDbTrace
 10
3.582235015570049
 20
5.136085867830157
 30
0.0
 11
3.589434272327176
 21
5.131796041935306
 31
0.0
 12
3.603334987783891
 22
5.136076893228477
 32
0.0
 13
3.603334987783891
 23
5.136076893228477
 33
0.0
  0
SOLID
  5
FFE
330
10C5
100
AcDbEntity
  8
0
  6
Continuous
100
AcDbTrace
 10
3.574706096910137
 20
5.139766531883774
 30
0.0
 11
3.582235015570049
 21
5.136085867830157
 31
0.0
 12
3.603334987783891
 22
5.136076893228477
 32
0.0
 13
3.603334987783891
 23
5.136076893228477
 33
0.0
  0
SOLID
  5
FFF
330
10C5
100
AcDbEntity
  8
0
  6
Continuous
100
AcDbTrace
 10
3.592137341776225
 20
5.13978738901878
 30
0.0
 11
3.574706096910137
 21
5.139766531883774
 31
0.0
 12
3.603334987783891
 22
5.136076893228477
 32
0.0
 13
3.603334987783891
 23
5.136076893228477
 33
0.0
  0
SOLID
  5
1000
330
10C5
100
AcDbEntity
  8
0
  6
Continuous
100
AcDbTrace
 10
3.566898946496108
 20
5.142812891428525
 30
0.0
 11
3.574706096910137
 21
5.139766531883774
 31
0.0
 12
3.592137341776225
 22
5.13978738901878
 32
0.0
 13
3.592137341776225
 23
5.13978738901878
 33
0.0
  0
SOLID
  5
1001
330
10C5
100
AcDbEntity
  8
0
  6
Continuous
100
AcDbTrace
 10
3.580742894270437
 20
5.142840522026155
 30
0.0
 11
3.566898946496108
 21
5.142812891428525
 31
0.0
 12
3.592137341776225
 22
5.13978738901878
 32
0.0
 13
3.592137341776225
 23
5.13978738901878
 33
0.0
  0
SOLID
  5
1002
330
10C5
100
AcDbEntity
  8
0
  6
Continuous
100
AcDbTrace
 10
3.558866895081638
 20
5.145204136739752
 30
0.0
 11
3.566898946496108
 21
5.142812891428525
 31
0.0
 12
3.580742894270437
 22
5.142840522026155
 32
0.0
 13
3.580742894270437
 23
5.142840522026155
 33
0.0
  0
SOLID
  5
1003
330
10C5
100
AcDbEntity
  8
0
  6
Continuous
100
AcDbTrace
 10
3.569190200470061
 20
5.145225961414951
 30
0.0
 11
3.558866895081638
 21
5.145204136739752
 31
0.0
 12
3.580742894270437
 22
5.142840522026155
 32
0.0
 13
3.580742894270437
 23
5.142840522026155
 33
0.0
  0
SOLID
  5
1004
330
10C5
100
AcDbEntity
  8
0
  6
Continuous
100
AcDbTrace
 10
3.550664809722279
 20
5.146923933187289
 30
0.0
 11
3.558866895081638
 21
5.145204136739752
 31
0.0
 12
3.569190200470061
 22
5.145225961414951
 32
0.0
 13
3.569190200470061
 23
5.145225961414951
 33
0.0
  0
SOLID
  5
1005
330
10C5
100
AcDbEntity
  8
0
  6
Continuous
100
AcDbTrace
 10
3.557518351033997
 20
5.146935635613369
 30
0.0
 11
3.550664809722279
 21
5.146923933187289
 31
0.0
 12
3.569190200470061
 22
5.145225961414951
 32
0.0
 13
3.569190200470061
 23
5.145225961414951
 33
0.0
  0
SOLID
  5
1006
330
10C5
100
AcDbEntity
  8
0
  6
Continuous
100
AcDbTrace
 10
3.542348718977842
 20
5.147960532817548
 30
0.0
 11
3.550664809722279
 21
5.146923933187289
 31
0.0
 12
3.557518351033997
 22
5.146935635613369
 32
0.0
 13
3.557518351033997
 23
5.146935635613369
 33
0.0
  0
SOLID
  5
1007
330
10C5
100
AcDbEntity
  8
0
  6
Continuous
100
AcDbTrace
 10
3.545766839806102
 20
5.147963759625108
 30
0.0
 11
3.542348718977842
 21
5.147960532817548
 31
0.0
 12
3.557518351033997
 22
5.146935635613369
 32
0.0
 13
3.557518351033997
 23
5.146935635613369
 33
0.0
  0
SOLID
  5
1008
330
10C5
100
AcDbEntity
  8
0
  6
Continuous
100
AcDbTrace
 10
3.533975430180516
 20
5.148306854603958
 30
0.0
 11
3.542348718977842
 21
5.147960532817548
 31
0.0
 12
3.545766839806102
 22
5.147963759625108
 32
0.0
 13
3.545766839806102
 23
5.147963759625108
 33
0.0
  0
ENDBLK
  5
100A
330
10C5
100
AcDbEntity
  8
0
100
AcDbBlockEnd
  0
BLOCK
  5
11A1
330
1195
100
AcDbEntity
  8
0
100
AcDbBlockBegin
  2
titleblock
 70
     2
 10
0.0
 20
0.0
 30
0.0
  3
titleblock
  1

  0
LWPOLYLINE
  5
1196
330
1195
100
AcDbEntity
  8
0
100
AcDbPolyline
 90
        4
 70
     1
 43
0.0
 10
0.0
 20
0.0
 10
10.33458742478744
 20
0.0000000000000002
 10
10.33458742478744
 20
10.44
 10
0.0
 20
10.44
  0
ATTDEF
  5
1197
330
1195
100
AcDbEntity
  8
title
100
AcDbText
 10
0.5055556038023421
 20
0.7842270964783673
 30
0.0
 40
0.2
  1
D
  7
L200
 72
     4
 11
0.6064423705144839
 21
0.8842270964783672
 31
0.0
100
AcDbAttributeDefinition
  3
#
  2
D
 70
     0
  0
ATTDEF
  5
1198
330
1195
100
AcDbEntity
  8
title
100
AcDbText
 10
1.231442370514484
 20
1.34371230274675
 30
0.0
 40
0.2
  1

  7
L200
100
AcDbAttributeDefinition
  3
DETAIL TITLE TOP LINE
  2
TITLE1
 70
     0
  0
ATTDEF
  5
1199
330
1195
100
AcDbEntity
  8
title
100
AcDbText
 10
1.231442370514484
 20
0.9842270964783674
 30
0.0
 40
0.2
  1
TITLE
  7
L200
100
AcDbAttributeDefinition
  3
DETAIL TITLE TOP 2ND LINE
  2
TITLE2
 70
     0
  0
ATTDEF
  5
119A
330
1195
100
AcDbEntity
  8
title
100
AcDbText
 10
2.713645751168312
 20
0.5927927664583189
 30
0.0
 40
0.2
  1
TITLE2
  7
L200
100
AcDbAttributeDefinition
  3
DETAIL TITLE BOTTOM 1
  2
TITLE3
 70
     0
  0
ATTDEF
  5
119B
330
1195
100
AcDbEntity
  8
title
100
AcDbText
 10
2.713645751168312
 20
0.2692560808167741
 30
0.0
 40
0.2
  1

  7
L200
100
AcDbAttributeDefinition
  3
DETAIL TITLE BOTTOM 2
  2
TITLE4
 70
     0
  0
ATTDEF
  5
119C
330
1195
100
AcDbEntity
  8
title
 62
     7
100
AcDbText
 10
8.177214829966379
 20
0.9696027915446398
 30
0.0
 40
0.08
  1
-
  7
L80
 72
     2
 11
8.261024353775903
 21
0.9696027915446398
 31
0.0
100
AcDbAttributeDefinition
  3
REVISION DATE
  2
REVISED
 70
     0
  0
ATTDEF
  5
119D
330
1195
100
AcDbEntity
  8
title
 62
     7
100
AcDbText
 10
0.2639423705144838
 20
0.0847116480207213
 30
0.0
 40
0.08
  1
-
  7
L80
100
AcDbAttributeDefinition
  3
DWG-NAME
  2
DWG-NAME
 70
     0
  0
LWPOLYLINE
  5
119E
330
1195
100
AcDbEntity
  8
title
 62
     3
100
AcDbPolyline
 90
        2
 70
     1
 43
0.03
 10
0.6064423705144839
 20
0.5417270964783675
 42
0.9999999999999998
 10
0.6064423705144839
 20
1.226727096478367
 42
0.9999999999999998
  0
ATTDEF
  5
119F
330
1195
100
AcDbEntity
  8
title
 62
     7
100
AcDbText
 10
1.231442370514484
 20
0.7005637793954894
 30
0.0
 40
0.1
  1
N.T.S.
  7
L100
100
AcDbAttributeDefinition
  3
SCALE
  2
SCALE
 70
     0
  0
LWPOLYLINE
  5
11A0
330
1195
100
AcDbEntity
  8
title
 62
     3
100
AcDbPolyline
 90
        2
 70
     0
 43
0.04
 39
0.03
 10
0.9489423705144833
 20
0.8842270964783672
 10
8.261024353775903
 20
0.8842270964783672
  0
ENDBLK
  5
11A2
330
1195
100
AcDbEntity
  8
0
100
AcDbBlockEnd
  0
ENDSEC
  0
SECTION
  2
ENTITIES
  0
LWPOLYLINE
  5
433
330
10C1
100
AcDbEntity
  8
image
100
AcDbPolyline
 90
        2
 70
     0
 43
0.0
 10
2.337668676074201
 20
3.064813960855299
 10
2.404141058914288
 20
3.026431606304707
  0
LWPOLYLINE
  5
887
330
10C1
100
AcDbEntity
  8
image
100
AcDbPolyline
 90
        2
 70
     0
 43
0.0
 10
3.318318232889163
 20
7.275427289550104
 10
3.317503039019243
 20
7.352180910182884
  0
ARC
  5
9B8
330
10C1
100
AcDbEntity
  8
image
100
AcDbCircle
 10
3.533975430180516
 20
7.313804099866493
 30
0.0
 40
0.2027937797141143
100
AcDbArc
 50
270.0
 51
90.0
  0
ARC
  5
9B9
330
10C1
100
AcDbEntity
  8
image
100
AcDbCircle
 10
3.533975430180516
 20
7.313804099866493
 30
0.0
 40
0.2027937797141145
100
AcDbArc
 50
90.0
 51
270.0
  0
LWPOLYLINE
  5
9BA
330
10C1
100
AcDbEntity
  8
image
100
AcDbPolyline
 90
        3
 70
     0
 43
0.0
 10
3.533975430180516
 20
7.516597879580608
 42
-1.0
 10
3.533975430180516
 20
7.313804099866493
 42
0.9999999999999998
 10
3.533975430180516
 20
7.11101032015238
 42
0.9999999999999998
  0
INSERT
  5
9BB
330
10C1
100
AcDbEntity
  8
image
  6
Continuous
100
AcDbBlockReference
  2
*U0
 10
0.0
 20
2.36829102497665
 30
0.0
1001
ACAD
1002
{
1000
R14_HATCH_DATA
1000
9BB
1011
1.0
1021
2.36829102497665
1031
0.0
1011
0.0
1021
3.36829102497665
1031
0.0
1011
0.0
1021
2.36829102497665
1031
1.0
1040
0.0
1010
0.0
1020
0.0
1030
1.0
1000
SOLID
1070
     1
1070
     0
1071
        1
1071
        1
1071
        3
1070
     2
1040
3.533975430180516
1040
4.945513074889841
1040
0.2027937797141143
1040
4.712388980384689
1040
7.853981633974482
1070
     1
1070
     2
1040
3.533975430180516
1040
5.0469099647469
1040
0.1013968898570573
1040
4.712388980384689
1040
7.853981633974482
1070
     0
1070
     2
1040
3.533975430180516
1040
4.844116185032785
1040
0.1013968898570573
1040
1.570796326794896
1040
4.712388980384689
1070
     1
1071
        0
1070
     0
1070
     1
1071
        1
1040
0.6842136253258577
1040
1.521370937345172
1040
0.0
1002
}
  0
LWPOLYLINE
  5
9BC
330
10C1
100
AcDbEntity
  8
image
100
AcDbPolyline
 90
        2
 70
     0
 43
0.0
 10
2.34799891771966
 20
7.577873000654654
 10
3.801517317106766
 20
7.577873000654654
  0
LWPOLYLINE
  5
9BD
330
10C1
100
AcDbEntity
  8
image
100
AcDbPolyline
 90
        2
 70
     0
 43
0.0
 10
1.747100270970146
 20
7.577873000654652
 10
0.7864812796489282
 20
7.577873000654652
  0
ARC
  5
A34
330
10C1
100
AcDbEntity
  8
image
100
AcDbCircle
 10
1.558780132813374
 20
7.871979596947053
 30
0.0
 40
0.1065815326392652
100
AcDbArc
 50
116.0563205359582
 51
205.254994024374
  0
ARC
  5
A35
330
10C1
100
AcDbEntity
  8
image
100
AcDbCircle
 10
1.415569469940392
 20
7.922255718476741
 30
0.0
 40
0.1065815326392652
100
AcDbArc
 50
296.0563205359582
 51
25.2549940243739
  0
ARC
  5
A36
330
10C1
100
AcDbEntity
  8
image
100
AcDbCircle
 10
1.09855095765238
 20
7.832176025142531
 30
0.0
 40
0.1065815326392652
100
AcDbArc
 50
116.0563205359582
 51
205.254994024374
  0
ARC
  5
A37
330
10C1
100
AcDbEntity
  8
image
100
AcDbCircle
 10
0.9553402947793996
 20
7.882452146672219
 30
0.0
 40
0.1065815326392652
100
AcDbArc
 50
296.0563205359582
 51
25.2549940243739
  0
ARC
  5
A38
330
10C1
100
AcDbEntity
  8
image
100
AcDbCircle
 10
1.160744089430893
 20
8.130702813676444
 30
0.0
 40
0.1065815326392652
100
AcDbArc
 50
116.0563205359582
 51
205.254994024374
  0
ARC
  5
A39
330
10C1
100
AcDbEntity
  8
image
100
AcDbCircle
 10
1.017533426557912
 20
8.180978935206134
 30
0.0
 40
0.1065815326392652
100
AcDbArc
 50
296.0563205359582
 51
25.2549940243739
  0
ARC
  5
A3A
330
10C1
100
AcDbEntity
  8
image
100
AcDbCircle
 10
1.170694990515456
 20
8.237674912901097
 30
0.0
 40
0.1065815326392652
100
AcDbArc
 50
116.0563205359582
 51
205.254994024374
  0
ARC
  5
A3B
330
10C1
100
AcDbEntity
  8
image
100
AcDbCircle
 10
1.027484327642473
 20
8.287951034430784
 30
0.0
 40
0.1065815326392652
100
AcDbArc
 50
296.0563205359582
 51
25.2549940243739
  0
ARC
  5
A3C
330
10C1
100
AcDbEntity
  8
image
100
AcDbCircle
 10
1.282642627716778
 20
8.110801027774183
 30
0.0
 40
0.1065815326392652
100
AcDbArc
 50
116.0563205359582
 51
205.254994024374
  0
ARC
  5
A3D
330
10C1
100
AcDbEntity
  8
image
100
AcDbCircle
 10
1.139431964843796
 20
8.161077149303871
 30
0.0
 40
0.1065815326392652
100
AcDbArc
 50
296.0563205359582
 51
25.2549940243739
  0
ARC
  5
A3E
330
10C1
100
AcDbEntity
  8
image
100
AcDbCircle
 10
1.464246572510035
 20
8.100850134823055
 30
0.0
 40
0.1065815326392652
100
AcDbArc
 50
116.0563205359582
 51
205.254994024374
  0
ARC
  5
A3F
330
10C1
100
AcDbEntity
  8
image
100
AcDbCircle
 10
1.321035909637053
 20
8.151126256352743
 30
0.0
 40
0.1065815326392652
100
AcDbArc
 50
296.0563205359582
 51
25.2549940243739
  0
ARC
  5
A40
330
10C1
100
AcDbEntity
  8
image
100
AcDbCircle
 10
1.424442968171788
 20
7.969000803220574
 30
0.0
 40
0.1065815326392652
100
AcDbArc
 50
116.0563205359582
 51
205.254994024374
  0
ARC
  5
A41
330
10C1
100
AcDbEntity
  8
image
100
AcDbCircle
 10
1.281232305298805
 20
8.019276924750265
 30
0.0
 40
0.1065815326392652
100
AcDbArc
 50
296.0563205359582
 51
25.2549940243739
  0
ARC
  5
A42
330
10C1
100
AcDbEntity
  8
image
100
AcDbCircle
 10
1.643362792032152
 20
7.824712855429183
 30
0.0
 40
0.1065815326392652
100
AcDbArc
 50
116.0563205359582
 51
205.254994024374
  0
ARC
  5
A43
330
10C1
100
AcDbEntity
  8
image
100
AcDbCircle
 10
1.500152129159169
 20
7.874988976958872
 30
0.0
 40
0.1065815326392652
100
AcDbArc
 50
296.0563205359582
 51
25.2549940243739
  0
ARC
  5
A44
330
10C1
100
AcDbEntity
  8
image
100
AcDbCircle
 10
1.133379111448348
 20
7.981439419409487
 30
0.0
 40
0.1065815326392652
100
AcDbArc
 50
116.0563205359582
 51
205.254994024374
  0
ARC
  5
A45
330
10C1
100
AcDbEntity
  8
image
100
AcDbCircle
 10
0.9901684485753657
 20
8.031715540939176
 30
0.0
 40
0.1065815326392652
100
AcDbArc
 50
296.0563205359582
 51
25.2549940243739
  0
ARC
  5
A46
330
10C1
100
AcDbEntity
  8
image
100
AcDbCircle
 10
1.359762111122133
 20
7.760032051246834
 30
0.0
 40
0.1065815326392652
100
AcDbArc
 50
116.0563205359582
 51
205.254994024374
  0
ARC
  5
A47
330
10C1
100
AcDbEntity
  8
image
100
AcDbCircle
 10
1.216551448249152
 20
7.810308172776525
 30
0.0
 40
0.1065815326392652
100
AcDbArc
 50
296.0563205359582
 51
25.2549940243739
  0
ARC
  5
A48
330
10C1
100
AcDbEntity
  8
image
100
AcDbCircle
 10
1.374688462748977
 20
7.655547675259966
 30
0.0
 40
0.1065815326392652
100
AcDbArc
 50
116.0563205359582
 51
205.254994024374
  0
ARC
  5
A49
330
10C1
100
AcDbEntity
  8
image
100
AcDbCircle
 10
1.231477799875996
 20
7.705823796789654
 30
0.0
 40
0.1065815326392652
100
AcDbArc
 50
296.0563205359582
 51
25.2549940243739
  0
ARC
  5
A4A
330
10C1
100
AcDbEntity
  8
image
100
AcDbCircle
 10
1.48912382522144
 20
7.765007497722399
 30
0.0
 40
0.1065815326392652
100
AcDbArc
 50
116.0563205359582
 51
205.254994024374
  0
ARC
  5
A4B
330
10C1
100
AcDbEntity
  8
image
100
AcDbCircle
 10
1.345913162348458
 20
7.815283619252089
 30
0.0
 40
0.1065815326392652
100
AcDbArc
 50
296.0563205359582
 51
25.2549940243739
  0
ARC
  5
A4C
330
10C1
100
AcDbEntity
  8
image
100
AcDbCircle
 10
1.669227861068147
 20
7.672689448607814
 30
0.0
 40
0.1065815326392652
100
AcDbArc
 50
143.5307656099477
 51
232.7294390983635
  0
ARC
  5
A4D
330
10C1
100
AcDbEntity
  8
image
100
AcDbCircle
 10
1.518973933633769
 20
7.651224601831475
 30
0.0
 40
0.1065815326392652
100
AcDbArc
 50
323.5307656099477
 51
52.72943909836342
  0
ARC
  5
A4E
330
10C1
100
AcDbEntity
  8
image
100
AcDbCircle
 10
1.33995091288473
 20
8.24742739452796
 30
0.0
 40
0.1065815326392652
100
AcDbArc
 50
143.5307656099477
 51
232.7294390983635
  0
ARC
  5
A4F
330
10C1
100
AcDbEntity
  8
image
100
AcDbCircle
 10
1.189696985450352
 20
8.225962547751622
 30
0.0
 40
0.1065815326392652
100
AcDbArc
 50
323.5307656099477
 51
52.72943909836342
  0
ARC
  5
A52
330
10C1
100
AcDbEntity
  8
image
100
AcDbCircle
 10
1.208240133611362
 20
8.031900664807906
 30
0.0
 40
0.1065815326392652
100
AcDbArc
 50
143.5307656099477
 51
232.7294390983635
  0
ARC
  5
A53
330
10C1
100
AcDbEntity
  8
image
100
AcDbCircle
 10
1.057986206176986
 20
8.010435818031567
 30
0.0
 40
0.1065815326392652
100
AcDbArc
 50
323.5307656099477
 51
52.72943909836342
  0
ARC
  5
A54
330
10C1
100
AcDbEntity
  8
image
100
AcDbCircle
 10
1.148371597578014
 20
7.762492252657837
 30
0.0
 40
0.1065815326392652
100
AcDbArc
 50
143.5307656099477
 51
232.7294390983635
  0
ARC
  5
A55
330
10C1
100
AcDbEntity
  8
image
100
AcDbCircle
 10
0.9981176701436364
 20
7.741027405881498
 30
0.0
 40
0.1065815326392652
100
AcDbArc
 50
323.5307656099477
 51
52.72943909836342
  0
ARC
  5
A56
330
10C1
100
AcDbEntity
  8
image
100
AcDbCircle
 10
1.11843732956134
 20
7.678676302211148
 30
0.0
 40
0.1065815326392652
100
AcDbArc
 50
143.5307656099477
 51
232.7294390983635
  0
ARC
  5
A57
330
10C1
100
AcDbEntity
  8
image
100
AcDbCircle
 10
0.9681834021269628
 20
7.657211455434809
 30
0.0
 40
0.1065815326392652
100
AcDbArc
 50
323.5307656099477
 51
52.72943909836342
  0
ARC
  5
A58
330
10C1
100
AcDbEntity
  8
image
100
AcDbCircle
 10
1.220213840818033
 20
7.666702595004479
 30
0.0
 40
0.1065815326392652
100
AcDbArc
 50
143.5307656099477
 51
232.7294390983635
  0
ARC
  5
A59
330
10C1
100
AcDbEntity
  8
image
100
AcDbCircle
 10
1.069959913383656
 20
7.645237748228141
 30
0.0
 40
0.1065815326392652
100
AcDbArc
 50
323.5307656099477
 51
52.72943909836342
  0
ARC
  5
A5A
330
10C1
100
AcDbEntity
  8
image
100
AcDbCircle
 10
1.274095523248046
 20
7.906176739137873
 30
0.0
 40
0.1065815326392652
100
AcDbArc
 50
143.5307656099477
 51
232.7294390983635
  0
ARC
  5
A5B
330
10C1
100
AcDbEntity
  8
image
100
AcDbCircle
 10
1.123841595813669
 20
7.884711892361534
 30
0.0
 40
0.1065815326392652
100
AcDbArc
 50
323.5307656099477
 51
52.72943909836342
  0
ARC
  5
A5C
330
10C1
100
AcDbEntity
  8
image
100
AcDbCircle
 10
1.369885180901404
 20
7.989992689584561
 30
0.0
 40
0.1065815326392652
100
AcDbArc
 50
143.5307656099477
 51
232.7294390983635
  0
ARC
  5
A5D
330
10C1
100
AcDbEntity
  8
image
100
AcDbCircle
 10
1.219631253467027
 20
7.968527842808224
 30
0.0
 40
0.1065815326392652
100
AcDbArc
 50
323.5307656099477
 51
52.72943909836342
  0
ARC
  5
A5E
330
10C1
100
AcDbEntity
  8
image
100
AcDbCircle
 10
1.585411910621459
 20
8.079795493634584
 30
0.0
 40
0.1065815326392652
100
AcDbArc
 50
143.5307656099477
 51
232.7294390983635
  0
ARC
  5
A5F
330
10C1
100
AcDbEntity
  8
image
100
AcDbCircle
 10
1.435157983187081
 20
8.058330646858244
 30
0.0
 40
0.1065815326392652
100
AcDbArc
 50
323.5307656099477
 51
52.72943909836342
  0
ARC
  5
A60
330
10C1
100
AcDbEntity
  8
image
100
AcDbCircle
 10
1.555477642604785
 20
8.019926957601235
 30
0.0
 40
0.1065815326392652
100
AcDbArc
 50
143.5307656099477
 51
232.7294390983635
  0
ARC
  5
A61
330
10C1
100
AcDbEntity
  8
image
100
AcDbCircle
 10
1.405223715170407
 20
7.998462110824897
 30
0.0
 40
0.1065815326392652
100
AcDbArc
 50
323.5307656099477
 51
52.72943909836342
  0
ARC
  5
A62
330
10C1
100
AcDbEntity
  8
image
100
AcDbCircle
 10
1.507582813778105
 20
7.912163592741209
 30
0.0
 40
0.1065815326392652
100
AcDbArc
 50
143.5307656099477
 51
232.7294390983635
  0
ARC
  5
A63
330
10C1
100
AcDbEntity
  8
image
100
AcDbCircle
 10
1.357328886343729
 20
7.890698745964869
 30
0.0
 40
0.1065815326392652
100
AcDbArc
 50
323.5307656099477
 51
52.72943909836342
  0
ARC
  5
A64
330
10C1
100
AcDbEntity
  8
image
100
AcDbCircle
 10
1.423766863331417
 20
7.762492252657837
 30
0.0
 40
0.1065815326392652
100
AcDbArc
 50
143.5307656099477
 51
232.7294390983635
  0
ARC
  5
A65
330
10C1
100
AcDbEntity
  8
image
100
AcDbCircle
 10
1.27351293589704
 20
7.741027405881498
 30
0.0
 40
0.1065815326392652
100
AcDbArc
 50
323.5307656099477
 51
52.72943909836342
  0
ARC
  5
A66
330
10C1
100
AcDbEntity
  8
image
100
AcDbCircle
 10
1.298042937661385
 20
7.666702595004479
 30
0.0
 40
0.1065815326392652
100
AcDbArc
 50
143.5307656099477
 51
232.7294390983635
  0
ARC
  5
A67
330
10C1
100
AcDbEntity
  8
image
100
AcDbCircle
 10
1.147789010227009
 20
7.645237748228141
 30
0.0
 40
0.1065815326392652
100
AcDbArc
 50
323.5307656099477
 51
52.72943909836342
  0
ARC
  5
A68
330
10C1
100
AcDbEntity
  8
image
100
AcDbCircle
 10
1.495609106571435
 20
7.654728887797809
 30
0.0
 40
0.1065815326392652
100
AcDbArc
 50
143.5307656099477
 51
232.7294390983635
  0
ARC
  5
A69
330
10C1
100
AcDbEntity
  8
image
100
AcDbCircle
 10
1.345355179137058
 20
7.633264041021471
 30
0.0
 40
0.1065815326392652
100
AcDbArc
 50
323.5307656099477
 51
52.72943909836342
  0
ARC
  5
A6A
330
10C1
100
AcDbEntity
  8
image
100
AcDbCircle
 10
1.603372471431463
 20
7.69065000941782
 30
0.0
 40
0.1065815326392652
100
AcDbArc
 50
143.5307656099477
 51
232.7294390983635
  0
ARC
  5
A6B
330
10C1
100
AcDbEntity
  8
image
100
AcDbCircle
 10
1.453118543997087
 20
7.669185162641479
 30
0.0
 40
0.1065815326392652
100
AcDbArc
 50
323.5307656099477
 51
52.72943909836342
  0
ARC
  5
A6C
330
10C1
100
AcDbEntity
  8
image
100
AcDbCircle
 10
1.699162129084821
 20
7.906176739137873
 30
0.0
 40
0.1065815326392652
100
AcDbArc
 50
143.5307656099477
 51
232.7294390983635
  0
ARC
  5
A6D
330
10C1
100
AcDbEntity
  8
image
100
AcDbCircle
 10
1.548908201650444
 20
7.884711892361534
 30
0.0
 40
0.1065815326392652
100
AcDbArc
 50
323.5307656099477
 51
52.72943909836342
  0
ARC
  5
A70
330
10C1
100
AcDbEntity
  8
image
100
AcDbCircle
 10
1.435740570538088
 20
8.235453687321292
 30
0.0
 40
0.1065815326392652
100
AcDbArc
 50
143.5307656099477
 51
232.7294390983635
  0
ARC
  5
A71
330
10C1
100
AcDbEntity
  8
image
100
AcDbCircle
 10
1.28548664310371
 20
8.213988840544953
 30
0.0
 40
0.1065815326392652
100
AcDbArc
 50
323.5307656099477
 51
52.72943909836342
  0
ARC
  5
A72
330
10C1
100
AcDbEntity
  8
image
100
AcDbCircle
 10
1.519556520984777
 20
8.097756054444587
 30
0.0
 40
0.1065815326392652
100
AcDbArc
 50
143.5307656099477
 51
232.7294390983635
  0
ARC
  5
A73
330
10C1
100
AcDbEntity
  8
image
100
AcDbCircle
 10
1.369302593550398
 20
8.076291207668251
 30
0.0
 40
0.1065815326392652
100
AcDbArc
 50
323.5307656099477
 51
52.72943909836342
  0
ARC
  5
A74
330
10C1
100
AcDbEntity
  8
image
100
AcDbCircle
 10
1.208240133611362
 20
8.157624590477938
 30
0.0
 40
0.1065815326392652
100
AcDbArc
 50
143.5307656099477
 51
232.7294390983635
  0
ARC
  5
A75
330
10C1
100
AcDbEntity
  8
image
100
AcDbCircle
 10
1.057986206176986
 20
8.136159743701597
 30
0.0
 40
0.1065815326392652
100
AcDbArc
 50
323.5307656099477
 51
52.72943909836342
  0
ARC
  5
A76
330
10C1
100
AcDbEntity
  8
image
100
AcDbCircle
 10
1.694605913566497
 20
7.797365503383568
 30
0.0
 40
0.1065815326392652
100
AcDbArc
 50
159.7199718669748
 51
248.9186453553905
  0
ARC
  5
A77
330
10C1
100
AcDbEntity
  8
image
100
AcDbCircle
 10
1.556294739412418
 20
7.734859491987013
 30
0.0
 40
0.1065815326392652
100
AcDbArc
 50
339.7199718669747
 51
68.91864535539045
  0
ARC
  5
A78
330
10C1
100
AcDbEntity
  8
image
100
AcDbCircle
 10
1.592829402309806
 20
7.953023697070275
 30
0.0
 40
0.1065815326392652
100
AcDbArc
 50
159.7199718669748
 51
248.9186453553905
  0
ARC
  5
A79
330
10C1
100
AcDbEntity
  8
image
100
AcDbCircle
 10
1.454518228155725
 20
7.890517685673718
 30
0.0
 40
0.1065815326392652
100
AcDbArc
 50
339.7199718669747
 51
68.91864535539045
  0
ARC
  5
A7A
330
10C1
100
AcDbEntity
  8
image
100
AcDbCircle
 10
1.347368404573076
 20
7.917102575450265
 30
0.0
 40
0.1065815326392652
100
AcDbArc
 50
159.7199718669748
 51
248.9186453553905
  0
ARC
  5
A7B
330
10C1
100
AcDbEntity
  8
image
100
AcDbCircle
 10
1.209057230418995
 20
7.854596564053709
 30
0.0
 40
0.1065815326392652
100
AcDbArc
 50
339.7199718669747
 51
68.91864535539045
  0
ARC
  5
A7C
330
10C1
100
AcDbEntity
  8
image
100
AcDbCircle
 10
1.305460429349732
 20
7.815326064193572
 30
0.0
 40
0.1065815326392652
100
AcDbArc
 50
159.7199718669748
 51
248.9186453553905
  0
ARC
  5
A7D
330
10C1
100
AcDbEntity
  8
image
100
AcDbCircle
 10
1.167149255195651
 20
7.752820052797017
 30
0.0
 40
0.1065815326392652
100
AcDbArc
 50
339.7199718669747
 51
68.91864535539045
  0
ARC
  5
A7E
330
10C1
100
AcDbEntity
  8
image
100
AcDbCircle
 10
1.183960816904644
 20
7.897730124119548
 30
0.0
 40
0.1065815326392652
100
AcDbArc
 50
159.7199718669748
 51
248.9186453553905
  0
ARC
  5
A7F
330
10C1
100
AcDbEntity
  8
image
100
AcDbCircle
 10
1.045649642750563
 20
7.835224112722992
 30
0.0
 40
0.1065815326392652
100
AcDbArc
 50
339.7199718669747
 51
68.91864535539045
  0
ARC
  5
A80
330
10C1
100
AcDbEntity
  8
image
100
AcDbCircle
 10
1.347368404573076
 20
8.09670818355031
 30
0.0
 40
0.1065815326392652
100
AcDbArc
 50
159.7199718669748
 51
248.9186453553905
  0
ARC
  5
A81
330
10C1
100
AcDbEntity
  8
image
100
AcDbCircle
 10
1.209057230418995
 20
8.034202172153754
 30
0.0
 40
0.1065815326392652
100
AcDbArc
 50
339.7199718669747
 51
68.91864535539045
  0
ARC
  5
A82
330
10C1
100
AcDbEntity
  8
image
100
AcDbCircle
 10
1.544934573483127
 20
8.234405816427013
 30
0.0
 40
0.1065815326392652
100
AcDbArc
 50
159.7199718669748
 51
248.9186453553905
  0
ARC
  5
A83
330
10C1
100
AcDbEntity
  8
image
100
AcDbCircle
 10
1.406623399329045
 20
8.171899805030458
 30
0.0
 40
0.1065815326392652
100
AcDbArc
 50
339.7199718669747
 51
68.91864535539045
  0
ARC
  5
A84
330
10C1
100
AcDbEntity
  8
image
100
AcDbCircle
 10
1.455131769433104
 20
8.060787061930302
 30
0.0
 40
0.1065815326392652
100
AcDbArc
 50
159.7199718669748
 51
248.9186453553905
  0
ARC
  5
A85
330
10C1
100
AcDbEntity
  8
image
100
AcDbCircle
 10
1.316820595279024
 20
7.998281050533746
 30
0.0
 40
0.1065815326392652
100
AcDbArc
 50
339.7199718669747
 51
68.91864535539045
  0
ARC
  5
A88
330
10C1
100
AcDbEntity
  8
image
100
AcDbCircle
 10
1.544934573483127
 20
7.773418088970227
 30
0.0
 40
0.1065815326392652
100
AcDbArc
 50
159.7199718669748
 51
248.9186453553905
  0
ARC
  5
A89
330
10C1
100
AcDbEntity
  8
image
100
AcDbCircle
 10
1.406623399329045
 20
7.710912077573674
 30
0.0
 40
0.1065815326392652
100
AcDbArc
 50
339.7199718669747
 51
68.91864535539045
  0
ARC
  5
A8A
330
10C1
100
AcDbEntity
  8
image
100
AcDbCircle
 10
1.580855695103136
 20
7.821312917796907
 30
0.0
 40
0.1065815326392652
100
AcDbArc
 50
159.7199718669748
 51
248.9186453553905
  0
ARC
  5
A8B
330
10C1
100
AcDbEntity
  8
image
100
AcDbCircle
 10
1.442544520949055
 20
7.758806906400352
 30
0.0
 40
0.1065815326392652
100
AcDbArc
 50
339.7199718669747
 51
68.91864535539045
  0
ARC
  5
A8C
330
10C1
100
AcDbEntity
  8
image
100
AcDbCircle
 10
1.281513014936393
 20
8.246379523633681
 30
0.0
 40
0.1065815326392652
100
AcDbArc
 50
159.7199718669748
 51
248.9186453553905
  0
ARC
  5
A8D
330
10C1
100
AcDbEntity
  8
image
100
AcDbCircle
 10
1.143201840782312
 20
8.183873512237127
 30
0.0
 40
0.1065815326392652
100
AcDbArc
 50
339.7199718669747
 51
68.91864535539045
  0
ARC
  5
A8E
330
10C1
100
AcDbEntity
  8
image
100
AcDbCircle
 10
1.269539307729723
 20
8.054800208326966
 30
0.0
 40
0.1065815326392652
100
AcDbArc
 50
159.7199718669748
 51
248.9186453553905
  0
ARC
  5
A8F
330
10C1
100
AcDbEntity
  8
image
100
AcDbCircle
 10
1.131228133575643
 20
7.992294196930411
 30
0.0
 40
0.1065815326392652
100
AcDbArc
 50
339.7199718669747
 51
68.91864535539045
  0
ARC
  5
A90
330
10C1
100
AcDbEntity
  8
image
100
AcDbCircle
 10
1.310998804765626
 20
7.69763380654146
 30
0.0
 40
0.1065815326392652
100
AcDbArc
 50
278.5307656099479
 51
7.729439098363567
  0
ARC
  5
A91
330
10C1
100
AcDbEntity
  8
image
100
AcDbCircle
 10
1.432422314467065
 20
7.606566174265379
 30
0.0
 40
0.1065815326392652
100
AcDbArc
 50
98.53076560994791
 51
187.7294390983636
  0
ARC
  5
A92
330
10C1
100
AcDbEntity
  8
image
100
AcDbCircle
 10
1.077511514235567
 20
7.781449756988148
 30
0.0
 40
0.1065815326392652
100
AcDbArc
 50
278.5307656099479
 51
7.729439098363567
  0
ARC
  5
A93
330
10C1
100
AcDbEntity
  8
image
100
AcDbCircle
 10
1.198935023937006
 20
7.690382124712066
 30
0.0
 40
0.1065815326392652
100
AcDbArc
 50
98.53076560994791
 51
187.7294390983636
  0
ARC
  5
A94
330
10C1
100
AcDbEntity
  8
image
100
AcDbCircle
 10
0.9502228413169575
 20
8.130172890098265
 30
0.0
 40
0.1065815326392652
100
AcDbArc
 50
323.5307656099477
 51
52.72943909836342
  0
ARC
  5
A95
330
10C1
100
AcDbEntity
  8
image
100
AcDbCircle
 10
1.100476768751334
 20
8.151637736874603
 30
0.0
 40
0.1065815326392652
100
AcDbArc
 50
143.5307656099477
 51
232.7294390983635
  0
ARC
  5
A98
330
10C1
100
AcDbEntity
  8
image
100
AcDbCircle
 10
1.298860034469017
 20
7.848609710450376
 30
0.0
 40
0.1065815326392652
100
AcDbArc
 50
339.7199718669747
 51
68.91864535539045
  0
ARC
  5
A99
330
10C1
100
AcDbEntity
  8
image
100
AcDbCircle
 10
1.437171208623098
 20
7.91111572184693
 30
0.0
 40
0.1065815326392652
100
AcDbArc
 50
159.7199718669748
 51
248.9186453553905
  0
ARC
  5
A9A
330
10C1
100
AcDbEntity
  8
image
100
AcDbCircle
 10
1.239156561525608
 20
8.158621533998243
 30
0.0
 40
0.1065815326392652
100
AcDbArc
 50
278.5307656099479
 51
7.729439098363567
  0
ARC
  5
A9B
330
10C1
100
AcDbEntity
  8
image
100
AcDbCircle
 10
1.360580071227046
 20
8.067553901722163
 30
0.0
 40
0.1065815326392652
100
AcDbArc
 50
98.53076560994791
 51
187.7294390983636
  0
ARC
  5
B08
330
10C1
100
AcDbEntity
  8
image
100
AcDbCircle
 10
0.9731922626733155
 20
7.85165927086644
 30
0.0
 40
0.1065815326392652
100
AcDbArc
 50
116.0563205359582
 51
205.254994024374
  0
ARC
  5
B09
330
10C1
100
AcDbEntity
  8
image
100
AcDbCircle
 10
0.8299815998003332
 20
7.901935392396129
 30
0.0
 40
0.1065815326392652
100
AcDbArc
 50
296.0563205359582
 51
25.2549940243739
  0
ARC
  5
B0A
330
10C1
100
AcDbEntity
  8
image
100
AcDbCircle
 10
1.148736828268981
 20
7.925659984861782
 30
0.0
 40
0.1065815326392652
100
AcDbArc
 50
143.5307656099477
 51
232.7294390983635
  0
ARC
  5
B0B
330
10C1
100
AcDbEntity
  8
image
100
AcDbCircle
 10
0.9984829008346039
 20
7.904195138085444
 30
0.0
 40
0.1065815326392652
100
AcDbArc
 50
323.5307656099477
 51
52.72943909836342
  0
ARC
  5
B0C
330
10C1
100
AcDbEntity
  8
image
100
AcDbCircle
 10
1.058602121925579
 20
7.917213369843456
 30
0.0
 40
0.1065815326392652
100
AcDbArc
 50
159.7199718669748
 51
248.9186453553905
  0
ARC
  5
B0D
330
10C1
100
AcDbEntity
  8
image
100
AcDbCircle
 10
0.920290947771498
 20
7.854707358446901
 30
0.0
 40
0.1065815326392652
100
AcDbArc
 50
339.7199718669747
 51
68.91864535539045
  0
ARC
  5
B0E
330
10C1
100
AcDbEntity
  8
image
100
AcDbCircle
 10
1.023012902598949
 20
7.781975498381746
 30
0.0
 40
0.1065815326392652
100
AcDbArc
 50
143.5307656099477
 51
232.7294390983635
  0
ARC
  5
B0F
330
10C1
100
AcDbEntity
  8
image
100
AcDbCircle
 10
0.9930786345822737
 20
7.698159547935056
 30
0.0
 40
0.1065815326392652
100
AcDbArc
 50
143.5307656099477
 51
232.7294390983635
  0
ARC
  5
B10
330
10C1
100
AcDbEntity
  8
image
100
AcDbCircle
 10
0.8428247071478976
 20
7.676694701158718
 30
0.0
 40
0.1065815326392652
100
AcDbArc
 50
323.5307656099477
 51
52.72943909836342
  0
ARC
  5
B11
330
10C1
100
AcDbEntity
  8
image
100
AcDbCircle
 10
1.094855145838966
 20
7.686185840728387
 30
0.0
 40
0.1065815326392652
100
AcDbArc
 50
143.5307656099477
 51
232.7294390983635
  0
ARC
  5
B12
330
10C1
100
AcDbEntity
  8
image
100
AcDbCircle
 10
0.9446012184045901
 20
7.664720993952049
 30
0.0
 40
0.1065815326392652
100
AcDbArc
 50
323.5307656099477
 51
52.72943909836342
  0
ARC
  5
B14
330
10C1
100
AcDbEntity
  8
image
100
AcDbCircle
 10
0.9521528192565007
 20
7.800933002712056
 30
0.0
 40
0.1065815326392652
100
AcDbArc
 50
278.5307656099479
 51
7.729439098363567
  0
ARC
  5
B15
330
10C1
100
AcDbEntity
  8
image
100
AcDbCircle
 10
0.8727589751645712
 20
7.760510651605407
 30
0.0
 40
0.1065815326392652
100
AcDbArc
 50
323.5307656099477
 51
52.72943909836342
  0
ARC
  5
B16
330
10C1
100
AcDbEntity
  8
image
100
AcDbCircle
 10
1.07357632895794
 20
7.709865370435977
 30
0.0
 40
0.1065815326392652
100
AcDbArc
 50
98.53076560994791
 51
187.7294390983636
  0
ARC
  5
B17
330
10C1
100
AcDbEntity
  8
image
100
AcDbCircle
 10
1.008020416469281
 20
8.000922665133396
 30
0.0
 40
0.1065815326392652
100
AcDbArc
 50
116.0563205359582
 51
205.254994024374
  0
ARC
  5
B18
330
10C1
100
AcDbEntity
  8
image
100
AcDbCircle
 10
0.8648097535963003
 20
8.051198786663086
 30
0.0
 40
0.1065815326392652
100
AcDbArc
 50
296.0563205359582
 51
25.2549940243739
  0
ARC
  5
B19
330
10C1
100
AcDbEntity
  8
image
100
AcDbCircle
 10
0.923267683847165
 20
7.99882800714361
 30
0.0
 40
0.1065815326392652
100
AcDbArc
 50
323.5307656099477
 51
52.72943909836342
  0
ARC
  5
B1A
330
10C1
100
AcDbEntity
  8
image
100
AcDbCircle
 10
1.073521611281541
 20
8.020292853919947
 30
0.0
 40
0.1065815326392652
100
AcDbArc
 50
143.5307656099477
 51
232.7294390983635
  0
ARC
  5
B1B
330
10C1
100
AcDbEntity
  8
image
100
AcDbCircle
 10
3.181124972990892
 20
7.860631050634432
 30
0.0
 40
0.1065815326392652
100
AcDbArc
 50
111.0813546446095
 51
200.2800281330253
  0
ARC
  5
B1C
330
10C1
100
AcDbEntity
  8
image
100
AcDbCircle
 10
3.042813798836812
 20
7.923137062030987
 30
0.0
 40
0.1065815326392652
100
AcDbArc
 50
291.0813546446095
 51
20.28002813302522
  0
ARC
  5
B1D
330
10C1
100
AcDbEntity
  8
image
100
AcDbCircle
 10
3.102933019927787
 20
7.910118830272973
 30
0.0
 40
0.1065815326392652
100
AcDbArc
 50
127.2705609016365
 51
216.4692343900523
  0
ARC
  5
B1E
330
10C1
100
AcDbEntity
  8
image
100
AcDbCircle
 10
2.952679092493409
 20
7.931583677049313
 30
0.0
 40
0.1065815326392652
100
AcDbArc
 50
307.2705609016365
 51
36.46923439005223
  0
ARC
  5
B1F
330
10C1
100
AcDbEntity
  8
image
100
AcDbCircle
 10
3.271434320962058
 20
7.90785908458366
 30
0.0
 40
0.1065815326392652
100
AcDbArc
 50
154.7450059756261
 51
243.9436794640418
  0
ARC
  5
B20
330
10C1
100
AcDbEntity
  8
image
100
AcDbCircle
 10
3.128223658089075
 20
7.85758296305397
 30
0.0
 40
0.1065815326392652
100
AcDbArc
 50
334.745005975626
 51
63.94367946404176
  0
ARC
  5
B21
330
10C1
100
AcDbEntity
  8
image
100
AcDbCircle
 10
2.542635787949017
 20
7.877903289134583
 30
0.0
 40
0.1065815326392652
100
AcDbArc
 50
334.745005975626
 51
63.94367946404176
  0
ARC
  5
B22
330
10C1
100
AcDbEntity
  8
image
100
AcDbCircle
 10
2.685846450821999
 20
7.928179410664271
 30
0.0
 40
0.1065815326392652
100
AcDbArc
 50
154.7450059756261
 51
243.9436794640418
  0
ARC
  5
B23
330
10C1
100
AcDbEntity
  8
image
100
AcDbCircle
 10
3.002864963110011
 20
7.83809971733006
 30
0.0
 40
0.1065815326392652
100
AcDbArc
 50
334.745005975626
 51
63.94367946404176
  0
ARC
  5
B24
330
10C1
100
AcDbEntity
  8
image
100
AcDbCircle
 10
3.146075625982992
 20
7.88837583885975
 30
0.0
 40
0.1065815326392652
100
AcDbArc
 50
154.7450059756261
 51
243.9436794640418
  0
ARC
  5
B25
330
10C1
100
AcDbEntity
  8
image
100
AcDbCircle
 10
2.458053128730239
 20
7.830636547616713
 30
0.0
 40
0.1065815326392652
100
AcDbArc
 50
334.745005975626
 51
63.94367946404176
  0
ARC
  5
B26
330
10C1
100
AcDbEntity
  8
image
100
AcDbCircle
 10
2.60126379160322
 20
7.880912669146402
 30
0.0
 40
0.1065815326392652
100
AcDbArc
 50
154.7450059756261
 51
243.9436794640418
  0
ARC
  5
B27
330
10C1
100
AcDbEntity
  8
image
100
AcDbCircle
 10
2.827320397514345
 20
7.912100431325403
 30
0.0
 40
0.1065815326392652
100
AcDbArc
 50
307.2705609016365
 51
36.46923439005223
  0
ARC
  5
B28
330
10C1
100
AcDbEntity
  8
image
100
AcDbCircle
 10
2.977574324948721
 20
7.890635584549064
 30
0.0
 40
0.1065815326392652
100
AcDbArc
 50
127.2705609016365
 51
216.4692343900523
  0
ARC
  5
B29
330
10C1
100
AcDbEntity
  8
image
100
AcDbCircle
 10
2.731530739860987
 20
7.995916381772092
 30
0.0
 40
0.1065815326392652
100
AcDbArc
 50
307.2705609016365
 51
36.46923439005223
  0
ARC
  5
B2A
330
10C1
100
AcDbEntity
  8
image
100
AcDbCircle
 10
2.593833106984285
 20
7.918087284928739
 30
0.0
 40
0.1065815326392652
100
AcDbArc
 50
307.2705609016365
 51
36.46923439005223
  0
ARC
  5
B2B
330
10C1
100
AcDbEntity
  8
image
100
AcDbCircle
 10
2.744087034418662
 20
7.8966224381524
 30
0.0
 40
0.1065815326392652
100
AcDbArc
 50
127.2705609016365
 51
216.4692343900523
  0
ARC
  5
B2C
330
10C1
100
AcDbEntity
  8
image
100
AcDbCircle
 10
2.402253791677569
 20
7.912100431325403
 30
0.0
 40
0.1065815326392652
100
AcDbArc
 50
307.2705609016365
 51
36.46923439005223
  0
ARC
  5
B2D
330
10C1
100
AcDbEntity
  8
image
100
AcDbCircle
 10
2.552507719111945
 20
7.890635584549064
 30
0.0
 40
0.1065815326392652
100
AcDbArc
 50
127.2705609016365
 51
216.4692343900523
  0
ARC
  5
B2E
330
10C1
100
AcDbEntity
  8
image
100
AcDbCircle
 10
2.508586518452585
 20
7.958947389257805
 30
0.0
 40
0.1065815326392652
100
AcDbArc
 50
291.0813546446095
 51
20.28002813302522
  0
ARC
  5
B2F
330
10C1
100
AcDbEntity
  8
image
100
AcDbCircle
 10
2.646897692606666
 20
7.896441377861249
 30
0.0
 40
0.1065815326392652
100
AcDbArc
 50
111.0813546446095
 51
200.2800281330253
  0
ARC
  5
B30
330
10C1
100
AcDbEntity
  8
image
100
AcDbCircle
 10
2.754047516189313
 20
7.923026267637795
 30
0.0
 40
0.1065815326392652
100
AcDbArc
 50
291.0813546446095
 51
20.28002813302522
  0
ARC
  5
B31
330
10C1
100
AcDbEntity
  8
image
100
AcDbCircle
 10
2.892358690343395
 20
7.860520256241239
 30
0.0
 40
0.1065815326392652
100
AcDbArc
 50
111.0813546446095
 51
200.2800281330253
  0
ARC
  5
B32
330
10C1
100
AcDbEntity
  8
image
100
AcDbCircle
 10
2.917455103857747
 20
7.903653816307079
 30
0.0
 40
0.1065815326392652
100
AcDbArc
 50
291.0813546446095
 51
20.28002813302522
  0
ARC
  5
B33
330
10C1
100
AcDbEntity
  8
image
100
AcDbCircle
 10
3.055766278011827
 20
7.841147804910522
 30
0.0
 40
0.1065815326392652
100
AcDbArc
 50
111.0813546446095
 51
200.2800281330253
  0
ARC
  5
B34
330
10C1
100
AcDbEntity
  8
image
100
AcDbCircle
 10
2.802555886293372
 20
7.854533402637906
 30
0.0
 40
0.1065815326392652
100
AcDbArc
 50
111.0813546446095
 51
200.2800281330253
  0
ARC
  5
B35
330
10C1
100
AcDbEntity
  8
image
100
AcDbCircle
 10
2.664244712139292
 20
7.91703941403446
 30
0.0
 40
0.1065815326392652
100
AcDbArc
 50
291.0813546446095
 51
20.28002813302522
  0
ARC
  5
B36
330
10C1
100
AcDbEntity
  8
image
100
AcDbCircle
 10
2.61229209554095
 20
7.77093118990993
 30
0.0
 40
0.1065815326392652
100
AcDbArc
 50
334.745005975626
 51
63.94367946404176
  0
ARC
  5
B37
330
10C1
100
AcDbEntity
  8
image
100
AcDbCircle
 10
2.82790298486535
 20
7.746951098069028
 30
0.0
 40
0.1065815326392652
100
AcDbArc
 50
127.2705609016365
 51
216.4692343900523
  0
ARC
  5
B38
330
10C1
100
AcDbEntity
  8
image
100
AcDbCircle
 10
2.790417115996764
 20
7.703557498728989
 30
0.0
 40
0.1065815326392652
100
AcDbArc
 50
172.2705609016364
 51
261.4692343900521
  0
ARC
  5
B39
330
10C1
100
AcDbEntity
  8
image
100
AcDbCircle
 10
2.668993606295325
 20
7.61248986645291
 30
0.0
 40
0.1065815326392652
100
AcDbArc
 50
352.2705609016364
 51
81.4692343900521
  0
ARC
  5
B3A
330
10C1
100
AcDbEntity
  8
image
100
AcDbCircle
 10
3.027839591804451
 20
7.715789062623508
 30
0.0
 40
0.1065815326392652
100
AcDbArc
 50
352.2705609016364
 51
81.4692343900521
  0
ARC
  5
B3B
330
10C1
100
AcDbEntity
  8
image
100
AcDbCircle
 10
3.149263101505891
 20
7.806856694899586
 30
0.0
 40
0.1065815326392652
100
AcDbArc
 50
172.2705609016364
 51
261.4692343900521
  0
ARC
  5
B3C
330
10C1
100
AcDbEntity
  8
image
100
AcDbCircle
 10
3.1568147023578
 20
7.67064468613958
 30
0.0
 40
0.1065815326392652
100
AcDbArc
 50
127.2705609016365
 51
216.4692343900523
  0
ARC
  5
B3D
330
10C1
100
AcDbEntity
  8
image
100
AcDbCircle
 10
2.953044323184375
 20
7.768415944845368
 30
0.0
 40
0.1065815326392652
100
AcDbArc
 50
307.2705609016365
 51
36.46923439005223
  0
ARC
  5
B3E
330
10C1
100
AcDbEntity
  8
image
100
AcDbCircle
 10
2.982978591201051
 20
7.684599994398679
 30
0.0
 40
0.1065815326392652
100
AcDbArc
 50
307.2705609016365
 51
36.46923439005223
  0
ARC
  5
B3F
330
10C1
100
AcDbEntity
  8
image
100
AcDbCircle
 10
3.133232518635427
 20
7.663135147622339
 30
0.0
 40
0.1065815326392652
100
AcDbArc
 50
127.2705609016365
 51
216.4692343900523
  0
ARC
  5
B40
330
10C1
100
AcDbEntity
  8
image
100
AcDbCircle
 10
3.006560774923424
 20
7.692109532915917
 30
0.0
 40
0.1065815326392652
100
AcDbArc
 50
307.2705609016365
 51
36.46923439005223
  0
ARC
  5
B41
330
10C1
100
AcDbEntity
  8
image
100
AcDbCircle
 10
3.258591213614494
 20
7.682618393346249
 30
0.0
 40
0.1065815326392652
100
AcDbArc
 50
127.2705609016365
 51
216.4692343900523
  0
ARC
  5
B42
330
10C1
100
AcDbEntity
  8
image
100
AcDbCircle
 10
3.108337286180116
 20
7.704083240122587
 30
0.0
 40
0.1065815326392652
100
AcDbArc
 50
307.2705609016365
 51
36.46923439005223
  0
ARC
  5
B43
330
10C1
100
AcDbEntity
  8
image
100
AcDbCircle
 10
3.228656945597819
 20
7.766434343792938
 30
0.0
 40
0.1065815326392652
100
AcDbArc
 50
127.2705609016365
 51
216.4692343900523
  0
ARC
  5
B44
330
10C1
100
AcDbEntity
  8
image
100
AcDbCircle
 10
3.078403018163442
 20
7.787899190569277
 30
0.0
 40
0.1065815326392652
100
AcDbArc
 50
307.2705609016365
 51
36.46923439005223
  0
ARC
  5
B45
330
10C1
100
AcDbEntity
  8
image
100
AcDbCircle
 10
2.726727458013413
 20
7.661471367447496
 30
0.0
 40
0.1065815326392652
100
AcDbArc
 50
334.745005975626
 51
63.94367946404176
  0
ARC
  5
B46
330
10C1
100
AcDbEntity
  8
image
100
AcDbCircle
 10
2.869938120886395
 20
7.711747488977184
 30
0.0
 40
0.1065815326392652
100
AcDbArc
 50
154.7450059756261
 51
243.9436794640418
  0
ARC
  5
B47
330
10C1
100
AcDbEntity
  8
image
100
AcDbCircle
 10
2.881202079944358
 20
7.672626287192009
 30
0.0
 40
0.1065815326392652
100
AcDbArc
 50
307.2705609016365
 51
36.46923439005223
  0
ARC
  5
B48
330
10C1
100
AcDbEntity
  8
image
100
AcDbCircle
 10
3.031456007378735
 20
7.651161440415672
 30
0.0
 40
0.1065815326392652
100
AcDbArc
 50
127.2705609016365
 51
216.4692343900523
  0
ARC
  5
B49
330
10C1
100
AcDbEntity
  8
image
100
AcDbCircle
 10
2.803372983101005
 20
7.672626287192009
 30
0.0
 40
0.1065815326392652
100
AcDbArc
 50
307.2705609016365
 51
36.46923439005223
  0
ARC
  5
B4A
330
10C1
100
AcDbEntity
  8
image
100
AcDbCircle
 10
2.953626910535382
 20
7.651161440415672
 30
0.0
 40
0.1065815326392652
100
AcDbArc
 50
127.2705609016365
 51
216.4692343900523
  0
ARC
  5
B4B
330
10C1
100
AcDbEntity
  8
image
100
AcDbCircle
 10
3.023904406526824
 20
7.787373449175678
 30
0.0
 40
0.1065815326392652
100
AcDbArc
 50
172.2705609016364
 51
261.4692343900521
  0
ARC
  5
B4C
330
10C1
100
AcDbEntity
  8
image
100
AcDbCircle
 10
2.795955491412659
 20
7.821249756381103
 30
0.0
 40
0.1065815326392652
100
AcDbArc
 50
291.0813546446095
 51
20.28002813302522
  0
ARC
  5
B4D
330
10C1
100
AcDbEntity
  8
image
100
AcDbCircle
 10
3.103298250618753
 20
7.746951098069028
 30
0.0
 40
0.1065815326392652
100
AcDbArc
 50
127.2705609016365
 51
216.4692343900523
  0
ARC
  5
B4E
330
10C1
100
AcDbEntity
  8
image
100
AcDbCircle
 10
2.902480896825385
 20
7.696305816899597
 30
0.0
 40
0.1065815326392652
100
AcDbArc
 50
352.2705609016364
 51
81.4692343900521
  0
ARC
  5
B4F
330
10C1
100
AcDbEntity
  8
image
100
AcDbCircle
 10
2.741653809640258
 20
7.765955743434364
 30
0.0
 40
0.1065815326392652
100
AcDbArc
 50
334.745005975626
 51
63.94367946404176
  0
ARC
  5
B50
330
10C1
100
AcDbEntity
  8
image
100
AcDbCircle
 10
2.884864472513238
 20
7.816231864964056
 30
0.0
 40
0.1065815326392652
100
AcDbArc
 50
154.7450059756261
 51
243.9436794640418
  0
ARC
  5
B51
330
10C1
100
AcDbEntity
  8
image
100
AcDbCircle
 10
2.677649057430973
 20
7.768415944845368
 30
0.0
 40
0.1065815326392652
100
AcDbArc
 50
307.2705609016365
 51
36.46923439005223
  0
ARC
  5
B52
330
10C1
100
AcDbEntity
  8
image
100
AcDbCircle
 10
2.934266665566738
 20
7.758743744984546
 30
0.0
 40
0.1065815326392652
100
AcDbArc
 50
111.0813546446095
 51
200.2800281330253
  0
ARC
  5
B53
330
10C1
100
AcDbEntity
  8
image
100
AcDbCircle
 10
2.432188059694243
 20
7.678613140795344
 30
0.0
 40
0.1065815326392652
100
AcDbArc
 50
307.2705609016365
 51
36.46923439005223
  0
ARC
  5
B54
330
10C1
100
AcDbEntity
  8
image
100
AcDbCircle
 10
2.582441987128621
 20
7.657148294019005
 30
0.0
 40
0.1065815326392652
100
AcDbArc
 50
127.2705609016365
 51
216.4692343900523
  0
ARC
  5
B55
330
10C1
100
AcDbEntity
  8
image
100
AcDbCircle
 10
2.570646629434781
 20
7.643506096682254
 30
0.0
 40
0.0852652261114122
100
AcDbArc
 50
307.2705609016365
 51
36.46923439005223
  0
ARC
  5
B56
330
10C1
100
AcDbEntity
  8
image
100
AcDbCircle
 10
2.690849771382283
 20
7.626334219261183
 30
0.0
 40
0.0852652261114122
100
AcDbArc
 50
127.2705609016365
 51
216.4692343900523
  0
ARC
  5
B57
330
10C1
100
AcDbEntity
  8
image
100
AcDbCircle
 10
2.498043449330928
 20
7.696573701605349
 30
0.0
 40
0.1065815326392652
100
AcDbArc
 50
307.2705609016365
 51
36.46923439005223
  0
ARC
  5
B58
330
10C1
100
AcDbEntity
  8
image
100
AcDbCircle
 10
2.648297376765303
 20
7.67510885482901
 30
0.0
 40
0.1065815326392652
100
AcDbArc
 50
127.2705609016365
 51
216.4692343900523
  0
ARC
  5
B59
330
10C1
100
AcDbEntity
  8
image
100
AcDbCircle
 10
2.694792521433345
 20
7.716835769761204
 30
0.0
 40
0.1065815326392652
100
AcDbArc
 50
111.0813546446095
 51
200.2800281330253
  0
ARC
  5
B5A
330
10C1
100
AcDbEntity
  8
image
100
AcDbCircle
 10
2.520560225659254
 20
7.827236609984438
 30
0.0
 40
0.1065815326392652
100
AcDbArc
 50
291.0813546446095
 51
20.28002813302522
  0
ARC
  5
B5B
330
10C1
100
AcDbEntity
  8
image
100
AcDbCircle
 10
2.658871399813335
 20
7.764730598587883
 30
0.0
 40
0.1065815326392652
100
AcDbArc
 50
111.0813546446095
 51
200.2800281330253
  0
ARC
  5
B5C
330
10C1
100
AcDbEntity
  8
image
100
AcDbCircle
 10
2.755502758413931
 20
7.821207311439619
 30
0.0
 40
0.1065815326392652
100
AcDbArc
 50
154.7450059756261
 51
243.9436794640418
  0
ARC
  5
B5D
330
10C1
100
AcDbEntity
  8
image
100
AcDbCircle
 10
2.556481347279262
 20
7.779341781157757
 30
0.0
 40
0.1065815326392652
100
AcDbArc
 50
291.0813546446095
 51
20.28002813302522
  0
ARC
  5
B5E
330
10C1
100
AcDbEntity
  8
image
100
AcDbCircle
 10
2.406810007195892
 20
7.803289195571099
 30
0.0
 40
0.1065815326392652
100
AcDbArc
 50
291.0813546446095
 51
20.28002813302522
  0
ARC
  5
B5F
330
10C1
100
AcDbEntity
  8
image
100
AcDbCircle
 10
2.545121181349973
 20
7.740783184174544
 30
0.0
 40
0.1065815326392652
100
AcDbArc
 50
111.0813546446095
 51
200.2800281330253
  0
ARC
  5
B60
330
10C1
100
AcDbEntity
  8
image
100
AcDbCircle
 10
2.637169348252355
 20
8.106773827010584
 30
0.0
 40
0.1065815326392652
100
AcDbArc
 50
334.745005975626
 51
63.94367946404176
  0
ARC
  5
B61
330
10C1
100
AcDbEntity
  8
image
100
AcDbCircle
 10
2.676972952590603
 20
7.974924495408105
 30
0.0
 40
0.1065815326392652
100
AcDbArc
 50
334.745005975626
 51
63.94367946404176
  0
ARC
  5
B62
330
10C1
100
AcDbEntity
  8
image
100
AcDbCircle
 10
2.820183615463585
 20
8.025200616937794
 30
0.0
 40
0.1065815326392652
100
AcDbArc
 50
154.7450059756261
 51
243.9436794640418
  0
ARC
  5
B63
330
10C1
100
AcDbEntity
  8
image
100
AcDbCircle
 10
2.665675350224303
 20
8.241377379508822
 30
0.0
 40
0.1065815326392652
100
AcDbArc
 50
307.2705609016365
 51
36.46923439005223
  0
ARC
  5
B64
330
10C1
100
AcDbEntity
  8
image
100
AcDbCircle
 10
2.81592927765868
 20
8.219912532732482
 30
0.0
 40
0.1065815326392652
100
AcDbArc
 50
127.2705609016365
 51
216.4692343900523
  0
ARC
  5
B65
330
10C1
100
AcDbEntity
  8
image
100
AcDbCircle
 10
2.646284151329287
 20
8.066710754117831
 30
0.0
 40
0.1065815326392652
100
AcDbArc
 50
291.0813546446095
 51
20.28002813302522
  0
ARC
  5
B66
330
10C1
100
AcDbEntity
  8
image
100
AcDbCircle
 10
2.784595325483368
 20
8.004204742721277
 30
0.0
 40
0.1065815326392652
100
AcDbArc
 50
111.0813546446095
 51
200.2800281330253
  0
ARC
  5
B67
330
10C1
100
AcDbEntity
  8
image
100
AcDbCircle
 10
2.862259359236783
 20
8.164545226185772
 30
0.0
 40
0.1065815326392652
100
AcDbArc
 50
172.2705609016364
 51
261.4692343900521
  0
ARC
  5
B68
330
10C1
100
AcDbEntity
  8
image
100
AcDbCircle
 10
3.178148236915226
 20
8.004751699331141
 30
0.0
 40
0.1065815326392652
100
AcDbArc
 50
127.2705609016365
 51
216.4692343900523
  0
ARC
  5
B69
330
10C1
100
AcDbEntity
  8
image
100
AcDbCircle
 10
2.940671831331497
 20
8.136626505863976
 30
0.0
 40
0.1065815326392652
100
AcDbArc
 50
334.745005975626
 51
63.94367946404176
  0
ARC
  5
B6A
330
10C1
100
AcDbEntity
  8
image
100
AcDbCircle
 10
2.968036809314043
 20
7.987363111597017
 30
0.0
 40
0.1065815326392652
100
AcDbArc
 50
334.745005975626
 51
63.94367946404176
  0
ARC
  5
B6B
330
10C1
100
AcDbEntity
  8
image
100
AcDbCircle
 10
3.111247472187025
 20
8.037639233126707
 30
0.0
 40
0.1065815326392652
100
AcDbArc
 50
154.7450059756261
 51
243.9436794640418
  0
ARC
  5
B6C
330
10C1
100
AcDbEntity
  8
image
100
AcDbCircle
 10
3.151193079445434
 20
8.136096582285794
 30
0.0
 40
0.1065815326392652
100
AcDbArc
 50
127.2705609016365
 51
216.4692343900523
  0
ARC
  5
B6D
330
10C1
100
AcDbEntity
  8
image
100
AcDbCircle
 10
3.000939152011055
 20
8.157561429062134
 30
0.0
 40
0.1065815326392652
100
AcDbArc
 50
307.2705609016365
 51
36.46923439005223
  0
ARC
  5
B6E
330
10C1
100
AcDbEntity
  8
image
100
AcDbCircle
 10
3.02789430948085
 20
8.026216546107477
 30
0.0
 40
0.1065815326392652
100
AcDbArc
 50
307.2705609016365
 51
36.46923439005223
  0
ARC
  5
B6F
330
10C1
100
AcDbEntity
  8
image
100
AcDbCircle
 10
3.236606167166091
 20
8.057122478850615
 30
0.0
 40
0.1065815326392652
100
AcDbArc
 50
154.7450059756261
 51
243.9436794640418
  0
ARC
  5
B70
330
10C1
100
AcDbEntity
  8
image
100
AcDbCircle
 10
3.093395504293108
 20
8.006846357320927
 30
0.0
 40
0.1065815326392652
100
AcDbArc
 50
334.745005975626
 51
63.94367946404176
  0
ARC
  5
B71
330
10C1
100
AcDbEntity
  8
image
100
AcDbCircle
 10
3.083882494204479
 20
8.186902627393664
 30
0.0
 40
0.1065815326392652
100
AcDbArc
 50
154.7450059756261
 51
243.9436794640418
  0
ARC
  5
B72
330
10C1
100
AcDbEntity
  8
image
100
AcDbCircle
 10
2.818773293045612
 20
8.116724719961712
 30
0.0
 40
0.1065815326392652
100
AcDbArc
 50
334.745005975626
 51
63.94367946404176
  0
ARC
  5
B73
330
10C1
100
AcDbEntity
  8
image
100
AcDbCircle
 10
2.961983955918594
 20
8.167000841491402
 30
0.0
 40
0.1065815326392652
100
AcDbArc
 50
154.7450059756261
 51
243.9436794640418
  0
ARC
  5
B74
330
10C1
100
AcDbEntity
  8
image
100
AcDbCircle
 10
2.893175787151028
 20
8.16354828266547
 30
0.0
 40
0.1065815326392652
100
AcDbArc
 50
307.2705609016365
 51
36.46923439005223
  0
ARC
  5
B75
330
10C1
100
AcDbEntity
  8
image
100
AcDbCircle
 10
3.043429714585405
 20
8.142083435889128
 30
0.0
 40
0.1065815326392652
100
AcDbArc
 50
127.2705609016365
 51
216.4692343900523
  0
ARC
  5
B76
330
10C1
100
AcDbEntity
  8
image
100
AcDbCircle
 10
2.819902905825998
 20
8.252303215821212
 30
0.0
 40
0.1065815326392652
100
AcDbArc
 50
291.0813546446095
 51
20.28002813302522
  0
ARC
  5
B77
330
10C1
100
AcDbEntity
  8
image
100
AcDbCircle
 10
2.740835849535343
 20
8.073477593909693
 30
0.0
 40
0.1065815326392652
100
AcDbArc
 50
352.2705609016364
 51
81.4692343900521
  0
ARC
  5
B78
330
10C1
100
AcDbEntity
  8
image
100
AcDbCircle
 10
2.831876613032667
 20
8.060723900514497
 30
0.0
 40
0.1065815326392652
100
AcDbArc
 50
291.0813546446095
 51
20.28002813302522
  0
ARC
  5
B79
330
10C1
100
AcDbEntity
  8
image
100
AcDbCircle
 10
2.970187787186747
 20
7.998217889117942
 30
0.0
 40
0.1065815326392652
100
AcDbArc
 50
111.0813546446095
 51
200.2800281330253
  0
ARC
  5
B7A
330
10C1
100
AcDbEntity
  8
image
100
AcDbCircle
 10
2.893175787151028
 20
8.037824356995436
 30
0.0
 40
0.1065815326392652
100
AcDbArc
 50
307.2705609016365
 51
36.46923439005223
  0
ARC
  5
B7B
330
10C1
100
AcDbEntity
  8
image
100
AcDbCircle
 10
3.043429714585405
 20
8.016359510219096
 30
0.0
 40
0.1065815326392652
100
AcDbArc
 50
127.2705609016365
 51
216.4692343900523
  0
ARC
  5
B7C
330
10C1
100
AcDbEntity
  8
image
100
AcDbCircle
 10
2.881784667295363
 20
7.974451534995754
 30
0.0
 40
0.1065815326392652
100
AcDbArc
 50
127.2705609016365
 51
216.4692343900523
  0
ARC
  5
B7D
330
10C1
100
AcDbEntity
  8
image
100
AcDbCircle
 10
2.754047516189313
 20
8.102631875737841
 30
0.0
 40
0.1065815326392652
100
AcDbArc
 50
291.0813546446095
 51
20.28002813302522
  0
ARC
  5
B7E
330
10C1
100
AcDbEntity
  8
image
100
AcDbCircle
 10
2.892358690343395
 20
8.040125864341284
 30
0.0
 40
0.1065815326392652
100
AcDbArc
 50
111.0813546446095
 51
200.2800281330253
  0
ARC
  5
B7F
330
10C1
100
AcDbEntity
  8
image
100
AcDbCircle
 10
2.958214079980078
 20
8.189797204424657
 30
0.0
 40
0.1065815326392652
100
AcDbArc
 50
111.0813546446095
 51
200.2800281330253
  0
ARC
  5
B80
330
10C1
100
AcDbEntity
  8
image
100
AcDbCircle
 10
2.930720930246935
 20
8.243598605088628
 30
0.0
 40
0.1065815326392652
100
AcDbArc
 50
334.745005975626
 51
63.94367946404176
  0
ARC
  5
B81
330
10C1
100
AcDbEntity
  8
image
100
AcDbCircle
 10
3.073931593119916
 20
8.293874726618316
 30
0.0
 40
0.1065815326392652
100
AcDbArc
 50
154.7450059756261
 51
243.9436794640418
  0
ARC
  5
B82
330
10C1
100
AcDbEntity
  8
image
100
AcDbCircle
 10
2.761465007877661
 20
8.253351086715492
 30
0.0
 40
0.1065815326392652
100
AcDbArc
 50
307.2705609016365
 51
36.46923439005223
  0
ARC
  5
B83
330
10C1
100
AcDbEntity
  8
image
100
AcDbCircle
 10
2.911718935312038
 20
8.231886239939154
 30
0.0
 40
0.1065815326392652
100
AcDbArc
 50
127.2705609016365
 51
216.4692343900523
  0
ARC
  5
B84
330
10C1
100
AcDbEntity
  8
image
100
AcDbCircle
 10
2.780380011125337
 20
8.157049948540272
 30
0.0
 40
0.1065815326392652
100
AcDbArc
 50
154.7450059756261
 51
243.9436794640418
  0
ARC
  5
B85
330
10C1
100
AcDbEntity
  8
image
100
AcDbCircle
 10
2.666257937575309
 20
8.064254339045774
 30
0.0
 40
0.1065815326392652
100
AcDbArc
 50
127.2705609016365
 51
216.4692343900523
  0
ARC
  5
B86
330
10C1
100
AcDbEntity
  8
image
100
AcDbCircle
 10
2.581859399777614
 20
8.103679746632119
 30
0.0
 40
0.1065815326392652
100
AcDbArc
 50
307.2705609016365
 51
36.46923439005223
  0
ARC
  5
B87
330
10C1
100
AcDbEntity
  8
image
100
AcDbCircle
 10
2.732113327211991
 20
8.082214899855781
 30
0.0
 40
0.1065815326392652
100
AcDbArc
 50
127.2705609016365
 51
216.4692343900523
  0
ARC
  5
B88
330
10C1
100
AcDbEntity
  8
image
100
AcDbCircle
 10
2.556481347279262
 20
8.240329508614543
 30
0.0
 40
0.1065815326392652
100
AcDbArc
 50
291.0813546446095
 51
20.28002813302522
  0
ARC
  5
B89
330
10C1
100
AcDbEntity
  8
image
100
AcDbCircle
 10
2.694792521433345
 20
8.177823497217989
 30
0.0
 40
0.1065815326392652
100
AcDbArc
 50
111.0813546446095
 51
200.2800281330253
  0
ARC
  5
B8A
330
10C1
100
AcDbEntity
  8
image
100
AcDbCircle
 10
2.516004010140931
 20
8.085719185822114
 30
0.0
 40
0.1065815326392652
100
AcDbArc
 50
307.2705609016365
 51
36.46923439005223
  0
ARC
  5
B8B
330
10C1
100
AcDbEntity
  8
image
100
AcDbCircle
 10
2.545938278157606
 20
8.025850649788766
 30
0.0
 40
0.1065815326392652
100
AcDbArc
 50
307.2705609016365
 51
36.46923439005223
  0
ARC
  5
B8C
330
10C1
100
AcDbEntity
  8
image
100
AcDbCircle
 10
2.696192205591984
 20
8.004385803012429
 30
0.0
 40
0.1065815326392652
100
AcDbArc
 50
127.2705609016365
 51
216.4692343900523
  0
ARC
  5
B8F
330
10C1
100
AcDbEntity
  8
image
100
AcDbCircle
 10
0.9146319408556056
 20
7.673833035806434
 30
0.0
 40
0.1065815326392652
100
AcDbArc
 50
278.5307656099479
 51
7.729439098363567
  0
ARC
  5
B90
330
10C1
100
AcDbEntity
  8
image
100
AcDbCircle
 10
1.036055450557044
 20
7.582765403530353
 30
0.0
 40
0.1065815326392652
100
AcDbArc
 50
98.53076560994791
 51
187.7294390983636
  0
ARC
  5
B91
330
10C1
100
AcDbEntity
  8
image
100
AcDbCircle
 10
3.090566226655779
 20
7.579245166450749
 30
0.0
 40
0.1065815326392652
100
AcDbArc
 50
352.2705609016364
 51
81.4692343900521
  0
ARC
  5
B92
330
10C1
100
AcDbEntity
  8
image
100
AcDbCircle
 10
3.211989736357217
 20
7.670312798726827
 30
0.0
 40
0.1065815326392652
100
AcDbArc
 50
172.2705609016364
 51
261.4692343900521
  0
LINE
  5
CA9
330
10C1
100
AcDbEntity
  8
image
100
AcDbLine
 10
2.403896466254497
 20
3.647330752733865
 30
0.0
 11
2.415426007337428
 21
6.950031838515428
 31
0.0
  0
LINE
  5
CAA
330
10C1
100
AcDbEntity
  8
image
100
AcDbLine
 10
1.691202722435311
 20
3.647330752733865
 30
0.0
 11
1.678625774014972
 21
7.066410431560881
 31
0.0
  0
LINE
  5
CAB
330
10C1
100
AcDbEntity
  8
image
100
AcDbLine
 10
1.700984793428906
 20
3.62497173331993
 30
0.0
 11
1.795809568287577
 21
3.62497173331993
 31
0.0
  0
LINE
  5
CAC
330
10C1
100
AcDbEntity
  8
image
100
AcDbLine
 10
1.691202722435311
 20
3.647330752733865
 30
0.0
 11
2.403896466254497
 21
3.647330752733865
 31
0.0
  0
ARC
  5
CAD
330
10C1
100
AcDbEntity
  8
image
100
AcDbCircle
 10
1.707118464166621
 20
3.640974552004498
 30
0.0
 40
0.0171380314671728
100
AcDbArc
 50
158.2299291778305
 51
249.0288262834868
  0
LINE
  5
CAE
330
10C1
100
AcDbEntity
  8
image
100
AcDbLine
 10
1.764149023273273
 20
3.338776284821559
 30
0.0
 11
2.330950165416536
 21
3.338776284821558
 31
0.0
  0
LINE
  5
CAF
330
10C1
100
AcDbEntity
  8
image
100
AcDbLine
 10
1.764149023273273
 20
3.338776284821559
 30
0.0
 11
1.764149023273273
 21
3.62497173331993
 31
0.0
  0
LINE
  5
CB0
330
10C1
100
AcDbEntity
  8
image
100
AcDbLine
 10
2.330950165416535
 20
3.338776284821559
 30
0.0
 11
2.330950165416535
 21
3.62497173331993
 31
0.0
  0
ARC
  5
CB1
330
10C1
100
AcDbEntity
  8
image
100
AcDbCircle
 10
2.387980724523186
 20
3.640974552004498
 30
0.0
 40
0.0171380314671728
100
AcDbArc
 50
290.9711737165133
 51
21.77007082216947
  0
LINE
  5
CB2
330
10C1
100
AcDbEntity
  8
image
100
AcDbLine
 10
2.047549594344906
 20
7.577873000654649
 30
0.0
 11
1.747100270970146
 21
7.577873000654652
 31
0.0
  0
LINE
  5
CB3
330
10C1
100
AcDbEntity
  8
image
100
AcDbLine
 10
1.777087556227662
 20
7.31994932379859
 30
0.0
 11
1.737636439143001
 21
7.319949323798586
 31
0.0
  0
LINE
  5
CB4
330
10C1
100
AcDbEntity
  8
image
100
AcDbLine
 10
2.047549594344904
 20
7.362667438795523
 30
0.0
 11
1.633907735187102
 21
7.362667438795527
 31
0.0
  0
LINE
  5
CB5
330
10C1
100
AcDbEntity
  8
image
100
AcDbLine
 10
1.58639481893249
 20
7.108333592962009
 30
0.0
 11
2.508704369757319
 21
7.108333592962009
 31
0.0
  0
LINE
  5
CB6
330
10C1
100
AcDbEntity
  8
image
100
AcDbLine
 10
1.58639481893249
 20
7.066410431560881
 30
0.0
 11
2.508704369757319
 21
7.066410431560881
 31
0.0
  0
LINE
  5
CB7
330
10C1
100
AcDbEntity
  8
image
100
AcDbLine
 10
1.605862096860379
 20
7.319949323798584
 30
0.0
 11
1.605862096860381
 21
7.108333592962009
 31
0.0
  0
LINE
  5
CB8
330
10C1
100
AcDbEntity
  8
image
100
AcDbLine
 10
1.627286417216135
 20
7.319949323798584
 30
0.0
 11
1.627286417216135
 21
7.108333592962009
 31
0.0
  0
LINE
  5
CB9
330
10C1
100
AcDbEntity
  8
image
100
AcDbLine
 10
1.737636439142997
 20
7.108333592962014
 30
0.0
 11
1.737636439143001
 21
7.319949323798591
 31
0.0
  0
LINE
  5
CBA
330
10C1
100
AcDbEntity
  8
image
100
AcDbLine
 10
1.686861311862625
 20
7.108333592962015
 30
0.0
 11
1.68686131186263
 21
7.319949323798592
 31
0.0
  0
LINE
  5
CBB
330
10C1
100
AcDbEntity
  8
image
100
AcDbLine
 10
1.658020874487544
 20
7.108333592962015
 30
0.0
 11
1.658020874487547
 21
7.319949323798592
 31
0.0
  0
LINE
  5
CBC
330
10C1
100
AcDbEntity
  8
image
100
AcDbLine
 10
1.58639481893249
 20
7.066410431560881
 30
0.0
 11
1.58639481893249
 21
7.306769890260684
 31
0.0
  0
LINE
  5
CBD
330
10C1
100
AcDbEntity
  8
image
100
AcDbLine
 10
1.633907735187102
 20
7.362667438795527
 30
0.0
 11
1.747100270970148
 21
7.577873000654654
 31
0.0
  0
LINE
  5
CBE
330
10C1
100
AcDbEntity
  8
image
100
AcDbLine
 10
1.747100270970148
 20
7.362667438795527
 30
0.0
 11
1.747100270970148
 21
7.577873000654654
 31
0.0
  0
LINE
  5
CBF
330
10C1
100
AcDbEntity
  8
image
100
AcDbLine
 10
1.633907735187102
 20
7.362667438795527
 30
0.0
 11
1.586394818932487
 21
7.306769890260683
 31
0.0
  0
LINE
  5
CC0
330
10C1
100
AcDbEntity
  8
image
100
AcDbLine
 10
1.627286417216135
 20
7.319949323798584
 30
0.0
 11
1.605862096860379
 21
7.319949323798584
 31
0.0
  0
LINE
  5
CC1
330
10C1
100
AcDbEntity
  8
image
100
AcDbLine
 10
1.605862096860377
 20
7.306769890260688
 30
0.0
 11
1.58639481893249
 21
7.306769890260687
 31
0.0
  0
LINE
  5
CC2
330
10C1
100
AcDbEntity
  8
image
100
AcDbLine
 10
1.686861311862627
 20
7.319949323798589
 30
0.0
 11
1.658020874487545
 21
7.319949323798588
 31
0.0
  0
LINE
  5
CC3
330
10C1
100
AcDbEntity
  8
image
100
AcDbLine
 10
1.658020874487545
 20
7.306769890260688
 30
0.0
 11
1.627286417216135
 21
7.306769890260688
 31
0.0
  0
LINE
  5
CC4
330
10C1
100
AcDbEntity
  8
image
100
AcDbLine
 10
1.737636439142999
 20
7.306769890260683
 30
0.0
 11
1.686861311862627
 21
7.306769890260686
 31
0.0
  0
LINE
  5
CC5
330
10C1
100
AcDbEntity
  8
image
100
AcDbLine
 10
2.299088562751675
 20
7.600232020068587
 30
0.0
 11
2.299088562751675
 21
7.577873000654652
 31
0.0
  0
LINE
  5
CC6
330
10C1
100
AcDbEntity
  8
image
100
AcDbLine
 10
1.796010625938133
 20
7.577873000654652
 30
0.0
 11
1.796010625938133
 21
7.600232020068587
 31
0.0
  0
LINE
  5
CC7
330
10C1
100
AcDbEntity
  8
image
100
AcDbLine
 10
2.23139320484806
 20
7.577873000654652
 30
0.0
 11
2.291934058913524
 21
7.362667438795525
 31
0.0
  0
LINE
  5
CC8
330
10C1
100
AcDbEntity
  8
image
100
AcDbLine
 10
2.24551677994176
 20
7.577873000654652
 30
0.0
 11
2.306057634007223
 21
7.362667438795527
 31
0.0
  0
LINE
  5
CC9
330
10C1
100
AcDbEntity
  8
image
100
AcDbLine
 10
2.047549594344902
 20
7.577873000654649
 30
0.0
 11
2.347998917719658
 21
7.577873000654652
 31
0.0
  0
LINE
  5
CCA
330
10C1
100
AcDbEntity
  8
image
100
AcDbLine
 10
2.047549594344904
 20
7.362667438795523
 30
0.0
 11
2.461191453502706
 21
7.362667438795527
 31
0.0
  0
LINE
  5
CCB
330
10C1
100
AcDbEntity
  8
image
100
AcDbLine
 10
2.256880994316894
 20
7.306769890260687
 30
0.0
 11
2.318011632462147
 21
7.306769890260686
 31
0.0
  0
LINE
  5
CCC
330
10C1
100
AcDbEntity
  8
image
100
AcDbLine
 10
1.777087556227659
 20
7.108333592962012
 30
0.0
 11
1.777087556227662
 21
7.31994932379859
 31
0.0
  0
LINE
  5
CCD
330
10C1
100
AcDbEntity
  8
image
100
AcDbLine
 10
1.953921200549046
 20
7.10833359296201
 30
0.0
 11
1.95392120054905
 21
7.319949323798588
 31
0.0
  0
LINE
  5
CCE
330
10C1
100
AcDbEntity
  8
image
100
AcDbLine
 10
1.885875627046342
 20
7.108333592962011
 30
0.0
 11
1.885875627046345
 21
7.319949323798589
 31
0.0
  0
LINE
  5
CCF
330
10C1
100
AcDbEntity
  8
image
100
AcDbLine
 10
1.838218194372912
 20
7.108333592962012
 30
0.0
 11
1.838218194372917
 21
7.319949323798589
 31
0.0
  0
LINE
  5
CD0
330
10C1
100
AcDbEntity
  8
image
100
AcDbLine
 10
2.256880994316896
 20
7.108333592962012
 30
0.0
 11
2.256880994316892
 21
7.319949323798589
 31
0.0
  0
LINE
  5
CD1
330
10C1
100
AcDbEntity
  8
image
100
AcDbLine
 10
2.209223561643467
 20
7.108333592962011
 30
0.0
 11
2.209223561643463
 21
7.319949323798589
 31
0.0
  0
LINE
  5
CD2
330
10C1
100
AcDbEntity
  8
image
100
AcDbLine
 10
2.141177988140762
 20
7.10833359296201
 30
0.0
 11
2.141177988140759
 21
7.319949323798588
 31
0.0
  0
LINE
  5
CD3
330
10C1
100
AcDbEntity
  8
image
100
AcDbLine
 10
2.009818749083891
 20
7.108333592962009
 30
0.0
 11
2.009818749083891
 21
7.319949323798586
 31
0.0
  0
LINE
  5
CD4
330
10C1
100
AcDbEntity
  8
image
100
AcDbLine
 10
2.085280439605924
 20
7.108333592962009
 30
0.0
 11
2.085280439605919
 21
7.319949323798586
 31
0.0
  0
LINE
  5
CD5
330
10C1
100
AcDbEntity
  8
image
100
AcDbLine
 10
2.009818749083889
 20
7.306769890260684
 30
0.0
 11
2.085280439605921
 21
7.306769890260686
 31
0.0
  0
LINE
  5
CD6
330
10C1
100
AcDbEntity
  8
image
100
AcDbLine
 10
1.849582408748052
 20
7.577873000654652
 30
0.0
 11
1.789041554682588
 21
7.362667438795527
 31
0.0
  0
LINE
  5
CD7
330
10C1
100
AcDbEntity
  8
image
100
AcDbLine
 10
1.863705983841752
 20
7.577873000654652
 30
0.0
 11
1.803165129776289
 21
7.362667438795525
 31
0.0
  0
LINE
  5
CD8
330
10C1
100
AcDbEntity
  8
image
100
AcDbLine
 10
1.863705983841752
 20
7.577873000654652
 30
0.0
 11
1.86370598384175
 21
7.362667438795526
 31
0.0
  0
LINE
  5
CD9
330
10C1
100
AcDbEntity
  8
image
100
AcDbLine
 10
1.953921200549046
 20
7.306769890260686
 30
0.0
 11
1.885875627046347
 21
7.306769890260688
 31
0.0
  0
LINE
  5
CDA
330
10C1
100
AcDbEntity
  8
image
100
AcDbLine
 10
1.838218194372915
 20
7.306769890260687
 30
0.0
 11
1.777087556227661
 21
7.306769890260686
 31
0.0
  0
LINE
  5
CDB
330
10C1
100
AcDbEntity
  8
image
100
AcDbLine
 10
1.885875627046345
 20
7.319949323798589
 30
0.0
 11
1.838218194372917
 21
7.319949323798584
 31
0.0
  0
LINE
  5
CDC
330
10C1
100
AcDbEntity
  8
image
100
AcDbLine
 10
2.009818749083889
 20
7.319949323798586
 30
0.0
 11
1.953921200549052
 21
7.319949323798586
 31
0.0
  0
LINE
  5
CDD
330
10C1
100
AcDbEntity
  8
image
100
AcDbLine
 10
2.23139320484806
 20
7.577873000654652
 30
0.0
 11
2.231393204848062
 21
7.362667438795526
 31
0.0
  0
LINE
  5
CDE
330
10C1
100
AcDbEntity
  8
image
100
AcDbLine
 10
2.064318858905356
 20
7.362667438795523
 30
0.0
 11
2.064318858905356
 21
7.577873000654649
 31
0.0
  0
LINE
  5
CDF
330
10C1
100
AcDbEntity
  8
image
100
AcDbLine
 10
2.030780329784452
 20
7.362667438795523
 30
0.0
 11
2.030780329784452
 21
7.577873000654649
 31
0.0
  0
LINE
  5
CE0
330
10C1
100
AcDbEntity
  8
image
100
AcDbLine
 10
2.141177988140762
 20
7.306769890260686
 30
0.0
 11
2.209223561643461
 21
7.306769890260688
 31
0.0
  0
LINE
  5
CE1
330
10C1
100
AcDbEntity
  8
image
100
AcDbLine
 10
2.085280439605919
 20
7.319949323798586
 30
0.0
 11
2.141177988140756
 21
7.319949323798586
 31
0.0
  0
LINE
  5
CE2
330
10C1
100
AcDbEntity
  8
image
100
AcDbLine
 10
2.209223561643463
 20
7.319949323798589
 30
0.0
 11
2.256880994316892
 21
7.319949323798584
 31
0.0
  0
LINE
  5
CE3
330
10C1
100
AcDbEntity
  8
image
100
AcDbLine
 10
2.437078314202265
 20
7.108333592962015
 30
0.0
 11
2.437078314202261
 21
7.319949323798592
 31
0.0
  0
LINE
  5
CE4
330
10C1
100
AcDbEntity
  8
image
100
AcDbLine
 10
2.408237876827183
 20
7.108333592962015
 30
0.0
 11
2.408237876827179
 21
7.319949323798592
 31
0.0
  0
LINE
  5
CE5
330
10C1
100
AcDbEntity
  8
image
100
AcDbLine
 10
2.357462749546811
 20
7.108333592962014
 30
0.0
 11
2.357462749546806
 21
7.319949323798591
 31
0.0
  0
LINE
  5
CE6
330
10C1
100
AcDbEntity
  8
image
100
AcDbLine
 10
2.31801163246215
 20
7.108333592962012
 30
0.0
 11
2.318011632462146
 21
7.31994932379859
 31
0.0
  0
LINE
  5
CE7
330
10C1
100
AcDbEntity
  8
image
100
AcDbLine
 10
2.467812771473674
 20
7.319949323798584
 30
0.0
 11
2.467812771473674
 21
7.108333592962009
 31
0.0
  0
LINE
  5
CE8
330
10C1
100
AcDbEntity
  8
image
100
AcDbLine
 10
2.48923709182943
 20
7.319949323798584
 30
0.0
 11
2.489237091829427
 21
7.108333592962009
 31
0.0
  0
LINE
  5
CE9
330
10C1
100
AcDbEntity
  8
image
100
AcDbLine
 10
2.508704369757319
 20
7.066410431560881
 30
0.0
 11
2.508704369757319
 21
7.306769890260683
 31
0.0
  0
LINE
  5
CEA
330
10C1
100
AcDbEntity
  8
image
100
AcDbLine
 10
2.34799891771966
 20
7.577873000654654
 30
0.0
 11
2.461191453502706
 21
7.362667438795527
 31
0.0
  0
LINE
  5
CEB
330
10C1
100
AcDbEntity
  8
image
100
AcDbLine
 10
2.34799891771966
 20
7.362667438795527
 30
0.0
 11
2.34799891771966
 21
7.577873000654654
 31
0.0
  0
LINE
  5
CEC
330
10C1
100
AcDbEntity
  8
image
100
AcDbLine
 10
2.408237876827181
 20
7.319949323798589
 30
0.0
 11
2.437078314202263
 21
7.319949323798588
 31
0.0
  0
LINE
  5
CED
330
10C1
100
AcDbEntity
  8
image
100
AcDbLine
 10
2.318011632462146
 20
7.31994932379859
 30
0.0
 11
2.357462749546806
 21
7.319949323798586
 31
0.0
  0
LINE
  5
CEE
330
10C1
100
AcDbEntity
  8
image
100
AcDbLine
 10
2.357462749546809
 20
7.306769890260683
 30
0.0
 11
2.408237876827181
 21
7.306769890260686
 31
0.0
  0
LINE
  5
CEF
330
10C1
100
AcDbEntity
  8
image
100
AcDbLine
 10
2.467812771473674
 20
7.319949323798584
 30
0.0
 11
2.48923709182943
 21
7.319949323798584
 31
0.0
  0
LINE
  5
CF0
330
10C1
100
AcDbEntity
  8
image
100
AcDbLine
 10
2.461191453502706
 20
7.362667438795527
 30
0.0
 11
2.508704369757321
 21
7.306769890260683
 31
0.0
  0
LINE
  5
CF1
330
10C1
100
AcDbEntity
  8
image
100
AcDbLine
 10
2.437078314202263
 20
7.306769890260688
 30
0.0
 11
2.467812771473674
 21
7.306769890260688
 31
0.0
  0
LINE
  5
CF2
330
10C1
100
AcDbEntity
  8
image
100
AcDbLine
 10
2.489237091829432
 20
7.306769890260688
 30
0.0
 11
2.508704369757319
 21
7.306769890260687
 31
0.0
  0
LINE
  5
CF3
330
10C1
100
AcDbEntity
  8
image
100
AcDbLine
 10
2.047549594344902
 20
7.600232020068585
 30
0.0
 11
2.299088562751675
 21
7.600232020068587
 31
0.0
  0
LINE
  5
CF4
330
10C1
100
AcDbEntity
  8
image
100
AcDbLine
 10
2.047549594344906
 20
7.600232020068585
 30
0.0
 11
1.796010625938133
 21
7.600232020068587
 31
0.0
  0
LWPOLYLINE
  5
CF5
330
10C1
100
AcDbEntity
  8
image
100
AcDbPolyline
 90
        4
 70
     1
 43
0.0
 10
1.699694537355055
 20
6.950031838515429
 10
1.699694537355055
 20
7.059032058158363
 10
2.390588237245655
 20
7.059032058158363
 10
2.390588237245655
 20
6.950031838515429
  0
LWPOLYLINE
  5
CF6
330
10C1
100
AcDbEntity
  8
image
100
AcDbPolyline
 90
        3
 70
     0
 43
0.0
 10
2.390588237245655
 20
7.059032058158363
 10
2.58622965711759
 20
7.059032058158363
 10
2.58622965711759
 20
7.018506335470606
  0
LWPOLYLINE
  5
CF7
330
10C1
100
AcDbEntity
  8
image
100
AcDbPolyline
 90
        4
 70
     1
 43
0.0
 10
2.488408947181623
 20
7.018506335470606
 10
2.488408947181623
 20
6.990557561203186
 10
2.865717399791781
 20
6.990557561203186
 10
2.865717399791781
 20
7.018506335470606
  0
LWPOLYLINE
  5
CF8
330
10C1
100
AcDbEntity
  8
image
100
AcDbPolyline
 90
        3
 70
     0
 43
0.0
 10
2.58622965711759
 20
6.990557561203186
 10
2.58622965711759
 20
6.950031838515429
 10
2.390588237245655
 20
6.950031838515429
  0
LINE
  5
CF9
330
10C1
100
AcDbEntity
  8
image
100
AcDbLine
 10
2.416407009314214
 20
7.059032058158363
 30
0.0
 11
2.416473414674836
 21
7.066410431560881
 31
0.0
  0
LINE
  5
CFA
330
10C1
100
AcDbEntity
  8
image
100
AcDbLine
 10
2.299133093464279
 20
3.391549498172426
 30
0.0
 11
2.299133093464281
 21
3.647330752733865
 31
0.0
  0
LINE
  5
CFB
330
10C1
100
AcDbEntity
  8
image
100
AcDbLine
 10
2.234728118467635
 20
3.34124170449107
 30
0.0
 11
2.234728118467635
 21
3.62497173331993
 31
0.0
  0
LINE
  5
CFC
330
10C1
100
AcDbEntity
  8
image
100
AcDbLine
 10
2.299133093464279
 20
3.391549498172426
 30
0.0
 11
2.282241034722248
 21
3.391549498172425
 31
0.0
  0
LWPOLYLINE
  5
CFD
330
10C1
100
AcDbEntity
  8
image
100
AcDbPolyline
 90
        2
 70
     0
 43
0.0
 10
1.748497709683521
 20
3.282878736286721
 10
2.34660147900629
 20
3.282878736286721
  0
LWPOLYLINE
  5
CFE
330
10C1
100
AcDbEntity
  8
image
100
AcDbPolyline
 90
        2
 70
     0
 43
0.0
 10
1.748497709683521
 20
3.282878736286721
 10
1.764149023273273
 20
3.338776284821559
  0
LWPOLYLINE
  5
CFF
330
10C1
100
AcDbEntity
  8
image
100
AcDbPolyline
 90
        2
 70
     0
 43
0.0
 10
2.34660147900629
 20
3.282878736286721
 10
2.330950165416536
 20
3.338776284821558
  0
LWPOLYLINE
  5
D00
330
10C1
100
AcDbEntity
  8
image
100
AcDbPolyline
 90
        2
 70
     0
 43
0.0
 10
2.07046758924419
 20
3.282878736286721
 10
2.07046758924419
 20
2.574097820864972
  0
LWPOLYLINE
  5
D01
330
10C1
100
AcDbEntity
  8
image
100
AcDbPolyline
 90
        2
 70
     0
 43
0.0
 10
2.024631599445622
 20
3.282878736286721
 10
2.024631599445622
 20
2.574097820864972
  0
LWPOLYLINE
  5
D02
330
10C1
100
AcDbEntity
  8
image
100
AcDbPolyline
 90
        2
 70
     0
 43
0.0
 10
1.843523542192745
 20
3.282878736286721
 10
2.251575646497065
 20
3.282878736286721
  0
LWPOLYLINE
  5
D03
330
10C1
100
AcDbEntity
  8
image
100
AcDbPolyline
 90
        2
 70
     0
 43
0.0
 10
2.251575646497065
 20
3.282878736286721
 10
2.23116690493039
 20
2.8847512854168
  0
LWPOLYLINE
  5
D04
330
10C1
100
AcDbEntity
  8
image
100
AcDbPolyline
 90
        2
 70
     0
 43
0.0
 10
1.843523542192745
 20
3.282878736286721
 10
1.863932283759422
 20
2.8847512854168
  0
LWPOLYLINE
  5
D05
330
10C1
100
AcDbEntity
  8
image
100
AcDbPolyline
 90
        2
 70
     0
 43
0.0
 10
1.825915814404273
 20
2.528261831066405
 10
2.269183374285539
 20
2.528261831066405
  0
LWPOLYLINE
  5
D06
330
10C1
100
AcDbEntity
  8
image
100
AcDbPolyline
 90
        2
 70
     0
 43
0.0
 10
1.813444378401231
 20
2.574097820864972
 10
2.296877341908904
 20
2.574097820864972
  0
LWPOLYLINE
  5
D07
330
10C1
100
AcDbEntity
  8
image
100
AcDbPolyline
 90
        3
 70
     0
 43
0.0
 10
2.242087416204562
 20
3.097785259196021
 10
2.242087416204562
 20
3.097785259196021
 10
2.34660147900629
 20
3.282878736286721
  0
LWPOLYLINE
  5
D08
330
10C1
100
AcDbEntity
  8
image
100
AcDbPolyline
 90
        2
 70
     0
 43
0.0
 10
2.621692146741772
 20
3.111695332468243
 10
2.269183374285539
 20
2.528261831066405
  0
LWPOLYLINE
  5
D09
330
10C1
100
AcDbEntity
  8
image
100
AcDbPolyline
 90
        2
 70
     0
 43
0.0
 10
2.456879266251498
 20
2.838915295618232
 10
2.07046758924419
 20
2.838915295618232
  0
LWPOLYLINE
  5
D0A
330
10C1
100
AcDbEntity
  8
image
100
AcDbPolyline
 90
        2
 70
     0
 43
0.0
 10
1.825915814404273
 20
2.528261831066405
 10
1.728919209002527
 20
2.8847512854168
  0
LWPOLYLINE
  5
D0B
330
10C1
100
AcDbEntity
  8
image
100
AcDbPolyline
 90
        2
 70
     0
 43
0.0
 10
2.424489694528805
 20
2.8847512854168
 10
2.07046758924419
 20
2.8847512854168
  0
LWPOLYLINE
  5
D0C
330
10C1
100
AcDbEntity
  8
image
100
AcDbPolyline
 90
        2
 70
     0
 43
0.0
 10
2.024631599445622
 20
2.8847512854168
 10
1.728919209002527
 20
2.8847512854168
  0
LWPOLYLINE
  5
D0D
330
10C1
100
AcDbEntity
  8
image
100
AcDbPolyline
 90
        2
 70
     0
 43
0.0
 10
2.024631599445622
 20
2.838915295618232
 10
1.741390645005569
 20
2.838915295618232
  0
ARC
  5
D0E
330
10C1
100
AcDbEntity
  8
image
100
AcDbCircle
 10
2.364440181081809
 20
3.053043736694668
 30
0.0
 40
0.657426235489358
100
AcDbArc
 50
159.5372614874052
 51
194.8320667203905
  0
LWPOLYLINE
  5
D0F
330
10C1
100
AcDbEntity
  8
image
100
AcDbPolyline
 90
        2
 70
     0
 43
0.0
 10
1.866281920460452
 20
2.838915295618232
 10
1.879856948740391
 20
2.574097820864972
  0
LWPOLYLINE
  5
D10
330
10C1
100
AcDbEntity
  8
image
100
AcDbPolyline
 90
        2
 70
     0
 43
0.0
 10
2.223806632433594
 20
2.741169354248538
 10
2.215242239949421
 20
2.574097820864972
  0
LWPOLYLINE
  5
D11
330
10C1
100
AcDbEntity
  8
image
100
AcDbPolyline
 90
        2
 70
     0
 43
0.0
 10
2.561608607395713
 20
3.111695332468243
 10
2.424489694528805
 20
2.8847512854168
  0
LWPOLYLINE
  5
D12
330
10C1
100
AcDbEntity
  8
image
100
AcDbPolyline
 90
        2
 70
     0
 43
0.0
 10
2.561608607395713
 20
3.111695332468243
 10
2.621692146741772
 20
3.111695332468243
  0
LWPOLYLINE
  5
D17
330
10C1
100
AcDbEntity
  8
image
100
AcDbPolyline
 90
        2
 70
     0
 43
0.0
 10
2.343056603865473
 20
3.061702874025824
 10
2.321848687651686
 20
3.026601878587243
  0
LWPOLYLINE
  5
D18
330
10C1
100
AcDbEntity
  8
image
100
AcDbPolyline
 90
        2
 70
     0
 43
0.0
 10
2.398225141319597
 20
3.02984756398382
 10
2.376363321752407
 20
2.993664300094452
  0
LWPOLYLINE
  5
D19
330
10C1
100
AcDbEntity
  8
image
100
AcDbPolyline
 90
        2
 70
     0
 43
0.0
 10
2.234422397890759
 20
2.948258440397549
 10
2.321848687651686
 20
3.026601878587242
  0
LWPOLYLINE
  5
D1A
330
10C1
100
AcDbEntity
  8
image
100
AcDbPolyline
 90
        2
 70
     0
 43
0.0
 10
2.357676221400792
 20
2.8847512854168
 10
2.376363321752407
 20
2.993664300094452
  0
LWPOLYLINE
  5
D1B
330
10C1
100
AcDbEntity
  8
image
100
AcDbPolyline
 90
        2
 70
     0
 43
0.0
 10
2.282864437174017
 20
2.838915295618232
 10
2.223806632433594
 20
2.741169354248532
  0
ARC
  5
D1C
330
10C1
100
AcDbEntity
  8
image
100
AcDbCircle
 10
2.575989389030946
 20
2.772117219637278
 30
0.0
 40
0.3535399049847557
100
AcDbArc
 50
169.1090290672645
 51
185.0219351923089
  0
LWPOLYLINE
  5
D1D
330
10C1
100
AcDbEntity
  8
image
100
AcDbPolyline
 90
        2
 70
     0
 43
0.0
 10
2.299133093464278
 20
3.391549498172426
 10
2.251620177209665
 20
3.341241704491071
  0
LINE
  5
D1E
330
10C1
100
AcDbEntity
  8
image
100
AcDbLine
 10
2.335948286823663
 20
3.62497173331993
 30
0.0
 11
2.394114395260901
 21
3.62497173331993
 31
0.0
  0
LINE
  5
D1F
330
10C1
100
AcDbEntity
  8
image
100
AcDbLine
 10
1.860214543284218
 20
3.34124170449107
 30
0.0
 11
1.860214543284218
 21
3.624971733319932
 31
0.0
  0
LINE
  5
D20
330
10C1
100
AcDbEntity
  8
image
100
AcDbLine
 10
1.795809568287577
 20
3.391549498172426
 30
0.0
 11
1.795809568287577
 21
3.647330752733865
 31
0.0
  0
LWPOLYLINE
  5
D21
330
10C1
100
AcDbEntity
  8
image
100
AcDbPolyline
 90
        2
 70
     0
 43
0.0
 10
1.795809568287576
 20
3.391549498172426
 10
1.84332248454219
 20
3.341241704491071
  0
LINE
  5
D22
330
10C1
100
AcDbEntity
  8
image
100
AcDbLine
 10
1.795809568287577
 20
3.391549498172426
 30
0.0
 11
1.812701627029605
 21
3.391549498172425
 31
0.0
  0
LINE
  5
D23
330
10C1
100
AcDbEntity
  8
image
100
AcDbLine
 10
2.299133093464279
 20
3.62497173331993
 30
0.0
 11
2.335948286823663
 21
3.62497173331993
 31
0.0
  0
LINE
  5
D24
330
10C1
100
AcDbEntity
  8
image
100
AcDbLine
 10
2.282241034722248
 20
3.391549498172426
 30
0.0
 11
2.282241034722248
 21
3.637086112573892
 31
0.0
  0
LINE
  5
D25
330
10C1
100
AcDbEntity
  8
image
100
AcDbLine
 10
1.812701627029607
 20
3.391549498172426
 30
0.0
 11
1.812701627029607
 21
3.637086112573894
 31
0.0
  0
LWPOLYLINE
  5
D26
330
10C1
100
AcDbEntity
  8
image
100
AcDbPolyline
 90
        2
 70
     0
 43
0.0
 10
2.282241034722248
 20
3.391549498172425
 10
2.234728118467635
 20
3.34124170449107
  0
LWPOLYLINE
  5
D27
330
10C1
100
AcDbEntity
  8
image
100
AcDbPolyline
 90
        2
 70
     0
 43
0.0
 10
1.812701627029605
 20
3.391549498172425
 10
1.860214543284218
 20
3.34124170449107
  0
LINE
  5
D28
330
10C1
100
AcDbEntity
  8
image
100
AcDbLine
 10
2.251620177209665
 20
3.341241704491071
 30
0.0
 11
2.234728118467635
 21
3.34124170449107
 31
0.0
  0
LINE
  5
D29
330
10C1
100
AcDbEntity
  8
image
100
AcDbLine
 10
1.84332248454219
 20
3.341241704491071
 30
0.0
 11
1.860214543284218
 21
3.34124170449107
 31
0.0
  0
LINE
  5
D2A
330
10C1
100
AcDbEntity
  8
image
100
AcDbLine
 10
1.86021454328422
 20
3.624971733319932
 30
0.0
 11
2.234728118467637
 21
3.62497173331993
 31
0.0
  0
ARC
  5
D2B
330
10C1
100
AcDbEntity
  8
image
100
AcDbCircle
 10
1.864734669423222
 20
3.74193043527758
 30
0.0
 40
0.1170460144726449
100
AcDbArc
 50
233.9230091132946
 51
267.7867801058023
  0
ARC
  5
D2C
330
10C1
100
AcDbEntity
  8
image
100
AcDbCircle
 10
2.230207992328635
 20
3.74193043527758
 30
0.0
 40
0.1170460144726449
100
AcDbArc
 50
272.2132198941957
 51
306.0769908867054
  0
CIRCLE
  5
EA8
330
10C1
100
AcDbEntity
  8
text_bubbles
100
AcDbCircle
 10
0.5382963848290605
 20
7.089820206366655
 30
0.0
 40
0.15625
  0
TEXT
  5
EAB
330
10C1
100
AcDbEntity
  8
text_bubbles
100
AcDbText
 10
4.947793607510662
 20
6.673035575391459
 30
0.0
 40
0.125
  1
3
  7
ROMANS
 72
     4
 11
5.007317417034472
 21
6.735535575391459
 31
0.0
100
AcDbText
  0
CIRCLE
  5
EAC
330
10C1
100
AcDbEntity
  8
text_bubbles
100
AcDbCircle
 10
5.007317417034472
 20
6.735535575391459
 30
0.0
 40
0.15625
  0
CIRCLE
  5
EBB
330
10C1
100
AcDbEntity
  8
text_bubbles
100
AcDbCircle
 10
0.5300876479845967
 20
6.001358623692608
 30
0.0
 40
0.15625
  0
TEXT
  5
EBC
330
10C1
100
AcDbEntity
  8
text_bubbles
100
AcDbText
 10
0.4705638384607873
 20
5.938858623692608
 30
0.0
 40
0.125
  1
3
  7
ROMANS
 72
     4
 11
0.5300876479845967
 21
6.001358623692608
 31
0.0
100
AcDbText
  0
TEXT
  5
EC2
330
10C1
100
AcDbEntity
  8
text_bubbles
100
AcDbText
 10
4.944817417034472
 20
4.941664736937409
 30
0.0
 40
0.125
  1
6
  7
ROMANS
 72
     4
 11
5.007317417034472
 21
5.004164736937409
 31
0.0
100
AcDbText
  0
CIRCLE
  5
EC3
330
10C1
100
AcDbEntity
  8
text_bubbles
100
AcDbCircle
 10
5.007317417034472
 20
5.004164736937409
 30
0.0
 40
0.15625
  0
CIRCLE
  5
ECE
330
10C1
100
AcDbEntity
  8
text_bubbles
100
AcDbCircle
 10
5.007317417034472
 20
6.295203947919777
 30
0.0
 40
0.15625
  0
CIRCLE
  5
ECF
330
10C1
100
AcDbEntity
  8
text_bubbles
100
AcDbCircle
 10
5.007317417034472
 20
5.853063246690262
 30
0.0
 40
0.15625
  0
CIRCLE
  5
ED1
330
10C1
100
AcDbEntity
  8
text_bubbles
100
AcDbCircle
 10
4.162795164287159
 20
5.413765642128623
 30
0.0
 40
0.15625
  0
TEXT
  5
ED2
330
10C1
100
AcDbEntity
  8
text_bubbles
100
AcDbText
 10
4.100295164287159
 20
5.351265642128623
 30
0.0
 40
0.125
  1
6
  7
ROMANS
 72
     4
 11
4.162795164287159
 21
5.413765642128623
 31
0.0
100
AcDbText
  0
CIRCLE
  5
ED4
330
10C1
100
AcDbEntity
  8
text_bubbles
100
AcDbCircle
 10
4.162746984740806
 20
7.697731701787658
 30
0.0
 40
0.15625
  0
TEXT
  5
ED5
330
10C1
100
AcDbEntity
  8
text_bubbles
100
AcDbText
 10
4.103223175216997
 20
7.635231701787658
 30
0.0
 40
0.125
  1
5
  7
ROMANS
 72
     4
 11
4.162746984740806
 21
7.697731701787658
 31
0.0
100
AcDbText
  0
TEXT
  5
ED6
330
10C1
100
AcDbEntity
  8
text_bubbles
100
AcDbText
 10
4.947793607510662
 20
5.790563246690262
 30
0.0
 40
0.125
  1
5
  7
ROMANS
 72
     4
 11
5.007317417034472
 21
5.853063246690262
 31
0.0
100
AcDbText
  0
TEXT
  5
ED7
330
10C1
100
AcDbEntity
  8
text_bubbles
100
AcDbText
 10
4.944817417034472
 20
6.232703947919777
 30
0.0
 40
0.125
  1
4
  7
ROMANS
 72
     4
 11
5.007317417034472
 21
6.295203947919777
 31
0.0
100
AcDbText
  0
CIRCLE
  5
EDC
330
10C1
100
AcDbEntity
  8
text_bubbles
100
AcDbCircle
 10
0.5298379315888742
 20
7.683094548886812
 30
0.0
 40
0.15625
  0
TEXT
  5
EDD
330
10C1
100
AcDbEntity
  8
text_bubbles
100
AcDbText
 10
0.478772575305251
 20
7.027320206366655
 30
0.0
 40
0.125
  1
2
  7
ROMANS
 72
     4
 11
0.5382963848290605
 21
7.089820206366655
 31
0.0
100
AcDbText
  0
TEXT
  5
EDE
330
10C1
100
AcDbEntity
  8
text_bubbles
100
AcDbText
 10
0.4792426934936361
 20
7.620594548886812
 30
0.0
 40
0.125
  1
1
  7
ROMANS
 72
     4
 11
0.5298379315888742
 21
7.683094548886812
 31
0.0
100
AcDbText
  0
CIRCLE
  5
EDF
330
10C1
100
AcDbEntity
  8
text_bubbles
100
AcDbCircle
 10
5.007317417034472
 20
7.221381144441635
 30
0.0
 40
0.15625
  0
CIRCLE
  5
EE0
330
10C1
100
AcDbEntity
  8
text_bubbles
100
AcDbCircle
 10
5.007317417034472
 20
7.571381144441634
 30
0.0
 40
0.15625
  0
TEXT
  5
EE1
330
10C1
100
AcDbEntity
  8
text_bubbles
100
AcDbText
 10
4.947793607510662
 20
7.158881144441635
 30
0.0
 40
0.125
  1
2
  7
ROMANS
 72
     4
 11
5.007317417034472
 21
7.221381144441635
 31
0.0
100
AcDbText
  0
TEXT
  5
EE2
330
10C1
100
AcDbEntity
  8
text_bubbles
100
AcDbText
 10
4.956722178939234
 20
7.508881144441634
 30
0.0
 40
0.125
  1
1
  7
ROMANS
 72
     4
 11
5.007317417034472
 21
7.571381144441634
 31
0.0
100
AcDbText
  0
LEADER
  5
1149
330
10C1
100
AcDbEntity
  8
text_bubbles
100
AcDbLeader
  3
STANDARD
 76
     2
 10
0.9211546182521173
 20
7.578008044209507
 30
0.0
 10
0.6521529046424028
 20
7.19682840883728
 30
0.0
  0
LEADER
  5
114A
330
10C1
100
AcDbEntity
  8
text_bubbles
100
AcDbLeader
  3
STANDARD
 76
     2
 10
1.024242718219613
 20
7.816812865323286
 30
0.0
 10
0.6859867176031483
 20
7.677471460209902
 30
0.0
  0
LEADER
  5
114D
330
10C1
100
AcDbEntity
  8
text_bubbles
100
AcDbLeader
  3
STANDARD
 76
     2
 10
2.570996219207269
 20
5.729847432933845
 30
0.0
 10
4.007002049946633
 20
5.425705827390169
 30
0.0
  0
LEADER
  5
114E
330
10C1
100
AcDbEntity
  8
text_bubbles
100
AcDbLeader
  3
STANDARD
 76
     2
 10
1.684914248225141
 20
5.808715589527022
 30
0.0
 10
0.6849878520202579
 20
5.980864983466661
 30
0.0
  0
LEADER
  5
1151
330
10C1
100
AcDbEntity
  8
text_bubbles
100
AcDbLeader
  3
STANDARD
 76
     2
 10
3.733688316705626
 20
7.349018870156037
 30
0.0
 10
4.059683329074204
 20
7.580292588283526
 30
0.0
  0
TEXT
  5
118C
330
10C1
100
AcDbEntity
  8
text_bubbles
100
AcDbText
 10
3.570765386324157
 20
8.182776995501868
 30
0.0
 40
0.125
  1
4
  7
ROMANS
 72
     4
 11
3.633265386324157
 21
8.245276995501868
 31
0.0
100
AcDbText
  0
CIRCLE
  5
118D
330
10C1
100
AcDbEntity
  8
text_bubbles
100
AcDbCircle
 10
3.633265386324157
 20
8.245276995501868
 30
0.0
 40
0.15625
  0
INSERT
  5
11A4
330
10C1
100
AcDbEntity
  8
title
100
AcDbBlockReference
 66
     1
  2
titleblock
 10
-0.4984554492313005
 20
-1.274218755967127
 30
0.0
  0
ATTRIB
  5
11A5
330
11A4
100
AcDbEntity
  8
title
100
AcDbText
 10
0.0071001545710415
 20
-0.48999165948876
 30
0.0
 40
0.2
  1
D
  7
L200
 72
     4
 11
0.1079869212831834
 21
-0.3899916594887599
 31
0.0
100
AcDbAttribute
  2
D
 70
     0
  0
ATTRIB
  5
11A6
330
11A4
100
AcDbEntity
  8
title
100
AcDbText
 10
0.7329869212831837
 20
0.0694935467796234
 30
0.0
 40
0.2
  1
XERI-POP MICRO-SPRAY 6" FROM BARBED
  7
L200
100
AcDbAttribute
  2
TITLE1
 70
     0
  0
ATTRIB
  5
11A7
330
11A4
100
AcDbEntity
  8
title
100
AcDbText
 10
0.7329869212831837
 20
-0.2899916594887597
 30
0.0
 40
0.2
  1
TRANSFER FITTING INTO 1/2" POLYETHYLENE
  7
L200
100
AcDbAttribute
  2
TITLE2
 70
     0
  0
ATTRIB
  5
11A8
330
11A4
100
AcDbEntity
  8
title
100
AcDbText
 10
2.215190301937012
 20
-0.6814259895088083
 30
0.0
 40
0.2
  1
TUBING - OPTION 3B
  7
L200
100
AcDbAttribute
  2
TITLE3
 70
     0
  0
ATTRIB
  5
11A9
330
11A4
100
AcDbEntity
  8
title
100
AcDbText
 10
2.215190301937012
 20
-1.004962675150353
 30
0.0
 40
0.2
  1

  7
L200
100
AcDbAttribute
  2
TITLE4
 70
     0
  0
ATTRIB
  5
11AA
330
11A4
100
AcDbEntity
  8
title
 62
     7
100
AcDbText
 10
7.194949856925554
 20
-0.3046159644224873
 30
0.0
 40
0.08
  1
1-21-10
  7
L80
 72
     2
 11
7.762568904544602
 21
-0.3046159644224873
 31
0.0
100
AcDbAttribute
  2
REVISED
 70
     0
  0
ATTRIB
  5
11AB
330
11A4
100
AcDbEntity
  8
title
 62
     7
100
AcDbText
 10
-0.2345130787168166
 20
-1.189507107946405
 30
0.0
 40
0.08
  1
Xeri-Pop 6 Option 3B.dwg
  7
L80
100
AcDbAttribute
  2
DWG-NAME
 70
     0
  0
ATTRIB
  5
11AC
330
11A4
100
AcDbEntity
  8
title
 62
     7
100
AcDbText
 10
0.7329869212831837
 20
-0.5736549765716378
 30
0.0
 40
0.1
  1
N.T.S.
  7
L100
100
AcDbAttribute
  2
SCALE
 70
     0
  0
SEQEND
  5
11AD
330
11A4
100
AcDbEntity
  8
title
  0
MTEXT
  5
12DA
102
{ACAD_XDICTIONARY
360
19D6
102
}
330
10C1
100
AcDbEntity
  8
text_bubbles
100
AcDbMText
 10
5.296680084347973
 20
7.630022674976649
 30
0.0
 40
0.125
 41
4.202295919515166
 71
     1
 72
     5
  3
\A1;PLANT MATERIAL \P\PFINISH GRADE \P\P\pi-0.25,l0.25;MICRO-SPRAY POP-UP:\P\pt0.25;^IRAIN BIRD XERI-POP XP-600X\P\pi0,l0,tz;{\H0.7x;\S1#4;\H1.4286x;" BARB TRANSFER CONNECTOR:\P\pi-0.25,l0.25,t0.25;^IRAIN BIRD XBF1CONN} \P\pi0,l0,tz;{\Fromans|c0;\H0.7x
  3
;\S1#2;\H1.4286x;" POLYETHYLENE TUBING:\P\pi-0.25,l0.25;  RAIN BIRD XF SERIES TUBING OR\P\pi0,l0;  RAIN BIRD XT-700 XERI-TUBE OR\P  RAIN BIRD XBS BLACK STRIPE TUBING}   \P\pi-0.25,l0.25;{\Fromans|c0;\H0.7x;\S1#4;\H1.4286x;" DISTRIBUTION TUBING:  \P  
  1
RAIN BIRD XQ TUBING\P  (LENGTH AS REQUIRED)}
  7
SIMPLEX
 73
     1
 44
1.0
  0
MTEXT
  5
1352
330
10C1
100
AcDbEntity
  8
image
100
AcDbMText
 10
0.5208512900660899
 20
1.96712208636801
 30
0.0
 40
0.125
 41
6.504695409496386
 71
     1
 72
     5
  1
NOTE:\P1. RAIN BIRD XERI-POP CAN UTILIZE THE FOLLOWING NOZZLES:\P^ISQ SQUARE NOZZLES (FORMERLY XPCN)\P^I5 SERIES MPR NOZZLES (ALL CONFIGURATIONS)\P^I5 SERIES PLASTIC BUBBLERS\P^I8 SERIES MPR NOZZLES (8H, 8T AND 8Q)
  7
ROMANS
 73
     1
 44
1.0
  0
LINE
  5
1375
330
10C1
100
AcDbEntity
  8
0
100
AcDbLine
 10
3.317530617119238
 20
7.349584326593528
 30
0.0
 11
3.334363074685926
 21
7.349584326593528
 31
0.0
  0
LINE
  5
1378
330
10C1
100
AcDbEntity
  8
0
100
AcDbLine
 10
3.318278939373242
 20
7.279126924355495
 30
0.0
 11
3.334168496894115
 21
7.279126924355495
 31
0.0
  0
LEADER
  5
137D
330
10C1
100
AcDbEntity
  8
text_bubbles
100
AcDbLeader
  3
STANDARD
 76
     2
 10
3.295511269436093
 20
7.358796303279201
 30
0.0
 10
3.575898045535774
 20
8.099939282877549
 30
0.0
1001
ACAD
1000
DSTYLE
1002
{
1070
    44
1040
0.125
1070
   140
1040
0.125
1070
   176
1070
   256
1070
   177
1070
   256
1070
   178
1070
   256
1070
   340
1005
1345
1070
   371
1070
    -1
1070
   372
1070
    -1
1002
}
  0
POLYLINE
  5
1624
330
10C1
100
AcDbEntity
  8
image
100
AcDb2dPolyline
 66
     1
 10
0.0
 20
0.0
 30
0.0
 70
     4
 75
     6
  0
VERTEX
  5
1626
330
1624
100
AcDbEntity
  8
image
100
AcDbVertex
100
AcDb2dVertex
 10
2.404141058914288
 20
3.026431606304707
 30
0.0
 70
    16
  0
VERTEX
  5
1645
330
1624
100
AcDbEntity
  8
image
100
AcDbVertex
100
AcDb2dVertex
 10
2.404141058914288
 20
3.026431606304706
 30
0.0
 70
     8
  0
VERTEX
  5
1646
330
1624
100
AcDbEntity
  8
image
100
AcDbVertex
100
AcDb2dVertex
 10
2.407034200016974
 20
3.030410344636912
 30
0.0
 70
     8
  0
VERTEX
  5
1647
330
1624
100
AcDbEntity
  8
image
100
AcDbVertex
100
AcDb2dVertex
 10
2.40949843043303
 20
3.033536725838017
 30
0.0
 70
     8
  0
VERTEX
  5
1648
330
1624
100
AcDbEntity
  8
image
100
AcDbVertex
100
AcDb2dVertex
 10
2.41159894464435
 20
3.035925168901596
 30
0.0
 70
     8
  0
VERTEX
  5
1649
330
1624
100
AcDbEntity
  8
image
100
AcDbVertex
100
AcDb2dVertex
 10
2.413400937132831
 20
3.037690092821221
 30
0.0
 70
     8
  0
VERTEX
  5
164A
330
1624
100
AcDbEntity
  8
image
100
AcDbVertex
100
AcDb2dVertex
 10
2.414969602380371
 20
3.038945916590468
 30
0.0
 70
     8
  0
VERTEX
  5
164B
330
1624
100
AcDbEntity
  8
image
100
AcDbVertex
100
AcDb2dVertex
 10
2.416370134868866
 20
3.039807059202911
 30
0.0
 70
     8
  0
VERTEX
  5
164C
330
1624
100
AcDbEntity
  8
image
100
AcDbVertex
100
AcDb2dVertex
 10
2.417667729080211
 20
3.040387939652123
 30
0.0
 70
     8
  0
VERTEX
  5
164D
330
1624
100
AcDbEntity
  8
image
100
AcDbVertex
100
AcDb2dVertex
 10
2.418927579496304
 20
3.040802976931678
 30
0.0
 70
     8
  0
VERTEX
  5
164E
330
1624
100
AcDbEntity
  8
image
100
AcDbVertex
100
AcDb2dVertex
 10
2.420200869498334
 20
3.041148734380339
 30
0.0
 70
     8
  0
VERTEX
  5
164F
330
1624
100
AcDbEntity
  8
image
100
AcDbVertex
100
AcDb2dVertex
 10
2.42148273806466
 20
3.041450352717625
 30
0.0
 70
     8
  0
VERTEX
  5
1650
330
1624
100
AcDbEntity
  8
image
100
AcDbVertex
100
AcDb2dVertex
 10
2.422754313072936
 20
3.041715117008239
 30
0.0
 70
     8
  0
VERTEX
  5
1651
330
1624
100
AcDbEntity
  8
image
100
AcDbVertex
100
AcDb2dVertex
 10
2.423996722400815
 20
3.041950312316891
 30
0.0
 70
     8
  0
VERTEX
  5
1652
330
1624
100
AcDbEntity
  8
image
100
AcDbVertex
100
AcDb2dVertex
 10
2.42519109392595
 20
3.042163223708286
 30
0.0
 70
     8
  0
VERTEX
  5
1653
330
1624
100
AcDbEntity
  8
image
100
AcDbVertex
100
AcDb2dVertex
 10
2.426318555525995
 20
3.042361136247129
 30
0.0
 70
     8
  0
VERTEX
  5
1654
330
1624
100
AcDbEntity
  8
image
100
AcDbVertex
100
AcDb2dVertex
 10
2.427360235078601
 20
3.042551334998128
 30
0.0
 70
     8
  0
VERTEX
  5
1655
330
1624
100
AcDbEntity
  8
image
100
AcDbVertex
100
AcDb2dVertex
 10
2.428297260461422
 20
3.042741105025989
 30
0.0
 70
     8
  0
VERTEX
  5
1656
330
1624
100
AcDbEntity
  8
image
100
AcDbVertex
100
AcDb2dVertex
 10
2.429116335397929
 20
3.042937231453845
 30
0.0
 70
     8
  0
VERTEX
  5
1657
330
1624
100
AcDbEntity
  8
image
100
AcDbVertex
100
AcDb2dVertex
 10
2.429826466994863
 20
3.04314449963854
 30
0.0
 70
     8
  0
VERTEX
  5
1658
330
1624
100
AcDbEntity
  8
image
100
AcDbVertex
100
AcDb2dVertex
 10
2.430442238204783
 20
3.043367194995344
 30
0.0
 70
     8
  0
VERTEX
  5
1659
330
1624
100
AcDbEntity
  8
image
100
AcDbVertex
100
AcDb2dVertex
 10
2.430978231980247
 20
3.043609602939527
 30
0.0
 70
     8
  0
VERTEX
  5
165A
330
1624
100
AcDbEntity
  8
image
100
AcDbVertex
100
AcDb2dVertex
 10
2.431449031273815
 20
3.043876008886359
 30
0.0
 70
     8
  0
VERTEX
  5
165B
330
1624
100
AcDbEntity
  8
image
100
AcDbVertex
100
AcDb2dVertex
 10
2.431869219038045
 20
3.04417069825111
 30
0.0
 70
     8
  0
VERTEX
  5
165C
330
1624
100
AcDbEntity
  8
image
100
AcDbVertex
100
AcDb2dVertex
 10
2.432253378225497
 20
3.044497956449052
 30
0.0
 70
     8
  0
VERTEX
  5
165D
330
1624
100
AcDbEntity
  8
image
100
AcDbVertex
100
AcDb2dVertex
 10
2.432616091788728
 20
3.044862068895454
 30
0.0
 70
     8
  0
VERTEX
  5
165E
330
1624
100
AcDbEntity
  8
image
100
AcDbVertex
100
AcDb2dVertex
 10
2.432974348690124
 20
3.04528741343158
 30
0.0
 70
     8
  0
VERTEX
  5
165F
330
1624
100
AcDbEntity
  8
image
100
AcDbVertex
100
AcDb2dVertex
 10
2.433354761931363
 20
3.045878737602672
 30
0.0
 70
     8
  0
VERTEX
  5
1660
330
1624
100
AcDbEntity
  8
image
100
AcDbVertex
100
AcDb2dVertex
 10
2.433786350523951
 20
3.046760881379966
 30
0.0
 70
     8
  0
VERTEX
  5
1661
330
1624
100
AcDbEntity
  8
image
100
AcDbVertex
100
AcDb2dVertex
 10
2.434298133479395
 20
3.048058684734699
 30
0.0
 70
     8
  0
VERTEX
  5
1662
330
1624
100
AcDbEntity
  8
image
100
AcDbVertex
100
AcDb2dVertex
 10
2.434919129809197
 20
3.049896987638106
 30
0.0
 70
     8
  0
VERTEX
  5
1663
330
1624
100
AcDbEntity
  8
image
100
AcDbVertex
100
AcDb2dVertex
 10
2.435678358524865
 20
3.052400630061423
 30
0.0
 70
     8
  0
VERTEX
  5
1664
330
1624
100
AcDbEntity
  8
image
100
AcDbVertex
100
AcDb2dVertex
 10
2.436604838637904
 20
3.055694451975887
 30
0.0
 70
     8
  0
VERTEX
  5
1665
330
1624
100
AcDbEntity
  8
image
100
AcDbVertex
100
AcDb2dVertex
 10
2.437727589159817
 20
3.059903293352733
 30
0.0
 70
     8
  0
VERTEX
  5
1666
330
1624
100
AcDbEntity
  8
image
100
AcDbVertex
100
AcDb2dVertex
 10
2.439078314964791
 20
3.065112722225022
 30
0.0
 70
     8
  0
VERTEX
  5
1667
330
1624
100
AcDbEntity
  8
image
100
AcDbVertex
100
AcDb2dVertex
 10
2.440699464377737
 20
3.071251218873113
 30
0.0
 70
     8
  0
VERTEX
  5
1668
330
1624
100
AcDbEntity
  8
image
100
AcDbVertex
100
AcDb2dVertex
 10
2.442636171586245
 20
3.078207991639191
 30
0.0
 70
     8
  0
VERTEX
  5
1669
330
1624
100
AcDbEntity
  8
image
100
AcDbVertex
100
AcDb2dVertex
 10
2.444933570777904
 20
3.085872248865439
 30
0.0
 70
     8
  0
VERTEX
  5
166A
330
1624
100
AcDbEntity
  8
image
100
AcDbVertex
100
AcDb2dVertex
 10
2.447636796140306
 20
3.094133198894041
 30
0.0
 70
     8
  0
VERTEX
  5
166B
330
1624
100
AcDbEntity
  8
image
100
AcDbVertex
100
AcDb2dVertex
 10
2.450790981861041
 20
3.102880050067182
 30
0.0
 70
     8
  0
VERTEX
  5
166C
330
1624
100
AcDbEntity
  8
image
100
AcDbVertex
100
AcDb2dVertex
 10
2.4544412621277
 20
3.112002010727045
 30
0.0
 70
     8
  0
VERTEX
  5
166D
330
1624
100
AcDbEntity
  8
image
100
AcDbVertex
100
AcDb2dVertex
 10
2.458632771127873
 20
3.121388289215814
 30
0.0
 70
     8
  0
VERTEX
  5
166E
330
1624
100
AcDbEntity
  8
image
100
AcDbVertex
100
AcDb2dVertex
 10
2.463387017932431
 20
3.130945570683858
 30
0.0
 70
     8
  0
VERTEX
  5
166F
330
1624
100
AcDbEntity
  8
image
100
AcDbVertex
100
AcDb2dVertex
 10
2.46863101114537
 20
3.140650447514286
 30
0.0
 70
     8
  0
VERTEX
  5
1670
330
1624
100
AcDbEntity
  8
image
100
AcDbVertex
100
AcDb2dVertex
 10
2.474268134253964
 20
3.150496988898388
 30
0.0
 70
     8
  0
VERTEX
  5
1671
330
1624
100
AcDbEntity
  8
image
100
AcDbVertex
100
AcDb2dVertex
 10
2.48020177074549
 20
3.160479264027459
 30
0.0
 70
     8
  0
VERTEX
  5
1672
330
1624
100
AcDbEntity
  8
image
100
AcDbVertex
100
AcDb2dVertex
 10
2.486335304107221
 20
3.17059134209279
 30
0.0
 70
     8
  0
VERTEX
  5
1673
330
1624
100
AcDbEntity
  8
image
100
AcDbVertex
100
AcDb2dVertex
 10
2.492572117826435
 20
3.180827292285675
 30
0.0
 70
     8
  0
VERTEX
  5
1674
330
1624
100
AcDbEntity
  8
image
100
AcDbVertex
100
AcDb2dVertex
 10
2.498815595390406
 20
3.191181183797405
 30
0.0
 70
     8
  0
VERTEX
  5
1675
330
1624
100
AcDbEntity
  8
image
100
AcDbVertex
100
AcDb2dVertex
 10
2.504969120286409
 20
3.201647085819273
 30
0.0
 70
     8
  0
VERTEX
  5
1676
330
1624
100
AcDbEntity
  8
image
100
AcDbVertex
100
AcDb2dVertex
 10
2.510951399771304
 20
3.21221941467917
 30
0.0
 70
     8
  0
VERTEX
  5
1677
330
1624
100
AcDbEntity
  8
image
100
AcDbVertex
100
AcDb2dVertex
 10
2.516742436180281
 20
3.222893975251375
 30
0.0
 70
     8
  0
VERTEX
  5
1678
330
1624
100
AcDbEntity
  8
image
100
AcDbVertex
100
AcDb2dVertex
 10
2.522337555618113
 20
3.233666919546765
 30
0.0
 70
     8
  0
VERTEX
  5
1679
330
1624
100
AcDbEntity
  8
image
100
AcDbVertex
100
AcDb2dVertex
 10
2.527732084189573
 20
3.244534399576217
 30
0.0
 70
     8
  0
VERTEX
  5
167A
330
1624
100
AcDbEntity
  8
image
100
AcDbVertex
100
AcDb2dVertex
 10
2.532921347999436
 20
3.255492567350608
 30
0.0
 70
     8
  0
VERTEX
  5
167B
330
1624
100
AcDbEntity
  8
image
100
AcDbVertex
100
AcDb2dVertex
 10
2.537900673152475
 20
3.266537574880815
 30
0.0
 70
     8
  0
VERTEX
  5
167C
330
1624
100
AcDbEntity
  8
image
100
AcDbVertex
100
AcDb2dVertex
 10
2.542665385753463
 20
3.277665574177715
 30
0.0
 70
     8
  0
VERTEX
  5
167D
330
1624
100
AcDbEntity
  8
image
100
AcDbVertex
100
AcDb2dVertex
 10
2.547210811907174
 20
3.288872717252186
 30
0.0
 70
     8
  0
VERTEX
  5
167E
330
1624
100
AcDbEntity
  8
image
100
AcDbVertex
100
AcDb2dVertex
 10
2.55153423741374
 20
3.300154158065484
 30
0.0
 70
     8
  0
VERTEX
  5
167F
330
1624
100
AcDbEntity
  8
image
100
AcDbVertex
100
AcDb2dVertex
 10
2.555640786854732
 20
3.311501058380394
 30
0.0
 70
     8
  0
VERTEX
  5
1680
330
1624
100
AcDbEntity
  8
image
100
AcDbVertex
100
AcDb2dVertex
 10
2.559537544507079
 20
3.322903581910078
 30
0.0
 70
     8
  0
VERTEX
  5
1681
330
1624
100
AcDbEntity
  8
image
100
AcDbVertex
100
AcDb2dVertex
 10
2.563231594647711
 20
3.334351892367701
 30
0.0
 70
     8
  0
VERTEX
  5
1682
330
1624
100
AcDbEntity
  8
image
100
AcDbVertex
100
AcDb2dVertex
 10
2.566730021553557
 20
3.345836153466426
 30
0.0
 70
     8
  0
VERTEX
  5
1683
330
1624
100
AcDbEntity
  8
image
100
AcDbVertex
100
AcDb2dVertex
 10
2.570039909501546
 20
3.357346528919418
 30
0.0
 70
     8
  0
VERTEX
  5
1684
330
1624
100
AcDbEntity
  8
image
100
AcDbVertex
100
AcDb2dVertex
 10
2.573168342768608
 20
3.36887318243984
 30
0.0
 70
     8
  0
VERTEX
  5
1685
330
1624
100
AcDbEntity
  8
image
100
AcDbVertex
100
AcDb2dVertex
 10
2.576122405631673
 20
3.380406277740856
 30
0.0
 70
     8
  0
VERTEX
  5
1686
330
1624
100
AcDbEntity
  8
image
100
AcDbVertex
100
AcDb2dVertex
 10
2.578906854512577
 20
3.391938410263704
 30
0.0
 70
     8
  0
VERTEX
  5
1687
330
1624
100
AcDbEntity
  8
image
100
AcDbVertex
100
AcDb2dVertex
 10
2.581517134412784
 20
3.403471902361918
 30
0.0
 70
     8
  0
VERTEX
  5
1688
330
1624
100
AcDbEntity
  8
image
100
AcDbVertex
100
AcDb2dVertex
 10
2.583946362478666
 20
3.415011508117103
 30
0.0
 70
     8
  0
VERTEX
  5
1689
330
1624
100
AcDbEntity
  8
image
100
AcDbVertex
100
AcDb2dVertex
 10
2.586187655856594
 20
3.426561981610868
 30
0.0
 70
     8
  0
VERTEX
  5
168A
330
1624
100
AcDbEntity
  8
image
100
AcDbVertex
100
AcDb2dVertex
 10
2.588234131692939
 20
3.438128076924818
 30
0.0
 70
     8
  0
VERTEX
  5
168B
330
1624
100
AcDbEntity
  8
image
100
AcDbVertex
100
AcDb2dVertex
 10
2.590078907134072
 20
3.449714548140561
 30
0.0
 70
     8
  0
VERTEX
  5
168C
330
1624
100
AcDbEntity
  8
image
100
AcDbVertex
100
AcDb2dVertex
 10
2.591715099326365
 20
3.461326149339705
 30
0.0
 70
     8
  0
VERTEX
  5
168D
330
1624
100
AcDbEntity
  8
image
100
AcDbVertex
100
AcDb2dVertex
 10
2.593135825416189
 20
3.472967634603855
 30
0.0
 70
     8
  0
VERTEX
  5
168E
330
1624
100
AcDbEntity
  8
image
100
AcDbVertex
100
AcDb2dVertex
 10
2.594336496782807
 20
3.484641831457703
 30
0.0
 70
     8
  0
VERTEX
  5
168F
330
1624
100
AcDbEntity
  8
image
100
AcDbVertex
100
AcDb2dVertex
 10
2.595321701737049
 20
3.49634386119827
 30
0.0
 70
     8
  0
VERTEX
  5
1690
330
1624
100
AcDbEntity
  8
image
100
AcDbVertex
100
AcDb2dVertex
 10
2.596098322822633
 20
3.508066918565663
 30
0.0
 70
     8
  0
VERTEX
  5
1691
330
1624
100
AcDbEntity
  8
image
100
AcDbVertex
100
AcDb2dVertex
 10
2.596673242583281
 20
3.519804198299987
 30
0.0
 70
     8
  0
VERTEX
  5
1692
330
1624
100
AcDbEntity
  8
image
100
AcDbVertex
100
AcDb2dVertex
 10
2.597053343562714
 20
3.531548895141349
 30
0.0
 70
     8
  0
VERTEX
  5
1693
330
1624
100
AcDbEntity
  8
image
100
AcDbVertex
100
AcDb2dVertex
 10
2.597245508304652
 20
3.543294203829853
 30
0.0
 70
     8
  0
VERTEX
  5
1694
330
1624
100
AcDbEntity
  8
image
100
AcDbVertex
100
AcDb2dVertex
 10
2.597256619352815
 20
3.555033319105607
 30
0.0
 70
     8
  0
VERTEX
  5
1695
330
1624
100
AcDbEntity
  8
image
100
AcDbVertex
100
AcDb2dVertex
 10
2.597093559250924
 20
3.566759435708715
 30
0.0
 70
     8
  0
VERTEX
  5
1696
330
1624
100
AcDbEntity
  8
image
100
AcDbVertex
100
AcDb2dVertex
 10
2.596764881722118
 20
3.578463253581003
 30
0.0
 70
     8
  0
VERTEX
  5
1697
330
1624
100
AcDbEntity
  8
image
100
AcDbVertex
100
AcDb2dVertex
 10
2.596285825207205
 20
3.590125493471173
 30
0.0
 70
     8
  0
VERTEX
  5
1698
330
1624
100
AcDbEntity
  8
image
100
AcDbVertex
100
AcDb2dVertex
 10
2.595673299326414
 20
3.601724381329647
 30
0.0
 70
     8
  0
VERTEX
  5
1699
330
1624
100
AcDbEntity
  8
image
100
AcDbVertex
100
AcDb2dVertex
 10
2.594944213699973
 20
3.613238143106848
 30
0.0
 70
     8
  0
VERTEX
  5
169A
330
1624
100
AcDbEntity
  8
image
100
AcDbVertex
100
AcDb2dVertex
 10
2.594115477948109
 20
3.624645004753197
 30
0.0
 70
     8
  0
VERTEX
  5
169B
330
1624
100
AcDbEntity
  8
image
100
AcDbVertex
100
AcDb2dVertex
 10
2.593204001691049
 20
3.635923192219115
 30
0.0
 70
     8
  0
VERTEX
  5
169C
330
1624
100
AcDbEntity
  8
image
100
AcDbVertex
100
AcDb2dVertex
 10
2.592226694549022
 20
3.647050931455026
 30
0.0
 70
     8
  0
VERTEX
  5
169D
330
1624
100
AcDbEntity
  8
image
100
AcDbVertex
100
AcDb2dVertex
 10
2.591200466142255
 20
3.65800644841135
 30
0.0
 70
     8
  0
VERTEX
  5
169E
330
1624
100
AcDbEntity
  8
image
100
AcDbVertex
100
AcDb2dVertex
 10
2.590139688026608
 20
3.668778098709295
 30
0.0
 70
     8
  0
VERTEX
  5
169F
330
1624
100
AcDbEntity
  8
image
100
AcDbVertex
100
AcDb2dVertex
 10
2.589048579500467
 20
3.679394756653207
 30
0.0
 70
     8
  0
VERTEX
  5
16A0
330
1624
100
AcDbEntity
  8
image
100
AcDbVertex
100
AcDb2dVertex
 10
2.58792882179785
 20
3.689895426218219
 30
0.0
 70
     8
  0
VERTEX
  5
16A1
330
1624
100
AcDbEntity
  8
image
100
AcDbVertex
100
AcDb2dVertex
 10
2.586782096152775
 20
3.700319111379462
 30
0.0
 70
     8
  0
VERTEX
  5
16A2
330
1624
100
AcDbEntity
  8
image
100
AcDbVertex
100
AcDb2dVertex
 10
2.58561008379926
 20
3.710704816112067
 30
0.0
 70
     8
  0
VERTEX
  5
16A3
330
1624
100
AcDbEntity
  8
image
100
AcDbVertex
100
AcDb2dVertex
 10
2.584414465971323
 20
3.721091544391168
 30
0.0
 70
     8
  0
VERTEX
  5
16A4
330
1624
100
AcDbEntity
  8
image
100
AcDbVertex
100
AcDb2dVertex
 10
2.583196923902983
 20
3.731518300191895
 30
0.0
 70
     8
  0
VERTEX
  5
16A5
330
1624
100
AcDbEntity
  8
image
100
AcDbVertex
100
AcDb2dVertex
 10
2.581959138828256
 20
3.742024087489379
 30
0.0
 70
     8
  0
VERTEX
  5
16A6
330
1624
100
AcDbEntity
  8
image
100
AcDbVertex
100
AcDb2dVertex
 10
2.580702544706904
 20
3.752642508084319
 30
0.0
 70
     8
  0
VERTEX
  5
16A7
330
1624
100
AcDbEntity
  8
image
100
AcDbVertex
100
AcDb2dVertex
 10
2.579427586401651
 20
3.763385555079666
 30
0.0
 70
     8
  0
VERTEX
  5
16A8
330
1624
100
AcDbEntity
  8
image
100
AcDbVertex
100
AcDb2dVertex
 10
2.578134461500964
 20
3.774259819403938
 30
0.0
 70
     8
  0
VERTEX
  5
16A9
330
1624
100
AcDbEntity
  8
image
100
AcDbVertex
100
AcDb2dVertex
 10
2.57682336759331
 20
3.785271891985652
 30
0.0
 70
     8
  0
VERTEX
  5
16AA
330
1624
100
AcDbEntity
  8
image
100
AcDbVertex
100
AcDb2dVertex
 10
2.575494502267156
 20
3.796428363753325
 30
0.0
 70
     8
  0
VERTEX
  5
16AB
330
1624
100
AcDbEntity
  8
image
100
AcDbVertex
100
AcDb2dVertex
 10
2.57414806311097
 20
3.807735825635474
 30
0.0
 70
     8
  0
VERTEX
  5
16AC
330
1624
100
AcDbEntity
  8
image
100
AcDbVertex
100
AcDb2dVertex
 10
2.572784247713217
 20
3.819200868560618
 30
0.0
 70
     8
  0
VERTEX
  5
16AD
330
1624
100
AcDbEntity
  8
image
100
AcDbVertex
100
AcDb2dVertex
 10
2.571403253662365
 20
3.830830083457273
 30
0.0
 70
     8
  0
VERTEX
  5
16AE
330
1624
100
AcDbEntity
  8
image
100
AcDbVertex
100
AcDb2dVertex
 10
2.570006068681954
 20
3.842623157524695
 30
0.0
 70
     8
  0
VERTEX
  5
16AF
330
1624
100
AcDbEntity
  8
image
100
AcDbVertex
100
AcDb2dVertex
 10
2.568596841035811
 20
3.854552163045091
 30
0.0
 70
     8
  0
VERTEX
  5
16B0
330
1624
100
AcDbEntity
  8
image
100
AcDbVertex
100
AcDb2dVertex
 10
2.567180509122836
 20
3.866582268571408
 30
0.0
 70
     8
  0
VERTEX
  5
16B1
330
1624
100
AcDbEntity
  8
image
100
AcDbVertex
100
AcDb2dVertex
 10
2.565762011341929
 20
3.878678642656594
 30
0.0
 70
     8
  0
VERTEX
  5
16B2
330
1624
100
AcDbEntity
  8
image
100
AcDbVertex
100
AcDb2dVertex
 10
2.564346286091992
 20
3.890806453853592
 30
0.0
 70
     8
  0
VERTEX
  5
16B3
330
1624
100
AcDbEntity
  8
image
100
AcDbVertex
100
AcDb2dVertex
 10
2.562938271771924
 20
3.902930870715352
 30
0.0
 70
     8
  0
VERTEX
  5
16B4
330
1624
100
AcDbEntity
  8
image
100
AcDbVertex
100
AcDb2dVertex
 10
2.561542906780625
 20
3.915017061794818
 30
0.0
 70
     8
  0
VERTEX
  5
16B5
330
1624
100
AcDbEntity
  8
image
100
AcDbVertex
100
AcDb2dVertex
 10
2.560165129516996
 20
3.927030195644936
 30
0.0
 70
     8
  0
VERTEX
  5
16B6
330
1624
100
AcDbEntity
  8
image
100
AcDbVertex
100
AcDb2dVertex
 10
2.558808918063758
 20
3.938944500838824
 30
0.0
 70
     8
  0
VERTEX
  5
16B7
330
1624
100
AcDbEntity
  8
image
100
AcDbVertex
100
AcDb2dVertex
 10
2.557474409238924
 20
3.950770446030277
 30
0.0
 70
     8
  0
VERTEX
  5
16B8
330
1624
100
AcDbEntity
  8
image
100
AcDbVertex
100
AcDb2dVertex
 10
2.556160779544325
 20
3.962527559893258
 30
0.0
 70
     8
  0
VERTEX
  5
16B9
330
1624
100
AcDbEntity
  8
image
100
AcDbVertex
100
AcDb2dVertex
 10
2.554867205481794
 20
3.974235371101735
 30
0.0
 70
     8
  0
VERTEX
  5
16BA
330
1624
100
AcDbEntity
  8
image
100
AcDbVertex
100
AcDb2dVertex
 10
2.553592863553165
 20
3.985913408329671
 30
0.0
 70
     8
  0
VERTEX
  5
16BB
330
1624
100
AcDbEntity
  8
image
100
AcDbVertex
100
AcDb2dVertex
 10
2.552336930260271
 20
3.997581200251032
 30
0.0
 70
     8
  0
VERTEX
  5
16BC
330
1624
100
AcDbEntity
  8
image
100
AcDbVertex
100
AcDb2dVertex
 10
2.551098582104945
 20
4.009258275539782
 30
0.0
 70
     8
  0
VERTEX
  5
16BD
330
1624
100
AcDbEntity
  8
image
100
AcDbVertex
100
AcDb2dVertex
 10
2.549876995589018
 20
4.020964162869888
 30
0.0
 70
     8
  0
VERTEX
  5
16BE
330
1624
100
AcDbEntity
  8
image
100
AcDbVertex
100
AcDb2dVertex
 10
2.548673636641084
 20
4.032689209620009
 30
0.0
 70
     8
  0
VERTEX
  5
16BF
330
1624
100
AcDbEntity
  8
image
100
AcDbVertex
100
AcDb2dVertex
 10
2.54749912889677
 20
4.044307037987585
 30
0.0
 70
     8
  0
VERTEX
  5
16C0
330
1624
100
AcDbEntity
  8
image
100
AcDbVertex
100
AcDb2dVertex
 10
2.546366385418463
 20
4.05566208887475
 30
0.0
 70
     8
  0
VERTEX
  5
16C1
330
1624
100
AcDbEntity
  8
image
100
AcDbVertex
100
AcDb2dVertex
 10
2.545288319268549
 20
4.066598803183642
 30
0.0
 70
     8
  0
VERTEX
  5
16C2
330
1624
100
AcDbEntity
  8
image
100
AcDbVertex
100
AcDb2dVertex
 10
2.544277843509415
 20
4.076961621816392
 30
0.0
 70
     8
  0
VERTEX
  5
16C3
330
1624
100
AcDbEntity
  8
image
100
AcDbVertex
100
AcDb2dVertex
 10
2.543347871203448
 20
4.086594985675138
 30
0.0
 70
     8
  0
VERTEX
  5
16C4
330
1624
100
AcDbEntity
  8
image
100
AcDbVertex
100
AcDb2dVertex
 10
2.542511315413035
 20
4.095343335662013
 30
0.0
 70
     8
  0
VERTEX
  5
16C5
330
1624
100
AcDbEntity
  8
image
100
AcDbVertex
100
AcDb2dVertex
 10
2.541781089200563
 20
4.103051112679154
 30
0.0
 70
     8
  0
VERTEX
  5
16C6
330
1624
100
AcDbEntity
  8
image
100
AcDbVertex
100
AcDb2dVertex
 10
2.541165556138848
 20
4.109907125008111
 30
0.0
 70
     8
  0
VERTEX
  5
16C7
330
1624
100
AcDbEntity
  8
image
100
AcDbVertex
100
AcDb2dVertex
 10
2.540654881842427
 20
4.117477650448105
 30
0.0
 70
     8
  0
VERTEX
  5
16C8
330
1624
100
AcDbEntity
  8
image
100
AcDbVertex
100
AcDb2dVertex
 10
2.54023468243627
 20
4.127673334177771
 30
0.0
 70
     8
  0
VERTEX
  5
16C9
330
1624
100
AcDbEntity
  8
image
100
AcDbVertex
100
AcDb2dVertex
 10
2.539890574045343
 20
4.142404821375746
 30
0.0
 70
     8
  0
VERTEX
  5
16CA
330
1624
100
AcDbEntity
  8
image
100
AcDbVertex
100
AcDb2dVertex
 10
2.539608172794614
 20
4.163582757220668
 30
0.0
 70
     8
  0
VERTEX
  5
16CB
330
1624
100
AcDbEntity
  8
image
100
AcDbVertex
100
AcDb2dVertex
 10
2.539373094809052
 20
4.193117786891172
 30
0.0
 70
     8
  0
VERTEX
  5
16CC
330
1624
100
AcDbEntity
  8
image
100
AcDbVertex
100
AcDb2dVertex
 10
2.539170956213624
 20
4.232920555565895
 30
0.0
 70
     8
  0
VERTEX
  5
16CD
330
1624
100
AcDbEntity
  8
image
100
AcDbVertex
100
AcDb2dVertex
 10
2.538987373133297
 20
4.284901708423473
 30
0.0
 70
     8
  0
VERTEX
  5
16CE
330
1624
100
AcDbEntity
  8
image
100
AcDbVertex
100
AcDb2dVertex
 10
2.538809571065743
 20
4.350090254877676
 30
0.0
 70
     8
  0
VERTEX
  5
16CF
330
1624
100
AcDbEntity
  8
image
100
AcDbVertex
100
AcDb2dVertex
 10
2.538631212999439
 20
4.425988661282807
 30
0.0
 70
     8
  0
VERTEX
  5
16D0
330
1624
100
AcDbEntity
  8
image
100
AcDbVertex
100
AcDb2dVertex
 10
2.538447571295568
 20
4.5092177582283
 30
0.0
 70
     8
  0
VERTEX
  5
16D1
330
1624
100
AcDbEntity
  8
image
100
AcDbVertex
100
AcDb2dVertex
 10
2.538253918315309
 20
4.596398376303589
 30
0.0
 70
     8
  0
VERTEX
  5
16D2
330
1624
100
AcDbEntity
  8
image
100
AcDbVertex
100
AcDb2dVertex
 10
2.538045526419845
 20
4.684151346098111
 30
0.0
 70
     8
  0
VERTEX
  5
16D3
330
1624
100
AcDbEntity
  8
image
100
AcDbVertex
100
AcDb2dVertex
 10
2.537817667970356
 20
4.7690974982013
 30
0.0
 70
     8
  0
VERTEX
  5
16D4
330
1624
100
AcDbEntity
  8
image
100
AcDbVertex
100
AcDb2dVertex
 10
2.537565615328025
 20
4.84785766320259
 30
0.0
 70
     8
  0
VERTEX
  5
16D5
330
1624
100
AcDbEntity
  8
image
100
AcDbVertex
100
AcDb2dVertex
 10
2.53728464085403
 20
4.917052671691418
 30
0.0
 70
     8
  0
VERTEX
  5
16D6
330
1624
100
AcDbEntity
  8
image
100
AcDbVertex
100
AcDb2dVertex
 10
2.536973190771683
 20
4.97413788044864
 30
0.0
 70
     8
  0
VERTEX
  5
16D7
330
1624
100
AcDbEntity
  8
image
100
AcDbVertex
100
AcDb2dVertex
 10
2.536642406752803
 20
5.019906751020813
 30
0.0
 70
     8
  0
VERTEX
  5
16D8
330
1624
100
AcDbEntity
  8
image
100
AcDbVertex
100
AcDb2dVertex
 10
2.53630660433134
 20
5.055987271145913
 30
0.0
 70
     8
  0
VERTEX
  5
16D9
330
1624
100
AcDbEntity
  8
image
100
AcDbVertex
100
AcDb2dVertex
 10
2.53598009904124
 20
5.08400742856192
 30
0.0
 70
     8
  0
VERTEX
  5
16DA
330
1624
100
AcDbEntity
  8
image
100
AcDbVertex
100
AcDb2dVertex
 10
2.535677206416453
 20
5.105595211006812
 30
0.0
 70
     8
  0
VERTEX
  5
16DB
330
1624
100
AcDbEntity
  8
image
100
AcDbVertex
100
AcDb2dVertex
 10
2.535412241990928
 20
5.122378606218565
 30
0.0
 70
     8
  0
VERTEX
  5
16DC
330
1624
100
AcDbEntity
  8
image
100
AcDbVertex
100
AcDb2dVertex
 10
2.535199521298612
 20
5.135985601935159
 30
0.0
 70
     8
  0
VERTEX
  5
16DD
330
1624
100
AcDbEntity
  8
image
100
AcDbVertex
100
AcDb2dVertex
 10
2.535053359873455
 20
5.148044185894571
 30
0.0
 70
     8
  0
VERTEX
  5
16DE
330
1624
100
AcDbEntity
  8
image
100
AcDbVertex
100
AcDb2dVertex
 10
2.534985931985612
 20
5.159908561745755
 30
0.0
 70
     8
  0
VERTEX
  5
16DF
330
1624
100
AcDbEntity
  8
image
100
AcDbVertex
100
AcDb2dVertex
 10
2.535000846850072
 20
5.171837796781566
 30
0.0
 70
     8
  0
VERTEX
  5
16E0
330
1624
100
AcDbEntity
  8
image
100
AcDbVertex
100
AcDb2dVertex
 10
2.535099572418032
 20
5.183817174205836
 30
0.0
 70
     8
  0
VERTEX
  5
16E1
330
1624
100
AcDbEntity
  8
image
100
AcDbVertex
100
AcDb2dVertex
 10
2.535283576640689
 20
5.195831977222395
 30
0.0
 70
     8
  0
VERTEX
  5
16E2
330
1624
100
AcDbEntity
  8
image
100
AcDbVertex
100
AcDb2dVertex
 10
2.535554327469238
 20
5.207867489035074
 30
0.0
 70
     8
  0
VERTEX
  5
16E3
330
1624
100
AcDbEntity
  8
image
100
AcDbVertex
100
AcDb2dVertex
 10
2.535913292854877
 20
5.219908992847704
 30
0.0
 70
     8
  0
VERTEX
  5
16E4
330
1624
100
AcDbEntity
  8
image
100
AcDbVertex
100
AcDb2dVertex
 10
2.536361940748802
 20
5.231941771864115
 30
0.0
 70
     8
  0
VERTEX
  5
16E5
330
1624
100
AcDbEntity
  8
image
100
AcDbVertex
100
AcDb2dVertex
 10
2.536901739102209
 20
5.24395110928814
 30
0.0
 70
     8
  0
VERTEX
  5
16E6
330
1624
100
AcDbEntity
  8
image
100
AcDbVertex
100
AcDb2dVertex
 10
2.537532005697438
 20
5.255923154167909
 30
0.0
 70
     8
  0
VERTEX
  5
16E7
330
1624
100
AcDbEntity
  8
image
100
AcDbVertex
100
AcDb2dVertex
 10
2.538243457641391
 20
5.267847518928761
 30
0.0
 70
     8
  0
VERTEX
  5
16E8
330
1624
100
AcDbEntity
  8
image
100
AcDbVertex
100
AcDb2dVertex
 10
2.539024661872115
 20
5.279714681840337
 30
0.0
 70
     8
  0
VERTEX
  5
16E9
330
1624
100
AcDbEntity
  8
image
100
AcDbVertex
100
AcDb2dVertex
 10
2.539864185327656
 20
5.291515121172275
 30
0.0
 70
     8
  0
VERTEX
  5
16EA
330
1624
100
AcDbEntity
  8
image
100
AcDbVertex
100
AcDb2dVertex
 10
2.540750594946058
 20
5.303239315194214
 30
0.0
 70
     8
  0
VERTEX
  5
16EB
330
1624
100
AcDbEntity
  8
image
100
AcDbVertex
100
AcDb2dVertex
 10
2.541672457665368
 20
5.314877742175795
 30
0.0
 70
     8
  0
VERTEX
  5
16EC
330
1624
100
AcDbEntity
  8
image
100
AcDbVertex
100
AcDb2dVertex
 10
2.542618340423631
 20
5.326420880386657
 30
0.0
 70
     8
  0
VERTEX
  5
16ED
330
1624
100
AcDbEntity
  8
image
100
AcDbVertex
100
AcDb2dVertex
 10
2.543576810158894
 20
5.337859208096439
 30
0.0
 70
     8
  0
VERTEX
  5
16EE
330
1624
100
AcDbEntity
  8
image
100
AcDbVertex
100
AcDb2dVertex
 10
2.544538512374836
 20
5.349190801442265
 30
0.0
 70
     8
  0
VERTEX
  5
16EF
330
1624
100
AcDbEntity
  8
image
100
AcDbVertex
100
AcDb2dVertex
 10
2.545502406837682
 20
5.360444128031187
 30
0.0
 70
     8
  0
VERTEX
  5
16F0
330
1624
100
AcDbEntity
  8
image
100
AcDbVertex
100
AcDb2dVertex
 10
2.54646953187929
 20
5.371655253337744
 30
0.0
 70
     8
  0
VERTEX
  5
16F1
330
1624
100
AcDbEntity
  8
image
100
AcDbVertex
100
AcDb2dVertex
 10
2.547440925831519
 20
5.38286024283647
 30
0.0
 70
     8
  0
VERTEX
  5
16F2
330
1624
100
AcDbEntity
  8
image
100
AcDbVertex
100
AcDb2dVertex
 10
2.548417627026228
 20
5.394095162001903
 30
0.0
 70
     8
  0
VERTEX
  5
16F3
330
1624
100
AcDbEntity
  8
image
100
AcDbVertex
100
AcDb2dVertex
 10
2.549400673795275
 20
5.405396076308579
 30
0.0
 70
     8
  0
VERTEX
  5
16F4
330
1624
100
AcDbEntity
  8
image
100
AcDbVertex
100
AcDb2dVertex
 10
2.55039110447052
 20
5.416799051231035
 30
0.0
 70
     8
  0
VERTEX
  5
16F5
330
1624
100
AcDbEntity
  8
image
100
AcDbVertex
100
AcDb2dVertex
 10
2.551389957383821
 20
5.428340152243808
 30
0.0
 70
     8
  0
VERTEX
  5
16F6
330
1624
100
AcDbEntity
  8
image
100
AcDbVertex
100
AcDb2dVertex
 10
2.552397178846286
 20
5.440042112469752
 30
0.0
 70
     8
  0
VERTEX
  5
16F7
330
1624
100
AcDbEntity
  8
image
100
AcDbVertex
100
AcDb2dVertex
 10
2.553408347086018
 20
5.451874335625001
 30
0.0
 70
     8
  0
VERTEX
  5
16F8
330
1624
100
AcDbEntity
  8
image
100
AcDbVertex
100
AcDb2dVertex
 10
2.55441794831037
 20
5.463792893074005
 30
0.0
 70
     8
  0
VERTEX
  5
16F9
330
1624
100
AcDbEntity
  8
image
100
AcDbVertex
100
AcDb2dVertex
 10
2.555420468726696
 20
5.475753856181216
 30
0.0
 70
     8
  0
VERTEX
  5
16FA
330
1624
100
AcDbEntity
  8
image
100
AcDbVertex
100
AcDb2dVertex
 10
2.556410394542346
 20
5.487713296311086
 30
0.0
 70
     8
  0
VERTEX
  5
16FB
330
1624
100
AcDbEntity
  8
image
100
AcDbVertex
100
AcDb2dVertex
 10
2.557382211964676
 20
5.499627284828063
 30
0.0
 70
     8
  0
VERTEX
  5
16FC
330
1624
100
AcDbEntity
  8
image
100
AcDbVertex
100
AcDb2dVertex
 10
2.558330407201036
 20
5.511451893096601
 30
0.0
 70
     8
  0
VERTEX
  5
16FD
330
1624
100
AcDbEntity
  8
image
100
AcDbVertex
100
AcDb2dVertex
 10
2.559249466458779
 20
5.52314319248115
 30
0.0
 70
     8
  0
VERTEX
  5
16FE
330
1624
100
AcDbEntity
  8
image
100
AcDbVertex
100
AcDb2dVertex
 10
2.560134392392173
 20
5.534655710146423
 30
0.0
 70
     8
  0
VERTEX
  5
16FF
330
1624
100
AcDbEntity
  8
image
100
AcDbVertex
100
AcDb2dVertex
 10
2.560982253443143
 20
5.545937796458177
 30
0.0
 70
     8
  0
VERTEX
  5
1700
330
1624
100
AcDbEntity
  8
image
100
AcDbVertex
100
AcDb2dVertex
 10
2.561790634500528
 20
5.556936257582433
 30
0.0
 70
     8
  0
VERTEX
  5
1701
330
1624
100
AcDbEntity
  8
image
100
AcDbVertex
100
AcDb2dVertex
 10
2.562557120453167
 20
5.56759789968521
 30
0.0
 70
     8
  0
VERTEX
  5
1702
330
1624
100
AcDbEntity
  8
image
100
AcDbVertex
100
AcDb2dVertex
 10
2.5632792961899
 20
5.577869528932526
 30
0.0
 70
     8
  0
VERTEX
  5
1703
330
1624
100
AcDbEntity
  8
image
100
AcDbVertex
100
AcDb2dVertex
 10
2.563954746599566
 20
5.587697951490403
 30
0.0
 70
     8
  0
VERTEX
  5
1704
330
1624
100
AcDbEntity
  8
image
100
AcDbVertex
100
AcDb2dVertex
 10
2.564581056571005
 20
5.597029973524858
 30
0.0
 70
     8
  0
VERTEX
  5
1705
330
1624
100
AcDbEntity
  8
image
100
AcDbVertex
100
AcDb2dVertex
 10
2.565155810993057
 20
5.605812401201911
 30
0.0
 70
     8
  0
VERTEX
  5
1706
330
1624
100
AcDbEntity
  8
image
100
AcDbVertex
100
AcDb2dVertex
 10
2.565677952186927
 20
5.614014348225544
 30
0.0
 70
     8
  0
VERTEX
  5
1707
330
1624
100
AcDbEntity
  8
image
100
AcDbVertex
100
AcDb2dVertex
 10
2.566151852203294
 20
5.621694158451582
 30
0.0
 70
     8
  0
VERTEX
  5
1708
330
1624
100
AcDbEntity
  8
image
100
AcDbVertex
100
AcDb2dVertex
 10
2.566583240525204
 20
5.628932483273814
 30
0.0
 70
     8
  0
VERTEX
  5
1709
330
1624
100
AcDbEntity
  8
image
100
AcDbVertex
100
AcDb2dVertex
 10
2.566977846635702
 20
5.635809974086028
 30
0.0
 70
     8
  0
VERTEX
  5
170A
330
1624
100
AcDbEntity
  8
image
100
AcDbVertex
100
AcDb2dVertex
 10
2.567341400017832
 20
5.642407282282013
 30
0.0
 70
     8
  0
VERTEX
  5
170B
330
1624
100
AcDbEntity
  8
image
100
AcDbVertex
100
AcDb2dVertex
 10
2.567679630154642
 20
5.648805059255556
 30
0.0
 70
     8
  0
VERTEX
  5
170C
330
1624
100
AcDbEntity
  8
image
100
AcDbVertex
100
AcDb2dVertex
 10
2.567998266529176
 20
5.655083956400445
 30
0.0
 70
     8
  0
VERTEX
  5
170D
330
1624
100
AcDbEntity
  8
image
100
AcDbVertex
100
AcDb2dVertex
 10
2.568303038624479
 20
5.661324625110469
 30
0.0
 70
     8
  0
VERTEX
  5
170E
330
1624
100
AcDbEntity
  8
image
100
AcDbVertex
100
AcDb2dVertex
 10
2.568598890340532
 20
5.667602845389718
 30
0.0
 70
     8
  0
VERTEX
  5
170F
330
1624
100
AcDbEntity
  8
image
100
AcDbVertex
100
AcDb2dVertex
 10
2.568887623245053
 20
5.673974911683499
 30
0.0
 70
     8
  0
VERTEX
  5
1710
330
1624
100
AcDbEntity
  8
image
100
AcDbVertex
100
AcDb2dVertex
 10
2.569170253322694
 20
5.680492247047421
 30
0.0
 70
     8
  0
VERTEX
  5
1711
330
1624
100
AcDbEntity
  8
image
100
AcDbVertex
100
AcDb2dVertex
 10
2.569447796558109
 20
5.687206274537092
 30
0.0
 70
     8
  0
VERTEX
  5
1712
330
1624
100
AcDbEntity
  8
image
100
AcDbVertex
100
AcDb2dVertex
 10
2.56972126893595
 20
5.694168417208121
 30
0.0
 70
     8
  0
VERTEX
  5
1713
330
1624
100
AcDbEntity
  8
image
100
AcDbVertex
100
AcDb2dVertex
 10
2.569991686440869
 20
5.701430098116118
 30
0.0
 70
     8
  0
VERTEX
  5
1714
330
1624
100
AcDbEntity
  8
image
100
AcDbVertex
100
AcDb2dVertex
 10
2.570260065057521
 20
5.709042740316691
 30
0.0
 70
     8
  0
VERTEX
  5
1715
330
1624
100
AcDbEntity
  8
image
100
AcDbVertex
100
AcDb2dVertex
 10
2.570527420770556
 20
5.717057766865448
 30
0.0
 70
     8
  0
VERTEX
  5
1716
330
1624
100
AcDbEntity
  8
image
100
AcDbVertex
100
AcDb2dVertex
 10
2.570800665373543
 20
5.727769173583728
 30
0.0
 70
     8
  0
VERTEX
  5
1717
330
1624
100
AcDbEntity
  8
image
100
AcDbVertex
100
AcDb2dVertex
 10
2.571110293895701
 20
5.752441247355771
 30
0.0
 70
     8
  0
VERTEX
  5
1718
330
1624
100
AcDbEntity
  8
image
100
AcDbVertex
100
AcDb2dVertex
 10
2.571492697175166
 20
5.80458084783155
 30
0.0
 70
     8
  0
VERTEX
  5
1719
330
1624
100
AcDbEntity
  8
image
100
AcDbVertex
100
AcDb2dVertex
 10
2.571984266050072
 20
5.897694834661034
 30
0.0
 70
     8
  0
VERTEX
  5
171A
330
1624
100
AcDbEntity
  8
image
100
AcDbVertex
100
AcDb2dVertex
 10
2.572621391358554
 20
6.045290067494192
 30
0.0
 70
     8
  0
VERTEX
  5
171B
330
1624
100
AcDbEntity
  8
image
100
AcDbVertex
100
AcDb2dVertex
 10
2.573440463938747
 20
6.260873405980999
 30
0.0
 70
     8
  0
VERTEX
  5
171C
330
1624
100
AcDbEntity
  8
image
100
AcDbVertex
100
AcDb2dVertex
 10
2.574477874628785
 20
6.557951709771421
 30
0.0
 70
     8
  0
VERTEX
  5
171D
330
1624
100
AcDbEntity
  8
image
100
AcDbVertex
100
AcDb2dVertex
 10
2.575770014266804
 20
6.95003183851543
 30
0.0
 70
     8
  0
VERTEX
  5
1627
330
1624
100
AcDbEntity
  8
image
100
AcDbVertex
100
AcDb2dVertex
 10
2.412485933420868
 20
3.038279757137455
 30
0.0
 70
    16
  0
VERTEX
  5
1628
330
1624
100
AcDbEntity
  8
image
100
AcDbVertex
100
AcDb2dVertex
 10
2.418634772172103
 20
3.04135150147656
 30
0.0
 70
    16
  0
VERTEX
  5
1629
330
1624
100
AcDbEntity
  8
image
100
AcDbVertex
100
AcDb2dVertex
 10
2.429614874244163
 20
3.042667970715927
 30
0.0
 70
    16
  0
VERTEX
  5
162A
330
1624
100
AcDbEntity
  8
image
100
AcDbVertex
100
AcDb2dVertex
 10
2.432689293619779
 20
3.044423245815664
 30
0.0
 70
    16
  0
VERTEX
  5
162B
330
1624
100
AcDbEntity
  8
image
100
AcDbVertex
100
AcDb2dVertex
 10
2.435324502009091
 20
3.048811459394137
 30
0.0
 70
    16
  0
VERTEX
  5
162C
330
1624
100
AcDbEntity
  8
image
100
AcDbVertex
100
AcDb2dVertex
 10
2.452378233302757
 20
3.119750676724184
 30
0.0
 70
    16
  0
VERTEX
  5
162D
330
1624
100
AcDbEntity
  8
image
100
AcDbVertex
100
AcDb2dVertex
 10
2.506959191547122
 20
3.20051556900401
 30
0.0
 70
    16
  0
VERTEX
  5
162E
330
1624
100
AcDbEntity
  8
image
100
AcDbVertex
100
AcDb2dVertex
 10
2.549599722227213
 20
3.288069562175416
 30
0.0
 70
    16
  0
VERTEX
  5
162F
330
1624
100
AcDbEntity
  8
image
100
AcDbVertex
100
AcDb2dVertex
 10
2.577906790987066
 20
3.380442485807438
 30
0.0
 70
    16
  0
VERTEX
  5
1630
330
1624
100
AcDbEntity
  8
image
100
AcDbVertex
100
AcDb2dVertex
 10
2.595507547614563
 20
3.472598161039972
 30
0.0
 70
    16
  0
VERTEX
  5
1631
330
1624
100
AcDbEntity
  8
image
100
AcDbVertex
100
AcDb2dVertex
 10
2.598877971051816
 20
3.566970677655803
 30
0.0
 70
    16
  0
VERTEX
  5
1632
330
1624
100
AcDbEntity
  8
image
100
AcDbVertex
100
AcDb2dVertex
 10
2.591541923683718
 20
3.660075742589103
 30
0.0
 70
    16
  0
VERTEX
  5
1633
330
1624
100
AcDbEntity
  8
image
100
AcDbVertex
100
AcDb2dVertex
 10
2.582157131066844
 20
3.740765042455885
 30
0.0
 70
    16
  0
VERTEX
  5
1634
330
1624
100
AcDbEntity
  8
image
100
AcDbVertex
100
AcDb2dVertex
 10
2.571584385018441
 20
3.829008612523636
 30
0.0
 70
    16
  0
VERTEX
  5
1635
330
1624
100
AcDbEntity
  8
image
100
AcDbVertex
100
AcDb2dVertex
 10
2.559924850833584
 20
3.92818100819321
 30
0.0
 70
    16
  0
VERTEX
  5
1636
330
1624
100
AcDbEntity
  8
image
100
AcDbVertex
100
AcDb2dVertex
 10
2.549706988749196
 20
4.020448528573141
 30
0.0
 70
    16
  0
VERTEX
  5
1637
330
1624
100
AcDbEntity
  8
image
100
AcDbVertex
100
AcDb2dVertex
 10
2.54050916770374
 20
4.115809854733556
 30
0.0
 70
    16
  0
VERTEX
  5
1638
330
1624
100
AcDbEntity
  8
image
100
AcDbVertex
100
AcDb2dVertex
 10
2.538942875639221
 20
4.134618728567558
 30
0.0
 70
    16
  0
VERTEX
  5
1639
330
1624
100
AcDbEntity
  8
image
100
AcDbVertex
100
AcDb2dVertex
 10
2.537643568539161
 20
5.055125481537051
 30
0.0
 70
    16
  0
VERTEX
  5
163A
330
1624
100
AcDbEntity
  8
image
100
AcDbVertex
100
AcDb2dVertex
 10
2.534190695328318
 20
5.147195375432741
 30
0.0
 70
    16
  0
VERTEX
  5
163B
330
1624
100
AcDbEntity
  8
image
100
AcDbVertex
100
AcDb2dVertex
 10
2.535913809388297
 20
5.244358132099408
 30
0.0
 70
    16
  0
VERTEX
  5
163C
330
1624
100
AcDbEntity
  8
image
100
AcDbVertex
100
AcDb2dVertex
 10
2.543564501731751
 20
5.339078751898464
 30
0.0
 70
    16
  0
VERTEX
  5
163D
330
1624
100
AcDbEntity
  8
image
100
AcDbVertex
100
AcDb2dVertex
 10
2.551289044638062
 20
5.426482108885375
 30
0.0
 70
    16
  0
VERTEX
  5
163E
330
1624
100
AcDbEntity
  8
image
100
AcDbVertex
100
AcDb2dVertex
 10
2.559619064018926
 20
5.525033726022885
 30
0.0
 70
    16
  0
VERTEX
  5
163F
330
1624
100
AcDbEntity
  8
image
100
AcDbVertex
100
AcDb2dVertex
 10
2.565731498038907
 20
5.612242141909989
 30
0.0
 70
    16
  0
VERTEX
  5
1640
330
1624
100
AcDbEntity
  8
image
100
AcDbVertex
100
AcDb2dVertex
 10
2.568389809783785
 20
5.660872113548627
 30
0.0
 70
    16
  0
VERTEX
  5
1641
330
1624
100
AcDbEntity
  8
image
100
AcDbVertex
100
AcDb2dVertex
 10
2.570527494572827
 20
5.712217154558311
 30
0.0
 70
    16
  0
VERTEX
  5
1642
330
1624
100
AcDbEntity
  8
image
100
AcDbVertex
100
AcDb2dVertex
 10
2.571952322556439
 20
5.765809631126648
 30
0.0
 70
    16
  0
VERTEX
  5
1643
330
1624
100
AcDbEntity
  8
image
100
AcDbVertex
100
AcDb2dVertex
 10
2.575770014266804
 20
6.950031838515429
 30
0.0
 70
    16
  0
SEQEND
  5
1644
330
1624
100
AcDbEntity
  8
image
  0
POLYLINE
  5
1625
330
10C1
100
AcDbEntity
  8
image
100
AcDb2dPolyline
 66
     1
 10
0.0
 20
0.0
 30
0.0
 70
     4
 75
     6
  0
VERTEX
  5
171E
330
1625
100
AcDbEntity
  8
image
100
AcDbVertex
100
AcDb2dVertex
 10
2.337668676074201
 20
3.064813960855299
 30
0.0
 70
    16
  0
VERTEX
  5
173E
330
1625
100
AcDbEntity
  8
image
100
AcDbVertex
100
AcDb2dVertex
 10
2.337668676074201
 20
3.064813960855298
 30
0.0
 70
     8
  0
VERTEX
  5
173F
330
1625
100
AcDbEntity
  8
image
100
AcDbVertex
100
AcDb2dVertex
 10
2.339740547264971
 20
3.06937750653799
 30
0.0
 70
     8
  0
VERTEX
  5
1740
330
1625
100
AcDbEntity
  8
image
100
AcDbVertex
100
AcDb2dVertex
 10
2.341272986417551
 20
3.073126556499548
 30
0.0
 70
     8
  0
VERTEX
  5
1741
330
1625
100
AcDbEntity
  8
image
100
AcDbVertex
100
AcDb2dVertex
 10
2.342334730580178
 20
3.076177251635085
 30
0.0
 70
     8
  0
VERTEX
  5
1742
330
1625
100
AcDbEntity
  8
image
100
AcDbVertex
100
AcDb2dVertex
 10
2.342994516801089
 20
3.078645732839716
 30
0.0
 70
     8
  0
VERTEX
  5
1743
330
1625
100
AcDbEntity
  8
image
100
AcDbVertex
100
AcDb2dVertex
 10
2.343321082128519
 20
3.080648141008557
 30
0.0
 70
     8
  0
VERTEX
  5
1744
330
1625
100
AcDbEntity
  8
image
100
AcDbVertex
100
AcDb2dVertex
 10
2.343383163610704
 20
3.082300617036721
 30
0.0
 70
     8
  0
VERTEX
  5
1745
330
1625
100
AcDbEntity
  8
image
100
AcDbVertex
100
AcDb2dVertex
 10
2.343249498295883
 20
3.083719301819323
 30
0.0
 70
     8
  0
VERTEX
  5
1746
330
1625
100
AcDbEntity
  8
image
100
AcDbVertex
100
AcDb2dVertex
 10
2.342988823232291
 20
3.085020336251478
 30
0.0
 70
     8
  0
VERTEX
  5
1747
330
1625
100
AcDbEntity
  8
image
100
AcDbVertex
100
AcDb2dVertex
 10
2.342661027798484
 20
3.0862983682527
 30
0.0
 70
     8
  0
VERTEX
  5
1748
330
1625
100
AcDbEntity
  8
image
100
AcDbVertex
100
AcDb2dVertex
 10
2.3422906106943
 20
3.08756207384011
 30
0.0
 70
     8
  0
VERTEX
  5
1749
330
1625
100
AcDbEntity
  8
image
100
AcDbVertex
100
AcDb2dVertex
 10
2.341893222949896
 20
3.088798636055226
 30
0.0
 70
     8
  0
VERTEX
  5
174A
330
1625
100
AcDbEntity
  8
image
100
AcDbVertex
100
AcDb2dVertex
 10
2.341484515595429
 20
3.089995237939572
 30
0.0
 70
     8
  0
VERTEX
  5
174B
330
1625
100
AcDbEntity
  8
image
100
AcDbVertex
100
AcDb2dVertex
 10
2.341080139661057
 20
3.091139062534665
 30
0.0
 70
     8
  0
VERTEX
  5
174C
330
1625
100
AcDbEntity
  8
image
100
AcDbVertex
100
AcDb2dVertex
 10
2.340695746176938
 20
3.092217292882027
 30
0.0
 70
     8
  0
VERTEX
  5
174D
330
1625
100
AcDbEntity
  8
image
100
AcDbVertex
100
AcDb2dVertex
 10
2.340346986173227
 20
3.093217112023177
 30
0.0
 70
     8
  0
VERTEX
  5
174E
330
1625
100
AcDbEntity
  8
image
100
AcDbVertex
100
AcDb2dVertex
 10
2.340049510680084
 20
3.094125702999638
 30
0.0
 70
     8
  0
VERTEX
  5
174F
330
1625
100
AcDbEntity
  8
image
100
AcDbVertex
100
AcDb2dVertex
 10
2.339815783693019
 20
3.094934851331426
 30
0.0
 70
     8
  0
VERTEX
  5
1750
330
1625
100
AcDbEntity
  8
image
100
AcDbVertex
100
AcDb2dVertex
 10
2.339645521068962
 20
3.095654752452553
 30
0.0
 70
     8
  0
VERTEX
  5
1751
330
1625
100
AcDbEntity
  8
image
100
AcDbVertex
100
AcDb2dVertex
 10
2.339535251630198
 20
3.096300204275529
 30
0.0
 70
     8
  0
VERTEX
  5
1752
330
1625
100
AcDbEntity
  8
image
100
AcDbVertex
100
AcDb2dVertex
 10
2.339481504199009
 20
3.096886004712862
 30
0.0
 70
     8
  0
VERTEX
  5
1753
330
1625
100
AcDbEntity
  8
image
100
AcDbVertex
100
AcDb2dVertex
 10
2.339480807597681
 20
3.097426951677063
 30
0.0
 70
     8
  0
VERTEX
  5
1754
330
1625
100
AcDbEntity
  8
image
100
AcDbVertex
100
AcDb2dVertex
 10
2.339529690648497
 20
3.097937843080641
 30
0.0
 70
     8
  0
VERTEX
  5
1755
330
1625
100
AcDbEntity
  8
image
100
AcDbVertex
100
AcDb2dVertex
 10
2.33962468217374
 20
3.098433476836105
 30
0.0
 70
     8
  0
VERTEX
  5
1756
330
1625
100
AcDbEntity
  8
image
100
AcDbVertex
100
AcDb2dVertex
 10
2.339762310995696
 20
3.098928650855964
 30
0.0
 70
     8
  0
VERTEX
  5
1757
330
1625
100
AcDbEntity
  8
image
100
AcDbVertex
100
AcDb2dVertex
 10
2.339960621499497
 20
3.099457300909731
 30
0.0
 70
     8
  0
VERTEX
  5
1758
330
1625
100
AcDbEntity
  8
image
100
AcDbVertex
100
AcDb2dVertex
 10
2.340323720321675
 20
3.100129914194925
 30
0.0
 70
     8
  0
VERTEX
  5
1759
330
1625
100
AcDbEntity
  8
image
100
AcDbVertex
100
AcDb2dVertex
 10
2.340977229661612
 20
3.10107611576607
 30
0.0
 70
     8
  0
VERTEX
  5
175A
330
1625
100
AcDbEntity
  8
image
100
AcDbVertex
100
AcDb2dVertex
 10
2.342046771718688
 20
3.10242553067769
 30
0.0
 70
     8
  0
VERTEX
  5
175B
330
1625
100
AcDbEntity
  8
image
100
AcDbVertex
100
AcDb2dVertex
 10
2.343657968692285
 20
3.104307783984305
 30
0.0
 70
     8
  0
VERTEX
  5
175C
330
1625
100
AcDbEntity
  8
image
100
AcDbVertex
100
AcDb2dVertex
 10
2.345936442781783
 20
3.106852500740441
 30
0.0
 70
     8
  0
VERTEX
  5
175D
330
1625
100
AcDbEntity
  8
image
100
AcDbVertex
100
AcDb2dVertex
 10
2.349007816186565
 20
3.110189306000619
 30
0.0
 70
     8
  0
VERTEX
  5
175E
330
1625
100
AcDbEntity
  8
image
100
AcDbVertex
100
AcDb2dVertex
 10
2.352997711106011
 20
3.114447824819362
 30
0.0
 70
     8
  0
VERTEX
  5
175F
330
1625
100
AcDbEntity
  8
image
100
AcDbVertex
100
AcDb2dVertex
 10
2.357983792742513
 20
3.119717906647396
 30
0.0
 70
     8
  0
VERTEX
  5
1760
330
1625
100
AcDbEntity
  8
image
100
AcDbVertex
100
AcDb2dVertex
 10
2.363851898310513
 20
3.125930298520253
 30
0.0
 70
     8
  0
VERTEX
  5
1761
330
1625
100
AcDbEntity
  8
image
100
AcDbVertex
100
AcDb2dVertex
 10
2.37043990802746
 20
3.132975971869669
 30
0.0
 70
     8
  0
VERTEX
  5
1762
330
1625
100
AcDbEntity
  8
image
100
AcDbVertex
100
AcDb2dVertex
 10
2.377585702110805
 20
3.140745898127379
 30
0.0
 70
     8
  0
VERTEX
  5
1763
330
1625
100
AcDbEntity
  8
image
100
AcDbVertex
100
AcDb2dVertex
 10
2.385127160778001
 20
3.149131048725118
 30
0.0
 70
     8
  0
VERTEX
  5
1764
330
1625
100
AcDbEntity
  8
image
100
AcDbVertex
100
AcDb2dVertex
 10
2.392902164246497
 20
3.158022395094622
 30
0.0
 70
     8
  0
VERTEX
  5
1765
330
1625
100
AcDbEntity
  8
image
100
AcDbVertex
100
AcDb2dVertex
 10
2.400748592733745
 20
3.167310908667626
 30
0.0
 70
     8
  0
VERTEX
  5
1766
330
1625
100
AcDbEntity
  8
image
100
AcDbVertex
100
AcDb2dVertex
 10
2.408504326457196
 20
3.176887560875865
 30
0.0
 70
     8
  0
VERTEX
  5
1767
330
1625
100
AcDbEntity
  8
image
100
AcDbVertex
100
AcDb2dVertex
 10
2.416034513080953
 20
3.186660574339515
 30
0.0
 70
     8
  0
VERTEX
  5
1768
330
1625
100
AcDbEntity
  8
image
100
AcDbVertex
100
AcDb2dVertex
 10
2.423313370055735
 20
3.196607176432522
 30
0.0
 70
     8
  0
VERTEX
  5
1769
330
1625
100
AcDbEntity
  8
image
100
AcDbVertex
100
AcDb2dVertex
 10
2.430342382278907
 20
3.20672184571727
 30
0.0
 70
     8
  0
VERTEX
  5
176A
330
1625
100
AcDbEntity
  8
image
100
AcDbVertex
100
AcDb2dVertex
 10
2.43712303464784
 20
3.216999060756145
 30
0.0
 70
     8
  0
VERTEX
  5
176B
330
1625
100
AcDbEntity
  8
image
100
AcDbVertex
100
AcDb2dVertex
 10
2.443656812059903
 20
3.227433300111532
 30
0.0
 70
     8
  0
VERTEX
  5
176C
330
1625
100
AcDbEntity
  8
image
100
AcDbVertex
100
AcDb2dVertex
 10
2.449945199412463
 20
3.238019042345817
 30
0.0
 70
     8
  0
VERTEX
  5
176D
330
1625
100
AcDbEntity
  8
image
100
AcDbVertex
100
AcDb2dVertex
 10
2.455989681602891
 20
3.248750766021386
 30
0.0
 70
     8
  0
VERTEX
  5
176E
330
1625
100
AcDbEntity
  8
image
100
AcDbVertex
100
AcDb2dVertex
 10
2.461791743528555
 20
3.259622949700624
 30
0.0
 70
     8
  0
VERTEX
  5
176F
330
1625
100
AcDbEntity
  8
image
100
AcDbVertex
100
AcDb2dVertex
 10
2.46735281183563
 20
3.270629062359255
 30
0.0
 70
     8
  0
VERTEX
  5
1770
330
1625
100
AcDbEntity
  8
image
100
AcDbVertex
100
AcDb2dVertex
 10
2.47267408016552
 20
3.281758534626357
 30
0.0
 70
     8
  0
VERTEX
  5
1771
330
1625
100
AcDbEntity
  8
image
100
AcDbVertex
100
AcDb2dVertex
 10
2.477756683908433
 20
3.292999787544349
 30
0.0
 70
     8
  0
VERTEX
  5
1772
330
1625
100
AcDbEntity
  8
image
100
AcDbVertex
100
AcDb2dVertex
 10
2.482601758454581
 20
3.304341242155647
 30
0.0
 70
     8
  0
VERTEX
  5
1773
330
1625
100
AcDbEntity
  8
image
100
AcDbVertex
100
AcDb2dVertex
 10
2.487210439194173
 20
3.315771319502671
 30
0.0
 70
     8
  0
VERTEX
  5
1774
330
1625
100
AcDbEntity
  8
image
100
AcDbVertex
100
AcDb2dVertex
 10
2.491583861517419
 20
3.327278440627835
 30
0.0
 70
     8
  0
VERTEX
  5
1775
330
1625
100
AcDbEntity
  8
image
100
AcDbVertex
100
AcDb2dVertex
 10
2.495723160814528
 20
3.338851026573559
 30
0.0
 70
     8
  0
VERTEX
  5
1776
330
1625
100
AcDbEntity
  8
image
100
AcDbVertex
100
AcDb2dVertex
 10
2.499629472475711
 20
3.350477498382259
 30
0.0
 70
     8
  0
VERTEX
  5
1777
330
1625
100
AcDbEntity
  8
image
100
AcDbVertex
100
AcDb2dVertex
 10
2.503303974255949
 20
3.362147773413732
 30
0.0
 70
     8
  0
VERTEX
  5
1778
330
1625
100
AcDbEntity
  8
image
100
AcDbVertex
100
AcDb2dVertex
 10
2.506748013369309
 20
3.373857754297298
 30
0.0
 70
     8
  0
VERTEX
  5
1779
330
1625
100
AcDbEntity
  8
image
100
AcDbVertex
100
AcDb2dVertex
 10
2.509962979394631
 20
3.385604839979651
 30
0.0
 70
     8
  0
VERTEX
  5
177A
330
1625
100
AcDbEntity
  8
image
100
AcDbVertex
100
AcDb2dVertex
 10
2.512950261910753
 20
3.39738642940749
 30
0.0
 70
     8
  0
VERTEX
  5
177B
330
1625
100
AcDbEntity
  8
image
100
AcDbVertex
100
AcDb2dVertex
 10
2.515711250496517
 20
3.409199921527513
 30
0.0
 70
     8
  0
VERTEX
  5
177C
330
1625
100
AcDbEntity
  8
image
100
AcDbVertex
100
AcDb2dVertex
 10
2.518247334730759
 20
3.421042715286415
 30
0.0
 70
     8
  0
VERTEX
  5
177D
330
1625
100
AcDbEntity
  8
image
100
AcDbVertex
100
AcDb2dVertex
 10
2.520559904192321
 20
3.432912209630894
 30
0.0
 70
     8
  0
VERTEX
  5
177E
330
1625
100
AcDbEntity
  8
image
100
AcDbVertex
100
AcDb2dVertex
 10
2.522650348460039
 20
3.444805803507648
 30
0.0
 70
     8
  0
VERTEX
  5
177F
330
1625
100
AcDbEntity
  8
image
100
AcDbVertex
100
AcDb2dVertex
 10
2.524519679539841
 20
3.456721549006188
 30
0.0
 70
     8
  0
VERTEX
  5
1780
330
1625
100
AcDbEntity
  8
image
100
AcDbVertex
100
AcDb2dVertex
 10
2.526167399145986
 20
3.468660110787276
 30
0.0
 70
     8
  0
VERTEX
  5
1781
330
1625
100
AcDbEntity
  8
image
100
AcDbVertex
100
AcDb2dVertex
 10
2.527592631419822
 20
3.480622806654493
 30
0.0
 70
     8
  0
VERTEX
  5
1782
330
1625
100
AcDbEntity
  8
image
100
AcDbVertex
100
AcDb2dVertex
 10
2.528794500502698
 20
3.492610954411414
 30
0.0
 70
     8
  0
VERTEX
  5
1783
330
1625
100
AcDbEntity
  8
image
100
AcDbVertex
100
AcDb2dVertex
 10
2.52977213053596
 20
3.504625871861617
 30
0.0
 70
     8
  0
VERTEX
  5
1784
330
1625
100
AcDbEntity
  8
image
100
AcDbVertex
100
AcDb2dVertex
 10
2.530524645660954
 20
3.516668876808682
 30
0.0
 70
     8
  0
VERTEX
  5
1785
330
1625
100
AcDbEntity
  8
image
100
AcDbVertex
100
AcDb2dVertex
 10
2.531051170019029
 20
3.528741287056185
 30
0.0
 70
     8
  0
VERTEX
  5
1786
330
1625
100
AcDbEntity
  8
image
100
AcDbVertex
100
AcDb2dVertex
 10
2.531350827751531
 20
3.540844420407703
 30
0.0
 70
     8
  0
VERTEX
  5
1787
330
1625
100
AcDbEntity
  8
image
100
AcDbVertex
100
AcDb2dVertex
 10
2.531425986343002
 20
3.552977581722087
 30
0.0
 70
     8
  0
VERTEX
  5
1788
330
1625
100
AcDbEntity
  8
image
100
AcDbVertex
100
AcDb2dVertex
 10
2.53129198665076
 20
3.565132024079268
 30
0.0
 70
     8
  0
VERTEX
  5
1789
330
1625
100
AcDbEntity
  8
image
100
AcDbVertex
100
AcDb2dVertex
 10
2.530967412875319
 20
3.577296987614451
 30
0.0
 70
     8
  0
VERTEX
  5
178A
330
1625
100
AcDbEntity
  8
image
100
AcDbVertex
100
AcDb2dVertex
 10
2.530470849217191
 20
3.589461712462839
 30
0.0
 70
     8
  0
VERTEX
  5
178B
330
1625
100
AcDbEntity
  8
image
100
AcDbVertex
100
AcDb2dVertex
 10
2.529820879876889
 20
3.601615438759636
 30
0.0
 70
     8
  0
VERTEX
  5
178C
330
1625
100
AcDbEntity
  8
image
100
AcDbVertex
100
AcDb2dVertex
 10
2.529036089054926
 20
3.613747406640047
 30
0.0
 70
     8
  0
VERTEX
  5
178D
330
1625
100
AcDbEntity
  8
image
100
AcDbVertex
100
AcDb2dVertex
 10
2.528135060951814
 20
3.625846856239275
 30
0.0
 70
     8
  0
VERTEX
  5
178E
330
1625
100
AcDbEntity
  8
image
100
AcDbVertex
100
AcDb2dVertex
 10
2.527136379768068
 20
3.637903027692524
 30
0.0
 70
     8
  0
VERTEX
  5
178F
330
1625
100
AcDbEntity
  8
image
100
AcDbVertex
100
AcDb2dVertex
 10
2.526057272975624
 20
3.649906040748744
 30
0.0
 70
     8
  0
VERTEX
  5
1790
330
1625
100
AcDbEntity
  8
image
100
AcDbVertex
100
AcDb2dVertex
 10
2.524909541132129
 20
3.66184953361187
 30
0.0
 70
     8
  0
VERTEX
  5
1791
330
1625
100
AcDbEntity
  8
image
100
AcDbVertex
100
AcDb2dVertex
 10
2.52370362806665
 20
3.673728024099583
 30
0.0
 70
     8
  0
VERTEX
  5
1792
330
1625
100
AcDbEntity
  8
image
100
AcDbVertex
100
AcDb2dVertex
 10
2.522449977608258
 20
3.685536030029562
 30
0.0
 70
     8
  0
VERTEX
  5
1793
330
1625
100
AcDbEntity
  8
image
100
AcDbVertex
100
AcDb2dVertex
 10
2.521159033586022
 20
3.69726806921949
 30
0.0
 70
     8
  0
VERTEX
  5
1794
330
1625
100
AcDbEntity
  8
image
100
AcDbVertex
100
AcDb2dVertex
 10
2.519841239829013
 20
3.708918659487046
 30
0.0
 70
     8
  0
VERTEX
  5
1795
330
1625
100
AcDbEntity
  8
image
100
AcDbVertex
100
AcDb2dVertex
 10
2.5185070401663
 20
3.720482318649913
 30
0.0
 70
     8
  0
VERTEX
  5
1796
330
1625
100
AcDbEntity
  8
image
100
AcDbVertex
100
AcDb2dVertex
 10
2.517166878426953
 20
3.731953564525769
 30
0.0
 70
     8
  0
VERTEX
  5
1797
330
1625
100
AcDbEntity
  8
image
100
AcDbVertex
100
AcDb2dVertex
 10
2.515830258568557
 20
3.743322675217111
 30
0.0
 70
     8
  0
VERTEX
  5
1798
330
1625
100
AcDbEntity
  8
image
100
AcDbVertex
100
AcDb2dVertex
 10
2.514502925062763
 20
3.754562969965685
 30
0.0
 70
     8
  0
VERTEX
  5
1799
330
1625
100
AcDbEntity
  8
image
100
AcDbVertex
100
AcDb2dVertex
 10
2.513189682509738
 20
3.765643528298057
 30
0.0
 70
     8
  0
VERTEX
  5
179A
330
1625
100
AcDbEntity
  8
image
100
AcDbVertex
100
AcDb2dVertex
 10
2.511895335509646
 20
3.776533429740786
 30
0.0
 70
     8
  0
VERTEX
  5
179B
330
1625
100
AcDbEntity
  8
image
100
AcDbVertex
100
AcDb2dVertex
 10
2.510624688662654
 20
3.787201753820437
 30
0.0
 70
     8
  0
VERTEX
  5
179C
330
1625
100
AcDbEntity
  8
image
100
AcDbVertex
100
AcDb2dVertex
 10
2.509382546568929
 20
3.797617580063572
 30
0.0
 70
     8
  0
VERTEX
  5
179D
330
1625
100
AcDbEntity
  8
image
100
AcDbVertex
100
AcDb2dVertex
 10
2.508173713828636
 20
3.807749987996752
 30
0.0
 70
     8
  0
VERTEX
  5
179E
330
1625
100
AcDbEntity
  8
image
100
AcDbVertex
100
AcDb2dVertex
 10
2.507002995041942
 20
3.817568057146541
 30
0.0
 70
     8
  0
VERTEX
  5
179F
330
1625
100
AcDbEntity
  8
image
100
AcDbVertex
100
AcDb2dVertex
 10
2.505872458375265
 20
3.827063252853123
 30
0.0
 70
     8
  0
VERTEX
  5
17A0
330
1625
100
AcDbEntity
  8
image
100
AcDbVertex
100
AcDb2dVertex
 10
2.504773226260033
 20
3.836316583711171
 30
0.0
 70
     8
  0
VERTEX
  5
17A1
330
1625
100
AcDbEntity
  8
image
100
AcDbVertex
100
AcDb2dVertex
 10
2.503693684693924
 20
3.84543144412898
 30
0.0
 70
     8
  0
VERTEX
  5
17A2
330
1625
100
AcDbEntity
  8
image
100
AcDbVertex
100
AcDb2dVertex
 10
2.502622219674619
 20
3.854511228514845
 30
0.0
 70
     8
  0
VERTEX
  5
17A3
330
1625
100
AcDbEntity
  8
image
100
AcDbVertex
100
AcDb2dVertex
 10
2.501547217199798
 20
3.863659331277062
 30
0.0
 70
     8
  0
VERTEX
  5
17A4
330
1625
100
AcDbEntity
  8
image
100
AcDbVertex
100
AcDb2dVertex
 10
2.50045706326714
 20
3.872979146823924
 30
0.0
 70
     8
  0
VERTEX
  5
17A5
330
1625
100
AcDbEntity
  8
image
100
AcDbVertex
100
AcDb2dVertex
 10
2.499340143874325
 20
3.882574069563729
 30
0.0
 70
     8
  0
VERTEX
  5
17A6
330
1625
100
AcDbEntity
  8
image
100
AcDbVertex
100
AcDb2dVertex
 10
2.498184845019031
 20
3.892547493904769
 30
0.0
 70
     8
  0
VERTEX
  5
17A7
330
1625
100
AcDbEntity
  8
image
100
AcDbVertex
100
AcDb2dVertex
 10
2.496983386153784
 20
3.902970500443775
 30
0.0
 70
     8
  0
VERTEX
  5
17A8
330
1625
100
AcDbEntity
  8
image
100
AcDbVertex
100
AcDb2dVertex
 10
2.495743320550477
 20
3.91378491453121
 30
0.0
 70
     8
  0
VERTEX
  5
17A9
330
1625
100
AcDbEntity
  8
image
100
AcDbVertex
100
AcDb2dVertex
 10
2.49447603493585
 20
3.92490024770597
 30
0.0
 70
     8
  0
VERTEX
  5
17AA
330
1625
100
AcDbEntity
  8
image
100
AcDbVertex
100
AcDb2dVertex
 10
2.493192916036642
 20
3.936226011506954
 30
0.0
 70
     8
  0
VERTEX
  5
17AB
330
1625
100
AcDbEntity
  8
image
100
AcDbVertex
100
AcDb2dVertex
 10
2.491905350579591
 20
3.94767171747306
 30
0.0
 70
     8
  0
VERTEX
  5
17AC
330
1625
100
AcDbEntity
  8
image
100
AcDbVertex
100
AcDb2dVertex
 10
2.490624725291437
 20
3.959146877143183
 30
0.0
 70
     8
  0
VERTEX
  5
17AD
330
1625
100
AcDbEntity
  8
image
100
AcDbVertex
100
AcDb2dVertex
 10
2.489362426898919
 20
3.970561002056222
 30
0.0
 70
     8
  0
VERTEX
  5
17AE
330
1625
100
AcDbEntity
  8
image
100
AcDbVertex
100
AcDb2dVertex
 10
2.488129842128774
 20
3.981823603751074
 30
0.0
 70
     8
  0
VERTEX
  5
17AF
330
1625
100
AcDbEntity
  8
image
100
AcDbVertex
100
AcDb2dVertex
 10
2.486936066580052
 20
3.992864052150519
 30
0.0
 70
     8
  0
VERTEX
  5
17B0
330
1625
100
AcDbEntity
  8
image
100
AcDbVertex
100
AcDb2dVertex
 10
2.485781031341032
 20
4.003691150712862
 30
0.0
 70
     8
  0
VERTEX
  5
17B1
330
1625
100
AcDbEntity
  8
image
100
AcDbVertex
100
AcDb2dVertex
 10
2.484662376372302
 20
4.014333561280292
 30
0.0
 70
     8
  0
VERTEX
  5
17B2
330
1625
100
AcDbEntity
  8
image
100
AcDbVertex
100
AcDb2dVertex
 10
2.483577741634451
 20
4.024819945694996
 30
0.0
 70
     8
  0
VERTEX
  5
17B3
330
1625
100
AcDbEntity
  8
image
100
AcDbVertex
100
AcDb2dVertex
 10
2.482524767088069
 20
4.035178965799164
 30
0.0
 70
     8
  0
VERTEX
  5
17B4
330
1625
100
AcDbEntity
  8
image
100
AcDbVertex
100
AcDb2dVertex
 10
2.481501092693743
 20
4.045439283434983
 30
0.0
 70
     8
  0
VERTEX
  5
17B5
330
1625
100
AcDbEntity
  8
image
100
AcDbVertex
100
AcDb2dVertex
 10
2.480504358412062
 20
4.05562956044464
 30
0.0
 70
     8
  0
VERTEX
  5
17B6
330
1625
100
AcDbEntity
  8
image
100
AcDbVertex
100
AcDb2dVertex
 10
2.479532204203616
 20
4.065778458670325
 30
0.0
 70
     8
  0
VERTEX
  5
17B7
330
1625
100
AcDbEntity
  8
image
100
AcDbVertex
100
AcDb2dVertex
 10
2.478584119528664
 20
4.076183010515852
 30
0.0
 70
     8
  0
VERTEX
  5
17B8
330
1625
100
AcDbEntity
  8
image
100
AcDbVertex
100
AcDb2dVertex
 10
2.477666991846156
 20
4.088213730631541
 30
0.0
 70
     8
  0
VERTEX
  5
17B9
330
1625
100
AcDbEntity
  8
image
100
AcDbVertex
100
AcDb2dVertex
 10
2.47678955811471
 20
4.103509504229339
 30
0.0
 70
     8
  0
VERTEX
  5
17BA
330
1625
100
AcDbEntity
  8
image
100
AcDbVertex
100
AcDb2dVertex
 10
2.475960555292948
 20
4.123709216521191
 30
0.0
 70
     8
  0
VERTEX
  5
17BB
330
1625
100
AcDbEntity
  8
image
100
AcDbVertex
100
AcDb2dVertex
 10
2.47518872033949
 20
4.150451752719046
 30
0.0
 70
     8
  0
VERTEX
  5
17BC
330
1625
100
AcDbEntity
  8
image
100
AcDbVertex
100
AcDb2dVertex
 10
2.474482790212955
 20
4.185375998034849
 30
0.0
 70
     8
  0
VERTEX
  5
17BD
330
1625
100
AcDbEntity
  8
image
100
AcDbVertex
100
AcDb2dVertex
 10
2.473851501871965
 20
4.230120837680546
 30
0.0
 70
     8
  0
VERTEX
  5
17BE
330
1625
100
AcDbEntity
  8
image
100
AcDbVertex
100
AcDb2dVertex
 10
2.473303592275138
 20
4.286325156868086
 30
0.0
 70
     8
  0
VERTEX
  5
17BF
330
1625
100
AcDbEntity
  8
image
100
AcDbVertex
100
AcDb2dVertex
 10
2.472843944453002
 20
4.354812440626791
 30
0.0
 70
     8
  0
VERTEX
  5
17C0
330
1625
100
AcDbEntity
  8
image
100
AcDbVertex
100
AcDb2dVertex
 10
2.472462025723702
 20
4.433144573255504
 30
0.0
 70
     8
  0
VERTEX
  5
17C1
330
1625
100
AcDbEntity
  8
image
100
AcDbVertex
100
AcDb2dVertex
 10
2.472143449477292
 20
4.518068038870444
 30
0.0
 70
     8
  0
VERTEX
  5
17C2
330
1625
100
AcDbEntity
  8
image
100
AcDbVertex
100
AcDb2dVertex
 10
2.471873829103823
 20
4.606329321587828
 30
0.0
 70
     8
  0
VERTEX
  5
17C3
330
1625
100
AcDbEntity
  8
image
100
AcDbVertex
100
AcDb2dVertex
 10
2.471638777993348
 20
4.694674905523875
 30
0.0
 70
     8
  0
VERTEX
  5
17C4
330
1625
100
AcDbEntity
  8
image
100
AcDbVertex
100
AcDb2dVertex
 10
2.471423909535919
 20
4.779851274794805
 30
0.0
 70
     8
  0
VERTEX
  5
17C5
330
1625
100
AcDbEntity
  8
image
100
AcDbVertex
100
AcDb2dVertex
 10
2.471214837121588
 20
4.858604913516836
 30
0.0
 70
     8
  0
VERTEX
  5
17C6
330
1625
100
AcDbEntity
  8
image
100
AcDbVertex
100
AcDb2dVertex
 10
2.470997174140407
 20
4.927682305806189
 30
0.0
 70
     8
  0
VERTEX
  5
17C7
330
1625
100
AcDbEntity
  8
image
100
AcDbVertex
100
AcDb2dVertex
 10
2.470760829218226
 20
4.984641300739623
 30
0.0
 70
     8
  0
VERTEX
  5
17C8
330
1625
100
AcDbEntity
  8
image
100
AcDbVertex
100
AcDb2dVertex
 10
2.470512891924084
 20
5.030285207236069
 30
0.0
 70
     8
  0
VERTEX
  5
17C9
330
1625
100
AcDbEntity
  8
image
100
AcDbVertex
100
AcDb2dVertex
 10
2.470264747062815
 20
5.066228699174997
 30
0.0
 70
     8
  0
VERTEX
  5
17CA
330
1625
100
AcDbEntity
  8
image
100
AcDbVertex
100
AcDb2dVertex
 10
2.470027779439254
 20
5.094086450435881
 30
0.0
 70
     8
  0
VERTEX
  5
17CB
330
1625
100
AcDbEntity
  8
image
100
AcDbVertex
100
AcDb2dVertex
 10
2.469813373858238
 20
5.115473134898192
 30
0.0
 70
     8
  0
VERTEX
  5
17CC
330
1625
100
AcDbEntity
  8
image
100
AcDbVertex
100
AcDb2dVertex
 10
2.4696329151246
 20
5.132003426441402
 30
0.0
 70
     8
  0
VERTEX
  5
17CD
330
1625
100
AcDbEntity
  8
image
100
AcDbVertex
100
AcDb2dVertex
 10
2.469497788043177
 20
5.145291998944982
 30
0.0
 70
     8
  0
VERTEX
  5
17CE
330
1625
100
AcDbEntity
  8
image
100
AcDbVertex
100
AcDb2dVertex
 10
2.469419377418805
 20
5.156953526288405
 30
0.0
 70
     8
  0
VERTEX
  5
17CF
330
1625
100
AcDbEntity
  8
image
100
AcDbVertex
100
AcDb2dVertex
 10
2.469407710843305
 20
5.168335941520152
 30
0.0
 70
     8
  0
VERTEX
  5
17D0
330
1625
100
AcDbEntity
  8
image
100
AcDbVertex
100
AcDb2dVertex
 10
2.469467387056452
 20
5.179720214364738
 30
0.0
 70
     8
  0
VERTEX
  5
17D1
330
1625
100
AcDbEntity
  8
image
100
AcDbVertex
100
AcDb2dVertex
 10
2.46960164758501
 20
5.191120573715692
 30
0.0
 70
     8
  0
VERTEX
  5
17D2
330
1625
100
AcDbEntity
  8
image
100
AcDbVertex
100
AcDb2dVertex
 10
2.469813733955741
 20
5.202551248466539
 30
0.0
 70
     8
  0
VERTEX
  5
17D3
330
1625
100
AcDbEntity
  8
image
100
AcDbVertex
100
AcDb2dVertex
 10
2.470106887695407
 20
5.214026467510805
 30
0.0
 70
     8
  0
VERTEX
  5
17D4
330
1625
100
AcDbEntity
  8
image
100
AcDbVertex
100
AcDb2dVertex
 10
2.470484350330772
 20
5.225560459742016
 30
0.0
 70
     8
  0
VERTEX
  5
17D5
330
1625
100
AcDbEntity
  8
image
100
AcDbVertex
100
AcDb2dVertex
 10
2.470949363388597
 20
5.237167454053699
 30
0.0
 70
     8
  0
VERTEX
  5
17D6
330
1625
100
AcDbEntity
  8
image
100
AcDbVertex
100
AcDb2dVertex
 10
2.471505168395645
 20
5.24886167933938
 30
0.0
 70
     8
  0
VERTEX
  5
17D7
330
1625
100
AcDbEntity
  8
image
100
AcDbVertex
100
AcDb2dVertex
 10
2.472152468251613
 20
5.260649627997076
 30
0.0
 70
     8
  0
VERTEX
  5
17D8
330
1625
100
AcDbEntity
  8
image
100
AcDbVertex
100
AcDb2dVertex
 10
2.472881811347931
 20
5.272506846442765
 30
0.0
 70
     8
  0
VERTEX
  5
17D9
330
1625
100
AcDbEntity
  8
image
100
AcDbVertex
100
AcDb2dVertex
 10
2.473681207448962
 20
5.284401144596915
 30
0.0
 70
     8
  0
VERTEX
  5
17DA
330
1625
100
AcDbEntity
  8
image
100
AcDbVertex
100
AcDb2dVertex
 10
2.474538666319068
 20
5.296300332379997
 30
0.0
 70
     8
  0
VERTEX
  5
17DB
330
1625
100
AcDbEntity
  8
image
100
AcDbVertex
100
AcDb2dVertex
 10
2.475442197722614
 20
5.308172219712479
 30
0.0
 70
     8
  0
VERTEX
  5
17DC
330
1625
100
AcDbEntity
  8
image
100
AcDbVertex
100
AcDb2dVertex
 10
2.476379811423964
 20
5.319984616514829
 30
0.0
 70
     8
  0
VERTEX
  5
17DD
330
1625
100
AcDbEntity
  8
image
100
AcDbVertex
100
AcDb2dVertex
 10
2.47733951718748
 20
5.331705332707517
 30
0.0
 70
     8
  0
VERTEX
  5
17DE
330
1625
100
AcDbEntity
  8
image
100
AcDbVertex
100
AcDb2dVertex
 10
2.478309324777525
 20
5.343302178211012
 30
0.0
 70
     8
  0
VERTEX
  5
17DF
330
1625
100
AcDbEntity
  8
image
100
AcDbVertex
100
AcDb2dVertex
 10
2.479278481056735
 20
5.354743753823099
 30
0.0
 70
     8
  0
VERTEX
  5
17E0
330
1625
100
AcDbEntity
  8
image
100
AcDbVertex
100
AcDb2dVertex
 10
2.480241181280824
 20
5.36600182385083
 30
0.0
 70
     8
  0
VERTEX
  5
17E1
330
1625
100
AcDbEntity
  8
image
100
AcDbVertex
100
AcDb2dVertex
 10
2.48119285780378
 20
5.377048943478569
 30
0.0
 70
     8
  0
VERTEX
  5
17E2
330
1625
100
AcDbEntity
  8
image
100
AcDbVertex
100
AcDb2dVertex
 10
2.482128942979587
 20
5.387857667890686
 30
0.0
 70
     8
  0
VERTEX
  5
17E3
330
1625
100
AcDbEntity
  8
image
100
AcDbVertex
100
AcDb2dVertex
 10
2.483044869162234
 20
5.398400552271545
 30
0.0
 70
     8
  0
VERTEX
  5
17E4
330
1625
100
AcDbEntity
  8
image
100
AcDbVertex
100
AcDb2dVertex
 10
2.483936068705705
 20
5.408650151805516
 30
0.0
 70
     8
  0
VERTEX
  5
17E5
330
1625
100
AcDbEntity
  8
image
100
AcDbVertex
100
AcDb2dVertex
 10
2.484797973963989
 20
5.418579021676964
 30
0.0
 70
     8
  0
VERTEX
  5
17E6
330
1625
100
AcDbEntity
  8
image
100
AcDbVertex
100
AcDb2dVertex
 10
2.485626017291071
 20
5.428159717070258
 30
0.0
 70
     8
  0
VERTEX
  5
17E7
330
1625
100
AcDbEntity
  8
image
100
AcDbVertex
100
AcDb2dVertex
 10
2.486416489407273
 20
5.437374279275455
 30
0.0
 70
     8
  0
VERTEX
  5
17E8
330
1625
100
AcDbEntity
  8
image
100
AcDbVertex
100
AcDb2dVertex
 10
2.48716911449827
 20
5.446242694005384
 30
0.0
 70
     8
  0
VERTEX
  5
17E9
330
1625
100
AcDbEntity
  8
image
100
AcDbVertex
100
AcDb2dVertex
 10
2.487884475116071
 20
5.454794433078567
 30
0.0
 70
     8
  0
VERTEX
  5
17EA
330
1625
100
AcDbEntity
  8
image
100
AcDbVertex
100
AcDb2dVertex
 10
2.488563153812685
 20
5.463058968313526
 30
0.0
 70
     8
  0
VERTEX
  5
17EB
330
1625
100
AcDbEntity
  8
image
100
AcDbVertex
100
AcDb2dVertex
 10
2.489205733140123
 20
5.47106577152878
 30
0.0
 70
     8
  0
VERTEX
  5
17EC
330
1625
100
AcDbEntity
  8
image
100
AcDbVertex
100
AcDb2dVertex
 10
2.489812795650393
 20
5.478844314542852
 30
0.0
 70
     8
  0
VERTEX
  5
17ED
330
1625
100
AcDbEntity
  8
image
100
AcDbVertex
100
AcDb2dVertex
 10
2.490384923895506
 20
5.486424069174263
 30
0.0
 70
     8
  0
VERTEX
  5
17EE
330
1625
100
AcDbEntity
  8
image
100
AcDbVertex
100
AcDb2dVertex
 10
2.490922700427472
 20
5.493834507241532
 30
0.0
 70
     8
  0
VERTEX
  5
17EF
330
1625
100
AcDbEntity
  8
image
100
AcDbVertex
100
AcDb2dVertex
 10
2.491427353539838
 20
5.501113876350283
 30
0.0
 70
     8
  0
VERTEX
  5
17F0
330
1625
100
AcDbEntity
  8
image
100
AcDbVertex
100
AcDb2dVertex
 10
2.491902694492303
 20
5.508335527254536
 30
0.0
 70
     8
  0
VERTEX
  5
17F1
330
1625
100
AcDbEntity
  8
image
100
AcDbVertex
100
AcDb2dVertex
 10
2.492353180286106
 20
5.515581586495414
 30
0.0
 70
     8
  0
VERTEX
  5
17F2
330
1625
100
AcDbEntity
  8
image
100
AcDbVertex
100
AcDb2dVertex
 10
2.492783267922484
 20
5.522934180614038
 30
0.0
 70
     8
  0
VERTEX
  5
17F3
330
1625
100
AcDbEntity
  8
image
100
AcDbVertex
100
AcDb2dVertex
 10
2.493197414402675
 20
5.53047543615153
 30
0.0
 70
     8
  0
VERTEX
  5
17F4
330
1625
100
AcDbEntity
  8
image
100
AcDbVertex
100
AcDb2dVertex
 10
2.493600076727917
 20
5.538287479649011
 30
0.0
 70
     8
  0
VERTEX
  5
17F5
330
1625
100
AcDbEntity
  8
image
100
AcDbVertex
100
AcDb2dVertex
 10
2.493995711899446
 20
5.546452437647604
 30
0.0
 70
     8
  0
VERTEX
  5
17F6
330
1625
100
AcDbEntity
  8
image
100
AcDbVertex
100
AcDb2dVertex
 10
2.494388776918501
 20
5.55505243668843
 30
0.0
 70
     8
  0
VERTEX
  5
17F7
330
1625
100
AcDbEntity
  8
image
100
AcDbVertex
100
AcDb2dVertex
 10
2.494782937467182
 20
5.564160495473768
 30
0.0
 70
     8
  0
VERTEX
  5
17F8
330
1625
100
AcDbEntity
  8
image
100
AcDbVertex
100
AcDb2dVertex
 10
2.49517869395104
 20
5.573813201350535
 30
0.0
 70
     8
  0
VERTEX
  5
17F9
330
1625
100
AcDbEntity
  8
image
100
AcDbVertex
100
AcDb2dVertex
 10
2.49557575545649
 20
5.584038033826803
 30
0.0
 70
     8
  0
VERTEX
  5
17FA
330
1625
100
AcDbEntity
  8
image
100
AcDbVertex
100
AcDb2dVertex
 10
2.495973831069945
 20
5.594862472410642
 30
0.0
 70
     8
  0
VERTEX
  5
17FB
330
1625
100
AcDbEntity
  8
image
100
AcDbVertex
100
AcDb2dVertex
 10
2.496372629877819
 20
5.606313996610126
 30
0.0
 70
     8
  0
VERTEX
  5
17FC
330
1625
100
AcDbEntity
  8
image
100
AcDbVertex
100
AcDb2dVertex
 10
2.496771860966526
 20
5.618420085933328
 30
0.0
 70
     8
  0
VERTEX
  5
17FD
330
1625
100
AcDbEntity
  8
image
100
AcDbVertex
100
AcDb2dVertex
 10
2.49717123342248
 20
5.631208219888319
 30
0.0
 70
     8
  0
VERTEX
  5
17FE
330
1625
100
AcDbEntity
  8
image
100
AcDbVertex
100
AcDb2dVertex
 10
2.497570456332095
 20
5.644705877983174
 30
0.0
 70
     8
  0
VERTEX
  5
17FF
330
1625
100
AcDbEntity
  8
image
100
AcDbVertex
100
AcDb2dVertex
 10
2.497969238781786
 20
5.658940539725963
 30
0.0
 70
     8
  0
VERTEX
  5
1800
330
1625
100
AcDbEntity
  8
image
100
AcDbVertex
100
AcDb2dVertex
 10
2.498367289857965
 20
5.67393968462476
 30
0.0
 70
     8
  0
VERTEX
  5
1801
330
1625
100
AcDbEntity
  8
image
100
AcDbVertex
100
AcDb2dVertex
 10
2.498764318647046
 20
5.689730792187638
 30
0.0
 70
     8
  0
VERTEX
  5
1802
330
1625
100
AcDbEntity
  8
image
100
AcDbVertex
100
AcDb2dVertex
 10
2.499160034235445
 20
5.706341341922667
 30
0.0
 70
     8
  0
VERTEX
  5
1803
330
1625
100
AcDbEntity
  8
image
100
AcDbVertex
100
AcDb2dVertex
 10
2.499554145709575
 20
5.723798813337921
 30
0.0
 70
     8
  0
VERTEX
  5
1804
330
1625
100
AcDbEntity
  8
image
100
AcDbVertex
100
AcDb2dVertex
 10
2.499946362155849
 20
5.742130685941474
 30
0.0
 70
     8
  0
VERTEX
  5
1805
330
1625
100
AcDbEntity
  8
image
100
AcDbVertex
100
AcDb2dVertex
 10
2.500336392660682
 20
5.761364439241397
 30
0.0
 70
     8
  0
VERTEX
  5
1806
330
1625
100
AcDbEntity
  8
image
100
AcDbVertex
100
AcDb2dVertex
 10
2.500723946310487
 20
5.781527552745761
 30
0.0
 70
     8
  0
VERTEX
  5
1807
330
1625
100
AcDbEntity
  8
image
100
AcDbVertex
100
AcDb2dVertex
 10
2.50110873219168
 20
5.802647505962641
 30
0.0
 70
     8
  0
VERTEX
  5
1808
330
1625
100
AcDbEntity
  8
image
100
AcDbVertex
100
AcDb2dVertex
 10
2.501490459390672
 20
5.82475177840011
 30
0.0
 70
     8
  0
VERTEX
  5
1809
330
1625
100
AcDbEntity
  8
image
100
AcDbVertex
100
AcDb2dVertex
 10
2.501868836993879
 20
5.847867849566238
 30
0.0
 70
     8
  0
VERTEX
  5
180A
330
1625
100
AcDbEntity
  8
image
100
AcDbVertex
100
AcDb2dVertex
 10
2.502243574087715
 20
5.872023198969099
 30
0.0
 70
     8
  0
VERTEX
  5
180B
330
1625
100
AcDbEntity
  8
image
100
AcDbVertex
100
AcDb2dVertex
 10
2.502614379758592
 20
5.897245306116764
 30
0.0
 70
     8
  0
VERTEX
  5
180C
330
1625
100
AcDbEntity
  8
image
100
AcDbVertex
100
AcDb2dVertex
 10
2.502980963092927
 20
5.923561650517308
 30
0.0
 70
     8
  0
VERTEX
  5
180D
330
1625
100
AcDbEntity
  8
image
100
AcDbVertex
100
AcDb2dVertex
 10
2.503343033177131
 20
5.950999711678802
 30
0.0
 70
     8
  0
VERTEX
  5
180E
330
1625
100
AcDbEntity
  8
image
100
AcDbVertex
100
AcDb2dVertex
 10
2.50370029909762
 20
5.97958696910932
 30
0.0
 70
     8
  0
VERTEX
  5
180F
330
1625
100
AcDbEntity
  8
image
100
AcDbVertex
100
AcDb2dVertex
 10
2.50405282802345
 20
6.009409560927925
 30
0.0
 70
     8
  0
VERTEX
  5
1810
330
1625
100
AcDbEntity
  8
image
100
AcDbVertex
100
AcDb2dVertex
 10
2.504402119454255
 20
6.040788259697658
 30
0.0
 70
     8
  0
VERTEX
  5
1811
330
1625
100
AcDbEntity
  8
image
100
AcDbVertex
100
AcDb2dVertex
 10
2.504750030972309
 20
6.07410249659255
 30
0.0
 70
     8
  0
VERTEX
  5
1812
330
1625
100
AcDbEntity
  8
image
100
AcDbVertex
100
AcDb2dVertex
 10
2.505098420159888
 20
6.109731702786634
 30
0.0
 70
     8
  0
VERTEX
  5
1813
330
1625
100
AcDbEntity
  8
image
100
AcDbVertex
100
AcDb2dVertex
 10
2.505449144599269
 20
6.148055309453941
 30
0.0
 70
     8
  0
VERTEX
  5
1814
330
1625
100
AcDbEntity
  8
image
100
AcDbVertex
100
AcDb2dVertex
 10
2.505804061872726
 20
6.189452747768505
 30
0.0
 70
     8
  0
VERTEX
  5
1815
330
1625
100
AcDbEntity
  8
image
100
AcDbVertex
100
AcDb2dVertex
 10
2.506165029562535
 20
6.234303448904357
 30
0.0
 70
     8
  0
VERTEX
  5
1816
330
1625
100
AcDbEntity
  8
image
100
AcDbVertex
100
AcDb2dVertex
 10
2.506533905250973
 20
6.282986844035529
 30
0.0
 70
     8
  0
VERTEX
  5
1817
330
1625
100
AcDbEntity
  8
image
100
AcDbVertex
100
AcDb2dVertex
 10
2.506912218191097
 20
6.336066093064014
 30
0.0
 70
     8
  0
VERTEX
  5
1818
330
1625
100
AcDbEntity
  8
image
100
AcDbVertex
100
AcDb2dVertex
 10
2.507300184319094
 20
6.394839270803638
 30
0.0
 70
     8
  0
VERTEX
  5
1819
330
1625
100
AcDbEntity
  8
image
100
AcDbVertex
100
AcDb2dVertex
 10
2.507697691241934
 20
6.460788180796189
 30
0.0
 70
     8
  0
VERTEX
  5
181A
330
1625
100
AcDbEntity
  8
image
100
AcDbVertex
100
AcDb2dVertex
 10
2.508104626566585
 20
6.535394626583457
 30
0.0
 70
     8
  0
VERTEX
  5
181B
330
1625
100
AcDbEntity
  8
image
100
AcDbVertex
100
AcDb2dVertex
 10
2.508520877900016
 20
6.620140411707227
 30
0.0
 70
     8
  0
VERTEX
  5
181C
330
1625
100
AcDbEntity
  8
image
100
AcDbVertex
100
AcDb2dVertex
 10
2.508946332849198
 20
6.716507339709287
 30
0.0
 70
     8
  0
VERTEX
  5
181D
330
1625
100
AcDbEntity
  8
image
100
AcDbVertex
100
AcDb2dVertex
 10
2.509380879021099
 20
6.825977214131426
 30
0.0
 70
     8
  0
VERTEX
  5
181E
330
1625
100
AcDbEntity
  8
image
100
AcDbVertex
100
AcDb2dVertex
 10
2.509824404022688
 20
6.950031838515429
 30
0.0
 70
     8
  0
VERTEX
  5
171F
330
1625
100
AcDbEntity
  8
image
100
AcDbVertex
100
AcDb2dVertex
 10
2.343974008232272
 20
3.078172646655202
 30
0.0
 70
    16
  0
VERTEX
  5
1720
330
1625
100
AcDbEntity
  8
image
100
AcDbVertex
100
AcDb2dVertex
 10
2.34361039870466
 20
3.085036437108365
 30
0.0
 70
    16
  0
VERTEX
  5
1721
330
1625
100
AcDbEntity
  8
image
100
AcDbVertex
100
AcDb2dVertex
 10
2.339335531579026
 20
3.095235517646788
 30
0.0
 70
    16
  0
VERTEX
  5
1722
330
1625
100
AcDbEntity
  8
image
100
AcDbVertex
100
AcDb2dVertex
 10
2.339344539059739
 20
3.098775710302311
 30
0.0
 70
    16
  0
VERTEX
  5
1723
330
1625
100
AcDbEntity
  8
image
100
AcDbVertex
100
AcDb2dVertex
 10
2.341860178156193
 20
3.103233546279754
 30
0.0
 70
    16
  0
VERTEX
  5
1724
330
1625
100
AcDbEntity
  8
image
100
AcDbVertex
100
AcDb2dVertex
 10
2.411201014951553
 20
3.174977053494847
 30
0.0
 70
    16
  0
VERTEX
  5
1725
330
1625
100
AcDbEntity
  8
image
100
AcDbVertex
100
AcDb2dVertex
 10
2.464361720780772
 20
3.258183604996043
 30
0.0
 70
    16
  0
VERTEX
  5
1726
330
1625
100
AcDbEntity
  8
image
100
AcDbVertex
100
AcDb2dVertex
 10
2.502102563096689
 20
3.350026224724723
 30
0.0
 70
    16
  0
VERTEX
  5
1727
330
1625
100
AcDbEntity
  8
image
100
AcDbVertex
100
AcDb2dVertex
 10
2.525004861686737
 20
3.444576486398617
 30
0.0
 70
    16
  0
VERTEX
  5
1728
330
1625
100
AcDbEntity
  8
image
100
AcDbVertex
100
AcDb2dVertex
 10
2.533780080916602
 20
3.540502650726703
 30
0.0
 70
    16
  0
VERTEX
  5
1729
330
1625
100
AcDbEntity
  8
image
100
AcDbVertex
100
AcDb2dVertex
 10
2.527979781156041
 20
3.638479433140791
 30
0.0
 70
    16
  0
VERTEX
  5
172A
330
1625
100
AcDbEntity
  8
image
100
AcDbVertex
100
AcDb2dVertex
 10
2.51711907306764
 20
3.732997782865277
 30
0.0
 70
    16
  0
VERTEX
  5
172B
330
1625
100
AcDbEntity
  8
image
100
AcDbVertex
100
AcDb2dVertex
 10
2.506545197135118
 20
3.821250822552717
 30
0.0
 70
    16
  0
VERTEX
  5
172C
330
1625
100
AcDbEntity
  8
image
100
AcDbVertex
100
AcDb2dVertex
 10
2.498718108643543
 20
3.887407269803101
 30
0.0
 70
    16
  0
VERTEX
  5
172D
330
1625
100
AcDbEntity
  8
image
100
AcDbVertex
100
AcDb2dVertex
 10
2.487691438404899
 20
3.984405061663497
 30
0.0
 70
    16
  0
VERTEX
  5
172E
330
1625
100
AcDbEntity
  8
image
100
AcDbVertex
100
AcDb2dVertex
 10
2.479295190509507
 20
4.06591410604936
 30
0.0
 70
    16
  0
VERTEX
  5
172F
330
1625
100
AcDbEntity
  8
image
100
AcDbVertex
100
AcDb2dVertex
 10
2.47232102477877
 20
4.146609266161013
 30
0.0
 70
    16
  0
VERTEX
  5
1730
330
1625
100
AcDbEntity
  8
image
100
AcDbVertex
100
AcDb2dVertex
 10
2.471242264026244
 20
5.065599770515101
 30
0.0
 70
    16
  0
VERTEX
  5
1731
330
1625
100
AcDbEntity
  8
image
100
AcDbVertex
100
AcDb2dVertex
 10
2.468692963958697
 20
5.157085486615718
 30
0.0
 70
    16
  0
VERTEX
  5
1732
330
1625
100
AcDbEntity
  8
image
100
AcDbVertex
100
AcDb2dVertex
 10
2.470502144651795
 20
5.247779440752457
 30
0.0
 70
    16
  0
VERTEX
  5
1733
330
1625
100
AcDbEntity
  8
image
100
AcDbVertex
100
AcDb2dVertex
 10
2.478329467807997
 20
5.344966826410738
 30
0.0
 70
    16
  0
VERTEX
  5
1734
330
1625
100
AcDbEntity
  8
image
100
AcDbVertex
100
AcDb2dVertex
 10
2.486035932781371
 20
5.432166322870667
 30
0.0
 70
    16
  0
VERTEX
  5
1735
330
1625
100
AcDbEntity
  8
image
100
AcDbVertex
100
AcDb2dVertex
 10
2.491282904812942
 20
5.495326184528137
 30
0.0
 70
    16
  0
VERTEX
  5
1736
330
1625
100
AcDbEntity
  8
image
100
AcDbVertex
100
AcDb2dVertex
 10
2.494368650531692
 20
5.549535982465977
 30
0.0
 70
    16
  0
VERTEX
  5
1737
330
1625
100
AcDbEntity
  8
image
100
AcDbVertex
100
AcDb2dVertex
 10
2.497575154571296
 20
5.636844505738533
 30
0.0
 70
    16
  0
VERTEX
  5
1738
330
1625
100
AcDbEntity
  8
image
100
AcDbVertex
100
AcDb2dVertex
 10
2.500753469175697
 20
5.771321262478934
 30
0.0
 70
    16
  0
VERTEX
  5
1739
330
1625
100
AcDbEntity
  8
image
100
AcDbVertex
100
AcDb2dVertex
 10
2.50375464658884
 20
5.967035760820303
 30
0.0
 70
    16
  0
VERTEX
  5
173A
330
1625
100
AcDbEntity
  8
image
100
AcDbVertex
100
AcDb2dVertex
 10
2.506429739054665
 20
6.238057508895768
 30
0.0
 70
    16
  0
VERTEX
  5
173B
330
1625
100
AcDbEntity
  8
image
100
AcDbVertex
100
AcDb2dVertex
 10
2.508629798817116
 20
6.598456014838454
 30
0.0
 70
    16
  0
VERTEX
  5
173C
330
1625
100
AcDbEntity
  8
image
100
AcDbVertex
100
AcDb2dVertex
 10
2.509824404022688
 20
6.950031838515429
 30
0.0
 70
    16
  0
SEQEND
  5
173D
330
1625
100
AcDbEntity
  8
image
  0
POLYLINE
  5
188A
330
10C1
100
AcDbEntity
  8
image
100
AcDb2dPolyline
 66
     1
 10
0.0
 20
0.0
 30
0.0
 70
     4
 75
     6
  0
VERTEX
  5
188C
330
188A
100
AcDbEntity
  8
image
100
AcDbVertex
100
AcDb2dVertex
 10
3.317503039019243
 20
7.352180910182885
 30
0.0
 70
    16
  0
VERTEX
  5
189B
330
188A
100
AcDbEntity
  8
image
100
AcDbVertex
100
AcDb2dVertex
 10
3.317503039019243
 20
7.352180910182885
 30
0.0
 70
     8
  0
VERTEX
  5
189C
330
188A
100
AcDbEntity
  8
image
100
AcDbVertex
100
AcDb2dVertex
 10
3.312137226185706
 20
7.353020553410357
 30
0.0
 70
     8
  0
VERTEX
  5
189D
330
188A
100
AcDbEntity
  8
image
100
AcDbVertex
100
AcDb2dVertex
 10
3.307542060548937
 20
7.354199144916917
 30
0.0
 70
     8
  0
VERTEX
  5
189E
330
188A
100
AcDbEntity
  8
image
100
AcDbVertex
100
AcDb2dVertex
 10
3.303642465587212
 20
7.355628407425017
 30
0.0
 70
     8
  0
VERTEX
  5
189F
330
188A
100
AcDbEntity
  8
image
100
AcDbVertex
100
AcDb2dVertex
 10
3.300363364778811
 20
7.357220063657116
 30
0.0
 70
     8
  0
VERTEX
  5
18A0
330
188A
100
AcDbEntity
  8
image
100
AcDbVertex
100
AcDb2dVertex
 10
3.297629681602013
 20
7.358885836335668
 30
0.0
 70
     8
  0
VERTEX
  5
18A1
330
188A
100
AcDbEntity
  8
image
100
AcDbVertex
100
AcDb2dVertex
 10
3.295366339535096
 20
7.360537448183126
 30
0.0
 70
     8
  0
VERTEX
  5
18A2
330
188A
100
AcDbEntity
  8
image
100
AcDbVertex
100
AcDb2dVertex
 10
3.293498262056339
 20
7.36208662192195
 30
0.0
 70
     8
  0
VERTEX
  5
18A3
330
188A
100
AcDbEntity
  8
image
100
AcDbVertex
100
AcDb2dVertex
 10
3.29195037264402
 20
7.36344508027459
 30
0.0
 70
     8
  0
VERTEX
  5
18A4
330
188A
100
AcDbEntity
  8
image
100
AcDbVertex
100
AcDb2dVertex
 10
3.290628639998452
 20
7.364537509552388
 30
0.0
 70
     8
  0
VERTEX
  5
18A5
330
188A
100
AcDbEntity
  8
image
100
AcDbVertex
100
AcDb2dVertex
 10
3.289363213708083
 20
7.365340450422216
 30
0.0
 70
     8
  0
VERTEX
  5
18A6
330
188A
100
AcDbEntity
  8
image
100
AcDbVertex
100
AcDb2dVertex
 10
3.287965288583396
 20
7.365843407139833
 30
0.0
 70
     8
  0
VERTEX
  5
18A7
330
188A
100
AcDbEntity
  8
image
100
AcDbVertex
100
AcDb2dVertex
 10
3.286246059434874
 20
7.366035883960994
 30
0.0
 70
     8
  0
VERTEX
  5
18A8
330
188A
100
AcDbEntity
  8
image
100
AcDbVertex
100
AcDb2dVertex
 10
3.284016721072998
 20
7.365907385141455
 30
0.0
 70
     8
  0
VERTEX
  5
18A9
330
188A
100
AcDbEntity
  8
image
100
AcDbVertex
100
AcDb2dVertex
 10
3.281088468308253
 20
7.365447414936975
 30
0.0
 70
     8
  0
VERTEX
  5
18AA
330
188A
100
AcDbEntity
  8
image
100
AcDbVertex
100
AcDb2dVertex
 10
3.277272495951119
 20
7.364645477603309
 30
0.0
 70
     8
  0
VERTEX
  5
18AB
330
188A
100
AcDbEntity
  8
image
100
AcDbVertex
100
AcDb2dVertex
 10
3.272379998812079
 20
7.363491077396215
 30
0.0
 70
     8
  0
VERTEX
  5
18AC
330
188A
100
AcDbEntity
  8
image
100
AcDbVertex
100
AcDb2dVertex
 10
3.266295382675561
 20
7.361989378030126
 30
0.0
 70
     8
  0
VERTEX
  5
18AD
330
188A
100
AcDbEntity
  8
image
100
AcDbVertex
100
AcDb2dVertex
 10
3.259195897221765
 20
7.360208181054183
 30
0.0
 70
     8
  0
VERTEX
  5
18AE
330
188A
100
AcDbEntity
  8
image
100
AcDbVertex
100
AcDb2dVertex
 10
3.251332003104835
 20
7.358230947476204
 30
0.0
 70
     8
  0
VERTEX
  5
18AF
330
188A
100
AcDbEntity
  8
image
100
AcDbVertex
100
AcDb2dVertex
 10
3.242954160978917
 20
7.35614113830401
 30
0.0
 70
     8
  0
VERTEX
  5
18B0
330
188A
100
AcDbEntity
  8
image
100
AcDbVertex
100
AcDb2dVertex
 10
3.234312831498154
 20
7.354022214545414
 30
0.0
 70
     8
  0
VERTEX
  5
18B1
330
188A
100
AcDbEntity
  8
image
100
AcDbVertex
100
AcDb2dVertex
 10
3.225658475316691
 20
7.351957637208238
 30
0.0
 70
     8
  0
VERTEX
  5
18B2
330
188A
100
AcDbEntity
  8
image
100
AcDbVertex
100
AcDb2dVertex
 10
3.217241553088674
 20
7.3500308673003
 30
0.0
 70
     8
  0
VERTEX
  5
18B3
330
188A
100
AcDbEntity
  8
image
100
AcDbVertex
100
AcDb2dVertex
 10
3.209312525468246
 20
7.348325365829416
 30
0.0
 70
     8
  0
VERTEX
  5
18B4
330
188A
100
AcDbEntity
  8
image
100
AcDbVertex
100
AcDb2dVertex
 10
3.202019079597009
 20
7.346904317087696
 30
0.0
 70
     8
  0
VERTEX
  5
18B5
330
188A
100
AcDbEntity
  8
image
100
AcDbVertex
100
AcDb2dVertex
 10
3.195097808566386
 20
7.345749798504415
 30
0.0
 70
     8
  0
VERTEX
  5
18B6
330
188A
100
AcDbEntity
  8
image
100
AcDbVertex
100
AcDb2dVertex
 10
3.188182531955257
 20
7.344823610793135
 30
0.0
 70
     8
  0
VERTEX
  5
18B7
330
188A
100
AcDbEntity
  8
image
100
AcDbVertex
100
AcDb2dVertex
 10
3.180907069342505
 20
7.344087554667423
 30
0.0
 70
     8
  0
VERTEX
  5
18B8
330
188A
100
AcDbEntity
  8
image
100
AcDbVertex
100
AcDb2dVertex
 10
3.172905240307007
 20
7.343503430840841
 30
0.0
 70
     8
  0
VERTEX
  5
18B9
330
188A
100
AcDbEntity
  8
image
100
AcDbVertex
100
AcDb2dVertex
 10
3.163810864427645
 20
7.343033040026955
 30
0.0
 70
     8
  0
VERTEX
  5
18BA
330
188A
100
AcDbEntity
  8
image
100
AcDbVertex
100
AcDb2dVertex
 10
3.153257761283299
 20
7.342638182939329
 30
0.0
 70
     8
  0
VERTEX
  5
18BB
330
188A
100
AcDbEntity
  8
image
100
AcDbVertex
100
AcDb2dVertex
 10
3.14087975045285
 20
7.342280660291527
 30
0.0
 70
     8
  0
VERTEX
  5
18BC
330
188A
100
AcDbEntity
  8
image
100
AcDbVertex
100
AcDb2dVertex
 10
3.126447719105324
 20
7.341926465819853
 30
0.0
 70
     8
  0
VERTEX
  5
18BD
330
188A
100
AcDbEntity
  8
image
100
AcDbVertex
100
AcDb2dVertex
 10
3.110280824770334
 20
7.341558365351562
 30
0.0
 70
     8
  0
VERTEX
  5
18BE
330
188A
100
AcDbEntity
  8
image
100
AcDbVertex
100
AcDb2dVertex
 10
3.092835292567641
 20
7.341163317736646
 30
0.0
 70
     8
  0
VERTEX
  5
18BF
330
188A
100
AcDbEntity
  8
image
100
AcDbVertex
100
AcDb2dVertex
 10
3.074567347617004
 20
7.340728281825099
 30
0.0
 70
     8
  0
VERTEX
  5
18C0
330
188A
100
AcDbEntity
  8
image
100
AcDbVertex
100
AcDb2dVertex
 10
3.055933215038184
 20
7.340240216466915
 30
0.0
 70
     8
  0
VERTEX
  5
18C1
330
188A
100
AcDbEntity
  8
image
100
AcDbVertex
100
AcDb2dVertex
 10
3.037389119950941
 20
7.339686080512087
 30
0.0
 70
     8
  0
VERTEX
  5
18C2
330
188A
100
AcDbEntity
  8
image
100
AcDbVertex
100
AcDb2dVertex
 10
3.019391287475034
 20
7.339052832810608
 30
0.0
 70
     8
  0
VERTEX
  5
18C3
330
188A
100
AcDbEntity
  8
image
100
AcDbVertex
100
AcDb2dVertex
 10
3.002395942730224
 20
7.338327432212472
 30
0.0
 70
     8
  0
VERTEX
  5
18C4
330
188A
100
AcDbEntity
  8
image
100
AcDbVertex
100
AcDb2dVertex
 10
2.986749472609682
 20
7.337498557949657
 30
0.0
 70
     8
  0
VERTEX
  5
18C5
330
188A
100
AcDbEntity
  8
image
100
AcDbVertex
100
AcDb2dVertex
 10
2.972358911100228
 20
7.336561770782084
 30
0.0
 70
     8
  0
VERTEX
  5
18C6
330
188A
100
AcDbEntity
  8
image
100
AcDbVertex
100
AcDb2dVertex
 10
2.959021453962091
 20
7.335514351851659
 30
0.0
 70
     8
  0
VERTEX
  5
18C7
330
188A
100
AcDbEntity
  8
image
100
AcDbVertex
100
AcDb2dVertex
 10
2.946534296955503
 20
7.33435358230029
 30
0.0
 70
     8
  0
VERTEX
  5
18C8
330
188A
100
AcDbEntity
  8
image
100
AcDbVertex
100
AcDb2dVertex
 10
2.934694635840694
 20
7.333076743269883
 30
0.0
 70
     8
  0
VERTEX
  5
18C9
330
188A
100
AcDbEntity
  8
image
100
AcDbVertex
100
AcDb2dVertex
 10
2.923299666377895
 20
7.331681115902342
 30
0.0
 70
     8
  0
VERTEX
  5
18CA
330
188A
100
AcDbEntity
  8
image
100
AcDbVertex
100
AcDb2dVertex
 10
2.912146584327336
 20
7.330163981339577
 30
0.0
 70
     8
  0
VERTEX
  5
18CB
330
188A
100
AcDbEntity
  8
image
100
AcDbVertex
100
AcDb2dVertex
 10
2.901032585449248
 20
7.328522620723492
 30
0.0
 70
     8
  0
VERTEX
  5
18CC
330
188A
100
AcDbEntity
  8
image
100
AcDbVertex
100
AcDb2dVertex
 10
2.889791750361742
 20
7.326753908298216
 30
0.0
 70
     8
  0
VERTEX
  5
18CD
330
188A
100
AcDbEntity
  8
image
100
AcDbVertex
100
AcDb2dVertex
 10
2.878405699114448
 20
7.324853090716763
 30
0.0
 70
     8
  0
VERTEX
  5
18CE
330
188A
100
AcDbEntity
  8
image
100
AcDbVertex
100
AcDb2dVertex
 10
2.866892936614878
 20
7.322815007734368
 30
0.0
 70
     8
  0
VERTEX
  5
18CF
330
188A
100
AcDbEntity
  8
image
100
AcDbVertex
100
AcDb2dVertex
 10
2.855271967770542
 20
7.32063449910627
 30
0.0
 70
     8
  0
VERTEX
  5
18D0
330
188A
100
AcDbEntity
  8
image
100
AcDbVertex
100
AcDb2dVertex
 10
2.843561297488951
 20
7.318306404587701
 30
0.0
 70
     8
  0
VERTEX
  5
18D1
330
188A
100
AcDbEntity
  8
image
100
AcDbVertex
100
AcDb2dVertex
 10
2.831779430677615
 20
7.315825563933901
 30
0.0
 70
     8
  0
VERTEX
  5
18D2
330
188A
100
AcDbEntity
  8
image
100
AcDbVertex
100
AcDb2dVertex
 10
2.819944872244047
 20
7.313186816900104
 30
0.0
 70
     8
  0
VERTEX
  5
18D3
330
188A
100
AcDbEntity
  8
image
100
AcDbVertex
100
AcDb2dVertex
 10
2.808076127095757
 20
7.310385003241546
 30
0.0
 70
     8
  0
VERTEX
  5
18D4
330
188A
100
AcDbEntity
  8
image
100
AcDbVertex
100
AcDb2dVertex
 10
2.796192325144908
 20
7.3074161077327
 30
0.0
 70
     8
  0
VERTEX
  5
18D5
330
188A
100
AcDbEntity
  8
image
100
AcDbVertex
100
AcDb2dVertex
 10
2.784315096322281
 20
7.304280695224984
 30
0.0
 70
     8
  0
VERTEX
  5
18D6
330
188A
100
AcDbEntity
  8
image
100
AcDbVertex
100
AcDb2dVertex
 10
2.772466695563308
 20
7.300980475589049
 30
0.0
 70
     8
  0
VERTEX
  5
18D7
330
188A
100
AcDbEntity
  8
image
100
AcDbVertex
100
AcDb2dVertex
 10
2.760669377803423
 20
7.297517158695551
 30
0.0
 70
     8
  0
VERTEX
  5
18D8
330
188A
100
AcDbEntity
  8
image
100
AcDbVertex
100
AcDb2dVertex
 10
2.748945397978058
 20
7.293892454415143
 30
0.0
 70
     8
  0
VERTEX
  5
18D9
330
188A
100
AcDbEntity
  8
image
100
AcDbVertex
100
AcDb2dVertex
 10
2.737317011022645
 20
7.290108072618477
 30
0.0
 70
     8
  0
VERTEX
  5
18DA
330
188A
100
AcDbEntity
  8
image
100
AcDbVertex
100
AcDb2dVertex
 10
2.72580647187262
 20
7.286165723176208
 30
0.0
 70
     8
  0
VERTEX
  5
18DB
330
188A
100
AcDbEntity
  8
image
100
AcDbVertex
100
AcDb2dVertex
 10
2.714436035463413
 20
7.28206711595899
 30
0.0
 70
     8
  0
VERTEX
  5
18DC
330
188A
100
AcDbEntity
  8
image
100
AcDbVertex
100
AcDb2dVertex
 10
2.703226151597498
 20
7.277809246830867
 30
0.0
 70
     8
  0
VERTEX
  5
18DD
330
188A
100
AcDbEntity
  8
image
100
AcDbVertex
100
AcDb2dVertex
 10
2.692190049545505
 20
7.273370255629455
 30
0.0
 70
     8
  0
VERTEX
  5
18DE
330
188A
100
AcDbEntity
  8
image
100
AcDbVertex
100
AcDb2dVertex
 10
2.681339153445103
 20
7.268723568185762
 30
0.0
 70
     8
  0
VERTEX
  5
18DF
330
188A
100
AcDbEntity
  8
image
100
AcDbVertex
100
AcDb2dVertex
 10
2.670684887433962
 20
7.263842610330797
 30
0.0
 70
     8
  0
VERTEX
  5
18E0
330
188A
100
AcDbEntity
  8
image
100
AcDbVertex
100
AcDb2dVertex
 10
2.660238675649753
 20
7.258700807895567
 30
0.0
 70
     8
  0
VERTEX
  5
18E1
330
188A
100
AcDbEntity
  8
image
100
AcDbVertex
100
AcDb2dVertex
 10
2.650011942230144
 20
7.25327158671108
 30
0.0
 70
     8
  0
VERTEX
  5
18E2
330
188A
100
AcDbEntity
  8
image
100
AcDbVertex
100
AcDb2dVertex
 10
2.640016111312805
 20
7.247528372608343
 30
0.0
 70
     8
  0
VERTEX
  5
18E3
330
188A
100
AcDbEntity
  8
image
100
AcDbVertex
100
AcDb2dVertex
 10
2.630262607035406
 20
7.241444591418364
 30
0.0
 70
     8
  0
VERTEX
  5
18E4
330
188A
100
AcDbEntity
  8
image
100
AcDbVertex
100
AcDb2dVertex
 10
2.620758373250117
 20
7.234990157322296
 30
0.0
 70
     8
  0
VERTEX
  5
18E5
330
188A
100
AcDbEntity
  8
image
100
AcDbVertex
100
AcDb2dVertex
 10
2.611492432667104
 20
7.228120937901866
 30
0.0
 70
     8
  0
VERTEX
  5
18E6
330
188A
100
AcDbEntity
  8
image
100
AcDbVertex
100
AcDb2dVertex
 10
2.602449327711034
 20
7.220789289088944
 30
0.0
 70
     8
  0
VERTEX
  5
18E7
330
188A
100
AcDbEntity
  8
image
100
AcDbVertex
100
AcDb2dVertex
 10
2.593613600806576
 20
7.212947566815404
 30
0.0
 70
     8
  0
VERTEX
  5
18E8
330
188A
100
AcDbEntity
  8
image
100
AcDbVertex
100
AcDb2dVertex
 10
2.584969794378395
 20
7.204548127013117
 30
0.0
 70
     8
  0
VERTEX
  5
18E9
330
188A
100
AcDbEntity
  8
image
100
AcDbVertex
100
AcDb2dVertex
 10
2.576502450851159
 20
7.195543325613954
 30
0.0
 70
     8
  0
VERTEX
  5
18EA
330
188A
100
AcDbEntity
  8
image
100
AcDbVertex
100
AcDb2dVertex
 10
2.568196112649534
 20
7.185885518549786
 30
0.0
 70
     8
  0
VERTEX
  5
18EB
330
188A
100
AcDbEntity
  8
image
100
AcDbVertex
100
AcDb2dVertex
 10
2.560035322198189
 20
7.175527061752486
 30
0.0
 70
     8
  0
VERTEX
  5
18EC
330
188A
100
AcDbEntity
  8
image
100
AcDbVertex
100
AcDb2dVertex
 10
2.552027471001651
 20
7.164415063750317
 30
0.0
 70
     8
  0
VERTEX
  5
18ED
330
188A
100
AcDbEntity
  8
image
100
AcDbVertex
100
AcDb2dVertex
 10
2.544271346883897
 20
7.152475643457107
 30
0.0
 70
     8
  0
VERTEX
  5
18EE
330
188A
100
AcDbEntity
  8
image
100
AcDbVertex
100
AcDb2dVertex
 10
2.536888586748766
 20
7.139629672383079
 30
0.0
 70
     8
  0
VERTEX
  5
18EF
330
188A
100
AcDbEntity
  8
image
100
AcDbVertex
100
AcDb2dVertex
 10
2.530000827500097
 20
7.12579802203845
 30
0.0
 70
     8
  0
VERTEX
  5
18F0
330
188A
100
AcDbEntity
  8
image
100
AcDbVertex
100
AcDb2dVertex
 10
2.523729706041727
 20
7.110901563933444
 30
0.0
 70
     8
  0
VERTEX
  5
18F1
330
188A
100
AcDbEntity
  8
image
100
AcDbVertex
100
AcDb2dVertex
 10
2.518196859277496
 20
7.094861169578281
 30
0.0
 70
     8
  0
VERTEX
  5
18F2
330
188A
100
AcDbEntity
  8
image
100
AcDbVertex
100
AcDb2dVertex
 10
2.513523924111241
 20
7.07759771048318
 30
0.0
 70
     8
  0
VERTEX
  5
18F3
330
188A
100
AcDbEntity
  8
image
100
AcDbVertex
100
AcDb2dVertex
 10
2.509832537446802
 20
7.059032058158363
 30
0.0
 70
     8
  0
VERTEX
  5
188D
330
188A
100
AcDbEntity
  8
image
100
AcDbVertex
100
AcDb2dVertex
 10
3.302099940514815
 20
7.353889559059544
 30
0.0
 70
    16
  0
VERTEX
  5
188E
330
188A
100
AcDbEntity
  8
image
100
AcDbVertex
100
AcDb2dVertex
 10
3.289335849500373
 20
7.366421002021003
 30
0.0
 70
    16
  0
VERTEX
  5
188F
330
188A
100
AcDbEntity
  8
image
100
AcDbVertex
100
AcDb2dVertex
 10
3.285876851840589
 20
7.367362635984712
 30
0.0
 70
    16
  0
VERTEX
  5
1890
330
188A
100
AcDbEntity
  8
image
100
AcDbVertex
100
AcDb2dVertex
 10
3.201436736009747
 20
7.345074918417434
 30
0.0
 70
    16
  0
VERTEX
  5
1891
330
188A
100
AcDbEntity
  8
image
100
AcDbVertex
100
AcDb2dVertex
 10
3.1642513569299
 20
7.342289885322044
 30
0.0
 70
    16
  0
VERTEX
  5
1892
330
188A
100
AcDbEntity
  8
image
100
AcDbVertex
100
AcDb2dVertex
 10
2.986836338987753
 20
7.339449502043556
 30
0.0
 70
    16
  0
VERTEX
  5
1893
330
188A
100
AcDbEntity
  8
image
100
AcDbVertex
100
AcDb2dVertex
 10
2.902778943500431
 20
7.329876699778563
 30
0.0
 70
    16
  0
VERTEX
  5
1894
330
188A
100
AcDbEntity
  8
image
100
AcDbVertex
100
AcDb2dVertex
 10
2.808243399706013
 20
7.312179423183142
 30
0.0
 70
    16
  0
VERTEX
  5
1895
330
188A
100
AcDbEntity
  8
image
100
AcDbVertex
100
AcDb2dVertex
 10
2.712704220250057
 20
7.283715626938151
 30
0.0
 70
    16
  0
VERTEX
  5
1896
330
188A
100
AcDbEntity
  8
image
100
AcDbVertex
100
AcDb2dVertex
 10
2.627555932074237
 20
7.24536076481819
 30
0.0
 70
    16
  0
VERTEX
  5
1897
330
188A
100
AcDbEntity
  8
image
100
AcDbVertex
100
AcDb2dVertex
 10
2.558647693665434
 20
7.183508862299269
 30
0.0
 70
    16
  0
VERTEX
  5
1898
330
188A
100
AcDbEntity
  8
image
100
AcDbVertex
100
AcDb2dVertex
 10
2.518259382190585
 20
7.110347058432856
 30
0.0
 70
    16
  0
VERTEX
  5
1899
330
188A
100
AcDbEntity
  8
image
100
AcDbVertex
100
AcDb2dVertex
 10
2.509832537446802
 20
7.059032058158363
 30
0.0
 70
    16
  0
SEQEND
  5
189A
330
188A
100
AcDbEntity
  8
image
  0
POLYLINE
  5
188B
330
10C1
100
AcDbEntity
  8
image
100
AcDb2dPolyline
 66
     1
 10
0.0
 20
0.0
 30
0.0
 70
     4
 75
     6
  0
VERTEX
  5
18F4
330
188B
100
AcDbEntity
  8
image
100
AcDbVertex
100
AcDb2dVertex
 10
3.318318232889163
 20
7.275427289550104
 30
0.0
 70
    16
  0
VERTEX
  5
1904
330
188B
100
AcDbEntity
  8
image
100
AcDbVertex
100
AcDb2dVertex
 10
3.318318232889163
 20
7.275427289550104
 30
0.0
 70
     8
  0
VERTEX
  5
1905
330
188B
100
AcDbEntity
  8
image
100
AcDbVertex
100
AcDb2dVertex
 10
3.313335636789131
 20
7.274886608929859
 30
0.0
 70
     8
  0
VERTEX
  5
1906
330
188B
100
AcDbEntity
  8
image
100
AcDbVertex
100
AcDb2dVertex
 10
3.309328714525589
 20
7.274296423073923
 30
0.0
 70
     8
  0
VERTEX
  5
1907
330
188B
100
AcDbEntity
  8
image
100
AcDbVertex
100
AcDb2dVertex
 10
3.306162508738551
 20
7.273656749414161
 30
0.0
 70
     8
  0
VERTEX
  5
1908
330
188B
100
AcDbEntity
  8
image
100
AcDbVertex
100
AcDb2dVertex
 10
3.303702062068031
 20
7.272967605382445
 30
0.0
 70
     8
  0
VERTEX
  5
1909
330
188B
100
AcDbEntity
  8
image
100
AcDbVertex
100
AcDb2dVertex
 10
3.301812417154043
 20
7.27222900841064
 30
0.0
 70
     8
  0
VERTEX
  5
190A
330
188B
100
AcDbEntity
  8
image
100
AcDbVertex
100
AcDb2dVertex
 10
3.300358616636601
 20
7.271440975930615
 30
0.0
 70
     8
  0
VERTEX
  5
190B
330
188B
100
AcDbEntity
  8
image
100
AcDbVertex
100
AcDb2dVertex
 10
3.29920570315572
 20
7.27060352537424
 30
0.0
 70
     8
  0
VERTEX
  5
190C
330
188B
100
AcDbEntity
  8
image
100
AcDbVertex
100
AcDb2dVertex
 10
3.298218719351412
 20
7.269716674173381
 30
0.0
 70
     8
  0
VERTEX
  5
190D
330
188B
100
AcDbEntity
  8
image
100
AcDbVertex
100
AcDb2dVertex
 10
3.297285710937908
 20
7.268783769600071
 30
0.0
 70
     8
  0
VERTEX
  5
190E
330
188B
100
AcDbEntity
  8
image
100
AcDbVertex
100
AcDb2dVertex
 10
3.296386735926297
 20
7.267821478286996
 30
0.0
 70
     8
  0
VERTEX
  5
190F
330
188B
100
AcDbEntity
  8
image
100
AcDbVertex
100
AcDb2dVertex
 10
3.295524855401884
 20
7.266849796707004
 30
0.0
 70
     8
  0
VERTEX
  5
1910
330
188B
100
AcDbEntity
  8
image
100
AcDbVertex
100
AcDb2dVertex
 10
3.294703130449975
 20
7.265888721332944
 30
0.0
 70
     8
  0
VERTEX
  5
1911
330
188B
100
AcDbEntity
  8
image
100
AcDbVertex
100
AcDb2dVertex
 10
3.293924622155875
 20
7.264958248637667
 30
0.0
 70
     8
  0
VERTEX
  5
1912
330
188B
100
AcDbEntity
  8
image
100
AcDbVertex
100
AcDb2dVertex
 10
3.293192391604889
 20
7.264078375094021
 30
0.0
 70
     8
  0
VERTEX
  5
1913
330
188B
100
AcDbEntity
  8
image
100
AcDbVertex
100
AcDb2dVertex
 10
3.292509499882322
 20
7.263269097174855
 30
0.0
 70
     8
  0
VERTEX
  5
1914
330
188B
100
AcDbEntity
  8
image
100
AcDbVertex
100
AcDb2dVertex
 10
3.291879008073479
 20
7.262550411353019
 30
0.0
 70
     8
  0
VERTEX
  5
1915
330
188B
100
AcDbEntity
  8
image
100
AcDbVertex
100
AcDb2dVertex
 10
3.291301639063762
 20
7.261937227568224
 30
0.0
 70
     8
  0
VERTEX
  5
1916
330
188B
100
AcDbEntity
  8
image
100
AcDbVertex
100
AcDb2dVertex
 10
3.290768762938956
 20
7.261424109627626
 30
0.0
 70
     8
  0
VERTEX
  5
1917
330
188B
100
AcDbEntity
  8
image
100
AcDbVertex
100
AcDb2dVertex
 10
3.290269411584945
 20
7.261000534805245
 30
0.0
 70
     8
  0
VERTEX
  5
1918
330
188B
100
AcDbEntity
  8
image
100
AcDbVertex
100
AcDb2dVertex
 10
3.28979261688761
 20
7.2606559803751
 30
0.0
 70
     8
  0
VERTEX
  5
1919
330
188B
100
AcDbEntity
  8
image
100
AcDbVertex
100
AcDb2dVertex
 10
3.289327410732834
 20
7.260379923611208
 30
0.0
 70
     8
  0
VERTEX
  5
191A
330
188B
100
AcDbEntity
  8
image
100
AcDbVertex
100
AcDb2dVertex
 10
3.288862825006499
 20
7.260161841787589
 30
0.0
 70
     8
  0
VERTEX
  5
191B
330
188B
100
AcDbEntity
  8
image
100
AcDbVertex
100
AcDb2dVertex
 10
3.288387891594489
 20
7.259991212178263
 30
0.0
 70
     8
  0
VERTEX
  5
191C
330
188B
100
AcDbEntity
  8
image
100
AcDbVertex
100
AcDb2dVertex
 10
3.287891642382684
 20
7.259857512057247
 30
0.0
 70
     8
  0
VERTEX
  5
191D
330
188B
100
AcDbEntity
  8
image
100
AcDbVertex
100
AcDb2dVertex
 10
3.287344487277686
 20
7.259758230310944
 30
0.0
 70
     8
  0
VERTEX
  5
191E
330
188B
100
AcDbEntity
  8
image
100
AcDbVertex
100
AcDb2dVertex
 10
3.286642348268971
 20
7.25972290227529
 30
0.0
 70
     8
  0
VERTEX
  5
191F
330
188B
100
AcDbEntity
  8
image
100
AcDbVertex
100
AcDb2dVertex
 10
3.28566252536673
 20
7.259789074898606
 30
0.0
 70
     8
  0
VERTEX
  5
1920
330
188B
100
AcDbEntity
  8
image
100
AcDbVertex
100
AcDb2dVertex
 10
3.28428231858116
 20
7.259994295129211
 30
0.0
 70
     8
  0
VERTEX
  5
1921
330
188B
100
AcDbEntity
  8
image
100
AcDbVertex
100
AcDb2dVertex
 10
3.282379027922452
 20
7.260376109915426
 30
0.0
 70
     8
  0
VERTEX
  5
1922
330
188B
100
AcDbEntity
  8
image
100
AcDbVertex
100
AcDb2dVertex
 10
3.279829953400801
 20
7.260972066205572
 30
0.0
 70
     8
  0
VERTEX
  5
1923
330
188B
100
AcDbEntity
  8
image
100
AcDbVertex
100
AcDb2dVertex
 10
3.276512395026401
 20
7.261819710947968
 30
0.0
 70
     8
  0
VERTEX
  5
1924
330
188B
100
AcDbEntity
  8
image
100
AcDbVertex
100
AcDb2dVertex
 10
3.272303652809444
 20
7.262956591090934
 30
0.0
 70
     8
  0
VERTEX
  5
1925
330
188B
100
AcDbEntity
  8
image
100
AcDbVertex
100
AcDb2dVertex
 10
3.267131306586473
 20
7.264399355804272
 30
0.0
 70
     8
  0
VERTEX
  5
1926
330
188B
100
AcDbEntity
  8
image
100
AcDbVertex
100
AcDb2dVertex
 10
3.261124055499417
 20
7.266081063143704
 30
0.0
 70
     8
  0
VERTEX
  5
1927
330
188B
100
AcDbEntity
  8
image
100
AcDbVertex
100
AcDb2dVertex
 10
3.254460878516556
 20
7.267913873386435
 30
0.0
 70
     8
  0
VERTEX
  5
1928
330
188B
100
AcDbEntity
  8
image
100
AcDbVertex
100
AcDb2dVertex
 10
3.247320754606169
 20
7.269809946809668
 30
0.0
 70
     8
  0
VERTEX
  5
1929
330
188B
100
AcDbEntity
  8
image
100
AcDbVertex
100
AcDb2dVertex
 10
3.239882662736533
 20
7.271681443690607
 30
0.0
 70
     8
  0
VERTEX
  5
192A
330
188B
100
AcDbEntity
  8
image
100
AcDbVertex
100
AcDb2dVertex
 10
3.232325581875928
 20
7.273440524306458
 30
0.0
 70
     8
  0
VERTEX
  5
192B
330
188B
100
AcDbEntity
  8
image
100
AcDbVertex
100
AcDb2dVertex
 10
3.224828490992632
 20
7.274999348934424
 30
0.0
 70
     8
  0
VERTEX
  5
192C
330
188B
100
AcDbEntity
  8
image
100
AcDbVertex
100
AcDb2dVertex
 10
3.217570369054923
 20
7.276270077851708
 30
0.0
 70
     8
  0
VERTEX
  5
192D
330
188B
100
AcDbEntity
  8
image
100
AcDbVertex
100
AcDb2dVertex
 10
3.210648174286295
 20
7.277187493646024
 30
0.0
 70
     8
  0
VERTEX
  5
192E
330
188B
100
AcDbEntity
  8
image
100
AcDbVertex
100
AcDb2dVertex
 10
3.203830781931103
 20
7.277776868147121
 30
0.0
 70
     8
  0
VERTEX
  5
192F
330
188B
100
AcDbEntity
  8
image
100
AcDbVertex
100
AcDb2dVertex
 10
3.196805046488917
 20
7.278086095495257
 30
0.0
 70
     8
  0
VERTEX
  5
1930
330
188B
100
AcDbEntity
  8
image
100
AcDbVertex
100
AcDb2dVertex
 10
3.189257822459306
 20
7.278163069830689
 30
0.0
 70
     8
  0
VERTEX
  5
1931
330
188B
100
AcDbEntity
  8
image
100
AcDbVertex
100
AcDb2dVertex
 10
3.180875964341841
 20
7.278055685293678
 30
0.0
 70
     8
  0
VERTEX
  5
1932
330
188B
100
AcDbEntity
  8
image
100
AcDbVertex
100
AcDb2dVertex
 10
3.17134632663609
 20
7.27781183602448
 30
0.0
 70
     8
  0
VERTEX
  5
1933
330
188B
100
AcDbEntity
  8
image
100
AcDbVertex
100
AcDb2dVertex
 10
3.160355763841624
 20
7.277479416163353
 30
0.0
 70
     8
  0
VERTEX
  5
1934
330
188B
100
AcDbEntity
  8
image
100
AcDbVertex
100
AcDb2dVertex
 10
3.147591130458013
 20
7.277106319850556
 30
0.0
 70
     8
  0
VERTEX
  5
1935
330
188B
100
AcDbEntity
  8
image
100
AcDbVertex
100
AcDb2dVertex
 10
3.132866110704557
 20
7.276730211314986
 30
0.0
 70
     8
  0
VERTEX
  5
1936
330
188B
100
AcDbEntity
  8
image
100
AcDbVertex
100
AcDb2dVertex
 10
3.116501707679482
 20
7.276347835140099
 30
0.0
 70
     8
  0
VERTEX
  5
1937
330
188B
100
AcDbEntity
  8
image
100
AcDbVertex
100
AcDb2dVertex
 10
3.098945754200745
 20
7.27594570599799
 30
0.0
 70
     8
  0
VERTEX
  5
1938
330
188B
100
AcDbEntity
  8
image
100
AcDbVertex
100
AcDb2dVertex
 10
3.080646083086304
 20
7.275510338560757
 30
0.0
 70
     8
  0
VERTEX
  5
1939
330
188B
100
AcDbEntity
  8
image
100
AcDbVertex
100
AcDb2dVertex
 10
3.062050527154114
 20
7.275028247500493
 30
0.0
 70
     8
  0
VERTEX
  5
193A
330
188B
100
AcDbEntity
  8
image
100
AcDbVertex
100
AcDb2dVertex
 10
3.043606919222133
 20
7.274485947489295
 30
0.0
 70
     8
  0
VERTEX
  5
193B
330
188B
100
AcDbEntity
  8
image
100
AcDbVertex
100
AcDb2dVertex
 10
3.025763092108319
 20
7.273869953199258
 30
0.0
 70
     8
  0
VERTEX
  5
193C
330
188B
100
AcDbEntity
  8
image
100
AcDbVertex
100
AcDb2dVertex
 10
3.008966878630627
 20
7.273166779302478
 30
0.0
 70
     8
  0
VERTEX
  5
193D
330
188B
100
AcDbEntity
  8
image
100
AcDbVertex
100
AcDb2dVertex
 10
2.993557970660169
 20
7.272364911723599
 30
0.0
 70
     8
  0
VERTEX
  5
193E
330
188B
100
AcDbEntity
  8
image
100
AcDbVertex
100
AcDb2dVertex
 10
2.979443496280672
 20
7.27146072139746
 30
0.0
 70
     8
  0
VERTEX
  5
193F
330
188B
100
AcDbEntity
  8
image
100
AcDbVertex
100
AcDb2dVertex
 10
2.966422442629017
 20
7.270452550511448
 30
0.0
 70
     8
  0
VERTEX
  5
1940
330
188B
100
AcDbEntity
  8
image
100
AcDbVertex
100
AcDb2dVertex
 10
2.954293796842084
 20
7.26933874125295
 30
0.0
 70
     8
  0
VERTEX
  5
1941
330
188B
100
AcDbEntity
  8
image
100
AcDbVertex
100
AcDb2dVertex
 10
2.942856546056754
 20
7.268117635809355
 30
0.0
 70
     8
  0
VERTEX
  5
1942
330
188B
100
AcDbEntity
  8
image
100
AcDbVertex
100
AcDb2dVertex
 10
2.931909677409909
 20
7.266787576368049
 30
0.0
 70
     8
  0
VERTEX
  5
1943
330
188B
100
AcDbEntity
  8
image
100
AcDbVertex
100
AcDb2dVertex
 10
2.92125217803843
 20
7.26534690511642
 30
0.0
 70
     8
  0
VERTEX
  5
1944
330
188B
100
AcDbEntity
  8
image
100
AcDbVertex
100
AcDb2dVertex
 10
2.910683035079197
 20
7.263793964241854
 30
0.0
 70
     8
  0
VERTEX
  5
1945
330
188B
100
AcDbEntity
  8
image
100
AcDbVertex
100
AcDb2dVertex
 10
2.900036951764287
 20
7.262126518395723
 30
0.0
 70
     8
  0
VERTEX
  5
1946
330
188B
100
AcDbEntity
  8
image
100
AcDbVertex
100
AcDb2dVertex
 10
2.889291495706571
 20
7.260340022085324
 30
0.0
 70
     8
  0
VERTEX
  5
1947
330
188B
100
AcDbEntity
  8
image
100
AcDbVertex
100
AcDb2dVertex
 10
2.878459950614111
 20
7.258429352281939
 30
0.0
 70
     8
  0
VERTEX
  5
1948
330
188B
100
AcDbEntity
  8
image
100
AcDbVertex
100
AcDb2dVertex
 10
2.867555600194974
 20
7.25638938595685
 30
0.0
 70
     8
  0
VERTEX
  5
1949
330
188B
100
AcDbEntity
  8
image
100
AcDbVertex
100
AcDb2dVertex
 10
2.856591728157224
 20
7.254215000081337
 30
0.0
 70
     8
  0
VERTEX
  5
194A
330
188B
100
AcDbEntity
  8
image
100
AcDbVertex
100
AcDb2dVertex
 10
2.845581618208926
 20
7.251901071626683
 30
0.0
 70
     8
  0
VERTEX
  5
194B
330
188B
100
AcDbEntity
  8
image
100
AcDbVertex
100
AcDb2dVertex
 10
2.834538554058146
 20
7.249442477564168
 30
0.0
 70
     8
  0
VERTEX
  5
194C
330
188B
100
AcDbEntity
  8
image
100
AcDbVertex
100
AcDb2dVertex
 10
2.823475819412948
 20
7.246834094865074
 30
0.0
 70
     8
  0
VERTEX
  5
194D
330
188B
100
AcDbEntity
  8
image
100
AcDbVertex
100
AcDb2dVertex
 10
2.812405693480147
 20
7.244070185901719
 30
0.0
 70
     8
  0
VERTEX
  5
194E
330
188B
100
AcDbEntity
  8
image
100
AcDbVertex
100
AcDb2dVertex
 10
2.801336437461559
 20
7.241142554650574
 30
0.0
 70
     8
  0
VERTEX
  5
194F
330
188B
100
AcDbEntity
  8
image
100
AcDbVertex
100
AcDb2dVertex
 10
2.790275308057748
 20
7.238042390489145
 30
0.0
 70
     8
  0
VERTEX
  5
1950
330
188B
100
AcDbEntity
  8
image
100
AcDbVertex
100
AcDb2dVertex
 10
2.779229561969278
 20
7.234760882794938
 30
0.0
 70
     8
  0
VERTEX
  5
1951
330
188B
100
AcDbEntity
  8
image
100
AcDbVertex
100
AcDb2dVertex
 10
2.768206455896716
 20
7.23128922094546
 30
0.0
 70
     8
  0
VERTEX
  5
1952
330
188B
100
AcDbEntity
  8
image
100
AcDbVertex
100
AcDb2dVertex
 10
2.757213246540625
 20
7.22761859431822
 30
0.0
 70
     8
  0
VERTEX
  5
1953
330
188B
100
AcDbEntity
  8
image
100
AcDbVertex
100
AcDb2dVertex
 10
2.746257190601571
 20
7.223740192290722
 30
0.0
 70
     8
  0
VERTEX
  5
1954
330
188B
100
AcDbEntity
  8
image
100
AcDbVertex
100
AcDb2dVertex
 10
2.735345544780118
 20
7.219645204240475
 30
0.0
 70
     8
  0
VERTEX
  5
1955
330
188B
100
AcDbEntity
  8
image
100
AcDbVertex
100
AcDb2dVertex
 10
2.724480996087893
 20
7.215308731719209
 30
0.0
 70
     8
  0
VERTEX
  5
1956
330
188B
100
AcDbEntity
  8
image
100
AcDbVertex
100
AcDb2dVertex
 10
2.713647952780769
 20
7.210641524975555
 30
0.0
 70
     8
  0
VERTEX
  5
1957
330
188B
100
AcDbEntity
  8
image
100
AcDbVertex
100
AcDb2dVertex
 10
2.70282625342568
 20
7.205538246432367
 30
0.0
 70
     8
  0
VERTEX
  5
1958
330
188B
100
AcDbEntity
  8
image
100
AcDbVertex
100
AcDb2dVertex
 10
2.691995736589561
 20
7.1998935585125
 30
0.0
 70
     8
  0
VERTEX
  5
1959
330
188B
100
AcDbEntity
  8
image
100
AcDbVertex
100
AcDb2dVertex
 10
2.681136240839346
 20
7.193602123638809
 30
0.0
 70
     8
  0
VERTEX
  5
195A
330
188B
100
AcDbEntity
  8
image
100
AcDbVertex
100
AcDb2dVertex
 10
2.67022760474197
 20
7.186558604234147
 30
0.0
 70
     8
  0
VERTEX
  5
195B
330
188B
100
AcDbEntity
  8
image
100
AcDbVertex
100
AcDb2dVertex
 10
2.659249666864368
 20
7.17865766272137
 30
0.0
 70
     8
  0
VERTEX
  5
195C
330
188B
100
AcDbEntity
  8
image
100
AcDbVertex
100
AcDb2dVertex
 10
2.648182265773474
 20
7.169793961523332
 30
0.0
 70
     8
  0
VERTEX
  5
195D
330
188B
100
AcDbEntity
  8
image
100
AcDbVertex
100
AcDb2dVertex
 10
2.637047731435567
 20
7.15987670908661
 30
0.0
 70
     8
  0
VERTEX
  5
195E
330
188B
100
AcDbEntity
  8
image
100
AcDbVertex
100
AcDb2dVertex
 10
2.626038359414308
 20
7.148873297952675
 30
0.0
 70
     8
  0
VERTEX
  5
195F
330
188B
100
AcDbEntity
  8
image
100
AcDbVertex
100
AcDb2dVertex
 10
2.615388936672703
 20
7.136765666686718
 30
0.0
 70
     8
  0
VERTEX
  5
1960
330
188B
100
AcDbEntity
  8
image
100
AcDbVertex
100
AcDb2dVertex
 10
2.605334250173757
 20
7.123535753853933
 30
0.0
 70
     8
  0
VERTEX
  5
1961
330
188B
100
AcDbEntity
  8
image
100
AcDbVertex
100
AcDb2dVertex
 10
2.596109086880475
 20
7.109165498019512
 30
0.0
 70
     8
  0
VERTEX
  5
1962
330
188B
100
AcDbEntity
  8
image
100
AcDbVertex
100
AcDb2dVertex
 10
2.587948233755863
 20
7.093636837748649
 30
0.0
 70
     8
  0
VERTEX
  5
1963
330
188B
100
AcDbEntity
  8
image
100
AcDbVertex
100
AcDb2dVertex
 10
2.581086477762926
 20
7.076931711606535
 30
0.0
 70
     8
  0
VERTEX
  5
1964
330
188B
100
AcDbEntity
  8
image
100
AcDbVertex
100
AcDb2dVertex
 10
2.575758605864669
 20
7.059032058158363
 30
0.0
 70
     8
  0
VERTEX
  5
18F5
330
188B
100
AcDbEntity
  8
image
100
AcDbVertex
100
AcDb2dVertex
 10
3.303610449409327
 20
7.274051497038703
 30
0.0
 70
    16
  0
VERTEX
  5
18F6
330
188B
100
AcDbEntity
  8
image
100
AcDbVertex
100
AcDb2dVertex
 10
3.297888347974472
 20
7.270243428441273
 30
0.0
 70
    16
  0
VERTEX
  5
18F7
330
188B
100
AcDbEntity
  8
image
100
AcDbVertex
100
AcDb2dVertex
 10
3.291287424083833
 20
7.261370799937777
 30
0.0
 70
    16
  0
VERTEX
  5
18F8
330
188B
100
AcDbEntity
  8
image
100
AcDbVertex
100
AcDb2dVertex
 10
3.288236004131074
 20
7.259575839925734
 30
0.0
 70
    16
  0
VERTEX
  5
18F9
330
188B
100
AcDbEntity
  8
image
100
AcDbVertex
100
AcDb2dVertex
 10
3.283118413687976
 20
7.259470912702768
 30
0.0
 70
    16
  0
VERTEX
  5
18FA
330
188B
100
AcDbEntity
  8
image
100
AcDbVertex
100
AcDb2dVertex
 10
3.213112257973685
 20
7.280280055808798
 30
0.0
 70
    16
  0
VERTEX
  5
18FB
330
188B
100
AcDbEntity
  8
image
100
AcDbVertex
100
AcDb2dVertex
 10
3.169854768746821
 20
7.277029331172288
 30
0.0
 70
    16
  0
VERTEX
  5
18FC
330
188B
100
AcDbEntity
  8
image
100
AcDbVertex
100
AcDb2dVertex
 10
2.993015449787109
 20
7.274240538605385
 30
0.0
 70
    16
  0
VERTEX
  5
18FD
330
188B
100
AcDbEntity
  8
image
100
AcDbVertex
100
AcDb2dVertex
 10
2.911884703888507
 20
7.265009190221038
 30
0.0
 70
    16
  0
VERTEX
  5
18FE
330
188B
100
AcDbEntity
  8
image
100
AcDbVertex
100
AcDb2dVertex
 10
2.823543945134042
 20
7.248486485961585
 30
0.0
 70
    16
  0
VERTEX
  5
18FF
330
188B
100
AcDbEntity
  8
image
100
AcDbVertex
100
AcDb2dVertex
 10
2.734794432053011
 20
7.222049435123066
 30
0.0
 70
    16
  0
VERTEX
  5
1900
330
188B
100
AcDbEntity
  8
image
100
AcDbVertex
100
AcDb2dVertex
 10
2.64935159533462
 20
7.181186998989001
 30
0.0
 70
    16
  0
VERTEX
  5
1901
330
188B
100
AcDbEntity
  8
image
100
AcDbVertex
100
AcDb2dVertex
 10
2.587712385944441
 20
7.108373225036948
 30
0.0
 70
    16
  0
VERTEX
  5
1902
330
188B
100
AcDbEntity
  8
image
100
AcDbVertex
100
AcDb2dVertex
 10
2.575758605864669
 20
7.059032058158363
 30
0.0
 70
    16
  0
SEQEND
  5
1903
330
188B
100
AcDbEntity
  8
image
  0
ENDSEC
  0
SECTION
  2
OBJECTS
  0
DICTIONARY
  5
10AF
330
0
100
AcDbDictionary
281
     1
  3
ACAD_COLOR
350
121C
  3
ACAD_GROUP
350
10B0
  3
ACAD_LAYOUT
350
10BC
  3
ACAD_MATERIAL
350
11F2
  3
ACAD_MLEADERSTYLE
350
1241
  3
ACAD_MLINESTYLE
350
10B9
  3
ACAD_PLOTSETTINGS
350
10BB
  3
ACAD_PLOTSTYLENAME
350
10B1
  3
ACAD_SCALELIST
350
121F
  3
ACAD_TABLESTYLE
350
121D
  3
ACAD_VISUALSTYLE
350
120B
  3
ACDB_RECOMPOSE_DATA
350
12BC
  3
AcDbVariableDictionary
350
10DD
  3
AEC_PROPERTY_SET_DEFS
350
1350
1001
BBSI_PltSel
1000
1
1000

1001
BBSI_Bookmarks
1000
1
1000
1
1000
0
1000
1
1000
0
1000
0
1000
0
1000
0
1000
0
1000
0
1000
0
1001
BBSI_BookmarksEx
1000
0
1000
0
1000

1000
0
1001
BBSI_Plots
1000

1000
ANSI_A_(11.00_x_8.50_Inches)
1000
279.399993896484
1000
215.899993896484
1000
0
1000
1
1000
1
1000
1.513528885555E-14
1000
17.9871359092673
1000
1
1000
0
1000
1
1000
1.56885758041751
1000
0
1000
1
1000
PDF BW Shaded.ctb
1000
0
1000
0
1000
1
1000
1
1000
0
1000
0
1000
0
1000
0
1000
0
1000
0
1000

1000

  0
DICTIONARY
  5
10EB
330
10A5
100
AcDbDictionary
280
     1
281
     1
  3
ACAD_LAYERFILTERS
360
19B2
  3
ACAD_LAYERSTATES
360
10EC
  0
DICTIONARY
  5
12AB
330
10C1
100
AcDbDictionary
280
     1
281
     1
  0
DICTIONARY
  5
1316
330
1195
100
AcDbDictionary
280
     1
281
     1
  3
ACAD_SORTENTS
360
1344
  0
DICTIONARY
  5
19D6
330
12DA
100
AcDbDictionary
280
     1
281
     1
  3
ACAD_MTEXT_2008_RT
360
19D7
  0
DICTIONARY
  5
121C
102
{ACAD_REACTORS
330
10AF
102
}
330
10AF
100
AcDbDictionary
281
     1
  0
DICTIONARY
  5
10B0
102
{ACAD_REACTORS
330
10AF
102
}
330
10AF
100
AcDbDictionary
281
     1
  0
DICTIONARY
  5
10BC
102
{ACAD_REACTORS
330
10AF
102
}
330
10AF
100
AcDbDictionary
281
     1
  3
Layout1
350
10C0
  3
Model
350
10C4
  0
DICTIONARY
  5
11F2
102
{ACAD_REACTORS
330
10AF
102
}
330
10AF
100
AcDbDictionary
281
     1
  3
ByBlock
350
11FB
  3
ByLayer
350
11F3
  3
Global
350
1203
  0
DICTIONARY
  5
1241
102
{ACAD_REACTORS
330
10AF
102
}
330
10AF
100
AcDbDictionary
281
     1
  3
Standard
350
1242
  0
DICTIONARY
  5
10B9
102
{ACAD_REACTORS
330
10AF
102
}
330
10AF
100
AcDbDictionary
281
     1
  3
Standard
350
10BA
  0
DICTIONARY
  5
10BB
102
{ACAD_REACTORS
330
10AF
102
}
330
10AF
100
AcDbDictionary
281
     1
  3
1055 24x36 BW
350
1256
  3
1055 24x36 BW Final
350
1258
  3
1055 24x36 Color
350
1259
  3
1055 24x36 Color Shaded
350
125A
  3
1055 30x42 BW
350
125B
  3
1055 30x42 BW Final
350
125C
  3
1055 B&W Draft
350
125D
  3
1055 B&W Final
350
125E
  3
1055 BW Half
350
125F
  3
1055 Color Draft
350
1260
  3
1055 Color Final
350
1261
  3
1055+ 24x36 BW
350
1262
  3
1055+ 24x36 BW Final
350
1263
  3
1055+ 24x36 Color
350
1264
  3
1055+ 24x36 Color Shaded
350
1265
  3
1055+ 30x42 BW
350
1266
  3
1055+ 30x42 BW Final
350
1267
  3
1055+ B&W Draft
350
1268
  3
1055+ B&W Final
350
1269
  3
1055+ BW Half
350
126A
  3
1055+ Color Draft
350
126B
  3
1055+ Color Final
350
126C
  3
_1055 22x34 True Centered BW
350
126D
  3
_1055 24x36 True Centered BW
350
126E
  3
_1055 24x36 True Centered BW Final
350
126F
  3
_1055 24x36 True Centered Color
350
1270
  3
_1055 30x42 True Centered BW
350
1271
  3
_1055+ 22x34 True Centered BW
350
1272
  3
_1055+ 24x36 True Centered BW
350
1273
  3
_1055+ 24x36 True Centered BW Final
350
1274
  3
_1055+ 24x36 True Centered Color
350
1275
  3
DWF BW 11x17 Fit
350
1276
  3
DWF BW 11x17 Half
350
1277
  3
DWF BW 22x34
350
1278
  3
DWF BW 24x36
350
1279
  3
DWF BW 30x42
350
127A
  3
DWF BW 36x48
350
127B
  3
Laser5 11x17 Fit
350
127C
  3
Laser5 11x17 Full
350
127D
  3
Laser5 11x17 Half
350
127E
  3
Laser5 8x11 Fit
350
127F
  3
Laser5 8x11 Half
350
1280
  3
Laser5 8x11 Portrait Fit
350
1281
  3
LaserJet5 11x17
350
1282
  3
LaserJet5 8.5x11
350
1283
  3
Oki9500 11x17 BW Fit
350
1284
  3
Oki9500 11x17 BW Full
350
1285
  3
Oki9500 11x17 BW Half
350
1286
  3
Oki9500 11x17 Color Fit
350
1287
  3
Oki9500 11x17 Color Full
350
1288
  3
Oki9500 11x17 Color Half
350
1289
  3
Oki9500 8x11 BW Fit
350
128A
  3
Oki9500 8x11 BW Portrait Fit
350
128B
  3
Oki9500 8x11 Color Fit
350
128C
  3
Oki9500 8x11 Color Portrait Fit
350
128D
  3
OKI9500 B&W 11x17
350
128E
  3
OKI9500 B&W 8.5x11
350
128F
  3
OKI9500 Color 11x17
350
1290
  3
OKI9500 Color 8.5x11
350
1291
  3
Oki9600 11x17 BW Fit
350
1292
  3
Oki9600 11x17 BW Full
350
1293
  3
Oki9600 11x17 BW Half
350
1294
  3
Oki9600 11x17 Color Fit
350
1295
  3
Oki9600 11x17 Color Full
350
1296
  3
Oki9600 11x17 Color Half
350
1297
  3
Oki9600 8x11 BW Fit
350
1298
  3
Oki9600 8x11 BW Portrait Fit
350
1299
  3
Oki9600 8x11 Color Fit
350
129A
  3
Oki9600 8x11 Color Portrait Fit
350
129B
  3
OKI9600 B&W 11x17
350
129C
  3
OKI9600 B&W 8.5x11
350
129D
  3
OKI9600 Color 11x17
350
129E
  3
OKI9600 Color 8.5x11
350
129F
  3
PHX Kyocera 11x17 Fit
350
12A0
  3
PHX Oki9500 11x17 BW Fit
350
12A1
  3
PHX Oki9500 11x17 BW Half
350
12A2
  0
ACDBDICTIONARYWDFLT
  5
10B1
102
{ACAD_REACTORS
330
10AF
102
}
330
10AF
100
AcDbDictionary
281
     1
  3
Normal
350
10B2
100
AcDbDictionaryWithDefault
340
10B2
  0
DICTIONARY
  5
121F
102
{ACAD_REACTORS
330
10AF
102
}
330
10AF
100
AcDbDictionary
281
     1
  3
A0
350
1220
  3
A1
350
1221
  3
A2
350
1222
  3
A3
350
1223
  3
A4
350
1224
  3
A5
350
1225
  3
A6
350
1226
  3
A7
350
1227
  3
A8
350
1228
  3
A9
350
1229
  3
B0
350
122A
  3
B1
350
122B
  3
B2
350
122C
  3
B3
350
122D
  3
B4
350
122E
  3
B5
350
122F
  3
B6
350
1230
  3
B7
350
1231
  3
B8
350
1232
  3
B9
350
1233
  3
C0
350
1234
  3
C1
350
1235
  3
C2
350
1236
  3
C3
350
1237
  3
C4
350
1238
  3
C5
350
1239
  3
C6
350
123A
  3
C7
350
123B
  3
C8
350
123C
  3
C9
350
123D
  3
D0
350
123E
  3
D1
350
123F
  3
D2
350
1240
  0
DICTIONARY
  5
121D
102
{ACAD_REACTORS
330
10AF
102
}
330
10AF
100
AcDbDictionary
281
     1
  3
Standard
350
121E
  0
DICTIONARY
  5
120B
102
{ACAD_REACTORS
330
10AF
102
}
330
10AF
100
AcDbDictionary
281
     1
  3
2dWireframe
350
1211
  3
3D Hidden
350
1213
  3
3dWireframe
350
1212
  3
Basic
350
1210
  3
Brighten
350
1217
  3
ColorChange
350
121B
  3
Conceptual
350
1214
  3
Dim
350
1216
  3
Facepattern
350
121A
  3
Flat
350
120C
  3
FlatWithEdges
350
120D
  3
Gouraud
350
120E
  3
GouraudWithEdges
350
120F
  3
Linepattern
350
1219
  3
Realistic
350
1215
  3
Thicken
350
1218
  0
XRECORD
  5
12BC
102
{ACAD_REACTORS
330
10AF
102
}
330
10AF
100
AcDbXrecord
280
     1
 90
        1
330
121E
330
12DA
  0
DICTIONARY
  5
10DD
102
{ACAD_REACTORS
330
10AF
102
}
330
10AF
100
AcDbDictionary
281
     1
  3
CANNOSCALE
350
12C0
  3
CMLEADERSTYLE
350
12BE
  3
CTABLESTYLE
350
12BD
  3
DIMASSOC
350
10E0
  3
HIDETEXT
350
10DF
  3
LAYEREVAL
350
19D4
  3
LAYERNOTIFY
350
12C2
  3
LIGHTINGUNITS
350
12C1
  3
MSLTSCALE
350
12BF
  3
SORTENTS
350
10DE
  0
DICTIONARY
  5
1350
102
{ACAD_REACTORS
330
10AF
102
}
330
10AF
100
AcDbDictionary
281
     1
  0
DICTIONARY
  5
19B2
102
{ACAD_REACTORS
330
10EB
102
}
330
10EB
100
AcDbDictionary
281
     1
  3
_0100-
350
19B5
  3
_0280-
350
19B4
  3
_Color 253
350
19B8
  3
_Color 8
350
19B6
  3
_Color 84
350
19B7
  3
_Contours
350
19BD
  3
_Existing
350
19B9
  3
_Hardscape
350
19BC
  3
_NoXref
350
19B3
  3
_Row
350
19BA
  3
_Utility
350
19BB
  0
DICTIONARY
  5
10EC
102
{ACAD_REACTORS
330
10EB
102
}
330
10EB
100
AcDbDictionary
281
     1
  0
SORTENTSTABLE
  5
1344
102
{ACAD_REACTORS
330
1316
102
}
330
1316
100
AcDbSortentsTable
330
1195
  0
XRECORD
  5
19D7
102
{ACAD_REACTORS
330
19D6
102
}
330
19D6
100
AcDbXrecord
280
     1
 40
10264455.0
  1
\A1;PLANT MATERIAL \P\PFINISH GRADE \P\P\pxi-2,l2;MICRO-SPRAY POP-UP:\P\pt2;^IRAIN BIRD XERI-POP XP-600X\P\pi0,l0,tz;{\H0.7x;\S1#4;\H1.4286x;" BARB TRANSFER CONNECTOR:\P\pi-2,l2,t2;^IRAIN BIRD XBF1CONN} \P\pi0,l0,tz;{\Fromans|c0;\H0.7x;\S1#2;\H1.4286x;
  1
" POLYETHYLENE TUBING:\P\pi-2,l2;  RAIN BIRD XF SERIES TUBING OR\P\pi0,l0;  RAIN BIRD XT-700 XERI-TUBE OR\P  RAIN BIRD XBS BLACK STRIPE TUBING}   \P\pi-2,l2;{\Fromans|c0;\H0.7x;\S1#4;\H1.4286x;" DISTRIBUTION TUBING:  \P  RAIN BIRD XQ TUBING\P  (LENGT
  1
H AS REQUIRED)}
  0
LAYOUT
  5
10C0
102
{ACAD_REACTORS
330
10BC
102
}
330
10BC
100
AcDbPlotSettings
  1

  2
S:\AutoCAD 2002\Plotters\1055B&WDraftShaded.pc3
  4

  6

 40
0.0
 41
0.0
 42
0.0
 43
0.0
 44
0.0
 45
0.0
 46
0.0
 47
0.0
 48
0.0
 49
0.0
140
0.0
141
0.0
142
1.0
143
1.0
 70
   688
 72
     0
 73
     0
 74
     5
  7
TRexLJ5Shaded2.ctb
 75
    16
147
1.0
 76
     0
 77
     2
 78
   300
148
0.0
149
0.0
100
AcDbLayout
  1
Layout1
 70
     1
 71
     1
 10
0.0
 20
0.0
 11
12.0
 21
9.0
 12
0.0
 22
0.0
 32
0.0
 14
1.000000000000000E+20
 24
1.000000000000000E+20
 34
1.000000000000000E+20
 15
-1.000000000000000E+20
 25
-1.000000000000000E+20
 35
-1.000000000000000E+20
146
0.0
 13
0.0
 23
0.0
 33
0.0
 16
1.0
 26
0.0
 36
0.0
 17
0.0
 27
1.0
 37
0.0
 76
     0
330
10BD
  0
LAYOUT
  5
10C4
102
{ACAD_REACTORS
330
10BC
102
}
330
10BC
100
AcDbPlotSettings
  1
LaserJet5 8.5x11
  2
LaserJet5Shaded-8x11.pc3
  4
Letter
  6

 40
5.873749732971191
 41
5.873734951019287
 42
6.55108642578125
 43
5.027084350585937
 44
279.3999938964844
 45
215.8999938964844
 46
32.0229288755689
 47
-0.0000000000000076
 48
0.0
 49
0.0
140
0.0
141
0.0
142
1.0
143
1.293546671707545
 70
 11956
 72
     0
 73
     0
 74
     1
  7
laserjet5shaded.ctb
 75
     0
147
0.7730683568455638
 76
     0
 77
     2
 78
   300
148
12.66076841047503
149
32.36515640156503
100
AcDbLayout
  1
Model
 70
     1
 71
     0
 10
0.0
 20
0.0
 11
12.0
 21
9.0
 12
0.0
 22
0.0
 32
0.0
 14
0.0
 24
0.0
 34
0.0
 15
0.0
 25
0.0
 35
0.0
146
0.0
 13
0.0
 23
0.0
 33
0.0
 16
1.0
 26
0.0
 36
0.0
 17
0.0
 27
1.0
 37
0.0
 76
     0
330
10C1
331
11F0
1001
ACAD_PSEXT
1000
LaserJet5Shaded-8x11.pc3
1000
HP LaserJet 5Si
1000
CAD Area
1000

1070
     0
  0
MATERIAL
  5
11FB
102
{ACAD_XDICTIONARY
360
11FC
102
}
102
{ACAD_REACTORS
330
11F2
102
}
330
11F2
100
AcDbMaterial
  1
ByBlock
 72
     0
 43
0.0208333333333333
 43
0.0
 43
0.0
 43
0.0
 43
0.0
 43
0.0208333333333333
 43
0.0
 43
0.0
 43
0.0
 43
0.0
 43
1.0
 43
0.0
 43
0.0
 43
0.0
 43
0.0
 43
1.0
 77
     0
 47
0.0208333333333333
 47
0.0
 47
0.0
 47
0.0
 47
0.0
 47
0.0208333333333333
 47
0.0
 47
0.0
 47
0.0
 47
0.0
 47
1.0
 47
0.0
 47
0.0
 47
0.0
 47
0.0
 47
1.0
171
     0
 49
0.0208333333333333
 49
0.0
 49
0.0
 49
0.0
 49
0.0
 49
0.0208333333333333
 49
0.0
 49
0.0
 49
0.0
 49
0.0
 49
1.0
 49
0.0
 49
0.0
 49
0.0
 49
0.0
 49
1.0
175
     0
142
0.0208333333333333
142
0.0
142
0.0
142
0.0
142
0.0
142
0.0208333333333333
142
0.0
142
0.0
142
0.0
142
0.0
142
1.0
142
0.0
142
0.0
142
0.0
142
0.0
142
1.0
179
     0
144
0.0208333333333333
144
0.0
144
0.0
144
0.0
144
0.0
144
0.0208333333333333
144
0.0
144
0.0
144
0.0
144
0.0
144
1.0
144
0.0
144
0.0
144
0.0
144
0.0
144
1.0
147
0.0208333333333333
147
0.0
147
0.0
147
0.0
147
0.0
147
0.0208333333333333
147
0.0
147
0.0
147
0.0
147
0.0
147
1.0
147
0.0
147
0.0
147
0.0
147
0.0
147
1.0
  0
MATERIAL
  5
11F3
102
{ACAD_XDICTIONARY
360
11F4
102
}
102
{ACAD_REACTORS
330
11F2
102
}
330
11F2
100
AcDbMaterial
  1
ByLayer
 72
     0
 43
0.0208333333333333
 43
0.0
 43
0.0
 43
0.0
 43
0.0
 43
0.0208333333333333
 43
0.0
 43
0.0
 43
0.0
 43
0.0
 43
1.0
 43
0.0
 43
0.0
 43
0.0
 43
0.0
 43
1.0
 77
     0
 47
0.0208333333333333
 47
0.0
 47
0.0
 47
0.0
 47
0.0
 47
0.0208333333333333
 47
0.0
 47
0.0
 47
0.0
 47
0.0
 47
1.0
 47
0.0
 47
0.0
 47
0.0
 47
0.0
 47
1.0
171
     0
 49
0.0208333333333333
 49
0.0
 49
0.0
 49
0.0
 49
0.0
 49
0.0208333333333333
 49
0.0
 49
0.0
 49
0.0
 49
0.0
 49
1.0
 49
0.0
 49
0.0
 49
0.0
 49
0.0
 49
1.0
175
     0
142
0.0208333333333333
142
0.0
142
0.0
142
0.0
142
0.0
142
0.0208333333333333
142
0.0
142
0.0
142
0.0
142
0.0
142
1.0
142
0.0
142
0.0
142
0.0
142
0.0
142
1.0
179
     0
144
0.0208333333333333
144
0.0
144
0.0
144
0.0
144
0.0
144
0.0208333333333333
144
0.0
144
0.0
144
0.0
144
0.0
144
1.0
144
0.0
144
0.0
144
0.0
144
0.0
144
1.0
147
0.0208333333333333
147
0.0
147
0.0
147
0.0
147
0.0
147
0.0208333333333333
147
0.0
147
0.0
147
0.0
147
0.0
147
1.0
147
0.0
147
0.0
147
0.0
147
0.0
147
1.0
  0
MATERIAL
  5
1203
102
{ACAD_XDICTIONARY
360
1204
102
}
102
{ACAD_REACTORS
330
11F2
102
}
330
11F2
100
AcDbMaterial
  1
Global
 72
     0
 43
0.0208333333333333
 43
0.0
 43
0.0
 43
0.0
 43
0.0
 43
0.0208333333333333
 43
0.0
 43
0.0
 43
0.0
 43
0.0
 43
1.0
 43
0.0
 43
0.0
 43
0.0
 43
0.0
 43
1.0
 77
     0
 47
0.0208333333333333
 47
0.0
 47
0.0
 47
0.0
 47
0.0
 47
0.0208333333333333
 47
0.0
 47
0.0
 47
0.0
 47
0.0
 47
1.0
 47
0.0
 47
0.0
 47
0.0
 47
0.0
 47
1.0
171
     0
 49
0.0208333333333333
 49
0.0
 49
0.0
 49
0.0
 49
0.0
 49
0.0208333333333333
 49
0.0
 49
0.0
 49
0.0
 49
0.0
 49
1.0
 49
0.0
 49
0.0
 49
0.0
 49
0.0
 49
1.0
175
     0
142
0.0208333333333333
142
0.0
142
0.0
142
0.0
142
0.0
142
0.0208333333333333
142
0.0
142
0.0
142
0.0
142
0.0
142
1.0
142
0.0
142
0.0
142
0.0
142
0.0
142
1.0
179
     0
144
0.0208333333333333
144
0.0
144
0.0
144
0.0
144
0.0
144
0.0208333333333333
144
0.0
144
0.0
144
0.0
144
0.0
144
1.0
144
0.0
144
0.0
144
0.0
144
0.0
144
1.0
147
0.0208333333333333
147
0.0
147
0.0
147
0.0
147
0.0
147
0.0208333333333333
147
0.0
147
0.0
147
0.0
147
0.0
147
1.0
147
0.0
147
0.0
147
0.0
147
0.0
147
1.0
  0
MLEADERSTYLE
  5
1242
102
{ACAD_REACTORS
330
1241
102
}
330
1241
100
AcDbMLeaderStyle
170
     2
171
     1
172
     0
 90
        2
 40
0.0
 41
0.0
173
     1
 91
-1056964608
340
10B6
 92
       -2
290
     1
 42
0.09
291
     1
 43
0.36
  3
Standard
 44
0.18
300

342
10B4
174
     1
178
     6
175
     1
176
     0
 93
-1056964608
 45
0.18
292
     0
297
     0
 46
0.18
 94
-1056964608
 47
1.0
 49
1.0
140
1.0
293
     1
141
0.0
294
     1
177
     0
142
1.0
295
     0
296
     0
143
0.125
1001
ACAD_MLEADERVER
1070
     2
  0
MLINESTYLE
  5
10BA
102
{ACAD_REACTORS
330
10B9
102
}
330
10B9
100
AcDbMlineStyle
  2
STANDARD
 70
     0
  3

 62
   256
 51
90.0
 52
90.0
 71
     2
 49
0.5
 62
   256
  6
BYLAYER
 49
-0.5
 62
   256
  6
BYLAYER
  0
PLOTSETTINGS
  5
1256
102
{ACAD_REACTORS
330
10BB
102
}
330
10BB
100
AcDbPlotSettings
  1
1055 24x36 BW
  2
1055B&WDraftShaded.pc3
  4
User257
  6

 40
14.98600006103515
 41
8.297271728515625
 42
14.9859619140625
 43
8.29736328125
 44
914.3153076171875
 45
1269.915283203125
 46
0.0
 47
0.0
 48
0.0
 49
0.0
140
0.0
141
0.0
142
1.0
143
1.0
 70
  2800
 72
     0
 73
     2
 74
     1
  7
1055B&WFullDraftShaded.ctb
 75
    16
147
1.0
 76
     0
 77
     2
 78
   300
148
-75.74468520391772
149
-27.53050504688192
1001
ACAD_PSEXT
1000
1055B&WDraftShaded.pc3
1000
HP DesignJet 1055CM by HP
1000
FRONT
1000

1070
     0
  0
PLOTSETTINGS
  5
1258
102
{ACAD_REACTORS
330
10BB
102
}
330
10BB
100
AcDbPlotSettings
  1
1055 24x36 BW Final
  2
1055B&WFinalShaded.pc3
  4
User257
  6

 40
14.98600006103515
 41
8.297271728515625
 42
14.9859619140625
 43
8.29736328125
 44
914.357666015625
 45
1269.957641601562
 46
0.0
 47
0.0
 48
0.0
 49
0.0
140
0.0
141
0.0
142
1.0
143
1.0
 70
  2800
 72
     0
 73
     2
 74
     1
  7
1055B&WFullFinalShaded.ctb
 75
    16
147
1.0
 76
     0
 77
     2
 78
   300
148
-75.74468520391772
149
-27.53050504688192
1001
ACAD_PSEXT
1000
1055B&WFinalShaded.pc3
1000
HP DesignJet 1055CM by HP
1000
FRONT
1000

1070
     0
  0
PLOTSETTINGS
  5
1259
102
{ACAD_REACTORS
330
10BB
102
}
330
10BB
100
AcDbPlotSettings
  1
1055 24x36 Color
  2
1055ColorDraftShaded.pc3
  4
User257
  6

 40
14.98600006103515
 41
8.297271728515625
 42
14.9859619140625
 43
8.29736328125
 44
914.3153076171875
 45
1269.915283203125
 46
0.0
 47
0.0
 48
0.0
 49
0.0
140
0.0
141
0.0
142
1.0
143
1.0
 70
  2800
 72
     0
 73
     2
 74
     1
  7
Color.ctb
 75
    16
147
1.0
 76
     0
 77
     2
 78
   300
148
-75.74468520391772
149
-27.53050504688192
1001
ACAD_PSEXT
1000
1055ColorDraftShaded.pc3
1000
HP DesignJet 1055CM by HP
1000
FRONT
1000

1070
     0
  0
PLOTSETTINGS
  5
125A
102
{ACAD_REACTORS
330
10BB
102
}
330
10BB
100
AcDbPlotSettings
  1
1055 24x36 Color Shaded
  2
1055ColorDraftShaded.pc3
  4
User257
  6

 40
14.98600006103515
 41
8.297271728515625
 42
14.9859619140625
 43
8.29736328125
 44
914.3153076171875
 45
1269.915283203125
 46
0.0
 47
0.0
 48
0.0
 49
0.0
140
0.0
141
0.0
142
1.0
143
1.0
 70
  2800
 72
     0
 73
     2
 74
     1
  7
1055ColorFullDraftShaded.ctb
 75
    16
147
1.0
 76
     0
 77
     2
 78
   300
148
-75.74468520391772
149
-27.53050504688192
1001
ACAD_PSEXT
1000
1055ColorDraftShaded.pc3
1000
HP DesignJet 1055CM by HP
1000
FRONT
1000

1070
     0
  0
PLOTSETTINGS
  5
125B
102
{ACAD_REACTORS
330
10BB
102
}
330
10BB
100
AcDbPlotSettings
  1
1055 30x42 BW
  2
1055B&WDraftShaded.pc3
  4
User257
  6

 40
14.98600006103515
 41
8.297271728515625
 42
14.9859619140625
 43
8.29736328125
 44
914.3153076171875
 45
1269.915283203125
 46
0.0
 47
0.0
 48
0.0
 49
0.0
140
0.0
141
0.0
142
1.0
143
1.0
 70
  2800
 72
     0
 73
     1
 74
     1
  7
1055B&WFullDraftShaded.ctb
 75
    16
147
1.0
 76
     0
 77
     2
 78
   300
148
-75.74468520391772
149
-27.53050504688192
1001
ACAD_PSEXT
1000
1055B&WDraftShaded.pc3
1000
HP DesignJet 1055CM by HP
1000
FRONT
1000

1070
     0
  0
PLOTSETTINGS
  5
125C
102
{ACAD_REACTORS
330
10BB
102
}
330
10BB
100
AcDbPlotSettings
  1
1055 30x42 BW Final
  2
1055B&WFinalShaded.pc3
  4
User257
  6

 40
14.98600006103515
 41
8.297271728515625
 42
14.9859619140625
 43
8.29736328125
 44
914.357666015625
 45
1269.957641601562
 46
0.0
 47
0.0
 48
0.0
 49
0.0
140
0.0
141
0.0
142
1.0
143
1.0
 70
  2800
 72
     0
 73
     1
 74
     1
  7
1055B&WFullFinalShaded.ctb
 75
    16
147
1.0
 76
     0
 77
     2
 78
   300
148
-75.74468520391772
149
-27.53050504688192
1001
ACAD_PSEXT
1000
1055B&WFinalShaded.pc3
1000
HP DesignJet 1055CM by HP
1000
FRONT
1000

1070
     0
  0
PLOTSETTINGS
  5
125D
102
{ACAD_REACTORS
330
10BB
102
}
330
10BB
100
AcDbPlotSettings
  1
1055 B&W Draft
  2
1055B&WDraftShaded.pc3
  4
User257
  6

 40
4.995333194732666
 41
8.297271728515625
 42
4.99530029296875
 43
8.29736328125
 44
914.3153076171875
 45
1269.915283203125
 46
0.0
 47
0.0
 48
0.0
 49
0.0
140
0.0
141
0.0
142
1.0
143
30.0
 70
 11936
 72
     0
 73
     2
 74
     1
  7
1055B&WFullDraftShaded.ctb
 75
     0
147
3.484472351238056
 76
     0
 77
     2
 78
   300
148
-119.4582094169044
149
-58.17053554795709
1001
ACAD_PSEXT
1000
1055B&WDraftShaded.pc3
1000
HP DesignJet 1055CM by HP
1000
\\aqua-srv01
1000

1070
     0
  0
PLOTSETTINGS
  5
125E
102
{ACAD_REACTORS
330
10BB
102
}
330
10BB
100
AcDbPlotSettings
  1
1055 B&W Final
  2
1055B&WFinalShaded.pc3
  4
User257
  6

 40
4.995333194732666
 41
8.297271728515625
 42
4.99530029296875
 43
8.29736328125
 44
914.357666015625
 45
1269.957641601562
 46
0.0
 47
0.0
 48
0.0
 49
0.0
140
0.0
141
0.0
142
1.0
143
30.0
 70
 11936
 72
     0
 73
     2
 74
     1
  7
1055B&WFullFinalShaded.ctb
 75
     0
147
3.484472351238056
 76
     0
 77
     2
 78
   300
148
-119.4582094169044
149
-58.17053554795709
1001
ACAD_PSEXT
1000
1055B&WFinalShaded.pc3
1000
HP DesignJet 1055CM by HP
1000
\\aqua-srv01
1000

1070
     0
  0
PLOTSETTINGS
  5
125F
102
{ACAD_REACTORS
330
10BB
102
}
330
10BB
100
AcDbPlotSettings
  1
1055 BW Half
  2
1055B&WDraftShaded.pc3
  4
User257
  6

 40
14.98600006103515
 41
8.297271728515625
 42
14.9859619140625
 43
8.29736328125
 44
914.3153076171875
 45
1269.915283203125
 46
0.0
 47
0.0
 48
0.0
 49
0.0
140
0.0
141
0.0
142
1.0
143
2.0
 70
  2800
 72
     0
 73
     2
 74
     1
  7
1055B&WFullDraftShaded.ctb
 75
    17
147
0.5
 76
     0
 77
     2
 78
   300
148
-75.74468520391772
149
-27.53050504688192
1001
ACAD_PSEXT
1000
1055B&WDraftShaded.pc3
1000
HP DesignJet 1055CM by HP
1000
FRONT
1000

1070
     0
  0
PLOTSETTINGS
  5
1260
102
{ACAD_REACTORS
330
10BB
102
}
330
10BB
100
AcDbPlotSettings
  1
1055 Color Draft
  2
1055ColorDraftShaded.pc3
  4
User257
  6

 40
4.995333194732666
 41
8.297271728515625
 42
4.99530029296875
 43
8.29736328125
 44
914.3153076171875
 45
1269.915283203125
 46
0.0
 47
0.0
 48
0.0
 49
0.0
140
0.0
141
0.0
142
1.0
143
30.0
 70
 11936
 72
     0
 73
     2
 74
     1
  7
1055ColorFullDraftShaded.ctb
 75
     0
147
3.484472351238056
 76
     0
 77
     2
 78
   300
148
-119.4582094169044
149
-58.17053554795709
1001
ACAD_PSEXT
1000
1055ColorDraftShaded.pc3
1000
HP DesignJet 1055CM by HP
1000
\\aqua-srv01
1000

1070
     0
  0
PLOTSETTINGS
  5
1261
102
{ACAD_REACTORS
330
10BB
102
}
330
10BB
100
AcDbPlotSettings
  1
1055 Color Final
  2
1055ColorFinalShaded.pc3
  4
User257
  6

 40
4.995333194732666
 41
8.297271728515625
 42
4.99530029296875
 43
8.29736328125
 44
914.357666015625
 45
1269.957641601562
 46
0.0
 47
0.0
 48
0.0
 49
0.0
140
0.0
141
0.0
142
1.0
143
30.0
 70
 11936
 72
     0
 73
     2
 74
     1
  7
1055ColorFullFinalShaded.ctb
 75
     0
147
3.484472351238056
 76
     0
 77
     2
 78
   300
148
-119.4582094169044
149
-58.17053554795709
1001
ACAD_PSEXT
1000
1055ColorFinalShaded.pc3
1000
HP DesignJet 1055CM by HP
1000
\\aqua-srv01
1000

1070
     0
  0
PLOTSETTINGS
  5
1262
102
{ACAD_REACTORS
330
10BB
102
}
330
10BB
100
AcDbPlotSettings
  1
1055+ 24x36 BW
  2
1055_PLUS_B&WDraftShaded.pc3
  4
User257
  6

 40
14.98600006103515
 41
8.297271728515625
 42
14.9859619140625
 43
8.29736328125
 44
914.3153076171875
 45
1269.915283203125
 46
0.0
 47
0.0
 48
0.0
 49
0.0
140
0.0
141
0.0
142
1.0
143
1.0
 70
  2800
 72
     0
 73
     2
 74
     1
  7
1055B&WFullDraftShaded.ctb
 75
    16
147
1.0
 76
     0
 77
     2
 78
   300
148
-75.74468520391772
149
-27.53050504688192
1001
ACAD_PSEXT
1000
1055_PLUS_B&WDraftShaded.pc3
1000
HP DesignJet 1055CM by HP
1000
FRONT
1000

1070
     0
  0
PLOTSETTINGS
  5
1263
102
{ACAD_REACTORS
330
10BB
102
}
330
10BB
100
AcDbPlotSettings
  1
1055+ 24x36 BW Final
  2
1055_PLUS_B&WFinalShaded.pc3
  4
User257
  6

 40
14.98600006103515
 41
8.297271728515625
 42
14.9859619140625
 43
8.29736328125
 44
914.357666015625
 45
1269.957641601562
 46
0.0
 47
0.0
 48
0.0
 49
0.0
140
0.0
141
0.0
142
1.0
143
1.0
 70
  2800
 72
     0
 73
     2
 74
     1
  7
1055B&WFullFinalShaded.ctb
 75
    16
147
1.0
 76
     0
 77
     2
 78
   300
148
-75.74468520391772
149
-27.53050504688192
1001
ACAD_PSEXT
1000
1055_PLUS_B&WFinalShaded.pc3
1000
HP DesignJet 1055CM by HP
1000
FRONT
1000

1070
     0
  0
PLOTSETTINGS
  5
1264
102
{ACAD_REACTORS
330
10BB
102
}
330
10BB
100
AcDbPlotSettings
  1
1055+ 24x36 Color
  2
1055_PLUS_ColorDraftShaded.pc3
  4
User257
  6

 40
14.98600006103515
 41
8.297271728515625
 42
14.9859619140625
 43
8.29736328125
 44
914.3153076171875
 45
1269.915283203125
 46
0.0
 47
0.0
 48
0.0
 49
0.0
140
0.0
141
0.0
142
1.0
143
1.0
 70
  2800
 72
     0
 73
     2
 74
     1
  7
Color.ctb
 75
    16
147
1.0
 76
     0
 77
     2
 78
   300
148
-75.74468520391772
149
-27.53050504688192
1001
ACAD_PSEXT
1000
1055_PLUS_ColorDraftShaded.pc3
1000
HP DesignJet 1055CM by HP
1000
FRONT
1000

1070
     0
  0
PLOTSETTINGS
  5
1265
102
{ACAD_REACTORS
330
10BB
102
}
330
10BB
100
AcDbPlotSettings
  1
1055+ 24x36 Color Shaded
  2
1055_PLUS_ColorDraftShaded.pc3
  4
User257
  6

 40
14.98600006103515
 41
8.297271728515625
 42
14.9859619140625
 43
8.29736328125
 44
914.3153076171875
 45
1269.915283203125
 46
0.0
 47
0.0
 48
0.0
 49
0.0
140
0.0
141
0.0
142
1.0
143
1.0
 70
  2800
 72
     0
 73
     2
 74
     1
  7
1055ColorFullDraftShaded.ctb
 75
    16
147
1.0
 76
     0
 77
     2
 78
   300
148
-75.74468520391772
149
-27.53050504688192
1001
ACAD_PSEXT
1000
1055_PLUS_ColorDraftShaded.pc3
1000
HP DesignJet 1055CM by HP
1000
FRONT
1000

1070
     0
  0
PLOTSETTINGS
  5
1266
102
{ACAD_REACTORS
330
10BB
102
}
330
10BB
100
AcDbPlotSettings
  1
1055+ 30x42 BW
  2
1055_PLUS_B&WDraftShaded.pc3
  4
User257
  6

 40
14.98600006103515
 41
8.297271728515625
 42
14.9859619140625
 43
8.29736328125
 44
914.3153076171875
 45
1269.915283203125
 46
0.0
 47
0.0
 48
0.0
 49
0.0
140
0.0
141
0.0
142
1.0
143
1.0
 70
  2800
 72
     0
 73
     1
 74
     1
  7
1055B&WFullDraftShaded.ctb
 75
    16
147
1.0
 76
     0
 77
     2
 78
   300
148
-75.74468520391772
149
-27.53050504688192
1001
ACAD_PSEXT
1000
1055_PLUS_B&WDraftShaded.pc3
1000
HP DesignJet 1055CM by HP
1000
FRONT
1000

1070
     0
  0
PLOTSETTINGS
  5
1267
102
{ACAD_REACTORS
330
10BB
102
}
330
10BB
100
AcDbPlotSettings
  1
1055+ 30x42 BW Final
  2
1055_PLUS_B&WFinalShaded.pc3
  4
User257
  6

 40
14.98600006103515
 41
8.297271728515625
 42
14.9859619140625
 43
8.29736328125
 44
914.357666015625
 45
1269.957641601562
 46
0.0
 47
0.0
 48
0.0
 49
0.0
140
0.0
141
0.0
142
1.0
143
1.0
 70
  2800
 72
     0
 73
     1
 74
     1
  7
1055B&WFullFinalShaded.ctb
 75
    16
147
1.0
 76
     0
 77
     2
 78
   300
148
-75.74468520391772
149
-27.53050504688192
1001
ACAD_PSEXT
1000
1055_PLUS_B&WFinalShaded.pc3
1000
HP DesignJet 1055CM by HP
1000
FRONT
1000

1070
     0
  0
PLOTSETTINGS
  5
1268
102
{ACAD_REACTORS
330
10BB
102
}
330
10BB
100
AcDbPlotSettings
  1
1055+ B&W Draft
  2
1055_PLUS_B&WDraftShaded.pc3
  4
User257
  6

 40
4.995333194732666
 41
13.2926607131958
 42
4.99530029296875
 43
13.292724609375
 44
914.3153076171875
 45
1269.915283203125
 46
0.0
 47
0.0
 48
0.0
 49
0.0
140
0.0
141
0.0
142
1.0
143
30.0
 70
 11936
 72
     0
 73
     2
 74
     1
  7
1055B&WFullDraftShaded.ctb
 75
     0
147
3.484472351238056
 76
     0
 77
     2
 78
   300
148
-119.4582094169044
149
-58.17053554795709
1001
ACAD_PSEXT
1000
1055_PLUS_B&WDraftShaded.pc3
1000
HP DesignJet 1055CM by HP
1000
\\aqua-srv01
1000

1070
     0
  0
PLOTSETTINGS
  5
1269
102
{ACAD_REACTORS
330
10BB
102
}
330
10BB
100
AcDbPlotSettings
  1
1055+ B&W Final
  2
1055_PLUS_B&WFinalShaded.pc3
  4
User257
  6

 40
4.995333194732666
 41
13.2926607131958
 42
4.99530029296875
 43
13.292724609375
 44
914.357666015625
 45
1269.957641601562
 46
0.0
 47
0.0
 48
0.0
 49
0.0
140
0.0
141
0.0
142
1.0
143
30.0
 70
 11936
 72
     0
 73
     2
 74
     1
  7
1055B&WFullFinalShaded.ctb
 75
     0
147
3.484472351238056
 76
     0
 77
     2
 78
   300
148
-119.4582094169044
149
-58.17053554795709
1001
ACAD_PSEXT
1000
1055_PLUS_B&WFinalShaded.pc3
1000
HP DesignJet 1055CM by HP
1000
\\aqua-srv01
1000

1070
     0
  0
PLOTSETTINGS
  5
126A
102
{ACAD_REACTORS
330
10BB
102
}
330
10BB
100
AcDbPlotSettings
  1
1055+ BW Half
  2
1055_PLUS_B&WDraftShaded.pc3
  4
User257
  6

 40
14.98600006103515
 41
8.297271728515625
 42
14.9859619140625
 43
8.29736328125
 44
914.3153076171875
 45
1269.915283203125
 46
0.0
 47
0.0
 48
0.0
 49
0.0
140
0.0
141
0.0
142
1.0
143
2.0
 70
  2800
 72
     0
 73
     2
 74
     1
  7
1055B&WFullDraftShaded.ctb
 75
    17
147
0.5
 76
     0
 77
     2
 78
   300
148
-75.74468520391772
149
-27.53050504688192
1001
ACAD_PSEXT
1000
1055_PLUS_B&WDraftShaded.pc3
1000
HP DesignJet 1055CM by HP
1000
FRONT
1000

1070
     0
  0
PLOTSETTINGS
  5
126B
102
{ACAD_REACTORS
330
10BB
102
}
330
10BB
100
AcDbPlotSettings
  1
1055+ Color Draft
  2
1055_PLUS_ColorDraftShaded.pc3
  4
User257
  6

 40
4.995333194732666
 41
8.297271728515625
 42
4.99530029296875
 43
8.29736328125
 44
914.3153076171875
 45
1269.915283203125
 46
0.0
 47
0.0
 48
0.0
 49
0.0
140
0.0
141
0.0
142
1.0
143
30.0
 70
 11936
 72
     0
 73
     2
 74
     1
  7
1055ColorFullDraftShaded.ctb
 75
     0
147
3.484472351238056
 76
     0
 77
     2
 78
   300
148
-119.4582094169044
149
-58.17053554795709
1001
ACAD_PSEXT
1000
1055_PLUS_ColorDraftShaded.pc3
1000
HP DesignJet 1055CM by HP
1000
\\aqua-srv01
1000

1070
     0
  0
PLOTSETTINGS
  5
126C
102
{ACAD_REACTORS
330
10BB
102
}
330
10BB
100
AcDbPlotSettings
  1
1055+ Color Final
  2
1055_PLUS_ColorFinalShaded.pc3
  4
User257
  6

 40
4.995333194732666
 41
13.2926607131958
 42
4.99530029296875
 43
13.292724609375
 44
914.357666015625
 45
1269.957641601562
 46
0.0
 47
0.0
 48
0.0
 49
0.0
140
0.0
141
0.0
142
1.0
143
30.0
 70
 11936
 72
     0
 73
     2
 74
     1
  7
1055ColorFullFinalShaded.ctb
 75
     0
147
3.484472351238056
 76
     0
 77
     2
 78
   300
148
-119.4582094169044
149
-58.17053554795709
1001
ACAD_PSEXT
1000
1055_PLUS_ColorFinalShaded.pc3
1000
HP DesignJet 1055CM by HP
1000
\\aqua-srv01
1000

1070
     0
  0
PLOTSETTINGS
  5
126D
102
{ACAD_REACTORS
330
10BB
102
}
330
10BB
100
AcDbPlotSettings
  1
_1055 22x34 True Centered BW
  2
1055B&WDraftShaded 24x36 true.pc3
  4
User1639
  6

 40
0.0
 41
0.0
 42
0.0
 43
0.0
 44
863.6000366210938
 45
558.7999877929687
 46
379.1860116761152
 47
224.9166389522296
 48
0.0
 49
0.0
140
0.0
141
0.0
142
1.0
143
1.0
 70
  2804
 72
     0
 73
     0
 74
     1
  7
1055B&WFullDraftShaded.ctb
 75
    16
147
1.0
 76
     0
 77
     2
 78
   300
148
-75.74468520391772
149
-27.53050504688192
1001
ACAD_PSEXT
1000
1055B&WDraftShaded 24x36 true.pc3
1000
HP DesignJet 1055CM by HP
1000
FRONT
1000

1070
     0
  0
PLOTSETTINGS
  5
126E
102
{ACAD_REACTORS
330
10BB
102
}
330
10BB
100
AcDbPlotSettings
  1
_1055 24x36 True Centered BW
  2
1055B&WDraftShaded 24x36 true.pc3
  4
User1308
  6

 40
14.98600006103515
 41
8.297332763671875
 42
14.9859619140625
 43
8.29736328125
 44
914.3153076171875
 45
609.5153198242187
 46
389.5576661866133
 47
241.9769569453936
 48
0.0
 49
0.0
140
0.0
141
0.0
142
1.0
143
1.0
 70
  2804
 72
     0
 73
     0
 74
     1
  7
1055B&WFullDraftShaded.ctb
 75
    16
147
1.0
 76
     0
 77
     2
 78
   300
148
-75.74468520391772
149
-27.53050504688192
1001
ACAD_PSEXT
1000
1055B&WDraftShaded 24x36 true.pc3
1000
HP DesignJet 1055CM by HP
1000
FRONT
1000

1070
     0
  0
PLOTSETTINGS
  5
126F
102
{ACAD_REACTORS
330
10BB
102
}
330
10BB
100
AcDbPlotSettings
  1
_1055 24x36 True Centered BW Final
  2
1055B&WFinalShaded 24x36 true.pc3
  4
User1308
  6

 40
14.98600006103515
 41
8.297332763671875
 42
14.9859619140625
 43
8.29736328125
 44
914.357666015625
 45
609.5576782226562
 46
389.578845385832
 47
241.9981361446124
 48
0.0
 49
0.0
140
0.0
141
0.0
142
1.0
143
1.0
 70
  2804
 72
     0
 73
     0
 74
     1
  7
1055B&WFullFinalShaded.ctb
 75
    16
147
1.0
 76
     0
 77
     2
 78
   300
148
-75.74468520391772
149
-27.53050504688192
1001
ACAD_PSEXT
1000
1055B&WFinalShaded 24x36 true.pc3
1000
HP DesignJet 1055CM by HP
1000
FRONT
1000

1070
     0
  0
PLOTSETTINGS
  5
1270
102
{ACAD_REACTORS
330
10BB
102
}
330
10BB
100
AcDbPlotSettings
  1
_1055 24x36 True Centered Color
  2
1055ColorDraftShaded 24x36 true.pc3
  4
User1308
  6

 40
14.98600006103515
 41
8.297332763671875
 42
14.9859619140625
 43
8.29736328125
 44
914.3153076171875
 45
609.5153198242187
 46
389.5576661866133
 47
241.9769569453936
 48
0.0
 49
0.0
140
0.0
141
0.0
142
1.0
143
1.0
 70
  2804
 72
     0
 73
     0
 74
     1
  7
1055ColorFullDraftShaded.ctb
 75
    16
147
1.0
 76
     0
 77
     2
 78
   300
148
-75.74468520391772
149
-27.53050504688192
1001
ACAD_PSEXT
1000
1055ColorDraftShaded 24x36 true.pc3
1000
HP DesignJet 1055CM by HP
1000
FRONT
1000

1070
     0
  0
PLOTSETTINGS
  5
1271
102
{ACAD_REACTORS
330
10BB
102
}
330
10BB
100
AcDbPlotSettings
  1
_1055 30x42 True Centered BW
  2
1055B&WDraftShaded 30x42 true.pc3
  4
User286
  6

 40
0.0
 41
0.0
 42
-0.08465576171875
 43
-0.084716796875
 44
761.9153442382812
 45
1066.71533203125
 46
326.5166450557452
 47
480.7860177796309
 48
0.0
 49
0.0
140
0.0
141
0.0
142
1.0
143
1.0
 70
  2804
 72
     0
 73
     1
 74
     1
  7
1055B&WFullDraftShaded.ctb
 75
    16
147
1.0
 76
     0
 77
     2
 78
   300
148
-75.74468520391772
149
-27.53050504688192
1001
ACAD_PSEXT
1000
1055B&WDraftShaded 30x42 true.pc3
1000
HP DesignJet 1055CM by HP
1000
FRONT
1000

1070
     0
  0
PLOTSETTINGS
  5
1272
102
{ACAD_REACTORS
330
10BB
102
}
330
10BB
100
AcDbPlotSettings
  1
_1055+ 22x34 True Centered BW
  2
1055_PLUS_B&WDraftShaded 24x36 true.pc3
  4
User1639
  6

 40
0.0
 41
0.0
 42
0.0
 43
0.0
 44
863.6000366210938
 45
558.7999877929687
 46
379.1860116761152
 47
224.9166389522296
 48
0.0
 49
0.0
140
0.0
141
0.0
142
1.0
143
1.0
 70
  2804
 72
     0
 73
     0
 74
     1
  7
1055B&WFullDraftShaded.ctb
 75
    16
147
1.0
 76
     0
 77
     2
 78
   300
148
-75.74468520391772
149
-27.53050504688192
1001
ACAD_PSEXT
1000
1055_PLUS_B&WDraftShaded 24x36 true.pc3
1000
HP DesignJet 1055CM by HP
1000
FRONT
1000

1070
     0
  0
PLOTSETTINGS
  5
1273
102
{ACAD_REACTORS
330
10BB
102
}
330
10BB
100
AcDbPlotSettings
  1
_1055+ 24x36 True Centered BW
  2
1055_PLUS_B&WDraftShaded 24x36 true.pc3
  4
User1308
  6

 40
14.98600006103515
 41
8.297332763671875
 42
14.9859619140625
 43
8.29736328125
 44
914.3153076171875
 45
609.5153198242187
 46
389.5576661866133
 47
241.9769569453936
 48
0.0
 49
0.0
140
0.0
141
0.0
142
1.0
143
1.0
 70
  2804
 72
     0
 73
     0
 74
     1
  7
1055B&WFullDraftShaded.ctb
 75
    16
147
1.0
 76
     0
 77
     2
 78
   300
148
-75.74468520391772
149
-27.53050504688192
1001
ACAD_PSEXT
1000
1055_PLUS_B&WDraftShaded 24x36 true.pc3
1000
HP DesignJet 1055CM by HP
1000
FRONT
1000

1070
     0
  0
PLOTSETTINGS
  5
1274
102
{ACAD_REACTORS
330
10BB
102
}
330
10BB
100
AcDbPlotSettings
  1
_1055+ 24x36 True Centered BW Final
  2
1055_PLUS_B&WFinalShaded 24x36 true.pc3
  4
User1308
  6

 40
14.98600006103515
 41
8.297332763671875
 42
14.9859619140625
 43
8.29736328125
 44
914.357666015625
 45
609.5576782226562
 46
389.578845385832
 47
241.9981361446124
 48
0.0
 49
0.0
140
0.0
141
0.0
142
1.0
143
1.0
 70
  2804
 72
     0
 73
     0
 74
     1
  7
1055B&WFullFinalShaded.ctb
 75
    16
147
1.0
 76
     0
 77
     2
 78
   300
148
-75.74468520391772
149
-27.53050504688192
1001
ACAD_PSEXT
1000
1055_PLUS_B&WFinalShaded 24x36 true.pc3
1000
HP DesignJet 1055CM by HP
1000
FRONT
1000

1070
     0
  0
PLOTSETTINGS
  5
1275
102
{ACAD_REACTORS
330
10BB
102
}
330
10BB
100
AcDbPlotSettings
  1
_1055+ 24x36 True Centered Color
  2
1055_PLUS_ColorDraftShaded 24x36 true.pc3
  4
User1308
  6

 40
14.98600006103515
 41
8.297332763671875
 42
14.9859619140625
 43
8.29736328125
 44
914.3153076171875
 45
609.5153198242187
 46
389.5576661866133
 47
241.9769569453936
 48
0.0
 49
0.0
140
0.0
141
0.0
142
1.0
143
1.0
 70
  2804
 72
     0
 73
     0
 74
     1
  7
1055ColorFullDraftShaded.ctb
 75
    16
147
1.0
 76
     0
 77
     2
 78
   300
148
-75.74468520391772
149
-27.53050504688192
1001
ACAD_PSEXT
1000
1055_PLUS_ColorDraftShaded 24x36 true.pc3
1000
HP DesignJet 1055CM by HP
1000
FRONT
1000

1070
     0
  0
PLOTSETTINGS
  5
1276
102
{ACAD_REACTORS
330
10BB
102
}
330
10BB
100
AcDbPlotSettings
  1
DWF BW 11x17 Fit
  2
DWF-BW_11x17.pc3
  4
UserDefinedImperial (17.00 x 11.00Inches)
  6

 40
0.0
 41
0.0
 42
0.0
 43
0.0
 44
431.7999877929687
 45
279.3999938964844
 46
80.99316641155249
 47
0.000000000000005
 48
0.0
 49
0.0
140
0.0
141
0.0
142
1.0
143
0.3900025492802298
 70
  2740
 72
     0
 73
     0
 74
     1
  7
1055B&WFullFinalShaded.ctb
 75
     0
147
2.564085803658341
 76
     0
 77
     2
 78
   300
148
-75.74468520391772
149
-27.53050504688192
1001
ACAD_PSEXT
1000
DWF-BW_11x17.pc3
1000
DWF eView (optimized for viewing)
1000
File
1000

1070
     0
  0
PLOTSETTINGS
  5
1277
102
{ACAD_REACTORS
330
10BB
102
}
330
10BB
100
AcDbPlotSettings
  1
DWF BW 11x17 Half
  2
DWF-BW_11x17.pc3
  4
UserDefinedImperial (17.00 x 11.00Inches)
  6

 40
0.0
 41
0.0
 42
0.0
 43
0.0
 44
431.7999877929687
 45
279.3999938964844
 46
189.5929905792686
 47
112.4583194761148
 48
0.0
 49
0.0
140
0.0
141
0.0
142
1.0
143
2.0
 70
  2740
 72
     0
 73
     0
 74
     1
  7
1055B&WFullFinalShaded.ctb
 75
    17
147
0.5
 76
     0
 77
     2
 78
   300
148
-75.74468520391772
149
-27.53050504688192
1001
ACAD_PSEXT
1000
DWF-BW_11x17.pc3
1000
DWF eView (optimized for viewing)
1000
File
1000

1070
     0
  0
PLOTSETTINGS
  5
1278
102
{ACAD_REACTORS
330
10BB
102
}
330
10BB
100
AcDbPlotSettings
  1
DWF BW 22x34
  2
DWF-BW_22x34.pc3
  4
UserDefinedImperial (34.00 x 22.00Inches)
  6

 40
0.0
 41
0.0
 42
0.0
 43
0.0
 44
863.5999755859375
 45
558.7999877929687
 46
379.1859811585372
 47
224.9166389522296
 48
0.0
 49
0.0
140
0.0
141
0.0
142
1.0
143
1.0
 70
  2740
 72
     0
 73
     0
 74
     1
  7
1055B&WFullFinalShaded.ctb
 75
    16
147
1.0
 76
     0
 77
     2
 78
   300
148
-75.74468520391772
149
-27.53050504688192
1001
ACAD_PSEXT
1000
DWF-BW_22x34.pc3
1000
DWF eView (optimized for viewing)
1000
File
1000

1070
     0
  0
PLOTSETTINGS
  5
1279
102
{ACAD_REACTORS
330
10BB
102
}
330
10BB
100
AcDbPlotSettings
  1
DWF BW 24x36
  2
DWF-BW_24x36.pc3
  4
UserDefinedImperial (36.00 x 24.00Inches)
  6

 40
0.0
 41
0.0
 42
0.0
 43
0.0
 44
914.4000244140626
 45
609.5999755859375
 46
404.5860055725996
 47
250.3166328487139
 48
0.0
 49
0.0
140
0.0
141
0.0
142
1.0
143
1.0
 70
  2740
 72
     0
 73
     0
 74
     1
  7
1055B&WFullFinalShaded.ctb
 75
    16
147
1.0
 76
     0
 77
     2
 78
   300
148
-75.74468520391772
149
-27.53050504688192
1001
ACAD_PSEXT
1000
DWF-BW_24x36.pc3
1000
DWF eView (optimized for viewing)
1000
File
1000

1070
     0
  0
PLOTSETTINGS
  5
127A
102
{ACAD_REACTORS
330
10BB
102
}
330
10BB
100
AcDbPlotSettings
  1
DWF BW 30x42
  2
DWF-BW_30x42.pc3
  4
UserDefinedImperial (42.00 x 30.00Inches)
  6

 40
0.0
 41
0.0
 42
0.0
 43
0.0
 44
1066.800048828125
 45
762.0
 46
480.7860177796309
 47
326.5166450557452
 48
0.0
 49
0.0
140
0.0
141
0.0
142
1.0
143
1.0
 70
  2740
 72
     0
 73
     0
 74
     1
  7
1055B&WFullFinalShaded.ctb
 75
    16
147
1.0
 76
     0
 77
     2
 78
   300
148
-75.74468520391772
149
-27.53050504688192
1001
ACAD_PSEXT
1000
DWF-BW_30x42.pc3
1000
DWF eView (optimized for viewing)
1000
File
1000

1070
     0
  0
PLOTSETTINGS
  5
127B
102
{ACAD_REACTORS
330
10BB
102
}
330
10BB
100
AcDbPlotSettings
  1
DWF BW 36x48
  2
DWF-BW_36x48.pc3
  4
UserDefinedImperial (48.00 x 36.00Inches)
  6

 40
0.0
 41
0.0
 42
0.0
 43
0.0
 44
1219.199951171875
 45
914.4000244140626
 46
556.9859689515058
 47
402.7166572627765
 48
0.0
 49
0.0
140
0.0
141
0.0
142
1.0
143
1.0
 70
  2740
 72
     0
 73
     0
 74
     1
  7
1055B&WFullFinalShaded.ctb
 75
    16
147
1.0
 76
     0
 77
     2
 78
   300
148
-75.74468520391772
149
-27.53050504688192
1001
ACAD_PSEXT
1000
DWF-BW_36x48.pc3
1000
DWF eView (optimized for viewing)
1000
File
1000

1070
     0
  0
PLOTSETTINGS
  5
127C
102
{ACAD_REACTORS
330
10BB
102
}
330
10BB
100
AcDbPlotSettings
  1
Laser5 11x17 Fit
  2
LaserJet5Shaded.pc3
  4
11x17
  6

 40
5.873749732971191
 41
5.027085304260253
 42
5.873748779296875
 43
5.027069091796875
 44
431.7999877929687
 45
279.3999938964844
 46
79.97401308328474
 47
0.0
 48
0.0
 49
0.0
140
0.0
141
0.0
142
1.0
143
0.4045605831172927
 70
  2740
 72
     0
 73
     0
 74
     1
  7
LaserJet5Shaded.ctb
 75
     0
147
2.471817675104729
 76
     0
 77
     2
 78
   300
148
-75.74468520391772
149
-27.53050504688192
1001
ACAD_PSEXT
1000
LaserJet5Shaded.pc3
1000
HP LaserJet 5Si
1000
\\aqua-srv01
1000

1070
     0
  0
PLOTSETTINGS
  5
127D
102
{ACAD_REACTORS
330
10BB
102
}
330
10BB
100
AcDbPlotSettings
  1
Laser5 11x17 Full
  2
LaserJet5Shaded.pc3
  4
11x17
  6

 40
5.873749732971191
 41
5.027085304260253
 42
5.873748779296875
 43
5.027069091796875
 44
431.7999877929687
 45
279.3999938964844
 46
157.4122380059187
 47
80.18956480595884
 48
0.0
 49
0.0
140
0.0
141
0.0
142
1.0
143
1.0
 70
  2724
 72
     0
 73
     0
 74
     1
  7
LaserJet5Shaded.ctb
 75
     0
147
2.433550528115671
 76
     0
 77
     2
 78
   300
148
-75.74468520391772
149
-27.53050504688192
1001
ACAD_PSEXT
1000
LaserJet5Shaded.pc3
1000
HP LaserJet 5Si
1000
\\aqua-srv01
1000

1070
     0
  0
PLOTSETTINGS
  5
127E
102
{ACAD_REACTORS
330
10BB
102
}
330
10BB
100
AcDbPlotSettings
  1
Laser5 11x17 Half
  2
LaserJet5Shaded.pc3
  4
11x17
  6

 40
5.873749732971191
 41
5.027085304260253
 42
5.873748779296875
 43
5.027069091796875
 44
431.7999877929687
 45
279.3999938964844
 46
183.7192413231345
 47
107.4312422780862
 48
0.0
 49
0.0
140
0.0
141
0.0
142
1.0
143
2.0
 70
  2740
 72
     0
 73
     0
 74
     1
  7
LaserJet5Shaded.ctb
 75
    17
147
0.5
 76
     0
 77
     2
 78
   300
148
-75.74468520391772
149
-27.53050504688192
1001
ACAD_PSEXT
1000
LaserJet5Shaded.pc3
1000
HP LaserJet 5Si
1000
\\aqua-srv01
1000

1070
     0
  0
PLOTSETTINGS
  5
127F
102
{ACAD_REACTORS
330
10BB
102
}
330
10BB
100
AcDbPlotSettings
  1
Laser5 8x11 Fit
  2
LaserJet5Shaded-8x11.pc3
  4
Letter
  6

 40
5.873749732971191
 41
5.027085304260253
 42
5.873748779296875
 43
5.027084350585937
 44
279.3999938964844
 45
215.8999938964844
 46
34.4346667826652
 47
0.0
 48
0.0
 49
0.0
140
0.0
141
0.0
142
1.0
143
0.5293607985003172
 70
  2740
 72
     0
 73
     0
 74
     1
  7
LaserJet5Shaded.ctb
 75
     0
147
1.889070748784206
 76
     0
 77
     2
 78
   300
148
-75.74468520391772
149
-27.53050504688192
1001
ACAD_PSEXT
1000
LaserJet5Shaded-8x11.pc3
1000
HP LaserJet 5Si
1000
\\aqua-srv01
1000

1070
     0
  0
PLOTSETTINGS
  5
1280
102
{ACAD_REACTORS
330
10BB
102
}
330
10BB
100
AcDbPlotSettings
  1
Laser5 8x11 Half
  2
LaserJet5Shaded-8x11.pc3
  4
Letter
  6

 40
5.873749732971191
 41
5.027085304260253
 42
5.873748779296875
 43
5.027084350585937
 44
279.3999938964844
 45
215.8999938964844
 46
107.5192443748923
 47
75.68123464869171
 48
0.0
 49
0.0
140
0.0
141
0.0
142
1.0
143
2.0
 70
  2740
 72
     0
 73
     0
 74
     1
  7
LaserJet5Shaded.ctb
 75
    17
147
0.5
 76
     0
 77
     2
 78
   300
148
-75.74468520391772
149
-27.53050504688192
1001
ACAD_PSEXT
1000
LaserJet5Shaded-8x11.pc3
1000
HP LaserJet 5Si
1000
\\aqua-srv01
1000

1070
     0
  0
PLOTSETTINGS
  5
1281
102
{ACAD_REACTORS
330
10BB
102
}
330
10BB
100
AcDbPlotSettings
  1
Laser5 8x11 Portrait Fit
  2
LaserJet5Shaded-8x11.pc3
  4
Letter
  6

 40
5.873749732971191
 41
5.027085304260253
 42
5.873748779296875
 43
5.027084350585937
 44
279.3999938964844
 45
215.8999938964844
 46
27.24653799736659
 47
0.0000000000000029
 48
0.0
 49
0.0
140
0.0
141
0.0
142
1.0
143
0.5111981924167587
 70
  2740
 72
     0
 73
     1
 74
     1
  7
LaserJet5Shaded.ctb
 75
     0
147
1.956188450652308
 76
     0
 77
     2
 78
   300
148
-75.74468520391772
149
-27.53050504688192
1001
ACAD_PSEXT
1000
LaserJet5Shaded-8x11.pc3
1000
HP LaserJet 5Si
1000
\\aqua-srv01
1000

1070
     0
  0
PLOTSETTINGS
  5
1282
102
{ACAD_REACTORS
330
10BB
102
}
330
10BB
100
AcDbPlotSettings
  1
LaserJet5 11x17
  2
LaserJet5Shaded.pc3
  4
11x17
  6

 40
7.111999988555908
 41
5.079999923706054
 42
7.11199951171875
 43
5.079986572265625
 44
279.3999938964844
 45
431.7999877929687
 46
0.0
 47
74.88489939702606
 48
0.0
 49
0.0
140
0.0
141
0.0
142
1.0
143
0.3551636250563743
 70
 11956
 72
     0
 73
     1
 74
     1
  7
LaserJet5Shaded.ctb
 75
     0
147
2.815603652658045
 76
     0
 77
     2
 78
   300
148
-119.4582094169044
149
-58.17053554795709
1001
ACAD_PSEXT
1000
LaserJet5Shaded.pc3
1000
HP LaserJet 5Si
1000
\\aqua-srv01
1000

1070
     0
  0
PLOTSETTINGS
  5
1283
102
{ACAD_REACTORS
330
10BB
102
}
330
10BB
100
AcDbPlotSettings
  1
LaserJet5 8.5x11
  2
LaserJet5Shaded-8x11.pc3
  4
Letter
  6

 40
5.873749732971191
 41
5.873734951019287
 42
6.55108642578125
 43
5.027084350585937
 44
279.3999938964844
 45
215.8999938964844
 46
28.40045128601757
 47
0.0000000000000046
 48
0.0
 49
0.0
140
0.0
141
0.0
142
1.0
143
0.4594207153946231
 70
 11956
 72
     0
 73
     0
 74
     1
  7
LaserJet5Shaded.ctb
 75
     0
147
2.176654135286525
 76
     0
 77
     2
 78
   300
148
-119.4582094169044
149
-58.17053554795709
1001
ACAD_PSEXT
1000
LaserJet5Shaded-8x11.pc3
1000
HP LaserJet 5Si
1000
CAD Area
1000

1070
     0
  0
PLOTSETTINGS
  5
1284
102
{ACAD_REACTORS
330
10BB
102
}
330
10BB
100
AcDbPlotSettings
  1
Oki9500 11x17 BW Fit
  2
OKI DOKI Color Laser.pc3
  4
Tabloid
  6

 40
5.027083396911621
 41
5.027085304260253
 42
5.027099609375
 43
5.027069091796875
 44
431.7999877929687
 45
279.3999938964844
 46
80.82067083627547
 47
0.0
 48
0.0
 49
0.0
140
0.0
141
0.0
142
1.0
143
0.4045605831172927
 70
  2740
 72
     0
 73
     0
 74
     1
  7
OKIB&WShaded.ctb
 75
     0
147
2.471817675104729
 76
     0
 77
     2
 78
   300
148
-75.74468520391772
149
-27.53050504688192
1001
ACAD_PSEXT
1000
OKI DOKI Color Laser.pc3
1000
OKI C9500(PCL)
1000
FRONT
1000

1070
     0
  0
PLOTSETTINGS
  5
1285
102
{ACAD_REACTORS
330
10BB
102
}
330
10BB
100
AcDbPlotSettings
  1
Oki9500 11x17 BW Full
  2
OKI DOKI Color Laser.pc3
  4
Tabloid
  6

 40
5.027083396911621
 41
5.027085304260253
 42
5.027099609375
 43
5.027069091796875
 44
431.7999877929687
 45
279.3999938964844
 46
158.2588957589094
 47
80.18956480595884
 48
0.0
 49
0.0
140
0.0
141
0.0
142
1.0
143
1.0
 70
  2724
 72
     0
 73
     0
 74
     1
  7
OKIB&WShaded.ctb
 75
     0
147
2.471817675104729
 76
     0
 77
     2
 78
   300
148
-75.74468520391772
149
-27.53050504688192
1001
ACAD_PSEXT
1000
OKI DOKI Color Laser.pc3
1000
OKI C9500(PCL)
1000
FRONT
1000

1070
     0
  0
PLOTSETTINGS
  5
1286
102
{ACAD_REACTORS
330
10BB
102
}
330
10BB
100
AcDbPlotSettings
  1
Oki9500 11x17 BW Half
  2
OKI DOKI Color Laser.pc3
  4
Tabloid
  6

 40
5.027083396911621
 41
5.027085304260253
 42
5.027099609375
 43
5.027069091796875
 44
431.7999877929687
 45
279.3999938964844
 46
184.5658990761252
 47
107.4312422780862
 48
0.0
 49
0.0
140
0.0
141
0.0
142
1.0
143
2.0
 70
  2740
 72
     0
 73
     0
 74
     1
  7
OKIB&WShaded.ctb
 75
    17
147
0.5
 76
     0
 77
     2
 78
   300
148
-75.74468520391772
149
-27.53050504688192
1001
ACAD_PSEXT
1000
OKI DOKI Color Laser.pc3
1000
OKI C9500(PCL)
1000
FRONT
1000

1070
     0
  0
PLOTSETTINGS
  5
1287
102
{ACAD_REACTORS
330
10BB
102
}
330
10BB
100
AcDbPlotSettings
  1
Oki9500 11x17 Color Fit
  2
OKI DOKI Color Laser.pc3
  4
Tabloid
  6

 40
5.027083396911621
 41
5.027085304260253
 42
5.027099609375
 43
5.027069091796875
 44
431.7999877929687
 45
279.3999938964844
 46
80.82067083627547
 47
0.0
 48
0.0
 49
0.0
140
0.0
141
0.0
142
1.0
143
0.4045605831172927
 70
  2740
 72
     0
 73
     0
 74
     1
  7
OKIColorShaded.ctb
 75
     0
147
2.471817675104729
 76
     0
 77
     2
 78
   300
148
-75.74468520391772
149
-27.53050504688192
1001
ACAD_PSEXT
1000
OKI DOKI Color Laser.pc3
1000
OKI C9500(PCL)
1000
FRONT
1000

1070
     0
  0
PLOTSETTINGS
  5
1288
102
{ACAD_REACTORS
330
10BB
102
}
330
10BB
100
AcDbPlotSettings
  1
Oki9500 11x17 Color Full
  2
OKI DOKI Color Laser.pc3
  4
Tabloid
  6

 40
5.027082920074462
 41
5.027085781097412
 42
5.027099609375
 43
5.027069091796875
 44
431.7999877929687
 45
279.3999938964844
 46
158.258895997328
 47
80.18956456754025
 48
0.0
 49
0.0
140
0.0
141
0.0
142
1.0
143
1.0
 70
  2724
 72
     0
 73
     0
 74
     1
  7
OKIColorShaded.ctb
 75
     0
147
2.471817675104729
 76
     0
 77
     2
 78
   300
148
-75.74468520391772
149
-27.53050504688192
1001
ACAD_PSEXT
1000
OKI DOKI Color Laser.pc3
1000
OKI C9600(PCL)
1000
FRONT
1000

1070
     0
  0
PLOTSETTINGS
  5
1289
102
{ACAD_REACTORS
330
10BB
102
}
330
10BB
100
AcDbPlotSettings
  1
Oki9500 11x17 Color Half
  2
OKI DOKI Color Laser.pc3
  4
Tabloid
  6

 40
5.027083396911621
 41
5.027085304260253
 42
5.027099609375
 43
5.027069091796875
 44
431.7999877929687
 45
279.3999938964844
 46
184.5658990761252
 47
107.4312422780862
 48
0.0
 49
0.0
140
0.0
141
0.0
142
1.0
143
2.0
 70
  2740
 72
     0
 73
     0
 74
     1
  7
OKIColorShaded.ctb
 75
    17
147
0.5
 76
     0
 77
     2
 78
   300
148
-75.74468520391772
149
-27.53050504688192
1001
ACAD_PSEXT
1000
OKI DOKI Color Laser.pc3
1000
OKI C9500(PCL)
1000
FRONT
1000

1070
     0
  0
PLOTSETTINGS
  5
128A
102
{ACAD_REACTORS
330
10BB
102
}
330
10BB
100
AcDbPlotSettings
  1
Oki9500 8x11 BW Fit
  2
OKI DOKI Color Laser8x11.pc3
  4
Letter
  6

 40
5.027083396911621
 41
5.027085304260253
 42
5.027099609375
 43
5.027084350585937
 44
279.3999938964844
 45
215.8999938964844
 46
35.28132453565591
 47
0.0
 48
0.0
 49
0.0
140
0.0
141
0.0
142
1.0
143
0.5293607985003172
 70
  2740
 72
     0
 73
     0
 74
     1
  7
OKIB&WShaded.ctb
 75
     0
147
1.889070748784206
 76
     0
 77
     2
 78
   300
148
-75.74468520391772
149
-27.53050504688192
1001
ACAD_PSEXT
1000
OKI DOKI Color Laser8x11.pc3
1000
OKI C9500(PCL)
1000
FRONT
1000

1070
     0
  0
PLOTSETTINGS
  5
128B
102
{ACAD_REACTORS
330
10BB
102
}
330
10BB
100
AcDbPlotSettings
  1
Oki9500 8x11 BW Portrait Fit
  2
OKI DOKI Color Laser8x11.pc3
  4
Letter
  6

 40
5.027083396911621
 41
5.027085304260253
 42
5.027099609375
 43
5.027084350585937
 44
279.3999938964844
 45
215.8999938964844
 46
28.0931957503573
 47
0.0000000000000029
 48
0.0
 49
0.0
140
0.0
141
0.0
142
1.0
143
0.5111981924167587
 70
  2740
 72
     0
 73
     1
 74
     1
  7
OKIB&WShaded.ctb
 75
     0
147
1.956188450652308
 76
     0
 77
     2
 78
   300
148
-75.74468520391772
149
-27.53050504688192
1001
ACAD_PSEXT
1000
OKI DOKI Color Laser8x11.pc3
1000
OKI C9500(PCL)
1000
FRONT
1000

1070
     0
  0
PLOTSETTINGS
  5
128C
102
{ACAD_REACTORS
330
10BB
102
}
330
10BB
100
AcDbPlotSettings
  1
Oki9500 8x11 Color Fit
  2
OKI DOKI Color Laser8x11.pc3
  4
Letter
  6

 40
5.027083396911621
 41
5.027085304260253
 42
5.027099609375
 43
5.027084350585937
 44
279.3999938964844
 45
215.8999938964844
 46
35.28132453565591
 47
0.0
 48
0.0
 49
0.0
140
0.0
141
0.0
142
1.0
143
0.5293607985003172
 70
  2740
 72
     0
 73
     0
 74
     1
  7
OKIColorShaded.ctb
 75
     0
147
1.889070748784206
 76
     0
 77
     2
 78
   300
148
-75.74468520391772
149
-27.53050504688192
1001
ACAD_PSEXT
1000
OKI DOKI Color Laser8x11.pc3
1000
OKI C9500(PCL)
1000
FRONT
1000

1070
     0
  0
PLOTSETTINGS
  5
128D
102
{ACAD_REACTORS
330
10BB
102
}
330
10BB
100
AcDbPlotSettings
  1
Oki9500 8x11 Color Portrait Fit
  2
OKI DOKI Color Laser8x11.pc3
  4
Letter
  6

 40
5.027083396911621
 41
5.027085304260253
 42
5.027099609375
 43
5.027084350585937
 44
279.3999938964844
 45
215.8999938964844
 46
28.0931957503573
 47
0.0000000000000029
 48
0.0
 49
0.0
140
0.0
141
0.0
142
1.0
143
0.5111981924167587
 70
  2740
 72
     0
 73
     1
 74
     1
  7
OKIColorShaded.ctb
 75
     0
147
1.956188450652308
 76
     0
 77
     2
 78
   300
148
-75.74468520391772
149
-27.53050504688192
1001
ACAD_PSEXT
1000
OKI DOKI Color Laser8x11.pc3
1000
OKI C9500(PCL)
1000
FRONT
1000

1070
     0
  0
PLOTSETTINGS
  5
128E
102
{ACAD_REACTORS
330
10BB
102
}
330
10BB
100
AcDbPlotSettings
  1
OKI9500 B&W 11x17
  2
OKI DOKI Color Laser.pc3
  4
11x17
  6

 40
5.873749732971191
 41
5.873734951019287
 42
5.873748779296875
 43
5.027069091796875
 44
431.7999877929687
 45
279.3999938964844
 46
72.38759962724653
 47
0.0000000000000057
 48
0.0
 49
0.0
140
0.0
141
0.0
142
1.0
143
0.3507677900220671
 70
 11956
 72
     0
 73
     0
 74
     1
  7
OKIB&WShaded.ctb
 75
     0
147
2.850888902704233
 76
     0
 77
     2
 78
   300
148
-119.4582094169044
149
-58.17053554795709
1001
ACAD_PSEXT
1000
OKI DOKI Color Laser.pc3
1000
HP LaserJet 5Si
1000
CAD Area
1000

1070
     0
  0
PLOTSETTINGS
  5
128F
102
{ACAD_REACTORS
330
10BB
102
}
330
10BB
100
AcDbPlotSettings
  1
OKI9500 B&W 8.5x11
  2
OKI DOKI Color Laser8x11.pc3
  4
Letter
  6

 40
5.873749732971191
 41
5.873734951019287
 42
6.55108642578125
 43
5.027084350585937
 44
279.3999938964844
 45
215.8999938964844
 46
28.40045128601757
 47
0.0000000000000046
 48
0.0
 49
0.0
140
0.0
141
0.0
142
1.0
143
0.4594207153946231
 70
 11956
 72
     0
 73
     0
 74
     1
  7
OKIB&WShaded.ctb
 75
     0
147
2.176654135286525
 76
     0
 77
     2
 78
   300
148
-119.4582094169044
149
-58.17053554795709
1001
ACAD_PSEXT
1000
OKI DOKI Color Laser8x11.pc3
1000
HP LaserJet 5Si
1000
CAD Area
1000

1070
     0
  0
PLOTSETTINGS
  5
1290
102
{ACAD_REACTORS
330
10BB
102
}
330
10BB
100
AcDbPlotSettings
  1
OKI9500 Color 11x17
  2
OKI DOKI Color Laser.pc3
  4
Tabloid
  6

 40
5.027083396911621
 41
5.027085304260253
 42
5.027099609375
 43
5.027069091796875
 44
431.7999877929687
 45
279.3999938964844
 46
72.80024597690952
 47
0.0
 48
0.0
 49
0.0
140
0.0
141
0.0
142
1.0
143
0.349665202263268
 70
 11956
 72
     0
 73
     0
 74
     1
  7
OKIColorShaded.ctb
 75
     0
147
2.859878516727796
 76
     0
 77
     2
 78
   300
148
-119.4582094169044
149
-58.17053554795709
1001
ACAD_PSEXT
1000
OKI DOKI Color Laser.pc3
1000
OKI C9500(PCL)
1000
FRONT
1000

1070
     0
  0
PLOTSETTINGS
  5
1291
102
{ACAD_REACTORS
330
10BB
102
}
330
10BB
100
AcDbPlotSettings
  1
OKI9500 Color 8.5x11
  2
OKI DOKI Color Laser8x11.pc3
  4
Letter
  6

 40
5.873749732971191
 41
5.873734951019287
 42
6.55108642578125
 43
5.027084350585937
 44
279.3999938964844
 45
215.8999938964844
 46
28.40045128601757
 47
0.0000000000000046
 48
0.0
 49
0.0
140
0.0
141
0.0
142
1.0
143
0.4594207153946231
 70
 11956
 72
     0
 73
     0
 74
     1
  7
OKIColorShaded.ctb
 75
     0
147
2.176654135286525
 76
     0
 77
     2
 78
   300
148
-119.4582094169044
149
-58.17053554795709
1001
ACAD_PSEXT
1000
OKI DOKI Color Laser8x11.pc3
1000
HP LaserJet 5Si
1000
CAD Area
1000

1070
     0
  0
PLOTSETTINGS
  5
1292
102
{ACAD_REACTORS
330
10BB
102
}
330
10BB
100
AcDbPlotSettings
  1
Oki9600 11x17 BW Fit
  2
9600 BW 11x17.pc3
  4
Tabloid
  6

 40
5.027082920074462
 41
5.027085781097412
 42
5.027099609375
 43
5.027069091796875
 44
431.7999877929687
 45
279.3999938964844
 46
80.82067130493244
 47
0.000000000000007
 48
0.0
 49
0.0
140
0.0
141
0.0
142
1.0
143
0.4045605838335077
 70
  2804
 72
     0
 73
     0
 74
     1
  7
OKIB&WShaded.ctb
 75
     0
147
2.47181767072874
 76
     0
 77
     2
 78
   300
148
-75.74468520391772
149
-27.53050504688192
1001
ACAD_PSEXT
1000
9600 BW 11x17.pc3
1000
OKI C9600(PCL)
1000
Expansion Area
1000

1070
     0
  0
PLOTSETTINGS
  5
1293
102
{ACAD_REACTORS
330
10BB
102
}
330
10BB
100
AcDbPlotSettings
  1
Oki9600 11x17 BW Full
  2
9600 BW 11x17.pc3
  4
Tabloid
  6

 40
5.027082920074462
 41
5.027085781097412
 42
5.027099609375
 43
5.027069091796875
 44
431.7999877929687
 45
279.3999938964844
 46
158.258895997328
 47
80.18956456754025
 48
0.0
 49
0.0
140
0.0
141
0.0
142
1.0
143
1.0
 70
  2788
 72
     0
 73
     0
 74
     1
  7
OKIB&WShaded.ctb
 75
     0
147
2.47181767072874
 76
     0
 77
     2
 78
   300
148
-75.74468520391772
149
-27.53050504688192
1001
ACAD_PSEXT
1000
9600 BW 11x17.pc3
1000
OKI C9600(PCL)
1000
Expansion Area
1000

1070
     0
  0
PLOTSETTINGS
  5
1294
102
{ACAD_REACTORS
330
10BB
102
}
330
10BB
100
AcDbPlotSettings
  1
Oki9600 11x17 BW Half
  2
9600 BW 11x17.pc3
  4
Tabloid
  6

 40
5.027082920074462
 41
5.027085781097412
 42
5.027099609375
 43
5.027069091796875
 44
431.7999877929687
 45
279.3999938964844
 46
184.5658993145439
 47
107.4312420396676
 48
0.0
 49
0.0
140
0.0
141
0.0
142
1.0
143
2.0
 70
  2788
 72
     0
 73
     0
 74
     1
  7
OKIB&WShaded.ctb
 75
     0
147
2.47181767072874
 76
     0
 77
     2
 78
   300
148
-75.74468520391772
149
-27.53050504688192
1001
ACAD_PSEXT
1000
9600 BW 11x17.pc3
1000
OKI C9600(PCL)
1000
Expansion Area
1000

1070
     0
  0
PLOTSETTINGS
  5
1295
102
{ACAD_REACTORS
330
10BB
102
}
330
10BB
100
AcDbPlotSettings
  1
Oki9600 11x17 Color Fit
  2
9600 Color 11x17.pc3
  4
Tabloid
  6

 40
5.027082920074462
 41
5.027085781097412
 42
5.027099609375
 43
5.027069091796875
 44
431.7999877929687
 45
279.3999938964844
 46
80.82067130493244
 47
0.000000000000007
 48
0.0
 49
0.0
140
0.0
141
0.0
142
1.0
143
0.4045605838335077
 70
  2804
 72
     0
 73
     0
 74
     1
  7
OKIColorShaded.ctb
 75
     0
147
2.47181767072874
 76
     0
 77
     2
 78
   300
148
-75.74468520391772
149
-27.53050504688192
1001
ACAD_PSEXT
1000
9600 Color 11x17.pc3
1000
OKI C9600(PCL)
1000
Expansion Area
1000

1070
     0
  0
PLOTSETTINGS
  5
1296
102
{ACAD_REACTORS
330
10BB
102
}
330
10BB
100
AcDbPlotSettings
  1
Oki9600 11x17 Color Full
  2
9600 Color 11x17.pc3
  4
Tabloid
  6

 40
5.027082920074462
 41
5.027085781097412
 42
5.027099609375
 43
5.027069091796875
 44
431.7999877929687
 45
279.3999938964844
 46
158.258895997328
 47
80.18956456754025
 48
0.0
 49
0.0
140
0.0
141
0.0
142
1.0
143
1.0
 70
  2788
 72
     0
 73
     0
 74
     1
  7
OKIColorShaded.ctb
 75
     0
147
2.47181767072874
 76
     0
 77
     2
 78
   300
148
-75.74468520391772
149
-27.53050504688192
1001
ACAD_PSEXT
1000
9600 Color 11x17.pc3
1000
OKI C9600(PCL)
1000
Expansion Area
1000

1070
     0
  0
PLOTSETTINGS
  5
1297
102
{ACAD_REACTORS
330
10BB
102
}
330
10BB
100
AcDbPlotSettings
  1
Oki9600 11x17 Color Half
  2
9600 Color 11x17.pc3
  4
Tabloid
  6

 40
5.027082920074462
 41
5.027085781097412
 42
5.027099609375
 43
5.027069091796875
 44
431.7999877929687
 45
279.3999938964844
 46
184.5658993145439
 47
107.4312420396676
 48
0.0
 49
0.0
140
0.0
141
0.0
142
1.0
143
2.0
 70
  2788
 72
     0
 73
     0
 74
     1
  7
OKIColorShaded.ctb
 75
     0
147
2.47181767072874
 76
     0
 77
     2
 78
   300
148
-75.74468520391772
149
-27.53050504688192
1001
ACAD_PSEXT
1000
9600 Color 11x17.pc3
1000
OKI C9600(PCL)
1000
Expansion Area
1000

1070
     0
  0
PLOTSETTINGS
  5
1298
102
{ACAD_REACTORS
330
10BB
102
}
330
10BB
100
AcDbPlotSettings
  1
Oki9600 8x11 BW Fit
  2
9600 BW 8.5x11.pc3
  4
Letter
  6

 40
5.027082920074462
 41
5.027070522308349
 42
5.027099609375
 43
5.027084350585937
 44
279.3999938964844
 45
215.8999938964844
 46
35.28131763668624
 47
0.0000000000000033
 48
0.0
 49
0.0
140
0.0
141
0.0
142
1.0
143
0.5293607604865011
 70
  2804
 72
     0
 73
     0
 74
     1
  7
OKIB&WShaded.ctb
 75
     0
147
1.889070884439876
 76
     0
 77
     2
 78
   300
148
-75.74468520391772
149
-27.53050504688192
1001
ACAD_PSEXT
1000
9600 BW 8.5x11.pc3
1000
OKI C9600(PCL)
1000
Expansion Area
1000

1070
     0
  0
PLOTSETTINGS
  5
1299
102
{ACAD_REACTORS
330
10BB
102
}
330
10BB
100
AcDbPlotSettings
  1
Oki9600 8x11 BW Portrait Fit
  2
9600 BW 8.5x11.pc3
  4
Letter
  6

 40
5.027082920074462
 41
5.027070522308349
 42
5.027099609375
 43
5.027084350585937
 44
279.3999938964844
 45
215.8999938964844
 46
28.09318833520237
 47
-0.0000000000000029
 48
0.0
 49
0.0
140
0.0
141
0.0
142
1.0
143
0.5111981557072135
 70
  2804
 72
     0
 73
     1
 74
     1
  7
OKIB&WShaded.ctb
 75
     0
147
1.956188591127753
 76
     0
 77
     2
 78
   300
148
-75.74468520391772
149
-27.53050504688192
1001
ACAD_PSEXT
1000
9600 BW 8.5x11.pc3
1000
OKI C9600(PCL)
1000
Expansion Area
1000

1070
     0
  0
PLOTSETTINGS
  5
129A
102
{ACAD_REACTORS
330
10BB
102
}
330
10BB
100
AcDbPlotSettings
  1
Oki9600 8x11 Color Fit
  2
9600 Color 8.5x11.pc3
  4
Letter
  6

 40
5.027082920074462
 41
5.027070522308349
 42
5.027099609375
 43
5.027084350585937
 44
279.3999938964844
 45
215.8999938964844
 46
35.28131763668624
 47
0.0000000000000033
 48
0.0
 49
0.0
140
0.0
141
0.0
142
1.0
143
0.5293607604865011
 70
  2804
 72
     0
 73
     0
 74
     1
  7
OKIColorShaded.ctb
 75
     0
147
1.889070884439876
 76
     0
 77
     2
 78
   300
148
-75.74468520391772
149
-27.53050504688192
1001
ACAD_PSEXT
1000
9600 Color 8.5x11.pc3
1000
OKI C9600(PCL)
1000
Expansion Area
1000

1070
     0
  0
PLOTSETTINGS
  5
129B
102
{ACAD_REACTORS
330
10BB
102
}
330
10BB
100
AcDbPlotSettings
  1
Oki9600 8x11 Color Portrait Fit
  2
9600 Color 8.5x11.pc3
  4
Letter
  6

 40
5.027082920074462
 41
5.027070522308349
 42
5.027099609375
 43
5.027084350585937
 44
279.3999938964844
 45
215.8999938964844
 46
28.09318833520237
 47
-0.0000000000000029
 48
0.0
 49
0.0
140
0.0
141
0.0
142
1.0
143
0.5111981557072135
 70
  2804
 72
     0
 73
     1
 74
     1
  7
OKIColorShaded.ctb
 75
     0
147
1.956188591127753
 76
     0
 77
     2
 78
   300
148
-75.74468520391772
149
-27.53050504688192
1001
ACAD_PSEXT
1000
9600 Color 8.5x11.pc3
1000
OKI C9600(PCL)
1000
Expansion Area
1000

1070
     0
  0
PLOTSETTINGS
  5
129C
102
{ACAD_REACTORS
330
10BB
102
}
330
10BB
100
AcDbPlotSettings
  1
OKI9600 B&W 11x17
  2
9600 BW 11x17.pc3
  4
Tabloid
  6

 40
5.027082920074462
 41
5.027085781097412
 42
5.027099609375
 43
5.027069091796875
 44
431.7999877929687
 45
279.3999938964844
 46
72.80024645976547
 47
-0.0000000000000027
 48
0.0
 49
0.0
140
0.0
141
0.0
142
1.0
143
0.3496652028822988
 70
 11956
 72
     0
 73
     0
 74
     1
  7
OKIB&WShaded.ctb
 75
     0
147
2.859878511664802
 76
     0
 77
     2
 78
   300
148
-119.4582094169044
149
-58.17053554795709
1001
ACAD_PSEXT
1000
9600 BW 11x17.pc3
1000
OKI C9600(PCL)
1000
Expansion Area
1000

1070
     0
  0
PLOTSETTINGS
  5
129D
102
{ACAD_REACTORS
330
10BB
102
}
330
10BB
100
AcDbPlotSettings
  1
OKI9600 B&W 8.5x11
  2
9600 BW 8.5x11.pc3
  4
Letter
  6

 40
5.027082920074462
 41
5.027070522308349
 42
5.027099609375
 43
5.027084350585937
 44
279.3999938964844
 45
215.8999938964844
 46
29.15175911978468
 47
0.0000000000000065
 48
0.0
 49
0.0
140
0.0
141
0.0
142
1.0
143
0.4575310722549676
 70
 11956
 72
     0
 73
     0
 74
     1
  7
OKIB&WShaded.ctb
 75
     0
147
2.185643906262899
 76
     0
 77
     2
 78
   300
148
-119.4582094169044
149
-58.17053554795709
1001
ACAD_PSEXT
1000
9600 BW 8.5x11.pc3
1000
OKI C9600(PCL)
1000
Expansion Area
1000

1070
     0
  0
PLOTSETTINGS
  5
129E
102
{ACAD_REACTORS
330
10BB
102
}
330
10BB
100
AcDbPlotSettings
  1
OKI9600 Color 11x17
  2
9600 Color 11x17.pc3
  4
Tabloid
  6

 40
5.027082920074462
 41
5.027085781097412
 42
5.027099609375
 43
5.027069091796875
 44
431.7999877929687
 45
279.3999938964844
 46
72.80024645976547
 47
-0.0000000000000027
 48
0.0
 49
0.0
140
0.0
141
0.0
142
1.0
143
0.3496652028822988
 70
 11956
 72
     0
 73
     0
 74
     1
  7
OKIColorShaded.ctb
 75
     0
147
2.859878511664802
 76
     0
 77
     2
 78
   300
148
-119.4582094169044
149
-58.17053554795709
1001
ACAD_PSEXT
1000
9600 Color 11x17.pc3
1000
OKI C9600(PCL)
1000
Expansion Area
1000

1070
     0
  0
PLOTSETTINGS
  5
129F
102
{ACAD_REACTORS
330
10BB
102
}
330
10BB
100
AcDbPlotSettings
  1
OKI9600 Color 8.5x11
  2
9600 Color 8.5x11.pc3
  4
Letter
  6

 40
5.027082920074462
 41
5.027070522308349
 42
5.027099609375
 43
5.027084350585937
 44
279.3999938964844
 45
215.8999938964844
 46
29.15175911978468
 47
0.0000000000000065
 48
0.0
 49
0.0
140
0.0
141
0.0
142
1.0
143
0.4575310722549676
 70
 11956
 72
     0
 73
     0
 74
     1
  7
OKIColorShaded.ctb
 75
     0
147
2.185643906262899
 76
     0
 77
     2
 78
   300
148
-119.4582094169044
149
-58.17053554795709
1001
ACAD_PSEXT
1000
9600 Color 8.5x11.pc3
1000
OKI C9600(PCL)
1000
Expansion Area
1000

1070
     0
  0
PLOTSETTINGS
  5
12A0
102
{ACAD_REACTORS
330
10BB
102
}
330
10BB
100
AcDbPlotSettings
  1
PHX Kyocera 11x17 Fit
  2
PHX_Kyocera.pc3
  4
Tabloid
  6

 40
4.984749794006347
 41
5.069418907165527
 42
5.069427490234375
 43
4.9847412109375
 44
431.7999877929687
 45
279.3999938964844
 46
80.8206764601584
 47
-0.0000000000000226
 48
0.0
 49
0.0
140
0.0
141
0.0
142
1.0
143
0.4045605917118723
 70
  2740
 72
     0
 73
     0
 74
     1
  7
LaserJet5Shaded.ctb
 75
     0
147
2.471817622592858
 76
     0
 77
     2
 78
   300
148
-75.74468520391772
149
-27.53050504688192
1001
ACAD_PSEXT
1000
PHX_Kyocera.pc3
1000
Kyocera Mita KM-2050 KX
1000
Arizona
1000

1070
     0
  0
PLOTSETTINGS
  5
12A1
102
{ACAD_REACTORS
330
10BB
102
}
330
10BB
100
AcDbPlotSettings
  1
PHX Oki9500 11x17 BW Fit
  2
PHX OKI BW.pc3
  4
Tabloid
  6

 40
5.027082920074462
 41
5.027085781097412
 42
5.027099609375
 43
5.027069091796875
 44
431.7999877929687
 45
279.3999938964844
 46
80.82067130493246
 47
0.0
 48
0.0
 49
0.0
140
0.0
141
0.0
142
1.0
143
0.4045605838335077
 70
  2740
 72
     0
 73
     0
 74
     1
  7
OKIB&WShaded.ctb
 75
     0
147
2.47181767072874
 76
     0
 77
     2
 78
   300
148
-75.74468520391772
149
-27.53050504688192
1001
ACAD_PSEXT
1000
PHX OKI BW.pc3
1000
OKI C9500(PCL)
1000
Arizona
1000

1070
     0
  0
PLOTSETTINGS
  5
12A2
102
{ACAD_REACTORS
330
10BB
102
}
330
10BB
100
AcDbPlotSettings
  1
PHX Oki9500 11x17 BW Half
  2
PHX OKI BW.pc3
  4
Tabloid
  6

 40
5.027082920074462
 41
5.027085781097412
 42
5.027099609375
 43
5.027069091796875
 44
431.7999877929687
 45
279.3999938964844
 46
184.5658993145439
 47
107.4312420396676
 48
0.0
 49
0.0
140
0.0
141
0.0
142
1.0
143
2.0
 70
  2724
 72
     0
 73
     0
 74
     1
  7
OKIB&WShaded.ctb
 75
     0
147
2.47181767072874
 76
     0
 77
     2
 78
   300
148
-75.74468520391772
149
-27.53050504688192
1001
ACAD_PSEXT
1000
PHX OKI BW.pc3
1000
OKI C9500(PCL)
1000
Arizona
1000

1070
     0
  0
ACDBPLACEHOLDER
  5
10B2
102
{ACAD_REACTORS
330
10B1
102
}
330
10B1
  0
SCALE
  5
1220
102
{ACAD_REACTORS
330
121F
102
}
330
121F
100
AcDbScale
 70
     0
300
1:1
140
1.0
141
1.0
290
     1
  0
SCALE
  5
1221
102
{ACAD_REACTORS
330
121F
102
}
330
121F
100
AcDbScale
 70
     0
300
1:2
140
1.0
141
2.0
290
     0
  0
SCALE
  5
1222
102
{ACAD_REACTORS
330
121F
102
}
330
121F
100
AcDbScale
 70
     0
300
1:4
140
1.0
141
4.0
290
     0
  0
SCALE
  5
1223
102
{ACAD_REACTORS
330
121F
102
}
330
121F
100
AcDbScale
 70
     0
300
1:5
140
1.0
141
5.0
290
     0
  0
SCALE
  5
1224
102
{ACAD_REACTORS
330
121F
102
}
330
121F
100
AcDbScale
 70
     0
300
1:8
140
1.0
141
8.0
290
     0
  0
SCALE
  5
1225
102
{ACAD_REACTORS
330
121F
102
}
330
121F
100
AcDbScale
 70
     0
300
1:10
140
1.0
141
10.0
290
     0
  0
SCALE
  5
1226
102
{ACAD_REACTORS
330
121F
102
}
330
121F
100
AcDbScale
 70
     0
300
1:16
140
1.0
141
16.0
290
     0
  0
SCALE
  5
1227
102
{ACAD_REACTORS
330
121F
102
}
330
121F
100
AcDbScale
 70
     0
300
1:20
140
1.0
141
20.0
290
     0
  0
SCALE
  5
1228
102
{ACAD_REACTORS
330
121F
102
}
330
121F
100
AcDbScale
 70
     0
300
1:30
140
1.0
141
30.0
290
     0
  0
SCALE
  5
1229
102
{ACAD_REACTORS
330
121F
102
}
330
121F
100
AcDbScale
 70
     0
300
1:40
140
1.0
141
40.0
290
     0
  0
SCALE
  5
122A
102
{ACAD_REACTORS
330
121F
102
}
330
121F
100
AcDbScale
 70
     0
300
1:50
140
1.0
141
50.0
290
     0
  0
SCALE
  5
122B
102
{ACAD_REACTORS
330
121F
102
}
330
121F
100
AcDbScale
 70
     0
300
1:100
140
1.0
141
100.0
290
     0
  0
SCALE
  5
122C
102
{ACAD_REACTORS
330
121F
102
}
330
121F
100
AcDbScale
 70
     0
300
2:1
140
2.0
141
1.0
290
     0
  0
SCALE
  5
122D
102
{ACAD_REACTORS
330
121F
102
}
330
121F
100
AcDbScale
 70
     0
300
4:1
140
4.0
141
1.0
290
     0
  0
SCALE
  5
122E
102
{ACAD_REACTORS
330
121F
102
}
330
121F
100
AcDbScale
 70
     0
300
8:1
140
8.0
141
1.0
290
     0
  0
SCALE
  5
122F
102
{ACAD_REACTORS
330
121F
102
}
330
121F
100
AcDbScale
 70
     0
300
10:1
140
10.0
141
1.0
290
     0
  0
SCALE
  5
1230
102
{ACAD_REACTORS
330
121F
102
}
330
121F
100
AcDbScale
 70
     0
300
100:1
140
100.0
141
1.0
290
     0
  0
SCALE
  5
1231
102
{ACAD_REACTORS
330
121F
102
}
330
121F
100
AcDbScale
 70
     0
300
1/128" = 1'-0"
140
0.0078125
141
12.0
290
     0
  0
SCALE
  5
1232
102
{ACAD_REACTORS
330
121F
102
}
330
121F
100
AcDbScale
 70
     0
300
1/64" = 1'-0"
140
0.015625
141
12.0
290
     0
  0
SCALE
  5
1233
102
{ACAD_REACTORS
330
121F
102
}
330
121F
100
AcDbScale
 70
     0
300
1/32" = 1'-0"
140
0.03125
141
12.0
290
     0
  0
SCALE
  5
1234
102
{ACAD_REACTORS
330
121F
102
}
330
121F
100
AcDbScale
 70
     0
300
1/16" = 1'-0"
140
0.0625
141
12.0
290
     0
  0
SCALE
  5
1235
102
{ACAD_REACTORS
330
121F
102
}
330
121F
100
AcDbScale
 70
     0
300
3/32" = 1'-0"
140
0.09375
141
12.0
290
     0
  0
SCALE
  5
1236
102
{ACAD_REACTORS
330
121F
102
}
330
121F
100
AcDbScale
 70
     0
300
1/8" = 1'-0"
140
0.125
141
12.0
290
     0
  0
SCALE
  5
1237
102
{ACAD_REACTORS
330
121F
102
}
330
121F
100
AcDbScale
 70
     0
300
3/16" = 1'-0"
140
0.1875
141
12.0
290
     0
  0
SCALE
  5
1238
102
{ACAD_REACTORS
330
121F
102
}
330
121F
100
AcDbScale
 70
     0
300
1/4" = 1'-0"
140
0.25
141
12.0
290
     0
  0
SCALE
  5
1239
102
{ACAD_REACTORS
330
121F
102
}
330
121F
100
AcDbScale
 70
     0
300
3/8" = 1'-0"
140
0.375
141
12.0
290
     0
  0
SCALE
  5
123A
102
{ACAD_REACTORS
330
121F
102
}
330
121F
100
AcDbScale
 70
     0
300
1/2" = 1'-0"
140
0.5
141
12.0
290
     0
  0
SCALE
  5
123B
102
{ACAD_REACTORS
330
121F
102
}
330
121F
100
AcDbScale
 70
     0
300
3/4" = 1'-0"
140
0.75
141
12.0
290
     0
  0
SCALE
  5
123C
102
{ACAD_REACTORS
330
121F
102
}
330
121F
100
AcDbScale
 70
     0
300
1" = 1'-0"
140
1.0
141
12.0
290
     0
  0
SCALE
  5
123D
102
{ACAD_REACTORS
330
121F
102
}
330
121F
100
AcDbScale
 70
     0
300
1-1/2" = 1'-0"
140
1.5
141
12.0
290
     0
  0
SCALE
  5
123E
102
{ACAD_REACTORS
330
121F
102
}
330
121F
100
AcDbScale
 70
     0
300
3" = 1'-0"
140
3.0
141
12.0
290
     0
  0
SCALE
  5
123F
102
{ACAD_REACTORS
330
121F
102
}
330
121F
100
AcDbScale
 70
     0
300
6" = 1'-0"
140
6.0
141
12.0
290
     0
  0
SCALE
  5
1240
102
{ACAD_REACTORS
330
121F
102
}
330
121F
100
AcDbScale
 70
     0
300
1'-0" = 1'-0"
140
12.0
141
12.0
290
     0
  0
TABLESTYLE
  5
121E
102
{ACAD_XDICTIONARY
360
12BA
102
}
102
{ACAD_REACTORS
330
121D
102
}
330
121D
100
AcDbTableStyle
  3
Standard
 70
     0
 71
     0
 40
0.06
 41
0.06
280
     0
281
     0
  7
STANDARD
140
0.18
170
     2
 62
     0
 63
     7
283
     0
274
    -2
284
     1
 64
     0
275
    -2
285
     1
 65
     0
276
    -2
286
     1
 66
     0
277
    -2
287
     1
 67
     0
278
    -2
288
     1
 68
     0
279
    -2
289
     1
 69
     0
  7
STANDARD
140
0.25
170
     5
 62
     0
 63
     7
283
     0
274
    -2
284
     1
 64
     0
275
    -2
285
     1
 65
     0
276
    -2
286
     1
 66
     0
277
    -2
287
     1
 67
     0
278
    -2
288
     1
 68
     0
279
    -2
289
     1
 69
     0
  7
STANDARD
140
0.18
170
     5
 62
     0
 63
     7
283
     0
274
    -2
284
     1
 64
     0
275
    -2
285
     1
 65
     0
276
    -2
286
     1
 66
     0
277
    -2
287
     1
 67
     0
278
    -2
288
     1
 68
     0
279
    -2
289
     1
 69
     0
  0
VISUALSTYLE
  5
1211
102
{ACAD_REACTORS
330
120B
102
}
330
120B
100
AcDbVisualStyle
  2
2dWireframe
 70
     4
 71
     0
 72
     2
 73
     0
 90
        0
 40
-0.6
 41
-30.0
 62
     5
 63
     7
421
 16777215
 74
     1
 91
        4
 64
     7
 65
   257
 75
     1
175
     1
 42
1.0
 92
        0
 66
   257
 43
1.0
 76
     1
 77
     6
 78
     2
 67
     7
 79
     5
170
     0
171
     0
290
     0
174
     0
 93
        1
 44
0.0
173
     0
291
     0
 45
0.0
1001
ACAD
1000
AcDbSavedByObjectVersion
1070
     0
  0
VISUALSTYLE
  5
1213
102
{ACAD_REACTORS
330
120B
102
}
330
120B
100
AcDbVisualStyle
  2
3D Hidden
 70
     6
 71
     1
 72
     2
 73
     2
 90
        0
 40
-0.6
 41
-30.0
 62
     5
 63
     7
421
 16777215
 74
     2
 91
        2
 64
     7
 65
   257
 75
     2
175
     1
 42
40.0
 92
        0
 66
   257
 43
1.0
 76
     1
 77
     6
 78
     2
 67
     7
 79
     3
170
     0
171
     0
290
     0
174
     0
 93
        1
 44
0.0
173
     0
291
     0
 45
0.0
1001
ACAD
1000
AcDbSavedByObjectVersion
1070
     0
  0
VISUALSTYLE
  5
1212
102
{ACAD_REACTORS
330
120B
102
}
330
120B
100
AcDbVisualStyle
  2
3dWireframe
 70
     5
 71
     0
 72
     2
 73
     0
 90
        0
 40
-0.6
 41
-30.0
 62
     5
 63
     7
421
 16777215
 74
     1
 91
        4
 64
     7
 65
   257
 75
     1
175
     1
 42
1.0
 92
        0
 66
   257
 43
1.0
 76
     1
 77
     6
 78
     2
 67
     7
 79
     5
170
     0
171
     0
290
     0
174
     0
 93
        1
 44
0.0
173
     0
291
     0
 45
0.0
1001
ACAD
1000
AcDbSavedByObjectVersion
1070
     0
  0
VISUALSTYLE
  5
1210
102
{ACAD_REACTORS
330
120B
102
}
330
120B
100
AcDbVisualStyle
  2
Basic
 70
     7
 71
     1
 72
     0
 73
     1
 90
        0
 40
-0.6
 41
-30.0
 62
     5
 63
     7
421
 16777215
 74
     0
 91
        4
 64
     7
 65
   257
 75
     1
175
     1
 42
1.0
 92
        8
 66
     7
 43
1.0
 76
     1
 77
     6
 78
     2
 67
     7
 79
     5
170
     0
171
     0
290
     0
174
     0
 93
        1
 44
0.0
173
     0
291
     1
 45
0.0
1001
ACAD
1000
AcDbSavedByObjectVersion
1070
     0
  0
VISUALSTYLE
  5
1217
102
{ACAD_REACTORS
330
120B
102
}
330
120B
100
AcDbVisualStyle
  2
Brighten
 70
    12
 71
     2
 72
     2
 73
     0
 90
        0
 40
-0.6
 41
-30.0
 62
     5
 63
     7
421
 16777215
 74
     1
 91
        4
 64
     7
 65
   257
 75
     1
175
     1
 42
1.0
 92
        8
 66
     7
 43
1.0
 76
     1
 77
     6
 78
     2
 67
     7
 79
     5
170
     0
171
     0
290
     0
174
     0
 93
        1
 44
50.0
173
     0
291
     1
 45
0.0
1001
ACAD
1000
AcDbSavedByObjectVersion
1070
     0
  0
VISUALSTYLE
  5
121B
102
{ACAD_REACTORS
330
120B
102
}
330
120B
100
AcDbVisualStyle
  2
ColorChange
 70
    16
 71
     2
 72
     2
 73
     3
 90
        0
 40
-0.6
 41
-30.0
 62
     5
 63
     8
421
  8421504
 74
     1
 91
        4
 64
     7
 65
   257
 75
     1
175
     1
 42
1.0
 92
        8
 66
     8
424
  8421504
 43
1.0
 76
     1
 77
     6
 78
     2
 67
     7
 79
     5
170
     0
171
     0
290
     0
174
     0
 93
        1
 44
0.0
173
     0
291
     1
 45
0.0
1001
ACAD
1000
AcDbSavedByObjectVersion
1070
     0
  0
VISUALSTYLE
  5
1214
102
{ACAD_REACTORS
330
120B
102
}
330
120B
100
AcDbVisualStyle
  2
Conceptual
 70
     9
 71
     3
 72
     2
 73
     0
 90
        0
 40
-0.6
 41
-30.0
 62
     5
 63
     7
421
 16777215
 74
     2
 91
        2
 64
     7
 65
   257
 75
     1
175
     1
 42
40.0
 92
        8
 66
     7
 43
1.0
 76
     1
 77
     6
 78
     2
 67
     7
 79
     3
170
     0
171
     0
290
     0
174
     0
 93
        1
 44
0.0
173
     0
291
     0
 45
0.0
1001
ACAD
1000
AcDbSavedByObjectVersion
1070
     0
  0
VISUALSTYLE
  5
1216
102
{ACAD_REACTORS
330
120B
102
}
330
120B
100
AcDbVisualStyle
  2
Dim
 70
    11
 71
     2
 72
     2
 73
     0
 90
        0
 40
-0.6
 41
-30.0
 62
     5
 63
     7
421
 16777215
 74
     1
 91
        4
 64
     7
 65
   257
 75
     1
175
     1
 42
1.0
 92
        8
 66
     7
 43
1.0
 76
     1
 77
     6
 78
     2
 67
     7
 79
     5
170
     0
171
     0
290
     0
174
     0
 93
        1
 44
-50.0
173
     0
291
     1
 45
0.0
1001
ACAD
1000
AcDbSavedByObjectVersion
1070
     0
  0
VISUALSTYLE
  5
121A
102
{ACAD_REACTORS
330
120B
102
}
330
120B
100
AcDbVisualStyle
  2
Facepattern
 70
    15
 71
     2
 72
     2
 73
     0
 90
        0
 40
-0.6
 41
-30.0
 62
     5
 63
     7
421
 16777215
 74
     1
 91
        4
 64
     7
 65
   257
 75
     1
175
     1
 42
1.0
 92
        8
 66
     7
 43
1.0
 76
     1
 77
     6
 78
     2
 67
     7
 79
     5
170
     0
171
     0
290
     0
174
     0
 93
        1
 44
0.0
173
     0
291
     1
 45
0.0
1001
ACAD
1000
AcDbSavedByObjectVersion
1070
     0
  0
VISUALSTYLE
  5
120C
102
{ACAD_REACTORS
330
120B
102
}
330
120B
100
AcDbVisualStyle
  2
Flat
 70
     0
 71
     2
 72
     1
 73
     1
 90
        2
 40
-0.6
 41
30.0
 62
     5
 63
     7
421
 16777215
 74
     0
 91
        4
 64
     7
 65
   257
 75
     1
175
     1
 42
1.0
 92
        8
 66
     7
 43
1.0
 76
     1
 77
     6
 78
     2
 67
     7
 79
     5
170
     0
171
     0
290
     0
174
     0
 93
       13
 44
0.0
173
     0
291
     1
 45
0.0
1001
ACAD
1000
AcDbSavedByObjectVersion
1070
     0
  0
VISUALSTYLE
  5
120D
102
{ACAD_REACTORS
330
120B
102
}
330
120B
100
AcDbVisualStyle
  2
FlatWithEdges
 70
     1
 71
     2
 72
     1
 73
     1
 90
        2
 40
-0.6
 41
30.0
 62
     5
 63
     7
421
 16777215
 74
     1
 91
        4
 64
     7
 65
   257
 75
     1
175
     1
 42
1.0
 92
        0
 66
   257
 43
1.0
 76
     1
 77
     6
 78
     2
 67
     7
 79
     5
170
     0
171
     0
290
     0
174
     0
 93
       13
 44
0.0
173
     0
291
     1
 45
0.0
1001
ACAD
1000
AcDbSavedByObjectVersion
1070
     0
  0
VISUALSTYLE
  5
120E
102
{ACAD_REACTORS
330
120B
102
}
330
120B
100
AcDbVisualStyle
  2
Gouraud
 70
     2
 71
     2
 72
     2
 73
     1
 90
        2
 40
-0.6
 41
30.0
 62
     5
 63
     7
421
 16777215
 74
     0
 91
        4
 64
     7
 65
   257
 75
     1
175
     1
 42
1.0
 92
        0
 66
     7
 43
1.0
 76
     1
 77
     6
 78
     2
 67
     7
 79
     5
170
     0
171
     0
290
     0
174
     0
 93
       13
 44
0.0
173
     0
291
     1
 45
0.0
1001
ACAD
1000
AcDbSavedByObjectVersion
1070
     0
  0
VISUALSTYLE
  5
120F
102
{ACAD_REACTORS
330
120B
102
}
330
120B
100
AcDbVisualStyle
  2
GouraudWithEdges
 70
     3
 71
     2
 72
     2
 73
     1
 90
        2
 40
-0.6
 41
30.0
 62
     5
 63
     7
421
 16777215
 74
     1
 91
        4
 64
     7
 65
   257
 75
     1
175
     1
 42
1.0
 92
        0
 66
   257
 43
1.0
 76
     1
 77
     6
 78
     2
 67
     7
 79
     5
170
     0
171
     0
290
     0
174
     0
 93
       13
 44
0.0
173
     0
291
     1
 45
0.0
1001
ACAD
1000
AcDbSavedByObjectVersion
1070
     0
  0
VISUALSTYLE
  5
1219
102
{ACAD_REACTORS
330
120B
102
}
330
120B
100
AcDbVisualStyle
  2
Linepattern
 70
    14
 71
     2
 72
     2
 73
     0
 90
        0
 40
-0.6
 41
-30.0
 62
     5
 63
     7
421
 16777215
 74
     1
 91
        4
 64
     7
 65
   257
 75
     7
175
     7
 42
1.0
 92
        8
 66
     7
 43
1.0
 76
     1
 77
     6
 78
     2
 67
     7
 79
     5
170
     0
171
     0
290
     0
174
     0
 93
        1
 44
0.0
173
     0
291
     1
 45
0.0
1001
ACAD
1000
AcDbSavedByObjectVersion
1070
     0
  0
VISUALSTYLE
  5
1215
102
{ACAD_REACTORS
330
120B
102
}
330
120B
100
AcDbVisualStyle
  2
Realistic
 70
     8
 71
     2
 72
     2
 73
     0
 90
        0
 40
-0.6
 41
-30.0
 62
     5
 63
     7
421
 16777215
 74
     1
 91
        0
 64
     7
 65
   257
 75
     1
175
     1
 42
1.0
 92
        8
 66
     8
424
  7895160
 43
1.0
 76
     1
 77
     6
 78
     2
 67
     7
 79
     5
170
     0
171
     0
290
     0
174
     0
 93
       13
 44
0.0
173
     0
291
     0
 45
0.0
1001
ACAD
1000
AcDbSavedByObjectVersion
1070
     0
  0
VISUALSTYLE
  5
1218
102
{ACAD_REACTORS
330
120B
102
}
330
120B
100
AcDbVisualStyle
  2
Thicken
 70
    13
 71
     2
 72
     2
 73
     0
 90
        0
 40
-0.6
 41
-30.0
 62
     5
 63
     7
421
 16777215
 74
     1
 91
        4
 64
     7
 65
   257
 75
     1
175
     1
 42
1.0
 92
       12
 66
     7
 43
1.0
 76
     1
 77
     6
 78
     2
 67
     7
 79
     5
170
     0
171
     0
290
     0
174
     0
 93
        1
 44
0.0
173
     0
291
     1
 45
0.0
1001
ACAD
1000
AcDbSavedByObjectVersion
1070
     0
  0
DICTIONARYVAR
  5
12C0
102
{ACAD_REACTORS
330
10DD
102
}
330
10DD
100
DictionaryVariables
280
     0
  1
1:1
  0
DICTIONARYVAR
  5
12BE
102
{ACAD_REACTORS
330
10DD
102
}
330
10DD
100
DictionaryVariables
280
     0
  1
STANDARD
  0
DICTIONARYVAR
  5
12BD
102
{ACAD_REACTORS
330
10DD
102
}
330
10DD
100
DictionaryVariables
280
     0
  1
STANDARD
  0
DICTIONARYVAR
  5
10E0
102
{ACAD_REACTORS
330
10DD
102
}
330
10DD
100
DictionaryVariables
280
     0
  1
1
  0
DICTIONARYVAR
  5
10DF
102
{ACAD_REACTORS
330
10DD
102
}
330
10DD
100
DictionaryVariables
280
     0
  1
1
  0
DICTIONARYVAR
  5
19D4
102
{ACAD_REACTORS
330
10DD
102
}
330
10DD
100
DictionaryVariables
280
     0
  1
0
  0
DICTIONARYVAR
  5
12C2
102
{ACAD_REACTORS
330
10DD
102
}
330
10DD
100
DictionaryVariables
280
     0
  1
15
  0
DICTIONARYVAR
  5
12C1
102
{ACAD_REACTORS
330
10DD
102
}
330
10DD
100
DictionaryVariables
280
     0
  1
0
  0
DICTIONARYVAR
  5
12BF
102
{ACAD_REACTORS
330
10DD
102
}
330
10DD
100
DictionaryVariables
280
     0
  1
0
  0
DICTIONARYVAR
  5
10DE
102
{ACAD_REACTORS
330
10DD
102
}
330
10DD
100
DictionaryVariables
280
     0
  1
1
  0
XRECORD
  5
19B5
102
{ACAD_REACTORS
330
19B2
102
}
330
19B2
100
AcDbXrecord
280
     1
  1
_0100-
  1
*0100-*
  1
*
  1
*
 70
     0
  1
*
  1
*
  0
XRECORD
  5
19B4
102
{ACAD_REACTORS
330
19B2
102
}
330
19B2
100
AcDbXrecord
280
     1
  1
_0280-
  1
*0280-*
  1
*
  1
*
 70
     0
  1
*
  1
*
  0
XRECORD
  5
19B8
102
{ACAD_REACTORS
330
19B2
102
}
330
19B2
100
AcDbXrecord
280
     1
  1
_Color 253
  1
*
  1
253
  1
*
 70
     0
  1
*
  1
*
  0
XRECORD
  5
19B6
102
{ACAD_REACTORS
330
19B2
102
}
330
19B2
100
AcDbXrecord
280
     1
  1
_Color 8
  1
*
  1
8
  1
*
 70
     0
  1
*
  1
*
  0
XRECORD
  5
19B7
102
{ACAD_REACTORS
330
19B2
102
}
330
19B2
100
AcDbXrecord
280
     1
  1
_Color 84
  1
*
  1
84
  1
*
 70
     0
  1
*
  1
*
  0
XRECORD
  5
19BD
102
{ACAD_REACTORS
330
19B2
102
}
330
19B2
100
AcDbXrecord
280
     1
  1
_Contours
  1
*contour*,*cont-*,*cp cont*,*p-cont*
  1
*
  1
*
 70
     0
  1
*
  1
*
  0
XRECORD
  5
19B9
102
{ACAD_REACTORS
330
19B2
102
}
330
19B2
100
AcDbXrecord
280
     1
  1
_Existing
  1
*exist*
  1
*
  1
*
 70
     0
  1
*
  1
*
  0
XRECORD
  5
19BC
102
{ACAD_REACTORS
330
19B2
102
}
330
19B2
100
AcDbXrecord
280
     1
  1
_Hardscape
  1
*sidewalk*,*sw*,*curb*,*walk*,*-lip*,*tbc*
  1
*
  1
*
 70
     0
  1
*
  1
*
  0
XRECORD
  5
19B3
102
{ACAD_REACTORS
330
19B2
102
}
330
19B2
100
AcDbXrecord
280
     1
  1
_NoXref
  1
~*|*
  1
*
  1
*
 70
     0
  1
*
  1
*
  0
XRECORD
  5
19BA
102
{ACAD_REACTORS
330
19B2
102
}
330
19B2
100
AcDbXrecord
280
     1
  1
_Row
  1
*row*
  1
*
  1
*
 70
     0
  1
*
  1
*
  0
XRECORD
  5
19BB
102
{ACAD_REACTORS
330
19B2
102
}
330
19B2
100
AcDbXrecord
280
     1
  1
_Utility
  1
*ut-*,*utility*,*wat*
  1
*
  1
*
 70
     0
  1
*
  1
*
  0
DICTIONARY
  5
11FC
330
11FB
100
AcDbDictionary
280
     1
281
     1
  3
ACAD_XREC_ROUNDTRIP
360
19D9
  3
BUMPTILE
360
11FE
  3
DIFFUSETILE
360
11FD
  3
OPACITYTILE
360
1201
  3
REFLECTIONTILE
360
1200
  3
REFRACTIONTILE
360
1202
  3
SPECULARTILE
360
11FF
  0
DICTIONARY
  5
11F4
330
11F3
100
AcDbDictionary
280
     1
281
     1
  3
ACAD_XREC_ROUNDTRIP
360
19D8
  3
BUMPTILE
360
11F6
  3
DIFFUSETILE
360
11F5
  3
OPACITYTILE
360
11F9
  3
REFLECTIONTILE
360
11F8
  3
REFRACTIONTILE
360
11FA
  3
SPECULARTILE
360
11F7
  0
DICTIONARY
  5
1204
330
1203
100
AcDbDictionary
280
     1
281
     1
  3
ACAD_XREC_ROUNDTRIP
360
19DA
  3
BUMPTILE
360
1206
  3
DIFFUSETILE
360
1205
  3
OPACITYTILE
360
1209
  3
REFLECTIONTILE
360
1208
  3
REFRACTIONTILE
360
120A
  3
SPECULARTILE
360
1207
  0
DICTIONARY
  5
12BA
330
121E
100
AcDbDictionary
280
     1
281
     1
  3
ACAD_ROUNDTRIP_2008_TABLESTYLE_CELLSTYLEMAP
360
19D5
  3
ACAD_XREC_ROUNDTRIP
360
19DB
  0
XRECORD
  5
19D9
102
{ACAD_REACTORS
330
11FC
102
}
330
11FC
100
AcDbXrecord
280
     1
102
MATERIAL
148
0.0
149
0.0
149
0.0
 93
        0
 94
      127
282
     0
 72
     0
 77
     0
171
     0
175
     0
179
     0
273
     0
  0
XRECORD
  5
11FE
102
{ACAD_REACTORS
330
11FC
102
}
330
11FC
100
AcDbXrecord
280
     1
270
     1
271
     1
  0
XRECORD
  5
11FD
102
{ACAD_REACTORS
330
11FC
102
}
330
11FC
100
AcDbXrecord
280
     1
270
     1
271
     1
  0
XRECORD
  5
1201
102
{ACAD_REACTORS
330
11FC
102
}
330
11FC
100
AcDbXrecord
280
     1
270
     1
271
     1
  0
XRECORD
  5
1200
102
{ACAD_REACTORS
330
11FC
102
}
330
11FC
100
AcDbXrecord
280
     1
270
     1
271
     1
  0
XRECORD
  5
1202
102
{ACAD_REACTORS
330
11FC
102
}
330
11FC
100
AcDbXrecord
280
     1
270
     1
271
     1
  0
XRECORD
  5
11FF
102
{ACAD_REACTORS
330
11FC
102
}
330
11FC
100
AcDbXrecord
280
     1
270
     1
271
     1
  0
XRECORD
  5
19D8
102
{ACAD_REACTORS
330
11F4
102
}
330
11F4
100
AcDbXrecord
280
     1
102
MATERIAL
148
0.0
149
0.0
149
0.0
 93
        0
 94
      127
282
     0
 72
     0
 77
     0
171
     0
175
     0
179
     0
273
     0
  0
XRECORD
  5
11F6
102
{ACAD_REACTORS
330
11F4
102
}
330
11F4
100
AcDbXrecord
280
     1
270
     1
271
     1
  0
XRECORD
  5
11F5
102
{ACAD_REACTORS
330
11F4
102
}
330
11F4
100
AcDbXrecord
280
     1
270
     1
271
     1
  0
XRECORD
  5
11F9
102
{ACAD_REACTORS
330
11F4
102
}
330
11F4
100
AcDbXrecord
280
     1
270
     1
271
     1
  0
XRECORD
  5
11F8
102
{ACAD_REACTORS
330
11F4
102
}
330
11F4
100
AcDbXrecord
280
     1
270
     1
271
     1
  0
XRECORD
  5
11FA
102
{ACAD_REACTORS
330
11F4
102
}
330
11F4
100
AcDbXrecord
280
     1
270
     1
271
     1
  0
XRECORD
  5
11F7
102
{ACAD_REACTORS
330
11F4
102
}
330
11F4
100
AcDbXrecord
280
     1
270
     1
271
     1
  0
XRECORD
  5
19DA
102
{ACAD_REACTORS
330
1204
102
}
330
1204
100
AcDbXrecord
280
     1
102
MATERIAL
148
0.0
149
0.0
149
0.0
 93
        0
 94
      127
282
     0
 72
     0
 77
     0
171
     0
175
     0
179
     0
273
     0
  0
XRECORD
  5
1206
102
{ACAD_REACTORS
330
1204
102
}
330
1204
100
AcDbXrecord
280
     1
270
     1
271
     1
  0
XRECORD
  5
1205
102
{ACAD_REACTORS
330
1204
102
}
330
1204
100
AcDbXrecord
280
     1
270
     1
271
     1
  0
XRECORD
  5
1209
102
{ACAD_REACTORS
330
1204
102
}
330
1204
100
AcDbXrecord
280
     1
270
     1
271
     1
  0
XRECORD
  5
1208
102
{ACAD_REACTORS
330
1204
102
}
330
1204
100
AcDbXrecord
280
     1
270
     1
271
     1
  0
XRECORD
  5
120A
102
{ACAD_REACTORS
330
1204
102
}
330
1204
100
AcDbXrecord
280
     1
270
     1
271
     1
  0
XRECORD
  5
1207
102
{ACAD_REACTORS
330
1204
102
}
330
1204
100
AcDbXrecord
280
     1
270
     1
271
     1
  0
CELLSTYLEMAP
  5
19D5
102
{ACAD_REACTORS
330
12BA
102
}
330
12BA
100
AcDbCellStyleMap
 90
        3
300
CELLSTYLE
  1
TABLEFORMAT_BEGIN
 90
        5
170
     1
 91
        0
 92
    32768
 62
   257
 93
        1
300
CONTENTFORMAT
  1
CONTENTFORMAT_BEGIN
 90
        0
 91
        0
 92
      512
 93
        0
300

 40
0.0
140
1.0
 94
        5
 62
     0
340
10B4
144
0.25
309
CONTENTFORMAT_END
171
     0
 94
        0
309
TABLEFORMAT_END
  1
CELLSTYLE_BEGIN
 90
        1
 91
        1
300
_TITLE
309
CELLSTYLE_END
300
CELLSTYLE
  1
TABLEFORMAT_BEGIN
 90
        5
170
     1
 91
        0
 92
        0
 62
   257
 93
        1
300
CONTENTFORMAT
  1
CONTENTFORMAT_BEGIN
 90
        0
 91
        0
 92
      512
 93
        0
300

 40
0.0
140
1.0
 94
        5
 62
     0
340
10B4
144
0.18
309
CONTENTFORMAT_END
171
     0
 94
        0
309
TABLEFORMAT_END
  1
CELLSTYLE_BEGIN
 90
        2
 91
        1
300
_HEADER
309
CELLSTYLE_END
300
CELLSTYLE
  1
TABLEFORMAT_BEGIN
 90
        5
170
     1
 91
        0
 92
        0
 62
   257
 93
        1
300
CONTENTFORMAT
  1
CONTENTFORMAT_BEGIN
 90
        0
 91
        0
 92
      512
 93
        0
300

 40
0.0
140
1.0
 94
        2
 62
     0
340
10B4
144
0.18
309
CONTENTFORMAT_END
171
     0
 94
        0
309
TABLEFORMAT_END
  1
CELLSTYLE_BEGIN
 90
        3
 91
        2
300
_DATA
309
CELLSTYLE_END
  0
XRECORD
  5
19DB
102
{ACAD_REACTORS
330
12BA
102
}
330
12BA
100
AcDbXrecord
280
     1
102
ACAD_ROUNDTRIP_PRE2007_TABLESTYLE
 90
      512
 91
        0
  1

 92
      512
 93
        0
  2

 94
      512
 95
        0
  3

  0
ENDSEC
  0
EOF
