  0
SECTION
  2
HEADER
  9
$ACADVER
  1
AC1018
  9
$ACADMAINTVER
 70
   104
  9
$DWGCODEPAGE
  3
ANSI_1252
  9
$LASTSAVEDBY
  1
dweyer
  9
$INSBASE
 10
0.0
 20
0.0
 30
0.0
  9
$EXTMIN
 10
-0.5527195034084712
 20
-3.508528264422416
 30
0.0
  9
$EXTMAX
 10
9.836850602040792
 20
6.931471735577583
 30
0.03
  9
$LIMMIN
 10
0.0
 20
0.0
  9
$LIMMAX
 10
12.0
 20
9.0
  9
$ORTHOMODE
 70
     1
  9
$REGENMODE
 70
     1
  9
$FILLMODE
 70
     1
  9
$QTEXTMODE
 70
     0
  9
$MIRRTEXT
 70
     0
  9
$LTSCALE
 40
1.0
  9
$ATTMODE
 70
     1
  9
$TEXTSIZE
 40
0.125
  9
$TRACEWID
 40
0.05
  9
$TEXTSTYLE
  7
ROMANS
  9
$CLAYER
  8
image
  9
$CELTYPE
  6
ByLayer
  9
$CECOLOR
 62
   256
  9
$CELTSCALE
 40
1.0
  9
$DISPSILH
 70
     0
  9
$DIMSCALE
 40
1.0
  9
$DIMASZ
 40
0.18
  9
$DIMEXO
 40
0.0625
  9
$DIMDLI
 40
0.38
  9
$DIMRND
 40
0.0
  9
$DIMDLE
 40
0.0
  9
$DIMEXE
 40
0.125
  9
$DIMTP
 40
0.0
  9
$DIMTM
 40
0.0
  9
$DIMTXT
 40
0.125
  9
$DIMCEN
 40
0.09
  9
$DIMTSZ
 40
0.0
  9
$DIMTOL
 70
     0
  9
$DIMLIM
 70
     0
  9
$DIMTIH
 70
     1
  9
$DIMTOH
 70
     1
  9
$DIMSE1
 70
     0
  9
$DIMSE2
 70
     0
  9
$DIMTAD
 70
     0
  9
$DIMZIN
 70
     0
  9
$DIMBLK
  1

  9
$DIMASO
 70
     1
  9
$DIMSHO
 70
     1
  9
$DIMPOST
  1

  9
$DIMAPOST
  1

  9
$DIMALT
 70
     0
  9
$DIMALTD
 70
     2
  9
$DIMALTF
 40
25.4
  9
$DIMLFAC
 40
1.0
  9
$DIMTOFL
 70
     0
  9
$DIMTVP
 40
0.0
  9
$DIMTIX
 70
     0
  9
$DIMSOXD
 70
     0
  9
$DIMSAH
 70
     0
  9
$DIMBLK1
  1

  9
$DIMBLK2
  1

  9
$DIMSTYLE
  2
Standard
  9
$DIMCLRD
 70
   256
  9
$DIMCLRE
 70
   256
  9
$DIMCLRT
 70
   256
  9
$DIMTFAC
 40
1.0
  9
$DIMGAP
 40
0.09
  9
$DIMJUST
 70
     0
  9
$DIMSD1
 70
     0
  9
$DIMSD2
 70
     0
  9
$DIMTOLJ
 70
     1
  9
$DIMTZIN
 70
     0
  9
$DIMALTZ
 70
     0
  9
$DIMALTTZ
 70
     0
  9
$DIMUPT
 70
     0
  9
$DIMDEC
 70
     4
  9
$DIMTDEC
 70
     4
  9
$DIMALTU
 70
     2
  9
$DIMALTTD
 70
     2
  9
$DIMTXSTY
  7
Arial
  9
$DIMAUNIT
 70
     0
  9
$DIMADEC
 70
     0
  9
$DIMALTRND
 40
0.0
  9
$DIMAZIN
 70
     0
  9
$DIMDSEP
 70
    46
  9
$DIMATFIT
 70
     3
  9
$DIMFRAC
 70
     0
  9
$DIMLDRBLK
  1

  9
$DIMLUNIT
 70
     2
  9
$DIMLWD
 70
    -1
  9
$DIMLWE
 70
    -1
  9
$DIMTMOVE
 70
     2
  9
$LUNITS
 70
     2
  9
$LUPREC
 70
     3
  9
$SKETCHINC
 40
0.1
  9
$FILLETRAD
 40
0.0
  9
$AUNITS
 70
     0
  9
$AUPREC
 70
     0
  9
$MENU
  1
ACAD
  9
$ELEVATION
 40
0.0
  9
$PELEVATION
 40
0.0
  9
$THICKNESS
 40
0.0
  9
$LIMCHECK
 70
     0
  9
$CHAMFERA
 40
0.0
  9
$CHAMFERB
 40
0.0
  9
$CHAMFERC
 40
0.0
  9
$CHAMFERD
 40
0.0
  9
$SKPOLY
 70
     0
  9
$TDCREATE
 40
2449623.385097569
  9
$TDUCREATE
 40
2449623.676764236
  9
$TDUPDATE
 40
2455210.378249085
  9
$TDUUPDATE
 40
2455210.669915753
  9
$TDINDWG
 40
0.6683569213
  9
$TDUSRTIMER
 40
0.6683569213
  9
$USRTIMER
 70
     1
  9
$ANGBASE
 50
0.0
  9
$ANGDIR
 70
     0
  9
$PDMODE
 70
     0
  9
$PDSIZE
 40
0.0
  9
$PLINEWID
 40
0.0
  9
$SPLFRAME
 70
     0
  9
$SPLINETYPE
 70
     6
  9
$SPLINESEGS
 70
     8
  9
$HANDSEED
  5
24CF
  9
$SURFTAB1
 70
     6
  9
$SURFTAB2
 70
     6
  9
$SURFTYPE
 70
     6
  9
$SURFU
 70
     6
  9
$SURFV
 70
     6
  9
$UCSBASE
  2

  9
$UCSNAME
  2

  9
$UCSORG
 10
0.0
 20
0.0
 30
0.0
  9
$UCSXDIR
 10
1.0
 20
0.0
 30
0.0
  9
$UCSYDIR
 10
0.0
 20
1.0
 30
0.0
  9
$UCSORTHOREF
  2

  9
$UCSORTHOVIEW
 70
     0
  9
$UCSORGTOP
 10
0.0
 20
0.0
 30
0.0
  9
$UCSORGBOTTOM
 10
0.0
 20
0.0
 30
0.0
  9
$UCSORGLEFT
 10
0.0
 20
0.0
 30
0.0
  9
$UCSORGRIGHT
 10
0.0
 20
0.0
 30
0.0
  9
$UCSORGFRONT
 10
0.0
 20
0.0
 30
0.0
  9
$UCSORGBACK
 10
0.0
 20
0.0
 30
0.0
  9
$PUCSBASE
  2

  9
$PUCSNAME
  2

  9
$PUCSORG
 10
0.0
 20
0.0
 30
0.0
  9
$PUCSXDIR
 10
1.0
 20
0.0
 30
0.0
  9
$PUCSYDIR
 10
0.0
 20
1.0
 30
0.0
  9
$PUCSORTHOREF
  2

  9
$PUCSORTHOVIEW
 70
     0
  9
$PUCSORGTOP
 10
0.0
 20
0.0
 30
0.0
  9
$PUCSORGBOTTOM
 10
0.0
 20
0.0
 30
0.0
  9
$PUCSORGLEFT
 10
0.0
 20
0.0
 30
0.0
  9
$PUCSORGRIGHT
 10
0.0
 20
0.0
 30
0.0
  9
$PUCSORGFRONT
 10
0.0
 20
0.0
 30
0.0
  9
$PUCSORGBACK
 10
0.0
 20
0.0
 30
0.0
  9
$USERI1
 70
     0
  9
$USERI2
 70
     0
  9
$USERI3
 70
     0
  9
$USERI4
 70
     0
  9
$USERI5
 70
     0
  9
$USERR1
 40
0.0
  9
$USERR2
 40
0.0
  9
$USERR3
 40
0.0
  9
$USERR4
 40
0.0
  9
$USERR5
 40
0.0
  9
$WORLDVIEW
 70
     1
  9
$SHADEDGE
 70
     3
  9
$SHADEDIF
 70
    70
  9
$TILEMODE
 70
     1
  9
$MAXACTVP
 70
    16
  9
$PINSBASE
 10
0.0
 20
0.0
 30
0.0
  9
$PLIMCHECK
 70
     0
  9
$PEXTMIN
 10
1.000000000000000E+20
 20
1.000000000000000E+20
 30
1.000000000000000E+20
  9
$PEXTMAX
 10
-1.000000000000000E+20
 20
-1.000000000000000E+20
 30
-1.000000000000000E+20
  9
$PLIMMIN
 10
0.0
 20
0.0
  9
$PLIMMAX
 10
12.0
 20
9.0
  9
$UNITMODE
 70
     0
  9
$VISRETAIN
 70
     0
  9
$PLINEGEN
 70
     1
  9
$PSLTSCALE
 70
     1
  9
$TREEDEPTH
 70
  3020
  9
$CMLSTYLE
  2
Standard
  9
$CMLJUST
 70
     0
  9
$CMLSCALE
 40
1.0
  9
$PROXYGRAPHICS
 70
     1
  9
$MEASUREMENT
 70
     0
  9
$CELWEIGHT
370
    -1
  9
$ENDCAPS
280
     0
  9
$JOINSTYLE
280
     0
  9
$LWDISPLAY
290
     0
  9
$INSUNITS
 70
     0
  9
$HYPERLINKBASE
  1

  9
$STYLESHEET
  1
LaserJet5Shaded.ctb
  9
$XEDIT
290
     1
  9
$CEPSNTYPE
380
     0
  9
$PSTYLEMODE
290
     1
  9
$FINGERPRINTGUID
  2
{BCE94025-CD6B-4C78-9663-B5CA4FDFDFD5}
  9
$VERSIONGUID
  2
{DA58F8A4-EAFA-434F-8A5B-61AE9BF28C0E}
  9
$EXTNAMES
290
     1
  9
$PSVPSCALE
 40
0.0
  9
$OLESTARTUP
290
     1
  9
$SORTENTS
280
    48
  9
$INDEXCTL
280
     0
  9
$HIDETEXT
280
     1
  9
$XCLIPFRAME
290
     0
  9
$HALOGAP
280
     0
  9
$OBSCOLOR
 70
   257
  9
$OBSLTYPE
280
     0
  9
$INTERSECTIONDISPLAY
280
     0
  9
$INTERSECTIONCOLOR
 70
   257
  9
$DIMASSOC
280
     1
  9
$PROJECTNAME
  1

  0
ENDSEC
  0
SECTION
  2
CLASSES
  0
CLASS
  1
ACDBDICTIONARYWDFLT
  2
AcDbDictionaryWithDefault
  3
ObjectDBX Classes
 90
        0
 91
        1
280
     0
281
     0
  0
CLASS
  1
DICTIONARYVAR
  2
AcDbDictionaryVar
  3
ObjectDBX Classes
 90
        0
 91
       11
280
     0
281
     0
  0
CLASS
  1
PLOTSETTINGS
  2
AcDbPlotSettings
  3
ObjectDBX Classes
 90
        0
 91
       76
280
     0
281
     0
  0
CLASS
  1
MATERIAL
  2
AcDbMaterial
  3
ObjectDBX Classes
 90
     1153
 91
        3
280
     0
281
     0
  0
CLASS
  1
VISUALSTYLE
  2
AcDbVisualStyle
  3
ObjectDBX Classes
 90
     4095
 91
       16
280
     0
281
     0
  0
CLASS
  1
TABLESTYLE
  2
AcDbTableStyle
  3
ObjectDBX Classes
 90
     4095
 91
        1
280
     0
281
     0
  0
CLASS
  1
SCALE
  2
AcDbScale
  3
ObjectDBX Classes
 90
     1153
 91
       33
280
     0
281
     0
  0
CLASS
  1
MLEADERSTYLE
  2
AcDbMLeaderStyle
  3
ACDB_MLEADERSTYLE_CLASS
 90
     4095
 91
        1
280
     0
281
     0
  0
CLASS
  1
EXACXREFPANELOBJECT
  2
ExAcXREFPanelObject
  3
EXAC_ESW
 90
     1025
 91
        0
280
     0
281
     0
  0
CLASS
  1
NPOCOLLECTION
  2
AcDbImpNonPersistentObjectsCollection
  3
ObjectDBX Classes
 90
     1153
 91
        0
280
     0
281
     0
  0
CLASS
  1
LAYER_INDEX
  2
AcDbLayerIndex
  3
ObjectDBX Classes
 90
        0
 91
        0
280
     0
281
     0
  0
CLASS
  1
SPATIAL_INDEX
  2
AcDbSpatialIndex
  3
ObjectDBX Classes
 90
        0
 91
        0
280
     0
281
     0
  0
CLASS
  1
IDBUFFER
  2
AcDbIdBuffer
  3
ObjectDBX Classes
 90
        0
 91
        4
280
     0
281
     0
  0
CLASS
  1
CELLSTYLEMAP
  2
AcDbCellStyleMap
  3
ObjectDBX Classes
 90
     1152
 91
        8
280
     0
281
     0
  0
CLASS
  1
SORTENTSTABLE
  2
AcDbSortentsTable
  3
ObjectDBX Classes
 90
        0
 91
        4
280
     0
281
     0
  0
CLASS
  1
AEC_REFEDIT_STATUS_TRACKER
  2
AecDbRefEditStatusTracker
  3
AecArchBase50|Product Desc: Autodesk Architectural Desktop 2007 |Company: Autodesk,Inc. |WEB Address: www.autodesk.com
 90
      129
 91
        0
280
     0
281
     0
  0
ENDSEC
  0
SECTION
  2
TABLES
  0
TABLE
  2
VPORT
  5
8
330
0
100
AcDbSymbolTable
 70
     1
  0
VPORT
  5
2035
330
8
100
AcDbSymbolTableRecord
100
AcDbViewportTableRecord
  2
*Active
 70
     0
 10
0.0
 20
0.0
 11
1.0
 21
1.0
 12
4.642065549316161
 22
1.711471735577583
 13
0.0
 23
0.0
 14
0.14
 24
0.14
 15
0.14
 25
0.14
 16
0.0
 26
0.0
 36
1.0
 17
0.0
 27
0.0
 37
0.0
 40
10.53266272189349
 41
2.308148148148148
 42
50.0
 43
0.0
 44
0.0
 50
0.0
 51
0.0
 71
     0
 72
  4000
 73
     1
 74
     1
 75
     0
 76
     0
 77
     0
 78
     0
281
     0
 65
     1
110
0.0
120
0.0
130
0.0
111
1.0
121
0.0
131
0.0
112
0.0
122
1.0
132
0.0
 79
     0
146
0.0
  0
ENDTAB
  0
TABLE
  2
LTYPE
  5
5
330
0
100
AcDbSymbolTable
 70
     1
  0
LTYPE
  5
13
330
5
100
AcDbSymbolTableRecord
100
AcDbLinetypeTableRecord
  2
ByBlock
 70
     0
  3

 72
    65
 73
     0
 40
0.0
  0
LTYPE
  5
14
330
5
100
AcDbSymbolTableRecord
100
AcDbLinetypeTableRecord
  2
ByLayer
 70
     0
  3

 72
    65
 73
     0
 40
0.0
  0
LTYPE
  5
15
330
5
100
AcDbSymbolTableRecord
100
AcDbLinetypeTableRecord
  2
CONTINUOUS
 70
     0
  3
Solid line
 72
    65
 73
     0
 40
0.0
  0
ENDTAB
  0
TABLE
  2
LAYER
  5
2
102
{ACAD_XDICTIONARY
360
1464
102
}
330
0
100
AcDbSymbolTable
 70
     4
  0
LAYER
  5
10
330
2
100
AcDbSymbolTableRecord
100
AcDbLayerTableRecord
  2
0
 70
     0
 62
     7
  6
CONTINUOUS
370
    -3
390
F
  0
LAYER
  5
2F
330
2
100
AcDbSymbolTableRecord
100
AcDbLayerTableRecord
  2
text_bubbles
 70
     0
 62
     6
  6
CONTINUOUS
370
    -3
390
F
  0
LAYER
  5
30
330
2
100
AcDbSymbolTableRecord
100
AcDbLayerTableRecord
  2
image
 70
     0
 62
     7
  6
CONTINUOUS
370
    -3
390
F
  0
LAYER
  5
1559
330
2
100
AcDbSymbolTableRecord
100
AcDbLayerTableRecord
  2
title
 70
     0
 62
     4
  6
CONTINUOUS
370
    -3
390
F
  0
ENDTAB
  0
TABLE
  2
STYLE
  5
3
330
0
100
AcDbSymbolTable
 70
     6
  0
STYLE
  5
11
330
3
100
AcDbSymbolTableRecord
100
AcDbTextStyleTableRecord
  2
STANDARD
 70
     0
 40
0.0
 41
1.0
 50
0.0
 71
     0
 42
0.2
  3
txt
  4

  0
STYLE
  5
28
330
3
100
AcDbSymbolTableRecord
100
AcDbTextStyleTableRecord
  2
ROMANS
 70
     0
 40
0.0
 41
1.0
 50
0.0
 71
     0
 42
0.125
  3
ROMANS.SHX
  4

  0
STYLE
  5
155A
330
3
100
AcDbSymbolTableRecord
100
AcDbTextStyleTableRecord
  2
L100
 70
     0
 40
0.1
 41
1.0
 50
0.0
 71
     0
 42
0.1
  3
romans.shx
  4

  0
STYLE
  5
155B
330
3
100
AcDbSymbolTableRecord
100
AcDbTextStyleTableRecord
  2
L200
 70
     0
 40
0.2
 41
1.0
 50
0.0
 71
     0
 42
0.081
  3
ARIAL.TTF
  4

1001
ACAD
1000
Arial
1071
       34
  0
STYLE
  5
155C
330
3
100
AcDbSymbolTableRecord
100
AcDbTextStyleTableRecord
  2
L80
 70
     0
 40
0.08
 41
1.0
 50
0.0
 71
     0
 42
0.08
  3
ROMANS
  4

  0
STYLE
  5
213D
330
3
100
AcDbSymbolTableRecord
100
AcDbTextStyleTableRecord
  2
Arial
 70
     0
 40
0.0
 41
1.0
 50
0.0
 71
     0
 42
0.125
  3
ARIAL.TTF
  4

1001
ACAD
1000
Arial
1071
       34
  0
ENDTAB
  0
TABLE
  2
VIEW
  5
6
330
0
100
AcDbSymbolTable
 70
     0
  0
ENDTAB
  0
TABLE
  2
UCS
  5
7
330
0
100
AcDbSymbolTable
 70
     0
  0
ENDTAB
  0
TABLE
  2
APPID
  5
9
330
0
100
AcDbSymbolTable
 70
    13
  0
APPID
  5
12
330
9
100
AcDbSymbolTableRecord
100
AcDbRegAppTableRecord
  2
ACAD
 70
     0
  0
APPID
  5
1463
330
9
100
AcDbSymbolTableRecord
100
AcDbRegAppTableRecord
  2
RAK
 70
     0
  0
APPID
  5
155D
330
9
100
AcDbSymbolTableRecord
100
AcDbRegAppTableRecord
  2
DCO15
 70
     0
  0
APPID
  5
2088
330
9
100
AcDbSymbolTableRecord
100
AcDbRegAppTableRecord
  2
ACAD_MLEADERVER
 70
     0
  0
APPID
  5
209B
330
9
100
AcDbSymbolTableRecord
100
AcDbRegAppTableRecord
  2
ACAD_PSEXT
 70
     0
  0
APPID
  5
213E
330
9
100
AcDbSymbolTableRecord
100
AcDbRegAppTableRecord
  2
BBSI_PltSel
 70
     0
  0
APPID
  5
213F
330
9
100
AcDbSymbolTableRecord
100
AcDbRegAppTableRecord
  2
BBSI_Plots
 70
     0
  0
APPID
  5
2140
330
9
100
AcDbSymbolTableRecord
100
AcDbRegAppTableRecord
  2
BBSI_Bookmarks
 70
     0
  0
APPID
  5
2141
330
9
100
AcDbSymbolTableRecord
100
AcDbRegAppTableRecord
  2
BBSI_BookmarksEx
 70
     0
  0
APPID
  5
227A
330
9
100
AcDbSymbolTableRecord
100
AcDbRegAppTableRecord
  2
ACAD_EXEMPT_FROM_CAD_STANDARDS
 70
     0
  0
APPID
  5
23F1
330
9
100
AcDbSymbolTableRecord
100
AcDbRegAppTableRecord
  2
BBSI_StampsEx
 70
     0
  0
APPID
  5
23F2
330
9
100
AcDbSymbolTableRecord
100
AcDbRegAppTableRecord
  2
BBSI_Attachs
 70
     0
  0
APPID
  5
23F3
330
9
100
AcDbSymbolTableRecord
100
AcDbRegAppTableRecord
  2
BBSI_DigSigs
 70
     0
  0
ENDTAB
  0
TABLE
  2
DIMSTYLE
  5
A
330
0
100
AcDbSymbolTable
 70
     1
100
AcDbDimStyleTable
 71
     1
340
1455
  0
DIMSTYLE
105
1455
330
A
100
AcDbSymbolTableRecord
100
AcDbDimStyleTableRecord
  2
Standard
 70
     0
340
11
  0
ENDTAB
  0
TABLE
  2
BLOCK_RECORD
  5
1
330
0
100
AcDbSymbolTable
 70
     2
  0
BLOCK_RECORD
  5
1E
102
{ACAD_XDICTIONARY
360
20EF
102
}
330
1
100
AcDbSymbolTableRecord
100
AcDbBlockTableRecord
  2
*Model_Space
340
21
  0
BLOCK_RECORD
  5
1A
330
1
100
AcDbSymbolTableRecord
100
AcDbBlockTableRecord
  2
*Paper_Space
340
1D
  0
BLOCK_RECORD
  5
22
330
1
100
AcDbSymbolTableRecord
100
AcDbBlockTableRecord
  2
*X0
340
0
102
{BLKREFS
331
51A
102
}
  0
BLOCK_RECORD
  5
155E
102
{ACAD_XDICTIONARY
360
23AD
102
}
330
1
100
AcDbSymbolTableRecord
100
AcDbBlockTableRecord
  2
titleblock
340
0
102
{BLKREFS
331
156D
102
}
  0
ENDTAB
  0
ENDSEC
  0
SECTION
  2
BLOCKS
  0
BLOCK
  5
46
330
1E
100
AcDbEntity
  8
0
100
AcDbBlockBegin
  2
*Model_Space
 70
     0
 10
0.0
 20
0.0
 30
0.0
  3
*Model_Space
  1

  0
ENDBLK
  5
47
330
1E
100
AcDbEntity
  8
0
100
AcDbBlockEnd
  0
BLOCK
  5
44
330
1A
100
AcDbEntity
 67
     1
  8
0
100
AcDbBlockBegin
  2
*Paper_Space
 70
     0
 10
0.0
 20
0.0
 30
0.0
  3
*Paper_Space
  1

  0
ENDBLK
  5
45
330
1A
100
AcDbEntity
 67
     1
  8
0
100
AcDbBlockEnd
  0
BLOCK
  5
48
330
22
100
AcDbEntity
  8
0
100
AcDbBlockBegin
  2
*X0
 70
     1
 10
0.0
 20
0.0
 30
0.0
  3
*X0
  1

  0
LINE
  5
49
330
22
100
AcDbEntity
  8
0
 62
     0
100
AcDbLine
 10
3.89361936445091
 20
3.336772774266504
 30
0.0
 11
3.934501559992169
 21
3.377654969807764
 31
0.0
  0
LINE
  5
4A
330
22
100
AcDbEntity
  8
0
 62
     0
100
AcDbLine
 10
4.046779769581149
 20
3.489933179396744
 30
0.0
 11
4.070041886932459
 21
3.513195296748053
 31
0.0
  0
LINE
  5
4B
330
22
100
AcDbEntity
  8
0
 62
     0
100
AcDbLine
 10
4.038750696181844
 20
3.508420610291933
 30
0.0
 11
4.054471670232872
 21
3.524141584342961
 31
0.0
  0
LINE
  5
4C
330
22
100
AcDbEntity
  8
0
 62
     0
100
AcDbLine
 10
4.02731297975895
 20
3.523499398163535
 30
0.0
 11
4.037248690919456
 21
3.533435109324041
 31
0.0
  0
LINE
  5
4D
330
22
100
AcDbEntity
  8
0
 62
     0
100
AcDbLine
 10
4.012796330404094
 20
3.535499253103175
 30
0.0
 11
4.018182186297708
 21
3.540885108996788
 31
0.0
  0
LINE
  5
4E
330
22
100
AcDbEntity
  8
0
 62
     0
100
AcDbLine
 10
3.994977988736735
 20
3.544197415730311
 30
0.0
 11
3.996934499074212
 21
3.546153926067788
 31
0.0
  0
LINE
  5
4F
330
22
100
AcDbEntity
  8
0
 62
     0
100
AcDbLine
 10
3.972824120375948
 20
3.54856005166402
 30
0.0
 11
3.972886837547051
 21
3.548622768835122
 31
0.0
  0
LINE
  5
50
330
22
100
AcDbEntity
  8
0
 62
     0
100
AcDbLine
 10
3.886349433811542
 20
3.302986339332641
 30
0.0
 11
3.968288034027553
 21
3.384924939548651
 31
0.0
  0
LINE
  5
51
330
22
100
AcDbEntity
  8
0
 62
     0
100
AcDbLine
 10
4.050113427788753
 20
3.466750333309851
 30
0.0
 11
4.084058377486784
 21
3.500695283007882
 31
0.0
  0
LINE
  5
52
330
22
100
AcDbEntity
  8
0
 62
     0
100
AcDbLine
 10
3.889708873169734
 20
3.279829274396336
 30
0.0
 11
4.002168470638371
 21
3.392288871864974
 31
0.0
  0
LINE
  5
53
330
22
100
AcDbEntity
  8
0
 62
     0
100
AcDbLine
 10
4.04274949547243
 20
3.432869896699033
 30
0.0
 11
4.096551869853149
 21
3.486672271079751
 31
0.0
  0
LINE
  5
54
330
22
100
AcDbEntity
  8
0
 62
     0
100
AcDbLine
 10
3.89775419342303
 20
3.261358090355138
 30
0.0
 11
4.107491368170026
 21
3.471095265102134
 31
0.0
  0
LINE
  5
55
330
22
100
AcDbEntity
  8
0
 62
     0
100
AcDbLine
 10
3.909205325536151
 20
3.246292718173763
 30
0.0
 11
4.116777509265124
 21
3.453864901902735
 31
0.0
  0
LINE
  5
56
330
22
100
AcDbEntity
  8
0
 62
     0
100
AcDbLine
 10
3.923735198562356
 20
3.234306086905472
 30
0.0
 11
4.124219052756514
 21
3.43478994109963
 31
0.0
  0
LINE
  5
57
330
22
100
AcDbEntity
  8
0
 62
     0
100
AcDbLine
 10
3.941569012335999
 20
3.225623396384619
 30
0.0
 11
4.129477513982373
 21
3.413531898030994
 31
0.0
  0
LINE
  5
58
330
22
100
AcDbEntity
  8
0
 62
     0
100
AcDbLine
 10
3.963745956008321
 20
3.221283835762446
 30
0.0
 11
4.131932373022371
 21
3.389470252776496
 31
0.0
  0
LINE
  5
59
330
22
100
AcDbEntity
  8
0
 62
     0
100
AcDbLine
 10
3.991851912741163
 20
3.222873288200792
 30
0.0
 11
4.130283062597246
 21
3.361304438056876
 31
0.0
  0
LINE
  5
5A
330
22
100
AcDbEntity
  8
0
 62
     0
100
AcDbLine
 10
4.027921786727032
 20
3.232426657892166
 30
0.0
 11
4.120729692905873
 21
3.325234564071007
 31
0.0
  0
ENDBLK
  5
5B
330
22
100
AcDbEntity
  8
0
100
AcDbBlockEnd
  0
BLOCK
  5
156A
330
155E
100
AcDbEntity
  8
0
100
AcDbBlockBegin
  2
titleblock
 70
     2
 10
0.0
 20
0.0
 30
0.0
  3
titleblock
  1

  0
LWPOLYLINE
  5
155F
330
155E
100
AcDbEntity
  8
title
100
AcDbPolyline
 90
        4
 70
     1
 43
0.0
 10
0.0
 20
0.0
 10
10.38957010544926
 20
0.0
 10
10.38957010544926
 20
10.44
 10
0.0
 20
10.44
  0
ATTDEF
  5
1560
330
155E
100
AcDbEntity
  8
title
100
AcDbText
 10
0.5055556038023421
 20
0.7842270964783672
 30
0.0
 40
0.2
  1
D
  7
L200
 72
     4
 11
0.6064423705144839
 21
0.8842270964783672
 31
0.0
100
AcDbAttributeDefinition
  3
#
  2
D
 70
     0
  0
ATTDEF
  5
1561
330
155E
100
AcDbEntity
  8
title
100
AcDbText
 10
1.231442370514484
 20
1.34371230274675
 30
0.0
 40
0.2
  1

  7
L200
100
AcDbAttributeDefinition
  3
DETAIL TITLE TOP LINE
  2
TITLE1
 70
     0
  0
ATTDEF
  5
1562
330
155E
100
AcDbEntity
  8
title
100
AcDbText
 10
1.231442370514484
 20
0.9842270964783676
 30
0.0
 40
0.2
  1
TITLE
  7
L200
100
AcDbAttributeDefinition
  3
DETAIL TITLE TOP 2ND LINE
  2
TITLE2
 70
     0
  0
ATTDEF
  5
1563
330
155E
100
AcDbEntity
  8
title
100
AcDbText
 10
2.713645751168312
 20
0.5927927664583188
 30
0.0
 40
0.2
  1
TITLE2
  7
L200
100
AcDbAttributeDefinition
  3
DETAIL TITLE BOTTOM 1
  2
TITLE3
 70
     0
  0
ATTDEF
  5
1564
330
155E
100
AcDbEntity
  8
title
100
AcDbText
 10
2.713645751168312
 20
0.2692560808167741
 30
0.0
 40
0.2
  1

  7
L200
100
AcDbAttributeDefinition
  3
DETAIL TITLE BOTTOM 2
  2
TITLE4
 70
     0
  0
ATTDEF
  5
1565
330
155E
100
AcDbEntity
  8
title
 62
     7
100
AcDbText
 10
8.177214829966379
 20
0.96960279154464
 30
0.0
 40
0.08
  1
-
  7
L80
 72
     2
 11
8.261024353775903
 21
0.96960279154464
 31
0.0
100
AcDbAttributeDefinition
  3
REVISION DATE
  2
REVISED
 70
     0
  0
ATTDEF
  5
1566
330
155E
100
AcDbEntity
  8
title
 62
     7
100
AcDbText
 10
0.2639423705144838
 20
0.0847116480207215
 30
0.0
 40
0.08
  1
-
  7
L80
100
AcDbAttributeDefinition
  3
DWG-NAME
  2
DWG-NAME
 70
     0
  0
LWPOLYLINE
  5
1567
330
155E
100
AcDbEntity
  8
title
 62
     3
100
AcDbPolyline
 90
        2
 70
     1
 43
0.03
 10
0.6064423705144839
 20
0.5417270964783674
 42
0.9999999999999998
 10
0.6064423705144839
 20
1.226727096478367
 42
0.9999999999999998
  0
ATTDEF
  5
1568
330
155E
100
AcDbEntity
  8
title
 62
     7
100
AcDbText
 10
1.231442370514484
 20
0.7005637793954893
 30
0.0
 40
0.1
  1
N.T.S.
  7
L100
100
AcDbAttributeDefinition
  3
SCALE
  2
SCALE
 70
     0
  0
LWPOLYLINE
  5
1569
330
155E
100
AcDbEntity
  8
title
 62
     3
100
AcDbPolyline
 90
        2
 70
     0
 43
0.04
 39
0.03
 10
0.9489423705144833
 20
0.8842270964783672
 10
8.261024353775903
 20
0.8842270964783672
  0
ENDBLK
  5
156B
330
155E
100
AcDbEntity
  8
0
100
AcDbBlockEnd
  0
ENDSEC
  0
SECTION
  2
ENTITIES
  0
LINE
  5
4F6
330
1E
100
AcDbEntity
  8
image
100
AcDbLine
 10
2.376787025080117
 20
3.44818047586009
 30
0.0
 11
2.387042166543931
 21
3.46069014200379
 31
0.0
  0
LINE
  5
4F9
330
1E
100
AcDbEntity
  8
image
100
AcDbLine
 10
2.297857599112185
 20
3.448020752817713
 30
0.0
 11
2.287425024371657
 21
3.460746859764525
 31
0.0
  0
ARC
  5
50E
330
1E
100
AcDbEntity
  8
image
100
AcDbCircle
 10
2.337629801869475
 20
3.296150144712592
 30
0.0
 40
0.1569920689665123
100
AcDbArc
 50
180.0
 51
0.000000000000007
  0
ARC
  5
50F
330
1E
100
AcDbEntity
  8
image
100
AcDbCircle
 10
2.337629801869475
 20
3.296150144712592
 30
0.0
 40
0.1569920689665123
100
AcDbArc
 50
0.000000000000007
 51
180.0
  0
LWPOLYLINE
  5
510
330
1E
100
AcDbEntity
  8
image
100
AcDbPolyline
 90
        3
 70
     0
 43
0.0
 10
2.180637732902962
 20
3.296150144712592
 42
1.0
 10
2.337629801869475
 20
3.296150144712592
 42
-1.0
 10
2.494621870835987
 20
3.296150144712592
 42
-1.0
  0
LINE
  5
515
330
1E
100
AcDbEntity
  8
image
100
AcDbLine
 10
3.480436761434102
 20
3.139158075746079
 30
0.0
 11
0.8701749702209827
 21
3.139158075746079
 31
0.0
  0
LINE
  5
516
330
1E
100
AcDbEntity
  8
image
100
AcDbLine
 10
3.57914643814416
 20
4.110949237884137
 30
0.0
 11
1.829853512484663
 21
4.110949237884136
 31
0.0
  0
INSERT
  5
51A
330
1E
100
AcDbEntity
  8
image
100
AcDbBlockReference
  2
*X0
 10
5.582581434375839
 20
7.100287419237795
 30
0.0
 41
-0.95864803775953
 42
0.95864803775953
 43
0.95864803775953
 50
90.0
1001
ACAD
1000
HATCH
1002
{
1070
    16
1000
ANSI31
1040
0.15
1040
0.0
1002
}
  0
LINE
  5
598
330
1E
100
AcDbEntity
  8
image
100
AcDbLine
 10
2.335219846740616
 20
3.573314289930244
 30
0.0
 11
2.202731456363562
 21
3.573389723180609
 31
0.0
  0
LINE
  5
5AD
330
1E
100
AcDbEntity
  8
image
100
AcDbLine
 10
2.230351196366811
 20
3.609702138861873
 30
0.0
 11
2.214387512359175
 21
3.573383086718445
 31
0.0
  0
LINE
  5
5B2
330
1E
100
AcDbEntity
  8
image
100
AcDbLine
 10
2.467644130541387
 20
3.460644250676156
 30
0.0
 11
2.467708237117672
 21
3.57323885667988
 31
0.0
  0
LINE
  5
5C1
330
1E
100
AcDbEntity
  8
image
100
AcDbLine
 10
2.307275770257439
 20
3.609658341283647
 30
0.0
 11
2.32319808688378
 21
3.573321134608624
 31
0.0
  0
LINE
  5
5C9
330
1E
100
AcDbEntity
  8
image
100
AcDbLine
 10
2.307275770257439
 20
3.609658341283647
 30
0.0
 11
2.230351196366814
 21
3.609702138861873
 31
0.0
  0
LINE
  5
5CA
330
1E
100
AcDbEntity
  8
image
100
AcDbLine
 10
2.307275770257439
 20
3.609658341283647
 30
0.0
 11
2.307281471585888
 21
3.619671960284648
 31
0.0
  0
LINE
  5
5CB
330
1E
100
AcDbEntity
  8
image
100
AcDbLine
 10
2.230351196366814
 20
3.609702138861873
 30
0.0
 11
2.230356872758785
 21
3.619671960284648
 31
0.0
  0
LINE
  5
5F0
330
1E
100
AcDbEntity
  8
image
100
AcDbLine
 10
2.335219846740616
 20
3.573314289930245
 30
0.0
 11
2.467708237117671
 21
3.573238856679881
 31
0.0
  0
LINE
  5
608
330
1E
100
AcDbEntity
  8
image
100
AcDbLine
 10
2.335162330549073
 20
3.472294811102643
 30
0.0
 11
2.467650720926127
 21
3.472219377852277
 31
0.0
  0
LINE
  5
609
330
1E
100
AcDbEntity
  8
image
100
AcDbLine
 10
2.335155740164333
 20
3.460719683926522
 30
0.0
 11
2.467644130541387
 21
3.460644250676163
 31
0.0
  0
LINE
  5
61B
330
1E
100
AcDbEntity
  8
image
100
AcDbLine
 10
2.335155740164331
 20
3.460719683926523
 30
0.0
 11
2.202667349787277
 21
3.460795117176893
 31
0.0
  0
LINE
  5
625
330
1E
100
AcDbEntity
  8
image
100
AcDbLine
 10
2.202667349787276
 20
3.460795117176888
 30
0.0
 11
2.202731456363562
 21
3.573389723180609
 31
0.0
  0
LINE
  5
62F
330
1E
100
AcDbEntity
  8
image
100
AcDbLine
 10
2.335162330549072
 20
3.472294811102643
 30
0.0
 11
2.202673940172018
 21
3.472370244353009
 31
0.0
  0
LINE
  5
9BC
330
1E
100
AcDbEntity
  8
image
100
AcDbLine
 10
2.218281577841207
 20
3.619671960284648
 30
0.0
 11
2.318783933147547
 21
3.619671960284648
 31
0.0
  0
CIRCLE
  5
E60
330
1E
100
AcDbEntity
  8
text_bubbles
100
AcDbCircle
 10
3.969349384131779
 20
3.944290253827016
 30
0.0
 40
0.15625
  0
TEXT
  5
E61
330
1E
100
AcDbEntity
  8
text_bubbles
100
AcDbText
 10
3.90982557460797
 20
3.881790253827016
 30
0.0
 40
0.125
  1
5
  7
ROMANS
 72
     4
 11
3.969349384131779
 21
3.944290253827016
 31
0.0
100
AcDbText
  0
CIRCLE
  5
E7C
330
1E
100
AcDbEntity
  8
text_bubbles
100
AcDbCircle
 10
5.151947997112688
 20
4.530867262454734
 30
0.0
 40
0.15625
  0
CIRCLE
  5
E7D
330
1E
100
AcDbEntity
  8
text_bubbles
100
AcDbCircle
 10
5.151947997112688
 20
3.894109106467728
 30
0.0
 40
0.15625
  0
CIRCLE
  5
E7E
330
1E
100
AcDbEntity
  8
text_bubbles
100
AcDbCircle
 10
5.151947997112688
 20
3.472881736991124
 30
0.0
 40
0.15625
  0
TEXT
  5
E7F
330
1E
100
AcDbEntity
  8
text_bubbles
100
AcDbText
 10
5.089447997112688
 20
3.831609106467728
 30
0.0
 40
0.125
  1
4
  7
ROMANS
 72
     4
 11
5.151947997112688
 21
3.894109106467728
 31
0.0
100
AcDbText
  0
TEXT
  5
E80
330
1E
100
AcDbEntity
  8
text_bubbles
100
AcDbText
 10
5.092424187588878
 20
3.410381736991124
 30
0.0
 40
0.125
  1
5
  7
ROMANS
 72
     4
 11
5.151947997112688
 21
3.472881736991124
 31
0.0
100
AcDbText
  0
TEXT
  5
E81
330
1E
100
AcDbEntity
  8
text_bubbles
100
AcDbText
 10
5.092424187588878
 20
4.468367262454734
 30
0.0
 40
0.125
  1
3
  7
ROMANS
 72
     4
 11
5.151947997112688
 21
4.530867262454734
 31
0.0
100
AcDbText
  0
CIRCLE
  5
E84
330
1E
100
AcDbEntity
  8
text_bubbles
100
AcDbCircle
 10
5.151947997112688
 20
5.422712056292045
 30
0.0
 40
0.15625
  0
CIRCLE
  5
E85
330
1E
100
AcDbEntity
  8
text_bubbles
100
AcDbCircle
 10
5.151947997112688
 20
4.986849326162749
 30
0.0
 40
0.15625
  0
TEXT
  5
E86
330
1E
100
AcDbEntity
  8
text_bubbles
100
AcDbText
 10
5.092424187588878
 20
4.924349326162749
 30
0.0
 40
0.125
  1
2
  7
ROMANS
 72
     4
 11
5.151947997112688
 21
4.986849326162749
 31
0.0
100
AcDbText
  0
TEXT
  5
E87
330
1E
100
AcDbEntity
  8
text_bubbles
100
AcDbText
 10
5.10135275901745
 20
5.360212056292045
 30
0.0
 40
0.125
  1
1
  7
ROMANS
 72
     4
 11
5.151947997112688
 21
5.422712056292045
 31
0.0
100
AcDbText
  0
TEXT
  5
E8C
330
1E
100
AcDbEntity
  8
text_bubbles
100
AcDbText
 10
1.625738958982048
 20
5.492457793797292
 30
0.0
 40
0.125
  1
3
  7
ROMANS
 72
     4
 11
1.685262768505858
 21
5.554957793797292
 31
0.0
100
AcDbText
  0
CIRCLE
  5
E8D
330
1E
100
AcDbEntity
  8
text_bubbles
100
AcDbCircle
 10
1.685262768505858
 20
5.554957793797292
 30
0.0
 40
0.15625
  0
TEXT
  5
E8E
330
1E
100
AcDbEntity
  8
text_bubbles
100
AcDbText
 10
1.008748468038427
 20
5.492457793797292
 30
0.0
 40
0.125
  1
2
  7
ROMANS
 72
     4
 11
1.068272277562237
 21
5.554957793797292
 31
0.0
100
AcDbText
  0
CIRCLE
  5
E8F
330
1E
100
AcDbEntity
  8
text_bubbles
100
AcDbCircle
 10
1.068272277562237
 20
5.554957793797292
 30
0.0
 40
0.15625
  0
TEXT
  5
E93
330
1E
100
AcDbEntity
  8
text_bubbles
100
AcDbText
 10
0.6307759896823101
 20
5.492457793797292
 30
0.0
 40
0.125
  1
1
  7
ROMANS
 72
     4
 11
0.6813712277775482
 21
5.554957793797292
 31
0.0
100
AcDbText
  0
CIRCLE
  5
E94
330
1E
100
AcDbEntity
  8
text_bubbles
100
AcDbCircle
 10
0.6813712277775482
 20
5.554957793797292
 30
0.0
 40
0.15625
  0
CIRCLE
  5
EB0
330
1E
100
AcDbEntity
  8
text_bubbles
100
AcDbCircle
 10
5.156361070657371
 20
2.826369375810726
 30
0.0
 40
0.15625
  0
CIRCLE
  5
EB1
330
1E
100
AcDbEntity
  8
text_bubbles
100
AcDbCircle
 10
5.156361070657371
 20
1.982334758344322
 30
0.0
 40
0.15625
  0
TEXT
  5
EB2
330
1E
100
AcDbEntity
  8
text_bubbles
100
AcDbText
 10
5.096837261133562
 20
1.919834758344322
 30
0.0
 40
0.125
  1
7
  7
ROMANS
 72
     4
 11
5.156361070657371
 21
1.982334758344322
 31
0.0
100
AcDbText
  0
TEXT
  5
EB3
330
1E
100
AcDbEntity
  8
text_bubbles
100
AcDbText
 10
5.093861070657371
 20
2.763869375810726
 30
0.0
 40
0.125
  1
6
  7
ROMANS
 72
     4
 11
5.156361070657371
 21
2.826369375810726
 31
0.0
100
AcDbText
  0
CIRCLE
  5
14C3
330
1E
100
AcDbEntity
  8
text_bubbles
100
AcDbCircle
 10
2.89691093328473
 20
5.554957793797292
 30
0.0
 40
0.15625
  0
TEXT
  5
14C4
330
1E
100
AcDbEntity
  8
text_bubbles
100
AcDbText
 10
2.83441093328473
 20
5.492457793797292
 30
0.0
 40
0.125
  1
4
  7
ROMANS
 72
     4
 11
2.89691093328473
 21
5.554957793797292
 31
0.0
100
AcDbText
  0
INSERT
  5
156D
330
1E
100
AcDbEntity
  8
title
100
AcDbBlockReference
 66
     1
  2
titleblock
 10
-0.5527195034084712
 20
-3.508528264422416
 30
0.0
  0
ATTRIB
  5
156E
330
156D
100
AcDbEntity
  8
title
100
AcDbText
 10
-0.0471638996061292
 20
-2.724301167944048
 30
0.0
 40
0.2
  1
D
  7
L200
 72
     4
 11
0.0537228671060127
 21
-2.624301167944048
 31
0.0
100
AcDbAttribute
  2
D
 70
     0
  0
ATTRIB
  5
156F
330
156D
100
AcDbEntity
  8
title
100
AcDbText
 10
0.6787228671060129
 20
-2.164815961675665
 30
0.0
 40
0.2
  1
PRESSURE-COMPENSATING MODULE INTO
  7
L200
100
AcDbAttribute
  2
TITLE1
 70
     0
  0
ATTRIB
  5
1570
330
156D
100
AcDbEntity
  8
title
100
AcDbText
 10
0.6787228671060129
 20
-2.524301167944048
 30
0.0
 40
0.2
  1
1/2" TUBING WITH 1/4" TUBING, STAKE
  7
L200
100
AcDbAttribute
  2
TITLE2
 70
     0
  0
ATTRIB
  5
1571
330
156D
100
AcDbEntity
  8
title
100
AcDbText
 10
2.160926247759841
 20
-2.915735497964097
 30
0.0
 40
0.2
  1
AND BUG CAP - OPTION 2
  7
L200
100
AcDbAttribute
  2
TITLE3
 70
     0
  0
ATTRIB
  5
1572
330
156D
100
AcDbEntity
  8
title
100
AcDbText
 10
2.160926247759841
 20
-3.239272183605641
 30
0.0
 40
0.2
  1

  7
L200
100
AcDbAttribute
  2
TITLE4
 70
     0
  0
ATTRIB
  5
1573
330
156D
100
AcDbEntity
  8
title
 62
     7
100
AcDbText
 10
7.140685802748384
 20
-2.538925472877775
 30
0.0
 40
0.08
  1
1-13-10
  7
L80
 72
     2
 11
7.708304850367432
 21
-2.538925472877775
 31
0.0
100
AcDbAttribute
  2
REVISED
 70
     0
  0
ATTRIB
  5
1574
330
156D
100
AcDbEntity
  8
title
 62
     7
100
AcDbText
 10
-0.2887771328939874
 20
-3.423816616401694
 30
0.0
 40
0.08
  1
PC Module Option 2.dwg
  7
L80
100
AcDbAttribute
  2
DWG-NAME
 70
     0
  0
ATTRIB
  5
1575
330
156D
100
AcDbEntity
  8
title
 62
     7
100
AcDbText
 10
0.6787228671060129
 20
-2.807964485026926
 30
0.0
 40
0.1
  1
N.T.S.
  7
L100
100
AcDbAttribute
  2
SCALE
 70
     0
  0
SEQEND
  5
1576
330
156D
100
AcDbEntity
  8
title
  0
LINE
  5
2193
330
1E
100
AcDbEntity
  8
image
100
AcDbLine
 10
0.2824891556737458
 20
4.427966329406181
 30
0.0
 11
0.312284734941347
 21
4.569934409709929
 31
0.0
  0
LINE
  5
2194
330
1E
100
AcDbEntity
  8
image
100
AcDbLine
 10
0.2688234006228884
 20
4.430834432482579
 30
0.0
 11
0.2986189798904903
 21
4.572802512786325
 31
0.0
  0
LINE
  5
2195
330
1E
100
AcDbEntity
  8
image
100
AcDbLine
 10
0.3953304903121096
 20
4.552505165180501
 30
0.0
 11
0.3842950898589056
 21
4.499924391245757
 31
0.0
  0
LINE
  5
2196
330
1E
100
AcDbEntity
  8
image
100
AcDbLine
 10
0.3012493344881425
 20
4.517353635775188
 30
0.0
 11
0.3842950898589056
 21
4.499924391245757
 31
0.0
  0
LINE
  5
2197
330
1E
100
AcDbEntity
  8
image
100
AcDbLine
 10
0.2313481543080268
 20
4.675853857335791
 30
0.0
 11
0.3164963287550827
 21
4.657983367181944
 31
0.0
  0
LINE
  5
2198
330
1E
100
AcDbEntity
  8
image
100
AcDbLine
 10
0.3284145591580908
 20
4.714770593090073
 30
0.0
 11
0.2986189798904903
 21
4.572802512786325
 31
0.0
  0
LINE
  5
2199
330
1E
100
AcDbEntity
  8
image
100
AcDbLine
 10
0.3420803142089471
 20
4.711902490013677
 30
0.0
 11
0.312284734941347
 21
4.569934409709929
 31
0.0
  0
LINE
  5
219A
330
1E
100
AcDbEntity
  8
image
100
AcDbLine
 10
0.3953304903121096
 20
4.552505165180501
 30
0.0
 11
0.4063658907653119
 21
4.605085939115243
 31
0.0
  0
LINE
  5
219B
330
1E
100
AcDbEntity
  8
image
100
AcDbLine
 10
0.32332013539455
 20
4.622515183644668
 30
0.0
 11
0.4063658907653119
 21
4.605085939115243
 31
0.0
  0
LWPOLYLINE
  5
219C
330
1E
100
AcDbEntity
  8
image
100
AcDbPolyline
 90
        2
 70
   128
 43
0.0
 10
0.5587316479774535
 20
4.568596919233453
 10
0.4055786392464344
 20
4.601334893168205
  0
LWPOLYLINE
  5
219D
330
1E
100
AcDbEntity
  8
image
100
AcDbPolyline
 90
        2
 70
   128
 43
0.0
 10
0.5385781094611363
 20
4.473238446872636
 10
0.3854573538868128
 20
4.505462272935058
  0
LINE
  5
219E
330
1E
100
AcDbEntity
  8
image
100
AcDbLine
 10
0.2688234006228899
 20
4.430834432482579
 30
0.0
 11
0.2824891556737458
 21
4.427966329406181
 31
0.0
  0
LINE
  5
219F
330
1E
100
AcDbEntity
  8
image
100
AcDbLine
 10
0.1955934565788407
 20
4.505492148544552
 30
0.0
 11
0.2807416310258969
 21
4.487621658390708
 31
0.0
  0
LINE
  5
21A0
330
1E
100
AcDbEntity
  8
image
100
AcDbLine
 10
0.2134708054434343
 20
4.590673002940172
 30
0.0
 11
0.2313481543080268
 21
4.675853857335791
 31
0.0
  0
LINE
  5
21A1
330
1E
100
AcDbEntity
  8
image
100
AcDbLine
 10
0.2134708054434343
 20
4.590673002940172
 30
0.0
 11
0.1955934565788407
 21
4.505492148544552
 31
0.0
  0
LINE
  5
21A2
330
1E
100
AcDbEntity
  8
image
100
AcDbLine
 10
0.202273781063028
 20
4.631450752511887
 30
0.0
 11
0.2211955838046275
 21
4.627479535374438
 31
0.0
  0
LINE
  5
21A3
330
1E
100
AcDbEntity
  8
image
100
AcDbLine
 10
0.1945490027018367
 20
4.594644220077621
 30
0.0
 11
0.1868242243406425
 21
4.557837687643358
 31
0.0
  0
LINE
  5
21A4
330
1E
100
AcDbEntity
  8
image
100
AcDbLine
 10
0.1868242243406425
 20
4.557837687643358
 30
0.0
 11
0.2057460270822395
 21
4.553866470505912
 31
0.0
  0
LINE
  5
21A5
330
1E
100
AcDbEntity
  8
image
100
AcDbLine
 10
0.1945490027018367
 20
4.594644220077621
 30
0.0
 11
0.202273781063028
 21
4.631450752511887
 31
0.0
  0
LINE
  5
21A6
330
1E
100
AcDbEntity
  8
image
100
AcDbLine
 10
0.3284145591580908
 20
4.714770593090073
 30
0.0
 11
0.3420803142089471
 21
4.711902490013677
 31
0.0
  0
LWPOLYLINE
  5
21C9
330
1E
100
AcDbEntity
  8
image
100
AcDbPolyline
 90
        3
 70
     0
 43
0.0
 10
0.7813683234911188
 20
4.470339078044125
 10
0.7813683234911188
 20
1.809865495222719
 10
0.7813683234911188
 20
1.809865495222719
  0
LWPOLYLINE
  5
21CA
330
1E
100
AcDbEntity
  8
image
100
AcDbPolyline
 90
        3
 70
     0
 43
0.0
 10
0.8120405924016951
 20
4.470339078044125
 10
0.8120405924016951
 20
1.809865495222719
 10
0.8120405924016951
 20
1.809865495222719
  0
LWPOLYLINE
  5
21CB
330
1E
100
AcDbEntity
  8
image
100
AcDbPolyline
 90
        3
 70
     0
 43
0.0
 10
0.6709735305389625
 20
4.406743193144935
 10
0.7813683234911188
 20
1.809865495222719
 10
0.7813683234911188
 20
1.809865495222719
  0
LWPOLYLINE
  5
21CC
330
1E
100
AcDbEntity
  8
image
100
AcDbPolyline
 90
        3
 70
     0
 43
0.0
 10
0.9233173573630192
 20
4.354304493220466
 10
0.8120405924016951
 20
1.809865495222719
 10
0.8120405924016951
 20
1.809865495222719
  0
LWPOLYLINE
  5
21CD
330
1E
100
AcDbEntity
  8
image
100
AcDbPolyline
 90
       10
 70
     0
 43
0.0
 10
0.7813683234911188
 20
1.809865495222719
 10
0.7831213449533493
 20
1.804608299728846
 10
0.7866273878778091
 20
1.799349235342154
 10
0.7910080726405676
 20
1.795845061310512
 10
0.7971436477583728
 20
1.794968550579397
 10
0.8032773539833616
 20
1.795845061310512
 10
0.8076580387461198
 20
1.799349235342154
 10
0.8111640816705804
 20
1.804608299728846
 10
0.8120405924016951
 20
1.809865495222719
 10
0.8120405924016951
 20
1.809865495222719
  0
LWPOLYLINE
  5
21CE
330
1E
100
AcDbEntity
  8
image
100
AcDbPolyline
 90
        2
 70
     0
 43
0.0
 10
0.8120405924016951
 20
4.377449498366913
 10
1.031119683967223
 20
4.331882153705832
  0
LWPOLYLINE
  5
21CF
330
1E
100
AcDbEntity
  8
image
100
AcDbPolyline
 90
        3
 70
     0
 43
0.0
 10
0.9233331596466896
 20
4.531681746972459
 10
1.066172637640558
 20
4.501885988792998
 10
1.066172637640558
 20
4.501885988792998
  0
LWPOLYLINE
  5
21D0
330
1E
100
AcDbEntity
  8
image
100
AcDbPolyline
 90
        2
 70
     0
 43
0.0
 10
0.5666717855811664
 20
4.606166470189072
 10
0.67095226697724
 20
4.584259308589647
  0
LWPOLYLINE
  5
21D1
330
1E
100
AcDbEntity
  8
image
100
AcDbPolyline
 90
        2
 70
     0
 43
0.0
 10
0.67095226697724
 20
4.606166470189072
 10
0.67095226697724
 20
4.584259308589647
  0
LWPOLYLINE
  5
21D2
330
1E
100
AcDbEntity
  8
image
100
AcDbPolyline
 90
        3
 70
     0
 43
0.0
 10
0.5666717855811664
 20
4.606166470189072
 10
0.5307423211767161
 20
4.436162635101903
 10
0.5316188319078311
 20
4.436162635101903
  0
LWPOLYLINE
  5
21D3
330
1E
100
AcDbEntity
  8
image
100
AcDbPolyline
 90
        2
 70
     0
 43
0.0
 10
0.9233331596466896
 20
4.606166470189072
 10
0.9233331596466896
 20
4.531681746972459
  0
LWPOLYLINE
  5
21D4
330
1E
100
AcDbEntity
  8
image
100
AcDbPolyline
 90
        2
 70
     0
 43
0.0
 10
0.5307423211767161
 20
4.436162635101903
 10
0.7813683234911188
 20
4.383583204591902
  0
LWPOLYLINE
  5
21D5
330
1E
100
AcDbEntity
  8
image
100
AcDbPolyline
 90
        4
 70
     0
 43
0.0
 10
0.7331714466366912
 20
4.4826064904941
 10
0.7489449020111284
 20
4.477349295000226
 10
0.7647183573855667
 20
4.47296861023747
 10
0.7813683234911188
 20
4.470339078044125
  0
LWPOLYLINE
  5
21D6
330
1E
100
AcDbEntity
  8
image
100
AcDbPolyline
 90
        8
 70
     0
 43
0.0
 10
0.7331714466366912
 20
4.4826064904941
 10
0.7296654037122311
 20
4.500132967330768
 10
0.7244082082183576
 20
4.516782933436322
 10
0.716521480531139
 20
4.532556388810759
 10
0.707758242112805
 20
4.547455202346898
 10
0.6963654715011259
 20
4.561473767366289
 10
0.6840980590511489
 20
4.573743048709082
 10
0.67095226697724
 20
4.584259308589647
  0
LWPOLYLINE
  5
21D7
330
1E
100
AcDbEntity
  8
image
100
AcDbPolyline
 90
        8
 70
     0
 43
0.0
 10
0.8120405924016951
 20
4.470339078044125
 10
0.8304435799694779
 20
4.47296861023747
 10
0.8488446986444438
 20
4.478225805731343
 10
0.8663711754811115
 20
4.485236022687447
 10
0.8821446308555488
 20
4.49399926110578
 10
0.8979199551228031
 20
4.505390162824641
 10
0.9110638783038956
 20
4.517659444167437
 10
0.9233331596466896
 20
4.531681746972459
  0
LWPOLYLINE
  5
21D8
330
1E
100
AcDbEntity
  8
image
100
AcDbPolyline
 90
        2
 70
     0
 43
0.0
 10
0.67095226697724
 20
4.606166470189072
 10
0.9233331596466896
 20
4.606166470189072
  0
LWPOLYLINE
  5
21D9
330
1E
100
AcDbEntity
  8
image
100
AcDbPolyline
 90
        2
 70
     0
 43
0.0
 10
1.066172637640558
 20
4.501885988792998
 10
1.031119683967223
 20
4.331882153705832
  0
LINE
  5
2280
330
1E
100
AcDbEntity
  8
image
100
AcDbLine
 10
0.6835479049400526
 20
4.110949237884137
 30
0.0
 11
0.0527399950274514
 21
4.110949237884137
 31
0.0
  0
LINE
  5
2281
330
1E
100
AcDbEntity
  8
image
100
AcDbLine
 10
0.7248593168031539
 20
3.139158075746079
 30
0.0
 11
0.0704324238237604
 21
3.139158075746079
 31
0.0
  0
POLYLINE
  5
2284
330
1E
100
AcDbEntity
  8
image
100
AcDb2dPolyline
 66
     1
 10
0.0
 20
0.0
 30
0.0
 70
   132
 75
     6
  0
VERTEX
  5
2286
330
2284
100
AcDbEntity
  8
image
100
AcDbVertex
100
AcDb2dVertex
 10
2.318783933147547
 20
3.619671960284648
 30
0.0
 70
    16
  0
VERTEX
  5
228E
330
2284
100
AcDbEntity
  8
image
100
AcDbVertex
100
AcDb2dVertex
 10
2.318783933147547
 20
3.619671960284648
 30
0.0
 70
     8
  0
VERTEX
  5
228F
330
2284
100
AcDbEntity
  8
image
100
AcDbVertex
100
AcDb2dVertex
 10
2.310361492320733
 20
3.663415356539353
 30
0.0
 70
     8
  0
VERTEX
  5
2290
330
2284
100
AcDbEntity
  8
image
100
AcDbVertex
100
AcDb2dVertex
 10
2.299666398801436
 20
3.702707764126342
 30
0.0
 70
     8
  0
VERTEX
  5
2291
330
2284
100
AcDbEntity
  8
image
100
AcDbVertex
100
AcDb2dVertex
 10
2.286797805941212
 20
3.738027836952963
 30
0.0
 70
     8
  0
VERTEX
  5
2292
330
2284
100
AcDbEntity
  8
image
100
AcDbVertex
100
AcDb2dVertex
 10
2.271854867091616
 20
3.769854228926563
 30
0.0
 70
     8
  0
VERTEX
  5
2293
330
2284
100
AcDbEntity
  8
image
100
AcDbVertex
100
AcDb2dVertex
 10
2.254936735604204
 20
3.798665593954492
 30
0.0
 70
     8
  0
VERTEX
  5
2294
330
2284
100
AcDbEntity
  8
image
100
AcDbVertex
100
AcDb2dVertex
 10
2.236142564830531
 20
3.824940585944097
 30
0.0
 70
     8
  0
VERTEX
  5
2295
330
2284
100
AcDbEntity
  8
image
100
AcDbVertex
100
AcDb2dVertex
 10
2.215571508122155
 20
3.849157858802724
 30
0.0
 70
     8
  0
VERTEX
  5
2296
330
2284
100
AcDbEntity
  8
image
100
AcDbVertex
100
AcDb2dVertex
 10
2.19332271883063
 20
3.87179606643772
 30
0.0
 70
     8
  0
VERTEX
  5
2297
330
2284
100
AcDbEntity
  8
image
100
AcDbVertex
100
AcDb2dVertex
 10
2.169496415506723
 20
3.893286182428852
 30
0.0
 70
     8
  0
VERTEX
  5
2298
330
2284
100
AcDbEntity
  8
image
100
AcDbVertex
100
AcDb2dVertex
 10
2.144197077498036
 20
3.913868459045554
 30
0.0
 70
     8
  0
VERTEX
  5
2299
330
2284
100
AcDbEntity
  8
image
100
AcDbVertex
100
AcDb2dVertex
 10
2.117530249351383
 20
3.933735468229674
 30
0.0
 70
     8
  0
VERTEX
  5
229A
330
2284
100
AcDbEntity
  8
image
100
AcDbVertex
100
AcDb2dVertex
 10
2.08960147561358
 20
3.953079781923064
 30
0.0
 70
     8
  0
VERTEX
  5
229B
330
2284
100
AcDbEntity
  8
image
100
AcDbVertex
100
AcDb2dVertex
 10
2.060516300831437
 20
3.972093972067573
 30
0.0
 70
     8
  0
VERTEX
  5
229C
330
2284
100
AcDbEntity
  8
image
100
AcDbVertex
100
AcDb2dVertex
 10
2.030380269551769
 20
3.990970610605052
 30
0.0
 70
     8
  0
VERTEX
  5
229D
330
2284
100
AcDbEntity
  8
image
100
AcDbVertex
100
AcDb2dVertex
 10
1.999298926321391
 20
4.00990226947735
 30
0.0
 70
     8
  0
VERTEX
  5
229E
330
2284
100
AcDbEntity
  8
image
100
AcDbVertex
100
AcDb2dVertex
 10
1.967377815687115
 20
4.029081520626319
 30
0.0
 70
     8
  0
VERTEX
  5
229F
330
2284
100
AcDbEntity
  8
image
100
AcDbVertex
100
AcDb2dVertex
 10
1.934651354317597
 20
4.048691765913943
 30
0.0
 70
     8
  0
VERTEX
  5
22A0
330
2284
100
AcDbEntity
  8
image
100
AcDbVertex
100
AcDb2dVertex
 10
1.900869447368868
 20
4.068879726882747
 30
0.0
 70
     8
  0
VERTEX
  5
22A1
330
2284
100
AcDbEntity
  8
image
100
AcDbVertex
100
AcDb2dVertex
 10
1.865710872118798
 20
4.089782954995389
 30
0.0
 70
     8
  0
VERTEX
  5
22A2
330
2284
100
AcDbEntity
  8
image
100
AcDbVertex
100
AcDb2dVertex
 10
1.828854405845261
 20
4.111539001714529
 30
0.0
 70
     8
  0
VERTEX
  5
22A3
330
2284
100
AcDbEntity
  8
image
100
AcDbVertex
100
AcDb2dVertex
 10
1.789978825826127
 20
4.134285418502825
 30
0.0
 70
     8
  0
VERTEX
  5
22A4
330
2284
100
AcDbEntity
  8
image
100
AcDbVertex
100
AcDb2dVertex
 10
1.74876290933927
 20
4.158159756822937
 30
0.0
 70
     8
  0
VERTEX
  5
22A5
330
2284
100
AcDbEntity
  8
image
100
AcDbVertex
100
AcDb2dVertex
 10
1.704885433662561
 20
4.183299568137522
 30
0.0
 70
     8
  0
VERTEX
  5
22A6
330
2284
100
AcDbEntity
  8
image
100
AcDbVertex
100
AcDb2dVertex
 10
1.658025176073872
 20
4.209842403909242
 30
0.0
 70
     8
  0
VERTEX
  5
22A7
330
2284
100
AcDbEntity
  8
image
100
AcDbVertex
100
AcDb2dVertex
 10
1.60771017093969
 20
4.23789246216235
 30
0.0
 70
     8
  0
VERTEX
  5
22A8
330
2284
100
AcDbEntity
  8
image
100
AcDbVertex
100
AcDb2dVertex
 10
1.552865480980966
 20
4.267420527167491
 30
0.0
 70
     8
  0
VERTEX
  5
22A9
330
2284
100
AcDbEntity
  8
image
100
AcDbVertex
100
AcDb2dVertex
 10
1.492265426007262
 20
4.298364029756905
 30
0.0
 70
     8
  0
VERTEX
  5
22AA
330
2284
100
AcDbEntity
  8
image
100
AcDbVertex
100
AcDb2dVertex
 10
1.424684325828146
 20
4.330660400762835
 30
0.0
 70
     8
  0
VERTEX
  5
22AB
330
2284
100
AcDbEntity
  8
image
100
AcDbVertex
100
AcDb2dVertex
 10
1.348896500253179
 20
4.364247071017518
 30
0.0
 70
     8
  0
VERTEX
  5
22AC
330
2284
100
AcDbEntity
  8
image
100
AcDbVertex
100
AcDb2dVertex
 10
1.263676269091928
 20
4.399061471353198
 30
0.0
 70
     8
  0
VERTEX
  5
22AD
330
2284
100
AcDbEntity
  8
image
100
AcDbVertex
100
AcDb2dVertex
 10
1.167797952153957
 20
4.435041032602113
 30
0.0
 70
     8
  0
VERTEX
  5
22AE
330
2284
100
AcDbEntity
  8
image
100
AcDbVertex
100
AcDb2dVertex
 10
1.060035869248831
 20
4.472123185596506
 30
0.0
 70
     8
  0
VERTEX
  5
2287
330
2284
100
AcDbEntity
  8
image
100
AcDbVertex
100
AcDb2dVertex
 10
2.299442430845182
 20
3.742681138660678
 30
0.0
 70
    16
  0
VERTEX
  5
2288
330
2284
100
AcDbEntity
  8
image
100
AcDbVertex
100
AcDb2dVertex
 10
2.210160897300951
 20
3.883533787144724
 30
0.0
 70
    16
  0
VERTEX
  5
2289
330
2284
100
AcDbEntity
  8
image
100
AcDbVertex
100
AcDb2dVertex
 10
1.975209526162679
 20
4.024386435628766
 30
0.0
 70
    16
  0
VERTEX
  5
228A
330
2284
100
AcDbEntity
  8
image
100
AcDbVertex
100
AcDb2dVertex
 10
1.693267892171022
 20
4.193409594098124
 30
0.0
 70
    16
  0
VERTEX
  5
228B
330
2284
100
AcDbEntity
  8
image
100
AcDbVertex
100
AcDb2dVertex
 10
1.364335938454651
 20
4.371822938988831
 30
0.0
 70
    16
  0
VERTEX
  5
228C
330
2284
100
AcDbEntity
  8
image
100
AcDbVertex
100
AcDb2dVertex
 10
1.060035869248831
 20
4.472123185596506
 30
0.0
 70
    16
  0
SEQEND
  5
228D
330
2284
100
AcDbEntity
  8
image
  0
POLYLINE
  5
2285
330
1E
100
AcDbEntity
  8
image
100
AcDb2dPolyline
 66
     1
 10
0.0
 20
0.0
 30
0.0
 70
   132
 75
     6
  0
VERTEX
  5
22AF
330
2285
100
AcDbEntity
  8
image
100
AcDbVertex
100
AcDb2dVertex
 10
2.218281577841207
 20
3.619671960284648
 30
0.0
 70
    16
  0
VERTEX
  5
22B7
330
2285
100
AcDbEntity
  8
image
100
AcDbVertex
100
AcDb2dVertex
 10
2.218281577841207
 20
3.619671960284648
 30
0.0
 70
     8
  0
VERTEX
  5
22B8
330
2285
100
AcDbEntity
  8
image
100
AcDbVertex
100
AcDb2dVertex
 10
2.211862709449339
 20
3.650632831010016
 30
0.0
 70
     8
  0
VERTEX
  5
22B9
330
2285
100
AcDbEntity
  8
image
100
AcDbVertex
100
AcDb2dVertex
 10
2.203756573282448
 20
3.678651052931327
 30
0.0
 70
     8
  0
VERTEX
  5
22BA
330
2285
100
AcDbEntity
  8
image
100
AcDbVertex
100
AcDb2dVertex
 10
2.193944240091266
 20
3.704088803463412
 30
0.0
 70
     8
  0
VERTEX
  5
22BB
330
2285
100
AcDbEntity
  8
image
100
AcDbVertex
100
AcDb2dVertex
 10
2.182406780626523
 20
3.727308260021105
 30
0.0
 70
     8
  0
VERTEX
  5
22BC
330
2285
100
AcDbEntity
  8
image
100
AcDbVertex
100
AcDb2dVertex
 10
2.169125265638952
 20
3.748671600019237
 30
0.0
 70
     8
  0
VERTEX
  5
22BD
330
2285
100
AcDbEntity
  8
image
100
AcDbVertex
100
AcDb2dVertex
 10
2.154080765879284
 20
3.768541000872641
 30
0.0
 70
     8
  0
VERTEX
  5
22BE
330
2285
100
AcDbEntity
  8
image
100
AcDbVertex
100
AcDb2dVertex
 10
2.137254352098251
 20
3.787278639996149
 30
0.0
 70
     8
  0
VERTEX
  5
22BF
330
2285
100
AcDbEntity
  8
image
100
AcDbVertex
100
AcDb2dVertex
 10
2.118627095046584
 20
3.805246694804595
 30
0.0
 70
     8
  0
VERTEX
  5
22C0
330
2285
100
AcDbEntity
  8
image
100
AcDbVertex
100
AcDb2dVertex
 10
2.098199784323534
 20
3.822768265484793
 30
0.0
 70
     8
  0
VERTEX
  5
22C1
330
2285
100
AcDbEntity
  8
image
100
AcDbVertex
100
AcDb2dVertex
 10
2.076052084922418
 20
3.840010143311495
 30
0.0
 70
     8
  0
VERTEX
  5
22C2
330
2285
100
AcDbEntity
  8
image
100
AcDbVertex
100
AcDb2dVertex
 10
2.052283380685076
 20
3.85710004233144
 30
0.0
 70
     8
  0
VERTEX
  5
22C3
330
2285
100
AcDbEntity
  8
image
100
AcDbVertex
100
AcDb2dVertex
 10
2.026993055453344
 20
3.87416567659136
 30
0.0
 70
     8
  0
VERTEX
  5
22C4
330
2285
100
AcDbEntity
  8
image
100
AcDbVertex
100
AcDb2dVertex
 10
2.00028049306906
 20
3.891334760137993
 30
0.0
 70
     8
  0
VERTEX
  5
22C5
330
2285
100
AcDbEntity
  8
image
100
AcDbVertex
100
AcDb2dVertex
 10
1.97224507737406
 20
3.908735007018075
 30
0.0
 70
     8
  0
VERTEX
  5
22C6
330
2285
100
AcDbEntity
  8
image
100
AcDbVertex
100
AcDb2dVertex
 10
1.942986192210184
 20
3.926494131278342
 30
0.0
 70
     8
  0
VERTEX
  5
22C7
330
2285
100
AcDbEntity
  8
image
100
AcDbVertex
100
AcDb2dVertex
 10
1.912603221419267
 20
3.944739846965529
 30
0.0
 70
     8
  0
VERTEX
  5
22C8
330
2285
100
AcDbEntity
  8
image
100
AcDbVertex
100
AcDb2dVertex
 10
1.881135686309158
 20
3.9635956432581
 30
0.0
 70
     8
  0
VERTEX
  5
22C9
330
2285
100
AcDbEntity
  8
image
100
AcDbVertex
100
AcDb2dVertex
 10
1.848383658051747
 20
3.983168109861427
 30
0.0
 70
     8
  0
VERTEX
  5
22CA
330
2285
100
AcDbEntity
  8
image
100
AcDbVertex
100
AcDb2dVertex
 10
1.814087345284936
 20
4.003559611612615
 30
0.0
 70
     8
  0
VERTEX
  5
22CB
330
2285
100
AcDbEntity
  8
image
100
AcDbVertex
100
AcDb2dVertex
 10
1.777986956646625
 20
4.024872513348763
 30
0.0
 70
     8
  0
VERTEX
  5
22CC
330
2285
100
AcDbEntity
  8
image
100
AcDbVertex
100
AcDb2dVertex
 10
1.739822700774717
 20
4.047209179906972
 30
0.0
 70
     8
  0
VERTEX
  5
22CD
330
2285
100
AcDbEntity
  8
image
100
AcDbVertex
100
AcDb2dVertex
 10
1.699334786307111
 20
4.070671976124345
 30
0.0
 70
     8
  0
VERTEX
  5
22CE
330
2285
100
AcDbEntity
  8
image
100
AcDbVertex
100
AcDb2dVertex
 10
1.656263421881709
 20
4.09536326683798
 30
0.0
 70
     8
  0
VERTEX
  5
22CF
330
2285
100
AcDbEntity
  8
image
100
AcDbVertex
100
AcDb2dVertex
 10
1.610348816136411
 20
4.121385416884983
 30
0.0
 70
     8
  0
VERTEX
  5
22D0
330
2285
100
AcDbEntity
  8
image
100
AcDbVertex
100
AcDb2dVertex
 10
1.56119466384715
 20
4.14880813281141
 30
0.0
 70
     8
  0
VERTEX
  5
22D1
330
2285
100
AcDbEntity
  8
image
100
AcDbVertex
100
AcDb2dVertex
 10
1.507858604341974
 20
4.177570487999155
 30
0.0
 70
     8
  0
VERTEX
  5
22D2
330
2285
100
AcDbEntity
  8
image
100
AcDbVertex
100
AcDb2dVertex
 10
1.44926176308696
 20
4.207578897539071
 30
0.0
 70
     8
  0
VERTEX
  5
22D3
330
2285
100
AcDbEntity
  8
image
100
AcDbVertex
100
AcDb2dVertex
 10
1.384325265548187
 20
4.238739776522009
 30
0.0
 70
     8
  0
VERTEX
  5
22D4
330
2285
100
AcDbEntity
  8
image
100
AcDbVertex
100
AcDb2dVertex
 10
1.311970237191734
 20
4.27095954003882
 30
0.0
 70
     8
  0
VERTEX
  5
22D5
330
2285
100
AcDbEntity
  8
image
100
AcDbVertex
100
AcDb2dVertex
 10
1.231117803483679
 20
4.304144603180357
 30
0.0
 70
     8
  0
VERTEX
  5
22D6
330
2285
100
AcDbEntity
  8
image
100
AcDbVertex
100
AcDb2dVertex
 10
1.140689089890099
 20
4.33820138103747
 30
0.0
 70
     8
  0
VERTEX
  5
22D7
330
2285
100
AcDbEntity
  8
image
100
AcDbVertex
100
AcDb2dVertex
 10
1.039605221877074
 20
4.373036288701013
 30
0.0
 70
     8
  0
VERTEX
  5
22B0
330
2285
100
AcDbEntity
  8
image
100
AcDbVertex
100
AcDb2dVertex
 10
2.203397459830241
 20
3.706479749437557
 30
0.0
 70
    16
  0
VERTEX
  5
22B1
330
2285
100
AcDbEntity
  8
image
100
AcDbVertex
100
AcDb2dVertex
 10
2.138038001925538
 20
3.809592368407058
 30
0.0
 70
    16
  0
VERTEX
  5
22B2
330
2285
100
AcDbEntity
  8
image
100
AcDbVertex
100
AcDb2dVertex
 10
1.923533373794763
 20
3.938187255246527
 30
0.0
 70
    16
  0
VERTEX
  5
22B3
330
2285
100
AcDbEntity
  8
image
100
AcDbVertex
100
AcDb2dVertex
 10
1.643447831411012
 20
4.106097692400004
 30
0.0
 70
    16
  0
VERTEX
  5
22B4
330
2285
100
AcDbEntity
  8
image
100
AcDbVertex
100
AcDb2dVertex
 10
1.32432807539011
 20
4.279188881775571
 30
0.0
 70
    16
  0
VERTEX
  5
22B5
330
2285
100
AcDbEntity
  8
image
100
AcDbVertex
100
AcDb2dVertex
 10
1.039605221877074
 20
4.373036288701013
 30
0.0
 70
    16
  0
SEQEND
  5
22B6
330
2285
100
AcDbEntity
  8
image
  0
LINE
  5
22D8
330
1E
100
AcDbEntity
  8
image
100
AcDbLine
 10
1.62876286122668
 20
4.110949237884137
 30
0.0
 11
0.9126746241037535
 21
4.110949237884136
 31
0.0
  0
HATCH
  5
2351
330
1E
100
AcDbEntity
  8
image
100
AcDbHatch
 10
0.0
 20
0.0
 30
0.0
210
0.0
220
0.0
230
1.0
  2
AR-SAND
 70
     0
 71
     0
 91
        1
 92
        7
 72
     0
 73
     1
 93
        4
 10
0.6835479049400527
 20
4.110949237884137
 10
0.0527399950274514
 20
4.110949237884137
 10
0.0704324238237604
 20
3.139158075746079
 10
0.7248593168031537
 20
3.139158075746079
 97
        0
 75
     0
 76
     1
 52
0.0
 41
0.125
 77
     0
 78
     4
 53
37.5
 43
0.0
 44
0.0
 45
-0.007874169763701
 46
0.2408529711266448
 79
     6
 49
0.0
 49
-0.19
 49
0.0
 49
-0.2125
 49
0.0
 49
-0.203125
 53
7.499999999999999
 43
0.0
 44
0.0
 45
0.2212220881584659
 46
0.3527682581537175
 79
     6
 49
0.0
 49
-0.1025
 49
0.0
 49
-0.17125
 49
0.0
 49
-0.065625
 53
327.5
 43
-0.15375
 44
0.0
 45
0.3892677327189369
 46
0.0007073816921206
 79
     6
 49
0.0
 49
-0.0625
 49
0.0
 49
-0.225
 49
0.0
 49
-0.29375
 53
317.5
 43
-0.15375
 44
0.0
 45
0.3757658255715366
 46
0.1097094456167811
 79
     6
 49
0.0
 49
-0.03125
 49
0.0
 49
-0.1475
 49
0.0
 49
-0.16875
 47
0.0096884320312651
 98
        3
 10
0.4337184124710826
 20
3.690200023556225
 10
1.287015863628592
 20
3.506119796452989
 10
2.964520976060046
 20
3.583627265683692
1001
ACAD
1010
0.0
1020
0.0
1030
0.0
  0
HATCH
  5
2352
330
1E
100
AcDbEntity
  8
image
100
AcDbHatch
 10
0.0
 20
0.0
 30
0.0
210
0.0
220
0.0
230
1.0
  2
AR-SAND
 70
     0
 71
     0
 91
        1
 92
        7
 72
     1
 73
     1
 93
       33
 10
3.57914643814416
 20
4.110949237884137
 42
0.0
 10
1.829853512484663
 20
4.110949237884136
 42
0.0
 10
1.865710872118737
 20
4.089782954995426
 42
0.0
 10
1.900869447368938
 20
4.068879726882705
 42
0.0
 10
1.934651354317735
 20
4.048691765913861
 42
0.0
 10
1.967377815686932
 20
4.029081520626428
 42
0.0
 10
1.999298926321418
 20
4.009902269477334
 42
0.0
 10
2.030380269551762
 20
3.990970610605057
 42
0.0
 10
2.060516300831431
 20
3.972093972067577
 42
0.0
 10
2.08960147561356
 20
3.953079781923077
 42
0.0
 10
2.117530249351393
 20
3.933735468229667
 42
0.0
 10
2.14419707749803
 20
3.913868459045558
 42
0.0
 10
2.169496415506723
 20
3.893286182428853
 42
0.0
 10
2.193322718830627
 20
3.871796066437724
 42
0.0
 10
2.215571508122156
 20
3.849157858802722
 42
0.0
 10
2.236142564830529
 20
3.824940585944099
 42
0.0
 10
2.254936735604205
 20
3.798665593954489
 42
0.0
 10
2.271854867091617
 20
3.769854228926561
 42
0.0
 10
2.286797805941213
 20
3.73802783695296
 42
0.0
 10
2.299666398801435
 20
3.702707764126346
 42
0.0
 10
2.310361492320733
 20
3.663415356539355
 42
0.0
 10
2.318783933147547
 20
3.619671960284648
 42
0.0
 10
2.307281471585888
 20
3.619671960284648
 42
0.0
 10
2.307275770257439
 20
3.609658341283648
 42
0.0
 10
2.32319808688378
 20
3.573321134608623
 42
0.0
 10
2.335219846740616
 20
3.573314289930244
 42
0.0
 10
2.467708237117672
 20
3.573238856679881
 42
0.0
 10
2.467644130541387
 20
3.460644250676163
 42
0.0
 10
2.387042166543931
 20
3.46069014200379
 42
0.0
 10
2.376787025080117
 20
3.44818047586009
 42
-0.3421654998561118
 10
2.494621870835987
 20
3.296150144712592
 42
-0.4142135623730959
 10
2.337629801869475
 20
3.139158075746079
 42
0.0
 10
3.596838866940469
 20
3.139158075746079
 42
0.0
 97
        0
 75
     0
 76
     1
 52
0.0
 41
0.125
 77
     0
 78
     4
 53
37.5
 43
0.0
 44
0.0
 45
-0.007874169763701
 46
0.2408529711266448
 79
     6
 49
0.0
 49
-0.19
 49
0.0
 49
-0.2125
 49
0.0
 49
-0.203125
 53
7.499999999999999
 43
0.0
 44
0.0
 45
0.2212220881584659
 46
0.3527682581537175
 79
     6
 49
0.0
 49
-0.1025
 49
0.0
 49
-0.17125
 49
0.0
 49
-0.065625
 53
327.5
 43
-0.15375
 44
0.0
 45
0.3892677327189369
 46
0.0007073816921206
 79
     6
 49
0.0
 49
-0.0625
 49
0.0
 49
-0.225
 49
0.0
 49
-0.29375
 53
317.5
 43
-0.15375
 44
0.0
 45
0.3757658255715366
 46
0.1097094456167811
 79
     6
 49
0.0
 49
-0.03125
 49
0.0
 49
-0.1475
 49
0.0
 49
-0.16875
 47
0.0096884320312651
 98
        3
 10
0.4337184124710826
 20
3.690200023556225
 10
1.287015863628592
 20
3.506119796452989
 10
2.964520976060046
 20
3.583627265683692
1001
ACAD
1010
0.0
1020
0.0
1030
0.0
  0
HATCH
  5
2353
330
1E
100
AcDbEntity
  8
image
100
AcDbHatch
 10
0.0
 20
0.0
 30
0.0
210
0.0
220
0.0
230
1.0
  2
AR-SAND
 70
     0
 71
     0
 91
        1
 92
        7
 72
     1
 73
     1
 93
       36
 10
2.202731456363562
 20
3.573389723180609
 42
0.0
 10
2.214387512359174
 20
3.573383086718443
 42
0.0
 10
2.230351196366814
 20
3.609702138861877
 42
0.0
 10
2.230356872758785
 20
3.619671960284648
 42
0.0
 10
2.218281577841207
 20
3.619671960284648
 42
0.0
 10
2.211862709449338
 20
3.65063283101002
 42
0.0
 10
2.203756573282448
 20
3.678651052931326
 42
0.0
 10
2.193944240091266
 20
3.704088803463411
 42
0.0
 10
2.182406780626524
 20
3.727308260021104
 42
0.0
 10
2.169125265638951
 20
3.748671600019239
 42
0.0
 10
2.154080765879284
 20
3.768541000872642
 42
0.0
 10
2.137254352098254
 20
3.787278639996146
 42
0.0
 10
2.118627095046581
 20
3.805246694804598
 42
0.0
 10
2.09819978432353
 20
3.822768265484796
 42
0.0
 10
2.076052084922412
 20
3.8400101433115
 42
0.0
 10
2.052283380685063
 20
3.857100042331448
 42
0.0
 10
2.026993055453362
 20
3.874165676591348
 42
0.0
 10
2.000280493069049
 20
3.891334760138001
 42
0.0
 10
1.972245077374052
 20
3.908735007018079
 42
0.0
 10
1.942986192210125
 20
3.926494131278377
 42
0.0
 10
1.912603221419267
 20
3.944739846965529
 42
0.0
 10
1.881135686308689
 20
3.963595643258381
 42
0.0
 10
1.848383658051832
 20
3.983168109861377
 42
0.0
 10
1.814087345284952
 20
4.003559611612606
 42
0.0
 10
1.777986956646693
 20
4.024872513348723
 42
0.0
 10
1.739822700774768
 20
4.047209179906942
 42
0.0
 10
1.699334786307093
 20
4.070671976124355
 42
0.0
 10
1.656263421881686
 20
4.095363266837993
 42
0.0
 10
1.628762861226679
 20
4.110949237884137
 42
0.0
 10
0.9126746241037533
 20
4.110949237884136
 42
0.0
 10
0.8701749702209825
 20
3.139158075746079
 42
0.0
 10
2.337629801869475
 20
3.139158075746079
 42
-0.4142135623730959
 10
2.180637732902963
 20
3.296150144712592
 42
-0.3410356231393614
 10
2.297857599112185
 20
3.448020752817712
 42
0.0
 10
2.287425024371652
 20
3.46074685976453
 42
0.0
 10
2.202667349787276
 20
3.460795117176894
 42
0.0
 97
        0
 75
     0
 76
     1
 52
0.0
 41
0.125
 77
     0
 78
     4
 53
37.5
 43
0.0
 44
0.0
 45
-0.007874169763701
 46
0.2408529711266448
 79
     6
 49
0.0
 49
-0.19
 49
0.0
 49
-0.2125
 49
0.0
 49
-0.203125
 53
7.499999999999999
 43
0.0
 44
0.0
 45
0.2212220881584659
 46
0.3527682581537175
 79
     6
 49
0.0
 49
-0.1025
 49
0.0
 49
-0.17125
 49
0.0
 49
-0.065625
 53
327.5
 43
-0.15375
 44
0.0
 45
0.3892677327189369
 46
0.0007073816921206
 79
     6
 49
0.0
 49
-0.0625
 49
0.0
 49
-0.225
 49
0.0
 49
-0.29375
 53
317.5
 43
-0.15375
 44
0.0
 45
0.3757658255715366
 46
0.1097094456167811
 79
     6
 49
0.0
 49
-0.03125
 49
0.0
 49
-0.1475
 49
0.0
 49
-0.16875
 47
0.0096884320312651
 98
        3
 10
0.4337184124710826
 20
3.690200023556225
 10
1.287015863628592
 20
3.506119796452989
 10
2.964520976060046
 20
3.583627265683692
1001
ACAD
1010
0.0
1020
0.0
1030
0.0
  0
HATCH
  5
236D
330
1E
100
AcDbEntity
  8
image
100
AcDbHatch
 10
0.0
 20
0.0
 30
0.0
210
0.0
220
0.0
230
1.0
  2
EARTH
 70
     0
 71
     0
 91
        1
 92
        7
 72
     0
 73
     1
 93
        6
 10
0.7248593168031537
 20
3.139158075746079
 10
0.0704324238237604
 20
3.139158075746079
 10
0.094338743750808
 20
2.789175829265827
 10
0.2010009464722388
 20
2.35319640108091
 10
0.5306840564788669
 20
2.21755832992718
 10
0.7625220914520333
 20
2.253195822345833
 97
        0
 75
     0
 76
     1
 52
45.0
 41
1.0
 77
     0
 78
     6
 53
45.0
 43
0.0
 44
0.0
 45
0.0
 46
0.3535533905932737
 79
     2
 49
0.25
 49
-0.25
 53
45.0
 43
-0.0662912607362388
 44
0.0662912607362389
 45
0.0
 46
0.3535533905932737
 79
     2
 49
0.25
 49
-0.25
 53
45.0
 43
-0.1325825214724776
 44
0.1325825214724777
 45
0.0
 46
0.3535533905932737
 79
     2
 49
0.25
 49
-0.25
 53
135.0
 43
-0.1325825214724776
 44
0.1767766952966369
 45
-0.3535533905932737
 46
0.0
 79
     2
 49
0.25
 49
-0.25
 53
135.0
 43
-0.0662912607362388
 44
0.2430679560328757
 45
-0.3535533905932737
 46
0.0
 79
     2
 49
0.25
 49
-0.25
 53
135.0
 43
0.0
 44
0.3093592167691145
 45
-0.3535533905932737
 46
0.0
 79
     2
 49
0.25
 49
-0.25
 47
0.0096884320312651
 98
        2
 10
0.5694702913334549
 20
2.643849361417311
 10
1.694271443344397
 20
2.653537782751465
1001
ACAD
1010
0.0
1020
0.0
1030
0.0
  0
HATCH
  5
236E
330
1E
100
AcDbEntity
  8
image
100
AcDbHatch
 10
0.0
 20
0.0
 30
0.0
210
0.0
220
0.0
230
1.0
  2
EARTH
 70
     0
 71
     0
 91
        1
 92
        7
 72
     0
 73
     1
 93
        7
 10
3.420259406215399
 20
3.139158075746079
 10
0.8701749702209825
 20
3.139158075746079
 10
0.8318952650198456
 20
2.263859671991413
 10
0.9088499600537286
 20
2.275688931850207
 10
1.694271443344397
 20
2.314442666465559
 10
2.819072595355339
 20
2.343507955107388
 10
3.381473114489498
 20
2.469457580287597
 97
        0
 75
     0
 76
     1
 52
45.0
 41
1.0
 77
     0
 78
     6
 53
45.0
 43
0.0
 44
0.0
 45
0.0
 46
0.3535533905932737
 79
     2
 49
0.25
 49
-0.25
 53
45.0
 43
-0.0662912607362388
 44
0.0662912607362389
 45
0.0
 46
0.3535533905932737
 79
     2
 49
0.25
 49
-0.25
 53
45.0
 43
-0.1325825214724776
 44
0.1325825214724777
 45
0.0
 46
0.3535533905932737
 79
     2
 49
0.25
 49
-0.25
 53
135.0
 43
-0.1325825214724776
 44
0.1767766952966369
 45
-0.3535533905932737
 46
0.0
 79
     2
 49
0.25
 49
-0.25
 53
135.0
 43
-0.0662912607362388
 44
0.2430679560328757
 45
-0.3535533905932737
 46
0.0
 79
     2
 49
0.25
 49
-0.25
 53
135.0
 43
0.0
 44
0.3093592167691145
 45
-0.3535533905932737
 46
0.0
 79
     2
 49
0.25
 49
-0.25
 47
0.0096884320312651
 98
        2
 10
0.5694702913334549
 20
2.643849361417311
 10
1.694271443344397
 20
2.653537782751465
1001
ACAD
1010
0.0
1020
0.0
1030
0.0
  0
LEADER
  5
23B1
330
1E
100
AcDbEntity
  8
text_bubbles
100
AcDbLeader
  3
Standard
 76
     2
 10
0.3284145591580908
 20
4.714770593090073
 30
0.0
 10
0.620854777627566
 20
5.410902867601605
 30
0.0
1001
ACAD
1000
DSTYLE
1002
{
1070
    44
1040
0.125
1070
   140
1040
0.125
1070
   176
1070
   256
1070
   177
1070
   256
1070
   178
1070
   256
1070
   279
1070
     2
1070
   340
1005
213D
1070
   371
1070
    -1
1070
   372
1070
    -1
1002
}
  0
LEADER
  5
23B2
330
1E
100
AcDbEntity
  8
text_bubbles
100
AcDbLeader
  3
Standard
 76
     2
 10
0.7968102533893723
 20
4.606166470189072
 30
0.0
 10
1.02529165687492
 20
5.404735529317845
 30
0.0
1001
ACAD
1000
DSTYLE
1002
{
1070
    44
1040
0.125
1070
   140
1040
0.125
1070
   176
1070
   256
1070
   177
1070
   256
1070
   178
1070
   256
1070
   279
1070
     2
1070
   340
1005
213D
1070
   371
1070
    -1
1070
   372
1070
    -1
1002
}
  0
LEADER
  5
23B3
330
1E
100
AcDbEntity
  8
text_bubbles
100
AcDbLeader
  3
Standard
 76
     2
 10
1.265182801263293
 20
4.398446018738042
 30
0.0
 10
1.631918105920469
 20
5.40809592170773
 30
0.0
1001
ACAD
1000
DSTYLE
1002
{
1070
    44
1040
0.125
1070
   140
1040
0.125
1070
   176
1070
   256
1070
   177
1070
   256
1070
   178
1070
   256
1070
   279
1070
     2
1070
   340
1005
213D
1070
   371
1070
    -1
1070
   372
1070
    -1
1002
}
  0
LEADER
  5
23B4
330
1E
100
AcDbEntity
  8
text_bubbles
100
AcDbLeader
  3
Standard
 76
     2
 10
2.432398031577338
 20
4.110949237884136
 30
0.0
 10
2.849062708940695
 20
5.406214357212268
 30
0.0
1001
ACAD
1000
DSTYLE
1002
{
1070
    44
1040
0.125
1070
   140
1040
0.125
1070
   176
1070
   256
1070
   177
1070
   256
1070
   178
1070
   256
1070
   279
1070
     2
1070
   340
1005
213D
1070
   371
1070
    -1
1070
   372
1070
    -1
1002
}
  0
CIRCLE
  5
23B8
330
1E
100
AcDbEntity
  8
text_bubbles
100
AcDbCircle
 10
3.969349384131779
 20
3.589025794964225
 30
0.0
 40
0.15625
  0
TEXT
  5
23B9
330
1E
100
AcDbEntity
  8
text_bubbles
100
AcDbText
 10
3.906849384131779
 20
3.526525794964225
 30
0.0
 40
0.125
  1
6
  7
ROMANS
 72
     4
 11
3.969349384131779
 21
3.589025794964225
 31
0.0
100
AcDbText
  0
CIRCLE
  5
23BA
330
1E
100
AcDbEntity
  8
text_bubbles
100
AcDbCircle
 10
3.969349384131779
 20
2.689022456514781
 30
0.0
 40
0.15625
  0
TEXT
  5
23BB
330
1E
100
AcDbEntity
  8
text_bubbles
100
AcDbText
 10
3.90982557460797
 20
2.626522456514781
 30
0.0
 40
0.125
  1
7
  7
ROMANS
 72
     4
 11
3.969349384131779
 21
2.689022456514781
 31
0.0
100
AcDbText
  0
LEADER
  5
23BD
330
1E
100
AcDbEntity
  8
text_bubbles
100
AcDbLeader
  3
Standard
 76
     2
 10
2.467680257159257
 20
3.524095811203217
 30
0.0
 10
3.818879157857506
 20
3.902185936887196
 30
0.0
1001
ACAD
1000
DSTYLE
1002
{
1070
    44
1040
0.125
1070
   140
1040
0.125
1070
   176
1070
   256
1070
   177
1070
   256
1070
   178
1070
   256
1070
   279
1070
     2
1070
   340
1005
213D
1070
   371
1070
    -1
1070
   372
1070
    -1
1002
}
  0
LEADER
  5
23BE
330
1E
100
AcDbEntity
  8
text_bubbles
100
AcDbLeader
  3
Standard
 76
     2
 10
2.493785626592149
 20
3.279967804845699
 30
0.0
 10
3.816417903128245
 20
3.556994175928249
 30
0.0
1001
ACAD
1000
DSTYLE
1002
{
1070
    44
1040
0.125
1070
   140
1040
0.125
1070
   176
1070
   256
1070
   177
1070
   256
1070
   178
1070
   256
1070
   279
1070
     2
1070
   340
1005
213D
1070
   371
1070
    -1
1070
   372
1070
    -1
1002
}
  0
LEADER
  5
23BF
330
1E
100
AcDbEntity
  8
text_bubbles
100
AcDbLeader
  3
Standard
 76
     2
 10
3.34512023381699
 20
3.139158075746079
 30
0.0
 10
3.842613665531882
 20
2.780412391031487
 30
0.0
1001
ACAD
1000
DSTYLE
1002
{
1070
    44
1040
0.125
1070
   140
1040
0.125
1070
   176
1070
   256
1070
   177
1070
   256
1070
   178
1070
   256
1070
   279
1070
     2
1070
   340
1005
213D
1070
   371
1070
    -1
1070
   372
1070
    -1
1002
}
  0
MTEXT
  5
23C0
102
{ACAD_XDICTIONARY
360
24C7
102
}
330
1E
100
AcDbEntity
  8
text_bubbles
100
AcDbMText
 10
5.383520161638994
 20
5.477531371214559
 30
0.0
 40
0.125
 41
3.972187002985819
 71
     1
 72
     5
  3
\A1;DIFFUSER BUG CAP:\P  RAIN BIRD DBC-025\PUNIVERSAL {\H0.7x;\S1#4;}" TUBING STAKE:   \P  RAIN BIRD TS-025 \P{\H0.7x;\S1#4;}" DISTRIBUTION TUBING:\P  RAIN BIRD XQ TUBING\P  (LENGTH AS REQUIRED)\PTOP OF MULCH \P\P\pi-0.25,l0.25;PRESSURE-COMPENSATING 
  3
MODULE BARB INLET X BARB OUTLET EMITTER:   \P\pi0,l0;  RAIN BIRD PC EMITTER  \P{\H0.7x;\S1#2;\H1.4286x;" POLYETHYLENE TUBING:\P  RAIN BIRD XF SERIES TUBING OR\P  RAIN BIRD XT-700 XERI-TUBE OR\P  RAIN BIRD XBS BLACK STRIPE TUBING \H0.99998x;\P}FINISH 
  1
GRADE
  7
ROMANS
 73
     1
 44
1.0
  0
LINE
  5
2422
330
1E
100
AcDbEntity
  8
image
100
AcDbLine
 10
2.335219825266378
 20
3.573238856679881
 30
0.0
 11
2.46770823711767
 21
3.573238856679881
 31
0.0
  0
LINE
  5
2423
330
1E
100
AcDbEntity
  8
image
100
AcDbLine
 10
2.439584303530403
 20
3.573238856679881
 30
0.0
 11
2.439584303530403
 21
3.50262238929712
 31
0.0
  0
LINE
  5
2424
330
1E
100
AcDbEntity
  8
image
100
AcDbLine
 10
2.230855347002353
 20
3.573238856679881
 30
0.0
 11
2.230855347002353
 21
3.50262238929712
 31
0.0
  0
LINE
  5
2425
330
1E
100
AcDbEntity
  8
image
100
AcDbLine
 10
2.344898634084427
 20
3.573238856679881
 30
0.0
 11
2.344898634084427
 21
3.50262238929712
 31
0.0
  0
LINE
  5
2426
330
1E
100
AcDbEntity
  8
image
100
AcDbLine
 10
2.325541016448326
 20
3.573238856679881
 30
0.0
 11
2.325541016448326
 21
3.50262238929712
 31
0.0
  0
LINE
  5
2429
330
1E
100
AcDbEntity
  8
image
100
AcDbLine
 10
2.202731413415083
 20
3.50262238929712
 30
0.0
 11
2.467708237117671
 21
3.50262238929712
 31
0.0
  0
MTEXT
  5
2436
102
{ACAD_XDICTIONARY
360
24C9
102
}
330
1E
100
AcDbEntity
  8
image
100
AcDbMText
 10
0.6175700012597273
 20
1.086026342950406
 30
0.0
 40
0.125
 41
7.081364605563734
 71
     1
 72
     5
  3
\A1;NOTES: \P\pi-0.375,l0.375,t0.375;1. USE RAIN BIRD XERIMAN TOOL XM-TOOL TO INSERT EMITTER DIRECTLY INTO {\H0.7x;\S1#2;}" POLYETHYLENE TUBING.\P2. RAIN BIRD PC BARB X BARB EMITTERS ARE AVAILABLE IN THE FOLLOWING MODELS:\P\pt0.375,0.5,2,2.5,4,4.5;^I^I
  1
PC-05  5 GPH^I^IPC-07  7 GPH^I^IPC-10 10 GPH\P\pi0,t0.5,2,2.5,4,4.5;^IPC-12 12 GPH^I^IPC-18 18 GPH^I^IPC-24 24 GPH
  7
ROMANS
 73
     1
 44
1.0
  0
VIEWPORT
  5
4DE
330
1A
100
AcDbEntity
 67
     1
  8
0
100
AcDbViewport
 10
6.172388059701492
 20
4.5
 30
0.0
 40
12.34477611940298
 41
9.0
 68
     1
 69
     1
 12
6.172388059701492
 22
4.5
 13
0.0
 23
0.0
 14
0.14
 24
0.14
 15
0.14
 25
0.14
 16
0.0
 26
0.0
 36
1.0
 17
0.0
 27
0.0
 37
0.0
 42
50.0
 43
0.0
 44
0.0
 45
9.0
 50
0.0
 51
0.0
 72
   100
 90
    32800
  1

281
     0
 71
     0
 74
     0
110
0.0
120
0.0
130
0.0
111
0.0
121
0.0
131
0.0
112
0.0
122
0.0
132
0.0
 79
     0
146
0.0
170
     0
  0
ENDSEC
  0
SECTION
  2
OBJECTS
  0
DICTIONARY
  5
C
330
0
100
AcDbDictionary
281
     1
  3
ACAD_COLOR
350
2061
  3
ACAD_GROUP
350
D
  3
ACAD_LAYOUT
350
19
  3
ACAD_MATERIAL
350
2037
  3
ACAD_MLEADERSTYLE
350
2086
  3
ACAD_MLINESTYLE
350
16
  3
ACAD_PLOTSETTINGS
350
18
  3
ACAD_PLOTSTYLENAME
350
E
  3
ACAD_SCALELIST
350
2064
  3
ACAD_TABLESTYLE
350
2062
  3
ACAD_VISUALSTYLE
350
2050
  3
ACDB_RECOMPOSE_DATA
350
2109
  3
AcDbVariableDictionary
350
1458
  3
AEC_PROPERTY_SET_DEFS
350
218F
1001
BBSI_PltSel
1000
1
1000

1001
BBSI_Bookmarks
1000
1
1000
1
1000
0
1000
1
1000
0
1000
0
1000
0
1000
0
1000
0
1000
0
1000
0
1001
BBSI_BookmarksEx
1000
0
1000
0
1000

1000
0
1001
BBSI_Plots
1000

1000
ANSI_A_(11.00_x_8.50_Inches)
1000
279.399993896484
1000
215.899993896484
1000
0
1000
1
1000
1
1000
1.78230694092285E-14
1000
17.9871359092673
1000
1
1000
0
1000
1
1000
1.56885758041751
1000
0
1000
1
1000
LaserJet5Shaded.ctb
1000
0
1000
0
1000
1
1000
1
1000
0
1000
0
1000
0
1000
0
1000
0
1000
0
1000

1000

  0
DICTIONARY
  5
1464
330
2
100
AcDbDictionary
280
     1
281
     1
  3
ACAD_LAYERFILTERS
360
249C
  3
ACAD_LAYERSTATES
360
1465
  0
DICTIONARY
  5
20EF
330
1E
100
AcDbDictionary
280
     1
281
     1
  3
ACAD_SORTENTS
360
21DD
  0
DICTIONARY
  5
23AD
330
155E
100
AcDbDictionary
280
     1
281
     1
  3
ACAD_SORTENTS
360
248F
  0
DICTIONARY
  5
24C7
330
23C0
100
AcDbDictionary
280
     1
281
     1
  3
ACAD_MTEXT_2008_RT
360
24C8
  0
DICTIONARY
  5
24C9
330
2436
100
AcDbDictionary
280
     1
281
     1
  3
ACAD_MTEXT_2008_RT
360
24CA
  0
DICTIONARY
  5
2061
102
{ACAD_REACTORS
330
C
102
}
330
C
100
AcDbDictionary
281
     1
  0
DICTIONARY
  5
D
102
{ACAD_REACTORS
330
C
102
}
330
C
100
AcDbDictionary
281
     1
  0
DICTIONARY
  5
19
102
{ACAD_REACTORS
330
C
102
}
330
C
100
AcDbDictionary
281
     1
  3
Layout1
350
1D
  3
Model
350
21
  0
DICTIONARY
  5
2037
102
{ACAD_REACTORS
330
C
102
}
330
C
100
AcDbDictionary
281
     1
  3
ByBlock
350
2040
  3
ByLayer
350
2038
  3
Global
350
2048
  0
DICTIONARY
  5
2086
102
{ACAD_REACTORS
330
C
102
}
330
C
100
AcDbDictionary
281
     1
  3
Standard
350
2087
  0
DICTIONARY
  5
16
102
{ACAD_REACTORS
330
C
102
}
330
C
100
AcDbDictionary
281
     1
  3
Standard
350
17
  0
DICTIONARY
  5
18
102
{ACAD_REACTORS
330
C
102
}
330
C
100
AcDbDictionary
281
     1
  3
1055 24x36 BW
350
209A
  3
1055 24x36 BW Final
350
209C
  3
1055 24x36 Color
350
209D
  3
1055 24x36 Color Shaded
350
209E
  3
1055 30x42 BW
350
209F
  3
1055 30x42 BW Final
350
20A0
  3
1055 B&W Draft
350
20A1
  3
1055 B&W Final
350
20A2
  3
1055 BW Half
350
20A3
  3
1055 Color Draft
350
20A4
  3
1055 Color Final
350
20A5
  3
1055+ 24x36 BW
350
20A6
  3
1055+ 24x36 BW Final
350
20A7
  3
1055+ 24x36 Color
350
20A8
  3
1055+ 24x36 Color Shaded
350
20A9
  3
1055+ 30x42 BW
350
20AA
  3
1055+ 30x42 BW Final
350
20AB
  3
1055+ B&W Draft
350
20AC
  3
1055+ B&W Final
350
20AD
  3
1055+ BW Half
350
20AE
  3
1055+ Color Draft
350
20AF
  3
1055+ Color Final
350
20B0
  3
_1055 22x34 True Centered BW
350
20B1
  3
_1055 24x36 True Centered BW
350
20B2
  3
_1055 24x36 True Centered BW Final
350
20B3
  3
_1055 24x36 True Centered Color
350
20B4
  3
_1055 30x42 True Centered BW
350
20B5
  3
_1055+ 22x34 True Centered BW
350
20B6
  3
_1055+ 24x36 True Centered BW
350
20B7
  3
_1055+ 24x36 True Centered BW Final
350
20B8
  3
_1055+ 24x36 True Centered Color
350
20B9
  3
DWF BW 11x17 Fit
350
20BA
  3
DWF BW 11x17 Half
350
20BB
  3
DWF BW 22x34
350
20BC
  3
DWF BW 24x36
350
20BD
  3
DWF BW 30x42
350
20BE
  3
DWF BW 36x48
350
20BF
  3
Laser5 11x17 Fit
350
20C0
  3
Laser5 11x17 Full
350
20C1
  3
Laser5 11x17 Half
350
20C2
  3
Laser5 8x11 Fit
350
20C3
  3
Laser5 8x11 Half
350
20C4
  3
Laser5 8x11 Portrait Fit
350
20C5
  3
LaserJet5 11x17
350
20C6
  3
LaserJet5 8.5x11
350
20C7
  3
Oki9500 11x17 BW Fit
350
20C8
  3
Oki9500 11x17 BW Full
350
20C9
  3
Oki9500 11x17 BW Half
350
20CA
  3
Oki9500 11x17 Color Fit
350
20CB
  3
Oki9500 11x17 Color Full
350
20CC
  3
Oki9500 11x17 Color Half
350
20CD
  3
Oki9500 8x11 BW Fit
350
20CE
  3
Oki9500 8x11 BW Portrait Fit
350
20CF
  3
Oki9500 8x11 Color Fit
350
20D0
  3
Oki9500 8x11 Color Portrait Fit
350
20D1
  3
OKI9500 B&W 11x17
350
20D2
  3
OKI9500 B&W 8.5x11
350
20D3
  3
OKI9500 Color 11x17
350
20D4
  3
OKI9500 Color 8.5x11
350
20D5
  3
Oki9600 11x17 BW Fit
350
20D6
  3
Oki9600 11x17 BW Full
350
20D7
  3
Oki9600 11x17 BW Half
350
20D8
  3
Oki9600 11x17 Color Fit
350
20D9
  3
Oki9600 11x17 Color Full
350
20DA
  3
Oki9600 11x17 Color Half
350
20DB
  3
Oki9600 8x11 BW Fit
350
20DC
  3
Oki9600 8x11 BW Portrait Fit
350
20DD
  3
Oki9600 8x11 Color Fit
350
20DE
  3
Oki9600 8x11 Color Portrait Fit
350
20DF
  3
OKI9600 B&W 11x17
350
20E0
  3
OKI9600 B&W 8.5x11
350
20E1
  3
OKI9600 Color 11x17
350
20E2
  3
OKI9600 Color 8.5x11
350
20E3
  3
PHX Kyocera 11x17 Fit
350
20E4
  3
PHX Oki9500 11x17 BW Fit
350
20E5
  3
PHX Oki9500 11x17 BW Half
350
20E6
  0
ACDBDICTIONARYWDFLT
  5
E
102
{ACAD_REACTORS
330
C
102
}
330
C
100
AcDbDictionary
281
     1
  3
Normal
350
F
100
AcDbDictionaryWithDefault
340
F
  0
DICTIONARY
  5
2064
102
{ACAD_REACTORS
330
C
102
}
330
C
100
AcDbDictionary
281
     1
  3
A0
350
2065
  3
A1
350
2066
  3
A2
350
2067
  3
A3
350
2068
  3
A4
350
2069
  3
A5
350
206A
  3
A6
350
206B
  3
A7
350
206C
  3
A8
350
206D
  3
A9
350
206E
  3
B0
350
206F
  3
B1
350
2070
  3
B2
350
2071
  3
B3
350
2072
  3
B4
350
2073
  3
B5
350
2074
  3
B6
350
2075
  3
B7
350
2076
  3
B8
350
2077
  3
B9
350
2078
  3
C0
350
2079
  3
C1
350
207A
  3
C2
350
207B
  3
C3
350
207C
  3
C4
350
207D
  3
C5
350
207E
  3
C6
350
207F
  3
C7
350
2080
  3
C8
350
2081
  3
C9
350
2082
  3
D0
350
2083
  3
D1
350
2084
  3
D2
350
2085
  0
DICTIONARY
  5
2062
102
{ACAD_REACTORS
330
C
102
}
330
C
100
AcDbDictionary
281
     1
  3
Standard
350
2063
  0
DICTIONARY
  5
2050
102
{ACAD_REACTORS
330
C
102
}
330
C
100
AcDbDictionary
281
     1
  3
2dWireframe
350
2056
  3
3D Hidden
350
2058
  3
3dWireframe
350
2057
  3
Basic
350
2055
  3
Brighten
350
205C
  3
ColorChange
350
2060
  3
Conceptual
350
2059
  3
Dim
350
205B
  3
Facepattern
350
205F
  3
Flat
350
2051
  3
FlatWithEdges
350
2052
  3
Gouraud
350
2053
  3
GouraudWithEdges
350
2054
  3
Linepattern
350
205E
  3
Realistic
350
205A
  3
Thicken
350
205D
  0
XRECORD
  5
2109
102
{ACAD_REACTORS
330
C
102
}
330
C
100
AcDbXrecord
280
     1
 90
        1
330
2063
330
23C0
330
2436
  0
DICTIONARY
  5
1458
102
{ACAD_REACTORS
330
C
102
}
330
C
100
AcDbDictionary
281
     1
  3
CANNOSCALE
350
210D
  3
CMLEADERSTYLE
350
210B
  3
CTABLESTYLE
350
210A
  3
DIMASSOC
350
145B
  3
HIDETEXT
350
145A
  3
LAYEREVAL
350
24C5
  3
LAYERNOTIFY
350
210F
  3
LIGHTINGUNITS
350
210E
  3
MSLTSCALE
350
210C
  3
SORTENTS
350
1459
  0
DICTIONARY
  5
218F
102
{ACAD_REACTORS
330
C
102
}
330
C
100
AcDbDictionary
281
     1
  0
DICTIONARY
  5
249C
102
{ACAD_REACTORS
330
1464
102
}
330
1464
100
AcDbDictionary
281
     1
  3
_0100-
350
249F
  3
_0280-
350
249E
  3
_Color 253
350
24A2
  3
_Color 8
350
24A0
  3
_Color 84
350
24A1
  3
_Contours
350
24A7
  3
_Existing
350
24A3
  3
_Hardscape
350
24A6
  3
_NoXref
350
249D
  3
_Row
350
24A4
  3
_Utility
350
24A5
  0
DICTIONARY
  5
1465
102
{ACAD_REACTORS
330
1464
102
}
330
1464
100
AcDbDictionary
281
     1
  0
SORTENTSTABLE
  5
21DD
102
{ACAD_REACTORS
330
20EF
102
}
330
20EF
100
AcDbSortentsTable
330
1E
331
E7C
  5
E8C
331
219A
  5
21A5
331
E80
  5
E93
331
5C9
  5
D32
331
4F9
  5
515
331
EB1
  5
1497
331
21D1
  5
21DC
331
21A1
  5
21CE
331
E87
  5
EA2
331
2195
  5
21A0
331
236E
  5
5C9
331
5F0
  5
E60
331
21D8
  5
22FC
331
E61
  5
E78
331
22D8
  5
608
331
E8E
  5
EA5
331
61B
  5
E63
331
50F
  5
51A
331
2353
  5
50F
331
21CF
  5
21DA
331
E7F
  5
E8F
331
219D
  5
21B8
331
608
  5
E61
331
21D4
  5
22D8
331
5B2
  5
9BC
331
21A4
  5
21D1
331
2285
  5
22FF
331
5AD
  5
62F
331
5C1
  5
D31
331
21CB
  5
21D6
331
2199
  5
21A4
331
EB0
  5
1496
331
625
  5
E64
331
21D0
  5
21DB
331
2194
  5
219F
331
2281
  5
5CB
331
21A0
  5
21CD
331
E86
  5
EA1
331
236D
  5
5C1
331
510
  5
5AD
331
21D7
  5
22FA
331
E60
  5
E77
331
E8D
  5
EA4
331
50E
  5
516
331
2352
  5
50E
331
E94
  5
EA8
331
21CE
  5
21D9
331
219C
  5
21A7
331
E7E
  5
E8E
331
5CB
  5
D34
331
EB3
  5
1499
331
21D3
  5
2285
331
9BC
  5
E67
331
21A3
  5
21D0
331
2197
  5
21A2
331
2284
  5
22FE
331
62F
  5
E65
331
21CA
  5
21D5
331
51A
  5
61B
331
2198
  5
21A3
331
14C4
  5
1516
331
2193
  5
219E
331
2280
  5
609
331
219F
  5
21CC
331
E85
  5
EA0
331
21D6
  5
22F9
331
E8C
  5
EA3
331
21A6
  5
21D3
331
516
  5
5F0
331
2351
  5
4F9
331
E93
  5
EA7
331
21CD
  5
21D8
331
219B
  5
21A6
331
E81
  5
E94
331
E7D
  5
E8D
331
5CA
  5
D33
331
EB2
  5
1498
331
21D2
  5
2284
331
21A2
  5
21CF
331
2196
  5
21A1
331
21D9
  5
22FD
331
21C9
  5
21D4
331
E8F
  5
EA6
331
4F6
  5
510
331
14C3
  5
1515
331
598
  5
625
331
E84
  5
E9E
331
219E
  5
21C9
331
609
  5
E62
331
21D5
  5
22F8
331
21A5
  5
21D2
331
515
  5
5CA
331
156D
  5
1D4C
331
21CC
  5
21D7
  0
SORTENTSTABLE
  5
248F
102
{ACAD_REACTORS
330
23AD
102
}
330
23AD
100
AcDbSortentsTable
330
155E
  0
XRECORD
  5
24C8
102
{ACAD_REACTORS
330
24C7
102
}
330
24C7
100
AcDbXrecord
280
     1
 40
8665836.0
  1
\A1;DIFFUSER BUG CAP:\P  RAIN BIRD DBC-025\PUNIVERSAL {\H0.7x;\S1#4;}" TUBING STAKE:   \P  RAIN BIRD TS-025 \P{\H0.7x;\S1#4;}" DISTRIBUTION TUBING:\P  RAIN BIRD XQ TUBING\P  (LENGTH AS REQUIRED)\PTOP OF MULCH \P\P\pxi-2,l2;PRESSURE-COMPENSATING MODUL
  1
E BARB INLET X BARB OUTLET EMITTER:   \P\pi0,l0;  RAIN BIRD PC EMITTER  \P{\H0.7x;\S1#2;\H1.4286x;" POLYETHYLENE TUBING:\P  RAIN BIRD XF SERIES TUBING OR\P  RAIN BIRD XT-700 XERI-TUBE OR\P  RAIN BIRD XBS BLACK STRIPE TUBING \H0.99998x;\P}FINISH GRADE
  0
XRECORD
  5
24CA
102
{ACAD_REACTORS
330
24C9
102
}
330
24C9
100
AcDbXrecord
280
     1
 40
3734993.0
  1
\A1;NOTES: \P\pxi-3,l3,t3;1. USE RAIN BIRD XERIMAN TOOL XM-TOOL TO INSERT EMITTER DIRECTLY INTO {\H0.7x;\S1#2;}" POLYETHYLENE TUBING.\P2. RAIN BIRD PC BARB X BARB EMITTERS ARE AVAILABLE IN THE FOLLOWING MODELS:\P^I^IPC-05  5 GPH^I^IPC-07  7 GPH^I^IPC-10 10
  1
 GPH^IPC-12 12 GPH^I^IPC-18 18 GPH^I^IPC-24 24 GPH
  0
LAYOUT
  5
1D
102
{ACAD_REACTORS
330
19
102
}
330
19
100
AcDbPlotSettings
  1

  2
S:\AutoCAD 2002\Plotters\1055B&WDraftShaded.pc3
  4

  6

 40
0.0
 41
0.0
 42
0.0
 43
0.0
 44
0.0
 45
0.0
 46
0.0
 47
0.0
 48
0.0
 49
0.0
140
0.0
141
0.0
142
1.0
143
1.0
 70
   688
 72
     0
 73
     0
 74
     5
  7
TRexLJ5Shaded2.ctb
 75
    16
147
1.0
 76
     0
 77
     2
 78
   300
148
0.0
149
0.0
100
AcDbLayout
  1
Layout1
 70
     1
 71
     1
 10
0.0
 20
0.0
 11
12.0
 21
9.0
 12
0.0
 22
0.0
 32
0.0
 14
1.000000000000000E+20
 24
1.000000000000000E+20
 34
1.000000000000000E+20
 15
-1.000000000000000E+20
 25
-1.000000000000000E+20
 35
-1.000000000000000E+20
146
0.0
 13
0.0
 23
0.0
 33
0.0
 16
1.0
 26
0.0
 36
0.0
 17
0.0
 27
1.0
 37
0.0
 76
     0
330
1A
331
4DE
  0
LAYOUT
  5
21
102
{ACAD_REACTORS
330
19
102
}
330
19
100
AcDbPlotSettings
  1
LaserJet5 8.5x11
  2
LaserJet5Shaded-8x11.pc3
  4
Letter
  6

 40
5.873749732971191
 41
5.873734951019287
 42
6.55108642578125
 43
5.027084350585937
 44
279.3999938964844
 45
215.8999938964844
 46
31.48311066902254
 47
0.0000000000000033
 48
0.0
 49
0.0
140
0.0
141
0.0
142
1.0
143
1.293546671707545
 70
 11956
 72
     0
 73
     0
 74
     1
  7
LaserJet5Shaded.ctb
 75
     0
147
0.7730683568455638
 76
     0
 77
     2
 78
   300
148
14.03907538657517
149
89.11661791632935
100
AcDbLayout
  1
Model
 70
     1
 71
     0
 10
0.0
 20
0.0
 11
12.0
 21
9.0
 12
0.0
 22
0.0
 32
0.0
 14
0.0
 24
0.0
 34
0.0
 15
0.0
 25
0.0
 35
0.0
146
0.0
 13
0.0
 23
0.0
 33
0.0
 16
1.0
 26
0.0
 36
0.0
 17
0.0
 27
1.0
 37
0.0
 76
     0
330
1E
331
2035
1001
ACAD_PSEXT
1000
LaserJet5Shaded-8x11.pc3
1000
HP LaserJet 5Si
1000
CAD Area
1000

1070
     0
  0
MATERIAL
  5
2040
102
{ACAD_XDICTIONARY
360
2041
102
}
102
{ACAD_REACTORS
330
2037
102
}
330
2037
100
AcDbMaterial
  1
ByBlock
 72
     0
 43
0.0208333333333333
 43
0.0
 43
0.0
 43
0.0
 43
0.0
 43
0.0208333333333333
 43
0.0
 43
0.0
 43
0.0
 43
0.0
 43
1.0
 43
0.0
 43
0.0
 43
0.0
 43
0.0
 43
1.0
 77
     0
 47
0.0208333333333333
 47
0.0
 47
0.0
 47
0.0
 47
0.0
 47
0.0208333333333333
 47
0.0
 47
0.0
 47
0.0
 47
0.0
 47
1.0
 47
0.0
 47
0.0
 47
0.0
 47
0.0
 47
1.0
171
     0
 49
0.0208333333333333
 49
0.0
 49
0.0
 49
0.0
 49
0.0
 49
0.0208333333333333
 49
0.0
 49
0.0
 49
0.0
 49
0.0
 49
1.0
 49
0.0
 49
0.0
 49
0.0
 49
0.0
 49
1.0
175
     0
142
0.0208333333333333
142
0.0
142
0.0
142
0.0
142
0.0
142
0.0208333333333333
142
0.0
142
0.0
142
0.0
142
0.0
142
1.0
142
0.0
142
0.0
142
0.0
142
0.0
142
1.0
179
     0
144
0.0208333333333333
144
0.0
144
0.0
144
0.0
144
0.0
144
0.0208333333333333
144
0.0
144
0.0
144
0.0
144
0.0
144
1.0
144
0.0
144
0.0
144
0.0
144
0.0
144
1.0
147
0.0208333333333333
147
0.0
147
0.0
147
0.0
147
0.0
147
0.0208333333333333
147
0.0
147
0.0
147
0.0
147
0.0
147
1.0
147
0.0
147
0.0
147
0.0
147
0.0
147
1.0
  0
MATERIAL
  5
2038
102
{ACAD_XDICTIONARY
360
2039
102
}
102
{ACAD_REACTORS
330
2037
102
}
330
2037
100
AcDbMaterial
  1
ByLayer
 72
     0
 43
0.0208333333333333
 43
0.0
 43
0.0
 43
0.0
 43
0.0
 43
0.0208333333333333
 43
0.0
 43
0.0
 43
0.0
 43
0.0
 43
1.0
 43
0.0
 43
0.0
 43
0.0
 43
0.0
 43
1.0
 77
     0
 47
0.0208333333333333
 47
0.0
 47
0.0
 47
0.0
 47
0.0
 47
0.0208333333333333
 47
0.0
 47
0.0
 47
0.0
 47
0.0
 47
1.0
 47
0.0
 47
0.0
 47
0.0
 47
0.0
 47
1.0
171
     0
 49
0.0208333333333333
 49
0.0
 49
0.0
 49
0.0
 49
0.0
 49
0.0208333333333333
 49
0.0
 49
0.0
 49
0.0
 49
0.0
 49
1.0
 49
0.0
 49
0.0
 49
0.0
 49
0.0
 49
1.0
175
     0
142
0.0208333333333333
142
0.0
142
0.0
142
0.0
142
0.0
142
0.0208333333333333
142
0.0
142
0.0
142
0.0
142
0.0
142
1.0
142
0.0
142
0.0
142
0.0
142
0.0
142
1.0
179
     0
144
0.0208333333333333
144
0.0
144
0.0
144
0.0
144
0.0
144
0.0208333333333333
144
0.0
144
0.0
144
0.0
144
0.0
144
1.0
144
0.0
144
0.0
144
0.0
144
0.0
144
1.0
147
0.0208333333333333
147
0.0
147
0.0
147
0.0
147
0.0
147
0.0208333333333333
147
0.0
147
0.0
147
0.0
147
0.0
147
1.0
147
0.0
147
0.0
147
0.0
147
0.0
147
1.0
  0
MATERIAL
  5
2048
102
{ACAD_XDICTIONARY
360
2049
102
}
102
{ACAD_REACTORS
330
2037
102
}
330
2037
100
AcDbMaterial
  1
Global
 72
     0
 43
0.0208333333333333
 43
0.0
 43
0.0
 43
0.0
 43
0.0
 43
0.0208333333333333
 43
0.0
 43
0.0
 43
0.0
 43
0.0
 43
1.0
 43
0.0
 43
0.0
 43
0.0
 43
0.0
 43
1.0
 77
     0
 47
0.0208333333333333
 47
0.0
 47
0.0
 47
0.0
 47
0.0
 47
0.0208333333333333
 47
0.0
 47
0.0
 47
0.0
 47
0.0
 47
1.0
 47
0.0
 47
0.0
 47
0.0
 47
0.0
 47
1.0
171
     0
 49
0.0208333333333333
 49
0.0
 49
0.0
 49
0.0
 49
0.0
 49
0.0208333333333333
 49
0.0
 49
0.0
 49
0.0
 49
0.0
 49
1.0
 49
0.0
 49
0.0
 49
0.0
 49
0.0
 49
1.0
175
     0
142
0.0208333333333333
142
0.0
142
0.0
142
0.0
142
0.0
142
0.0208333333333333
142
0.0
142
0.0
142
0.0
142
0.0
142
1.0
142
0.0
142
0.0
142
0.0
142
0.0
142
1.0
179
     0
144
0.0208333333333333
144
0.0
144
0.0
144
0.0
144
0.0
144
0.0208333333333333
144
0.0
144
0.0
144
0.0
144
0.0
144
1.0
144
0.0
144
0.0
144
0.0
144
0.0
144
1.0
147
0.0208333333333333
147
0.0
147
0.0
147
0.0
147
0.0
147
0.0208333333333333
147
0.0
147
0.0
147
0.0
147
0.0
147
1.0
147
0.0
147
0.0
147
0.0
147
0.0
147
1.0
  0
MLEADERSTYLE
  5
2087
102
{ACAD_REACTORS
330
2086
102
}
330
2086
100
AcDbMLeaderStyle
170
     2
171
     1
172
     0
 90
        2
 40
0.0
 41
0.0
173
     1
 91
-1056964608
340
13
 92
       -2
290
     1
 42
0.09
291
     1
 43
0.36
  3
Standard
 44
0.18
300

342
11
174
     1
178
     6
175
     1
176
     0
 93
-1056964608
 45
0.18
292
     0
297
     0
 46
0.18
 94
-1056964608
 47
1.0
 49
1.0
140
1.0
293
     1
141
0.0
294
     1
177
     0
142
1.0
295
     0
296
     0
143
0.125
1001
ACAD_MLEADERVER
1070
     2
  0
MLINESTYLE
  5
17
102
{ACAD_REACTORS
330
16
102
}
330
16
100
AcDbMlineStyle
  2
STANDARD
 70
     0
  3

 62
   256
 51
90.0
 52
90.0
 71
     2
 49
0.5
 62
   256
  6
BYLAYER
 49
-0.5
 62
   256
  6
BYLAYER
  0
PLOTSETTINGS
  5
209A
102
{ACAD_REACTORS
330
18
102
}
330
18
100
AcDbPlotSettings
  1
1055 24x36 BW
  2
1055B&WDraftShaded.pc3
  4
User257
  6

 40
14.98600006103515
 41
8.297271728515625
 42
14.9859619140625
 43
8.29736328125
 44
914.3153076171875
 45
1269.915283203125
 46
0.0
 47
0.0
 48
0.0
 49
0.0
140
0.0
141
0.0
142
1.0
143
1.0
 70
  2800
 72
     0
 73
     2
 74
     1
  7
1055B&WFullDraftShaded.ctb
 75
    16
147
1.0
 76
     0
 77
     2
 78
   300
148
-75.74468520391772
149
-27.53050504688192
1001
ACAD_PSEXT
1000
1055B&WDraftShaded.pc3
1000
HP DesignJet 1055CM by HP
1000
FRONT
1000

1070
     0
  0
PLOTSETTINGS
  5
209C
102
{ACAD_REACTORS
330
18
102
}
330
18
100
AcDbPlotSettings
  1
1055 24x36 BW Final
  2
1055B&WFinalShaded.pc3
  4
User257
  6

 40
14.98600006103515
 41
8.297271728515625
 42
14.9859619140625
 43
8.29736328125
 44
914.357666015625
 45
1269.957641601562
 46
0.0
 47
0.0
 48
0.0
 49
0.0
140
0.0
141
0.0
142
1.0
143
1.0
 70
  2800
 72
     0
 73
     2
 74
     1
  7
1055B&WFullFinalShaded.ctb
 75
    16
147
1.0
 76
     0
 77
     2
 78
   300
148
-75.74468520391772
149
-27.53050504688192
1001
ACAD_PSEXT
1000
1055B&WFinalShaded.pc3
1000
HP DesignJet 1055CM by HP
1000
FRONT
1000

1070
     0
  0
PLOTSETTINGS
  5
209D
102
{ACAD_REACTORS
330
18
102
}
330
18
100
AcDbPlotSettings
  1
1055 24x36 Color
  2
1055ColorDraftShaded.pc3
  4
User257
  6

 40
14.98600006103515
 41
8.297271728515625
 42
14.9859619140625
 43
8.29736328125
 44
914.3153076171875
 45
1269.915283203125
 46
0.0
 47
0.0
 48
0.0
 49
0.0
140
0.0
141
0.0
142
1.0
143
1.0
 70
  2800
 72
     0
 73
     2
 74
     1
  7
Color.ctb
 75
    16
147
1.0
 76
     0
 77
     2
 78
   300
148
-75.74468520391772
149
-27.53050504688192
1001
ACAD_PSEXT
1000
1055ColorDraftShaded.pc3
1000
HP DesignJet 1055CM by HP
1000
FRONT
1000

1070
     0
  0
PLOTSETTINGS
  5
209E
102
{ACAD_REACTORS
330
18
102
}
330
18
100
AcDbPlotSettings
  1
1055 24x36 Color Shaded
  2
1055ColorDraftShaded.pc3
  4
User257
  6

 40
14.98600006103515
 41
8.297271728515625
 42
14.9859619140625
 43
8.29736328125
 44
914.3153076171875
 45
1269.915283203125
 46
0.0
 47
0.0
 48
0.0
 49
0.0
140
0.0
141
0.0
142
1.0
143
1.0
 70
  2800
 72
     0
 73
     2
 74
     1
  7
1055ColorFullDraftShaded.ctb
 75
    16
147
1.0
 76
     0
 77
     2
 78
   300
148
-75.74468520391772
149
-27.53050504688192
1001
ACAD_PSEXT
1000
1055ColorDraftShaded.pc3
1000
HP DesignJet 1055CM by HP
1000
FRONT
1000

1070
     0
  0
PLOTSETTINGS
  5
209F
102
{ACAD_REACTORS
330
18
102
}
330
18
100
AcDbPlotSettings
  1
1055 30x42 BW
  2
1055B&WDraftShaded.pc3
  4
User257
  6

 40
14.98600006103515
 41
8.297271728515625
 42
14.9859619140625
 43
8.29736328125
 44
914.3153076171875
 45
1269.915283203125
 46
0.0
 47
0.0
 48
0.0
 49
0.0
140
0.0
141
0.0
142
1.0
143
1.0
 70
  2800
 72
     0
 73
     1
 74
     1
  7
1055B&WFullDraftShaded.ctb
 75
    16
147
1.0
 76
     0
 77
     2
 78
   300
148
-75.74468520391772
149
-27.53050504688192
1001
ACAD_PSEXT
1000
1055B&WDraftShaded.pc3
1000
HP DesignJet 1055CM by HP
1000
FRONT
1000

1070
     0
  0
PLOTSETTINGS
  5
20A0
102
{ACAD_REACTORS
330
18
102
}
330
18
100
AcDbPlotSettings
  1
1055 30x42 BW Final
  2
1055B&WFinalShaded.pc3
  4
User257
  6

 40
14.98600006103515
 41
8.297271728515625
 42
14.9859619140625
 43
8.29736328125
 44
914.357666015625
 45
1269.957641601562
 46
0.0
 47
0.0
 48
0.0
 49
0.0
140
0.0
141
0.0
142
1.0
143
1.0
 70
  2800
 72
     0
 73
     1
 74
     1
  7
1055B&WFullFinalShaded.ctb
 75
    16
147
1.0
 76
     0
 77
     2
 78
   300
148
-75.74468520391772
149
-27.53050504688192
1001
ACAD_PSEXT
1000
1055B&WFinalShaded.pc3
1000
HP DesignJet 1055CM by HP
1000
FRONT
1000

1070
     0
  0
PLOTSETTINGS
  5
20A1
102
{ACAD_REACTORS
330
18
102
}
330
18
100
AcDbPlotSettings
  1
1055 B&W Draft
  2
1055B&WDraftShaded.pc3
  4
User257
  6

 40
4.995333194732666
 41
8.297271728515625
 42
4.99530029296875
 43
8.29736328125
 44
914.3153076171875
 45
1269.915283203125
 46
0.0
 47
0.0
 48
0.0
 49
0.0
140
0.0
141
0.0
142
1.0
143
30.0
 70
 11936
 72
     0
 73
     2
 74
     1
  7
1055B&WFullDraftShaded.ctb
 75
     0
147
3.484472351238056
 76
     0
 77
     2
 78
   300
148
-119.4582094169044
149
-58.17053554795709
1001
ACAD_PSEXT
1000
1055B&WDraftShaded.pc3
1000
HP DesignJet 1055CM by HP
1000
\\aqua-srv01
1000

1070
     0
  0
PLOTSETTINGS
  5
20A2
102
{ACAD_REACTORS
330
18
102
}
330
18
100
AcDbPlotSettings
  1
1055 B&W Final
  2
1055B&WFinalShaded.pc3
  4
User257
  6

 40
4.995333194732666
 41
8.297271728515625
 42
4.99530029296875
 43
8.29736328125
 44
914.357666015625
 45
1269.957641601562
 46
0.0
 47
0.0
 48
0.0
 49
0.0
140
0.0
141
0.0
142
1.0
143
30.0
 70
 11936
 72
     0
 73
     2
 74
     1
  7
1055B&WFullFinalShaded.ctb
 75
     0
147
3.484472351238056
 76
     0
 77
     2
 78
   300
148
-119.4582094169044
149
-58.17053554795709
1001
ACAD_PSEXT
1000
1055B&WFinalShaded.pc3
1000
HP DesignJet 1055CM by HP
1000
\\aqua-srv01
1000

1070
     0
  0
PLOTSETTINGS
  5
20A3
102
{ACAD_REACTORS
330
18
102
}
330
18
100
AcDbPlotSettings
  1
1055 BW Half
  2
1055B&WDraftShaded.pc3
  4
User257
  6

 40
14.98600006103515
 41
8.297271728515625
 42
14.9859619140625
 43
8.29736328125
 44
914.3153076171875
 45
1269.915283203125
 46
0.0
 47
0.0
 48
0.0
 49
0.0
140
0.0
141
0.0
142
1.0
143
2.0
 70
  2800
 72
     0
 73
     2
 74
     1
  7
1055B&WFullDraftShaded.ctb
 75
    17
147
0.5
 76
     0
 77
     2
 78
   300
148
-75.74468520391772
149
-27.53050504688192
1001
ACAD_PSEXT
1000
1055B&WDraftShaded.pc3
1000
HP DesignJet 1055CM by HP
1000
FRONT
1000

1070
     0
  0
PLOTSETTINGS
  5
20A4
102
{ACAD_REACTORS
330
18
102
}
330
18
100
AcDbPlotSettings
  1
1055 Color Draft
  2
1055ColorDraftShaded.pc3
  4
User257
  6

 40
4.995333194732666
 41
8.297271728515625
 42
4.99530029296875
 43
8.29736328125
 44
914.3153076171875
 45
1269.915283203125
 46
0.0
 47
0.0
 48
0.0
 49
0.0
140
0.0
141
0.0
142
1.0
143
30.0
 70
 11936
 72
     0
 73
     2
 74
     1
  7
1055ColorFullDraftShaded.ctb
 75
     0
147
3.484472351238056
 76
     0
 77
     2
 78
   300
148
-119.4582094169044
149
-58.17053554795709
1001
ACAD_PSEXT
1000
1055ColorDraftShaded.pc3
1000
HP DesignJet 1055CM by HP
1000
\\aqua-srv01
1000

1070
     0
  0
PLOTSETTINGS
  5
20A5
102
{ACAD_REACTORS
330
18
102
}
330
18
100
AcDbPlotSettings
  1
1055 Color Final
  2
1055ColorFinalShaded.pc3
  4
User257
  6

 40
4.995333194732666
 41
8.297271728515625
 42
4.99530029296875
 43
8.29736328125
 44
914.357666015625
 45
1269.957641601562
 46
0.0
 47
0.0
 48
0.0
 49
0.0
140
0.0
141
0.0
142
1.0
143
30.0
 70
 11936
 72
     0
 73
     2
 74
     1
  7
1055ColorFullFinalShaded.ctb
 75
     0
147
3.484472351238056
 76
     0
 77
     2
 78
   300
148
-119.4582094169044
149
-58.17053554795709
1001
ACAD_PSEXT
1000
1055ColorFinalShaded.pc3
1000
HP DesignJet 1055CM by HP
1000
\\aqua-srv01
1000

1070
     0
  0
PLOTSETTINGS
  5
20A6
102
{ACAD_REACTORS
330
18
102
}
330
18
100
AcDbPlotSettings
  1
1055+ 24x36 BW
  2
1055_PLUS_B&WDraftShaded.pc3
  4
User257
  6

 40
14.98600006103515
 41
8.297271728515625
 42
14.9859619140625
 43
8.29736328125
 44
914.3153076171875
 45
1269.915283203125
 46
0.0
 47
0.0
 48
0.0
 49
0.0
140
0.0
141
0.0
142
1.0
143
1.0
 70
  2800
 72
     0
 73
     2
 74
     1
  7
1055B&WFullDraftShaded.ctb
 75
    16
147
1.0
 76
     0
 77
     2
 78
   300
148
-75.74468520391772
149
-27.53050504688192
1001
ACAD_PSEXT
1000
1055_PLUS_B&WDraftShaded.pc3
1000
HP DesignJet 1055CM by HP
1000
FRONT
1000

1070
     0
  0
PLOTSETTINGS
  5
20A7
102
{ACAD_REACTORS
330
18
102
}
330
18
100
AcDbPlotSettings
  1
1055+ 24x36 BW Final
  2
1055_PLUS_B&WFinalShaded.pc3
  4
User257
  6

 40
14.98600006103515
 41
8.297271728515625
 42
14.9859619140625
 43
8.29736328125
 44
914.357666015625
 45
1269.957641601562
 46
0.0
 47
0.0
 48
0.0
 49
0.0
140
0.0
141
0.0
142
1.0
143
1.0
 70
  2800
 72
     0
 73
     2
 74
     1
  7
1055B&WFullFinalShaded.ctb
 75
    16
147
1.0
 76
     0
 77
     2
 78
   300
148
-75.74468520391772
149
-27.53050504688192
1001
ACAD_PSEXT
1000
1055_PLUS_B&WFinalShaded.pc3
1000
HP DesignJet 1055CM by HP
1000
FRONT
1000

1070
     0
  0
PLOTSETTINGS
  5
20A8
102
{ACAD_REACTORS
330
18
102
}
330
18
100
AcDbPlotSettings
  1
1055+ 24x36 Color
  2
1055_PLUS_ColorDraftShaded.pc3
  4
User257
  6

 40
14.98600006103515
 41
8.297271728515625
 42
14.9859619140625
 43
8.29736328125
 44
914.3153076171875
 45
1269.915283203125
 46
0.0
 47
0.0
 48
0.0
 49
0.0
140
0.0
141
0.0
142
1.0
143
1.0
 70
  2800
 72
     0
 73
     2
 74
     1
  7
Color.ctb
 75
    16
147
1.0
 76
     0
 77
     2
 78
   300
148
-75.74468520391772
149
-27.53050504688192
1001
ACAD_PSEXT
1000
1055_PLUS_ColorDraftShaded.pc3
1000
HP DesignJet 1055CM by HP
1000
FRONT
1000

1070
     0
  0
PLOTSETTINGS
  5
20A9
102
{ACAD_REACTORS
330
18
102
}
330
18
100
AcDbPlotSettings
  1
1055+ 24x36 Color Shaded
  2
1055_PLUS_ColorDraftShaded.pc3
  4
User257
  6

 40
14.98600006103515
 41
8.297271728515625
 42
14.9859619140625
 43
8.29736328125
 44
914.3153076171875
 45
1269.915283203125
 46
0.0
 47
0.0
 48
0.0
 49
0.0
140
0.0
141
0.0
142
1.0
143
1.0
 70
  2800
 72
     0
 73
     2
 74
     1
  7
1055ColorFullDraftShaded.ctb
 75
    16
147
1.0
 76
     0
 77
     2
 78
   300
148
-75.74468520391772
149
-27.53050504688192
1001
ACAD_PSEXT
1000
1055_PLUS_ColorDraftShaded.pc3
1000
HP DesignJet 1055CM by HP
1000
FRONT
1000

1070
     0
  0
PLOTSETTINGS
  5
20AA
102
{ACAD_REACTORS
330
18
102
}
330
18
100
AcDbPlotSettings
  1
1055+ 30x42 BW
  2
1055_PLUS_B&WDraftShaded.pc3
  4
User257
  6

 40
14.98600006103515
 41
8.297271728515625
 42
14.9859619140625
 43
8.29736328125
 44
914.3153076171875
 45
1269.915283203125
 46
0.0
 47
0.0
 48
0.0
 49
0.0
140
0.0
141
0.0
142
1.0
143
1.0
 70
  2800
 72
     0
 73
     1
 74
     1
  7
1055B&WFullDraftShaded.ctb
 75
    16
147
1.0
 76
     0
 77
     2
 78
   300
148
-75.74468520391772
149
-27.53050504688192
1001
ACAD_PSEXT
1000
1055_PLUS_B&WDraftShaded.pc3
1000
HP DesignJet 1055CM by HP
1000
FRONT
1000

1070
     0
  0
PLOTSETTINGS
  5
20AB
102
{ACAD_REACTORS
330
18
102
}
330
18
100
AcDbPlotSettings
  1
1055+ 30x42 BW Final
  2
1055_PLUS_B&WFinalShaded.pc3
  4
User257
  6

 40
14.98600006103515
 41
8.297271728515625
 42
14.9859619140625
 43
8.29736328125
 44
914.357666015625
 45
1269.957641601562
 46
0.0
 47
0.0
 48
0.0
 49
0.0
140
0.0
141
0.0
142
1.0
143
1.0
 70
  2800
 72
     0
 73
     1
 74
     1
  7
1055B&WFullFinalShaded.ctb
 75
    16
147
1.0
 76
     0
 77
     2
 78
   300
148
-75.74468520391772
149
-27.53050504688192
1001
ACAD_PSEXT
1000
1055_PLUS_B&WFinalShaded.pc3
1000
HP DesignJet 1055CM by HP
1000
FRONT
1000

1070
     0
  0
PLOTSETTINGS
  5
20AC
102
{ACAD_REACTORS
330
18
102
}
330
18
100
AcDbPlotSettings
  1
1055+ B&W Draft
  2
1055_PLUS_B&WDraftShaded.pc3
  4
User257
  6

 40
4.995333194732666
 41
13.2926607131958
 42
4.99530029296875
 43
13.292724609375
 44
914.3153076171875
 45
1269.915283203125
 46
0.0
 47
0.0
 48
0.0
 49
0.0
140
0.0
141
0.0
142
1.0
143
30.0
 70
 11936
 72
     0
 73
     2
 74
     1
  7
1055B&WFullDraftShaded.ctb
 75
     0
147
3.484472351238056
 76
     0
 77
     2
 78
   300
148
-119.4582094169044
149
-58.17053554795709
1001
ACAD_PSEXT
1000
1055_PLUS_B&WDraftShaded.pc3
1000
HP DesignJet 1055CM by HP
1000
\\aqua-srv01
1000

1070
     0
  0
PLOTSETTINGS
  5
20AD
102
{ACAD_REACTORS
330
18
102
}
330
18
100
AcDbPlotSettings
  1
1055+ B&W Final
  2
1055_PLUS_B&WFinalShaded.pc3
  4
User257
  6

 40
4.995333194732666
 41
13.2926607131958
 42
4.99530029296875
 43
13.292724609375
 44
914.357666015625
 45
1269.957641601562
 46
0.0
 47
0.0
 48
0.0
 49
0.0
140
0.0
141
0.0
142
1.0
143
30.0
 70
 11936
 72
     0
 73
     2
 74
     1
  7
1055B&WFullFinalShaded.ctb
 75
     0
147
3.484472351238056
 76
     0
 77
     2
 78
   300
148
-119.4582094169044
149
-58.17053554795709
1001
ACAD_PSEXT
1000
1055_PLUS_B&WFinalShaded.pc3
1000
HP DesignJet 1055CM by HP
1000
\\aqua-srv01
1000

1070
     0
  0
PLOTSETTINGS
  5
20AE
102
{ACAD_REACTORS
330
18
102
}
330
18
100
AcDbPlotSettings
  1
1055+ BW Half
  2
1055_PLUS_B&WDraftShaded.pc3
  4
User257
  6

 40
14.98600006103515
 41
8.297271728515625
 42
14.9859619140625
 43
8.29736328125
 44
914.3153076171875
 45
1269.915283203125
 46
0.0
 47
0.0
 48
0.0
 49
0.0
140
0.0
141
0.0
142
1.0
143
2.0
 70
  2800
 72
     0
 73
     2
 74
     1
  7
1055B&WFullDraftShaded.ctb
 75
    17
147
0.5
 76
     0
 77
     2
 78
   300
148
-75.74468520391772
149
-27.53050504688192
1001
ACAD_PSEXT
1000
1055_PLUS_B&WDraftShaded.pc3
1000
HP DesignJet 1055CM by HP
1000
FRONT
1000

1070
     0
  0
PLOTSETTINGS
  5
20AF
102
{ACAD_REACTORS
330
18
102
}
330
18
100
AcDbPlotSettings
  1
1055+ Color Draft
  2
1055_PLUS_ColorDraftShaded.pc3
  4
User257
  6

 40
4.995333194732666
 41
8.297271728515625
 42
4.99530029296875
 43
8.29736328125
 44
914.3153076171875
 45
1269.915283203125
 46
0.0
 47
0.0
 48
0.0
 49
0.0
140
0.0
141
0.0
142
1.0
143
30.0
 70
 11936
 72
     0
 73
     2
 74
     1
  7
1055ColorFullDraftShaded.ctb
 75
     0
147
3.484472351238056
 76
     0
 77
     2
 78
   300
148
-119.4582094169044
149
-58.17053554795709
1001
ACAD_PSEXT
1000
1055_PLUS_ColorDraftShaded.pc3
1000
HP DesignJet 1055CM by HP
1000
\\aqua-srv01
1000

1070
     0
  0
PLOTSETTINGS
  5
20B0
102
{ACAD_REACTORS
330
18
102
}
330
18
100
AcDbPlotSettings
  1
1055+ Color Final
  2
1055_PLUS_ColorFinalShaded.pc3
  4
User257
  6

 40
4.995333194732666
 41
13.2926607131958
 42
4.99530029296875
 43
13.292724609375
 44
914.357666015625
 45
1269.957641601562
 46
0.0
 47
0.0
 48
0.0
 49
0.0
140
0.0
141
0.0
142
1.0
143
30.0
 70
 11936
 72
     0
 73
     2
 74
     1
  7
1055ColorFullFinalShaded.ctb
 75
     0
147
3.484472351238056
 76
     0
 77
     2
 78
   300
148
-119.4582094169044
149
-58.17053554795709
1001
ACAD_PSEXT
1000
1055_PLUS_ColorFinalShaded.pc3
1000
HP DesignJet 1055CM by HP
1000
\\aqua-srv01
1000

1070
     0
  0
PLOTSETTINGS
  5
20B1
102
{ACAD_REACTORS
330
18
102
}
330
18
100
AcDbPlotSettings
  1
_1055 22x34 True Centered BW
  2
1055B&WDraftShaded 24x36 true.pc3
  4
User1639
  6

 40
0.0
 41
0.0
 42
0.0
 43
0.0
 44
863.6000366210938
 45
558.7999877929687
 46
379.1860116761152
 47
224.9166389522296
 48
0.0
 49
0.0
140
0.0
141
0.0
142
1.0
143
1.0
 70
  2804
 72
     0
 73
     0
 74
     1
  7
1055B&WFullDraftShaded.ctb
 75
    16
147
1.0
 76
     0
 77
     2
 78
   300
148
-75.74468520391772
149
-27.53050504688192
1001
ACAD_PSEXT
1000
1055B&WDraftShaded 24x36 true.pc3
1000
HP DesignJet 1055CM by HP
1000
FRONT
1000

1070
     0
  0
PLOTSETTINGS
  5
20B2
102
{ACAD_REACTORS
330
18
102
}
330
18
100
AcDbPlotSettings
  1
_1055 24x36 True Centered BW
  2
1055B&WDraftShaded 24x36 true.pc3
  4
User1308
  6

 40
14.98600006103515
 41
8.297332763671875
 42
14.9859619140625
 43
8.29736328125
 44
914.3153076171875
 45
609.5153198242187
 46
389.5576661866133
 47
241.9769569453936
 48
0.0
 49
0.0
140
0.0
141
0.0
142
1.0
143
1.0
 70
  2804
 72
     0
 73
     0
 74
     1
  7
1055B&WFullDraftShaded.ctb
 75
    16
147
1.0
 76
     0
 77
     2
 78
   300
148
-75.74468520391772
149
-27.53050504688192
1001
ACAD_PSEXT
1000
1055B&WDraftShaded 24x36 true.pc3
1000
HP DesignJet 1055CM by HP
1000
FRONT
1000

1070
     0
  0
PLOTSETTINGS
  5
20B3
102
{ACAD_REACTORS
330
18
102
}
330
18
100
AcDbPlotSettings
  1
_1055 24x36 True Centered BW Final
  2
1055B&WFinalShaded 24x36 true.pc3
  4
User1308
  6

 40
14.98600006103515
 41
8.297332763671875
 42
14.9859619140625
 43
8.29736328125
 44
914.357666015625
 45
609.5576782226562
 46
389.578845385832
 47
241.9981361446124
 48
0.0
 49
0.0
140
0.0
141
0.0
142
1.0
143
1.0
 70
  2804
 72
     0
 73
     0
 74
     1
  7
1055B&WFullFinalShaded.ctb
 75
    16
147
1.0
 76
     0
 77
     2
 78
   300
148
-75.74468520391772
149
-27.53050504688192
1001
ACAD_PSEXT
1000
1055B&WFinalShaded 24x36 true.pc3
1000
HP DesignJet 1055CM by HP
1000
FRONT
1000

1070
     0
  0
PLOTSETTINGS
  5
20B4
102
{ACAD_REACTORS
330
18
102
}
330
18
100
AcDbPlotSettings
  1
_1055 24x36 True Centered Color
  2
1055ColorDraftShaded 24x36 true.pc3
  4
User1308
  6

 40
14.98600006103515
 41
8.297332763671875
 42
14.9859619140625
 43
8.29736328125
 44
914.3153076171875
 45
609.5153198242187
 46
389.5576661866133
 47
241.9769569453936
 48
0.0
 49
0.0
140
0.0
141
0.0
142
1.0
143
1.0
 70
  2804
 72
     0
 73
     0
 74
     1
  7
1055ColorFullDraftShaded.ctb
 75
    16
147
1.0
 76
     0
 77
     2
 78
   300
148
-75.74468520391772
149
-27.53050504688192
1001
ACAD_PSEXT
1000
1055ColorDraftShaded 24x36 true.pc3
1000
HP DesignJet 1055CM by HP
1000
FRONT
1000

1070
     0
  0
PLOTSETTINGS
  5
20B5
102
{ACAD_REACTORS
330
18
102
}
330
18
100
AcDbPlotSettings
  1
_1055 30x42 True Centered BW
  2
1055B&WDraftShaded 30x42 true.pc3
  4
User286
  6

 40
0.0
 41
0.0
 42
-0.08465576171875
 43
-0.084716796875
 44
761.9153442382812
 45
1066.71533203125
 46
326.5166450557452
 47
480.7860177796309
 48
0.0
 49
0.0
140
0.0
141
0.0
142
1.0
143
1.0
 70
  2804
 72
     0
 73
     1
 74
     1
  7
1055B&WFullDraftShaded.ctb
 75
    16
147
1.0
 76
     0
 77
     2
 78
   300
148
-75.74468520391772
149
-27.53050504688192
1001
ACAD_PSEXT
1000
1055B&WDraftShaded 30x42 true.pc3
1000
HP DesignJet 1055CM by HP
1000
FRONT
1000

1070
     0
  0
PLOTSETTINGS
  5
20B6
102
{ACAD_REACTORS
330
18
102
}
330
18
100
AcDbPlotSettings
  1
_1055+ 22x34 True Centered BW
  2
1055_PLUS_B&WDraftShaded 24x36 true.pc3
  4
User1639
  6

 40
0.0
 41
0.0
 42
0.0
 43
0.0
 44
863.6000366210938
 45
558.7999877929687
 46
379.1860116761152
 47
224.9166389522296
 48
0.0
 49
0.0
140
0.0
141
0.0
142
1.0
143
1.0
 70
  2804
 72
     0
 73
     0
 74
     1
  7
1055B&WFullDraftShaded.ctb
 75
    16
147
1.0
 76
     0
 77
     2
 78
   300
148
-75.74468520391772
149
-27.53050504688192
1001
ACAD_PSEXT
1000
1055_PLUS_B&WDraftShaded 24x36 true.pc3
1000
HP DesignJet 1055CM by HP
1000
FRONT
1000

1070
     0
  0
PLOTSETTINGS
  5
20B7
102
{ACAD_REACTORS
330
18
102
}
330
18
100
AcDbPlotSettings
  1
_1055+ 24x36 True Centered BW
  2
1055_PLUS_B&WDraftShaded 24x36 true.pc3
  4
User1308
  6

 40
14.98600006103515
 41
8.297332763671875
 42
14.9859619140625
 43
8.29736328125
 44
914.3153076171875
 45
609.5153198242187
 46
389.5576661866133
 47
241.9769569453936
 48
0.0
 49
0.0
140
0.0
141
0.0
142
1.0
143
1.0
 70
  2804
 72
     0
 73
     0
 74
     1
  7
1055B&WFullDraftShaded.ctb
 75
    16
147
1.0
 76
     0
 77
     2
 78
   300
148
-75.74468520391772
149
-27.53050504688192
1001
ACAD_PSEXT
1000
1055_PLUS_B&WDraftShaded 24x36 true.pc3
1000
HP DesignJet 1055CM by HP
1000
FRONT
1000

1070
     0
  0
PLOTSETTINGS
  5
20B8
102
{ACAD_REACTORS
330
18
102
}
330
18
100
AcDbPlotSettings
  1
_1055+ 24x36 True Centered BW Final
  2
1055_PLUS_B&WFinalShaded 24x36 true.pc3
  4
User1308
  6

 40
14.98600006103515
 41
8.297332763671875
 42
14.9859619140625
 43
8.29736328125
 44
914.357666015625
 45
609.5576782226562
 46
389.578845385832
 47
241.9981361446124
 48
0.0
 49
0.0
140
0.0
141
0.0
142
1.0
143
1.0
 70
  2804
 72
     0
 73
     0
 74
     1
  7
1055B&WFullFinalShaded.ctb
 75
    16
147
1.0
 76
     0
 77
     2
 78
   300
148
-75.74468520391772
149
-27.53050504688192
1001
ACAD_PSEXT
1000
1055_PLUS_B&WFinalShaded 24x36 true.pc3
1000
HP DesignJet 1055CM by HP
1000
FRONT
1000

1070
     0
  0
PLOTSETTINGS
  5
20B9
102
{ACAD_REACTORS
330
18
102
}
330
18
100
AcDbPlotSettings
  1
_1055+ 24x36 True Centered Color
  2
1055_PLUS_ColorDraftShaded 24x36 true.pc3
  4
User1308
  6

 40
14.98600006103515
 41
8.297332763671875
 42
14.9859619140625
 43
8.29736328125
 44
914.3153076171875
 45
609.5153198242187
 46
389.5576661866133
 47
241.9769569453936
 48
0.0
 49
0.0
140
0.0
141
0.0
142
1.0
143
1.0
 70
  2804
 72
     0
 73
     0
 74
     1
  7
1055ColorFullDraftShaded.ctb
 75
    16
147
1.0
 76
     0
 77
     2
 78
   300
148
-75.74468520391772
149
-27.53050504688192
1001
ACAD_PSEXT
1000
1055_PLUS_ColorDraftShaded 24x36 true.pc3
1000
HP DesignJet 1055CM by HP
1000
FRONT
1000

1070
     0
  0
PLOTSETTINGS
  5
20BA
102
{ACAD_REACTORS
330
18
102
}
330
18
100
AcDbPlotSettings
  1
DWF BW 11x17 Fit
  2
DWF-BW_11x17.pc3
  4
UserDefinedImperial (17.00 x 11.00Inches)
  6

 40
0.0
 41
0.0
 42
0.0
 43
0.0
 44
431.7999877929687
 45
279.3999938964844
 46
80.99316641155249
 47
0.000000000000005
 48
0.0
 49
0.0
140
0.0
141
0.0
142
1.0
143
0.3900025492802298
 70
  2740
 72
     0
 73
     0
 74
     1
  7
1055B&WFullFinalShaded.ctb
 75
     0
147
2.564085803658341
 76
     0
 77
     2
 78
   300
148
-75.74468520391772
149
-27.53050504688192
1001
ACAD_PSEXT
1000
DWF-BW_11x17.pc3
1000
DWF eView (optimized for viewing)
1000
File
1000

1070
     0
  0
PLOTSETTINGS
  5
20BB
102
{ACAD_REACTORS
330
18
102
}
330
18
100
AcDbPlotSettings
  1
DWF BW 11x17 Half
  2
DWF-BW_11x17.pc3
  4
UserDefinedImperial (17.00 x 11.00Inches)
  6

 40
0.0
 41
0.0
 42
0.0
 43
0.0
 44
431.7999877929687
 45
279.3999938964844
 46
189.5929905792686
 47
112.4583194761148
 48
0.0
 49
0.0
140
0.0
141
0.0
142
1.0
143
2.0
 70
  2740
 72
     0
 73
     0
 74
     1
  7
1055B&WFullFinalShaded.ctb
 75
    17
147
0.5
 76
     0
 77
     2
 78
   300
148
-75.74468520391772
149
-27.53050504688192
1001
ACAD_PSEXT
1000
DWF-BW_11x17.pc3
1000
DWF eView (optimized for viewing)
1000
File
1000

1070
     0
  0
PLOTSETTINGS
  5
20BC
102
{ACAD_REACTORS
330
18
102
}
330
18
100
AcDbPlotSettings
  1
DWF BW 22x34
  2
DWF-BW_22x34.pc3
  4
UserDefinedImperial (34.00 x 22.00Inches)
  6

 40
0.0
 41
0.0
 42
0.0
 43
0.0
 44
863.5999755859375
 45
558.7999877929687
 46
379.1859811585372
 47
224.9166389522296
 48
0.0
 49
0.0
140
0.0
141
0.0
142
1.0
143
1.0
 70
  2740
 72
     0
 73
     0
 74
     1
  7
1055B&WFullFinalShaded.ctb
 75
    16
147
1.0
 76
     0
 77
     2
 78
   300
148
-75.74468520391772
149
-27.53050504688192
1001
ACAD_PSEXT
1000
DWF-BW_22x34.pc3
1000
DWF eView (optimized for viewing)
1000
File
1000

1070
     0
  0
PLOTSETTINGS
  5
20BD
102
{ACAD_REACTORS
330
18
102
}
330
18
100
AcDbPlotSettings
  1
DWF BW 24x36
  2
DWF-BW_24x36.pc3
  4
UserDefinedImperial (36.00 x 24.00Inches)
  6

 40
0.0
 41
0.0
 42
0.0
 43
0.0
 44
914.4000244140626
 45
609.5999755859375
 46
404.5860055725996
 47
250.3166328487139
 48
0.0
 49
0.0
140
0.0
141
0.0
142
1.0
143
1.0
 70
  2740
 72
     0
 73
     0
 74
     1
  7
1055B&WFullFinalShaded.ctb
 75
    16
147
1.0
 76
     0
 77
     2
 78
   300
148
-75.74468520391772
149
-27.53050504688192
1001
ACAD_PSEXT
1000
DWF-BW_24x36.pc3
1000
DWF eView (optimized for viewing)
1000
File
1000

1070
     0
  0
PLOTSETTINGS
  5
20BE
102
{ACAD_REACTORS
330
18
102
}
330
18
100
AcDbPlotSettings
  1
DWF BW 30x42
  2
DWF-BW_30x42.pc3
  4
UserDefinedImperial (42.00 x 30.00Inches)
  6

 40
0.0
 41
0.0
 42
0.0
 43
0.0
 44
1066.800048828125
 45
762.0
 46
480.7860177796309
 47
326.5166450557452
 48
0.0
 49
0.0
140
0.0
141
0.0
142
1.0
143
1.0
 70
  2740
 72
     0
 73
     0
 74
     1
  7
1055B&WFullFinalShaded.ctb
 75
    16
147
1.0
 76
     0
 77
     2
 78
   300
148
-75.74468520391772
149
-27.53050504688192
1001
ACAD_PSEXT
1000
DWF-BW_30x42.pc3
1000
DWF eView (optimized for viewing)
1000
File
1000

1070
     0
  0
PLOTSETTINGS
  5
20BF
102
{ACAD_REACTORS
330
18
102
}
330
18
100
AcDbPlotSettings
  1
DWF BW 36x48
  2
DWF-BW_36x48.pc3
  4
UserDefinedImperial (48.00 x 36.00Inches)
  6

 40
0.0
 41
0.0
 42
0.0
 43
0.0
 44
1219.199951171875
 45
914.4000244140626
 46
556.9859689515058
 47
402.7166572627765
 48
0.0
 49
0.0
140
0.0
141
0.0
142
1.0
143
1.0
 70
  2740
 72
     0
 73
     0
 74
     1
  7
1055B&WFullFinalShaded.ctb
 75
    16
147
1.0
 76
     0
 77
     2
 78
   300
148
-75.74468520391772
149
-27.53050504688192
1001
ACAD_PSEXT
1000
DWF-BW_36x48.pc3
1000
DWF eView (optimized for viewing)
1000
File
1000

1070
     0
  0
PLOTSETTINGS
  5
20C0
102
{ACAD_REACTORS
330
18
102
}
330
18
100
AcDbPlotSettings
  1
Laser5 11x17 Fit
  2
LaserJet5Shaded.pc3
  4
11x17
  6

 40
5.873749732971191
 41
5.027085304260253
 42
5.873748779296875
 43
5.027069091796875
 44
431.7999877929687
 45
279.3999938964844
 46
79.97401308328474
 47
0.0
 48
0.0
 49
0.0
140
0.0
141
0.0
142
1.0
143
0.4045605831172927
 70
  2740
 72
     0
 73
     0
 74
     1
  7
LaserJet5Shaded.ctb
 75
     0
147
2.471817675104729
 76
     0
 77
     2
 78
   300
148
-75.74468520391772
149
-27.53050504688192
1001
ACAD_PSEXT
1000
LaserJet5Shaded.pc3
1000
HP LaserJet 5Si
1000
\\aqua-srv01
1000

1070
     0
  0
PLOTSETTINGS
  5
20C1
102
{ACAD_REACTORS
330
18
102
}
330
18
100
AcDbPlotSettings
  1
Laser5 11x17 Full
  2
LaserJet5Shaded.pc3
  4
11x17
  6

 40
5.873749732971191
 41
5.027085304260253
 42
5.873748779296875
 43
5.027069091796875
 44
431.7999877929687
 45
279.3999938964844
 46
157.4122380059187
 47
80.18956480595884
 48
0.0
 49
0.0
140
0.0
141
0.0
142
1.0
143
1.0
 70
  2724
 72
     0
 73
     0
 74
     1
  7
LaserJet5Shaded.ctb
 75
     0
147
2.433550528115671
 76
     0
 77
     2
 78
   300
148
-75.74468520391772
149
-27.53050504688192
1001
ACAD_PSEXT
1000
LaserJet5Shaded.pc3
1000
HP LaserJet 5Si
1000
\\aqua-srv01
1000

1070
     0
  0
PLOTSETTINGS
  5
20C2
102
{ACAD_REACTORS
330
18
102
}
330
18
100
AcDbPlotSettings
  1
Laser5 11x17 Half
  2
LaserJet5Shaded.pc3
  4
11x17
  6

 40
5.873749732971191
 41
5.027085304260253
 42
5.873748779296875
 43
5.027069091796875
 44
431.7999877929687
 45
279.3999938964844
 46
183.7192413231345
 47
107.4312422780862
 48
0.0
 49
0.0
140
0.0
141
0.0
142
1.0
143
2.0
 70
  2740
 72
     0
 73
     0
 74
     1
  7
LaserJet5Shaded.ctb
 75
    17
147
0.5
 76
     0
 77
     2
 78
   300
148
-75.74468520391772
149
-27.53050504688192
1001
ACAD_PSEXT
1000
LaserJet5Shaded.pc3
1000
HP LaserJet 5Si
1000
\\aqua-srv01
1000

1070
     0
  0
PLOTSETTINGS
  5
20C3
102
{ACAD_REACTORS
330
18
102
}
330
18
100
AcDbPlotSettings
  1
Laser5 8x11 Fit
  2
LaserJet5Shaded-8x11.pc3
  4
Letter
  6

 40
5.873749732971191
 41
5.027085304260253
 42
5.873748779296875
 43
5.027084350585937
 44
279.3999938964844
 45
215.8999938964844
 46
34.4346667826652
 47
0.0
 48
0.0
 49
0.0
140
0.0
141
0.0
142
1.0
143
0.5293607985003172
 70
  2740
 72
     0
 73
     0
 74
     1
  7
LaserJet5Shaded.ctb
 75
     0
147
1.889070748784206
 76
     0
 77
     2
 78
   300
148
-75.74468520391772
149
-27.53050504688192
1001
ACAD_PSEXT
1000
LaserJet5Shaded-8x11.pc3
1000
HP LaserJet 5Si
1000
\\aqua-srv01
1000

1070
     0
  0
PLOTSETTINGS
  5
20C4
102
{ACAD_REACTORS
330
18
102
}
330
18
100
AcDbPlotSettings
  1
Laser5 8x11 Half
  2
LaserJet5Shaded-8x11.pc3
  4
Letter
  6

 40
5.873749732971191
 41
5.027085304260253
 42
5.873748779296875
 43
5.027084350585937
 44
279.3999938964844
 45
215.8999938964844
 46
107.5192443748923
 47
75.68123464869171
 48
0.0
 49
0.0
140
0.0
141
0.0
142
1.0
143
2.0
 70
  2740
 72
     0
 73
     0
 74
     1
  7
LaserJet5Shaded.ctb
 75
    17
147
0.5
 76
     0
 77
     2
 78
   300
148
-75.74468520391772
149
-27.53050504688192
1001
ACAD_PSEXT
1000
LaserJet5Shaded-8x11.pc3
1000
HP LaserJet 5Si
1000
\\aqua-srv01
1000

1070
     0
  0
PLOTSETTINGS
  5
20C5
102
{ACAD_REACTORS
330
18
102
}
330
18
100
AcDbPlotSettings
  1
Laser5 8x11 Portrait Fit
  2
LaserJet5Shaded-8x11.pc3
  4
Letter
  6

 40
5.873749732971191
 41
5.027085304260253
 42
5.873748779296875
 43
5.027084350585937
 44
279.3999938964844
 45
215.8999938964844
 46
27.24653799736659
 47
0.0000000000000029
 48
0.0
 49
0.0
140
0.0
141
0.0
142
1.0
143
0.5111981924167587
 70
  2740
 72
     0
 73
     1
 74
     1
  7
LaserJet5Shaded.ctb
 75
     0
147
1.956188450652308
 76
     0
 77
     2
 78
   300
148
-75.74468520391772
149
-27.53050504688192
1001
ACAD_PSEXT
1000
LaserJet5Shaded-8x11.pc3
1000
HP LaserJet 5Si
1000
\\aqua-srv01
1000

1070
     0
  0
PLOTSETTINGS
  5
20C6
102
{ACAD_REACTORS
330
18
102
}
330
18
100
AcDbPlotSettings
  1
LaserJet5 11x17
  2
LaserJet5Shaded.pc3
  4
11x17
  6

 40
7.111999988555908
 41
5.079999923706054
 42
7.11199951171875
 43
5.079986572265625
 44
279.3999938964844
 45
431.7999877929687
 46
0.0
 47
74.88489939702606
 48
0.0
 49
0.0
140
0.0
141
0.0
142
1.0
143
0.3551636250563743
 70
 11956
 72
     0
 73
     1
 74
     1
  7
LaserJet5Shaded.ctb
 75
     0
147
2.815603652658045
 76
     0
 77
     2
 78
   300
148
-119.4582094169044
149
-58.17053554795709
1001
ACAD_PSEXT
1000
LaserJet5Shaded.pc3
1000
HP LaserJet 5Si
1000
\\aqua-srv01
1000

1070
     0
  0
PLOTSETTINGS
  5
20C7
102
{ACAD_REACTORS
330
18
102
}
330
18
100
AcDbPlotSettings
  1
LaserJet5 8.5x11
  2
LaserJet5Shaded-8x11.pc3
  4
Letter
  6

 40
5.873749732971191
 41
5.873734951019287
 42
6.55108642578125
 43
5.027084350585937
 44
279.3999938964844
 45
215.8999938964844
 46
28.40045128601757
 47
0.0000000000000046
 48
0.0
 49
0.0
140
0.0
141
0.0
142
1.0
143
0.4594207153946231
 70
 11956
 72
     0
 73
     0
 74
     1
  7
LaserJet5Shaded.ctb
 75
     0
147
2.176654135286525
 76
     0
 77
     2
 78
   300
148
-119.4582094169044
149
-58.17053554795709
1001
ACAD_PSEXT
1000
LaserJet5Shaded-8x11.pc3
1000
HP LaserJet 5Si
1000
CAD Area
1000

1070
     0
  0
PLOTSETTINGS
  5
20C8
102
{ACAD_REACTORS
330
18
102
}
330
18
100
AcDbPlotSettings
  1
Oki9500 11x17 BW Fit
  2
OKI DOKI Color Laser.pc3
  4
Tabloid
  6

 40
5.027083396911621
 41
5.027085304260253
 42
5.027099609375
 43
5.027069091796875
 44
431.7999877929687
 45
279.3999938964844
 46
80.82067083627547
 47
0.0
 48
0.0
 49
0.0
140
0.0
141
0.0
142
1.0
143
0.4045605831172927
 70
  2740
 72
     0
 73
     0
 74
     1
  7
OKIB&WShaded.ctb
 75
     0
147
2.471817675104729
 76
     0
 77
     2
 78
   300
148
-75.74468520391772
149
-27.53050504688192
1001
ACAD_PSEXT
1000
OKI DOKI Color Laser.pc3
1000
OKI C9500(PCL)
1000
FRONT
1000

1070
     0
  0
PLOTSETTINGS
  5
20C9
102
{ACAD_REACTORS
330
18
102
}
330
18
100
AcDbPlotSettings
  1
Oki9500 11x17 BW Full
  2
OKI DOKI Color Laser.pc3
  4
Tabloid
  6

 40
5.027083396911621
 41
5.027085304260253
 42
5.027099609375
 43
5.027069091796875
 44
431.7999877929687
 45
279.3999938964844
 46
158.2588957589094
 47
80.18956480595884
 48
0.0
 49
0.0
140
0.0
141
0.0
142
1.0
143
1.0
 70
  2724
 72
     0
 73
     0
 74
     1
  7
OKIB&WShaded.ctb
 75
     0
147
2.471817675104729
 76
     0
 77
     2
 78
   300
148
-75.74468520391772
149
-27.53050504688192
1001
ACAD_PSEXT
1000
OKI DOKI Color Laser.pc3
1000
OKI C9500(PCL)
1000
FRONT
1000

1070
     0
  0
PLOTSETTINGS
  5
20CA
102
{ACAD_REACTORS
330
18
102
}
330
18
100
AcDbPlotSettings
  1
Oki9500 11x17 BW Half
  2
OKI DOKI Color Laser.pc3
  4
Tabloid
  6

 40
5.027083396911621
 41
5.027085304260253
 42
5.027099609375
 43
5.027069091796875
 44
431.7999877929687
 45
279.3999938964844
 46
184.5658990761252
 47
107.4312422780862
 48
0.0
 49
0.0
140
0.0
141
0.0
142
1.0
143
2.0
 70
  2740
 72
     0
 73
     0
 74
     1
  7
OKIB&WShaded.ctb
 75
    17
147
0.5
 76
     0
 77
     2
 78
   300
148
-75.74468520391772
149
-27.53050504688192
1001
ACAD_PSEXT
1000
OKI DOKI Color Laser.pc3
1000
OKI C9500(PCL)
1000
FRONT
1000

1070
     0
  0
PLOTSETTINGS
  5
20CB
102
{ACAD_REACTORS
330
18
102
}
330
18
100
AcDbPlotSettings
  1
Oki9500 11x17 Color Fit
  2
OKI DOKI Color Laser.pc3
  4
Tabloid
  6

 40
5.027083396911621
 41
5.027085304260253
 42
5.027099609375
 43
5.027069091796875
 44
431.7999877929687
 45
279.3999938964844
 46
80.82067083627547
 47
0.0
 48
0.0
 49
0.0
140
0.0
141
0.0
142
1.0
143
0.4045605831172927
 70
  2740
 72
     0
 73
     0
 74
     1
  7
OKIColorShaded.ctb
 75
     0
147
2.471817675104729
 76
     0
 77
     2
 78
   300
148
-75.74468520391772
149
-27.53050504688192
1001
ACAD_PSEXT
1000
OKI DOKI Color Laser.pc3
1000
OKI C9500(PCL)
1000
FRONT
1000

1070
     0
  0
PLOTSETTINGS
  5
20CC
102
{ACAD_REACTORS
330
18
102
}
330
18
100
AcDbPlotSettings
  1
Oki9500 11x17 Color Full
  2
OKI DOKI Color Laser.pc3
  4
Tabloid
  6

 40
5.027082920074462
 41
5.027085781097412
 42
5.027099609375
 43
5.027069091796875
 44
431.7999877929687
 45
279.3999938964844
 46
158.258895997328
 47
80.18956456754025
 48
0.0
 49
0.0
140
0.0
141
0.0
142
1.0
143
1.0
 70
  2724
 72
     0
 73
     0
 74
     1
  7
OKIColorShaded.ctb
 75
     0
147
2.471817675104729
 76
     0
 77
     2
 78
   300
148
-75.74468520391772
149
-27.53050504688192
1001
ACAD_PSEXT
1000
OKI DOKI Color Laser.pc3
1000
OKI C9600(PCL)
1000
FRONT
1000

1070
     0
  0
PLOTSETTINGS
  5
20CD
102
{ACAD_REACTORS
330
18
102
}
330
18
100
AcDbPlotSettings
  1
Oki9500 11x17 Color Half
  2
OKI DOKI Color Laser.pc3
  4
Tabloid
  6

 40
5.027083396911621
 41
5.027085304260253
 42
5.027099609375
 43
5.027069091796875
 44
431.7999877929687
 45
279.3999938964844
 46
184.5658990761252
 47
107.4312422780862
 48
0.0
 49
0.0
140
0.0
141
0.0
142
1.0
143
2.0
 70
  2740
 72
     0
 73
     0
 74
     1
  7
OKIColorShaded.ctb
 75
    17
147
0.5
 76
     0
 77
     2
 78
   300
148
-75.74468520391772
149
-27.53050504688192
1001
ACAD_PSEXT
1000
OKI DOKI Color Laser.pc3
1000
OKI C9500(PCL)
1000
FRONT
1000

1070
     0
  0
PLOTSETTINGS
  5
20CE
102
{ACAD_REACTORS
330
18
102
}
330
18
100
AcDbPlotSettings
  1
Oki9500 8x11 BW Fit
  2
OKI DOKI Color Laser8x11.pc3
  4
Letter
  6

 40
5.027083396911621
 41
5.027085304260253
 42
5.027099609375
 43
5.027084350585937
 44
279.3999938964844
 45
215.8999938964844
 46
35.28132453565591
 47
0.0
 48
0.0
 49
0.0
140
0.0
141
0.0
142
1.0
143
0.5293607985003172
 70
  2740
 72
     0
 73
     0
 74
     1
  7
OKIB&WShaded.ctb
 75
     0
147
1.889070748784206
 76
     0
 77
     2
 78
   300
148
-75.74468520391772
149
-27.53050504688192
1001
ACAD_PSEXT
1000
OKI DOKI Color Laser8x11.pc3
1000
OKI C9500(PCL)
1000
FRONT
1000

1070
     0
  0
PLOTSETTINGS
  5
20CF
102
{ACAD_REACTORS
330
18
102
}
330
18
100
AcDbPlotSettings
  1
Oki9500 8x11 BW Portrait Fit
  2
OKI DOKI Color Laser8x11.pc3
  4
Letter
  6

 40
5.027083396911621
 41
5.027085304260253
 42
5.027099609375
 43
5.027084350585937
 44
279.3999938964844
 45
215.8999938964844
 46
28.0931957503573
 47
0.0000000000000029
 48
0.0
 49
0.0
140
0.0
141
0.0
142
1.0
143
0.5111981924167587
 70
  2740
 72
     0
 73
     1
 74
     1
  7
OKIB&WShaded.ctb
 75
     0
147
1.956188450652308
 76
     0
 77
     2
 78
   300
148
-75.74468520391772
149
-27.53050504688192
1001
ACAD_PSEXT
1000
OKI DOKI Color Laser8x11.pc3
1000
OKI C9500(PCL)
1000
FRONT
1000

1070
     0
  0
PLOTSETTINGS
  5
20D0
102
{ACAD_REACTORS
330
18
102
}
330
18
100
AcDbPlotSettings
  1
Oki9500 8x11 Color Fit
  2
OKI DOKI Color Laser8x11.pc3
  4
Letter
  6

 40
5.027083396911621
 41
5.027085304260253
 42
5.027099609375
 43
5.027084350585937
 44
279.3999938964844
 45
215.8999938964844
 46
35.28132453565591
 47
0.0
 48
0.0
 49
0.0
140
0.0
141
0.0
142
1.0
143
0.5293607985003172
 70
  2740
 72
     0
 73
     0
 74
     1
  7
OKIColorShaded.ctb
 75
     0
147
1.889070748784206
 76
     0
 77
     2
 78
   300
148
-75.74468520391772
149
-27.53050504688192
1001
ACAD_PSEXT
1000
OKI DOKI Color Laser8x11.pc3
1000
OKI C9500(PCL)
1000
FRONT
1000

1070
     0
  0
PLOTSETTINGS
  5
20D1
102
{ACAD_REACTORS
330
18
102
}
330
18
100
AcDbPlotSettings
  1
Oki9500 8x11 Color Portrait Fit
  2
OKI DOKI Color Laser8x11.pc3
  4
Letter
  6

 40
5.027083396911621
 41
5.027085304260253
 42
5.027099609375
 43
5.027084350585937
 44
279.3999938964844
 45
215.8999938964844
 46
28.0931957503573
 47
0.0000000000000029
 48
0.0
 49
0.0
140
0.0
141
0.0
142
1.0
143
0.5111981924167587
 70
  2740
 72
     0
 73
     1
 74
     1
  7
OKIColorShaded.ctb
 75
     0
147
1.956188450652308
 76
     0
 77
     2
 78
   300
148
-75.74468520391772
149
-27.53050504688192
1001
ACAD_PSEXT
1000
OKI DOKI Color Laser8x11.pc3
1000
OKI C9500(PCL)
1000
FRONT
1000

1070
     0
  0
PLOTSETTINGS
  5
20D2
102
{ACAD_REACTORS
330
18
102
}
330
18
100
AcDbPlotSettings
  1
OKI9500 B&W 11x17
  2
OKI DOKI Color Laser.pc3
  4
11x17
  6

 40
5.873749732971191
 41
5.873734951019287
 42
5.873748779296875
 43
5.027069091796875
 44
431.7999877929687
 45
279.3999938964844
 46
72.38759962724653
 47
0.0000000000000057
 48
0.0
 49
0.0
140
0.0
141
0.0
142
1.0
143
0.3507677900220671
 70
 11956
 72
     0
 73
     0
 74
     1
  7
OKIB&WShaded.ctb
 75
     0
147
2.850888902704233
 76
     0
 77
     2
 78
   300
148
-119.4582094169044
149
-58.17053554795709
1001
ACAD_PSEXT
1000
OKI DOKI Color Laser.pc3
1000
HP LaserJet 5Si
1000
CAD Area
1000

1070
     0
  0
PLOTSETTINGS
  5
20D3
102
{ACAD_REACTORS
330
18
102
}
330
18
100
AcDbPlotSettings
  1
OKI9500 B&W 8.5x11
  2
OKI DOKI Color Laser8x11.pc3
  4
Letter
  6

 40
5.873749732971191
 41
5.873734951019287
 42
6.55108642578125
 43
5.027084350585937
 44
279.3999938964844
 45
215.8999938964844
 46
28.40045128601757
 47
0.0000000000000046
 48
0.0
 49
0.0
140
0.0
141
0.0
142
1.0
143
0.4594207153946231
 70
 11956
 72
     0
 73
     0
 74
     1
  7
OKIB&WShaded.ctb
 75
     0
147
2.176654135286525
 76
     0
 77
     2
 78
   300
148
-119.4582094169044
149
-58.17053554795709
1001
ACAD_PSEXT
1000
OKI DOKI Color Laser8x11.pc3
1000
HP LaserJet 5Si
1000
CAD Area
1000

1070
     0
  0
PLOTSETTINGS
  5
20D4
102
{ACAD_REACTORS
330
18
102
}
330
18
100
AcDbPlotSettings
  1
OKI9500 Color 11x17
  2
OKI DOKI Color Laser.pc3
  4
Tabloid
  6

 40
5.027083396911621
 41
5.027085304260253
 42
5.027099609375
 43
5.027069091796875
 44
431.7999877929687
 45
279.3999938964844
 46
72.80024597690952
 47
0.0
 48
0.0
 49
0.0
140
0.0
141
0.0
142
1.0
143
0.349665202263268
 70
 11956
 72
     0
 73
     0
 74
     1
  7
OKIColorShaded.ctb
 75
     0
147
2.859878516727796
 76
     0
 77
     2
 78
   300
148
-119.4582094169044
149
-58.17053554795709
1001
ACAD_PSEXT
1000
OKI DOKI Color Laser.pc3
1000
OKI C9500(PCL)
1000
FRONT
1000

1070
     0
  0
PLOTSETTINGS
  5
20D5
102
{ACAD_REACTORS
330
18
102
}
330
18
100
AcDbPlotSettings
  1
OKI9500 Color 8.5x11
  2
OKI DOKI Color Laser8x11.pc3
  4
Letter
  6

 40
5.873749732971191
 41
5.873734951019287
 42
6.55108642578125
 43
5.027084350585937
 44
279.3999938964844
 45
215.8999938964844
 46
28.40045128601757
 47
0.0000000000000046
 48
0.0
 49
0.0
140
0.0
141
0.0
142
1.0
143
0.4594207153946231
 70
 11956
 72
     0
 73
     0
 74
     1
  7
OKIColorShaded.ctb
 75
     0
147
2.176654135286525
 76
     0
 77
     2
 78
   300
148
-119.4582094169044
149
-58.17053554795709
1001
ACAD_PSEXT
1000
OKI DOKI Color Laser8x11.pc3
1000
HP LaserJet 5Si
1000
CAD Area
1000

1070
     0
  0
PLOTSETTINGS
  5
20D6
102
{ACAD_REACTORS
330
18
102
}
330
18
100
AcDbPlotSettings
  1
Oki9600 11x17 BW Fit
  2
9600 BW 11x17.pc3
  4
Tabloid
  6

 40
5.027082920074462
 41
5.027085781097412
 42
5.027099609375
 43
5.027069091796875
 44
431.7999877929687
 45
279.3999938964844
 46
80.82067130493244
 47
0.000000000000007
 48
0.0
 49
0.0
140
0.0
141
0.0
142
1.0
143
0.4045605838335077
 70
  2804
 72
     0
 73
     0
 74
     1
  7
OKIB&WShaded.ctb
 75
     0
147
2.47181767072874
 76
     0
 77
     2
 78
   300
148
-75.74468520391772
149
-27.53050504688192
1001
ACAD_PSEXT
1000
9600 BW 11x17.pc3
1000
OKI C9600(PCL)
1000
Expansion Area
1000

1070
     0
  0
PLOTSETTINGS
  5
20D7
102
{ACAD_REACTORS
330
18
102
}
330
18
100
AcDbPlotSettings
  1
Oki9600 11x17 BW Full
  2
9600 BW 11x17.pc3
  4
Tabloid
  6

 40
5.027082920074462
 41
5.027085781097412
 42
5.027099609375
 43
5.027069091796875
 44
431.7999877929687
 45
279.3999938964844
 46
158.258895997328
 47
80.18956456754025
 48
0.0
 49
0.0
140
0.0
141
0.0
142
1.0
143
1.0
 70
  2788
 72
     0
 73
     0
 74
     1
  7
OKIB&WShaded.ctb
 75
     0
147
2.47181767072874
 76
     0
 77
     2
 78
   300
148
-75.74468520391772
149
-27.53050504688192
1001
ACAD_PSEXT
1000
9600 BW 11x17.pc3
1000
OKI C9600(PCL)
1000
Expansion Area
1000

1070
     0
  0
PLOTSETTINGS
  5
20D8
102
{ACAD_REACTORS
330
18
102
}
330
18
100
AcDbPlotSettings
  1
Oki9600 11x17 BW Half
  2
9600 BW 11x17.pc3
  4
Tabloid
  6

 40
5.027082920074462
 41
5.027085781097412
 42
5.027099609375
 43
5.027069091796875
 44
431.7999877929687
 45
279.3999938964844
 46
184.5658993145439
 47
107.4312420396676
 48
0.0
 49
0.0
140
0.0
141
0.0
142
1.0
143
2.0
 70
  2788
 72
     0
 73
     0
 74
     1
  7
OKIB&WShaded.ctb
 75
     0
147
2.47181767072874
 76
     0
 77
     2
 78
   300
148
-75.74468520391772
149
-27.53050504688192
1001
ACAD_PSEXT
1000
9600 BW 11x17.pc3
1000
OKI C9600(PCL)
1000
Expansion Area
1000

1070
     0
  0
PLOTSETTINGS
  5
20D9
102
{ACAD_REACTORS
330
18
102
}
330
18
100
AcDbPlotSettings
  1
Oki9600 11x17 Color Fit
  2
9600 Color 11x17.pc3
  4
Tabloid
  6

 40
5.027082920074462
 41
5.027085781097412
 42
5.027099609375
 43
5.027069091796875
 44
431.7999877929687
 45
279.3999938964844
 46
80.82067130493244
 47
0.000000000000007
 48
0.0
 49
0.0
140
0.0
141
0.0
142
1.0
143
0.4045605838335077
 70
  2804
 72
     0
 73
     0
 74
     1
  7
OKIColorShaded.ctb
 75
     0
147
2.47181767072874
 76
     0
 77
     2
 78
   300
148
-75.74468520391772
149
-27.53050504688192
1001
ACAD_PSEXT
1000
9600 Color 11x17.pc3
1000
OKI C9600(PCL)
1000
Expansion Area
1000

1070
     0
  0
PLOTSETTINGS
  5
20DA
102
{ACAD_REACTORS
330
18
102
}
330
18
100
AcDbPlotSettings
  1
Oki9600 11x17 Color Full
  2
9600 Color 11x17.pc3
  4
Tabloid
  6

 40
5.027082920074462
 41
5.027085781097412
 42
5.027099609375
 43
5.027069091796875
 44
431.7999877929687
 45
279.3999938964844
 46
158.258895997328
 47
80.18956456754025
 48
0.0
 49
0.0
140
0.0
141
0.0
142
1.0
143
1.0
 70
  2788
 72
     0
 73
     0
 74
     1
  7
OKIColorShaded.ctb
 75
     0
147
2.47181767072874
 76
     0
 77
     2
 78
   300
148
-75.74468520391772
149
-27.53050504688192
1001
ACAD_PSEXT
1000
9600 Color 11x17.pc3
1000
OKI C9600(PCL)
1000
Expansion Area
1000

1070
     0
  0
PLOTSETTINGS
  5
20DB
102
{ACAD_REACTORS
330
18
102
}
330
18
100
AcDbPlotSettings
  1
Oki9600 11x17 Color Half
  2
9600 Color 11x17.pc3
  4
Tabloid
  6

 40
5.027082920074462
 41
5.027085781097412
 42
5.027099609375
 43
5.027069091796875
 44
431.7999877929687
 45
279.3999938964844
 46
184.5658993145439
 47
107.4312420396676
 48
0.0
 49
0.0
140
0.0
141
0.0
142
1.0
143
2.0
 70
  2788
 72
     0
 73
     0
 74
     1
  7
OKIColorShaded.ctb
 75
     0
147
2.47181767072874
 76
     0
 77
     2
 78
   300
148
-75.74468520391772
149
-27.53050504688192
1001
ACAD_PSEXT
1000
9600 Color 11x17.pc3
1000
OKI C9600(PCL)
1000
Expansion Area
1000

1070
     0
  0
PLOTSETTINGS
  5
20DC
102
{ACAD_REACTORS
330
18
102
}
330
18
100
AcDbPlotSettings
  1
Oki9600 8x11 BW Fit
  2
9600 BW 8.5x11.pc3
  4
Letter
  6

 40
5.027082920074462
 41
5.027070522308349
 42
5.027099609375
 43
5.027084350585937
 44
279.3999938964844
 45
215.8999938964844
 46
35.28131763668624
 47
0.0000000000000033
 48
0.0
 49
0.0
140
0.0
141
0.0
142
1.0
143
0.5293607604865011
 70
  2804
 72
     0
 73
     0
 74
     1
  7
OKIB&WShaded.ctb
 75
     0
147
1.889070884439876
 76
     0
 77
     2
 78
   300
148
-75.74468520391772
149
-27.53050504688192
1001
ACAD_PSEXT
1000
9600 BW 8.5x11.pc3
1000
OKI C9600(PCL)
1000
Expansion Area
1000

1070
     0
  0
PLOTSETTINGS
  5
20DD
102
{ACAD_REACTORS
330
18
102
}
330
18
100
AcDbPlotSettings
  1
Oki9600 8x11 BW Portrait Fit
  2
9600 BW 8.5x11.pc3
  4
Letter
  6

 40
5.027082920074462
 41
5.027070522308349
 42
5.027099609375
 43
5.027084350585937
 44
279.3999938964844
 45
215.8999938964844
 46
28.09318833520237
 47
-0.0000000000000029
 48
0.0
 49
0.0
140
0.0
141
0.0
142
1.0
143
0.5111981557072135
 70
  2804
 72
     0
 73
     1
 74
     1
  7
OKIB&WShaded.ctb
 75
     0
147
1.956188591127753
 76
     0
 77
     2
 78
   300
148
-75.74468520391772
149
-27.53050504688192
1001
ACAD_PSEXT
1000
9600 BW 8.5x11.pc3
1000
OKI C9600(PCL)
1000
Expansion Area
1000

1070
     0
  0
PLOTSETTINGS
  5
20DE
102
{ACAD_REACTORS
330
18
102
}
330
18
100
AcDbPlotSettings
  1
Oki9600 8x11 Color Fit
  2
9600 Color 8.5x11.pc3
  4
Letter
  6

 40
5.027082920074462
 41
5.027070522308349
 42
5.027099609375
 43
5.027084350585937
 44
279.3999938964844
 45
215.8999938964844
 46
35.28131763668624
 47
0.0000000000000033
 48
0.0
 49
0.0
140
0.0
141
0.0
142
1.0
143
0.5293607604865011
 70
  2804
 72
     0
 73
     0
 74
     1
  7
OKIColorShaded.ctb
 75
     0
147
1.889070884439876
 76
     0
 77
     2
 78
   300
148
-75.74468520391772
149
-27.53050504688192
1001
ACAD_PSEXT
1000
9600 Color 8.5x11.pc3
1000
OKI C9600(PCL)
1000
Expansion Area
1000

1070
     0
  0
PLOTSETTINGS
  5
20DF
102
{ACAD_REACTORS
330
18
102
}
330
18
100
AcDbPlotSettings
  1
Oki9600 8x11 Color Portrait Fit
  2
9600 Color 8.5x11.pc3
  4
Letter
  6

 40
5.027082920074462
 41
5.027070522308349
 42
5.027099609375
 43
5.027084350585937
 44
279.3999938964844
 45
215.8999938964844
 46
28.09318833520237
 47
-0.0000000000000029
 48
0.0
 49
0.0
140
0.0
141
0.0
142
1.0
143
0.5111981557072135
 70
  2804
 72
     0
 73
     1
 74
     1
  7
OKIColorShaded.ctb
 75
     0
147
1.956188591127753
 76
     0
 77
     2
 78
   300
148
-75.74468520391772
149
-27.53050504688192
1001
ACAD_PSEXT
1000
9600 Color 8.5x11.pc3
1000
OKI C9600(PCL)
1000
Expansion Area
1000

1070
     0
  0
PLOTSETTINGS
  5
20E0
102
{ACAD_REACTORS
330
18
102
}
330
18
100
AcDbPlotSettings
  1
OKI9600 B&W 11x17
  2
9600 BW 11x17.pc3
  4
Tabloid
  6

 40
5.027082920074462
 41
5.027085781097412
 42
5.027099609375
 43
5.027069091796875
 44
431.7999877929687
 45
279.3999938964844
 46
72.80024645976547
 47
-0.0000000000000027
 48
0.0
 49
0.0
140
0.0
141
0.0
142
1.0
143
0.3496652028822988
 70
 11956
 72
     0
 73
     0
 74
     1
  7
OKIB&WShaded.ctb
 75
     0
147
2.859878511664802
 76
     0
 77
     2
 78
   300
148
-119.4582094169044
149
-58.17053554795709
1001
ACAD_PSEXT
1000
9600 BW 11x17.pc3
1000
OKI C9600(PCL)
1000
Expansion Area
1000

1070
     0
  0
PLOTSETTINGS
  5
20E1
102
{ACAD_REACTORS
330
18
102
}
330
18
100
AcDbPlotSettings
  1
OKI9600 B&W 8.5x11
  2
9600 BW 8.5x11.pc3
  4
Letter
  6

 40
5.027082920074462
 41
5.027070522308349
 42
5.027099609375
 43
5.027084350585937
 44
279.3999938964844
 45
215.8999938964844
 46
29.15175911978468
 47
0.0000000000000065
 48
0.0
 49
0.0
140
0.0
141
0.0
142
1.0
143
0.4575310722549676
 70
 11956
 72
     0
 73
     0
 74
     1
  7
OKIB&WShaded.ctb
 75
     0
147
2.185643906262899
 76
     0
 77
     2
 78
   300
148
-119.4582094169044
149
-58.17053554795709
1001
ACAD_PSEXT
1000
9600 BW 8.5x11.pc3
1000
OKI C9600(PCL)
1000
Expansion Area
1000

1070
     0
  0
PLOTSETTINGS
  5
20E2
102
{ACAD_REACTORS
330
18
102
}
330
18
100
AcDbPlotSettings
  1
OKI9600 Color 11x17
  2
9600 Color 11x17.pc3
  4
Tabloid
  6

 40
5.027082920074462
 41
5.027085781097412
 42
5.027099609375
 43
5.027069091796875
 44
431.7999877929687
 45
279.3999938964844
 46
72.80024645976547
 47
-0.0000000000000027
 48
0.0
 49
0.0
140
0.0
141
0.0
142
1.0
143
0.3496652028822988
 70
 11956
 72
     0
 73
     0
 74
     1
  7
OKIColorShaded.ctb
 75
     0
147
2.859878511664802
 76
     0
 77
     2
 78
   300
148
-119.4582094169044
149
-58.17053554795709
1001
ACAD_PSEXT
1000
9600 Color 11x17.pc3
1000
OKI C9600(PCL)
1000
Expansion Area
1000

1070
     0
  0
PLOTSETTINGS
  5
20E3
102
{ACAD_REACTORS
330
18
102
}
330
18
100
AcDbPlotSettings
  1
OKI9600 Color 8.5x11
  2
9600 Color 8.5x11.pc3
  4
Letter
  6

 40
5.027082920074462
 41
5.027070522308349
 42
5.027099609375
 43
5.027084350585937
 44
279.3999938964844
 45
215.8999938964844
 46
29.15175911978468
 47
0.0000000000000065
 48
0.0
 49
0.0
140
0.0
141
0.0
142
1.0
143
0.4575310722549676
 70
 11956
 72
     0
 73
     0
 74
     1
  7
OKIColorShaded.ctb
 75
     0
147
2.185643906262899
 76
     0
 77
     2
 78
   300
148
-119.4582094169044
149
-58.17053554795709
1001
ACAD_PSEXT
1000
9600 Color 8.5x11.pc3
1000
OKI C9600(PCL)
1000
Expansion Area
1000

1070
     0
  0
PLOTSETTINGS
  5
20E4
102
{ACAD_REACTORS
330
18
102
}
330
18
100
AcDbPlotSettings
  1
PHX Kyocera 11x17 Fit
  2
PHX_Kyocera.pc3
  4
Tabloid
  6

 40
4.984749794006347
 41
5.069418907165527
 42
5.069427490234375
 43
4.9847412109375
 44
431.7999877929687
 45
279.3999938964844
 46
80.8206764601584
 47
-0.0000000000000226
 48
0.0
 49
0.0
140
0.0
141
0.0
142
1.0
143
0.4045605917118723
 70
  2740
 72
     0
 73
     0
 74
     1
  7
LaserJet5Shaded.ctb
 75
     0
147
2.471817622592858
 76
     0
 77
     2
 78
   300
148
-75.74468520391772
149
-27.53050504688192
1001
ACAD_PSEXT
1000
PHX_Kyocera.pc3
1000
Kyocera Mita KM-2050 KX
1000
Arizona
1000

1070
     0
  0
PLOTSETTINGS
  5
20E5
102
{ACAD_REACTORS
330
18
102
}
330
18
100
AcDbPlotSettings
  1
PHX Oki9500 11x17 BW Fit
  2
PHX OKI BW.pc3
  4
Tabloid
  6

 40
5.027082920074462
 41
5.027085781097412
 42
5.027099609375
 43
5.027069091796875
 44
431.7999877929687
 45
279.3999938964844
 46
80.82067130493246
 47
0.0
 48
0.0
 49
0.0
140
0.0
141
0.0
142
1.0
143
0.4045605838335077
 70
  2740
 72
     0
 73
     0
 74
     1
  7
OKIB&WShaded.ctb
 75
     0
147
2.47181767072874
 76
     0
 77
     2
 78
   300
148
-75.74468520391772
149
-27.53050504688192
1001
ACAD_PSEXT
1000
PHX OKI BW.pc3
1000
OKI C9500(PCL)
1000
Arizona
1000

1070
     0
  0
PLOTSETTINGS
  5
20E6
102
{ACAD_REACTORS
330
18
102
}
330
18
100
AcDbPlotSettings
  1
PHX Oki9500 11x17 BW Half
  2
PHX OKI BW.pc3
  4
Tabloid
  6

 40
5.027082920074462
 41
5.027085781097412
 42
5.027099609375
 43
5.027069091796875
 44
431.7999877929687
 45
279.3999938964844
 46
184.5658993145439
 47
107.4312420396676
 48
0.0
 49
0.0
140
0.0
141
0.0
142
1.0
143
2.0
 70
  2724
 72
     0
 73
     0
 74
     1
  7
OKIB&WShaded.ctb
 75
     0
147
2.47181767072874
 76
     0
 77
     2
 78
   300
148
-75.74468520391772
149
-27.53050504688192
1001
ACAD_PSEXT
1000
PHX OKI BW.pc3
1000
OKI C9500(PCL)
1000
Arizona
1000

1070
     0
  0
ACDBPLACEHOLDER
  5
F
102
{ACAD_REACTORS
330
E
102
}
330
E
  0
SCALE
  5
2065
102
{ACAD_REACTORS
330
2064
102
}
330
2064
100
AcDbScale
 70
     0
300
1:1
140
1.0
141
1.0
290
     1
  0
SCALE
  5
2066
102
{ACAD_REACTORS
330
2064
102
}
330
2064
100
AcDbScale
 70
     0
300
1:2
140
1.0
141
2.0
290
     0
  0
SCALE
  5
2067
102
{ACAD_REACTORS
330
2064
102
}
330
2064
100
AcDbScale
 70
     0
300
1:4
140
1.0
141
4.0
290
     0
  0
SCALE
  5
2068
102
{ACAD_REACTORS
330
2064
102
}
330
2064
100
AcDbScale
 70
     0
300
1:5
140
1.0
141
5.0
290
     0
  0
SCALE
  5
2069
102
{ACAD_REACTORS
330
2064
102
}
330
2064
100
AcDbScale
 70
     0
300
1:8
140
1.0
141
8.0
290
     0
  0
SCALE
  5
206A
102
{ACAD_REACTORS
330
2064
102
}
330
2064
100
AcDbScale
 70
     0
300
1:10
140
1.0
141
10.0
290
     0
  0
SCALE
  5
206B
102
{ACAD_REACTORS
330
2064
102
}
330
2064
100
AcDbScale
 70
     0
300
1:16
140
1.0
141
16.0
290
     0
  0
SCALE
  5
206C
102
{ACAD_REACTORS
330
2064
102
}
330
2064
100
AcDbScale
 70
     0
300
1:20
140
1.0
141
20.0
290
     0
  0
SCALE
  5
206D
102
{ACAD_REACTORS
330
2064
102
}
330
2064
100
AcDbScale
 70
     0
300
1:30
140
1.0
141
30.0
290
     0
  0
SCALE
  5
206E
102
{ACAD_REACTORS
330
2064
102
}
330
2064
100
AcDbScale
 70
     0
300
1:40
140
1.0
141
40.0
290
     0
  0
SCALE
  5
206F
102
{ACAD_REACTORS
330
2064
102
}
330
2064
100
AcDbScale
 70
     0
300
1:50
140
1.0
141
50.0
290
     0
  0
SCALE
  5
2070
102
{ACAD_REACTORS
330
2064
102
}
330
2064
100
AcDbScale
 70
     0
300
1:100
140
1.0
141
100.0
290
     0
  0
SCALE
  5
2071
102
{ACAD_REACTORS
330
2064
102
}
330
2064
100
AcDbScale
 70
     0
300
2:1
140
2.0
141
1.0
290
     0
  0
SCALE
  5
2072
102
{ACAD_REACTORS
330
2064
102
}
330
2064
100
AcDbScale
 70
     0
300
4:1
140
4.0
141
1.0
290
     0
  0
SCALE
  5
2073
102
{ACAD_REACTORS
330
2064
102
}
330
2064
100
AcDbScale
 70
     0
300
8:1
140
8.0
141
1.0
290
     0
  0
SCALE
  5
2074
102
{ACAD_REACTORS
330
2064
102
}
330
2064
100
AcDbScale
 70
     0
300
10:1
140
10.0
141
1.0
290
     0
  0
SCALE
  5
2075
102
{ACAD_REACTORS
330
2064
102
}
330
2064
100
AcDbScale
 70
     0
300
100:1
140
100.0
141
1.0
290
     0
  0
SCALE
  5
2076
102
{ACAD_REACTORS
330
2064
102
}
330
2064
100
AcDbScale
 70
     0
300
1/128" = 1'-0"
140
0.0078125
141
12.0
290
     0
  0
SCALE
  5
2077
102
{ACAD_REACTORS
330
2064
102
}
330
2064
100
AcDbScale
 70
     0
300
1/64" = 1'-0"
140
0.015625
141
12.0
290
     0
  0
SCALE
  5
2078
102
{ACAD_REACTORS
330
2064
102
}
330
2064
100
AcDbScale
 70
     0
300
1/32" = 1'-0"
140
0.03125
141
12.0
290
     0
  0
SCALE
  5
2079
102
{ACAD_REACTORS
330
2064
102
}
330
2064
100
AcDbScale
 70
     0
300
1/16" = 1'-0"
140
0.0625
141
12.0
290
     0
  0
SCALE
  5
207A
102
{ACAD_REACTORS
330
2064
102
}
330
2064
100
AcDbScale
 70
     0
300
3/32" = 1'-0"
140
0.09375
141
12.0
290
     0
  0
SCALE
  5
207B
102
{ACAD_REACTORS
330
2064
102
}
330
2064
100
AcDbScale
 70
     0
300
1/8" = 1'-0"
140
0.125
141
12.0
290
     0
  0
SCALE
  5
207C
102
{ACAD_REACTORS
330
2064
102
}
330
2064
100
AcDbScale
 70
     0
300
3/16" = 1'-0"
140
0.1875
141
12.0
290
     0
  0
SCALE
  5
207D
102
{ACAD_REACTORS
330
2064
102
}
330
2064
100
AcDbScale
 70
     0
300
1/4" = 1'-0"
140
0.25
141
12.0
290
     0
  0
SCALE
  5
207E
102
{ACAD_REACTORS
330
2064
102
}
330
2064
100
AcDbScale
 70
     0
300
3/8" = 1'-0"
140
0.375
141
12.0
290
     0
  0
SCALE
  5
207F
102
{ACAD_REACTORS
330
2064
102
}
330
2064
100
AcDbScale
 70
     0
300
1/2" = 1'-0"
140
0.5
141
12.0
290
     0
  0
SCALE
  5
2080
102
{ACAD_REACTORS
330
2064
102
}
330
2064
100
AcDbScale
 70
     0
300
3/4" = 1'-0"
140
0.75
141
12.0
290
     0
  0
SCALE
  5
2081
102
{ACAD_REACTORS
330
2064
102
}
330
2064
100
AcDbScale
 70
     0
300
1" = 1'-0"
140
1.0
141
12.0
290
     0
  0
SCALE
  5
2082
102
{ACAD_REACTORS
330
2064
102
}
330
2064
100
AcDbScale
 70
     0
300
1-1/2" = 1'-0"
140
1.5
141
12.0
290
     0
  0
SCALE
  5
2083
102
{ACAD_REACTORS
330
2064
102
}
330
2064
100
AcDbScale
 70
     0
300
3" = 1'-0"
140
3.0
141
12.0
290
     0
  0
SCALE
  5
2084
102
{ACAD_REACTORS
330
2064
102
}
330
2064
100
AcDbScale
 70
     0
300
6" = 1'-0"
140
6.0
141
12.0
290
     0
  0
SCALE
  5
2085
102
{ACAD_REACTORS
330
2064
102
}
330
2064
100
AcDbScale
 70
     0
300
1'-0" = 1'-0"
140
12.0
141
12.0
290
     0
  0
TABLESTYLE
  5
2063
102
{ACAD_XDICTIONARY
360
2107
102
}
102
{ACAD_REACTORS
330
2062
102
}
330
2062
100
AcDbTableStyle
  3
Standard
 70
     0
 71
     0
 40
0.06
 41
0.06
280
     0
281
     0
  7
STANDARD
140
0.18
170
     2
 62
     0
 63
     7
283
     0
274
    -2
284
     1
 64
     0
275
    -2
285
     1
 65
     0
276
    -2
286
     1
 66
     0
277
    -2
287
     1
 67
     0
278
    -2
288
     1
 68
     0
279
    -2
289
     1
 69
     0
  7
STANDARD
140
0.25
170
     5
 62
     0
 63
     7
283
     0
274
    -2
284
     1
 64
     0
275
    -2
285
     1
 65
     0
276
    -2
286
     1
 66
     0
277
    -2
287
     1
 67
     0
278
    -2
288
     1
 68
     0
279
    -2
289
     1
 69
     0
  7
STANDARD
140
0.18
170
     5
 62
     0
 63
     7
283
     0
274
    -2
284
     1
 64
     0
275
    -2
285
     1
 65
     0
276
    -2
286
     1
 66
     0
277
    -2
287
     1
 67
     0
278
    -2
288
     1
 68
     0
279
    -2
289
     1
 69
     0
  0
VISUALSTYLE
  5
2056
102
{ACAD_REACTORS
330
2050
102
}
330
2050
100
AcDbVisualStyle
  2
2dWireframe
 70
     4
 71
     0
 72
     2
 73
     0
 90
        0
 40
-0.6
 41
-30.0
 62
     5
 63
     7
421
 16777215
 74
     1
 91
        4
 64
     7
 65
   257
 75
     1
175
     1
 42
1.0
 92
        0
 66
   257
 43
1.0
 76
     1
 77
     6
 78
     2
 67
     7
 79
     5
170
     0
171
     0
290
     0
174
     0
 93
        1
 44
0.0
173
     0
291
     0
 45
0.0
1001
ACAD
1000
AcDbSavedByObjectVersion
1070
     0
  0
VISUALSTYLE
  5
2058
102
{ACAD_REACTORS
330
2050
102
}
330
2050
100
AcDbVisualStyle
  2
3D Hidden
 70
     6
 71
     1
 72
     2
 73
     2
 90
        0
 40
-0.6
 41
-30.0
 62
     5
 63
     7
421
 16777215
 74
     2
 91
        2
 64
     7
 65
   257
 75
     2
175
     1
 42
40.0
 92
        0
 66
   257
 43
1.0
 76
     1
 77
     6
 78
     2
 67
     7
 79
     3
170
     0
171
     0
290
     0
174
     0
 93
        1
 44
0.0
173
     0
291
     0
 45
0.0
1001
ACAD
1000
AcDbSavedByObjectVersion
1070
     0
  0
VISUALSTYLE
  5
2057
102
{ACAD_REACTORS
330
2050
102
}
330
2050
100
AcDbVisualStyle
  2
3dWireframe
 70
     5
 71
     0
 72
     2
 73
     0
 90
        0
 40
-0.6
 41
-30.0
 62
     5
 63
     7
421
 16777215
 74
     1
 91
        4
 64
     7
 65
   257
 75
     1
175
     1
 42
1.0
 92
        0
 66
   257
 43
1.0
 76
     1
 77
     6
 78
     2
 67
     7
 79
     5
170
     0
171
     0
290
     0
174
     0
 93
        1
 44
0.0
173
     0
291
     0
 45
0.0
1001
ACAD
1000
AcDbSavedByObjectVersion
1070
     0
  0
VISUALSTYLE
  5
2055
102
{ACAD_REACTORS
330
2050
102
}
330
2050
100
AcDbVisualStyle
  2
Basic
 70
     7
 71
     1
 72
     0
 73
     1
 90
        0
 40
-0.6
 41
-30.0
 62
     5
 63
     7
421
 16777215
 74
     0
 91
        4
 64
     7
 65
   257
 75
     1
175
     1
 42
1.0
 92
        8
 66
     7
 43
1.0
 76
     1
 77
     6
 78
     2
 67
     7
 79
     5
170
     0
171
     0
290
     0
174
     0
 93
        1
 44
0.0
173
     0
291
     1
 45
0.0
1001
ACAD
1000
AcDbSavedByObjectVersion
1070
     0
  0
VISUALSTYLE
  5
205C
102
{ACAD_REACTORS
330
2050
102
}
330
2050
100
AcDbVisualStyle
  2
Brighten
 70
    12
 71
     2
 72
     2
 73
     0
 90
        0
 40
-0.6
 41
-30.0
 62
     5
 63
     7
421
 16777215
 74
     1
 91
        4
 64
     7
 65
   257
 75
     1
175
     1
 42
1.0
 92
        8
 66
     7
 43
1.0
 76
     1
 77
     6
 78
     2
 67
     7
 79
     5
170
     0
171
     0
290
     0
174
     0
 93
        1
 44
50.0
173
     0
291
     1
 45
0.0
1001
ACAD
1000
AcDbSavedByObjectVersion
1070
     0
  0
VISUALSTYLE
  5
2060
102
{ACAD_REACTORS
330
2050
102
}
330
2050
100
AcDbVisualStyle
  2
ColorChange
 70
    16
 71
     2
 72
     2
 73
     3
 90
        0
 40
-0.6
 41
-30.0
 62
     5
 63
     8
421
  8421504
 74
     1
 91
        4
 64
     7
 65
   257
 75
     1
175
     1
 42
1.0
 92
        8
 66
     8
424
  8421504
 43
1.0
 76
     1
 77
     6
 78
     2
 67
     7
 79
     5
170
     0
171
     0
290
     0
174
     0
 93
        1
 44
0.0
173
     0
291
     1
 45
0.0
1001
ACAD
1000
AcDbSavedByObjectVersion
1070
     0
  0
VISUALSTYLE
  5
2059
102
{ACAD_REACTORS
330
2050
102
}
330
2050
100
AcDbVisualStyle
  2
Conceptual
 70
     9
 71
     3
 72
     2
 73
     0
 90
        0
 40
-0.6
 41
-30.0
 62
     5
 63
     7
421
 16777215
 74
     2
 91
        2
 64
     7
 65
   257
 75
     1
175
     1
 42
40.0
 92
        8
 66
     7
 43
1.0
 76
     1
 77
     6
 78
     2
 67
     7
 79
     3
170
     0
171
     0
290
     0
174
     0
 93
        1
 44
0.0
173
     0
291
     0
 45
0.0
1001
ACAD
1000
AcDbSavedByObjectVersion
1070
     0
  0
VISUALSTYLE
  5
205B
102
{ACAD_REACTORS
330
2050
102
}
330
2050
100
AcDbVisualStyle
  2
Dim
 70
    11
 71
     2
 72
     2
 73
     0
 90
        0
 40
-0.6
 41
-30.0
 62
     5
 63
     7
421
 16777215
 74
     1
 91
        4
 64
     7
 65
   257
 75
     1
175
     1
 42
1.0
 92
        8
 66
     7
 43
1.0
 76
     1
 77
     6
 78
     2
 67
     7
 79
     5
170
     0
171
     0
290
     0
174
     0
 93
        1
 44
-50.0
173
     0
291
     1
 45
0.0
1001
ACAD
1000
AcDbSavedByObjectVersion
1070
     0
  0
VISUALSTYLE
  5
205F
102
{ACAD_REACTORS
330
2050
102
}
330
2050
100
AcDbVisualStyle
  2
Facepattern
 70
    15
 71
     2
 72
     2
 73
     0
 90
        0
 40
-0.6
 41
-30.0
 62
     5
 63
     7
421
 16777215
 74
     1
 91
        4
 64
     7
 65
   257
 75
     1
175
     1
 42
1.0
 92
        8
 66
     7
 43
1.0
 76
     1
 77
     6
 78
     2
 67
     7
 79
     5
170
     0
171
     0
290
     0
174
     0
 93
        1
 44
0.0
173
     0
291
     1
 45
0.0
1001
ACAD
1000
AcDbSavedByObjectVersion
1070
     0
  0
VISUALSTYLE
  5
2051
102
{ACAD_REACTORS
330
2050
102
}
330
2050
100
AcDbVisualStyle
  2
Flat
 70
     0
 71
     2
 72
     1
 73
     1
 90
        2
 40
-0.6
 41
30.0
 62
     5
 63
     7
421
 16777215
 74
     0
 91
        4
 64
     7
 65
   257
 75
     1
175
     1
 42
1.0
 92
        8
 66
     7
 43
1.0
 76
     1
 77
     6
 78
     2
 67
     7
 79
     5
170
     0
171
     0
290
     0
174
     0
 93
       13
 44
0.0
173
     0
291
     1
 45
0.0
1001
ACAD
1000
AcDbSavedByObjectVersion
1070
     0
  0
VISUALSTYLE
  5
2052
102
{ACAD_REACTORS
330
2050
102
}
330
2050
100
AcDbVisualStyle
  2
FlatWithEdges
 70
     1
 71
     2
 72
     1
 73
     1
 90
        2
 40
-0.6
 41
30.0
 62
     5
 63
     7
421
 16777215
 74
     1
 91
        4
 64
     7
 65
   257
 75
     1
175
     1
 42
1.0
 92
        0
 66
   257
 43
1.0
 76
     1
 77
     6
 78
     2
 67
     7
 79
     5
170
     0
171
     0
290
     0
174
     0
 93
       13
 44
0.0
173
     0
291
     1
 45
0.0
1001
ACAD
1000
AcDbSavedByObjectVersion
1070
     0
  0
VISUALSTYLE
  5
2053
102
{ACAD_REACTORS
330
2050
102
}
330
2050
100
AcDbVisualStyle
  2
Gouraud
 70
     2
 71
     2
 72
     2
 73
     1
 90
        2
 40
-0.6
 41
30.0
 62
     5
 63
     7
421
 16777215
 74
     0
 91
        4
 64
     7
 65
   257
 75
     1
175
     1
 42
1.0
 92
        0
 66
     7
 43
1.0
 76
     1
 77
     6
 78
     2
 67
     7
 79
     5
170
     0
171
     0
290
     0
174
     0
 93
       13
 44
0.0
173
     0
291
     1
 45
0.0
1001
ACAD
1000
AcDbSavedByObjectVersion
1070
     0
  0
VISUALSTYLE
  5
2054
102
{ACAD_REACTORS
330
2050
102
}
330
2050
100
AcDbVisualStyle
  2
GouraudWithEdges
 70
     3
 71
     2
 72
     2
 73
     1
 90
        2
 40
-0.6
 41
30.0
 62
     5
 63
     7
421
 16777215
 74
     1
 91
        4
 64
     7
 65
   257
 75
     1
175
     1
 42
1.0
 92
        0
 66
   257
 43
1.0
 76
     1
 77
     6
 78
     2
 67
     7
 79
     5
170
     0
171
     0
290
     0
174
     0
 93
       13
 44
0.0
173
     0
291
     1
 45
0.0
1001
ACAD
1000
AcDbSavedByObjectVersion
1070
     0
  0
VISUALSTYLE
  5
205E
102
{ACAD_REACTORS
330
2050
102
}
330
2050
100
AcDbVisualStyle
  2
Linepattern
 70
    14
 71
     2
 72
     2
 73
     0
 90
        0
 40
-0.6
 41
-30.0
 62
     5
 63
     7
421
 16777215
 74
     1
 91
        4
 64
     7
 65
   257
 75
     7
175
     7
 42
1.0
 92
        8
 66
     7
 43
1.0
 76
     1
 77
     6
 78
     2
 67
     7
 79
     5
170
     0
171
     0
290
     0
174
     0
 93
        1
 44
0.0
173
     0
291
     1
 45
0.0
1001
ACAD
1000
AcDbSavedByObjectVersion
1070
     0
  0
VISUALSTYLE
  5
205A
102
{ACAD_REACTORS
330
2050
102
}
330
2050
100
AcDbVisualStyle
  2
Realistic
 70
     8
 71
     2
 72
     2
 73
     0
 90
        0
 40
-0.6
 41
-30.0
 62
     5
 63
     7
421
 16777215
 74
     1
 91
        0
 64
     7
 65
   257
 75
     1
175
     1
 42
1.0
 92
        8
 66
     8
424
  7895160
 43
1.0
 76
     1
 77
     6
 78
     2
 67
     7
 79
     5
170
     0
171
     0
290
     0
174
     0
 93
       13
 44
0.0
173
     0
291
     0
 45
0.0
1001
ACAD
1000
AcDbSavedByObjectVersion
1070
     0
  0
VISUALSTYLE
  5
205D
102
{ACAD_REACTORS
330
2050
102
}
330
2050
100
AcDbVisualStyle
  2
Thicken
 70
    13
 71
     2
 72
     2
 73
     0
 90
        0
 40
-0.6
 41
-30.0
 62
     5
 63
     7
421
 16777215
 74
     1
 91
        4
 64
     7
 65
   257
 75
     1
175
     1
 42
1.0
 92
       12
 66
     7
 43
1.0
 76
     1
 77
     6
 78
     2
 67
     7
 79
     5
170
     0
171
     0
290
     0
174
     0
 93
        1
 44
0.0
173
     0
291
     1
 45
0.0
1001
ACAD
1000
AcDbSavedByObjectVersion
1070
     0
  0
DICTIONARYVAR
  5
210D
102
{ACAD_REACTORS
330
1458
102
}
330
1458
100
DictionaryVariables
280
     0
  1
1:1
  0
DICTIONARYVAR
  5
210B
102
{ACAD_REACTORS
330
1458
102
}
330
1458
100
DictionaryVariables
280
     0
  1
STANDARD
  0
DICTIONARYVAR
  5
210A
102
{ACAD_REACTORS
330
1458
102
}
330
1458
100
DictionaryVariables
280
     0
  1
STANDARD
  0
DICTIONARYVAR
  5
145B
102
{ACAD_REACTORS
330
1458
102
}
330
1458
100
DictionaryVariables
280
     0
  1
1
  0
DICTIONARYVAR
  5
145A
102
{ACAD_REACTORS
330
1458
102
}
330
1458
100
DictionaryVariables
280
     0
  1
1
  0
DICTIONARYVAR
  5
24C5
102
{ACAD_REACTORS
330
1458
102
}
330
1458
100
DictionaryVariables
280
     0
  1
0
  0
DICTIONARYVAR
  5
210F
102
{ACAD_REACTORS
330
1458
102
}
330
1458
100
DictionaryVariables
280
     0
  1
15
  0
DICTIONARYVAR
  5
210E
102
{ACAD_REACTORS
330
1458
102
}
330
1458
100
DictionaryVariables
280
     0
  1
0
  0
DICTIONARYVAR
  5
210C
102
{ACAD_REACTORS
330
1458
102
}
330
1458
100
DictionaryVariables
280
     0
  1
0
  0
DICTIONARYVAR
  5
1459
102
{ACAD_REACTORS
330
1458
102
}
330
1458
100
DictionaryVariables
280
     0
  1
1
  0
XRECORD
  5
249F
102
{ACAD_REACTORS
330
249C
102
}
330
249C
100
AcDbXrecord
280
     1
  1
_0100-
  1
*0100-*
  1
*
  1
*
 70
     0
  1
*
  1
*
  0
XRECORD
  5
249E
102
{ACAD_REACTORS
330
249C
102
}
330
249C
100
AcDbXrecord
280
     1
  1
_0280-
  1
*0280-*
  1
*
  1
*
 70
     0
  1
*
  1
*
  0
XRECORD
  5
24A2
102
{ACAD_REACTORS
330
249C
102
}
330
249C
100
AcDbXrecord
280
     1
  1
_Color 253
  1
*
  1
253
  1
*
 70
     0
  1
*
  1
*
  0
XRECORD
  5
24A0
102
{ACAD_REACTORS
330
249C
102
}
330
249C
100
AcDbXrecord
280
     1
  1
_Color 8
  1
*
  1
8
  1
*
 70
     0
  1
*
  1
*
  0
XRECORD
  5
24A1
102
{ACAD_REACTORS
330
249C
102
}
330
249C
100
AcDbXrecord
280
     1
  1
_Color 84
  1
*
  1
84
  1
*
 70
     0
  1
*
  1
*
  0
XRECORD
  5
24A7
102
{ACAD_REACTORS
330
249C
102
}
330
249C
100
AcDbXrecord
280
     1
  1
_Contours
  1
*contour*,*cont-*,*cp cont*,*p-cont*
  1
*
  1
*
 70
     0
  1
*
  1
*
  0
XRECORD
  5
24A3
102
{ACAD_REACTORS
330
249C
102
}
330
249C
100
AcDbXrecord
280
     1
  1
_Existing
  1
*exist*
  1
*
  1
*
 70
     0
  1
*
  1
*
  0
XRECORD
  5
24A6
102
{ACAD_REACTORS
330
249C
102
}
330
249C
100
AcDbXrecord
280
     1
  1
_Hardscape
  1
*sidewalk*,*sw*,*curb*,*walk*,*-lip*,*tbc*
  1
*
  1
*
 70
     0
  1
*
  1
*
  0
XRECORD
  5
249D
102
{ACAD_REACTORS
330
249C
102
}
330
249C
100
AcDbXrecord
280
     1
  1
_NoXref
  1
~*|*
  1
*
  1
*
 70
     0
  1
*
  1
*
  0
XRECORD
  5
24A4
102
{ACAD_REACTORS
330
249C
102
}
330
249C
100
AcDbXrecord
280
     1
  1
_Row
  1
*row*
  1
*
  1
*
 70
     0
  1
*
  1
*
  0
XRECORD
  5
24A5
102
{ACAD_REACTORS
330
249C
102
}
330
249C
100
AcDbXrecord
280
     1
  1
_Utility
  1
*ut-*,*utility*,*wat*
  1
*
  1
*
 70
     0
  1
*
  1
*
  0
DICTIONARY
  5
2041
330
2040
100
AcDbDictionary
280
     1
281
     1
  3
ACAD_XREC_ROUNDTRIP
360
24CC
  3
BUMPTILE
360
2043
  3
DIFFUSETILE
360
2042
  3
OPACITYTILE
360
2046
  3
REFLECTIONTILE
360
2045
  3
REFRACTIONTILE
360
2047
  3
SPECULARTILE
360
2044
  0
DICTIONARY
  5
2039
330
2038
100
AcDbDictionary
280
     1
281
     1
  3
ACAD_XREC_ROUNDTRIP
360
24CB
  3
BUMPTILE
360
203B
  3
DIFFUSETILE
360
203A
  3
OPACITYTILE
360
203E
  3
REFLECTIONTILE
360
203D
  3
REFRACTIONTILE
360
203F
  3
SPECULARTILE
360
203C
  0
DICTIONARY
  5
2049
330
2048
100
AcDbDictionary
280
     1
281
     1
  3
ACAD_XREC_ROUNDTRIP
360
24CD
  3
BUMPTILE
360
204B
  3
DIFFUSETILE
360
204A
  3
OPACITYTILE
360
204E
  3
REFLECTIONTILE
360
204D
  3
REFRACTIONTILE
360
204F
  3
SPECULARTILE
360
204C
  0
DICTIONARY
  5
2107
330
2063
100
AcDbDictionary
280
     1
281
     1
  3
ACAD_ROUNDTRIP_2008_TABLESTYLE_CELLSTYLEMAP
360
24C6
  3
ACAD_XREC_ROUNDTRIP
360
24CE
  0
XRECORD
  5
24CC
102
{ACAD_REACTORS
330
2041
102
}
330
2041
100
AcDbXrecord
280
     1
102
MATERIAL
148
0.0
149
0.0
149
0.0
 93
        0
 94
      127
282
     0
 72
     0
 77
     0
171
     0
175
     0
179
     0
273
     0
  0
XRECORD
  5
2043
102
{ACAD_REACTORS
330
2041
102
}
330
2041
100
AcDbXrecord
280
     1
270
     1
271
     1
  0
XRECORD
  5
2042
102
{ACAD_REACTORS
330
2041
102
}
330
2041
100
AcDbXrecord
280
     1
270
     1
271
     1
  0
XRECORD
  5
2046
102
{ACAD_REACTORS
330
2041
102
}
330
2041
100
AcDbXrecord
280
     1
270
     1
271
     1
  0
XRECORD
  5
2045
102
{ACAD_REACTORS
330
2041
102
}
330
2041
100
AcDbXrecord
280
     1
270
     1
271
     1
  0
XRECORD
  5
2047
102
{ACAD_REACTORS
330
2041
102
}
330
2041
100
AcDbXrecord
280
     1
270
     1
271
     1
  0
XRECORD
  5
2044
102
{ACAD_REACTORS
330
2041
102
}
330
2041
100
AcDbXrecord
280
     1
270
     1
271
     1
  0
XRECORD
  5
24CB
102
{ACAD_REACTORS
330
2039
102
}
330
2039
100
AcDbXrecord
280
     1
102
MATERIAL
148
0.0
149
0.0
149
0.0
 93
        0
 94
      127
282
     0
 72
     0
 77
     0
171
     0
175
     0
179
     0
273
     0
  0
XRECORD
  5
203B
102
{ACAD_REACTORS
330
2039
102
}
330
2039
100
AcDbXrecord
280
     1
270
     1
271
     1
  0
XRECORD
  5
203A
102
{ACAD_REACTORS
330
2039
102
}
330
2039
100
AcDbXrecord
280
     1
270
     1
271
     1
  0
XRECORD
  5
203E
102
{ACAD_REACTORS
330
2039
102
}
330
2039
100
AcDbXrecord
280
     1
270
     1
271
     1
  0
XRECORD
  5
203D
102
{ACAD_REACTORS
330
2039
102
}
330
2039
100
AcDbXrecord
280
     1
270
     1
271
     1
  0
XRECORD
  5
203F
102
{ACAD_REACTORS
330
2039
102
}
330
2039
100
AcDbXrecord
280
     1
270
     1
271
     1
  0
XRECORD
  5
203C
102
{ACAD_REACTORS
330
2039
102
}
330
2039
100
AcDbXrecord
280
     1
270
     1
271
     1
  0
XRECORD
  5
24CD
102
{ACAD_REACTORS
330
2049
102
}
330
2049
100
AcDbXrecord
280
     1
102
MATERIAL
148
0.0
149
0.0
149
0.0
 93
        0
 94
      127
282
     0
 72
     0
 77
     0
171
     0
175
     0
179
     0
273
     0
  0
XRECORD
  5
204B
102
{ACAD_REACTORS
330
2049
102
}
330
2049
100
AcDbXrecord
280
     1
270
     1
271
     1
  0
XRECORD
  5
204A
102
{ACAD_REACTORS
330
2049
102
}
330
2049
100
AcDbXrecord
280
     1
270
     1
271
     1
  0
XRECORD
  5
204E
102
{ACAD_REACTORS
330
2049
102
}
330
2049
100
AcDbXrecord
280
     1
270
     1
271
     1
  0
XRECORD
  5
204D
102
{ACAD_REACTORS
330
2049
102
}
330
2049
100
AcDbXrecord
280
     1
270
     1
271
     1
  0
XRECORD
  5
204F
102
{ACAD_REACTORS
330
2049
102
}
330
2049
100
AcDbXrecord
280
     1
270
     1
271
     1
  0
XRECORD
  5
204C
102
{ACAD_REACTORS
330
2049
102
}
330
2049
100
AcDbXrecord
280
     1
270
     1
271
     1
  0
CELLSTYLEMAP
  5
24C6
102
{ACAD_REACTORS
330
2107
102
}
330
2107
100
AcDbCellStyleMap
 90
        3
300
CELLSTYLE
  1
TABLEFORMAT_BEGIN
 90
        5
170
     1
 91
        0
 92
    32768
 62
   257
 93
        1
300
CONTENTFORMAT
  1
CONTENTFORMAT_BEGIN
 90
        0
 91
        0
 92
      512
 93
        0
300

 40
0.0
140
1.0
 94
        5
 62
     0
340
11
144
0.25
309
CONTENTFORMAT_END
171
     0
 94
        0
309
TABLEFORMAT_END
  1
CELLSTYLE_BEGIN
 90
        1
 91
        1
300
_TITLE
309
CELLSTYLE_END
300
CELLSTYLE
  1
TABLEFORMAT_BEGIN
 90
        5
170
     1
 91
        0
 92
        0
 62
   257
 93
        1
300
CONTENTFORMAT
  1
CONTENTFORMAT_BEGIN
 90
        0
 91
        0
 92
      512
 93
        0
300

 40
0.0
140
1.0
 94
        5
 62
     0
340
11
144
0.18
309
CONTENTFORMAT_END
171
     0
 94
        0
309
TABLEFORMAT_END
  1
CELLSTYLE_BEGIN
 90
        2
 91
        1
300
_HEADER
309
CELLSTYLE_END
300
CELLSTYLE
  1
TABLEFORMAT_BEGIN
 90
        5
170
     1
 91
        0
 92
        0
 62
   257
 93
        1
300
CONTENTFORMAT
  1
CONTENTFORMAT_BEGIN
 90
        0
 91
        0
 92
      512
 93
        0
300

 40
0.0
140
1.0
 94
        2
 62
     0
340
11
144
0.18
309
CONTENTFORMAT_END
171
     0
 94
        0
309
TABLEFORMAT_END
  1
CELLSTYLE_BEGIN
 90
        3
 91
        2
300
_DATA
309
CELLSTYLE_END
  0
XRECORD
  5
24CE
102
{ACAD_REACTORS
330
2107
102
}
330
2107
100
AcDbXrecord
280
     1
102
ACAD_ROUNDTRIP_PRE2007_TABLESTYLE
 90
      512
 91
        0
  1

 92
      512
 93
        0
  2

 94
      512
 95
        0
  3

  0
ENDSEC
  0
EOF
