  0
SECTION
  2
HEADER
  9
$ACADVER
  1
AC1015
  9
$ACADMAINTVER
 70
    13
  9
$DWGCODEPAGE
  3
ANSI_1252
  9
$INSBASE
 10
0.0
 20
0.0
 30
0.0
  9
$EXTMIN
 10
0.2050443625295231
 20
-0.2297673745704081
 30
0.0
  9
$EXTMAX
 10
16.69504436252951
 20
10.21023262542959
 30
0.03
  9
$LIMMIN
 10
0.0
 20
0.0
  9
$LIMMAX
 10
12.0
 20
9.0
  9
$ORTHOMODE
 70
     1
  9
$REGENMODE
 70
     1
  9
$FILLMODE
 70
     1
  9
$QTEXTMODE
 70
     0
  9
$MIRRTEXT
 70
     0
  9
$LTSCALE
 40
1.0
  9
$ATTMODE
 70
     1
  9
$TEXTSIZE
 40
0.1
  9
$TRACEWID
 40
0.05
  9
$TEXTSTYLE
  7
SIMPLEX
  9
$CLAYER
  8
IMAGE
  9
$CELTYPE
  6
ByLayer
  9
$CECOLOR
 62
   256
  9
$CELTSCALE
 40
1.0
  9
$DISPSILH
 70
     0
  9
$DIMSCALE
 40
1.0
  9
$DIMASZ
 40
0.18
  9
$DIMEXO
 40
0.0625
  9
$DIMDLI
 40
0.38
  9
$DIMRND
 40
0.0
  9
$DIMDLE
 40
0.0
  9
$DIMEXE
 40
0.18
  9
$DIMTP
 40
0.0
  9
$DIMTM
 40
0.0
  9
$DIMTXT
 40
0.1
  9
$DIMCEN
 40
0.09
  9
$DIMTSZ
 40
0.0
  9
$DIMTOL
 70
     0
  9
$DIMLIM
 70
     0
  9
$DIMTIH
 70
     1
  9
$DIMTOH
 70
     1
  9
$DIMSE1
 70
     0
  9
$DIMSE2
 70
     0
  9
$DIMTAD
 70
     0
  9
$DIMZIN
 70
     0
  9
$DIMBLK
  1

  9
$DIMASO
 70
     1
  9
$DIMSHO
 70
     1
  9
$DIMPOST
  1

  9
$DIMAPOST
  1

  9
$DIMALT
 70
     0
  9
$DIMALTD
 70
     2
  9
$DIMALTF
 40
25.4
  9
$DIMLFAC
 40
1.0
  9
$DIMTOFL
 70
     0
  9
$DIMTVP
 40
0.0
  9
$DIMTIX
 70
     0
  9
$DIMSOXD
 70
     0
  9
$DIMSAH
 70
     0
  9
$DIMBLK1
  1

  9
$DIMBLK2
  1

  9
$DIMSTYLE
  2
Standard
  9
$DIMCLRD
 70
     0
  9
$DIMCLRE
 70
     0
  9
$DIMCLRT
 70
     0
  9
$DIMTFAC
 40
1.0
  9
$DIMGAP
 40
0.09
  9
$DIMJUST
 70
     0
  9
$DIMSD1
 70
     0
  9
$DIMSD2
 70
     0
  9
$DIMTOLJ
 70
     1
  9
$DIMTZIN
 70
     0
  9
$DIMALTZ
 70
     0
  9
$DIMALTTZ
 70
     0
  9
$DIMUPT
 70
     0
  9
$DIMDEC
 70
     4
  9
$DIMTDEC
 70
     4
  9
$DIMALTU
 70
     2
  9
$DIMALTTD
 70
     2
  9
$DIMTXSTY
  7
STANDARD
  9
$DIMAUNIT
 70
     0
  9
$DIMADEC
 70
     0
  9
$DIMALTRND
 40
0.0
  9
$DIMAZIN
 70
     0
  9
$DIMDSEP
 70
    46
  9
$DIMATFIT
 70
     3
  9
$DIMFRAC
 70
     0
  9
$DIMLDRBLK
  1

  9
$DIMLUNIT
 70
     2
  9
$DIMLWD
 70
    -2
  9
$DIMLWE
 70
    -2
  9
$DIMTMOVE
 70
     2
  9
$LUNITS
 70
     2
  9
$LUPREC
 70
     4
  9
$SKETCHINC
 40
0.1
  9
$FILLETRAD
 40
0.0
  9
$AUNITS
 70
     0
  9
$AUPREC
 70
     0
  9
$MENU
  1
ACAD
  9
$ELEVATION
 40
0.0
  9
$PELEVATION
 40
0.0
  9
$THICKNESS
 40
0.0
  9
$LIMCHECK
 70
     0
  9
$CHAMFERA
 40
0.0
  9
$CHAMFERB
 40
0.0
  9
$CHAMFERC
 40
0.0
  9
$CHAMFERD
 40
0.0
  9
$SKPOLY
 70
     0
  9
$TDCREATE
 40
2449623.385097569
  9
$TDUCREATE
 40
2449623.676764236
  9
$TDUPDATE
 40
2453019.700643403
  9
$TDUUPDATE
 40
2453019.992310069
  9
$TDINDWG
 40
0.4532392708
  9
$TDUSRTIMER
 40
0.4532392708
  9
$USRTIMER
 70
     1
  9
$ANGBASE
 50
0.0
  9
$ANGDIR
 70
     0
  9
$PDMODE
 70
     0
  9
$PDSIZE
 40
0.0
  9
$PLINEWID
 40
0.0
  9
$SPLFRAME
 70
     0
  9
$SPLINETYPE
 70
     6
  9
$SPLINESEGS
 70
     8
  9
$HANDSEED
  5
3FB
  9
$SURFTAB1
 70
     6
  9
$SURFTAB2
 70
     6
  9
$SURFTYPE
 70
     6
  9
$SURFU
 70
     6
  9
$SURFV
 70
     6
  9
$UCSBASE
  2

  9
$UCSNAME
  2

  9
$UCSORG
 10
0.0
 20
0.0
 30
0.0
  9
$UCSXDIR
 10
1.0
 20
0.0
 30
0.0
  9
$UCSYDIR
 10
0.0
 20
1.0
 30
0.0
  9
$UCSORTHOREF
  2

  9
$UCSORTHOVIEW
 70
     0
  9
$UCSORGTOP
 10
0.0
 20
0.0
 30
0.0
  9
$UCSORGBOTTOM
 10
0.0
 20
0.0
 30
0.0
  9
$UCSORGLEFT
 10
0.0
 20
0.0
 30
0.0
  9
$UCSORGRIGHT
 10
0.0
 20
0.0
 30
0.0
  9
$UCSORGFRONT
 10
0.0
 20
0.0
 30
0.0
  9
$UCSORGBACK
 10
0.0
 20
0.0
 30
0.0
  9
$PUCSBASE
  2

  9
$PUCSNAME
  2

  9
$PUCSORG
 10
0.0
 20
0.0
 30
0.0
  9
$PUCSXDIR
 10
1.0
 20
0.0
 30
0.0
  9
$PUCSYDIR
 10
0.0
 20
1.0
 30
0.0
  9
$PUCSORTHOREF
  2

  9
$PUCSORTHOVIEW
 70
     0
  9
$PUCSORGTOP
 10
0.0
 20
0.0
 30
0.0
  9
$PUCSORGBOTTOM
 10
0.0
 20
0.0
 30
0.0
  9
$PUCSORGLEFT
 10
0.0
 20
0.0
 30
0.0
  9
$PUCSORGRIGHT
 10
0.0
 20
0.0
 30
0.0
  9
$PUCSORGFRONT
 10
0.0
 20
0.0
 30
0.0
  9
$PUCSORGBACK
 10
0.0
 20
0.0
 30
0.0
  9
$USERI1
 70
     0
  9
$USERI2
 70
     0
  9
$USERI3
 70
     0
  9
$USERI4
 70
     0
  9
$USERI5
 70
     0
  9
$USERR1
 40
0.0
  9
$USERR2
 40
0.0
  9
$USERR3
 40
0.0
  9
$USERR4
 40
0.0
  9
$USERR5
 40
0.0
  9
$WORLDVIEW
 70
     1
  9
$SHADEDGE
 70
     3
  9
$SHADEDIF
 70
    70
  9
$TILEMODE
 70
     1
  9
$MAXACTVP
 70
    16
  9
$PINSBASE
 10
0.0
 20
0.0
 30
0.0
  9
$PLIMCHECK
 70
     0
  9
$PEXTMIN
 10
1.000000000000000E+20
 20
1.000000000000000E+20
 30
1.000000000000000E+20
  9
$PEXTMAX
 10
-1.000000000000000E+20
 20
-1.000000000000000E+20
 30
-1.000000000000000E+20
  9
$PLIMMIN
 10
0.0
 20
0.0
  9
$PLIMMAX
 10
12.0
 20
9.0
  9
$UNITMODE
 70
     0
  9
$VISRETAIN
 70
     0
  9
$PLINEGEN
 70
     1
  9
$PSLTSCALE
 70
     1
  9
$TREEDEPTH
 70
  3020
  9
$CMLSTYLE
  2
Standard
  9
$CMLJUST
 70
     0
  9
$CMLSCALE
 40
1.0
  9
$PROXYGRAPHICS
 70
     1
  9
$MEASUREMENT
 70
     0
  9
$CELWEIGHT
370
    -1
  9
$ENDCAPS
280
     0
  9
$JOINSTYLE
280
     0
  9
$LWDISPLAY
290
     0
  9
$INSUNITS
 70
     0
  9
$HYPERLINKBASE
  1

  9
$STYLESHEET
  1
OKIColorShaded.ctb
  9
$XEDIT
290
     1
  9
$CEPSNTYPE
380
     0
  9
$PSTYLEMODE
290
     1
  9
$FINGERPRINTGUID
  2
{609F1CC5-13FB-44E8-9C53-84473C30CCE7}
  9
$VERSIONGUID
  2
{2F629503-215E-47A7-852F-6A70D7AF380D}
  9
$EXTNAMES
290
     1
  9
$PSVPSCALE
 40
0.0
  9
$OLESTARTUP
290
     0
  0
ENDSEC
  0
SECTION
  2
CLASSES
  0
CLASS
  1
ACDBDICTIONARYWDFLT
  2
AcDbDictionaryWithDefault
  3
AutoCAD 2000
 90
        0
280
     0
281
     0
  0
CLASS
  1
ACDBPLACEHOLDER
  2
AcDbPlaceHolder
  3
AutoCAD 2000
 90
        0
280
     0
281
     0
  0
CLASS
  1
LAYOUT
  2
AcDbLayout
  3
AutoCAD 2000
 90
        0
280
     0
281
     0
  0
CLASS
  1
DICTIONARYVAR
  2
AcDbDictionaryVar
  3
AutoCAD 2000
 90
        0
280
     0
281
     0
  0
CLASS
  1
PLOTSETTINGS
  2
AcDbPlotSettings
  3
AutoCAD 2000
 90
        0
280
     0
281
     0
  0
ENDSEC
  0
SECTION
  2
TABLES
  0
TABLE
  2
VPORT
  5
8
330
0
100
AcDbSymbolTable
 70
     2
  0
VPORT
  5
3FA
330
8
100
AcDbSymbolTableRecord
100
AcDbViewportTableRecord
  2
*Active
 70
     0
 10
0.0
 20
0.0
 11
1.0
 21
1.0
 12
8.450080800185808
 22
5.043164304700245
 13
0.0
 23
0.0
 14
0.14
 24
0.14
 15
0.14
 25
0.14
 16
0.0
 26
0.0
 36
1.0
 17
0.0
 27
0.0
 37
0.0
 40
11.00791689450875
 41
1.505548705302095
 42
50.0
 43
0.0
 44
0.0
 50
0.0
 51
0.0
 71
     0
 72
  5000
 73
     1
 74
     1
 75
     0
 76
     0
 77
     0
 78
     0
281
     0
 65
     1
110
0.0
120
0.0
130
0.0
111
1.0
121
0.0
131
0.0
112
0.0
122
1.0
132
0.0
 79
     0
146
0.0
  0
ENDTAB
  0
TABLE
  2
LTYPE
  5
5
330
0
100
AcDbSymbolTable
 70
     1
  0
LTYPE
  5
13
330
5
100
AcDbSymbolTableRecord
100
AcDbLinetypeTableRecord
  2
ByBlock
 70
     0
  3

 72
    65
 73
     0
 40
0.0
  0
LTYPE
  5
14
330
5
100
AcDbSymbolTableRecord
100
AcDbLinetypeTableRecord
  2
ByLayer
 70
     0
  3

 72
    65
 73
     0
 40
0.0
  0
LTYPE
  5
15
330
5
100
AcDbSymbolTableRecord
100
AcDbLinetypeTableRecord
  2
CONTINUOUS
 70
     0
  3
Solid line
 72
    65
 73
     0
 40
0.0
  0
ENDTAB
  0
TABLE
  2
LAYER
  5
2
330
0
100
AcDbSymbolTable
 70
     6
  0
LAYER
  5
10
330
2
100
AcDbSymbolTableRecord
100
AcDbLayerTableRecord
  2
0
 70
     0
 62
     7
  6
CONTINUOUS
370
    -3
390
F
  0
LAYER
  5
2A
330
2
100
AcDbSymbolTableRecord
100
AcDbLayerTableRecord
  2
TEXT_BUBBLES
 70
     0
 62
     6
  6
CONTINUOUS
370
    -3
390
F
  0
LAYER
  5
2B
330
2
100
AcDbSymbolTableRecord
100
AcDbLayerTableRecord
  2
IMAGE
 70
     0
 62
     7
  6
CONTINUOUS
370
    -3
390
F
  0
LAYER
  5
2E
330
2
100
AcDbSymbolTableRecord
100
AcDbLayerTableRecord
  2
TEXT_LEADERS
 70
     0
 62
    -5
  6
CONTINUOUS
370
    -3
390
F
  0
LAYER
  5
30
330
2
100
AcDbSymbolTableRecord
100
AcDbLayerTableRecord
  2
INSTRUCT-CALLOUT
 70
     0
 62
     4
  6
CONTINUOUS
370
    -3
390
F
  0
LAYER
  5
2FC
330
2
100
AcDbSymbolTableRecord
100
AcDbLayerTableRecord
  2
TITLE
 70
     0
 62
     4
  6
CONTINUOUS
370
    -3
390
F
  0
ENDTAB
  0
TABLE
  2
STYLE
  5
3
330
0
100
AcDbSymbolTable
 70
     6
  0
STYLE
  5
11
330
3
100
AcDbSymbolTableRecord
100
AcDbTextStyleTableRecord
  2
STANDARD
 70
     0
 40
0.0
 41
1.0
 50
0.0
 71
     0
 42
0.2
  3
txt
  4

  0
STYLE
  5
24
330
3
100
AcDbSymbolTableRecord
100
AcDbTextStyleTableRecord
  2
ROMANS
 70
     0
 40
0.0
 41
1.0
 50
0.0
 71
     0
 42
0.1
  3
ROMANS.SHX
  4

  0
STYLE
  5
25
330
3
100
AcDbSymbolTableRecord
100
AcDbTextStyleTableRecord
  2
SIMPLEX
 70
     0
 40
0.0
 41
1.0
 50
0.0
 71
     0
 42
0.1
  3
SIMPLEX
  4

  0
STYLE
  5
2FD
330
3
100
AcDbSymbolTableRecord
100
AcDbTextStyleTableRecord
  2
L100
 70
     0
 40
0.1
 41
1.0
 50
0.0
 71
     0
 42
0.1
  3
romans.shx
  4

  0
STYLE
  5
2FE
330
3
100
AcDbSymbolTableRecord
100
AcDbTextStyleTableRecord
  2
L200
 70
     0
 40
0.2
 41
1.0
 50
0.0
 71
     0
 42
0.081
  3
ARIAL.TTF
  4

1001
ACAD
1000
Arial
1071
       34
  0
STYLE
  5
2FF
330
3
100
AcDbSymbolTableRecord
100
AcDbTextStyleTableRecord
  2
L80
 70
     0
 40
0.08
 41
1.0
 50
0.0
 71
     0
 42
0.08
  3
ROMANS
  4

  0
ENDTAB
  0
TABLE
  2
VIEW
  5
6
330
0
100
AcDbSymbolTable
 70
     0
  0
ENDTAB
  0
TABLE
  2
UCS
  5
7
330
0
100
AcDbSymbolTable
 70
     0
  0
ENDTAB
  0
TABLE
  2
APPID
  5
9
330
0
100
AcDbSymbolTable
 70
     3
  0
APPID
  5
12
330
9
100
AcDbSymbolTableRecord
100
AcDbRegAppTableRecord
  2
ACAD
 70
     0
  0
APPID
  5
300
330
9
100
AcDbSymbolTableRecord
100
AcDbRegAppTableRecord
  2
RAK
 70
     0
  0
APPID
  5
3C7
330
9
100
AcDbSymbolTableRecord
100
AcDbRegAppTableRecord
  2
DCO15
 70
     0
  0
ENDTAB
  0
TABLE
  2
DIMSTYLE
  5
A
330
0
100
AcDbSymbolTable
 70
     1
100
AcDbDimStyleTable
 71
     0
  0
DIMSTYLE
105
2DC
330
A
100
AcDbSymbolTableRecord
100
AcDbDimStyleTableRecord
  2
Standard
 70
     0
340
11
  0
ENDTAB
  0
TABLE
  2
BLOCK_RECORD
  5
1
330
0
100
AcDbSymbolTable
 70
     1
  0
BLOCK_RECORD
  5
1E
330
1
100
AcDbSymbolTableRecord
100
AcDbBlockTableRecord
  2
*Model_Space
340
21
  0
BLOCK_RECORD
  5
1A
330
1
100
AcDbSymbolTableRecord
100
AcDbBlockTableRecord
  2
*Paper_Space
340
1D
  0
BLOCK_RECORD
  5
3C8
330
1
100
AcDbSymbolTableRecord
100
AcDbBlockTableRecord
  2
titleblock
340
0
102
{BLKREFS
331
3D6
102
}
  0
ENDTAB
  0
ENDSEC
  0
SECTION
  2
BLOCKS
  0
BLOCK
  5
34
330
1E
100
AcDbEntity
  8
0
100
AcDbBlockBegin
  2
*Model_Space
 70
     0
 10
0.0
 20
0.0
 30
0.0
  3
*Model_Space
  1

  0
ENDBLK
  5
35
330
1E
100
AcDbEntity
  8
0
100
AcDbBlockEnd
  0
BLOCK
  5
32
330
1A
100
AcDbEntity
 67
     1
  8
0
100
AcDbBlockBegin
  2
*Paper_Space
 70
     0
 10
0.0
 20
0.0
 30
0.0
  3
*Paper_Space
  1

  0
ENDBLK
  5
33
330
1A
100
AcDbEntity
 67
     1
  8
0
100
AcDbBlockEnd
  0
BLOCK
  5
3D4
330
3C8
100
AcDbEntity
  8
0
100
AcDbBlockBegin
  2
titleblock
 70
     2
 10
0.0
 20
0.0
 30
0.0
  3
titleblock
  1

  0
LWPOLYLINE
  5
3C9
330
3C8
100
AcDbEntity
  8
IMAGE
100
AcDbPolyline
 90
        4
 70
     1
 43
0.0
 10
0.0
 20
0.0
 10
16.48999999999999
 20
0.0000000000000001
 10
16.48999999999999
 20
10.44
 10
0.0
 20
10.44
  0
ATTDEF
  5
3CA
330
3C8
100
AcDbEntity
  8
TITLE
100
AcDbText
 10
0.5055556038023421
 20
0.7842270964783673
 30
0.0
 40
0.2
  1
D
  7
L200
 72
     4
 11
0.6064423705144839
 21
0.8842270964783672
 31
0.0
100
AcDbAttributeDefinition
  3
#
  2
D
 70
     0
  0
ATTDEF
  5
3CB
330
3C8
100
AcDbEntity
  8
TITLE
100
AcDbText
 10
1.231442370514484
 20
1.34371230274675
 30
0.0
 40
0.2
  1

  7
L200
100
AcDbAttributeDefinition
  3
DETAIL TITLE TOP LINE
  2
TITLE1
 70
     0
  0
ATTDEF
  5
3CC
330
3C8
100
AcDbEntity
  8
TITLE
100
AcDbText
 10
1.231442370514484
 20
0.9842270964783674
 30
0.0
 40
0.2
  1
TITLE
  7
L200
100
AcDbAttributeDefinition
  3
DETAIL TITLE TOP 2ND LINE
  2
TITLE2
 70
     0
  0
ATTDEF
  5
3CD
330
3C8
100
AcDbEntity
  8
TITLE
100
AcDbText
 10
2.713645751168312
 20
0.5927927664583189
 30
0.0
 40
0.2
  1
TITLE2
  7
L200
100
AcDbAttributeDefinition
  3
DETAIL TITLE BOTTOM 1
  2
TITLE3
 70
     0
  0
ATTDEF
  5
3CE
330
3C8
100
AcDbEntity
  8
TITLE
100
AcDbText
 10
2.713645751168312
 20
0.2692560808167741
 30
0.0
 40
0.2
  1

  7
L200
100
AcDbAttributeDefinition
  3
DETAIL TITLE BOTTOM 2
  2
TITLE4
 70
     0
  0
ATTDEF
  5
3CF
330
3C8
100
AcDbEntity
  8
TITLE
 62
     7
100
AcDbText
 10
8.177214829966379
 20
0.9696027915446398
 30
0.0
 40
0.08
  1
-
  7
L80
 72
     2
 11
8.261024353775903
 21
0.9696027915446398
 31
0.0
100
AcDbAttributeDefinition
  3
REVISION DATE
  2
REVISED
 70
     0
  0
ATTDEF
  5
3D0
330
3C8
100
AcDbEntity
  8
TITLE
 62
     7
100
AcDbText
 10
0.2639423705144838
 20
0.0847116480207214
 30
0.0
 40
0.08
  1
-
  7
L80
100
AcDbAttributeDefinition
  3
DWG-NAME
  2
DWG-NAME
 70
     0
  0
LWPOLYLINE
  5
3D1
330
3C8
100
AcDbEntity
  8
TITLE
 62
     3
100
AcDbPolyline
 90
        2
 70
     1
 43
0.03
 10
0.6064423705144839
 20
0.5417270964783675
 42
0.9999999999999998
 10
0.6064423705144839
 20
1.226727096478367
 42
0.9999999999999998
  0
ATTDEF
  5
3D2
330
3C8
100
AcDbEntity
  8
TITLE
 62
     7
100
AcDbText
 10
1.231442370514484
 20
0.7005637793954894
 30
0.0
 40
0.1
  1
N.T.S.
  7
L100
100
AcDbAttributeDefinition
  3
SCALE
  2
SCALE
 70
     0
  0
LWPOLYLINE
  5
3D3
330
3C8
100
AcDbEntity
  8
TITLE
 62
     3
100
AcDbPolyline
 90
        2
 70
     0
 43
0.04
 39
0.03
 10
0.9489423705144833
 20
0.8842270964783672
 10
8.261024353775903
 20
0.8842270964783672
  0
ENDBLK
  5
3D5
330
3C8
100
AcDbEntity
  8
0
100
AcDbBlockEnd
  0
ENDSEC
  0
SECTION
  2
ENTITIES
  0
TEXT
  5
C9
330
1E
100
AcDbEntity
  8
TEXT_BUBBLES
100
AcDbText
 10
4.588362519113744
 20
5.929098772953555
 30
0.0
 40
0.10000000149
  1

  7
ROMANS
100
AcDbText
  0
TEXT
  5
CB
330
1E
100
AcDbEntity
  8
TEXT_BUBBLES
100
AcDbText
 10
4.588362519113744
 20
3.755036997746555
 30
0.0
 40
0.10000000149
  1

  7
ROMANS
100
AcDbText
  0
TEXT
  5
CC
330
1E
100
AcDbEntity
  8
TEXT_BUBBLES
100
AcDbText
 10
4.588362519113744
 20
5.618518519352554
 30
0.0
 40
0.10000000149
  1

  7
ROMANS
100
AcDbText
  0
TEXT
  5
CD
330
1E
100
AcDbEntity
  8
TEXT_BUBBLES
100
AcDbText
 10
16.90309906005899
 20
1.433911323547
 30
0.0
 40
0.10000000149
  1

  7
ROMANS
100
AcDbText
  0
TEXT
  5
CE
330
1E
100
AcDbEntity
  8
TEXT_BUBBLES
100
AcDbText
 10
16.90309906005899
 20
0.968012332916
 30
0.0
 40
0.10000000149
  1

  7
ROMANS
100
AcDbText
  0
TEXT
  5
CF
330
1E
100
AcDbEntity
  8
TEXT_BUBBLES
100
AcDbText
 10
16.90309906005899
 20
1.12331199646
 30
0.0
 40
0.10000000149
  1

  7
ROMANS
100
AcDbText
  0
TEXT
  5
D0
330
1E
100
AcDbEntity
  8
TEXT_BUBBLES
100
AcDbText
 10
16.90309906005899
 20
1.744510650635
 30
0.0
 40
0.10000000149
  1

  7
ROMANS
100
AcDbText
  0
TEXT
  5
D1
330
1E
100
AcDbEntity
  8
TEXT_BUBBLES
100
AcDbText
 10
16.90309906005899
 20
2.521008968353
 30
0.0
 40
0.10000000149
  1

  7
ROMANS
100
AcDbText
  0
TEXT
  5
D2
330
1E
100
AcDbEntity
  8
TEXT_BUBBLES
100
AcDbText
 10
16.90309906005899
 20
2.986907958984
 30
0.0
 40
0.10000000149
  1

  7
ROMANS
100
AcDbText
  0
TEXT
  5
D3
330
1E
100
AcDbEntity
  8
TEXT_BUBBLES
100
AcDbText
 10
16.90309906005899
 20
2.831608295440999
 30
0.0
 40
0.10000000149
  1

  7
ROMANS
100
AcDbText
  0
TEXT
  5
D4
330
1E
100
AcDbEntity
  8
TEXT_BUBBLES
100
AcDbText
 10
4.588362519113744
 20
3.133876490543554
 30
0.0
 40
0.10000000149
  1

  7
ROMANS
100
AcDbText
  0
TEXT
  5
D5
330
1E
100
AcDbEntity
  8
TEXT_BUBBLES
100
AcDbText
 10
16.90309906005899
 20
2.210409641266
 30
0.0
 40
0.10000000149
  1

  7
ROMANS
100
AcDbText
  0
TEXT
  5
D6
330
1E
100
AcDbEntity
  8
TEXT_BUBBLES
100
AcDbText
 10
16.90309906005899
 20
2.055109977722
 30
0.0
 40
0.10000000149
  1

  7
ROMANS
100
AcDbText
  0
TEXT
  5
D7
330
1E
100
AcDbEntity
  8
TEXT_BUBBLES
100
AcDbText
 10
4.588362519113744
 20
4.842067885349554
 30
0.0
 40
0.10000000149
  1

  7
ROMANS
100
AcDbText
  0
TEXT
  5
D8
330
1E
100
AcDbEntity
  8
TEXT_BUBBLES
100
AcDbText
 10
4.588362519113744
 20
6.394969153355554
 30
0.0
 40
0.10000000149
  1

  7
ROMANS
100
AcDbText
  0
TEXT
  5
D9
330
1E
100
AcDbEntity
  8
TEXT_BUBBLES
100
AcDbText
 10
4.588362519113744
 20
5.152648138950555
 30
0.0
 40
0.10000000149
  1

  7
ROMANS
100
AcDbText
  0
TEXT
  5
DA
330
1E
100
AcDbEntity
  8
TEXT_BUBBLES
100
AcDbText
 10
4.588362519113744
 20
4.065617251347554
 30
0.0
 40
0.10000000149
  1

  7
ROMANS
100
AcDbText
  0
TEXT
  5
DB
330
1E
100
AcDbEntity
  8
TEXT_BUBBLES
100
AcDbText
 10
4.588362519113744
 20
3.444456744145555
 30
0.0
 40
0.10000000149
  1

  7
ROMANS
100
AcDbText
  0
LINE
  5
DD
330
1E
100
AcDbEntity
  8
IMAGE
100
AcDbLine
 10
1.595758440438937
 20
5.560344615240514
 30
0.0
 11
2.24628627697801
 21
5.560344615240514
 31
0.0
  0
LINE
  5
DE
330
1E
100
AcDbEntity
  8
IMAGE
100
AcDbLine
 10
1.595758440438942
 20
5.560344615240514
 30
0.0
 11
0.7364160302501237
 21
5.560344615240514
 31
0.0
  0
TEXT
  5
DF
330
1E
100
AcDbEntity
  8
TEXT_LEADERS
100
AcDbText
 10
5.01099773167159
 20
5.857852766468083
 30
0.0
 40
0.125
  1
FINISH GRADE/TOP OF MULCH
  7
SIMPLEX
100
AcDbText
  0
LINE
  5
E1
330
1E
100
AcDbEntity
  8
IMAGE
100
AcDbLine
 10
2.24628627697801
 20
5.560344615240514
 30
0.0
 11
2.24628627697801
 21
6.237392594619795
 31
0.0
  0
LINE
  5
E2
330
1E
100
AcDbEntity
  8
IMAGE
100
AcDbLine
 10
2.423784115565162
 20
5.560344615240514
 30
0.0
 11
2.423784115565162
 21
6.237392594619795
 31
0.0
  0
LINE
  5
E3
330
1E
100
AcDbEntity
  8
IMAGE
100
AcDbLine
 10
2.232706985538505
 20
6.602255623937628
 30
0.0
 11
2.437363407004665
 21
6.602255623937628
 31
0.0
  0
LINE
  5
E4
330
1E
100
AcDbEntity
  8
IMAGE
100
AcDbLine
 10
2.232706985538505
 20
6.518342594619794
 30
0.0
 11
2.232706985538505
 21
6.684347398194639
 31
0.0
  0
LINE
  5
E5
330
1E
100
AcDbEntity
  8
IMAGE
100
AcDbLine
 10
2.219623440922943
 20
6.684347398194639
 30
0.0
 11
2.450446951620224
 21
6.684347398194639
 31
0.0
  0
LINE
  5
E6
330
1E
100
AcDbEntity
  8
IMAGE
100
AcDbLine
 10
2.437363407004665
 20
6.684347398194639
 30
0.0
 11
2.437363407004665
 21
6.518342594619794
 31
0.0
  0
LINE
  5
E7
330
1E
100
AcDbEntity
  8
IMAGE
100
AcDbLine
 10
2.437363407004665
 20
6.518342594619794
 30
0.0
 11
2.232706985538505
 21
6.518342594619794
 31
0.0
  0
LINE
  5
E8
330
1E
100
AcDbEntity
  8
IMAGE
100
AcDbLine
 10
2.232706985538505
 20
6.705393285323142
 30
0.0
 11
2.437363407004665
 21
6.705393285323142
 31
0.0
  0
ARC
  5
E9
330
1E
100
AcDbEntity
  8
IMAGE
100
AcDbCircle
 10
2.240888558591908
 20
6.685717316051436
 30
0.0
 40
0.0213091976481818
100
AcDbArc
 50
112.5782985068443
 51
183.6859519132602
  0
ARC
  5
EA
330
1E
100
AcDbEntity
  8
IMAGE
100
AcDbCircle
 10
2.429181833951259
 20
6.685717316051436
 30
0.0
 40
0.0213091976481818
100
AcDbArc
 50
356.3140480867397
 51
67.42170149315559
  0
LINE
  5
EB
330
1E
100
AcDbEntity
  8
IMAGE
100
AcDbLine
 10
2.335035196271584
 20
6.602255623937628
 30
0.0
 11
2.335035196271584
 21
6.518342594619794
 31
0.0
  0
LINE
  5
EC
330
1E
100
AcDbEntity
  8
IMAGE
100
AcDbLine
 10
2.313761139986122
 20
6.602255623937628
 30
0.0
 11
2.313761139986122
 21
6.518342594619794
 31
0.0
  0
LINE
  5
ED
330
1E
100
AcDbEntity
  8
IMAGE
100
AcDbLine
 10
2.292487083700658
 20
6.602255623937628
 30
0.0
 11
2.292487083700658
 21
6.518342594619794
 31
0.0
  0
LINE
  5
EE
330
1E
100
AcDbEntity
  8
IMAGE
100
AcDbLine
 10
2.271213027415194
 20
6.602255623937628
 30
0.0
 11
2.271213027415194
 21
6.518342594619794
 31
0.0
  0
LINE
  5
EF
330
1E
100
AcDbEntity
  8
IMAGE
100
AcDbLine
 10
2.249938971129729
 20
6.602255623937628
 30
0.0
 11
2.249938971129729
 21
6.518342594619794
 31
0.0
  0
LINE
  5
F0
330
1E
100
AcDbEntity
  8
IMAGE
100
AcDbLine
 10
2.356309252557048
 20
6.602255623937628
 30
0.0
 11
2.356309252557048
 21
6.518342594619794
 31
0.0
  0
LINE
  5
F1
330
1E
100
AcDbEntity
  8
IMAGE
100
AcDbLine
 10
2.377583308842512
 20
6.602255623937628
 30
0.0
 11
2.377583308842512
 21
6.518342594619794
 31
0.0
  0
LINE
  5
F2
330
1E
100
AcDbEntity
  8
IMAGE
100
AcDbLine
 10
2.398857365127974
 20
6.602255623937628
 30
0.0
 11
2.398857365127974
 21
6.518342594619794
 31
0.0
  0
LINE
  5
F3
330
1E
100
AcDbEntity
  8
IMAGE
100
AcDbLine
 10
2.420131421413441
 20
6.602255623937628
 30
0.0
 11
2.420131421413441
 21
6.518342594619794
 31
0.0
  0
TEXT
  5
F4
330
1E
100
AcDbEntity
  8
TEXT_LEADERS
100
AcDbText
 10
5.01099773167159
 20
2.295291287723665
 30
0.0
 40
0.125
  1
PVC LATERAL PIPE
  7
SIMPLEX
100
AcDbText
  0
TEXT
  5
F5
330
1E
100
AcDbEntity
  8
TEXT_LEADERS
100
AcDbText
 10
4.674910068512
 20
1.118389844893999
 30
0.0
 40
0.10000000149
  1

  7
SIMPLEX
100
AcDbText
  0
TEXT
  5
F6
330
1E
100
AcDbEntity
  8
TEXT_LEADERS
100
AcDbText
 10
5.01099773167159
 20
3.697106045491914
 30
0.0
 40
0.125
  1
SWING PIPE, 12-INCH LENGTH:
  7
SIMPLEX
100
AcDbText
  0
TEXT
  5
F7
330
1E
100
AcDbEntity
  8
TEXT_LEADERS
100
AcDbText
 10
5.01099773167159
 20
3.509516133077914
 30
0.0
 40
0.125
  1
  RAIN BIRD MODEL SP-100
  7
SIMPLEX
100
AcDbText
  0
TEXT
  5
F8
330
1E
100
AcDbEntity
  8
TEXT_LEADERS
100
AcDbText
 10
4.674910068512
 20
1.906340003014
 30
0.0
 40
0.10000000149
  1

  7
SIMPLEX
100
AcDbText
  0
TEXT
  5
F9
330
1E
100
AcDbEntity
  8
TEXT_LEADERS
100
AcDbText
 10
5.01099773167159
 20
3.046416068062125
 30
0.0
 40
0.125
  1
  x .490-INCH BARB ELBOW:
  7
SIMPLEX
100
AcDbText
  0
TEXT
  5
FA
330
1E
100
AcDbEntity
  8
TEXT_LEADERS
100
AcDbText
 10
5.01099773167159
 20
6.421594576318095
 30
0.0
 40
0.125
  1
PLANT MATERIAL
  7
SIMPLEX
100
AcDbText
  0
ARC
  5
FB
330
1E
100
AcDbEntity
  8
IMAGE
100
AcDbCircle
 10
3.473158244813802
 20
6.038008737078692
 30
0.0
 40
0.1738489379910888
100
AcDbArc
 50
116.0563205359582
 51
205.2549940243739
  0
ARC
  5
FC
330
1E
100
AcDbEntity
  8
IMAGE
100
AcDbCircle
 10
3.239562226507949
 20
6.120015911471937
 30
0.0
 40
0.1738489379910888
100
AcDbArc
 50
296.0563205359582
 51
25.2549940243739
  0
ARC
  5
FD
330
1E
100
AcDbEntity
  8
IMAGE
100
AcDbCircle
 10
3.318961184063361
 20
6.411327631655495
 30
0.0
 40
0.1738489379910888
100
AcDbArc
 50
116.0563205359582
 51
205.2549940243739
  0
ARC
  5
FE
330
1E
100
AcDbEntity
  8
IMAGE
100
AcDbCircle
 10
3.085365165757506
 20
6.493334806048739
 30
0.0
 40
0.1738489379910888
100
AcDbArc
 50
296.0563205359582
 51
25.2549940243739
  0
ARC
  5
FF
330
1E
100
AcDbEntity
  8
IMAGE
100
AcDbCircle
 10
3.254036105852648
 20
6.196263485866685
 30
0.0
 40
0.1738489379910888
100
AcDbArc
 50
116.0563205359582
 51
205.2549940243739
  0
ARC
  5
100
330
1E
100
AcDbEntity
  8
IMAGE
100
AcDbCircle
 10
3.020440087546795
 20
6.278270660259929
 30
0.0
 40
0.1738489379910888
100
AcDbArc
 50
296.0563205359582
 51
25.2549940243739
  0
ARC
  5
101
330
1E
100
AcDbEntity
  8
IMAGE
100
AcDbCircle
 10
3.611124036011567
 20
5.96091026972044
 30
0.0
 40
0.1738489379910888
100
AcDbArc
 50
116.0563205359582
 51
205.2549940243739
  0
ARC
  5
102
330
1E
100
AcDbEntity
  8
IMAGE
100
AcDbCircle
 10
3.377528017705714
 20
6.042917444113684
 30
0.0
 40
0.1738489379910888
100
AcDbArc
 50
296.0563205359582
 51
25.2549940243739
  0
ARC
  5
103
330
1E
100
AcDbEntity
  8
IMAGE
100
AcDbCircle
 10
3.148532853760238
 20
5.855407103861779
 30
0.0
 40
0.1738489379910888
100
AcDbArc
 50
116.0563205359582
 51
205.2549940243739
  0
ARC
  5
104
330
1E
100
AcDbEntity
  8
IMAGE
100
AcDbCircle
 10
2.914936835454385
 20
5.937414278255022
 30
0.0
 40
0.1738489379910888
100
AcDbArc
 50
296.0563205359582
 51
25.2549940243739
  0
ARC
  5
105
330
1E
100
AcDbEntity
  8
IMAGE
100
AcDbCircle
 10
3.172879758089257
 20
5.684978912859325
 30
0.0
 40
0.1738489379910888
100
AcDbArc
 50
116.0563205359582
 51
205.2549940243739
  0
ARC
  5
106
330
1E
100
AcDbEntity
  8
IMAGE
100
AcDbCircle
 10
2.939283739783402
 20
5.766986087252568
 30
0.0
 40
0.1738489379910888
100
AcDbArc
 50
296.0563205359582
 51
25.2549940243739
  0
ARC
  5
107
330
1E
100
AcDbEntity
  8
IMAGE
100
AcDbCircle
 10
3.359539357945056
 20
5.863522732004752
 30
0.0
 40
0.1738489379910888
100
AcDbArc
 50
116.0563205359582
 51
205.2549940243739
  0
ARC
  5
108
330
1E
100
AcDbEntity
  8
IMAGE
100
AcDbCircle
 10
3.125943339639203
 20
5.945529906397996
 30
0.0
 40
0.1738489379910888
100
AcDbArc
 50
296.0563205359582
 51
25.2549940243739
  0
ARC
  5
109
330
1E
100
AcDbEntity
  8
IMAGE
100
AcDbCircle
 10
3.653313472320325
 20
5.712939470547062
 30
0.0
 40
0.1738489379910888
100
AcDbArc
 50
143.5307656099477
 51
232.7294390983634
  0
ARC
  5
10A
330
1E
100
AcDbEntity
  8
IMAGE
100
AcDbCircle
 10
3.408228934064837
 20
5.677927393653421
 30
0.0
 40
0.1738489379910888
100
AcDbArc
 50
323.5307656099477
 51
52.72943909836341
  0
ARC
  5
10B
330
1E
100
AcDbEntity
  8
IMAGE
100
AcDbCircle
 10
3.702140324171413
 20
6.474638359424055
 30
0.0
 40
0.1738489379910888
100
AcDbArc
 50
143.5307656099477
 51
232.7294390983634
  0
ARC
  5
10C
330
1E
100
AcDbEntity
  8
IMAGE
100
AcDbCircle
 10
3.457055785915926
 20
6.439626282530414
 30
0.0
 40
0.1738489379910888
100
AcDbArc
 50
323.5307656099477
 51
52.72943909836341
  0
ARC
  5
10D
330
1E
100
AcDbEntity
  8
IMAGE
100
AcDbCircle
 10
2.901379953813549
 20
6.298861692760134
 30
0.0
 40
0.1738489379910888
100
AcDbArc
 50
143.5307656099477
 51
232.7294390983634
  0
ARC
  5
10E
330
1E
100
AcDbEntity
  8
IMAGE
100
AcDbCircle
 10
2.656295415558059
 20
6.263849615866493
 30
0.0
 40
0.1738489379910888
100
AcDbArc
 50
323.5307656099477
 51
52.72943909836341
  0
ARC
  5
10F
330
1E
100
AcDbEntity
  8
IMAGE
100
AcDbCircle
 10
2.920910694553985
 20
5.703174100176843
 30
0.0
 40
0.1738489379910888
100
AcDbArc
 50
143.5307656099477
 51
232.7294390983634
  0
ARC
  5
110
330
1E
100
AcDbEntity
  8
IMAGE
100
AcDbCircle
 10
2.675826156298496
 20
5.668162023283203
 30
0.0
 40
0.1738489379910888
100
AcDbArc
 50
323.5307656099477
 51
52.72943909836341
  0
ARC
  5
111
330
1E
100
AcDbEntity
  8
IMAGE
100
AcDbCircle
 10
3.008799027885945
 20
6.093788914985558
 30
0.0
 40
0.1738489379910888
100
AcDbArc
 50
143.5307656099477
 51
232.7294390983634
  0
ARC
  5
112
330
1E
100
AcDbEntity
  8
IMAGE
100
AcDbCircle
 10
2.763714489630457
 20
6.058776838091918
 30
0.0
 40
0.1738489379910888
100
AcDbArc
 50
323.5307656099477
 51
52.72943909836341
  0
ARC
  5
113
330
1E
100
AcDbEntity
  8
IMAGE
100
AcDbCircle
 10
3.165044953809431
 20
6.230504100168608
 30
0.0
 40
0.1738489379910888
100
AcDbArc
 50
143.5307656099477
 51
232.7294390983634
  0
ARC
  5
114
330
1E
100
AcDbEntity
  8
IMAGE
100
AcDbCircle
 10
2.919960415553942
 20
6.195492023274968
 30
0.0
 40
0.1738489379910888
100
AcDbArc
 50
323.5307656099477
 51
52.72943909836341
  0
ARC
  5
115
330
1E
100
AcDbEntity
  8
IMAGE
100
AcDbCircle
 10
3.516598287137275
 20
6.376984655721876
 30
0.0
 40
0.1738489379910888
100
AcDbArc
 50
143.5307656099477
 51
232.7294390983634
  0
ARC
  5
116
330
1E
100
AcDbEntity
  8
IMAGE
100
AcDbCircle
 10
3.271513748881785
 20
6.341972578828236
 30
0.0
 40
0.1738489379910888
100
AcDbArc
 50
323.5307656099477
 51
52.72943909836341
  0
ARC
  5
117
330
1E
100
AcDbEntity
  8
IMAGE
100
AcDbCircle
 10
3.467771435286184
 20
6.279330952019697
 30
0.0
 40
0.1738489379910888
100
AcDbArc
 50
143.5307656099477
 51
232.7294390983634
  0
ARC
  5
118
330
1E
100
AcDbEntity
  8
IMAGE
100
AcDbCircle
 10
3.222686897030696
 20
6.244318875126057
 30
0.0
 40
0.1738489379910888
100
AcDbArc
 50
323.5307656099477
 51
52.72943909836341
  0
ARC
  5
119
330
1E
100
AcDbEntity
  8
IMAGE
100
AcDbCircle
 10
3.389648472324441
 20
6.103554285355776
 30
0.0
 40
0.1738489379910888
100
AcDbArc
 50
143.5307656099477
 51
232.7294390983634
  0
ARC
  5
11A
330
1E
100
AcDbEntity
  8
IMAGE
100
AcDbCircle
 10
3.144563934068955
 20
6.068542208462136
 30
0.0
 40
0.1738489379910888
100
AcDbArc
 50
323.5307656099477
 51
52.72943909836341
  0
ARC
  5
11B
330
1E
100
AcDbEntity
  8
IMAGE
100
AcDbCircle
 10
3.252933287141392
 20
5.859420026100329
 30
0.0
 40
0.1738489379910888
100
AcDbArc
 50
143.5307656099477
 51
232.7294390983634
  0
ARC
  5
11C
330
1E
100
AcDbEntity
  8
IMAGE
100
AcDbCircle
 10
3.007848748885903
 20
5.82440794920669
 30
0.0
 40
0.1738489379910888
100
AcDbArc
 50
323.5307656099477
 51
52.72943909836341
  0
ARC
  5
11D
330
1E
100
AcDbEntity
  8
IMAGE
100
AcDbCircle
 10
3.047860509366817
 20
5.703174100176843
 30
0.0
 40
0.1738489379910888
100
AcDbArc
 50
143.5307656099477
 51
232.7294390983634
  0
ARC
  5
11E
330
1E
100
AcDbEntity
  8
IMAGE
100
AcDbCircle
 10
2.802775971111328
 20
5.668162023283203
 30
0.0
 40
0.1738489379910888
100
AcDbArc
 50
323.5307656099477
 51
52.72943909836341
  0
ARC
  5
11F
330
1E
100
AcDbEntity
  8
IMAGE
100
AcDbCircle
 10
3.370117731584006
 20
5.683643359436407
 30
0.0
 40
0.1738489379910888
100
AcDbArc
 50
143.5307656099477
 51
232.7294390983634
  0
ARC
  5
120
330
1E
100
AcDbEntity
  8
IMAGE
100
AcDbCircle
 10
3.125033193328517
 20
5.648631282542768
 30
0.0
 40
0.1738489379910888
100
AcDbArc
 50
323.5307656099477
 51
52.72943909836341
  0
ARC
  5
121
330
1E
100
AcDbEntity
  8
IMAGE
100
AcDbCircle
 10
3.545894398247927
 20
5.742235581657715
 30
0.0
 40
0.1738489379910888
100
AcDbArc
 50
143.5307656099477
 51
232.7294390983634
  0
ARC
  5
122
330
1E
100
AcDbEntity
  8
IMAGE
100
AcDbCircle
 10
3.30080985999244
 20
5.707223504764074
 30
0.0
 40
0.1738489379910888
100
AcDbArc
 50
323.5307656099477
 51
52.72943909836341
  0
ARC
  5
123
330
1E
100
AcDbEntity
  8
IMAGE
100
AcDbCircle
 10
3.702140324171413
 20
6.093788914985558
 30
0.0
 40
0.1738489379910888
100
AcDbArc
 50
143.5307656099477
 51
232.7294390983634
  0
ARC
  5
124
330
1E
100
AcDbEntity
  8
IMAGE
100
AcDbCircle
 10
3.457055785915926
 20
6.058776838091918
 30
0.0
 40
0.1738489379910888
100
AcDbArc
 50
323.5307656099477
 51
52.72943909836341
  0
ARC
  5
125
330
1E
100
AcDbEntity
  8
IMAGE
100
AcDbCircle
 10
3.409179213064879
 20
6.406280766832529
 30
0.0
 40
0.1738489379910888
100
AcDbArc
 50
143.5307656099477
 51
232.7294390983634
  0
ARC
  5
126
330
1E
100
AcDbEntity
  8
IMAGE
100
AcDbCircle
 10
3.164094674809389
 20
6.371268689938889
 30
0.0
 40
0.1738489379910888
100
AcDbArc
 50
323.5307656099477
 51
52.72943909836341
  0
ARC
  5
127
330
1E
100
AcDbEntity
  8
IMAGE
100
AcDbCircle
 10
3.694708518590235
 20
5.916303028744746
 30
0.0
 40
0.1738489379910888
100
AcDbArc
 50
159.7199718669747
 51
248.9186453553905
  0
ARC
  5
128
330
1E
100
AcDbEntity
  8
IMAGE
100
AcDbCircle
 10
3.469104231022232
 20
5.814347244939975
 30
0.0
 40
0.1738489379910888
100
AcDbArc
 50
339.7199718669747
 51
68.91864535539045
  0
ARC
  5
129
330
1E
100
AcDbEntity
  8
IMAGE
100
AcDbCircle
 10
3.528697222296532
 20
6.17020265837041
 30
0.0
 40
0.1738489379910888
100
AcDbArc
 50
159.7199718669747
 51
248.9186453553905
  0
ARC
  5
12A
330
1E
100
AcDbEntity
  8
IMAGE
100
AcDbCircle
 10
3.303092934728526
 20
6.068246874565639
 30
0.0
 40
0.1738489379910888
100
AcDbArc
 50
339.7199718669747
 51
68.91864535539045
  0
ARC
  5
12B
330
1E
100
AcDbEntity
  8
IMAGE
100
AcDbCircle
 10
3.1283170371176
 20
6.111610436149103
 30
0.0
 40
0.1738489379910888
100
AcDbArc
 50
159.7199718669747
 51
248.9186453553905
  0
ARC
  5
12C
330
1E
100
AcDbEntity
  8
IMAGE
100
AcDbCircle
 10
2.902712749549595
 20
6.009654652344332
 30
0.0
 40
0.1738489379910888
100
AcDbArc
 50
339.7199718669747
 51
68.91864535539045
  0
ARC
  5
12D
330
1E
100
AcDbEntity
  8
IMAGE
100
AcDbCircle
 10
3.059959444526075
 20
5.945599139855399
 30
0.0
 40
0.1738489379910888
100
AcDbArc
 50
159.7199718669747
 51
248.9186453553905
  0
ARC
  5
12E
330
1E
100
AcDbEntity
  8
IMAGE
100
AcDbCircle
 10
2.834355156958071
 20
5.843643356050628
 30
0.0
 40
0.1738489379910888
100
AcDbArc
 50
339.7199718669747
 51
68.91864535539045
  0
ARC
  5
12F
330
1E
100
AcDbEntity
  8
IMAGE
100
AcDbCircle
 10
2.861777094668163
 20
6.080011340069971
 30
0.0
 40
0.1738489379910888
100
AcDbArc
 50
159.7199718669747
 51
248.9186453553905
  0
ARC
  5
130
330
1E
100
AcDbEntity
  8
IMAGE
100
AcDbCircle
 10
2.636172807100157
 20
5.9780555562652
 30
0.0
 40
0.1738489379910888
100
AcDbArc
 50
339.7199718669747
 51
68.91864535539045
  0
ARC
  5
131
330
1E
100
AcDbEntity
  8
IMAGE
100
AcDbCircle
 10
3.1283170371176
 20
6.404571547255638
 30
0.0
 40
0.1738489379910888
100
AcDbArc
 50
159.7199718669747
 51
248.9186453553905
  0
ARC
  5
132
330
1E
100
AcDbEntity
  8
IMAGE
100
AcDbCircle
 10
2.902712749549595
 20
6.302615763450869
 30
0.0
 40
0.1738489379910888
100
AcDbArc
 50
339.7199718669747
 51
68.91864535539045
  0
ARC
  5
133
330
1E
100
AcDbEntity
  8
IMAGE
100
AcDbCircle
 10
3.304093703781521
 20
6.345979325034331
 30
0.0
 40
0.1738489379910888
100
AcDbArc
 50
159.7199718669747
 51
248.9186453553905
  0
ARC
  5
134
330
1E
100
AcDbEntity
  8
IMAGE
100
AcDbCircle
 10
3.078489416213518
 20
6.244023541229561
 30
0.0
 40
0.1738489379910888
100
AcDbArc
 50
339.7199718669747
 51
68.91864535539045
  0
ARC
  5
135
330
1E
100
AcDbEntity
  8
IMAGE
100
AcDbCircle
 10
3.636116296368928
 20
6.385040806515203
 30
0.0
 40
0.1738489379910888
100
AcDbArc
 50
159.7199718669747
 51
248.9186453553905
  0
ARC
  5
136
330
1E
100
AcDbEntity
  8
IMAGE
100
AcDbCircle
 10
3.410512008800925
 20
6.283085022710432
 30
0.0
 40
0.1738489379910888
100
AcDbArc
 50
339.7199718669747
 51
68.91864535539045
  0
ARC
  5
137
330
1E
100
AcDbEntity
  8
IMAGE
100
AcDbCircle
 10
3.450574259334789
 20
5.877241547263873
 30
0.0
 40
0.1738489379910888
100
AcDbArc
 50
159.7199718669747
 51
248.9186453553905
  0
ARC
  5
138
330
1E
100
AcDbEntity
  8
IMAGE
100
AcDbCircle
 10
3.224969971766784
 20
5.775285763459103
 30
0.0
 40
0.1738489379910888
100
AcDbArc
 50
339.7199718669747
 51
68.91864535539045
  0
ARC
  5
139
330
1E
100
AcDbEntity
  8
IMAGE
100
AcDbCircle
 10
3.509166481556096
 20
5.955364510225617
 30
0.0
 40
0.1738489379910888
100
AcDbArc
 50
159.7199718669747
 51
248.9186453553905
  0
ARC
  5
13A
330
1E
100
AcDbEntity
  8
IMAGE
100
AcDbCircle
 10
3.283562193988093
 20
5.853408726420846
 30
0.0
 40
0.1738489379910888
100
AcDbArc
 50
339.7199718669747
 51
68.91864535539045
  0
ARC
  5
13B
330
1E
100
AcDbEntity
  8
IMAGE
100
AcDbCircle
 10
3.001367222304768
 20
6.336213954664114
 30
0.0
 40
0.1738489379910888
100
AcDbArc
 50
159.7199718669747
 51
248.9186453553905
  0
ARC
  5
13C
330
1E
100
AcDbEntity
  8
IMAGE
100
AcDbCircle
 10
2.775762934736762
 20
6.234258170859343
 30
0.0
 40
0.1738489379910888
100
AcDbArc
 50
339.7199718669747
 51
68.91864535539045
  0
ARC
  5
13D
330
1E
100
AcDbEntity
  8
IMAGE
100
AcDbCircle
 10
3.068993286134524
 20
5.753627102149351
 30
0.0
 40
0.1738489379910888
100
AcDbArc
 50
278.5307656099478
 51
7.729439098363569
  0
ARC
  5
13E
330
1E
100
AcDbEntity
  8
IMAGE
100
AcDbCircle
 10
3.267051502093874
 20
5.605083440179839
 30
0.0
 40
0.1738489379910888
100
AcDbArc
 50
98.53076560994793
 51
187.7294390983635
  0
ARC
  5
13F
330
1E
100
AcDbEntity
  8
IMAGE
100
AcDbCircle
 10
2.688143841696028
 20
5.890342287332401
 30
0.0
 40
0.1738489379910888
100
AcDbArc
 50
278.5307656099478
 51
7.729439098363569
  0
ARC
  5
140
330
1E
100
AcDbEntity
  8
IMAGE
100
AcDbCircle
 10
2.886202057655378
 20
5.741798625362889
 30
0.0
 40
0.1738489379910888
100
AcDbArc
 50
98.53076560994793
 51
187.7294390983635
  0
ARC
  5
141
330
1E
100
AcDbEntity
  8
IMAGE
100
AcDbCircle
 10
3.430311989832585
 20
6.359080065102859
 30
0.0
 40
0.1738489379910888
100
AcDbArc
 50
278.5307656099478
 51
7.729439098363569
  0
ARC
  5
142
330
1E
100
AcDbEntity
  8
IMAGE
100
AcDbCircle
 10
3.628370205791934
 20
6.210536403133347
 30
0.0
 40
0.1738489379910888
100
AcDbArc
 50
98.53076560994793
 51
187.7294390983635
  0
ARC
  5
143
330
1E
100
AcDbEntity
  8
IMAGE
100
AcDbCircle
 10
3.049193305102862
 20
5.999889281974114
 30
0.0
 40
0.1738489379910888
100
AcDbArc
 50
339.7199718669747
 51
68.91864535539045
  0
ARC
  5
144
330
1E
100
AcDbEntity
  8
IMAGE
100
AcDbCircle
 10
3.274797592670868
 20
6.101845065778885
 30
0.0
 40
0.1738489379910888
100
AcDbArc
 50
159.7199718669747
 51
248.9186453553905
  0
ARC
  5
145
330
1E
100
AcDbEntity
  8
IMAGE
100
AcDbCircle
 10
2.951808841691912
 20
6.505560620656126
 30
0.0
 40
0.1738489379910888
100
AcDbArc
 50
278.5307656099478
 51
7.729439098363569
  0
ARC
  5
146
330
1E
100
AcDbEntity
  8
IMAGE
100
AcDbCircle
 10
3.14986705765126
 20
6.357016958686615
 30
0.0
 40
0.1738489379910888
100
AcDbArc
 50
98.53076560994793
 51
187.7294390983635
  0
ARC
  5
147
330
1E
100
AcDbEntity
  8
IMAGE
100
AcDbCircle
 10
1.39513564069794
 20
6.038008737078692
 30
0.0
 40
0.1738489379910888
100
AcDbArc
 50
116.0563205359582
 51
205.2549940243739
  0
ARC
  5
148
330
1E
100
AcDbEntity
  8
IMAGE
100
AcDbCircle
 10
1.161539622392085
 20
6.120015911471937
 30
0.0
 40
0.1738489379910888
100
AcDbArc
 50
296.0563205359582
 51
25.2549940243739
  0
ARC
  5
149
330
1E
100
AcDbEntity
  8
IMAGE
100
AcDbCircle
 10
0.9599519497840063
 20
6.366647330344384
 30
0.0
 40
0.1738489379910888
100
AcDbArc
 50
116.0563205359582
 51
205.2549940243739
  0
ARC
  5
14A
330
1E
100
AcDbEntity
  8
IMAGE
100
AcDbCircle
 10
0.7263559314781514
 20
6.448654504737627
 30
0.0
 40
0.1738489379910888
100
AcDbArc
 50
296.0563205359582
 51
25.2549940243739
  0
ARC
  5
14B
330
1E
100
AcDbEntity
  8
IMAGE
100
AcDbCircle
 10
1.205392472988274
 20
6.355492045697294
 30
0.0
 40
0.1738489379910888
100
AcDbArc
 50
116.0563205359582
 51
205.2549940243739
  0
ARC
  5
14C
330
1E
100
AcDbEntity
  8
IMAGE
100
AcDbCircle
 10
0.9717964546824191
 20
6.437499220090538
 30
0.0
 40
0.1738489379910888
100
AcDbArc
 50
296.0563205359582
 51
25.2549940243739
  0
ARC
  5
14D
330
1E
100
AcDbEntity
  8
IMAGE
100
AcDbCircle
 10
1.176013501736786
 20
6.196263485866685
 30
0.0
 40
0.1738489379910888
100
AcDbArc
 50
116.0563205359582
 51
205.2549940243739
  0
ARC
  5
14E
330
1E
100
AcDbEntity
  8
IMAGE
100
AcDbCircle
 10
0.9424174834309315
 20
6.278270660259929
 30
0.0
 40
0.1738489379910888
100
AcDbArc
 50
296.0563205359582
 51
25.2549940243739
  0
ARC
  5
14F
330
1E
100
AcDbEntity
  8
IMAGE
100
AcDbCircle
 10
1.533101431895705
 20
5.96091026972044
 30
0.0
 40
0.1738489379910888
100
AcDbArc
 50
116.0563205359582
 51
205.2549940243739
  0
ARC
  5
150
330
1E
100
AcDbEntity
  8
IMAGE
100
AcDbCircle
 10
1.299505413589852
 20
6.042917444113684
 30
0.0
 40
0.1738489379910888
100
AcDbArc
 50
296.0563205359582
 51
25.2549940243739
  0
ARC
  5
151
330
1E
100
AcDbEntity
  8
IMAGE
100
AcDbCircle
 10
1.070510249644375
 20
5.855407103861779
 30
0.0
 40
0.1738489379910888
100
AcDbArc
 50
116.0563205359582
 51
205.2549940243739
  0
ARC
  5
152
330
1E
100
AcDbEntity
  8
IMAGE
100
AcDbCircle
 10
0.8369142313385236
 20
5.937414278255022
 30
0.0
 40
0.1738489379910888
100
AcDbArc
 50
296.0563205359582
 51
25.2549940243739
  0
ARC
  5
153
330
1E
100
AcDbEntity
  8
IMAGE
100
AcDbCircle
 10
1.094857153973395
 20
5.684978912859325
 30
0.0
 40
0.1738489379910888
100
AcDbArc
 50
116.0563205359582
 51
205.2549940243739
  0
ARC
  5
154
330
1E
100
AcDbEntity
  8
IMAGE
100
AcDbCircle
 10
0.8612611356675401
 20
5.766986087252568
 30
0.0
 40
0.1738489379910888
100
AcDbArc
 50
296.0563205359582
 51
25.2549940243739
  0
ARC
  5
155
330
1E
100
AcDbEntity
  8
IMAGE
100
AcDbCircle
 10
1.281516753829194
 20
5.863522732004752
 30
0.0
 40
0.1738489379910888
100
AcDbArc
 50
116.0563205359582
 51
205.2549940243739
  0
ARC
  5
156
330
1E
100
AcDbEntity
  8
IMAGE
100
AcDbCircle
 10
1.047920735523339
 20
5.945529906397996
 30
0.0
 40
0.1738489379910888
100
AcDbArc
 50
296.0563205359582
 51
25.2549940243739
  0
ARC
  5
157
330
1E
100
AcDbEntity
  8
IMAGE
100
AcDbCircle
 10
1.575290868204463
 20
5.712939470547062
 30
0.0
 40
0.1738489379910888
100
AcDbArc
 50
143.5307656099477
 51
232.7294390983634
  0
ARC
  5
158
330
1E
100
AcDbEntity
  8
IMAGE
100
AcDbCircle
 10
1.330206329948973
 20
5.677927393653421
 30
0.0
 40
0.1738489379910888
100
AcDbArc
 50
323.5307656099477
 51
52.72943909836341
  0
ARC
  5
159
330
1E
100
AcDbEntity
  8
IMAGE
100
AcDbCircle
 10
1.60380565226921
 20
6.423878745104713
 30
0.0
 40
0.1738489379910888
100
AcDbArc
 50
143.5307656099477
 51
232.7294390983634
  0
ARC
  5
15A
330
1E
100
AcDbEntity
  8
IMAGE
100
AcDbCircle
 10
1.358721114013723
 20
6.388866668211072
 30
0.0
 40
0.1738489379910888
100
AcDbArc
 50
323.5307656099477
 51
52.72943909836341
  0
ARC
  5
15B
330
1E
100
AcDbEntity
  8
IMAGE
100
AcDbCircle
 10
0.9307764237700837
 20
6.093788914985558
 30
0.0
 40
0.1738489379910888
100
AcDbArc
 50
143.5307656099477
 51
232.7294390983634
  0
ARC
  5
15C
330
1E
100
AcDbEntity
  8
IMAGE
100
AcDbCircle
 10
0.6856918855145953
 20
6.058776838091918
 30
0.0
 40
0.1738489379910888
100
AcDbArc
 50
323.5307656099477
 51
52.72943909836341
  0
ARC
  5
15D
330
1E
100
AcDbEntity
  8
IMAGE
100
AcDbCircle
 10
1.087022349693569
 20
6.230504100168608
 30
0.0
 40
0.1738489379910888
100
AcDbArc
 50
143.5307656099477
 51
232.7294390983634
  0
ARC
  5
15E
330
1E
100
AcDbEntity
  8
IMAGE
100
AcDbCircle
 10
0.8419378114380808
 20
6.195492023274968
 30
0.0
 40
0.1738489379910888
100
AcDbArc
 50
323.5307656099477
 51
52.72943909836341
  0
ARC
  5
15F
330
1E
100
AcDbEntity
  8
IMAGE
100
AcDbCircle
 10
1.438575683021412
 20
6.376984655721876
 30
0.0
 40
0.1738489379910888
100
AcDbArc
 50
143.5307656099477
 51
232.7294390983634
  0
ARC
  5
160
330
1E
100
AcDbEntity
  8
IMAGE
100
AcDbCircle
 10
1.193491144765923
 20
6.341972578828236
 30
0.0
 40
0.1738489379910888
100
AcDbArc
 50
323.5307656099477
 51
52.72943909836341
  0
ARC
  5
161
330
1E
100
AcDbEntity
  8
IMAGE
100
AcDbCircle
 10
1.389748831170322
 20
6.279330952019697
 30
0.0
 40
0.1738489379910888
100
AcDbArc
 50
143.5307656099477
 51
232.7294390983634
  0
ARC
  5
162
330
1E
100
AcDbEntity
  8
IMAGE
100
AcDbCircle
 10
1.144664292914832
 20
6.244318875126057
 30
0.0
 40
0.1738489379910888
100
AcDbArc
 50
323.5307656099477
 51
52.72943909836341
  0
ARC
  5
163
330
1E
100
AcDbEntity
  8
IMAGE
100
AcDbCircle
 10
1.311625868208578
 20
6.103554285355776
 30
0.0
 40
0.1738489379910888
100
AcDbArc
 50
143.5307656099477
 51
232.7294390983634
  0
ARC
  5
164
330
1E
100
AcDbEntity
  8
IMAGE
100
AcDbCircle
 10
1.066541329953091
 20
6.068542208462136
 30
0.0
 40
0.1738489379910888
100
AcDbArc
 50
323.5307656099477
 51
52.72943909836341
  0
ARC
  5
165
330
1E
100
AcDbEntity
  8
IMAGE
100
AcDbCircle
 10
1.17491068302553
 20
5.859420026100329
 30
0.0
 40
0.1738489379910888
100
AcDbArc
 50
143.5307656099477
 51
232.7294390983634
  0
ARC
  5
166
330
1E
100
AcDbEntity
  8
IMAGE
100
AcDbCircle
 10
0.9298261447700415
 20
5.82440794920669
 30
0.0
 40
0.1738489379910888
100
AcDbArc
 50
323.5307656099477
 51
52.72943909836341
  0
ARC
  5
167
330
1E
100
AcDbEntity
  8
IMAGE
100
AcDbCircle
 10
0.9698379052509551
 20
5.703174100176843
 30
0.0
 40
0.1738489379910888
100
AcDbArc
 50
143.5307656099477
 51
232.7294390983634
  0
ARC
  5
168
330
1E
100
AcDbEntity
  8
IMAGE
100
AcDbCircle
 10
0.7247533669954649
 20
5.668162023283203
 30
0.0
 40
0.1738489379910888
100
AcDbArc
 50
323.5307656099477
 51
52.72943909836341
  0
ARC
  5
169
330
1E
100
AcDbEntity
  8
IMAGE
100
AcDbCircle
 10
1.292095127468142
 20
5.683643359436407
 30
0.0
 40
0.1738489379910888
100
AcDbArc
 50
143.5307656099477
 51
232.7294390983634
  0
ARC
  5
16A
330
1E
100
AcDbEntity
  8
IMAGE
100
AcDbCircle
 10
1.047010589212655
 20
5.648631282542768
 30
0.0
 40
0.1738489379910888
100
AcDbArc
 50
323.5307656099477
 51
52.72943909836341
  0
ARC
  5
16B
330
1E
100
AcDbEntity
  8
IMAGE
100
AcDbCircle
 10
1.467871794132065
 20
5.742235581657715
 30
0.0
 40
0.1738489379910888
100
AcDbArc
 50
143.5307656099477
 51
232.7294390983634
  0
ARC
  5
16C
330
1E
100
AcDbEntity
  8
IMAGE
100
AcDbCircle
 10
1.222787255876577
 20
5.707223504764074
 30
0.0
 40
0.1738489379910888
100
AcDbArc
 50
323.5307656099477
 51
52.72943909836341
  0
ARC
  5
16D
330
1E
100
AcDbEntity
  8
IMAGE
100
AcDbCircle
 10
1.624117720055551
 20
6.093788914985558
 30
0.0
 40
0.1738489379910888
100
AcDbArc
 50
143.5307656099477
 51
232.7294390983634
  0
ARC
  5
16E
330
1E
100
AcDbEntity
  8
IMAGE
100
AcDbCircle
 10
1.379033181800062
 20
6.058776838091918
 30
0.0
 40
0.1738489379910888
100
AcDbArc
 50
323.5307656099477
 51
52.72943909836341
  0
ARC
  5
16F
330
1E
100
AcDbEntity
  8
IMAGE
100
AcDbCircle
 10
1.331156608949017
 20
6.406280766832529
 30
0.0
 40
0.1738489379910888
100
AcDbArc
 50
143.5307656099477
 51
232.7294390983634
  0
ARC
  5
170
330
1E
100
AcDbEntity
  8
IMAGE
100
AcDbCircle
 10
1.086072070693527
 20
6.371268689938889
 30
0.0
 40
0.1738489379910888
100
AcDbArc
 50
323.5307656099477
 51
52.72943909836341
  0
ARC
  5
171
330
1E
100
AcDbEntity
  8
IMAGE
100
AcDbCircle
 10
1.616685914474373
 20
5.916303028744746
 30
0.0
 40
0.1738489379910888
100
AcDbArc
 50
159.7199718669747
 51
248.9186453553905
  0
ARC
  5
172
330
1E
100
AcDbEntity
  8
IMAGE
100
AcDbCircle
 10
1.391081626906368
 20
5.814347244939975
 30
0.0
 40
0.1738489379910888
100
AcDbArc
 50
339.7199718669747
 51
68.91864535539045
  0
ARC
  5
173
330
1E
100
AcDbEntity
  8
IMAGE
100
AcDbCircle
 10
1.45067461818067
 20
6.17020265837041
 30
0.0
 40
0.1738489379910888
100
AcDbArc
 50
159.7199718669747
 51
248.9186453553905
  0
ARC
  5
174
330
1E
100
AcDbEntity
  8
IMAGE
100
AcDbCircle
 10
1.225070330612664
 20
6.068246874565639
 30
0.0
 40
0.1738489379910888
100
AcDbArc
 50
339.7199718669747
 51
68.91864535539045
  0
ARC
  5
175
330
1E
100
AcDbEntity
  8
IMAGE
100
AcDbCircle
 10
1.050294433001738
 20
6.111610436149103
 30
0.0
 40
0.1738489379910888
100
AcDbArc
 50
159.7199718669747
 51
248.9186453553905
  0
ARC
  5
176
330
1E
100
AcDbEntity
  8
IMAGE
100
AcDbCircle
 10
0.8246901454337329
 20
6.009654652344332
 30
0.0
 40
0.1738489379910888
100
AcDbArc
 50
339.7199718669747
 51
68.91864535539045
  0
ARC
  5
177
330
1E
100
AcDbEntity
  8
IMAGE
100
AcDbCircle
 10
0.9819368404102135
 20
5.945599139855399
 30
0.0
 40
0.1738489379910888
100
AcDbArc
 50
159.7199718669747
 51
248.9186453553905
  0
ARC
  5
178
330
1E
100
AcDbEntity
  8
IMAGE
100
AcDbCircle
 10
0.7563325528422081
 20
5.843643356050628
 30
0.0
 40
0.1738489379910888
100
AcDbArc
 50
339.7199718669747
 51
68.91864535539045
  0
ARC
  5
179
330
1E
100
AcDbEntity
  8
IMAGE
100
AcDbCircle
 10
1.050294433001738
 20
6.404571547255638
 30
0.0
 40
0.1738489379910888
100
AcDbArc
 50
159.7199718669747
 51
248.9186453553905
  0
ARC
  5
17A
330
1E
100
AcDbEntity
  8
IMAGE
100
AcDbCircle
 10
0.8246901454337329
 20
6.302615763450869
 30
0.0
 40
0.1738489379910888
100
AcDbArc
 50
339.7199718669747
 51
68.91864535539045
  0
ARC
  5
17B
330
1E
100
AcDbEntity
  8
IMAGE
100
AcDbCircle
 10
1.226071099665659
 20
6.345979325034331
 30
0.0
 40
0.1738489379910888
100
AcDbArc
 50
159.7199718669747
 51
248.9186453553905
  0
ARC
  5
17C
330
1E
100
AcDbEntity
  8
IMAGE
100
AcDbCircle
 10
1.000466812097654
 20
6.244023541229561
 30
0.0
 40
0.1738489379910888
100
AcDbArc
 50
339.7199718669747
 51
68.91864535539045
  0
ARC
  5
17D
330
1E
100
AcDbEntity
  8
IMAGE
100
AcDbCircle
 10
1.558093692253066
 20
6.385040806515203
 30
0.0
 40
0.1738489379910888
100
AcDbArc
 50
159.7199718669747
 51
248.9186453553905
  0
ARC
  5
17E
330
1E
100
AcDbEntity
  8
IMAGE
100
AcDbCircle
 10
1.332489404685063
 20
6.283085022710432
 30
0.0
 40
0.1738489379910888
100
AcDbArc
 50
339.7199718669747
 51
68.91864535539045
  0
ARC
  5
17F
330
1E
100
AcDbEntity
  8
IMAGE
100
AcDbCircle
 10
1.372551655218927
 20
5.877241547263873
 30
0.0
 40
0.1738489379910888
100
AcDbArc
 50
159.7199718669747
 51
248.9186453553905
  0
ARC
  5
180
330
1E
100
AcDbEntity
  8
IMAGE
100
AcDbCircle
 10
1.146947367650922
 20
5.775285763459103
 30
0.0
 40
0.1738489379910888
100
AcDbArc
 50
339.7199718669747
 51
68.91864535539045
  0
ARC
  5
181
330
1E
100
AcDbEntity
  8
IMAGE
100
AcDbCircle
 10
1.431143877440234
 20
5.955364510225617
 30
0.0
 40
0.1738489379910888
100
AcDbArc
 50
159.7199718669747
 51
248.9186453553905
  0
ARC
  5
182
330
1E
100
AcDbEntity
  8
IMAGE
100
AcDbCircle
 10
1.205539589872229
 20
5.853408726420846
 30
0.0
 40
0.1738489379910888
100
AcDbArc
 50
339.7199718669747
 51
68.91864535539045
  0
ARC
  5
183
330
1E
100
AcDbEntity
  8
IMAGE
100
AcDbCircle
 10
0.9233446181889046
 20
6.336213954664114
 30
0.0
 40
0.1738489379910888
100
AcDbArc
 50
159.7199718669747
 51
248.9186453553905
  0
ARC
  5
184
330
1E
100
AcDbEntity
  8
IMAGE
100
AcDbCircle
 10
0.6977403306209009
 20
6.234258170859343
 30
0.0
 40
0.1738489379910888
100
AcDbArc
 50
339.7199718669747
 51
68.91864535539045
  0
ARC
  5
185
330
1E
100
AcDbEntity
  8
IMAGE
100
AcDbCircle
 10
0.9909706820186627
 20
5.753627102149351
 30
0.0
 40
0.1738489379910888
100
AcDbArc
 50
278.5307656099478
 51
7.729439098363569
  0
ARC
  5
186
330
1E
100
AcDbEntity
  8
IMAGE
100
AcDbCircle
 10
1.189028897978012
 20
5.605083440179839
 30
0.0
 40
0.1738489379910888
100
AcDbArc
 50
98.53076560994793
 51
187.7294390983635
  0
ARC
  5
187
330
1E
100
AcDbEntity
  8
IMAGE
100
AcDbCircle
 10
1.352289385716723
 20
6.359080065102859
 30
0.0
 40
0.1738489379910888
100
AcDbArc
 50
278.5307656099478
 51
7.729439098363569
  0
ARC
  5
188
330
1E
100
AcDbEntity
  8
IMAGE
100
AcDbCircle
 10
1.550347601676072
 20
6.210536403133347
 30
0.0
 40
0.1738489379910888
100
AcDbArc
 50
98.53076560994793
 51
187.7294390983635
  0
ARC
  5
189
330
1E
100
AcDbEntity
  8
IMAGE
100
AcDbCircle
 10
0.9711707009870007
 20
5.999889281974114
 30
0.0
 40
0.1738489379910888
100
AcDbArc
 50
339.7199718669747
 51
68.91864535539045
  0
ARC
  5
18A
330
1E
100
AcDbEntity
  8
IMAGE
100
AcDbCircle
 10
1.196774988555004
 20
6.101845065778885
 30
0.0
 40
0.1738489379910888
100
AcDbArc
 50
159.7199718669747
 51
248.9186453553905
  0
ARC
  5
18B
330
1E
100
AcDbEntity
  8
IMAGE
100
AcDbCircle
 10
0.8737862375760485
 20
6.505560620656126
 30
0.0
 40
0.1738489379910888
100
AcDbArc
 50
278.5307656099478
 51
7.729439098363569
  0
ARC
  5
18C
330
1E
100
AcDbEntity
  8
IMAGE
100
AcDbCircle
 10
1.071844453535396
 20
6.357016958686615
 30
0.0
 40
0.1738489379910888
100
AcDbArc
 50
98.53076560994793
 51
187.7294390983635
  0
LINE
  5
18D
330
1E
100
AcDbEntity
  8
IMAGE
100
AcDbLine
 10
2.24628627697801
 20
5.560344615240514
 30
0.0
 11
3.803450916307572
 21
5.560344615240514
 31
0.0
  0
TEXT
  5
1A8
330
1E
100
AcDbEntity
  8
TEXT_LEADERS
100
AcDbText
 10
5.01099773167159
 20
3.234005980476125
 30
0.0
 40
0.125
  1
1/2-INCH MALE NPT
  7
SIMPLEX
100
AcDbText
  0
TEXT
  5
1A9
330
1E
100
AcDbEntity
  8
TEXT_LEADERS
100
AcDbText
 10
5.01099773167159
 20
2.858823771461125
 30
0.0
 40
0.125
  1
  RAIN BIRD MODEL SBE-050
  7
SIMPLEX
100
AcDbText
  0
TEXT
  5
1AA
330
1E
100
AcDbEntity
  8
TEXT_LEADERS
100
AcDbText
 10
5.01099773167159
 20
2.538081774196725
 30
0.0
 40
0.125
  1
PVC SCH 40 TEE OR ELL
  7
SIMPLEX
100
AcDbText
  0
TEXT
  5
1AB
330
1E
100
AcDbEntity
  8
TEXT_LEADERS
100
AcDbText
 10
5.01099773167159
 20
7.271840780859863
 30
0.0
 40
0.125
  1
  FULL CIRCLE BUBBLER:
  7
SIMPLEX
100
AcDbText
  0
TEXT
  5
1AC
330
1E
100
AcDbEntity
  8
TEXT_LEADERS
100
AcDbText
 10
5.01099773167159
 20
7.453620909338864
 30
0.0
 40
0.125
  1
PRESSURE COMPENSATING
  7
SIMPLEX
100
AcDbText
  0
TEXT
  5
1AD
330
1E
100
AcDbEntity
  8
TEXT_LEADERS
100
AcDbText
 10
5.01099773167159
 20
7.090060652380863
 30
0.0
 40
0.125
  1
  RAIN BIRD 1400
  7
SIMPLEX
100
AcDbText
  0
TEXT
  5
1AE
330
1E
100
AcDbEntity
  8
TEXT_BUBBLES
100
AcDbText
 10
5.6613500530622
 20
7.175674080557119
 30
0.0
 40
0.125
  1
  RAIN BIRD 1400
  7
SIMPLEX
100
AcDbText
  0
TEXT
  5
1AF
330
1E
100
AcDbEntity
  8
TEXT_BUBBLES
100
AcDbText
 10
5.6613500530622
 20
7.539234337515121
 30
0.0
 40
0.125
  1
PRESSURE COMPENSATING
  7
SIMPLEX
100
AcDbText
  0
TEXT
  5
1B0
330
1E
100
AcDbEntity
  8
TEXT_BUBBLES
100
AcDbText
 10
5.6613500530622
 20
7.35745420903612
 30
0.0
 40
0.125
  1
  FULL-CIRCLE BUBBLER:
  7
SIMPLEX
100
AcDbText
  0
TEXT
  5
1B1
330
1E
100
AcDbEntity
  8
TEXT_BUBBLES
100
AcDbText
 10
5.6613500530622
 20
3.715185933992909
 30
0.0
 40
0.125
  1
PVC SCH 40 TEE OR ELL
  7
SIMPLEX
100
AcDbText
  0
TEXT
  5
1B2
330
1E
100
AcDbEntity
  8
TEXT_BUBBLES
100
AcDbText
 10
5.6613500530622
 20
4.94460739242252
 30
0.0
 40
0.125
  1
  RAIN BIRD MODEL SBE-050
  7
SIMPLEX
100
AcDbText
  0
TEXT
  5
1B3
330
1E
100
AcDbEntity
  8
TEXT_BUBBLES
100
AcDbText
 10
5.6613500530622
 20
5.319789601437521
 30
0.0
 40
0.125
  1
1/2-INCH MALE NPT
  7
SIMPLEX
100
AcDbText
  0
TEXT
  5
1B4
330
1E
100
AcDbEntity
  8
TEXT_BUBBLES
100
AcDbText
 10
5.6613500530622
 20
6.455522490370189
 30
0.0
 40
0.125
  1
PLANT MATERIAL
  7
SIMPLEX
100
AcDbText
  0
TEXT
  5
1B5
330
1E
100
AcDbEntity
  8
TEXT_BUBBLES
100
AcDbText
 10
5.6613500530622
 20
5.13219968902352
 30
0.0
 40
0.125
  1
  x .490-INCH BARB ELBOW:
  7
SIMPLEX
100
AcDbText
  0
TEXT
  5
1B6
330
1E
100
AcDbEntity
  8
TEXT_BUBBLES
100
AcDbText
 10
5.6613500530622
 20
4.4097677858396
 30
0.0
 40
0.125
  1
  RAIN BIRD MODEL SP-100
  7
SIMPLEX
100
AcDbText
  0
TEXT
  5
1B7
330
1E
100
AcDbEntity
  8
TEXT_BUBBLES
100
AcDbText
 10
5.6613500530622
 20
4.6273576982536
 30
0.0
 40
0.125
  1
SWING PIPE, 12-INCH LENGTH:
  7
SIMPLEX
100
AcDbText
  0
TEXT
  5
1B8
330
1E
100
AcDbEntity
  8
TEXT_BUBBLES
100
AcDbText
 10
5.6613500530622
 20
4.095299934021053
 30
0.0
 40
0.125
  1
PVC LATERAL PIPE
  7
SIMPLEX
100
AcDbText
  0
TEXT
  5
1B9
330
1E
100
AcDbEntity
  8
TEXT_BUBBLES
100
AcDbText
 10
5.6613500530622
 20
6.075408490342046
 30
0.0
 40
0.125
  1
FINISH GRADE/TOP OF MULCH
  7
SIMPLEX
100
AcDbText
  0
TEXT
  5
1BA
330
1E
100
AcDbEntity
  8
TEXT_BUBBLES
100
AcDbText
 10
12.485117467021
 20
5.934757240355271
 30
0.0
 40
0.10000000149
  1

  7
ROMANS
100
AcDbText
  0
TEXT
  5
1BB
330
1E
100
AcDbEntity
  8
TEXT_BUBBLES
100
AcDbText
 10
12.485117467021
 20
3.760695465148272
 30
0.0
 40
0.10000000149
  1

  7
ROMANS
100
AcDbText
  0
TEXT
  5
1BC
330
1E
100
AcDbEntity
  8
TEXT_BUBBLES
100
AcDbText
 10
12.485117467021
 20
5.624176986754271
 30
0.0
 40
0.10000000149
  1

  7
ROMANS
100
AcDbText
  0
TEXT
  5
1BD
330
1E
100
AcDbEntity
  8
TEXT_BUBBLES
100
AcDbText
 10
24.79985400796626
 20
1.439569790948717
 30
0.0
 40
0.10000000149
  1

  7
ROMANS
100
AcDbText
  0
TEXT
  5
1BE
330
1E
100
AcDbEntity
  8
TEXT_BUBBLES
100
AcDbText
 10
24.79985400796626
 20
0.973670800317717
 30
0.0
 40
0.10000000149
  1

  7
ROMANS
100
AcDbText
  0
TEXT
  5
1BF
330
1E
100
AcDbEntity
  8
TEXT_BUBBLES
100
AcDbText
 10
24.79985400796626
 20
1.128970463861717
 30
0.0
 40
0.10000000149
  1

  7
ROMANS
100
AcDbText
  0
TEXT
  5
1C0
330
1E
100
AcDbEntity
  8
TEXT_BUBBLES
100
AcDbText
 10
24.79985400796626
 20
1.750169118036717
 30
0.0
 40
0.10000000149
  1

  7
ROMANS
100
AcDbText
  0
TEXT
  5
1C1
330
1E
100
AcDbEntity
  8
TEXT_BUBBLES
100
AcDbText
 10
24.79985400796626
 20
2.526667435754716
 30
0.0
 40
0.10000000149
  1

  7
ROMANS
100
AcDbText
  0
TEXT
  5
1C2
330
1E
100
AcDbEntity
  8
TEXT_BUBBLES
100
AcDbText
 10
24.79985400796626
 20
2.992566426385717
 30
0.0
 40
0.10000000149
  1

  7
ROMANS
100
AcDbText
  0
TEXT
  5
1C3
330
1E
100
AcDbEntity
  8
TEXT_BUBBLES
100
AcDbText
 10
24.79985400796626
 20
2.837266762842716
 30
0.0
 40
0.10000000149
  1

  7
ROMANS
100
AcDbText
  0
TEXT
  5
1C4
330
1E
100
AcDbEntity
  8
TEXT_BUBBLES
100
AcDbText
 10
12.485117467021
 20
3.139534957945271
 30
0.0
 40
0.10000000149
  1

  7
ROMANS
100
AcDbText
  0
TEXT
  5
1C5
330
1E
100
AcDbEntity
  8
TEXT_BUBBLES
100
AcDbText
 10
24.79985400796626
 20
2.216068108667716
 30
0.0
 40
0.10000000149
  1

  7
ROMANS
100
AcDbText
  0
TEXT
  5
1C6
330
1E
100
AcDbEntity
  8
TEXT_BUBBLES
100
AcDbText
 10
24.79985400796626
 20
2.060768445123716
 30
0.0
 40
0.10000000149
  1

  7
ROMANS
100
AcDbText
  0
TEXT
  5
1C7
330
1E
100
AcDbEntity
  8
TEXT_BUBBLES
100
AcDbText
 10
12.485117467021
 20
4.847726352751271
 30
0.0
 40
0.10000000149
  1

  7
ROMANS
100
AcDbText
  0
TEXT
  5
1C8
330
1E
100
AcDbEntity
  8
TEXT_BUBBLES
100
AcDbText
 10
12.485117467021
 20
6.400627620757271
 30
0.0
 40
0.10000000149
  1

  7
ROMANS
100
AcDbText
  0
TEXT
  5
1C9
330
1E
100
AcDbEntity
  8
TEXT_BUBBLES
100
AcDbText
 10
12.485117467021
 20
5.158306606352272
 30
0.0
 40
0.10000000149
  1

  7
ROMANS
100
AcDbText
  0
TEXT
  5
1CA
330
1E
100
AcDbEntity
  8
TEXT_BUBBLES
100
AcDbText
 10
12.485117467021
 20
4.071275718749271
 30
0.0
 40
0.10000000149
  1

  7
ROMANS
100
AcDbText
  0
TEXT
  5
1CB
330
1E
100
AcDbEntity
  8
TEXT_BUBBLES
100
AcDbText
 10
12.485117467021
 20
3.450115211547271
 30
0.0
 40
0.10000000149
  1

  7
ROMANS
100
AcDbText
  0
CIRCLE
  5
1CC
330
1E
100
AcDbEntity
  8
TEXT_BUBBLES
100
AcDbCircle
 10
5.34790619284682
 20
7.582969122055383
 30
0.0
 40
0.15625
  0
TEXT
  5
1CD
330
1E
100
AcDbEntity
  8
TEXT_BUBBLES
100
AcDbText
 10
5.297310954751582
 20
7.520469122055383
 30
0.0
 40
0.125
  1
1
  7
ROMANS
 72
     4
 11
5.34790619284682
 21
7.582969122055383
 31
0.0
100
AcDbText
  0
TEXT
  5
1CE
330
1E
100
AcDbEntity
  8
TEXT_BUBBLES
100
AcDbText
 10
5.288382383323011
 20
6.902140760683453
 30
0.0
 40
0.125
  1
2
  7
ROMANS
 72
     4
 11
5.34790619284682
 21
6.964640760683453
 31
0.0
100
AcDbText
  0
CIRCLE
  5
1CF
330
1E
100
AcDbEntity
  8
TEXT_BUBBLES
100
AcDbCircle
 10
5.34790619284682
 20
6.964640760683453
 30
0.0
 40
0.15625
  0
TEXT
  5
1D0
330
1E
100
AcDbEntity
  8
TEXT_BUBBLES
100
AcDbText
 10
5.288382383323011
 20
6.462197101320695
 30
0.0
 40
0.125
  1
3
  7
ROMANS
 72
     4
 11
5.34790619284682
 21
6.524697101320695
 31
0.0
100
AcDbText
  0
CIRCLE
  5
1D1
330
1E
100
AcDbEntity
  8
TEXT_BUBBLES
100
AcDbCircle
 10
5.34790619284682
 20
6.524697101320695
 30
0.0
 40
0.15625
  0
TEXT
  5
1D2
330
1E
100
AcDbEntity
  8
TEXT_BUBBLES
100
AcDbText
 10
5.28540619284682
 20
6.101073323539791
 30
0.0
 40
0.125
  1
4
  7
ROMANS
 72
     4
 11
5.34790619284682
 21
6.163573323539791
 31
0.0
100
AcDbText
  0
CIRCLE
  5
1D3
330
1E
100
AcDbEntity
  8
TEXT_BUBBLES
100
AcDbCircle
 10
5.34790619284682
 20
6.163573323539791
 30
0.0
 40
0.15625
  0
TEXT
  5
1D4
330
1E
100
AcDbEntity
  8
TEXT_BUBBLES
100
AcDbText
 10
5.288382383323011
 20
5.734387656868435
 30
0.0
 40
0.125
  1
5
  7
ROMANS
 72
     4
 11
5.34790619284682
 21
5.796887656868435
 31
0.0
100
AcDbText
  0
CIRCLE
  5
1D5
330
1E
100
AcDbEntity
  8
TEXT_BUBBLES
100
AcDbCircle
 10
5.34790619284682
 20
5.796887656868435
 30
0.0
 40
0.15625
  0
TEXT
  5
1D6
330
1E
100
AcDbEntity
  8
TEXT_BUBBLES
100
AcDbText
 10
5.28540619284682
 20
5.337311101348841
 30
0.0
 40
0.125
  1
6
  7
ROMANS
 72
     4
 11
5.34790619284682
 21
5.399811101348841
 31
0.0
100
AcDbText
  0
CIRCLE
  5
1D7
330
1E
100
AcDbEntity
  8
TEXT_BUBBLES
100
AcDbCircle
 10
5.34790619284682
 20
5.399811101348841
 30
0.0
 40
0.15625
  0
TEXT
  5
1D8
330
1E
100
AcDbEntity
  8
TEXT_BUBBLES
100
AcDbText
 10
5.288382383323011
 20
4.095917239381778
 30
0.0
 40
0.125
  1
8
  7
ROMANS
 72
     4
 11
5.34790619284682
 21
4.158417239381778
 31
0.0
100
AcDbText
  0
CIRCLE
  5
1D9
330
1E
100
AcDbEntity
  8
TEXT_BUBBLES
100
AcDbCircle
 10
5.34790619284682
 20
4.158417239381778
 30
0.0
 40
0.15625
  0
TEXT
  5
1DA
330
1E
100
AcDbEntity
  8
TEXT_BUBBLES
100
AcDbText
 10
5.291358573799201
 20
3.718107794929516
 30
0.0
 40
0.125
  1
9
  7
ROMANS
 72
     4
 11
5.34790619284682
 21
3.780607794929516
 31
0.0
100
AcDbText
  0
CIRCLE
  5
1DB
330
1E
100
AcDbEntity
  8
TEXT_BUBBLES
100
AcDbCircle
 10
5.34790619284682
 20
3.780607794929516
 30
0.0
 40
0.15625
  0
TEXT
  5
1DC
330
1E
100
AcDbEntity
  8
TEXT_BUBBLES
100
AcDbText
 10
5.288382383323011
 20
4.621942222411153
 30
0.0
 40
0.125
  1
7
  7
ROMANS
 72
     4
 11
5.34790619284682
 21
4.684442222411153
 31
0.0
100
AcDbText
  0
CIRCLE
  5
1DD
330
1E
100
AcDbEntity
  8
TEXT_BUBBLES
100
AcDbCircle
 10
5.34790619284682
 20
4.684442222411153
 30
0.0
 40
0.15625
  0
CIRCLE
  5
1DF
330
1E
100
AcDbEntity
  8
TEXT_BUBBLES
100
AcDbCircle
 10
4.363562529526937
 20
7.373176264940965
 30
0.0
 40
0.15625
  0
TEXT
  5
1E0
330
1E
100
AcDbEntity
  8
TEXT_BUBBLES
100
AcDbText
 10
4.304038720003128
 20
6.324339580356782
 30
0.0
 40
0.125
  1
3
  7
ROMANS
 72
     4
 11
4.363562529526937
 21
6.386839580356782
 31
0.0
100
AcDbText
  0
CIRCLE
  5
1E1
330
1E
100
AcDbEntity
  8
TEXT_BUBBLES
100
AcDbCircle
 10
4.363562529526937
 20
6.386839580356782
 30
0.0
 40
0.15625
  0
CIRCLE
  5
1E2
330
1E
100
AcDbEntity
  8
TEXT_BUBBLES
100
AcDbCircle
 10
4.363562529526937
 20
5.766665122861619
 30
0.0
 40
0.15625
  0
TEXT
  5
1E3
330
1E
100
AcDbEntity
  8
TEXT_BUBBLES
100
AcDbText
 10
4.301062529526937
 20
5.704165122861619
 30
0.0
 40
0.125
  1
4
  7
ROMANS
 72
     4
 11
4.363562529526937
 21
5.766665122861619
 31
0.0
100
AcDbText
  0
TEXT
  5
1E4
330
1E
100
AcDbEntity
  8
TEXT_BUBBLES
100
AcDbText
 10
4.304038720003128
 20
5.098210140835051
 30
0.0
 40
0.125
  1
5
  7
ROMANS
 72
     4
 11
4.363562529526937
 21
5.160710140835051
 31
0.0
100
AcDbText
  0
CIRCLE
  5
1E5
330
1E
100
AcDbEntity
  8
TEXT_BUBBLES
100
AcDbCircle
 10
4.363562529526937
 20
5.160710140835051
 30
0.0
 40
0.15625
  0
TEXT
  5
1E6
330
1E
100
AcDbEntity
  8
TEXT_BUBBLES
100
AcDbText
 10
4.301062529526937
 20
4.147084654017564
 30
0.0
 40
0.125
  1
6
  7
ROMANS
 72
     4
 11
4.363562529526937
 21
4.209584654017564
 31
0.0
100
AcDbText
  0
CIRCLE
  5
1E7
330
1E
100
AcDbEntity
  8
TEXT_BUBBLES
100
AcDbCircle
 10
4.363562529526937
 20
4.209584654017564
 30
0.0
 40
0.15625
  0
CIRCLE
  5
1E9
330
1E
100
AcDbEntity
  8
TEXT_BUBBLES
100
AcDbCircle
 10
4.364648038292367
 20
3.60709564809527
 30
0.0
 40
0.15625
  0
CIRCLE
  5
1FA
330
1E
100
AcDbEntity
  8
TEXT_BUBBLES
100
AcDbCircle
 10
3.078766191902916
 20
2.291222075425696
 30
0.0
 40
0.15625
  0
TEXT
  5
1FB
330
1E
100
AcDbEntity
  8
TEXT_BUBBLES
100
AcDbText
 10
3.019242382379106
 20
2.228722075425696
 30
0.0
 40
0.125
  1
8
  7
ROMANS
 72
     4
 11
3.078766191902916
 21
2.291222075425696
 31
0.0
100
AcDbText
  0
TEXT
  5
1FC
330
1E
100
AcDbEntity
  8
TEXT_BUBBLES
100
AcDbText
 10
3.904639527506319
 20
2.228722075425696
 30
0.0
 40
0.125
  1
6
  7
ROMANS
 72
     4
 11
3.967139527506319
 21
2.291222075425696
 31
0.0
100
AcDbText
  0
CIRCLE
  5
1FD
330
1E
100
AcDbEntity
  8
TEXT_BUBBLES
100
AcDbCircle
 10
3.967139527506319
 20
2.291222075425696
 30
0.0
 40
0.15625
  0
TEXT
  5
1FE
330
1E
100
AcDbEntity
  8
TEXT_BUBBLES
100
AcDbText
 10
4.361809295756915
 20
2.228722075425696
 30
0.0
 40
0.125
  1
9
  7
ROMANS
 72
     4
 11
4.418356914804533
 21
2.291222075425696
 31
0.0
100
AcDbText
  0
CIRCLE
  5
1FF
330
1E
100
AcDbEntity
  8
TEXT_BUBBLES
100
AcDbCircle
 10
4.418356914804533
 20
2.291222075425696
 30
0.0
 40
0.15625
  0
LINE
  5
201
330
1E
100
AcDbEntity
  8
IMAGE
100
AcDbLine
 10
2.464882468248863
 20
5.513870986025861
 30
0.0
 11
2.464882468248863
 21
5.379965858486708
 31
0.0
  0
LINE
  5
202
330
1E
100
AcDbEntity
  8
IMAGE
100
AcDbLine
 10
2.42640954520943
 20
5.513870986025861
 30
0.0
 11
2.42640954520943
 21
5.379965858486708
 31
0.0
  0
LINE
  5
203
330
1E
100
AcDbEntity
  8
IMAGE
100
AcDbLine
 10
2.254282328039014
 20
5.513870986025861
 30
0.0
 11
2.254282328039014
 21
5.379965858486708
 31
0.0
  0
LINE
  5
204
330
1E
100
AcDbEntity
  8
IMAGE
100
AcDbLine
 10
2.217101317329492
 20
5.513870986025861
 30
0.0
 11
2.217101317329492
 21
5.379965858486708
 31
0.0
  0
LINE
  5
205
330
1E
100
AcDbEntity
  8
IMAGE
100
AcDbLine
 10
2.132158009700159
 20
5.379965858486708
 30
0.0
 11
2.544135794759096
 21
5.379965858486708
 31
0.0
  0
LINE
  5
206
330
1E
100
AcDbEntity
  8
IMAGE
100
AcDbLine
 10
2.059082021814017
 20
5.513870986025861
 30
0.0
 11
2.617211782645233
 21
5.513870986025861
 31
0.0
  0
LINE
  5
207
330
1E
100
AcDbEntity
  8
IMAGE
100
AcDbLine
 10
2.544135794759096
 20
5.379965858486708
 30
0.0
 11
2.617211782645233
 21
5.379965858486708
 31
0.0
  0
LINE
  5
208
330
1E
100
AcDbEntity
  8
IMAGE
100
AcDbLine
 10
2.617211782645233
 20
5.379965858486708
 30
0.0
 11
2.617211782645233
 21
5.513870986025861
 31
0.0
  0
LINE
  5
209
330
1E
100
AcDbEntity
  8
IMAGE
100
AcDbLine
 10
2.617211782645233
 20
5.513870986025861
 30
0.0
 11
2.691573804064281
 21
5.513870986025861
 31
0.0
  0
LINE
  5
20A
330
1E
100
AcDbEntity
  8
IMAGE
100
AcDbLine
 10
2.691573804064281
 20
5.513870986025861
 30
0.0
 11
2.691573804064281
 21
5.560374660443286
 31
0.0
  0
LINE
  5
20B
330
1E
100
AcDbEntity
  8
IMAGE
100
AcDbLine
 10
2.691573804064281
 20
5.513870986025851
 30
0.0
 11
2.617211782645233
 21
5.379965858486708
 31
0.0
  0
LINE
  5
20C
330
1E
100
AcDbEntity
  8
IMAGE
100
AcDbLine
 10
1.98472000039497
 20
5.513870986025851
 30
0.0
 11
2.059082021814017
 21
5.379965858486708
 31
0.0
  0
LINE
  5
20D
330
1E
100
AcDbEntity
  8
IMAGE
100
AcDbLine
 10
1.984720000394972
 20
5.513870986025861
 30
0.0
 11
1.984720000394972
 21
5.560374660443286
 31
0.0
  0
LINE
  5
20E
330
1E
100
AcDbEntity
  8
IMAGE
100
AcDbLine
 10
2.059082021814017
 20
5.513870986025861
 30
0.0
 11
1.984720000394972
 21
5.513870986025861
 31
0.0
  0
LINE
  5
20F
330
1E
100
AcDbEntity
  8
IMAGE
100
AcDbLine
 10
2.059082021814017
 20
5.379965858486708
 30
0.0
 11
2.059082021814017
 21
5.513870986025861
 31
0.0
  0
LINE
  5
210
330
1E
100
AcDbEntity
  8
IMAGE
100
AcDbLine
 10
2.132158009700159
 20
5.379965858486708
 30
0.0
 11
2.059082021814017
 21
5.379965858486708
 31
0.0
  0
LINE
  5
211
330
1E
100
AcDbEntity
  8
IMAGE
100
AcDbLine
 10
2.544135794759096
 20
5.379965858486708
 30
0.0
 11
2.544135794759096
 21
4.947396512132672
 31
0.0
  0
LINE
  5
212
330
1E
100
AcDbEntity
  8
IMAGE
100
AcDbLine
 10
2.544135794759096
 20
4.947396512132672
 30
0.0
 11
2.544135794759096
 21
3.748152977170114
 31
0.0
  0
LINE
  5
213
330
1E
100
AcDbEntity
  8
IMAGE
100
AcDbLine
 10
2.132158009700159
 20
3.748152977170114
 30
0.0
 11
2.223897698050576
 21
3.62459340771719
 31
0.0
  0
LINE
  5
214
330
1E
100
AcDbEntity
  8
IMAGE
100
AcDbLine
 10
2.223897698050576
 20
3.62459340771719
 30
0.0
 11
2.338146902229627
 21
3.62459340771719
 31
0.0
  0
LINE
  5
215
330
1E
100
AcDbEntity
  8
IMAGE
100
AcDbLine
 10
2.132158009700159
 20
3.748152977170114
 30
0.0
 11
2.544135794759096
 21
3.748152977170114
 31
0.0
  0
LINE
  5
216
330
1E
100
AcDbEntity
  8
IMAGE
100
AcDbLine
 10
2.132158009700159
 20
4.947396512132672
 30
0.0
 11
2.132158009700159
 21
3.748152977170114
 31
0.0
  0
LINE
  5
217
330
1E
100
AcDbEntity
  8
IMAGE
100
AcDbLine
 10
2.132158009700159
 20
5.379965858486708
 30
0.0
 11
2.132158009700159
 21
4.947396512132672
 31
0.0
  0
LINE
  5
218
330
1E
100
AcDbEntity
  8
IMAGE
100
AcDbLine
 10
2.227756076852141
 20
3.62459340771719
 30
0.0
 11
2.227756076852141
 21
3.748152977170114
 31
0.0
  0
LINE
  5
219
330
1E
100
AcDbEntity
  8
IMAGE
100
AcDbLine
 10
2.329771637975271
 20
3.748152977170114
 30
0.0
 11
2.329771637975271
 21
3.62459340771719
 31
0.0
  0
LINE
  5
21A
330
1E
100
AcDbEntity
  8
IMAGE
100
AcDbLine
 10
2.132158009700159
 20
5.346841083489059
 30
0.0
 11
2.544135794759096
 21
5.346841083489059
 31
0.0
  0
LINE
  5
21B
330
1E
100
AcDbEntity
  8
IMAGE
100
AcDbLine
 10
2.544135794759096
 20
5.328484549233436
 30
0.0
 11
2.132158009700159
 21
5.328484549233436
 31
0.0
  0
LINE
  5
21C
330
1E
100
AcDbEntity
  8
IMAGE
100
AcDbLine
 10
2.452396106408677
 20
3.62459340771719
 30
0.0
 11
2.338146902229627
 21
3.62459340771719
 31
0.0
  0
LINE
  5
21D
330
1E
100
AcDbEntity
  8
IMAGE
100
AcDbLine
 10
2.448537727607112
 20
3.62459340771719
 30
0.0
 11
2.448537727607112
 21
3.748152977170114
 31
0.0
  0
LINE
  5
21E
330
1E
100
AcDbEntity
  8
IMAGE
100
AcDbLine
 10
2.346522166483982
 20
3.748152977170114
 30
0.0
 11
2.346522166483982
 21
3.62459340771719
 31
0.0
  0
LINE
  5
21F
330
1E
100
AcDbEntity
  8
IMAGE
100
AcDbLine
 10
2.544135794759096
 20
3.748152977170114
 30
0.0
 11
2.452396106408677
 21
3.62459340771719
 31
0.0
  0
TEXT
  5
220
330
1E
100
AcDbEntity
  8
TEXT_BUBBLES
100
AcDbText
 10
12.69652510532784
 20
2.902145434996604
 30
0.0
 40
0.10000000149
  1

  7
ROMANS
100
AcDbText
  0
TEXT
  5
221
330
1E
100
AcDbEntity
  8
TEXT_BUBBLES
100
AcDbText
 10
12.69652510532784
 20
3.059055377623604
 30
0.0
 40
0.10000000149
  1

  7
ROMANS
100
AcDbText
  0
TEXT
  5
222
330
1E
100
AcDbEntity
  8
TEXT_BUBBLES
100
AcDbText
 10
12.38771446230497
 20
3.105126460958043
 30
0.0
 40
0.1
  1

  7
ROMANS
 72
     4
 11
12.38771446230497
 21
3.105126460958043
 31
0.0
100
AcDbText
  0
TEXT
  5
224
330
1E
100
AcDbEntity
  8
TEXT_LEADERS
100
AcDbText
 10
5.01099773167159
 20
4.163099268831599
 30
0.0
 40
0.125
  1
  BARB ELBOW:  RAIN BIRD
  7
SIMPLEX
100
AcDbText
  0
LINE
  5
225
330
1E
100
AcDbEntity
  8
IMAGE
100
AcDbLine
 10
4.507470032344441
 20
3.102385658979202
 30
0.0
 11
4.13843802666153
 21
3.102385658979197
 31
0.0
  0
LINE
  5
226
330
1E
100
AcDbEntity
  8
IMAGE
100
AcDbLine
 10
4.044254171519455
 20
2.933689909163441
 30
0.0
 11
4.142627621021523
 21
3.109889776971783
 31
0.0
  0
LINE
  5
227
330
1E
100
AcDbEntity
  8
IMAGE
100
AcDbLine
 10
4.507470032344441
 20
2.813219619096992
 30
0.0
 11
4.507470032344441
 21
3.102385658979202
 31
0.0
  0
LINE
  5
228
330
1E
100
AcDbEntity
  8
IMAGE
100
AcDbLine
 10
3.902651317614823
 20
2.813219619096992
 30
0.0
 11
4.507470032344441
 21
2.813219619096992
 31
0.0
  0
LINE
  5
229
330
1E
100
AcDbEntity
  8
IMAGE
100
AcDbLine
 10
3.902651317614823
 20
3.005766464145095
 30
0.0
 11
3.902651317614823
 21
2.813219619096992
 31
0.0
  0
LINE
  5
22A
330
1E
100
AcDbEntity
  8
IMAGE
100
AcDbLine
 10
4.196847822995383
 20
3.023299703463737
 30
0.0
 11
4.206540551862836
 21
2.957992587204295
 31
0.0
  0
LINE
  5
22B
330
1E
100
AcDbEntity
  8
IMAGE
100
AcDbLine
 10
4.206540551862836
 20
2.957992587204295
 30
0.0
 11
4.14920011412475
 21
2.931992511019638
 31
0.0
  0
LINE
  5
22C
330
1E
100
AcDbEntity
  8
IMAGE
100
AcDbLine
 10
4.507470032344441
 20
3.05791156192463
 30
0.0
 11
4.844566551878315
 21
3.05791156192463
 31
0.0
  0
LINE
  5
22D
330
1E
100
AcDbEntity
  8
IMAGE
100
AcDbLine
 10
4.507470032344441
 20
2.854291479790638
 30
0.0
 11
4.844566551878315
 21
2.854291479790638
 31
0.0
  0
LWPOLYLINE
  5
22E
330
1E
100
AcDbEntity
  8
IMAGE
100
AcDbPolyline
 90
        4
 70
     0
 43
0.0
 10
4.844566551878315
 20
3.05791156192463
 42
-0.5107053858875276
 10
4.844566551878326
 20
2.954651282463567
 42
0.5107053858875159
 10
4.844566551878315
 20
2.854291479790638
 42
0.5397302473450178
 10
4.846492721393131
 20
2.956101520857632
 42
0.5397302473450178
  0
LINE
  5
234
330
1E
100
AcDbEntity
  8
IMAGE
100
AcDbLine
 10
3.786715008225025
 20
3.05791156192463
 30
0.0
 11
1.685287230502725
 21
3.05791156192463
 31
0.0
  0
LINE
  5
235
330
1E
100
AcDbEntity
  8
IMAGE
100
AcDbLine
 10
3.902651317614823
 20
2.854291479790638
 30
0.0
 11
1.685287230502725
 21
2.854291479790638
 31
0.0
  0
LINE
  5
236
330
1E
100
AcDbEntity
  8
IMAGE
100
AcDbLine
 10
4.165566773421694
 20
2.88443907073842
 30
0.0
 11
4.051697379572248
 21
2.945702948098355
 31
0.0
  0
LINE
  5
237
330
1E
100
AcDbEntity
  8
IMAGE
100
AcDbLine
 10
4.250240572088191
 20
3.030376548331791
 30
0.0
 11
4.133734707920977
 21
3.093961392629477
 31
0.0
  0
ARC
  5
238
330
1E
100
AcDbEntity
  8
IMAGE
100
AcDbCircle
 10
4.206540551862836
 20
2.957992587204295
 30
0.0
 40
0.0842950537430408
100
AcDbArc
 50
234.4756814862676
 51
62.64469113840124
  0
ARC
  5
239
330
1E
100
AcDbEntity
  8
IMAGE
100
AcDbCircle
 10
4.206540551862836
 20
2.957992587204295
 30
0.0
 40
0.1089292628087137
100
AcDbArc
 50
202.3302578892511
 51
100.5273986155575
  0
LWPOLYLINE
  5
23A
330
1E
100
AcDbEntity
  8
IMAGE
100
AcDbPolyline
 90
        4
 70
     0
 43
0.0
 10
1.685287230502725
 20
3.05791156192463
 42
0.5107053858875276
 10
1.685287230502716
 20
2.954651282463567
 42
-0.5107053858875159
 10
1.685287230502725
 20
2.854291479790638
 42
-0.5397302473450178
 10
1.683361060987909
 20
2.956101520857632
 42
-0.5397302473450178
  0
ARC
  5
240
330
1E
100
AcDbEntity
  8
IMAGE
100
AcDbCircle
 10
2.630198097839029
 20
0.346577528810373
 30
0.0
 40
3.150132956469122
100
AcDbArc
 50
61.30701558492705
 51
91.57178904497754
  0
ARC
  5
241
330
1E
100
AcDbEntity
  8
IMAGE
100
AcDbCircle
 10
2.626802940630414
 20
0.3240765528312071
 30
0.0
 40
2.969722185911746
100
AcDbArc
 50
61.49072909609822
 51
91.61727251044187
  0
LINE
  5
242
330
1E
100
AcDbEntity
  8
IMAGE
100
AcDbLine
 10
2.542988524559271
 20
3.292615756741962
 30
0.0
 11
2.543791673090494
 21
3.495525221801646
 31
0.0
  0
ARC
  5
243
330
1E
100
AcDbEntity
  8
IMAGE
100
AcDbCircle
 10
2.301350561987279
 20
3.359432000343006
 30
0.0
 40
0.0469218235072326
100
AcDbArc
 50
180.0
 51
270.0
  0
LWPOLYLINE
  5
244
330
1E
100
AcDbEntity
  8
IMAGE
100
AcDbPolyline
 90
        3
 70
     0
 43
0.0
 10
2.303491128046406
 20
3.316509112311276
 42
0.3551655385017884
 10
2.395278042202487
 20
3.396015608628387
 42
-0.3351985284943452
 10
2.461803979049053
 20
3.47497215882473
 42
-0.5949761929811071
  0
LINE
  5
249
330
1E
100
AcDbEntity
  8
IMAGE
100
AcDbLine
 10
2.542986053059371
 20
3.312510176835775
 30
0.0
 11
2.301350561987279
 21
3.312510176835775
 31
0.0
  0
LINE
  5
24A
330
1E
100
AcDbEntity
  8
IMAGE
100
AcDbLine
 10
2.543721918506838
 20
3.477902248335484
 30
0.0
 11
2.468183712235216
 21
3.47790224833548
 31
0.0
  0
ARC
  5
24B
330
1E
100
AcDbEntity
  8
IMAGE
100
AcDbCircle
 10
2.468183712235216
 20
3.524824071842711
 30
0.0
 40
0.0469218235072326
100
AcDbArc
 50
180.0
 51
270.0
  0
LINE
  5
24C
330
1E
100
AcDbEntity
  8
IMAGE
100
AcDbLine
 10
2.254428738480045
 20
3.623738413141305
 30
0.0
 11
2.254428738480045
 21
3.359432000343006
 31
0.0
  0
LINE
  5
24D
330
1E
100
AcDbEntity
  8
IMAGE
100
AcDbLine
 10
2.254428738480045
 20
3.577808749747522
 30
0.0
 11
2.421261888727981
 21
3.577808749747522
 31
0.0
  0
LINE
  5
24E
330
1E
100
AcDbEntity
  8
IMAGE
100
AcDbLine
 10
2.421261888727981
 20
3.623738413141305
 30
0.0
 11
2.421261888727981
 21
3.524824071842711
 31
0.0
  0
LINE
  5
24F
330
1E
100
AcDbEntity
  8
IMAGE
100
AcDbLine
 10
2.270517601607084
 20
3.602867953285106
 30
0.0
 11
2.405532373461891
 21
3.602867953285106
 31
0.0
  0
TEXT
  5
250
330
1E
100
AcDbEntity
  8
TEXT_LEADERS
100
AcDbText
 10
5.01099773167159
 20
4.359399088777599
 30
0.0
 40
0.125
  1
1/2-INCH MALE NPT x .490-INCH
  7
SIMPLEX
100
AcDbText
  0
TEXT
  5
251
330
1E
100
AcDbEntity
  8
TEXT_LEADERS
100
AcDbText
 10
5.01099773167159
 20
3.966799448885598
 30
0.0
 40
0.125
  1
  MODEL SBE-050
  7
SIMPLEX
100
AcDbText
  0
LINE
  5
252
330
1E
100
AcDbEntity
  8
IMAGE
100
AcDbLine
 10
2.437363407004665
 20
6.237392594619795
 30
0.0
 11
2.232706985538505
 21
6.237392594619795
 31
0.0
  0
LWPOLYLINE
  5
253
330
1E
100
AcDbEntity
  8
IMAGE
100
AcDbPolyline
 90
        2
 70
     0
 43
0.0
 10
2.44914615144754
 20
6.518342594619794
 10
2.437363407004665
 20
6.518342594619794
  0
LWPOLYLINE
  5
257
330
1E
100
AcDbEntity
  8
IMAGE
100
AcDbPolyline
 90
        2
 70
     0
 43
0.0
 10
2.44914615144754
 20
6.459113619696991
 10
2.44914615144754
 20
6.518342594619794
  0
LWPOLYLINE
  5
25B
330
1E
100
AcDbEntity
  8
IMAGE
100
AcDbPolyline
 90
        2
 70
     0
 43
0.0
 10
2.437363407004665
 20
6.296621569542598
 10
2.232706985538504
 20
6.296621569542597
  0
LWPOLYLINE
  5
25F
330
1E
100
AcDbEntity
  8
IMAGE
100
AcDbPolyline
 90
        2
 70
     0
 43
0.0
 10
2.220924241095629
 20
6.459113619696991
 10
2.220924241095629
 20
6.518342594619794
  0
LWPOLYLINE
  5
263
330
1E
100
AcDbEntity
  8
IMAGE
100
AcDbPolyline
 90
        2
 70
     0
 43
0.0
 10
2.220924241095629
 20
6.459113619696991
 10
2.44914615144754
 20
6.459113619696991
  0
LWPOLYLINE
  5
267
330
1E
100
AcDbEntity
  8
IMAGE
100
AcDbPolyline
 90
        2
 70
     0
 43
0.0
 10
2.220924241095629
 20
6.518342594619794
 10
2.232706985538505
 20
6.518342594619794
  0
LWPOLYLINE
  5
26B
330
1E
100
AcDbEntity
  8
IMAGE
100
AcDbPolyline
 90
        2
 70
     0
 43
0.0
 10
2.437363407004665
 20
6.237392594619795
 10
2.437363407004665
 20
6.518342594619794
  0
LWPOLYLINE
  5
26F
330
1E
100
AcDbEntity
  8
IMAGE
100
AcDbPolyline
 90
        2
 70
     0
 43
0.0
 10
2.232706985538505
 20
6.237392594619795
 10
2.232706985538505
 20
6.518342594619794
  0
LINE
  5
273
330
1E
100
AcDbEntity
  8
IMAGE
100
AcDbLine
 10
2.330583940430658
 20
6.296621569542598
 30
0.0
 11
2.330583940430658
 21
6.237392594619795
 31
0.0
  0
LINE
  5
274
330
1E
100
AcDbEntity
  8
IMAGE
100
AcDbLine
 10
2.340583940430658
 20
6.296621569542598
 30
0.0
 11
2.340583940430658
 21
6.237392594619795
 31
0.0
  0
LINE
  5
275
330
1E
100
AcDbEntity
  8
IMAGE
100
AcDbLine
 10
2.402979389254044
 20
6.296621569542598
 30
0.0
 11
2.402979389254045
 21
6.237392594619795
 31
0.0
  0
LINE
  5
276
330
1E
100
AcDbEntity
  8
IMAGE
100
AcDbLine
 10
2.392979389254044
 20
6.296621569542598
 30
0.0
 11
2.392979389254044
 21
6.237392594619795
 31
0.0
  0
LINE
  5
277
330
1E
100
AcDbEntity
  8
IMAGE
100
AcDbLine
 10
2.376043480382912
 20
6.518342594619794
 30
0.0
 11
2.376043480382912
 21
6.459113619696991
 31
0.0
  0
LINE
  5
278
330
1E
100
AcDbEntity
  8
IMAGE
100
AcDbLine
 10
2.386043480382912
 20
6.518342594619794
 30
0.0
 11
2.386043480382912
 21
6.459113619696991
 31
0.0
  0
LINE
  5
279
330
1E
100
AcDbEntity
  8
IMAGE
100
AcDbLine
 10
2.294026912160258
 20
6.518342594619794
 30
0.0
 11
2.294026912160258
 21
6.459113619696991
 31
0.0
  0
LINE
  5
27A
330
1E
100
AcDbEntity
  8
IMAGE
100
AcDbLine
 10
2.284026912160258
 20
6.518342594619794
 30
0.0
 11
2.284026912160257
 21
6.459113619696991
 31
0.0
  0
LINE
  5
27B
330
1E
100
AcDbEntity
  8
IMAGE
100
AcDbLine
 10
2.277091003289125
 20
6.296621569542598
 30
0.0
 11
2.277091003289125
 21
6.237392594619795
 31
0.0
  0
LINE
  5
27C
330
1E
100
AcDbEntity
  8
IMAGE
100
AcDbLine
 10
2.267091003289125
 20
6.296621569542598
 30
0.0
 11
2.267091003289125
 21
6.237392594619795
 31
0.0
  0
ARC
  5
27D
330
1E
100
AcDbEntity
  8
IMAGE
100
AcDbCircle
 10
1.507929742745902
 20
5.668162023283203
 30
0.0
 40
0.1738489379910888
100
AcDbArc
 50
323.5307656099477
 51
52.72943909836341
  0
ARC
  5
27E
330
1E
100
AcDbEntity
  8
IMAGE
100
AcDbCircle
 10
1.753014281001391
 20
5.703174100176843
 30
0.0
 40
0.1738489379910888
100
AcDbArc
 50
143.5307656099477
 51
232.7294390983634
  0
ARC
  5
27F
330
1E
100
AcDbEntity
  8
IMAGE
100
AcDbCircle
 10
1.520247428143434
 20
5.890342287332401
 30
0.0
 40
0.1738489379910888
100
AcDbArc
 50
278.5307656099478
 51
7.729439098363569
  0
ARC
  5
280
330
1E
100
AcDbEntity
  8
IMAGE
100
AcDbCircle
 10
1.718305644102784
 20
5.741798625362889
 30
0.0
 40
0.1738489379910888
100
AcDbArc
 50
98.53076560994793
 51
187.7294390983635
  0
ARC
  5
281
330
1E
100
AcDbEntity
  8
IMAGE
100
AcDbCircle
 10
1.693880681115569
 20
6.080011340069971
 30
0.0
 40
0.1738489379910888
100
AcDbArc
 50
159.7199718669747
 51
248.9186453553905
  0
ARC
  5
282
330
1E
100
AcDbEntity
  8
IMAGE
100
AcDbCircle
 10
1.468276393547563
 20
5.9780555562652
 30
0.0
 40
0.1738489379910888
100
AcDbArc
 50
339.7199718669747
 51
68.91864535539045
  0
ARC
  5
283
330
1E
100
AcDbEntity
  8
IMAGE
100
AcDbCircle
 10
1.488399002005467
 20
6.263849615866493
 30
0.0
 40
0.1738489379910888
100
AcDbArc
 50
323.5307656099477
 51
52.72943909836341
  0
ARC
  5
284
330
1E
100
AcDbEntity
  8
IMAGE
100
AcDbCircle
 10
1.733483540260955
 20
6.298861692760134
 30
0.0
 40
0.1738489379910888
100
AcDbArc
 50
143.5307656099477
 51
232.7294390983634
  0
ARC
  5
285
330
1E
100
AcDbEntity
  8
IMAGE
100
AcDbCircle
 10
1.468086934219126
 20
6.418162779321725
 30
0.0
 40
0.1738489379910888
100
AcDbArc
 50
323.5307656099477
 51
52.72943909836341
  0
ARC
  5
286
330
1E
100
AcDbEntity
  8
IMAGE
100
AcDbCircle
 10
1.713171472474616
 20
6.453174856215365
 30
0.0
 40
0.1738489379910888
100
AcDbArc
 50
143.5307656099477
 51
232.7294390983634
  0
ARC
  5
287
330
1E
100
AcDbEntity
  8
IMAGE
100
AcDbCircle
 10
1.631340529134728
 20
5.668162023283203
 30
0.0
 40
0.1738489379910888
100
AcDbArc
 50
323.5307656099477
 51
52.72943909836341
  0
ARC
  5
288
330
1E
100
AcDbEntity
  8
IMAGE
100
AcDbCircle
 10
1.876425067390217
 20
5.703174100176843
 30
0.0
 40
0.1738489379910888
100
AcDbArc
 50
143.5307656099477
 51
232.7294390983634
  0
ARC
  5
289
330
1E
100
AcDbEntity
  8
IMAGE
100
AcDbCircle
 10
1.888524002549475
 20
5.945599139855399
 30
0.0
 40
0.1738489379910888
100
AcDbArc
 50
159.7199718669747
 51
248.9186453553905
  0
ARC
  5
28A
330
1E
100
AcDbEntity
  8
IMAGE
100
AcDbCircle
 10
1.662919714981471
 20
5.843643356050628
 30
0.0
 40
0.1738489379910888
100
AcDbArc
 50
339.7199718669747
 51
68.91864535539045
  0
ARC
  5
28B
330
1E
100
AcDbEntity
  8
IMAGE
100
AcDbCircle
 10
1.592279047653857
 20
6.058776838091918
 30
0.0
 40
0.1738489379910888
100
AcDbArc
 50
323.5307656099477
 51
52.72943909836341
  0
ARC
  5
28C
330
1E
100
AcDbEntity
  8
IMAGE
100
AcDbCircle
 10
1.837363585909345
 20
6.093788914985558
 30
0.0
 40
0.1738489379910888
100
AcDbArc
 50
143.5307656099477
 51
232.7294390983634
  0
ARC
  5
28D
330
1E
100
AcDbEntity
  8
IMAGE
100
AcDbCircle
 10
1.829931780328168
 20
6.336213954664114
 30
0.0
 40
0.1738489379910888
100
AcDbArc
 50
159.7199718669747
 51
248.9186453553905
  0
ARC
  5
28E
330
1E
100
AcDbEntity
  8
IMAGE
100
AcDbCircle
 10
1.604327492760162
 20
6.234258170859343
 30
0.0
 40
0.1738489379910888
100
AcDbArc
 50
339.7199718669747
 51
68.91864535539045
  0
ARC
  5
28F
330
1E
100
AcDbEntity
  8
IMAGE
100
AcDbCircle
 10
1.830993004964044
 20
6.376799273622101
 30
0.0
 40
0.1738489379910888
100
AcDbArc
 50
116.0563205359582
 51
205.2549940243739
  0
ARC
  5
290
330
1E
100
AcDbEntity
  8
IMAGE
100
AcDbCircle
 10
1.597396986658189
 20
6.458806448015344
 30
0.0
 40
0.1738489379910888
100
AcDbArc
 50
296.0563205359582
 51
25.2549940243739
  0
ARC
  5
291
330
1E
100
AcDbEntity
  8
IMAGE
100
AcDbCircle
 10
2.01364551675979
 20
5.916303028744746
 30
0.0
 40
0.1738489379910888
100
AcDbArc
 50
159.7199718669747
 51
248.9186453553905
  0
ARC
  5
292
330
1E
100
AcDbEntity
  8
IMAGE
100
AcDbCircle
 10
1.97225047048988
 20
5.712939470547062
 30
0.0
 40
0.1738489379910888
100
AcDbArc
 50
143.5307656099477
 51
232.7294390983634
  0
ARC
  5
293
330
1E
100
AcDbEntity
  8
IMAGE
100
AcDbCircle
 10
1.788041229191787
 20
5.814347244939975
 30
0.0
 40
0.1738489379910888
100
AcDbArc
 50
339.7199718669747
 51
68.91864535539045
  0
ARC
  5
294
330
1E
100
AcDbEntity
  8
IMAGE
100
AcDbCircle
 10
1.775992784085481
 20
6.058776838091918
 30
0.0
 40
0.1738489379910888
100
AcDbArc
 50
323.5307656099477
 51
52.72943909836341
  0
ARC
  5
295
330
1E
100
AcDbEntity
  8
IMAGE
100
AcDbCircle
 10
2.021077322340968
 20
6.093788914985558
 30
0.0
 40
0.1738489379910888
100
AcDbArc
 50
143.5307656099477
 51
232.7294390983634
  0
ARC
  5
296
330
1E
100
AcDbEntity
  8
IMAGE
100
AcDbCircle
 10
1.749248988002142
 20
6.359080065102859
 30
0.0
 40
0.1738489379910888
100
AcDbArc
 50
278.5307656099478
 51
7.729439098363569
  0
ARC
  5
297
330
1E
100
AcDbEntity
  8
IMAGE
100
AcDbCircle
 10
1.947307203961489
 20
6.210536403133347
 30
0.0
 40
0.1738489379910888
100
AcDbArc
 50
98.53076560994793
 51
187.7294390983635
  0
ARC
  5
298
330
1E
100
AcDbEntity
  8
IMAGE
100
AcDbCircle
 10
1.75568071629914
 20
6.388866668211072
 30
0.0
 40
0.1738489379910888
100
AcDbArc
 50
323.5307656099477
 51
52.72943909836341
  0
ARC
  5
299
330
1E
100
AcDbEntity
  8
IMAGE
100
AcDbCircle
 10
2.000765254554629
 20
6.423878745104713
 30
0.0
 40
0.1738489379910888
100
AcDbArc
 50
143.5307656099477
 51
232.7294390983634
  0
TEXT
  5
2A0
330
1E
100
AcDbEntity
  8
TEXT_LEADERS
100
AcDbText
 10
5.01099773167159
 20
5.227247803675385
 30
0.0
 40
0.125
  1
POP-UP SPRAY SPRINKLER:
  7
SIMPLEX
100
AcDbText
  0
TEXT
  5
2A1
330
1E
100
AcDbEntity
  8
TEXT_LEADERS
100
AcDbText
 10
5.010993870083209
 20
5.04547097402785
 30
0.0
 40
0.125
  1
  RAIN BIRD 1804
  7
SIMPLEX
100
AcDbText
  0
TEXT
  5
2A2
330
1E
100
AcDbEntity
  8
TEXT_LEADERS
100
AcDbText
 10
5.010993870083209
 20
6.85026458520057
 30
0.0
 40
0.125
  1
PLASTIC ADAPTER: RAIN BIRD
  7
SIMPLEX
100
AcDbText
  0
TEXT
  5
2A3
330
1E
100
AcDbEntity
  8
TEXT_LEADERS
100
AcDbText
 10
5.010993870083209
 20
6.66848350304757
 30
0.0
 40
0.125
  1
  MODEL PA-80
  7
SIMPLEX
100
AcDbText
  0
ARC
  5
2A4
330
1E
100
AcDbEntity
  8
IMAGE
100
AcDbCircle
 10
1.727165932234392
 20
5.677927393653423
 30
0.0
 40
0.1738489379910888
100
AcDbArc
 50
323.5307656099478
 51
52.72943909836353
  0
ARC
  5
2A5
330
1E
100
AcDbEntity
  8
IMAGE
100
AcDbCircle
 10
3.30843972311699
 20
6.536738732232098
 30
0.0
 40
0.1738489379910888
100
AcDbArc
 50
278.5307656099478
 51
7.729439098363569
  0
ARC
  5
2A6
330
1E
100
AcDbEntity
  8
IMAGE
100
AcDbCircle
 10
3.506497939076337
 20
6.388195070262586
 30
0.0
 40
0.1738489379910888
100
AcDbArc
 50
98.53076560994793
 51
187.7294390983635
  0
CIRCLE
  5
2A7
330
1E
100
AcDbEntity
  8
TEXT_BUBBLES
100
AcDbCircle
 10
4.363562529526937
 20
6.979009079180164
 30
0.0
 40
0.15625
  0
TEXT
  5
2A9
330
1E
100
AcDbEntity
  8
TEXT_BUBBLES
100
AcDbText
 10
4.304038720003128
 20
6.916509079180164
 30
0.0
 40
0.125
  1
2
  7
ROMANS
 72
     4
 11
4.363562529526937
 21
6.979009079180164
 31
0.0
100
AcDbText
  0
TEXT
  5
2AB
330
1E
100
AcDbEntity
  8
TEXT_BUBBLES
100
AcDbText
 10
5.627906192846819
 20
5.569789601437522
 30
0.0
 40
0.125
  1
  RAIN BIRD 1804
  7
ROMANS
100
AcDbText
  0
TEXT
  5
2AC
330
1E
100
AcDbEntity
  8
TEXT_BUBBLES
100
AcDbText
 10
5.627906192846819
 20
5.739789601437521
 30
0.0
 40
0.125
  1
POP-UP SPRAY SPRINKLER:
  7
ROMANS
100
AcDbText
  0
TEXT
  5
2AD
330
1E
100
AcDbEntity
  8
TEXT_BUBBLES
100
AcDbText
 10
5.6613500530622
 20
6.896467640107632
 30
0.0
 40
0.125
  1
PLASTIC ADAPTER: RAIN BIRD
  7
SIMPLEX
100
AcDbText
  0
TEXT
  5
2AE
330
1E
100
AcDbEntity
  8
TEXT_BUBBLES
100
AcDbText
 10
5.6613500530622
 20
6.726467640107633
 30
0.0
 40
0.125
  1
  MODEL PA-80
  7
SIMPLEX
100
AcDbText
  0
TEXT
  5
2AF
330
1E
100
AcDbEntity
  8
TEXT_BUBBLES
100
AcDbText
 10
4.588362519113744
 20
5.929098772953555
 30
0.0
 40
0.10000000149
  1

  7
ROMANS
100
AcDbText
  0
TEXT
  5
2B0
330
1E
100
AcDbEntity
  8
TEXT_BUBBLES
100
AcDbText
 10
4.588362519113744
 20
3.755036997746555
 30
0.0
 40
0.10000000149
  1

  7
ROMANS
100
AcDbText
  0
TEXT
  5
2B1
330
1E
100
AcDbEntity
  8
TEXT_BUBBLES
100
AcDbText
 10
4.588362519113744
 20
5.618518519352554
 30
0.0
 40
0.10000000149
  1

  7
ROMANS
100
AcDbText
  0
TEXT
  5
2B2
330
1E
100
AcDbEntity
  8
TEXT_BUBBLES
100
AcDbText
 10
16.90309906005899
 20
1.433911323547
 30
0.0
 40
0.10000000149
  1

  7
ROMANS
100
AcDbText
  0
TEXT
  5
2B3
330
1E
100
AcDbEntity
  8
TEXT_BUBBLES
100
AcDbText
 10
16.90309906005899
 20
0.968012332916
 30
0.0
 40
0.10000000149
  1

  7
ROMANS
100
AcDbText
  0
TEXT
  5
2B4
330
1E
100
AcDbEntity
  8
TEXT_BUBBLES
100
AcDbText
 10
16.90309906005899
 20
1.12331199646
 30
0.0
 40
0.10000000149
  1

  7
ROMANS
100
AcDbText
  0
TEXT
  5
2B5
330
1E
100
AcDbEntity
  8
TEXT_BUBBLES
100
AcDbText
 10
16.90309906005899
 20
1.744510650635
 30
0.0
 40
0.10000000149
  1

  7
ROMANS
100
AcDbText
  0
TEXT
  5
2B6
330
1E
100
AcDbEntity
  8
TEXT_BUBBLES
100
AcDbText
 10
16.90309906005899
 20
2.521008968353
 30
0.0
 40
0.10000000149
  1

  7
ROMANS
100
AcDbText
  0
TEXT
  5
2B7
330
1E
100
AcDbEntity
  8
TEXT_BUBBLES
100
AcDbText
 10
16.90309906005899
 20
2.986907958984
 30
0.0
 40
0.10000000149
  1

  7
ROMANS
100
AcDbText
  0
TEXT
  5
2B8
330
1E
100
AcDbEntity
  8
TEXT_BUBBLES
100
AcDbText
 10
16.90309906005899
 20
2.831608295440999
 30
0.0
 40
0.10000000149
  1

  7
ROMANS
100
AcDbText
  0
TEXT
  5
2B9
330
1E
100
AcDbEntity
  8
TEXT_BUBBLES
100
AcDbText
 10
4.588362519113744
 20
3.133876490543554
 30
0.0
 40
0.10000000149
  1

  7
ROMANS
100
AcDbText
  0
TEXT
  5
2BA
330
1E
100
AcDbEntity
  8
TEXT_BUBBLES
100
AcDbText
 10
16.90309906005899
 20
2.210409641266
 30
0.0
 40
0.10000000149
  1

  7
ROMANS
100
AcDbText
  0
TEXT
  5
2BB
330
1E
100
AcDbEntity
  8
TEXT_BUBBLES
100
AcDbText
 10
16.90309906005899
 20
2.055109977722
 30
0.0
 40
0.10000000149
  1

  7
ROMANS
100
AcDbText
  0
TEXT
  5
2BC
330
1E
100
AcDbEntity
  8
TEXT_BUBBLES
100
AcDbText
 10
4.588362519113744
 20
4.842067885349554
 30
0.0
 40
0.10000000149
  1

  7
ROMANS
100
AcDbText
  0
TEXT
  5
2BD
330
1E
100
AcDbEntity
  8
TEXT_BUBBLES
100
AcDbText
 10
4.588362519113744
 20
6.394969153355554
 30
0.0
 40
0.10000000149
  1

  7
ROMANS
100
AcDbText
  0
TEXT
  5
2BE
330
1E
100
AcDbEntity
  8
TEXT_BUBBLES
100
AcDbText
 10
4.588362519113744
 20
5.152648138950555
 30
0.0
 40
0.10000000149
  1

  7
ROMANS
100
AcDbText
  0
TEXT
  5
2BF
330
1E
100
AcDbEntity
  8
TEXT_BUBBLES
100
AcDbText
 10
4.588362519113744
 20
4.065617251347554
 30
0.0
 40
0.10000000149
  1

  7
ROMANS
100
AcDbText
  0
TEXT
  5
2C0
330
1E
100
AcDbEntity
  8
TEXT_BUBBLES
100
AcDbText
 10
4.588362519113744
 20
3.444456744145555
 30
0.0
 40
0.10000000149
  1

  7
ROMANS
100
AcDbText
  0
TEXT
  5
2C1
330
1E
100
AcDbEntity
  8
TEXT_LEADERS
100
AcDbText
 10
4.841919898987
 20
4.539030075072999
 30
0.0
 40
0.10000000149
  1

  7
SIMPLEX
100
AcDbText
  0
TEXT
  5
2C2
330
1E
100
AcDbEntity
  8
TEXT_BUBBLES
100
AcDbText
 10
8.242199897765999
 20
0.107129439712
 30
0.0
 40
0.10000000149
  1

  7
SIMPLEX
100
AcDbText
  0
TEXT
  5
2C3
330
1E
100
AcDbEntity
  8
TEXT_BUBBLES
100
AcDbText
 10
8.242199897765999
 20
0.9404628872869999
 30
0.0
 40
0.10000000149
  1

  7
SIMPLEX
100
AcDbText
  0
TEXT
  5
2C4
330
1E
100
AcDbEntity
  8
TEXT_BUBBLES
100
AcDbText
 10
8.242199897765999
 20
0.6071295142170001
 30
0.0
 40
0.10000000149
  1

  7
SIMPLEX
100
AcDbText
  0
TEXT
  5
2C5
330
1E
100
AcDbEntity
  8
TEXT_BUBBLES
100
AcDbText
 10
8.242199897765999
 20
-1.559537649154999
 30
0.0
 40
0.10000000149
  1

  7
SIMPLEX
100
AcDbText
  0
TEXT
  5
2C6
330
1E
100
AcDbEntity
  8
TEXT_BUBBLES
100
AcDbText
 10
8.242199897765999
 20
-1.226204156876
 30
0.0
 40
0.10000000149
  1

  7
SIMPLEX
100
AcDbText
  0
TEXT
  5
2C7
330
1E
100
AcDbEntity
  8
TEXT_BUBBLES
100
AcDbText
 10
8.242199897765999
 20
1.440463066101
 30
0.0
 40
0.10000000149
  1

  7
SIMPLEX
100
AcDbText
  0
LWPOLYLINE
  5
2C8
330
1E
100
AcDbEntity
  8
INSTRUCT-CALLOUT
100
AcDbPolyline
 90
        4
 70
     1
 43
0.0
 10
11.53054217290783
 20
9.970969476250855
 10
11.53054217290783
 20
8.53948345490861
 10
16.38616196069729
 20
8.53948345490861
 10
16.38616196069729
 20
9.970969476250855
  0
TEXT
  5
2CE
330
1E
100
AcDbEntity
  8
INSTRUCT-CALLOUT
100
AcDbText
 10
11.86113459284986
 20
10.02808496696805
 30
0.0
 40
0.125
  1
CHOOSING EQUIPMENT CALLOUT METHOD
  7
ROMANS
100
AcDbText
  0
TEXT
  5
2CF
330
1E
100
AcDbEntity
  8
INSTRUCT-CALLOUT
100
AcDbText
 10
11.62838482380313
 20
9.653973903493172
 30
0.0
 40
0.125
  1
CHOOSE EITHER LEADERS OR BUBBLE CALLOUTS
  7
ROMANS
100
AcDbText
  0
TEXT
  5
2D0
330
1E
100
AcDbEntity
  8
INSTRUCT-CALLOUT
100
AcDbText
 10
11.62838482380313
 20
9.462073860006169
 30
0.0
 40
0.125
  1
BY TURNING ON THE APPROPRIATE LAYER:
  7
ROMANS
100
AcDbText
  0
TEXT
  5
2D1
330
1E
100
AcDbEntity
  8
INSTRUCT-CALLOUT
100
AcDbText
 10
12.06472855606596
 20
9.155056565530996
 30
0.0
 40
0.125
  1
TEXT_LEADERS         TEXT_BUBBLES
  7
ROMANS
100
AcDbText
  0
LINE
  5
2D2
330
1E
100
AcDbEntity
  8
INSTRUCT-CALLOUT
100
AcDbLine
 10
12.37185320802275
 20
8.902585311829382
 30
0.0
 11
12.50812175388137
 21
8.902585311829378
 31
0.0
  0
LINE
  5
2D3
330
1E
100
AcDbEntity
  8
INSTRUCT-CALLOUT
100
AcDbLine
 10
12.08408279354442
 20
8.782833610023098
 30
0.0
 11
12.37185320802275
 21
8.902585311829382
 31
0.0
  0
SOLID
  5
2D4
330
1E
100
AcDbEntity
  8
INSTRUCT-CALLOUT
100
AcDbTrace
 10
12.16946879108475
 20
8.785871935884985
 30
0.0
 11
12.14641690619302
 21
8.841266977205831
 31
0.0
 12
11.99175772467635
 22
8.74441380187021
 32
0.0
 13
11.99175772467635
 23
8.74441380187021
 33
0.0
  0
TEXT
  5
2D5
330
1E
100
AcDbEntity
  8
INSTRUCT-CALLOUT
100
AcDbText
 10
12.5340964908985
 20
8.837834702435481
 30
0.0
 40
0.125
  1
ITEM 1
  7
ROMANS
100
AcDbText
  0
SOLID
  5
2D6
330
1E
100
AcDbEntity
  8
INSTRUCT-CALLOUT
100
AcDbTrace
 10
14.31193811913417
 20
8.799297970436386
 30
0.0
 11
14.32774041278851
 21
8.741416302222157
 31
0.0
 12
14.14619426131866
 22
8.722950255366255
 32
0.0
 13
14.14619426131866
 23
8.722950255366255
 33
0.0
  0
LINE
  5
2D7
330
1E
100
AcDbEntity
  8
INSTRUCT-CALLOUT
100
AcDbLine
 10
14.24266370834237
 20
8.749287411456821
 30
0.0
 11
14.49854512526722
 21
8.819145682921439
 31
0.0
  0
TEXT
  5
2D8
330
1E
100
AcDbEntity
  8
INSTRUCT-CALLOUT
100
AcDbText
 10
14.57865574357067
 20
8.802067128034641
 30
0.0
 40
0.1
  1
1
  7
ROMANS
 72
     4
 11
14.61913193404686
 21
8.852067128034642
 31
0.0
100
AcDbText
  0
CIRCLE
  5
2D9
330
1E
100
AcDbEntity
  8
INSTRUCT-CALLOUT
100
AcDbCircle
 10
14.61913193404686
 20
8.852067128034642
 30
0.0
 40
0.125
  0
TEXT
  5
2DA
330
1E
100
AcDbEntity
  8
INSTRUCT-CALLOUT
100
AcDbText
 10
11.56956952012492
 20
8.158255398173201
 30
0.0
 40
0.125
  1
LAYER "INSTRUCT-CALLOUT".
  7
ROMANS
100
AcDbText
  0
TEXT
  5
2DB
330
1E
100
AcDbEntity
  8
INSTRUCT-CALLOUT
100
AcDbText
 10
11.56956952012492
 20
8.350155441661199
 30
0.0
 40
0.125
  1
TO TURN OFF THIS INSTRUCTION BOX, TURN OFF
  7
ROMANS
100
AcDbText
  0
LEADER
  5
329
330
1E
100
AcDbEntity
  8
TEXT_LEADERS
100
AcDbLeader
  3
Standard
 76
     2
 10
2.437363407004665
 20
6.641610574631745
 30
0.0
 10
4.75336762782016
 20
7.505799176609638
 30
0.0
1001
ACAD
1000
DSTYLE
1002
{
1070
   147
1040
0.09
1070
    77
1070
     0
1070
   140
1040
0.1
1070
   279
1070
     2
1002
}
  0
LEADER
  5
331
330
1E
100
AcDbEntity
  8
TEXT_LEADERS
100
AcDbLeader
  3
Standard
 76
     3
 10
2.437363407004665
 20
6.641610574631745
 30
0.0
 10
4.75336762782016
 20
7.505799176609638
 30
0.0
 10
4.953367627820161
 20
7.505799176609638
 30
0.0
1001
ACAD
1000
DSTYLE
1002
{
1070
   147
1040
0.09
1070
    77
1070
     0
1070
   140
1040
0.1
1070
   279
1070
     2
1002
}
  0
LEADER
  5
332
330
1E
100
AcDbEntity
  8
TEXT_LEADERS
100
AcDbLeader
  3
Standard
 76
     3
 10
2.437363407004665
 20
6.318994284625713
 30
0.0
 10
4.120806678876626
 20
6.947150517914382
 30
0.0
 10
4.953367627820161
 20
6.947150517914382
 30
0.0
1001
ACAD
1000
DSTYLE
1002
{
1070
   147
1040
0.09
1070
    77
1070
     0
1070
   140
1040
0.1
1070
   279
1070
     2
1002
}
  0
LEADER
  5
333
330
1E
100
AcDbEntity
  8
TEXT_LEADERS
100
AcDbLeader
  3
Standard
 76
     3
 10
3.629909445299236
 20
6.077352781632645
 30
0.0
 10
4.653901400718482
 20
6.459442835025887
 30
0.0
 10
4.953367627820161
 20
6.459442835025887
 30
0.0
1001
ACAD
1000
DSTYLE
1002
{
1070
   147
1040
0.09
1070
    77
1070
     0
1070
   140
1040
0.1
1070
   279
1070
     2
1002
}
  0
LEADER
  5
334
330
1E
100
AcDbEntity
  8
TEXT_LEADERS
100
AcDbLeader
  3
Standard
 76
     3
 10
2.544135794759096
 20
4.473374296762088
 30
0.0
 10
4.699089641316992
 20
5.277468924589673
 30
0.0
 10
4.953367627820161
 20
5.277468924589673
 30
0.0
1001
ACAD
1000
DSTYLE
1002
{
1070
   147
1040
0.09
1070
    77
1070
     0
1070
   140
1040
0.1
1070
   279
1070
     2
1002
}
  0
LEADER
  5
335
330
1E
100
AcDbEntity
  8
TEXT_LEADERS
100
AcDbLeader
  3
Standard
 76
     3
 10
2.431151078634457
 20
3.496010159060241
 30
0.0
 10
4.779709866206832
 20
4.372346098802363
 30
0.0
 10
4.953367627820161
 20
4.372346098802363
 30
0.0
1001
ACAD
1000
DSTYLE
1002
{
1070
   147
1040
0.09
1070
    77
1070
     0
1070
   140
1040
0.1
1070
   279
1070
     2
1002
}
  0
LEADER
  5
336
330
1E
100
AcDbEntity
  8
TEXT_LEADERS
100
AcDbLeader
  3
Standard
 76
     3
 10
3.684506648773193
 20
3.315040282974553
 30
0.0
 10
4.835333159174376
 20
3.744457096728247
 30
0.0
 10
4.953367627820161
 20
3.744457096728247
 30
0.0
1001
ACAD
1000
DSTYLE
1002
{
1070
   147
1040
0.09
1070
    77
1070
     0
1070
   140
1040
0.1
1070
   279
1070
     2
1002
}
  0
LEADER
  5
337
330
1E
100
AcDbEntity
  8
TEXT_LEADERS
100
AcDbLeader
  3
Standard
 76
     3
 10
4.186638555385824
 20
3.065088314627376
 30
0.0
 10
4.735628183151815
 20
3.269937068638888
 30
0.0
 10
4.953367627820161
 20
3.269937068638888
 30
0.0
1001
ACAD
1000
DSTYLE
1002
{
1070
   147
1040
0.09
1070
    77
1070
     0
1070
   140
1040
0.1
1070
   279
1070
     2
1002
}
  0
LEADER
  5
338
330
1E
100
AcDbEntity
  8
TEXT_LEADERS
100
AcDbLeader
  3
Standard
 76
     3
 10
3.803450916307572
 20
5.560344615240514
 30
0.0
 10
4.753367627820161
 20
5.90807388738237
 30
0.0
 10
4.953367627820161
 20
5.90807388738237
 30
0.0
1001
ACAD
1000
DSTYLE
1002
{
1070
   147
1040
0.09
1070
    77
1070
     0
1070
   140
1040
0.1
1070
   279
1070
     2
1002
}
  0
HATCH
  5
33C
330
1E
100
AcDbEntity
  8
IMAGE
100
AcDbHatch
 10
0.0
 20
0.0
 30
0.0
210
0.0
220
0.0
230
1.0
  2
EARTH
 70
     0
 71
     0
 91
        2
 92
        1
 93
       12
 72
     1
 10
1.301507960458823
 20
5.560101149223092
 11
1.419139857847471
 21
5.392584363447528
 72
     1
 10
1.419139857847471
 20
5.392584363447528
 11
1.523937220298973
 21
5.214539013424411
 72
     1
 10
1.523937220298973
 20
5.214539013424411
 11
1.589593361562906
 21
5.158878663129161
 72
     1
 10
1.589593361562906
 20
5.158878663129161
 11
1.752802426560306
 21
5.047424422221278
 72
     1
 10
1.752802426560306
 20
5.047424422221278
 11
2.006179496788972
 21
4.968566697882791
 72
     1
 10
2.006179496788972
 20
4.968566697882791
 11
2.113663855273026
 21
4.955737510974608
 72
     1
 10
2.113663855273026
 20
4.955737510974608
 11
2.132158009700159
 21
4.955737510974608
 72
     1
 10
2.132158009700159
 20
4.955737510974608
 11
2.132158009700159
 21
5.379965858486708
 72
     1
 10
2.132158009700159
 20
5.379965858486708
 11
2.059082021814017
 21
5.379965858486708
 72
     1
 10
2.059082021814017
 20
5.379965858486708
 11
1.98472000039497
 21
5.513870986025851
 72
     1
 10
1.98472000039497
 20
5.513870986025851
 11
1.984720000394974
 21
5.560344615240514
 72
     1
 10
1.984720000394974
 20
5.560344615240514
 11
1.301507960458823
 21
5.560101149223092
 97
        0
 92
        1
 93
       14
 72
     1
 10
3.351303213318842
 20
5.560344615240514
 11
3.348717067495575
 21
5.549359572003597
 72
     1
 10
3.348717067495575
 20
5.549359572003597
 11
3.279384638545649
 21
5.335849288478904
 72
     1
 10
3.279384638545649
 20
5.335849288478904
 11
3.058856422843812
 21
5.160397706716273
 72
     1
 10
3.058856422843812
 20
5.160397706716273
 11
2.861764107529086
 21
5.018078767061457
 72
     1
 10
2.861764107529086
 20
5.018078767061457
 11
2.837799209600045
 21
5.00105035536254
 72
     1
 10
2.837799209600045
 20
5.00105035536254
 11
2.762668502377943
 21
4.982488190635363
 72
     1
 10
2.762668502377943
 20
4.982488190635363
 11
2.581033386496642
 21
4.959398233124359
 72
     1
 10
2.581033386496642
 20
4.959398233124359
 11
2.568247546034945
 21
4.957772861777136
 72
     1
 10
2.568247546034945
 20
4.957772861777136
 11
2.544135794759096
 21
4.957772861777136
 72
     1
 10
2.544135794759096
 20
4.957772861777136
 11
2.544135794759096
 21
5.379965858486708
 72
     1
 10
2.544135794759096
 20
5.379965858486708
 11
2.617211782645233
 21
5.379965858486708
 72
     1
 10
2.617211782645233
 20
5.379965858486708
 11
2.691573804064281
 21
5.513870986025851
 72
     1
 10
2.691573804064281
 20
5.513870986025851
 11
2.691573804064281
 21
5.560344615240514
 72
     1
 10
2.691573804064281
 20
5.560344615240514
 11
3.351303213318842
 21
5.560344615240514
 97
        0
 75
     0
 76
     1
 52
45.0
 41
0.75
 77
     0
 78
     6
 53
45.0
 43
0.0
 44
0.0
 45
0.0
 46
0.2651650429449553
 79
     2
 49
0.1875
 49
-0.1875
 53
45.0
 43
-0.0497184455521791
 44
0.0497184455521791
 45
0.0
 46
0.2651650429449553
 79
     2
 49
0.1875
 49
-0.1875
 53
45.0
 43
-0.0994368911043583
 44
0.0994368911043583
 45
0.0
 46
0.2651650429449553
 79
     2
 49
0.1875
 49
-0.1875
 53
135.0
 43
-0.0994368911043583
 44
0.1325825214724777
 45
-0.2651650429449553
 46
0.0
 79
     2
 49
0.1875
 49
-0.1875
 53
135.0
 43
-0.0497184455521791
 44
0.1823009670246568
 45
-0.2651650429449553
 46
0.0
 79
     2
 49
0.1875
 49
-0.1875
 53
135.0
 43
0.0
 44
0.2320194125768359
 45
-0.2651650429449553
 46
0.0
 79
     2
 49
0.1875
 49
-0.1875
 98
        1
 10
0.0
 20
0.0
  0
LEADER
  5
33F
330
1E
100
AcDbEntity
  8
TEXT_LEADERS
100
AcDbLeader
  3
Standard
 76
     3
 10
3.427818484471184
 20
2.854291479790638
 30
0.0
 10
4.758122127955083
 20
2.341304007976203
 30
0.0
 10
4.953367627820161
 20
2.341304007976203
 30
0.0
1001
ACAD
1000
DSTYLE
1002
{
1070
   147
1040
0.09
1070
    77
1070
     0
1070
   140
1040
0.1
1070
   279
1070
     2
1002
}
  0
LEADER
  5
340
330
1E
100
AcDbEntity
  8
TEXT_LEADERS
100
AcDbLeader
  3
Standard
 76
     3
 10
4.188970365204134
 20
2.813219619096992
 30
0.0
 10
4.758122127955082
 20
2.578795383822203
 30
0.0
 10
4.953367627820161
 20
2.578795383822203
 30
0.0
1001
ACAD
1000
DSTYLE
1002
{
1070
   147
1040
0.09
1070
    77
1070
     0
1070
   140
1040
0.1
1070
   279
1070
     2
1002
}
  0
TEXT
  5
346
330
1E
100
AcDbEntity
  8
TEXT_BUBBLES
100
AcDbText
 10
4.305124228768558
 20
3.54459564809527
 30
0.0
 40
0.125
  1
7
  7
ROMANS
 72
     4
 11
4.364648038292367
 21
3.60709564809527
 31
0.0
100
AcDbText
  0
TEXT
  5
348
330
1E
100
AcDbEntity
  8
TEXT_BUBBLES
100
AcDbText
 10
4.312967291431699
 20
7.310676264940965
 30
0.0
 40
0.125
  1
1
  7
ROMANS
 72
     4
 11
4.363562529526937
 21
7.373176264940965
 31
0.0
100
AcDbText
  0
LEADER
  5
34A
330
1E
100
AcDbEntity
  8
TEXT_BUBBLES
100
AcDbLeader
  3
Standard
 76
     2
 10
2.437363407004665
 20
6.636875940992128
 30
0.0
 10
4.207312529526937
 20
7.373176264940965
 30
0.0
1001
ACAD
1000
DSTYLE
1002
{
1070
   147
1040
0.09
1070
    77
1070
     0
1070
   140
1040
0.1
1070
   279
1070
     2
1002
}
  0
LEADER
  5
34C
330
1E
100
AcDbEntity
  8
TEXT_BUBBLES
100
AcDbLeader
  3
Standard
 76
     2
 10
2.437363407004665
 20
6.341351232128769
 30
0.0
 10
4.207312529526937
 20
6.979009079180164
 30
0.0
1001
ACAD
1000
DSTYLE
1002
{
1070
   147
1040
0.09
1070
    77
1070
     0
1070
   140
1040
0.1
1070
   279
1070
     2
1002
}
  0
LEADER
  5
34E
330
1E
100
AcDbEntity
  8
TEXT_BUBBLES
100
AcDbLeader
  3
Standard
 76
     2
 10
3.797989304527016
 20
5.560344615240514
 30
0.0
 10
4.207312529526937
 20
5.766665122861619
 30
0.0
1001
ACAD
1000
DSTYLE
1002
{
1070
   147
1040
0.09
1070
    77
1070
     0
1070
   140
1040
0.1
1070
   279
1070
     2
1002
}
  0
LEADER
  5
34F
330
1E
100
AcDbEntity
  8
TEXT_BUBBLES
100
AcDbLeader
  3
Standard
 76
     2
 10
2.542103341033895
 20
4.455444382760073
 30
0.0
 10
4.207312529526937
 20
5.160710140835051
 30
0.0
1001
ACAD
1000
DSTYLE
1002
{
1070
   147
1040
0.09
1070
    77
1070
     0
1070
   140
1040
0.1
1070
   279
1070
     2
1002
}
  0
LEADER
  5
350
330
1E
100
AcDbEntity
  8
TEXT_BUBBLES
100
AcDbLeader
  3
Standard
 76
     2
 10
2.427612266002527
 20
3.501252579063681
 30
0.0
 10
4.207312529526937
 20
4.209584654017564
 30
0.0
1001
ACAD
1000
DSTYLE
1002
{
1070
   147
1040
0.09
1070
    77
1070
     0
1070
   140
1040
0.1
1070
   279
1070
     2
1002
}
  0
LEADER
  5
351
330
1E
100
AcDbEntity
  8
TEXT_BUBBLES
100
AcDbLeader
  3
Standard
 76
     2
 10
3.616776618626519
 20
3.338232666982829
 30
0.0
 10
4.208398038292367
 20
3.60709564809527
 30
0.0
1001
ACAD
1000
DSTYLE
1002
{
1070
   147
1040
0.09
1070
    77
1070
     0
1070
   140
1040
0.1
1070
   279
1070
     2
1002
}
  0
LEADER
  5
353
330
1E
100
AcDbEntity
  8
TEXT_BUBBLES
100
AcDbLeader
  3
Standard
 76
     2
 10
4.446069215073585
 20
2.813219619096992
 30
0.0
 10
4.418356914804533
 20
2.447472075425696
 30
0.0
1001
ACAD
1000
DSTYLE
1002
{
1070
   147
1040
0.09
1070
    77
1070
     0
1070
   140
1040
0.1
1070
   279
1070
     2
1002
}
  0
LEADER
  5
354
330
1E
100
AcDbEntity
  8
TEXT_BUBBLES
100
AcDbLeader
  3
Standard
 76
     2
 10
4.148237087995765
 20
2.89376276771027
 30
0.0
 10
3.967139527506319
 20
2.447472075425696
 30
0.0
1001
ACAD
1000
DSTYLE
1002
{
1070
   147
1040
0.09
1070
    77
1070
     0
1070
   140
1040
0.1
1070
   279
1070
     2
1002
}
  0
LEADER
  5
355
330
1E
100
AcDbEntity
  8
TEXT_BUBBLES
100
AcDbLeader
  3
Standard
 76
     2
 10
3.238890603129383
 20
2.854291479790638
 30
0.0
 10
3.078766191902916
 20
2.447472075425696
 30
0.0
1001
ACAD
1000
DSTYLE
1002
{
1070
   147
1040
0.09
1070
    77
1070
     0
1070
   140
1040
0.1
1070
   279
1070
     2
1002
}
  0
LEADER
  5
392
330
1E
100
AcDbEntity
  8
TEXT_BUBBLES
100
AcDbLeader
  3
Standard
 76
     2
 10
3.617400790394118
 20
6.125955203504586
 30
0.0
 10
4.207312529526937
 20
6.386839580356782
 30
0.0
1001
ACAD
1000
DSTYLE
1002
{
1070
   147
1040
0.09
1070
    77
1070
     0
1070
   140
1040
0.1
1070
   279
1070
     2
1002
}
  0
INSERT
  5
3D6
330
1E
100
AcDbEntity
  8
TITLE
100
AcDbBlockReference
 66
     1
  2
titleblock
 10
0.2050443625295231
 20
-0.2297673745704081
 30
0.0
  0
ATTRIB
  5
3D7
330
3D6
100
AcDbEntity
  8
TITLE
100
AcDbText
 10
0.7105999663318651
 20
0.5544597219079593
 30
0.0
 40
0.2
  1
D
  7
L200
 72
     4
 11
0.811486733044007
 21
0.6544597219079593
 31
0.0
100
AcDbAttribute
  2
D
 70
     0
  0
ATTRIB
  5
3D8
330
3D6
100
AcDbEntity
  8
TITLE
100
AcDbText
 10
1.436486733044007
 20
1.113944928176342
 30
0.0
 40
0.2
  1
PRESSURE COMPENSATING 
  7
L200
100
AcDbAttribute
  2
TITLE1
 70
     0
  0
ATTRIB
  5
3D9
330
3D6
100
AcDbEntity
  8
TITLE
100
AcDbText
 10
1.436486733044007
 20
0.7544597219079594
 30
0.0
 40
0.2
  1
FULL-CIRCLE BUBBLER
  7
L200
100
AcDbAttribute
  2
TITLE2
 70
     0
  0
ATTRIB
  5
3DA
330
3D6
100
AcDbEntity
  8
TITLE
100
AcDbText
 10
2.918690113697835
 20
0.3630253918879108
 30
0.0
 40
0.2
  1
RAIN BIRD 1400 ON 1804 POP-UP
  7
L200
100
AcDbAttribute
  2
TITLE3
 70
     0
  0
ATTRIB
  5
3DB
330
3D6
100
AcDbEntity
  8
TITLE
100
AcDbText
 10
2.918690113697835
 20
0.0394887062463661
 30
0.0
 40
0.2
  1

  7
L200
100
AcDbAttribute
  2
TITLE4
 70
     0
  0
ATTRIB
  5
3DC
330
3D6
100
AcDbEntity
  8
TITLE
 62
     7
100
AcDbText
 10
7.925116335353046
 20
0.7398354169742319
 30
0.0
 40
0.08
  1
1/14/04
  7
L80
 72
     2
 11
8.466068716305427
 21
0.7398354169742319
 31
0.0
100
AcDbAttribute
  2
REVISED
 70
     0
  0
ATTRIB
  5
3DD
330
3D6
100
AcDbEntity
  8
TITLE
 62
     7
100
AcDbText
 10
0.4689867330440069
 20
-0.1450557265496867
 30
0.0
 40
0.08
  1
N-1400 ON POP-UP.dwg
  7
L80
100
AcDbAttribute
  2
DWG-NAME
 70
     0
  0
ATTRIB
  5
3DE
330
3D6
100
AcDbEntity
  8
TITLE
 62
     7
100
AcDbText
 10
1.436486733044007
 20
0.4707964048250814
 30
0.0
 40
0.1
  1
N.T.S.
  7
L100
100
AcDbAttribute
  2
SCALE
 70
     0
  0
SEQEND
  5
3DF
330
3D6
100
AcDbEntity
  8
IMAGE
  0
VIEWPORT
  5
DC
330
1A
100
AcDbEntity
 67
     1
  8
0
100
AcDbViewport
 10
6.172388059701492
 20
4.5
 30
0.0
 40
12.34477611940298
 41
9.0
 68
     1
 69
     1
 12
6.172388059701492
 22
4.5
 13
0.0
 23
0.0
 14
0.14
 24
0.14
 15
0.14
 25
0.14
 16
0.0
 26
0.0
 36
1.0
 17
0.0
 27
0.0
 37
0.0
 42
50.0
 43
0.0
 44
0.0
 45
9.0
 50
0.0
 51
0.0
 72
   100
 90
    32800
  1

281
     0
 71
     0
 74
     0
110
0.0
120
0.0
130
0.0
111
0.0
121
0.0
131
0.0
112
0.0
122
0.0
132
0.0
 79
     0
146
0.0
  0
ENDSEC
  0
SECTION
  2
OBJECTS
  0
DICTIONARY
  5
C
330
0
100
AcDbDictionary
281
     1
  3
ACAD_GROUP
350
D
  3
ACAD_LAYOUT
350
19
  3
ACAD_MLINESTYLE
350
16
  3
ACAD_PLOTSETTINGS
350
18
  3
ACAD_PLOTSTYLENAME
350
E
  3
AcadDim
350
327
  3
AcDbVariableDictionary
350
2DF
  0
DICTIONARY
  5
D
102
{ACAD_REACTORS
330
C
102
}
330
C
100
AcDbDictionary
281
     1
  0
DICTIONARY
  5
19
102
{ACAD_REACTORS
330
C
102
}
330
C
100
AcDbDictionary
281
     1
  3
Layout1
350
1D
  3
Model
350
21
  0
DICTIONARY
  5
16
102
{ACAD_REACTORS
330
C
102
}
330
C
100
AcDbDictionary
281
     1
  3
Standard
350
17
  0
DICTIONARY
  5
18
102
{ACAD_REACTORS
330
C
102
}
330
C
100
AcDbDictionary
281
     1
  3
1055 B&W Full Shaded Draft
350
360
  3
1055 B&W Full Shaded Final
350
361
  3
1055 Color Full Shaded Draft
350
362
  3
1055 Color Full Shaded Final
350
363
  3
1055 PLUS B&W Full Shaded Draft
350
364
  3
1055 PLUS B&W Full Shaded Final
350
365
  3
1055 PLUS Color Full Shaded Draft
350
366
  3
1055 PLUS Color Full Shaded Final
350
367
  3
1055-B&W-Shaded-Draft
350
368
  3
1055-B&W-Shaded-Final
350
369
  3
1055-Color-Shaded-Draft
350
36A
  3
1055-Color-Shaded-Final
350
36B
  3
1055-PLUS-B&W-Shaded-Draft
350
36C
  3
1055-PLUS-B&W-Shaded-Final
350
36D
  3
1055-PLUS-Color-Shaded-Draft
350
36E
  3
1055-PLUS-Color-Shaded-Final
350
36F
  3
2200 Color Inkjet
350
370
  3
2200-Color-Inkjet
350
371
  3
24x36 PDF
350
372
  3
8500 B&W Shaded 11x17
350
373
  3
8500 B&W Shaded 8.5x11
350
374
  3
8500 Color Shaded 11x17
350
375
  3
8500 Color Shaded 8.5x11
350
376
  3
8500-B&W-Shaded-11x17
350
377
  3
8500-B&W-Shaded-8.5x11
350
378
  3
8500-Color-Shaded-11x17
350
379
  3
8500-Color-Shaded-8.5x11
350
37A
  3
Laser Jet 5 Shaded 11x17
350
37B
  3
Laser Jet 5 Shaded 8.5x11
350
37C
  3
LaserJet5-Shaded-11x17
350
37D
  3
LaserJet5-Shaded-8.5x11
350
37E
  3
Oki Doki B&W Shaded 11x17
350
37F
  3
Oki Doki B&W Shaded 8.5x11
350
380
  3
Oki Doki Color Laser
350
381
  3
Oki Doki Color Shaded 11x17
350
382
  3
Oki Doki Color Shaded 8.5x11
350
383
  3
Oki-Doki-B&W-Shaded-11x17
350
384
  3
Oki-Doki-B&W-Shaded-8.5x11
350
385
  3
Oki-Doki-Color-Laser
350
386
  3
Oki-Doki-Color-Shaded-11x17
350
387
  3
Oki-Doki-Color-Shaded-8.5x11
350
388
  0
ACDBDICTIONARYWDFLT
  5
E
102
{ACAD_REACTORS
330
C
102
}
330
C
100
AcDbDictionary
281
     1
  3
Normal
350
F
100
AcDbDictionaryWithDefault
340
F
  0
XRECORD
  5
327
102
{ACAD_REACTORS
330
C
102
}
330
C
100
AcDbXrecord
280
     1
 90
   990106
  3

 60
     4
 61
     0
 62
     1
 63
     3
 64
     0
 65
     0
 66
     0
 67
     3
 68
     1
 69
     0
 70
     0
 71
     0
 72
     0
 40
0.0
170
     0
  0
DICTIONARY
  5
2DF
102
{ACAD_REACTORS
330
C
102
}
330
C
100
AcDbDictionary
281
     1
  3
DIMASSOC
350
2E2
  3
HIDETEXT
350
2E1
  3
SORTENTS
350
2E0
  0
LAYOUT
  5
1D
102
{ACAD_REACTORS
330
19
102
}
330
19
100
AcDbPlotSettings
  1

  2
S:\AutoCAD 2002\Plotters\1055B&WDraftShaded.pc3
  4

  6

 40
0.0
 41
0.0
 42
0.0
 43
0.0
 44
0.0
 45
0.0
 46
0.0
 47
0.0
 48
0.0
 49
0.0
140
0.0
141
0.0
142
1.0
143
1.0
 70
   688
 72
     0
 73
     0
 74
     5
  7
TRexLJ5Shaded2.ctb
 75
    16
147
1.0
148
0.0
149
0.0
100
AcDbLayout
  1
Layout1
 70
     1
 71
     1
 10
0.0
 20
0.0
 11
12.0
 21
9.0
 12
0.0
 22
0.0
 32
0.0
 14
1.000000000000000E+20
 24
1.000000000000000E+20
 34
1.000000000000000E+20
 15
-1.000000000000000E+20
 25
-1.000000000000000E+20
 35
-1.000000000000000E+20
146
0.0
 13
0.0
 23
0.0
 33
0.0
 16
1.0
 26
0.0
 36
0.0
 17
0.0
 27
1.0
 37
0.0
 76
     0
330
1A
331
DC
  0
LAYOUT
  5
21
102
{ACAD_REACTORS
330
19
102
}
330
19
100
AcDbPlotSettings
  1

  2
OKI DOKI Color Laser.pc3
  4
Tabloid
  6

 40
5.027083396911621
 41
5.027085304260253
 42
5.027099609375
 43
5.027069091796875
 44
279.3999938964843
 45
431.7999877929687
 46
1.27
 47
0.0
 48
0.0
 49
0.0000000000000001
140
16.48999999999999
141
10.44
142
1.0
143
0.9931242156595709
 70
 11956
 72
     0
 73
     1
 74
     4
  7
OKIColorShaded.ctb
 75
     0
147
1.006923388063659
148
0.0
149
-0.0000000000000028
100
AcDbLayout
  1
Model
 70
     1
 71
     0
 10
0.0
 20
0.0
 11
12.0
 21
9.0
 12
0.0
 22
0.0
 32
0.0
 14
0.0
 24
0.0
 34
0.0
 15
0.0
 25
0.0
 35
0.0
146
0.0
 13
0.0
 23
0.0
 33
0.0
 16
1.0
 26
0.0
 36
0.0
 17
0.0
 27
1.0
 37
0.0
 76
     0
330
1E
  0
MLINESTYLE
  5
17
102
{ACAD_REACTORS
330
16
102
}
330
16
100
AcDbMlineStyle
  2
STANDARD
 70
     0
  3

 62
   256
 51
90.0
 52
90.0
 71
     2
 49
0.5
 62
   256
  6
BYLAYER
 49
-0.5
 62
   256
  6
BYLAYER
  0
PLOTSETTINGS
  5
360
102
{ACAD_REACTORS
330
18
102
}
330
18
100
AcDbPlotSettings
  1
1055 B&W Full Shaded Draft
  2
1055B&WDraftShaded.pc3
  4
User607
  6
ps1
 40
0.0
 41
0.0
 42
0.0
 43
0.0
 44
901.7000122070312
 45
1155.700073242187
 46
0.0
 47
0.0
 48
180377.877572
 49
80019.819395
140
180380.8390819999
141
80022.26069
142
1.0
143
1.0
 70
   688
 72
     0
 73
     2
 74
     3
  7
1055B&WFullDraftShaded.ctb
 75
    16
147
1.0
148
-4581603.303200401
149
-2032962.095032944
  0
PLOTSETTINGS
  5
361
102
{ACAD_REACTORS
330
18
102
}
330
18
100
AcDbPlotSettings
  1
1055 B&W Full Shaded Final
  2
1055B&WFinalShaded.pc3
  4
User257
  6
PS1
 40
4.995333194732666
 41
8.297271728515625
 42
4.99530029296875
 43
8.29736328125
 44
911.6906738281249
 45
1172.294677734375
 46
0.0
 47
0.0
 48
180377.877572
 49
80019.819395
140
180380.8390819999
141
80022.26069
142
1.0
143
1.0
 70
   688
 72
     0
 73
     3
 74
     3
  7
1055B&WFullFinalShaded.ctb
 75
    16
147
1.0
148
-4581603.303200401
149
-2032962.095032944
  0
PLOTSETTINGS
  5
362
102
{ACAD_REACTORS
330
18
102
}
330
18
100
AcDbPlotSettings
  1
1055 Color Full Shaded Draft
  2
1055ColorDraftShaded.pc3
  4
User607
  6
PS1
 40
0.0
 41
0.0
 42
0.0
 43
0.0
 44
901.7000122070312
 45
1155.700073242187
 46
0.0
 47
0.0
 48
180377.877572
 49
80019.819395
140
180380.8390819999
141
80022.26069
142
1.0
143
1.0
 70
   688
 72
     0
 73
     2
 74
     3
  7
1055ColorFullDraftShaded.ctb
 75
    16
147
1.0
148
-4581603.303200401
149
-2032962.095032944
  0
PLOTSETTINGS
  5
363
102
{ACAD_REACTORS
330
18
102
}
330
18
100
AcDbPlotSettings
  1
1055 Color Full Shaded Final
  2
1055ColorFinalShaded.pc3
  4
User607
  6
PS1
 40
0.0
 41
0.0
 42
0.0
 43
0.0
 44
901.7000122070312
 45
1155.700073242187
 46
0.0
 47
0.0
 48
180377.877572
 49
80019.819395
140
180380.8390819999
141
80022.26069
142
1.0
143
1.0
 70
   688
 72
     0
 73
     2
 74
     3
  7
1055ColorFullFinalShaded.ctb
 75
    16
147
1.0
148
-4581603.303200401
149
-2032962.095032944
  0
PLOTSETTINGS
  5
364
102
{ACAD_REACTORS
330
18
102
}
330
18
100
AcDbPlotSettings
  1
1055 PLUS B&W Full Shaded Draft
  2
1055_PLUS_B&WDraftShaded.pc3
  4
User257
  6
ps1
 40
4.995333194732666
 41
8.297393798828125
 42
4.99530029296875
 43
8.29736328125
 44
901.6152954101562
 45
1155.615356445312
 46
0.0
 47
0.0
 48
180377.877572
 49
80019.819395
140
180380.8390819999
141
80022.26069
142
1.0
143
1.0
 70
   688
 72
     0
 73
     3
 74
     5
  7
1055B&WFullDraftShaded.ctb
 75
    16
147
1.0
148
-4581603.303200401
149
-2032962.095032944
  0
PLOTSETTINGS
  5
365
102
{ACAD_REACTORS
330
18
102
}
330
18
100
AcDbPlotSettings
  1
1055 PLUS B&W Full Shaded Final
  2
1055_PLUS_B&WFinalShaded.pc3
  4
User257
  6
PS1
 40
4.995333194732666
 41
8.297271728515625
 42
4.99530029296875
 43
8.29736328125
 44
901.6576538085937
 45
1155.657592773437
 46
0.0
 47
0.0
 48
180377.877572
 49
80019.819395
140
180380.8390819999
141
80022.26069
142
1.0
143
1.0
 70
   688
 72
     0
 73
     3
 74
     5
  7
1055B&WFullFinalShaded.ctb
 75
    16
147
1.0
148
-4581603.303200401
149
-2032962.095032944
  0
PLOTSETTINGS
  5
366
102
{ACAD_REACTORS
330
18
102
}
330
18
100
AcDbPlotSettings
  1
1055 PLUS Color Full Shaded Draft
  2
1055_PLUS_ColorDraftShaded.pc3
  4
User257
  6
PS1
 40
4.995333194732666
 41
8.297393798828125
 42
4.99530029296875
 43
8.29736328125
 44
901.6152954101562
 45
1155.615356445312
 46
0.0
 47
0.0
 48
180377.877572
 49
80019.819395
140
180380.8390819999
141
80022.26069
142
1.0
143
1.0
 70
   688
 72
     0
 73
     3
 74
     5
  7
1055ColorFullDraftShaded.ctb
 75
    16
147
1.0
148
-4581603.303200401
149
-2032962.095032944
  0
PLOTSETTINGS
  5
367
102
{ACAD_REACTORS
330
18
102
}
330
18
100
AcDbPlotSettings
  1
1055 PLUS Color Full Shaded Final
  2
1055_PLUS_ColorFinalShaded.pc3
  4
User257
  6
PS1
 40
4.995333194732666
 41
8.297271728515625
 42
4.99530029296875
 43
8.29736328125
 44
901.6576538085937
 45
1155.657592773437
 46
0.0
 47
0.0
 48
180377.877572
 49
80019.819395
140
180380.8390819999
141
80022.26069
142
1.0
143
1.0
 70
   688
 72
     0
 73
     3
 74
     5
  7
1055ColorFullFinalShaded.ctb
 75
    16
147
1.0
148
-4581603.303200401
149
-2032962.095032944
  0
PLOTSETTINGS
  5
368
102
{ACAD_REACTORS
330
18
102
}
330
18
100
AcDbPlotSettings
  1
1055-B&W-Shaded-Draft
  2
1055B&WDraftShaded.pc3
  4
User257
  6

 40
4.995333194732666
 41
8.297393798828125
 42
4.99530029296875
 43
8.29736328125
 44
901.6152954101562
 45
1155.615356445312
 46
0.0
 47
0.0
 48
180360.0524337165
 49
80033.77936194791
140
180369.1574725906
141
80037.61796031875
142
1.0
143
30.0
 70
  1696
 72
     0
 73
     1
 74
     1
  7
1055B&WFullDraftShaded.ctb
 75
     0
147
0.0333333333333333
148
-190.0773302744904
149
-129.2444057835751
  0
PLOTSETTINGS
  5
369
102
{ACAD_REACTORS
330
18
102
}
330
18
100
AcDbPlotSettings
  1
1055-B&W-Shaded-Final
  2
1055B&WFinalShaded.pc3
  4
User607
  6

 40
0.0
 41
0.0
 42
0.0
 43
0.0
 44
901.7000122070312
 45
1155.700073242187
 46
0.0
 47
0.0
 48
180360.0524337165
 49
80033.77936194791
140
180369.1574725906
141
80037.61796031875
142
1.0
143
30.0
 70
  1696
 72
     0
 73
     1
 74
     1
  7
1055B&WFullFinalShaded.ctb
 75
     0
147
0.0333333333333333
148
-190.0773302744904
149
-129.2444057835751
  0
PLOTSETTINGS
  5
36A
102
{ACAD_REACTORS
330
18
102
}
330
18
100
AcDbPlotSettings
  1
1055-Color-Shaded-Draft
  2
1055ColorDraftShaded.pc3
  4
User257
  6

 40
4.995333194732666
 41
8.297393798828125
 42
4.99530029296875
 43
8.29736328125
 44
901.6152954101562
 45
1155.615356445312
 46
0.0
 47
0.0
 48
180360.0524337165
 49
80033.77936194791
140
180369.1574725906
141
80037.61796031875
142
1.0
143
30.0
 70
  1696
 72
     0
 73
     1
 74
     1
  7
1055ColorFullDraftShaded.ctb
 75
     0
147
0.0333333333333333
148
-190.0773302744904
149
-129.2444057835751
  0
PLOTSETTINGS
  5
36B
102
{ACAD_REACTORS
330
18
102
}
330
18
100
AcDbPlotSettings
  1
1055-Color-Shaded-Final
  2
1055ColorDraftShaded.pc3
  4
User257
  6

 40
4.995333194732666
 41
8.297393798828125
 42
4.99530029296875
 43
8.29736328125
 44
901.6152954101562
 45
1155.615356445312
 46
0.0
 47
0.0
 48
180360.0524337165
 49
80033.77936194791
140
180369.1574725906
141
80037.61796031875
142
1.0
143
30.0
 70
  1696
 72
     0
 73
     1
 74
     1
  7
1055ColorFullFinalShaded.ctb
 75
     0
147
0.0333333333333333
148
-190.0773302744904
149
-129.2444057835751
  0
PLOTSETTINGS
  5
36C
102
{ACAD_REACTORS
330
18
102
}
330
18
100
AcDbPlotSettings
  1
1055-PLUS-B&W-Shaded-Draft
  2
1055_PLUS_B&WDraftShaded.pc3
  4
User257
  6

 40
4.995333194732666
 41
8.297393798828125
 42
4.99530029296875
 43
8.29736328125
 44
901.6152954101562
 45
1155.615356445312
 46
0.0
 47
0.0
 48
180360.0524337165
 49
80033.77936194791
140
180369.1574725906
141
80037.61796031875
142
1.0
143
30.0
 70
  1696
 72
     0
 73
     1
 74
     0
  7
1055B&WFullDraftShaded.ctb
 75
     0
147
0.0333333333333333
148
0.9506237099442845
149
8.593888772447144
  0
PLOTSETTINGS
  5
36D
102
{ACAD_REACTORS
330
18
102
}
330
18
100
AcDbPlotSettings
  1
1055-PLUS-B&W-Shaded-Final
  2
1055_PLUS_B&WFinalShaded.pc3
  4
User257
  6

 40
4.995333194732666
 41
8.297271728515625
 42
4.99530029296875
 43
8.29736328125
 44
901.6576538085937
 45
1155.657592773437
 46
0.0
 47
0.0
 48
180360.0524337165
 49
80033.77936194791
140
180369.1574725906
141
80037.61796031875
142
1.0
143
30.0
 70
  1696
 72
     0
 73
     1
 74
     0
  7
1055B&WFullFinalShaded.ctb
 75
     0
147
0.0333333333333333
148
0.9506237099442845
149
8.593888772447144
  0
PLOTSETTINGS
  5
36E
102
{ACAD_REACTORS
330
18
102
}
330
18
100
AcDbPlotSettings
  1
1055-PLUS-Color-Shaded-Draft
  2
1055_PLUS_ColorDraftShaded.pc3
  4
User257
  6

 40
4.995333194732666
 41
8.297393798828125
 42
4.99530029296875
 43
8.29736328125
 44
901.6152954101562
 45
1155.615356445312
 46
0.0
 47
0.0
 48
180360.0524337165
 49
80033.77936194791
140
180369.1574725906
141
80037.61796031875
142
1.0
143
30.0
 70
  1696
 72
     0
 73
     1
 74
     0
  7
1055ColorFullDraftShaded.ctb
 75
     0
147
0.0333333333333333
148
0.9506237099442845
149
8.593888772447144
  0
PLOTSETTINGS
  5
36F
102
{ACAD_REACTORS
330
18
102
}
330
18
100
AcDbPlotSettings
  1
1055-PLUS-Color-Shaded-Final
  2
1055_PLUS_ColorFinalShaded.pc3
  4
User257
  6

 40
4.995333194732666
 41
8.297271728515625
 42
4.99530029296875
 43
8.29736328125
 44
901.6576538085937
 45
1155.657592773437
 46
0.0
 47
0.0
 48
180360.0524337165
 49
80033.77936194791
140
180369.1574725906
141
80037.61796031875
142
1.0
143
30.0
 70
  1696
 72
     0
 73
     1
 74
     0
  7
1055ColorFullFinalShaded.ctb
 75
     0
147
0.0333333333333333
148
0.9506237099442845
149
8.593888772447144
  0
PLOTSETTINGS
  5
370
102
{ACAD_REACTORS
330
18
102
}
330
18
100
AcDbPlotSettings
  1
2200 Color Inkjet
  2
HP  2200 Color Inkjet.pc3
  4
Letter
  6
PS1
 40
7.143749713897705
 41
12.47775650024414
 42
7.14373779296875
 43
3.17498779296875
 44
215.8999938964843
 45
279.3999938964843
 46
0.0
 47
0.0
 48
180377.877572
 49
80019.819395
140
180380.8390819999
141
80022.26069
142
1.0
143
0.3486331030131726
 70
   688
 72
     0
 73
     1
 74
     3
  7
Color.ctb
 75
     0
147
2.868344948764708
148
-4581603.303200401
149
-2032962.095032944
  0
PLOTSETTINGS
  5
371
102
{ACAD_REACTORS
330
18
102
}
330
18
100
AcDbPlotSettings
  1
2200-Color-Inkjet
  2
HP  2200 Color Inkjet.pc3
  4
Letter
  6

 40
7.143749713897705
 41
12.47775650024414
 42
7.14373779296875
 43
3.17498779296875
 44
215.8999938964843
 45
279.3999938964843
 46
0.0
 47
0.0
 48
180360.0524337165
 49
80033.77936194791
140
180369.1574725906
141
80037.61796031875
142
1.0
143
0.069393053089765
 70
  1712
 72
     0
 73
     1
 74
     1
  7
Color.ctb
 75
     0
147
14.41066440334347
148
-190.0773302744904
149
-129.2444057835751
  0
PLOTSETTINGS
  5
372
102
{ACAD_REACTORS
330
18
102
}
330
18
100
AcDbPlotSettings
  1
24x36 PDF
  2
Bluebeam PDF Printer.pc3
  4
User128
  6
PS1
 40
3.174999952316284
 41
3.174999952316284
 42
3.17498779296875
 43
3.17498779296875
 44
609.5999755859375
 45
914.3999633789062
 46
270.5099999999999
 47
416.3059999999999
 48
180377.877572
 49
80019.819395
140
180380.8390819999
141
80022.26069
142
1.0
143
1.0
 70
   692
 72
     0
 73
     1
 74
     4
  7
1055B&WFullDraftShaded.ctb
 75
    16
147
1.0
148
-4581598.0903288
149
-2032503.412632999
  0
PLOTSETTINGS
  5
373
102
{ACAD_REACTORS
330
18
102
}
330
18
100
AcDbPlotSettings
  1
8500 B&W Shaded 11x17
  2
8500B&WShaded.pc3
  4
11x17
  6
PS1
 40
5.027083396911621
 41
5.027085304260253
 42
5.027099609375
 43
5.027069091796875
 44
279.3999938964843
 45
431.7999877929687
 46
0.0
 47
92.964
 48
180377.877572
 49
80019.819395
140
180380.8390819999
141
80022.26069
142
1.0
143
0.0116192543742624
 70
   692
 72
     0
 73
     1
 74
     3
  7
8500B&WShaded.ctb
 75
     0
147
86.06404230335863
148
-4581651.879813895
149
-2032998.63613423
  0
PLOTSETTINGS
  5
374
102
{ACAD_REACTORS
330
18
102
}
330
18
100
AcDbPlotSettings
  1
8500 B&W Shaded 8.5x11
  2
8500B&WShaded.pc3
  4
Letter
  6
PS1
 40
5.027083396911621
 41
5.027085304260253
 42
5.027084350585937
 43
5.027069091796875
 44
215.8999938964843
 45
279.3999938964843
 46
0.0
 47
44.44999999999999
 48
180377.877572
 49
80019.819395
140
180380.8390819999
141
80022.26069
142
1.0
143
0.0152035994604527
 70
   692
 72
     0
 73
     1
 74
     3
  7
8500B&WShaded.ctb
 75
     0
147
65.77389799048455
148
-4581651.879813895
149
-2032998.63613423
  0
PLOTSETTINGS
  5
375
102
{ACAD_REACTORS
330
18
102
}
330
18
100
AcDbPlotSettings
  1
8500 Color Shaded 11x17
  2
8500ColorShaded.pc3
  4
11x17
  6
PS1
 40
5.027083396911621
 41
5.027085304260253
 42
5.027099609375
 43
5.027069091796875
 44
279.3999938964843
 45
431.7999877929687
 46
0.0
 47
92.964
 48
180377.877572
 49
80019.819395
140
180380.8390819999
141
80022.26069
142
1.0
143
0.0116192543742624
 70
   692
 72
     0
 73
     1
 74
     3
  7
8500ColorShaded.ctb
 75
     0
147
86.06404230335863
148
-4581651.879813895
149
-2032998.63613423
  0
PLOTSETTINGS
  5
376
102
{ACAD_REACTORS
330
18
102
}
330
18
100
AcDbPlotSettings
  1
8500 Color Shaded 8.5x11
  2
8500ColorShaded.pc3
  4
Letter
  6
PS1
 40
5.027083396911621
 41
5.027085304260253
 42
5.027084350585937
 43
5.027069091796875
 44
215.8999938964843
 45
279.3999938964843
 46
0.0
 47
44.44999999999999
 48
180377.877572
 49
80019.819395
140
180380.8390819999
141
80022.26069
142
1.0
143
0.0152035994604527
 70
   692
 72
     0
 73
     1
 74
     3
  7
8500ColorShaded.ctb
 75
     0
147
65.77389799048455
148
-4581651.879813895
149
-2032998.63613423
  0
PLOTSETTINGS
  5
377
102
{ACAD_REACTORS
330
18
102
}
330
18
100
AcDbPlotSettings
  1
8500-B&W-Shaded-11x17
  2
8500B&WShaded.pc3
  4
11x17
  6

 40
5.027083396911621
 41
5.027085304260253
 42
5.027099609375
 43
5.027069091796875
 44
279.3999938964843
 45
431.7999877929687
 46
0.0
 47
0.0
 48
180360.0524337165
 49
80033.77936194791
140
180369.1574725906
141
80037.61796031875
142
1.0
143
0.0519425466957002
 70
  1712
 72
     0
 73
     1
 74
     1
  7
8500B&WShaded.ctb
 75
     0
147
19.252040256293
148
-190.0773302744904
149
-129.2444057835751
  0
PLOTSETTINGS
  5
378
102
{ACAD_REACTORS
330
18
102
}
330
18
100
AcDbPlotSettings
  1
8500-B&W-Shaded-8.5x11
  2
8500B&WShaded.pc3
  4
Letter
  6

 40
5.027083396911621
 41
5.027085304260253
 42
5.027084350585937
 43
5.027069091796875
 44
215.8999938964843
 45
279.3999938964843
 46
0.0
 47
0.0
 48
180360.0524337165
 49
80033.77936194791
140
180369.1574725906
141
80037.61796031875
142
1.0
143
0.0679659511256221
 70
  1712
 72
     0
 73
     1
 74
     1
  7
8500B&WShaded.ctb
 75
     0
147
14.71324955273106
148
-190.0773302744904
149
-129.2444057835751
  0
PLOTSETTINGS
  5
379
102
{ACAD_REACTORS
330
18
102
}
330
18
100
AcDbPlotSettings
  1
8500-Color-Shaded-11x17
  2
8500ColorShaded.pc3
  4
11x17
  6

 40
5.027083396911621
 41
5.027085304260253
 42
5.027099609375
 43
5.027069091796875
 44
279.3999938964843
 45
431.7999877929687
 46
0.0
 47
0.0
 48
180360.0524337165
 49
80033.77936194791
140
180369.1574725906
141
80037.61796031875
142
1.0
143
0.0519425466957002
 70
  1712
 72
     0
 73
     1
 74
     1
  7
8500ColorShaded.ctb
 75
     0
147
19.252040256293
148
-190.0773302744904
149
-129.2444057835751
  0
PLOTSETTINGS
  5
37A
102
{ACAD_REACTORS
330
18
102
}
330
18
100
AcDbPlotSettings
  1
8500-Color-Shaded-8.5x11
  2
8500ColorShaded.pc3
  4
Letter
  6

 40
5.027083396911621
 41
5.027085304260253
 42
5.027084350585937
 43
5.027069091796875
 44
215.8999938964843
 45
279.3999938964843
 46
0.0
 47
0.0
 48
180360.0524337165
 49
80033.77936194791
140
180369.1574725906
141
80037.61796031875
142
1.0
143
0.0679659511256221
 70
  1712
 72
     0
 73
     1
 74
     1
  7
8500ColorShaded.ctb
 75
     0
147
14.71324955273106
148
-190.0773302744904
149
-129.2444057835751
  0
PLOTSETTINGS
  5
37B
102
{ACAD_REACTORS
330
18
102
}
330
18
100
AcDbPlotSettings
  1
Laser Jet 5 Shaded 11x17
  2
LaserJet5Shaded.pc3
  4
11x17
  6
PS1
 40
7.143749713897705
 41
5.873736858367919
 42
7.143768310546875
 43
7.14373779296875
 44
279.3999938964843
 45
431.7999877929687
 46
0.0
 47
29.71799999999999
 48
180377.877572
 49
80019.819395
140
180380.8390819999
141
80022.26069
142
1.0
143
0.2557442899420743
 70
   692
 72
     0
 73
     1
 74
     3
  7
LaserJet5Shaded.ctb
 75
     0
147
3.910155727138614
148
-4581603.303200401
149
-2032962.095032944
  0
PLOTSETTINGS
  5
37C
102
{ACAD_REACTORS
330
18
102
}
330
18
100
AcDbPlotSettings
  1
Laser Jet 5 Shaded 8.5x11
  2
LaserJet5Shaded.pc3
  4
Letter
  6
PS1
 40
7.143749713897705
 41
6.974400997161865
 42
7.14373779296875
 43
6.297088623046875
 44
215.8999938964843
 45
279.3999938964843
 46
2.794
 47
0.0
 48
180377.877572
 49
80019.819395
140
180380.8390819999
141
80022.26069
142
1.0
143
0.345513616778612
 70
   692
 72
     0
 73
     1
 74
     3
  7
LaserJet5Shaded.ctb
 75
     0
147
2.894241938489939
148
-4581603.303200401
149
-2032962.095032944
  0
PLOTSETTINGS
  5
37D
102
{ACAD_REACTORS
330
18
102
}
330
18
100
AcDbPlotSettings
  1
LaserJet5-Shaded-11x17
  2
LaserJet5Shaded.pc3
  4
11x17
  6

 40
7.143749713897705
 41
5.873736858367919
 42
7.143768310546875
 43
7.14373779296875
 44
279.3999938964843
 45
431.7999877929687
 46
0.0
 47
0.0
 48
180360.0524337165
 49
80033.77936194791
140
180369.1574725906
141
80037.61796031875
142
1.0
143
0.0527719690046124
 70
  1712
 72
     0
 73
     1
 74
     1
  7
LaserJet5Shaded.ctb
 75
     0
147
18.9494540162524
148
-190.0773302744904
149
-129.2444057835751
  0
PLOTSETTINGS
  5
37E
102
{ACAD_REACTORS
330
18
102
}
330
18
100
AcDbPlotSettings
  1
LaserJet5-Shaded-8.5x11
  2
LaserJet5Shaded.pc3
  4
Letter
  6

 40
7.143749713897705
 41
6.974400997161865
 42
7.14373779296875
 43
6.297088623046875
 44
215.8999938964843
 45
279.3999938964843
 46
0.0
 47
0.0
 48
180360.0524337165
 49
80033.77936194791
140
180369.1574725906
141
80037.61796031875
142
1.0
143
0.069393053089765
 70
  1712
 72
     0
 73
     1
 74
     1
  7
LaserJet5Shaded.ctb
 75
     0
147
14.41066440334347
148
-190.0773302744904
149
-129.2444057835751
  0
PLOTSETTINGS
  5
37F
102
{ACAD_REACTORS
330
18
102
}
330
18
100
AcDbPlotSettings
  1
Oki Doki B&W Shaded 11x17
  2
OKI DOKI Color Laser.pc3
  4
Tabloid
  6
PS1
 40
5.027083396911621
 41
5.027085304260253
 42
5.027099609375
 43
5.027069091796875
 44
279.3999938964843
 45
431.7999877929687
 46
0.0
 47
47.49799999999999
 48
180377.877572
 49
80019.819395
140
180380.8390819999
141
80022.26069
142
1.0
143
0.2302203728173071
 70
   692
 72
     0
 73
     1
 74
     4
  7
OKIB&WShaded.ctb
 75
     0
147
4.343664236846477
148
-4581598.0903288
149
-2032503.412632999
  0
PLOTSETTINGS
  5
380
102
{ACAD_REACTORS
330
18
102
}
330
18
100
AcDbPlotSettings
  1
Oki Doki B&W Shaded 8.5x11
  2
OKI DOKI Color Laser.pc3
  4
Letter
  6
PS1
 40
5.027083396911621
 41
5.027085304260253
 42
5.027084350585937
 43
5.027069091796875
 44
215.8999938964843
 45
279.3999938964843
 46
0.0
 47
9.906
 48
180377.877572
 49
80019.819395
140
180380.8390819999
141
80022.26069
142
1.0
143
0.3012394963745367
 70
   692
 72
     0
 73
     1
 74
     4
  7
OKIB&WShaded.ctb
 75
     0
147
3.319617819161008
148
-4581598.0903288
149
-2032503.412632999
  0
PLOTSETTINGS
  5
381
102
{ACAD_REACTORS
330
18
102
}
330
18
100
AcDbPlotSettings
  1
Oki Doki Color Laser
  2
OKI DOKI Color Laser.pc3
  4
Letter
  6
PS1
 40
5.027083396911621
 41
5.027085304260253
 42
5.027084350585937
 43
5.027069091796875
 44
215.8999938964843
 45
279.3999938964843
 46
71.88199999999999
 47
97.02799999999999
 48
180377.877572
 49
80019.819395
140
180380.8390819999
141
80022.26069
142
1.0
143
1.0
 70
   692
 72
     0
 73
     1
 74
     4
  7
Color.ctb
 75
    16
147
1.0
148
-4581598.0903288
149
-2032503.412632999
  0
PLOTSETTINGS
  5
382
102
{ACAD_REACTORS
330
18
102
}
330
18
100
AcDbPlotSettings
  1
Oki Doki Color Shaded 11x17
  2
OKI DOKI Color Laser.pc3
  4
Tabloid
  6
PS1
 40
5.027083396911621
 41
5.027085304260253
 42
5.027099609375
 43
5.027069091796875
 44
279.3999938964843
 45
431.7999877929687
 46
0.0
 47
47.49799999999999
 48
180377.877572
 49
80019.819395
140
180380.8390819999
141
80022.26069
142
1.0
143
0.2302203728173071
 70
   692
 72
     0
 73
     1
 74
     4
  7
OKIColorShaded.ctb
 75
     0
147
4.343664236846477
148
-4581598.0903288
149
-2032503.412632999
  0
PLOTSETTINGS
  5
383
102
{ACAD_REACTORS
330
18
102
}
330
18
100
AcDbPlotSettings
  1
Oki Doki Color Shaded 8.5x11
  2
OKI DOKI Color Laser.pc3
  4
Letter
  6
PS1
 40
5.027083396911621
 41
5.027085304260253
 42
5.027084350585937
 43
5.027069091796875
 44
215.8999938964843
 45
279.3999938964843
 46
0.0
 47
9.906
 48
180377.877572
 49
80019.819395
140
180380.8390819999
141
80022.26069
142
1.0
143
0.3012394963745367
 70
   692
 72
     0
 73
     1
 74
     4
  7
OKIColorShaded.ctb
 75
     0
147
3.319617819161008
148
-4581598.0903288
149
-2032503.412632999
  0
PLOTSETTINGS
  5
384
102
{ACAD_REACTORS
330
18
102
}
330
18
100
AcDbPlotSettings
  1
Oki-Doki-B&W-Shaded-11x17
  2
OKI DOKI Color Laser.pc3
  4
Tabloid
  6

 40
5.027083396911621
 41
5.027085304260253
 42
5.027099609375
 43
5.027069091796875
 44
279.3999938964843
 45
431.7999877929687
 46
45.72
 47
0.0
 48
180360.0524337165
 49
80033.77936194791
140
180369.1574725906
141
80037.61796031875
142
1.0
143
0.5483586774064594
 70
  1716
 72
     0
 73
     1
 74
     4
  7
OKIB&WShaded.ctb
 75
     0
147
1.823623918435361
148
-4581145.331816398
149
-2032857.995793476
  0
PLOTSETTINGS
  5
385
102
{ACAD_REACTORS
330
18
102
}
330
18
100
AcDbPlotSettings
  1
Oki-Doki-B&W-Shaded-8.5x11
  2
OKI DOKI Color Laser.pc3
  4
Letter
  6

 40
5.027083396911621
 41
5.027085304260253
 42
5.027084350585937
 43
5.027069091796875
 44
215.8999938964843
 45
279.3999938964843
 46
46.228
 47
0.0
 48
180360.0524337165
 49
80033.77936194791
140
180369.1574725906
141
80037.61796031875
142
1.0
143
0.8586284006917006
 70
  1716
 72
     0
 73
     1
 74
     4
  7
OKIB&WShaded.ctb
 75
     0
147
1.16464817515285
148
-4581145.331816398
149
-2032857.995793476
  0
PLOTSETTINGS
  5
386
102
{ACAD_REACTORS
330
18
102
}
330
18
100
AcDbPlotSettings
  1
Oki-Doki-Color-Laser
  2
OKI DOKI Color Laser.pc3
  4
Letter
  6

 40
5.027083396911621
 41
5.027085304260253
 42
5.027084350585937
 43
5.027069091796875
 44
215.8999938964843
 45
279.3999938964843
 46
17.018
 47
0.0
 48
180360.0524337165
 49
80033.77936194791
140
180369.1574725906
141
80037.61796031875
142
1.0
143
1.429088128819241
 70
  1716
 72
     0
 73
     1
 74
     0
  7
Color.ctb
 75
     0
147
0.6997469084193093
148
0.9506237099442977
149
8.593888772447144
  0
PLOTSETTINGS
  5
387
102
{ACAD_REACTORS
330
18
102
}
330
18
100
AcDbPlotSettings
  1
Oki-Doki-Color-Shaded-11x17
  2
OKI DOKI Color Laser.pc3
  4
Tabloid
  6

 40
5.027083396911621
 41
5.027085304260253
 42
5.027099609375
 43
5.027069091796875
 44
279.3999938964843
 45
431.7999877929687
 46
45.72
 47
0.0
 48
180360.0524337165
 49
80033.77936194791
140
180369.1574725906
141
80037.61796031875
142
1.0
143
0.5483586774064594
 70
  1716
 72
     0
 73
     1
 74
     4
  7
OKIColorShaded.ctb
 75
     0
147
1.823623918435361
148
-4581145.331816398
149
-2032857.995793476
  0
PLOTSETTINGS
  5
388
102
{ACAD_REACTORS
330
18
102
}
330
18
100
AcDbPlotSettings
  1
Oki-Doki-Color-Shaded-8.5x11
  2
OKI DOKI Color Laser.pc3
  4
Letter
  6

 40
5.027083396911621
 41
5.027085304260253
 42
5.027084350585937
 43
5.027069091796875
 44
215.8999938964843
 45
279.3999938964843
 46
46.228
 47
0.0
 48
180360.0524337165
 49
80033.77936194791
140
180369.1574725906
141
80037.61796031875
142
1.0
143
0.8586284006917006
 70
  1716
 72
     0
 73
     1
 74
     4
  7
OKIColorShaded.ctb
 75
     0
147
1.16464817515285
148
-4581145.331816398
149
-2032857.995793476
  0
ACDBPLACEHOLDER
  5
F
102
{ACAD_REACTORS
330
E
102
}
330
E
  0
DICTIONARYVAR
  5
2E2
102
{ACAD_REACTORS
330
2DF
102
}
330
2DF
100
DictionaryVariables
280
     0
  1
1
  0
DICTIONARYVAR
  5
2E1
102
{ACAD_REACTORS
330
2DF
102
}
330
2DF
100
DictionaryVariables
280
     0
  1
1
  0
DICTIONARYVAR
  5
2E0
102
{ACAD_REACTORS
330
2DF
102
}
330
2DF
100
DictionaryVariables
280
     0
  1
1
  0
ENDSEC
  0
EOF
