  0
SECTION
  2
HEADER
  9
$ACADVER
  1
AC1015
  9
$ACADMAINTVER
 70
    13
  9
$DWGCODEPAGE
  3
ANSI_1252
  9
$INSBASE
 10
0.0
 20
0.0
 30
0.0
  9
$EXTMIN
 10
0.0
 20
0.0
 30
0.0
  9
$EXTMAX
 10
16.48999999999999
 20
10.44
 30
0.03
  9
$LIMMIN
 10
0.0
 20
0.0
  9
$LIMMAX
 10
12.0
 20
9.0
  9
$ORTHOMODE
 70
     0
  9
$REGENMODE
 70
     1
  9
$FILLMODE
 70
     1
  9
$QTEXTMODE
 70
     0
  9
$MIRRTEXT
 70
     0
  9
$LTSCALE
 40
1.0
  9
$ATTMODE
 70
     1
  9
$TEXTSIZE
 40
0.1
  9
$TRACEWID
 40
0.05
  9
$TEXTSTYLE
  7
SIMPLEX
  9
$CLAYER
  8
TITLE
  9
$CELTYPE
  6
ByLayer
  9
$CECOLOR
 62
   256
  9
$CELTSCALE
 40
1.0
  9
$DISPSILH
 70
     0
  9
$DIMSCALE
 40
1.0
  9
$DIMASZ
 40
0.18
  9
$DIMEXO
 40
0.0625
  9
$DIMDLI
 40
0.38
  9
$DIMRND
 40
0.0
  9
$DIMDLE
 40
0.0
  9
$DIMEXE
 40
0.18
  9
$DIMTP
 40
0.0
  9
$DIMTM
 40
0.0
  9
$DIMTXT
 40
0.18
  9
$DIMCEN
 40
0.09
  9
$DIMTSZ
 40
0.0
  9
$DIMTOL
 70
     0
  9
$DIMLIM
 70
     0
  9
$DIMTIH
 70
     1
  9
$DIMTOH
 70
     1
  9
$DIMSE1
 70
     0
  9
$DIMSE2
 70
     0
  9
$DIMTAD
 70
     0
  9
$DIMZIN
 70
     0
  9
$DIMBLK
  1

  9
$DIMASO
 70
     1
  9
$DIMSHO
 70
     1
  9
$DIMPOST
  1

  9
$DIMAPOST
  1

  9
$DIMALT
 70
     0
  9
$DIMALTD
 70
     2
  9
$DIMALTF
 40
25.4
  9
$DIMLFAC
 40
1.0
  9
$DIMTOFL
 70
     0
  9
$DIMTVP
 40
0.0
  9
$DIMTIX
 70
     0
  9
$DIMSOXD
 70
     0
  9
$DIMSAH
 70
     0
  9
$DIMBLK1
  1

  9
$DIMBLK2
  1

  9
$DIMSTYLE
  2
Standard
  9
$DIMCLRD
 70
     0
  9
$DIMCLRE
 70
     0
  9
$DIMCLRT
 70
     0
  9
$DIMTFAC
 40
1.0
  9
$DIMGAP
 40
0.09
  9
$DIMJUST
 70
     0
  9
$DIMSD1
 70
     0
  9
$DIMSD2
 70
     0
  9
$DIMTOLJ
 70
     1
  9
$DIMTZIN
 70
     0
  9
$DIMALTZ
 70
     0
  9
$DIMALTTZ
 70
     0
  9
$DIMUPT
 70
     0
  9
$DIMDEC
 70
     4
  9
$DIMTDEC
 70
     4
  9
$DIMALTU
 70
     2
  9
$DIMALTTD
 70
     2
  9
$DIMTXSTY
  7
STANDARD
  9
$DIMAUNIT
 70
     0
  9
$DIMADEC
 70
     0
  9
$DIMALTRND
 40
0.0
  9
$DIMAZIN
 70
     0
  9
$DIMDSEP
 70
    46
  9
$DIMATFIT
 70
     3
  9
$DIMFRAC
 70
     0
  9
$DIMLDRBLK
  1

  9
$DIMLUNIT
 70
     2
  9
$DIMLWD
 70
    -2
  9
$DIMLWE
 70
    -2
  9
$DIMTMOVE
 70
     2
  9
$LUNITS
 70
     2
  9
$LUPREC
 70
     4
  9
$SKETCHINC
 40
0.1
  9
$FILLETRAD
 40
0.0
  9
$AUNITS
 70
     0
  9
$AUPREC
 70
     0
  9
$MENU
  1
ACAD
  9
$ELEVATION
 40
0.0
  9
$PELEVATION
 40
0.0
  9
$THICKNESS
 40
0.0
  9
$LIMCHECK
 70
     0
  9
$CHAMFERA
 40
0.0
  9
$CHAMFERB
 40
0.0
  9
$CHAMFERC
 40
0.0
  9
$CHAMFERD
 40
0.0
  9
$SKPOLY
 70
     0
  9
$TDCREATE
 40
2449623.385097569
  9
$TDUCREATE
 40
2449623.676764236
  9
$TDUPDATE
 40
2453019.409119687
  9
$TDUUPDATE
 40
2453019.700786354
  9
$TDINDWG
 40
0.3711086227
  9
$TDUSRTIMER
 40
0.3711086227
  9
$USRTIMER
 70
     1
  9
$ANGBASE
 50
0.0
  9
$ANGDIR
 70
     0
  9
$PDMODE
 70
     0
  9
$PDSIZE
 40
0.0
  9
$PLINEWID
 40
0.0
  9
$SPLFRAME
 70
     0
  9
$SPLINETYPE
 70
     6
  9
$SPLINESEGS
 70
     8
  9
$HANDSEED
  5
5F4
  9
$SURFTAB1
 70
     6
  9
$SURFTAB2
 70
     6
  9
$SURFTYPE
 70
     6
  9
$SURFU
 70
     6
  9
$SURFV
 70
     6
  9
$UCSBASE
  2

  9
$UCSNAME
  2

  9
$UCSORG
 10
0.0
 20
0.0
 30
0.0
  9
$UCSXDIR
 10
1.0
 20
0.0
 30
0.0
  9
$UCSYDIR
 10
0.0
 20
1.0
 30
0.0
  9
$UCSORTHOREF
  2

  9
$UCSORTHOVIEW
 70
     0
  9
$UCSORGTOP
 10
0.0
 20
0.0
 30
0.0
  9
$UCSORGBOTTOM
 10
0.0
 20
0.0
 30
0.0
  9
$UCSORGLEFT
 10
0.0
 20
0.0
 30
0.0
  9
$UCSORGRIGHT
 10
0.0
 20
0.0
 30
0.0
  9
$UCSORGFRONT
 10
0.0
 20
0.0
 30
0.0
  9
$UCSORGBACK
 10
0.0
 20
0.0
 30
0.0
  9
$PUCSBASE
  2

  9
$PUCSNAME
  2

  9
$PUCSORG
 10
0.0
 20
0.0
 30
0.0
  9
$PUCSXDIR
 10
1.0
 20
0.0
 30
0.0
  9
$PUCSYDIR
 10
0.0
 20
1.0
 30
0.0
  9
$PUCSORTHOREF
  2

  9
$PUCSORTHOVIEW
 70
     0
  9
$PUCSORGTOP
 10
0.0
 20
0.0
 30
0.0
  9
$PUCSORGBOTTOM
 10
0.0
 20
0.0
 30
0.0
  9
$PUCSORGLEFT
 10
0.0
 20
0.0
 30
0.0
  9
$PUCSORGRIGHT
 10
0.0
 20
0.0
 30
0.0
  9
$PUCSORGFRONT
 10
0.0
 20
0.0
 30
0.0
  9
$PUCSORGBACK
 10
0.0
 20
0.0
 30
0.0
  9
$USERI1
 70
     0
  9
$USERI2
 70
     0
  9
$USERI3
 70
     0
  9
$USERI4
 70
     0
  9
$USERI5
 70
     0
  9
$USERR1
 40
0.0
  9
$USERR2
 40
0.0
  9
$USERR3
 40
0.0
  9
$USERR4
 40
0.0
  9
$USERR5
 40
0.0
  9
$WORLDVIEW
 70
     1
  9
$SHADEDGE
 70
     3
  9
$SHADEDIF
 70
    70
  9
$TILEMODE
 70
     1
  9
$MAXACTVP
 70
    16
  9
$PINSBASE
 10
0.0
 20
0.0
 30
0.0
  9
$PLIMCHECK
 70
     0
  9
$PEXTMIN
 10
1.000000000000000E+20
 20
1.000000000000000E+20
 30
1.000000000000000E+20
  9
$PEXTMAX
 10
-1.000000000000000E+20
 20
-1.000000000000000E+20
 30
-1.000000000000000E+20
  9
$PLIMMIN
 10
0.0
 20
0.0
  9
$PLIMMAX
 10
12.0
 20
9.0
  9
$UNITMODE
 70
     0
  9
$VISRETAIN
 70
     0
  9
$PLINEGEN
 70
     1
  9
$PSLTSCALE
 70
     1
  9
$TREEDEPTH
 70
  3020
  9
$CMLSTYLE
  2
Standard
  9
$CMLJUST
 70
     0
  9
$CMLSCALE
 40
1.0
  9
$PROXYGRAPHICS
 70
     1
  9
$MEASUREMENT
 70
     0
  9
$CELWEIGHT
370
    -1
  9
$ENDCAPS
280
     0
  9
$JOINSTYLE
280
     0
  9
$LWDISPLAY
290
     0
  9
$INSUNITS
 70
     0
  9
$HYPERLINKBASE
  1

  9
$STYLESHEET
  1
Color.ctb
  9
$XEDIT
290
     1
  9
$CEPSNTYPE
380
     0
  9
$PSTYLEMODE
290
     1
  9
$FINGERPRINTGUID
  2
{5EC9D261-6377-4888-B491-DC0CE7EF0DE4}
  9
$VERSIONGUID
  2
{9F3A160F-F882-4476-B189-8869A0899E13}
  9
$EXTNAMES
290
     1
  9
$PSVPSCALE
 40
0.0
  9
$OLESTARTUP
290
     0
  0
ENDSEC
  0
SECTION
  2
CLASSES
  0
CLASS
  1
ACDBDICTIONARYWDFLT
  2
AcDbDictionaryWithDefault
  3
AutoCAD 2000
 90
        0
280
     0
281
     0
  0
CLASS
  1
ACDBPLACEHOLDER
  2
AcDbPlaceHolder
  3
AutoCAD 2000
 90
        0
280
     0
281
     0
  0
CLASS
  1
LAYOUT
  2
AcDbLayout
  3
AutoCAD 2000
 90
        0
280
     0
281
     0
  0
CLASS
  1
DICTIONARYVAR
  2
AcDbDictionaryVar
  3
AutoCAD 2000
 90
        0
280
     0
281
     0
  0
ENDSEC
  0
SECTION
  2
TABLES
  0
TABLE
  2
VPORT
  5
8
330
0
100
AcDbSymbolTable
 70
     2
  0
VPORT
  5
5F3
330
8
100
AcDbSymbolTableRecord
100
AcDbViewportTableRecord
  2
*Active
 70
     0
 10
0.0
 20
0.0
 11
1.0
 21
1.0
 12
8.245000038393772
 22
5.220000024307517
 13
0.0
 23
0.0
 14
0.14
 24
0.14
 15
0.14
 25
0.14
 16
0.0
 26
0.0
 36
1.0
 17
0.0
 27
0.0
 37
0.0
 40
11.0072450655855
 41
1.505548705302096
 42
50.0
 43
0.0
 44
0.0
 50
0.0
 51
0.0
 71
     0
 72
  5000
 73
     1
 74
     1
 75
     0
 76
     0
 77
     0
 78
     0
281
     0
 65
     1
110
0.0
120
0.0
130
0.0
111
1.0
121
0.0
131
0.0
112
0.0
122
1.0
132
0.0
 79
     0
146
0.0
  0
ENDTAB
  0
TABLE
  2
LTYPE
  5
5
330
0
100
AcDbSymbolTable
 70
     1
  0
LTYPE
  5
13
330
5
100
AcDbSymbolTableRecord
100
AcDbLinetypeTableRecord
  2
ByBlock
 70
     0
  3

 72
    65
 73
     0
 40
0.0
  0
LTYPE
  5
14
330
5
100
AcDbSymbolTableRecord
100
AcDbLinetypeTableRecord
  2
ByLayer
 70
     0
  3

 72
    65
 73
     0
 40
0.0
  0
LTYPE
  5
15
330
5
100
AcDbSymbolTableRecord
100
AcDbLinetypeTableRecord
  2
CONTINUOUS
 70
     0
  3
Solid line
 72
    65
 73
     0
 40
0.0
  0
ENDTAB
  0
TABLE
  2
LAYER
  5
2
330
0
100
AcDbSymbolTable
 70
     6
  0
LAYER
  5
10
330
2
100
AcDbSymbolTableRecord
100
AcDbLayerTableRecord
  2
0
 70
     0
 62
     7
  6
CONTINUOUS
370
    -3
390
F
  0
LAYER
  5
2B
330
2
100
AcDbSymbolTableRecord
100
AcDbLayerTableRecord
  2
TEXT_BUBBLES
 70
     0
 62
     6
  6
CONTINUOUS
370
    -3
390
F
  0
LAYER
  5
2C
330
2
100
AcDbSymbolTableRecord
100
AcDbLayerTableRecord
  2
IMAGE
 70
     0
 62
     7
  6
CONTINUOUS
370
    -3
390
F
  0
LAYER
  5
2F
330
2
100
AcDbSymbolTableRecord
100
AcDbLayerTableRecord
  2
TEXT_LEADERS
 70
     0
 62
    -5
  6
CONTINUOUS
370
    -3
390
F
  0
LAYER
  5
30
330
2
100
AcDbSymbolTableRecord
100
AcDbLayerTableRecord
  2
INSTRUCT-CALLOUT
 70
     0
 62
     4
  6
CONTINUOUS
370
    -3
390
F
  0
LAYER
  5
57C
330
2
100
AcDbSymbolTableRecord
100
AcDbLayerTableRecord
  2
TITLE
 70
     0
 62
     4
  6
CONTINUOUS
370
    -3
390
F
  0
ENDTAB
  0
TABLE
  2
STYLE
  5
3
330
0
100
AcDbSymbolTable
 70
     6
  0
STYLE
  5
11
330
3
100
AcDbSymbolTableRecord
100
AcDbTextStyleTableRecord
  2
STANDARD
 70
     0
 40
0.0
 41
1.0
 50
0.0
 71
     0
 42
0.2
  3
txt
  4

  0
STYLE
  5
25
330
3
100
AcDbSymbolTableRecord
100
AcDbTextStyleTableRecord
  2
ROMANS
 70
     0
 40
0.0
 41
1.0
 50
0.0
 71
     0
 42
0.1
  3
ROMANS.SHX
  4

  0
STYLE
  5
26
330
3
100
AcDbSymbolTableRecord
100
AcDbTextStyleTableRecord
  2
SIMPLEX
 70
     0
 40
0.0
 41
1.0
 50
0.0
 71
     0
 42
0.1
  3
SIMPLEX
  4

  0
STYLE
  5
57D
330
3
100
AcDbSymbolTableRecord
100
AcDbTextStyleTableRecord
  2
L100
 70
     0
 40
0.1
 41
1.0
 50
0.0
 71
     0
 42
0.1
  3
romans.shx
  4

  0
STYLE
  5
57E
330
3
100
AcDbSymbolTableRecord
100
AcDbTextStyleTableRecord
  2
L200
 70
     0
 40
0.2
 41
1.0
 50
0.0
 71
     0
 42
0.081
  3
ARIAL.TTF
  4

1001
ACAD
1000
Arial
1071
       34
  0
STYLE
  5
57F
330
3
100
AcDbSymbolTableRecord
100
AcDbTextStyleTableRecord
  2
L80
 70
     0
 40
0.08
 41
1.0
 50
0.0
 71
     0
 42
0.08
  3
ROMANS
  4

  0
ENDTAB
  0
TABLE
  2
VIEW
  5
6
330
0
100
AcDbSymbolTable
 70
     0
  0
ENDTAB
  0
TABLE
  2
UCS
  5
7
330
0
100
AcDbSymbolTable
 70
     0
  0
ENDTAB
  0
TABLE
  2
APPID
  5
9
330
0
100
AcDbSymbolTable
 70
     3
  0
APPID
  5
12
330
9
100
AcDbSymbolTableRecord
100
AcDbRegAppTableRecord
  2
ACAD
 70
     0
  0
APPID
  5
4E7
330
9
100
AcDbSymbolTableRecord
100
AcDbRegAppTableRecord
  2
RAK
 70
     0
  0
APPID
  5
4E8
330
9
100
AcDbSymbolTableRecord
100
AcDbRegAppTableRecord
  2
DCO15
 70
     0
  0
ENDTAB
  0
TABLE
  2
DIMSTYLE
  5
A
330
0
100
AcDbSymbolTable
 70
     1
100
AcDbDimStyleTable
 71
     0
  0
DIMSTYLE
105
4D7
330
A
100
AcDbSymbolTableRecord
100
AcDbDimStyleTableRecord
  2
Standard
 70
     0
340
11
  0
ENDTAB
  0
TABLE
  2
BLOCK_RECORD
  5
1
330
0
100
AcDbSymbolTable
 70
     1
  0
BLOCK_RECORD
  5
1E
330
1
100
AcDbSymbolTableRecord
100
AcDbBlockTableRecord
  2
*Model_Space
340
21
  0
BLOCK_RECORD
  5
1A
330
1
100
AcDbSymbolTableRecord
100
AcDbBlockTableRecord
  2
*Paper_Space
340
1D
  0
BLOCK_RECORD
  5
580
330
1
100
AcDbSymbolTableRecord
100
AcDbBlockTableRecord
  2
titleblock
340
0
102
{BLKREFS
331
58E
102
}
  0
ENDTAB
  0
ENDSEC
  0
SECTION
  2
BLOCKS
  0
BLOCK
  5
34
330
1E
100
AcDbEntity
  8
0
100
AcDbBlockBegin
  2
*Model_Space
 70
     0
 10
0.0
 20
0.0
 30
0.0
  3
*Model_Space
  1

  0
ENDBLK
  5
35
330
1E
100
AcDbEntity
  8
0
100
AcDbBlockEnd
  0
BLOCK
  5
32
330
1A
100
AcDbEntity
 67
     1
  8
0
100
AcDbBlockBegin
  2
*Paper_Space
 70
     0
 10
0.0
 20
0.0
 30
0.0
  3
*Paper_Space
  1

  0
ENDBLK
  5
33
330
1A
100
AcDbEntity
 67
     1
  8
0
100
AcDbBlockEnd
  0
BLOCK
  5
58C
330
580
100
AcDbEntity
  8
0
100
AcDbBlockBegin
  2
titleblock
 70
     2
 10
0.0
 20
0.0
 30
0.0
  3
titleblock
  1

  0
LWPOLYLINE
  5
581
330
580
100
AcDbEntity
  8
IMAGE
100
AcDbPolyline
 90
        4
 70
     1
 43
0.0
 10
0.0
 20
0.0
 10
16.48999999999999
 20
0.0000000000000001
 10
16.48999999999999
 20
10.44
 10
0.0
 20
10.44
  0
ATTDEF
  5
582
330
580
100
AcDbEntity
  8
TITLE
100
AcDbText
 10
0.5055556038023421
 20
0.7842270964783673
 30
0.0
 40
0.2
  1
D
  7
L200
 72
     4
 11
0.6064423705144839
 21
0.8842270964783672
 31
0.0
100
AcDbAttributeDefinition
  3
#
  2
D
 70
     0
  0
ATTDEF
  5
583
330
580
100
AcDbEntity
  8
TITLE
100
AcDbText
 10
1.231442370514484
 20
1.34371230274675
 30
0.0
 40
0.2
  1

  7
L200
100
AcDbAttributeDefinition
  3
DETAIL TITLE TOP LINE
  2
TITLE1
 70
     0
  0
ATTDEF
  5
584
330
580
100
AcDbEntity
  8
TITLE
100
AcDbText
 10
1.231442370514484
 20
0.9842270964783674
 30
0.0
 40
0.2
  1
TITLE
  7
L200
100
AcDbAttributeDefinition
  3
DETAIL TITLE TOP 2ND LINE
  2
TITLE2
 70
     0
  0
ATTDEF
  5
585
330
580
100
AcDbEntity
  8
TITLE
100
AcDbText
 10
2.713645751168312
 20
0.5927927664583189
 30
0.0
 40
0.2
  1
TITLE2
  7
L200
100
AcDbAttributeDefinition
  3
DETAIL TITLE BOTTOM 1
  2
TITLE3
 70
     0
  0
ATTDEF
  5
586
330
580
100
AcDbEntity
  8
TITLE
100
AcDbText
 10
2.713645751168312
 20
0.2692560808167741
 30
0.0
 40
0.2
  1

  7
L200
100
AcDbAttributeDefinition
  3
DETAIL TITLE BOTTOM 2
  2
TITLE4
 70
     0
  0
ATTDEF
  5
587
330
580
100
AcDbEntity
  8
TITLE
 62
     7
100
AcDbText
 10
8.177214829966379
 20
0.9696027915446398
 30
0.0
 40
0.08
  1
-
  7
L80
 72
     2
 11
8.261024353775903
 21
0.9696027915446398
 31
0.0
100
AcDbAttributeDefinition
  3
REVISION DATE
  2
REVISED
 70
     0
  0
ATTDEF
  5
588
330
580
100
AcDbEntity
  8
TITLE
 62
     7
100
AcDbText
 10
0.2639423705144838
 20
0.0847116480207214
 30
0.0
 40
0.08
  1
-
  7
L80
100
AcDbAttributeDefinition
  3
DWG-NAME
  2
DWG-NAME
 70
     0
  0
LWPOLYLINE
  5
589
330
580
100
AcDbEntity
  8
TITLE
 62
     3
100
AcDbPolyline
 90
        2
 70
     1
 43
0.03
 10
0.6064423705144839
 20
0.5417270964783675
 42
0.9999999999999998
 10
0.6064423705144839
 20
1.226727096478367
 42
0.9999999999999998
  0
ATTDEF
  5
58A
330
580
100
AcDbEntity
  8
TITLE
 62
     7
100
AcDbText
 10
1.231442370514484
 20
0.7005637793954894
 30
0.0
 40
0.1
  1
N.T.S.
  7
L100
100
AcDbAttributeDefinition
  3
SCALE
  2
SCALE
 70
     0
  0
LWPOLYLINE
  5
58B
330
580
100
AcDbEntity
  8
TITLE
 62
     3
100
AcDbPolyline
 90
        2
 70
     0
 43
0.04
 39
0.03
 10
0.9489423705144833
 20
0.8842270964783672
 10
8.261024353775903
 20
0.8842270964783672
  0
ENDBLK
  5
58D
330
580
100
AcDbEntity
  8
0
100
AcDbBlockEnd
  0
ENDSEC
  0
SECTION
  2
ENTITIES
  0
TEXT
  5
D0
330
1E
100
AcDbEntity
  8
TEXT_BUBBLES
100
AcDbText
 10
5.364954721427501
 20
7.420405413282028
 30
0.0
 40
0.1
  1
1
 41
1.25
  7
ROMANS
 72
     4
 11
5.415549959522739
 21
7.470405413282028
 31
0.0
100
AcDbText
  0
LWPOLYLINE
  5
D3
330
1E
100
AcDbEntity
  8
IMAGE
100
AcDbPolyline
 90
        2
 70
     0
 43
0.0
 10
2.94378561048831
 20
6.272385986236503
 10
3.131165049384277
 20
6.272385986236503
  0
LINE
  5
D7
330
1E
100
AcDbEntity
  8
IMAGE
100
AcDbLine
 10
2.927964934907979
 20
6.246975174667258
 30
0.0
 11
3.147358838073703
 21
6.246975174667258
 31
0.0
  0
LINE
  5
D8
330
1E
100
AcDbEntity
  8
IMAGE
100
AcDbLine
 10
3.147358838073703
 20
6.299191289003148
 30
0.0
 11
3.147358838073701
 21
5.496950747671128
 31
0.0
  0
LINE
  5
D9
330
1E
100
AcDbEntity
  8
IMAGE
100
AcDbLine
 10
2.927964934907979
 20
6.299191289003148
 30
0.0
 11
2.927964934907977
 21
5.496950747671128
 31
0.0
  0
LWPOLYLINE
  5
DA
330
1E
100
AcDbEntity
  8
IMAGE
100
AcDbPolyline
 90
        2
 70
     0
 43
0.0
 10
2.94378561048831
 20
5.283239352971522
 10
3.131165049384277
 20
5.283239352971522
  0
LINE
  5
DE
330
1E
100
AcDbEntity
  8
IMAGE
100
AcDbLine
 10
2.927964934907979
 20
5.31026503553522
 30
0.0
 11
3.147358838073703
 21
5.31026503553522
 31
0.0
  0
TEXT
  5
DF
330
1E
100
AcDbEntity
  8
TEXT_BUBBLES
100
AcDbText
 10
5.687367689906347
 20
4.438441177926368
 30
0.0
 40
0.125
  1
UV RADIATION RESISTANT
  7
SIMPLEX
100
AcDbText
  0
TEXT
  5
E1
330
1E
100
AcDbEntity
  8
TEXT_BUBBLES
100
AcDbText
 10
5.687367689906347
 20
5.838441177926369
 30
0.0
 40
0.125
  1
UV RADIATION RESISTANT
  7
SIMPLEX
100
AcDbText
  0
LWPOLYLINE
  5
E2
330
1E
100
AcDbEntity
  8
IMAGE
100
AcDbPolyline
 90
        4
 70
     0
 43
0.0
 10
1.932873095781056
 20
4.936197816076573
 42
0.6332430429610296
 10
1.932873095781056
 20
4.832316998852604
 42
-0.6332430429610812
 10
1.932873095781056
 20
4.728436181628636
 42
-0.6134111328532366
 10
1.932873095781056
 20
4.832316998852604
 42
-0.6134111328532366
  0
LWPOLYLINE
  5
E8
330
1E
100
AcDbEntity
  8
IMAGE
100
AcDbPolyline
 90
        4
 70
     0
 43
0.0
 10
4.144878316080275
 20
4.937695018616231
 42
-0.6332430429610296
 10
4.144878316080275
 20
4.833814201392264
 42
0.6332430429610812
 10
4.144878316080275
 20
4.729933384168293
 42
0.6134111328532366
 10
4.144878316080271
 20
4.833814201392261
 42
0.6134111328532366
  0
LINE
  5
EE
330
1E
100
AcDbEntity
  8
IMAGE
100
AcDbLine
 10
3.331071489678418
 20
4.963296574701527
 30
0.0
 11
3.331071489678416
 21
4.705289742469651
 31
0.0
  0
LINE
  5
EF
330
1E
100
AcDbEntity
  8
IMAGE
100
AcDbLine
 10
3.331071489678418
 20
4.705289742469651
 30
0.0
 11
2.745691639147067
 21
4.705289742469651
 31
0.0
  0
LINE
  5
F0
330
1E
100
AcDbEntity
  8
IMAGE
100
AcDbLine
 10
2.745691639147067
 20
4.963296574701526
 30
0.0
 11
2.745691639147067
 21
4.705289742469653
 31
0.0
  0
LINE
  5
F1
330
1E
100
AcDbEntity
  8
IMAGE
100
AcDbLine
 10
4.144878316080275
 20
4.937695018616231
 30
0.0
 11
3.331071489678418
 21
4.937695018616231
 31
0.0
  0
LINE
  5
F2
330
1E
100
AcDbEntity
  8
IMAGE
100
AcDbLine
 10
4.144878316080275
 20
4.729933384168293
 30
0.0
 11
3.331071489678418
 21
4.729933384168293
 31
0.0
  0
LINE
  5
F3
330
1E
100
AcDbEntity
  8
IMAGE
100
AcDbLine
 10
2.745691639147067
 20
4.728436181628635
 30
0.0
 11
1.93487729618047
 21
4.728436181628635
 31
0.0
  0
LINE
  5
F4
330
1E
100
AcDbEntity
  8
IMAGE
100
AcDbLine
 10
2.745691639147067
 20
4.936197816076573
 30
0.0
 11
1.932873095781056
 21
4.936197816076573
 31
0.0
  0
LINE
  5
F5
330
1E
100
AcDbEntity
  8
IMAGE
100
AcDbLine
 10
2.745691639147067
 20
4.963296574701526
 30
0.0
 11
2.909378148296806
 21
4.963296574701527
 31
0.0
  0
TEXT
  5
F6
330
1E
100
AcDbEntity
  8
TEXT_BUBBLES
100
AcDbText
 10
5.687367689906347
 20
6.888441177926369
 30
0.0
 40
0.125
  1
UV RADIATION RESISTANT
  7
SIMPLEX
100
AcDbText
  0
TEXT
  5
F7
330
1E
100
AcDbEntity
  8
TEXT_BUBBLES
100
AcDbText
 10
5.687367689906347
 20
6.71344117792637
 30
0.0
 40
0.125
  1
  PVC SCH 80 NIPPLE
  7
SIMPLEX
100
AcDbText
  0
TEXT
  5
F8
330
1E
100
AcDbEntity
  8
TEXT_BUBBLES
100
AcDbText
 10
5.687367689906347
 20
6.538441177926368
 30
0.0
 40
0.125
  1
  (LENGTH AS REQUIRED)
  7
SIMPLEX
100
AcDbText
  0
LINE
  5
F9
330
1E
100
AcDbEntity
  8
IMAGE
100
AcDbLine
 10
2.905296352859243
 20
6.524221307950676
 30
0.0
 11
2.905296352859243
 21
6.423204428985704
 31
0.0
  0
LINE
  5
FA
330
1E
100
AcDbEntity
  8
IMAGE
100
AcDbLine
 10
2.691300811219486
 20
6.524221307950676
 30
0.0
 11
2.691300811219486
 21
6.423204428985704
 31
0.0
  0
LINE
  5
FB
330
1E
100
AcDbEntity
  8
IMAGE
100
AcDbLine
 10
2.691300811219486
 20
4.728436181628635
 30
0.0
 11
2.691300811219486
 21
3.999075294606311
 31
0.0
  0
LINE
  5
FC
330
1E
100
AcDbEntity
  8
IMAGE
100
AcDbLine
 10
2.905296352859243
 20
4.705289742469651
 30
0.0
 11
2.905296352859243
 21
3.99907529460631
 31
0.0
  0
ARC
  5
FD
330
1E
100
AcDbEntity
  8
IMAGE
100
AcDbCircle
 10
2.806869437957795
 20
6.384099156147365
 30
0.0
 40
0.0363347932812923
100
AcDbArc
 50
142.5532855597031
 51
232.8116314160015
  0
LINE
  5
FE
330
1E
100
AcDbEntity
  8
IMAGE
100
AcDbLine
 10
3.174392517646255
 20
6.423204428985704
 30
0.0
 11
2.690416178661934
 21
6.423204428985704
 31
0.0
  0
LINE
  5
FF
330
1E
100
AcDbEntity
  8
IMAGE
100
AcDbLine
 10
3.174392517646255
 20
6.33814007673653
 30
0.0
 11
2.690416178661934
 21
6.33814007673653
 31
0.0
  0
ARC
  5
100
330
1E
100
AcDbEntity
  8
IMAGE
100
AcDbCircle
 10
2.733014523392711
 20
6.384099156147365
 30
0.0
 40
0.0363347932812923
100
AcDbArc
 50
142.5532855597031
 51
232.8116314160015
  0
LINE
  5
101
330
1E
100
AcDbEntity
  8
IMAGE
100
AcDbLine
 10
2.704167635180898
 20
6.406191558535849
 30
0.0
 11
2.711052415352321
 21
6.355152947186277
 31
0.0
  0
ARC
  5
102
330
1E
100
AcDbEntity
  8
IMAGE
100
AcDbCircle
 10
2.751165307480647
 20
6.384099156147365
 30
0.0
 40
0.0363347932812923
100
AcDbArc
 50
142.5532855597031
 51
232.8116314160015
  0
LINE
  5
103
330
1E
100
AcDbEntity
  8
IMAGE
100
AcDbLine
 10
2.722318419269056
 20
6.406191558535849
 30
0.0
 11
2.729203199440162
 21
6.355152947186277
 31
0.0
  0
ARC
  5
104
330
1E
100
AcDbEntity
  8
IMAGE
100
AcDbCircle
 10
2.769316091568805
 20
6.384099156147365
 30
0.0
 40
0.0363347932812923
100
AcDbArc
 50
142.5532855597031
 51
232.8116314160015
  0
LINE
  5
105
330
1E
100
AcDbEntity
  8
IMAGE
100
AcDbLine
 10
2.740469203356889
 20
6.406191558535849
 30
0.0
 11
2.747353983528308
 21
6.355152947186277
 31
0.0
  0
ARC
  5
106
330
1E
100
AcDbEntity
  8
IMAGE
100
AcDbCircle
 10
2.788092764763144
 20
6.384099156147365
 30
0.0
 40
0.0363347932812923
100
AcDbArc
 50
142.5532855597031
 51
232.8116314160015
  0
LINE
  5
107
330
1E
100
AcDbEntity
  8
IMAGE
100
AcDbLine
 10
2.759245876551432
 20
6.406191558535849
 30
0.0
 11
2.766130656722754
 21
6.355152947186277
 31
0.0
  0
ARC
  5
108
330
1E
100
AcDbEntity
  8
IMAGE
100
AcDbCircle
 10
2.683068125783973
 20
6.341612855528157
 30
0.0
 40
0.0101391053531439
100
AcDbArc
 50
221.6972960676141
 51
316.4458918268223
  0
LINE
  5
109
330
1E
100
AcDbEntity
  8
IMAGE
100
AcDbLine
 10
2.675497564295659
 20
6.334868372144605
 30
0.0
 11
2.666563633961528
 21
6.345150521194661
 31
0.0
  0
LINE
  5
10A
330
1E
100
AcDbEntity
  8
IMAGE
100
AcDbLine
 10
2.676781801967598
 20
6.335984217658707
 30
0.0
 11
2.668233126584828
 21
6.345822972963477
 31
0.0
  0
ARC
  5
10B
330
1E
100
AcDbEntity
  8
IMAGE
100
AcDbCircle
 10
2.683068125783973
 20
6.341612855528157
 30
0.0
 40
0.0084378183081614
100
AcDbArc
 50
221.6972960676141
 51
330.5572729070301
  0
ARC
  5
10C
330
1E
100
AcDbEntity
  8
IMAGE
100
AcDbCircle
 10
2.683068125783973
 20
6.416218187058482
 30
0.0
 40
0.0084378183081614
100
AcDbArc
 50
29.4427270929698
 51
138.3027039323858
  0
LINE
  5
10D
330
1E
100
AcDbEntity
  8
IMAGE
100
AcDbLine
 10
2.676781801967598
 20
6.421846824927931
 30
0.0
 11
2.668233126584828
 21
6.412008069623161
 31
0.0
  0
LINE
  5
10E
330
1E
100
AcDbEntity
  8
IMAGE
100
AcDbLine
 10
2.675497564295659
 20
6.422962670442026
 30
0.0
 11
2.666563633961528
 21
6.41268052139197
 31
0.0
  0
CIRCLE
  5
10F
330
1E
100
AcDbEntity
  8
IMAGE
100
AcDbCircle
 10
2.653933667678751
 20
6.378915521293296
 30
0.0
 40
0.0360498443820563
  0
ARC
  5
110
330
1E
100
AcDbEntity
  8
IMAGE
100
AcDbCircle
 10
2.683068125783973
 20
6.416218187058482
 30
0.0
 40
0.0101391053531439
100
AcDbArc
 50
43.55410817317756
 51
138.3027039323858
  0
LWPOLYLINE
  5
111
330
1E
100
AcDbEntity
  8
IMAGE
100
AcDbPolyline
 90
        2
 70
     0
 43
0.0
 10
2.662021130124145
 20
6.356401190208615
 10
2.653933667678751
 20
6.351731891588785
  0
LWPOLYLINE
  5
115
330
1E
100
AcDbEntity
  8
IMAGE
100
AcDbPolyline
 90
        5
 70
     0
 43
0.0
 10
2.645846205233466
 20
6.401429852378023
 10
2.653933667678751
 20
6.406099150997911
 10
2.677475381570133
 20
6.392507336145549
 10
2.677475381570133
 20
6.365323706441089
 10
2.669387919124625
 20
6.36065440782115
  0
ARC
  5
11C
330
1E
100
AcDbEntity
  8
IMAGE
100
AcDbCircle
 10
2.653933667678751
 20
6.378915521293296
 30
0.0
 40
0.019416878360384
100
AcDbArc
 50
132.6530910809695
 51
287.3469089190293
  0
LWPOLYLINE
  5
11D
330
1E
100
AcDbEntity
  8
IMAGE
100
AcDbPolyline
 90
        4
 70
     0
 43
0.0
 10
2.653933667678751
 20
6.351731891588785
 10
2.630391953787688
 20
6.365323706441089
 10
2.630391953787688
 20
6.392507336145549
 10
2.63847941623298
 20
6.397176634765489
  0
LINE
  5
123
330
1E
100
AcDbEntity
  8
IMAGE
100
AcDbLine
 10
2.645846205233466
 20
6.401429852378023
 30
0.0
 11
2.669387919124625
 21
6.36065440782115
 31
0.0
  0
LINE
  5
124
330
1E
100
AcDbEntity
  8
IMAGE
100
AcDbLine
 10
2.63847941623298
 20
6.397176634765489
 30
0.0
 11
2.662021130124145
 21
6.356401190208615
 31
0.0
  0
ARC
  5
125
330
1E
100
AcDbEntity
  8
IMAGE
100
AcDbCircle
 10
2.653933667678751
 20
6.378915521293296
 30
0.0
 40
0.019416878360384
100
AcDbArc
 50
312.6530910809717
 51
107.3469089190281
  0
CIRCLE
  5
126
330
1E
100
AcDbEntity
  8
IMAGE
100
AcDbCircle
 10
2.653933667678751
 20
6.378915521293296
 30
0.0
 40
0.0322956548274434
  0
LINE
  5
127
330
1E
100
AcDbEntity
  8
IMAGE
100
AcDbLine
 10
2.778022549745987
 20
6.406191558535849
 30
0.0
 11
2.784907329917308
 21
6.355152947186277
 31
0.0
  0
ARC
  5
128
330
1E
100
AcDbEntity
  8
IMAGE
100
AcDbCircle
 10
2.825646111152241
 20
6.384099156147365
 30
0.0
 40
0.0363347932812923
100
AcDbArc
 50
142.5532855597031
 51
232.8116314160015
  0
LINE
  5
129
330
1E
100
AcDbEntity
  8
IMAGE
100
AcDbLine
 10
2.796799222940434
 20
6.406191558535849
 30
0.0
 11
2.803684003111857
 21
6.355152947186277
 31
0.0
  0
ARC
  5
12A
330
1E
100
AcDbEntity
  8
IMAGE
100
AcDbCircle
 10
2.845674562559691
 20
6.384099156147365
 30
0.0
 40
0.0363347932812923
100
AcDbArc
 50
142.5532855597031
 51
232.8116314160015
  0
LINE
  5
12B
330
1E
100
AcDbEntity
  8
IMAGE
100
AcDbLine
 10
2.816827674347985
 20
6.406191558535849
 30
0.0
 11
2.823712454519307
 21
6.355152947186277
 31
0.0
  0
ARC
  5
12C
330
1E
100
AcDbEntity
  8
IMAGE
100
AcDbCircle
 10
2.865077124860745
 20
6.384099156147365
 30
0.0
 40
0.0363347932812923
100
AcDbArc
 50
142.5532855597031
 51
232.8116314160015
  0
LINE
  5
12D
330
1E
100
AcDbEntity
  8
IMAGE
100
AcDbLine
 10
2.836230236648935
 20
6.406191558535849
 30
0.0
 11
2.843115016820247
 21
6.355152947186277
 31
0.0
  0
ARC
  5
12E
330
1E
100
AcDbEntity
  8
IMAGE
100
AcDbCircle
 10
2.883853798055293
 20
6.384099156147365
 30
0.0
 40
0.0363347932812923
100
AcDbArc
 50
142.5532855597031
 51
232.8116314160015
  0
LINE
  5
12F
330
1E
100
AcDbEntity
  8
IMAGE
100
AcDbLine
 10
2.855006909843371
 20
6.406191558535849
 30
0.0
 11
2.861891690014795
 21
6.355152947186277
 31
0.0
  0
ARC
  5
130
330
1E
100
AcDbEntity
  8
IMAGE
100
AcDbCircle
 10
2.903882249462634
 20
6.384099156147365
 30
0.0
 40
0.0363347932812923
100
AcDbArc
 50
142.5532855597031
 51
232.8116314160015
  0
LINE
  5
131
330
1E
100
AcDbEntity
  8
IMAGE
100
AcDbLine
 10
2.875035361251031
 20
6.406191558535849
 30
0.0
 11
2.881920141422137
 21
6.355152947186277
 31
0.0
  0
ARC
  5
132
330
1E
100
AcDbEntity
  8
IMAGE
100
AcDbCircle
 10
2.923284811763579
 20
6.384099156147365
 30
0.0
 40
0.0363347932812923
100
AcDbArc
 50
142.5532855597031
 51
232.8116314160015
  0
LINE
  5
133
330
1E
100
AcDbEntity
  8
IMAGE
100
AcDbLine
 10
2.894437923551976
 20
6.406191558535849
 30
0.0
 11
2.901322703723081
 21
6.355152947186277
 31
0.0
  0
ARC
  5
134
330
1E
100
AcDbEntity
  8
IMAGE
100
AcDbCircle
 10
2.942687374064531
 20
6.384099156147365
 30
0.0
 40
0.0363347932812923
100
AcDbArc
 50
142.5532855597031
 51
232.8116314160015
  0
LINE
  5
135
330
1E
100
AcDbEntity
  8
IMAGE
100
AcDbLine
 10
2.913840485852928
 20
6.406191558535849
 30
0.0
 11
2.920725266024243
 21
6.355152947186277
 31
0.0
  0
ARC
  5
136
330
1E
100
AcDbEntity
  8
IMAGE
100
AcDbCircle
 10
2.962089936365572
 20
6.384099156147365
 30
0.0
 40
0.0363347932812923
100
AcDbArc
 50
142.5532855597031
 51
232.8116314160015
  0
LINE
  5
137
330
1E
100
AcDbEntity
  8
IMAGE
100
AcDbLine
 10
2.933243048153872
 20
6.406191558535849
 30
0.0
 11
2.940127828325188
 21
6.355152947186277
 31
0.0
  0
ARC
  5
138
330
1E
100
AcDbEntity
  8
IMAGE
100
AcDbCircle
 10
2.980866609560127
 20
6.384099156147365
 30
0.0
 40
0.0363347932812923
100
AcDbArc
 50
142.5532855597031
 51
232.8116314160015
  0
LINE
  5
139
330
1E
100
AcDbEntity
  8
IMAGE
100
AcDbLine
 10
2.95201972134842
 20
6.406191558535849
 30
0.0
 11
2.958904501519635
 21
6.355152947186277
 31
0.0
  0
ARC
  5
13A
330
1E
100
AcDbEntity
  8
IMAGE
100
AcDbCircle
 10
3.000269171861072
 20
6.384099156147365
 30
0.0
 40
0.0363347932812923
100
AcDbArc
 50
142.5532855597031
 51
232.8116314160015
  0
LINE
  5
13B
330
1E
100
AcDbEntity
  8
IMAGE
100
AcDbLine
 10
2.971422283649479
 20
6.406191558535849
 30
0.0
 11
2.978307063820574
 21
6.355152947186277
 31
0.0
  0
LINE
  5
13C
330
1E
100
AcDbEntity
  8
IMAGE
100
AcDbLine
 10
3.174392517646255
 20
6.423204428985704
 30
0.0
 11
3.174392517646255
 21
6.33814007673653
 31
0.0
  0
LINE
  5
13D
330
1E
100
AcDbEntity
  8
IMAGE
100
AcDbLine
 10
3.067809206047916
 20
6.406191558535849
 30
0.0
 11
3.074693986219012
 21
6.355152947186277
 31
0.0
  0
ARC
  5
13E
330
1E
100
AcDbEntity
  8
IMAGE
100
AcDbCircle
 10
3.096656094259509
 20
6.384099156147365
 30
0.0
 40
0.0363347932812923
100
AcDbArc
 50
142.5532855597031
 51
232.8116314160015
  0
LINE
  5
13F
330
1E
100
AcDbEntity
  8
IMAGE
100
AcDbLine
 10
3.048406643746858
 20
6.406191558535849
 30
0.0
 11
3.055291423918072
 21
6.355152947186277
 31
0.0
  0
ARC
  5
140
330
1E
100
AcDbEntity
  8
IMAGE
100
AcDbCircle
 10
3.077253531958564
 20
6.384099156147365
 30
0.0
 40
0.0363347932812923
100
AcDbArc
 50
142.5532855597031
 51
232.8116314160015
  0
LINE
  5
141
330
1E
100
AcDbEntity
  8
IMAGE
100
AcDbLine
 10
3.02962997055231
 20
6.406191558535849
 30
0.0
 11
3.036514750723625
 21
6.355152947186277
 31
0.0
  0
ARC
  5
142
330
1E
100
AcDbEntity
  8
IMAGE
100
AcDbCircle
 10
3.058476858764009
 20
6.384099156147365
 30
0.0
 40
0.0363347932812923
100
AcDbArc
 50
142.5532855597031
 51
232.8116314160015
  0
LINE
  5
143
330
1E
100
AcDbEntity
  8
IMAGE
100
AcDbLine
 10
3.010227408251365
 20
6.406191558535849
 30
0.0
 11
3.017112188422681
 21
6.355152947186277
 31
0.0
  0
ARC
  5
144
330
1E
100
AcDbEntity
  8
IMAGE
100
AcDbCircle
 10
3.039074296462969
 20
6.384099156147365
 30
0.0
 40
0.0363347932812923
100
AcDbArc
 50
142.5532855597031
 51
232.8116314160015
  0
LINE
  5
145
330
1E
100
AcDbEntity
  8
IMAGE
100
AcDbLine
 10
2.990824845950413
 20
6.406191558535849
 30
0.0
 11
2.997709626121519
 21
6.355152947186277
 31
0.0
  0
ARC
  5
146
330
1E
100
AcDbEntity
  8
IMAGE
100
AcDbCircle
 10
3.019671734162017
 20
6.384099156147365
 30
0.0
 40
0.0363347932812923
100
AcDbArc
 50
142.5532855597031
 51
232.8116314160015
  0
ARC
  5
147
330
1E
100
AcDbEntity
  8
IMAGE
100
AcDbCircle
 10
3.116058656560415
 20
6.384099156147434
 30
0.0
 40
0.0363347932812923
100
AcDbArc
 50
142.5532855597031
 51
232.8116314160015
  0
LINE
  5
148
330
1E
100
AcDbEntity
  8
IMAGE
100
AcDbLine
 10
3.087211768348714
 20
6.406191558535916
 30
0.0
 11
3.094096548520031
 21
6.355152947186346
 31
0.0
  0
ARC
  5
149
330
1E
100
AcDbEntity
  8
IMAGE
100
AcDbCircle
 10
3.134835329754968
 20
6.384099156147434
 30
0.0
 40
0.0363347932812923
100
AcDbArc
 50
142.5532855597031
 51
232.8116314160015
  0
LINE
  5
14A
330
1E
100
AcDbEntity
  8
IMAGE
100
AcDbLine
 10
3.105988441543264
 20
6.406191558535916
 30
0.0
 11
3.112873221714478
 21
6.355152947186346
 31
0.0
  0
ARC
  5
14B
330
1E
100
AcDbEntity
  8
IMAGE
100
AcDbCircle
 10
3.154237892055915
 20
6.384099156147434
 30
0.0
 40
0.0363347932812923
100
AcDbArc
 50
142.5532855597031
 51
232.8116314160015
  0
LINE
  5
14C
330
1E
100
AcDbEntity
  8
IMAGE
100
AcDbLine
 10
3.125391003844322
 20
6.406191558535916
 30
0.0
 11
3.132275784015417
 21
6.355152947186346
 31
0.0
  0
ARC
  5
14D
330
1E
100
AcDbEntity
  8
IMAGE
100
AcDbCircle
 10
3.173640454356855
 20
6.384099156147439
 30
0.0
 40
0.0363347932812923
100
AcDbArc
 50
142.5532855597031
 51
232.8116314160015
  0
LINE
  5
14E
330
1E
100
AcDbEntity
  8
IMAGE
100
AcDbLine
 10
3.144793566145262
 20
6.406191558535923
 30
0.0
 11
3.151678346316357
 21
6.355152947186351
 31
0.0
  0
LINE
  5
14F
330
1E
100
AcDbEntity
  8
IMAGE
100
AcDbLine
 10
2.96435363209513
 20
6.826662706383771
 30
0.0
 11
2.96435363209513
 21
6.833709240979542
 31
0.0
  0
LINE
  5
150
330
1E
100
AcDbEntity
  8
IMAGE
100
AcDbLine
 10
2.96435363209513
 20
6.934420882153366
 30
0.0
 11
3.039720768707852
 21
6.934420882153366
 31
0.0
  0
LINE
  5
151
330
1E
100
AcDbEntity
  8
IMAGE
100
AcDbLine
 10
2.96435363209513
 20
6.934420882153366
 30
0.0
 11
2.960257592061756
 21
6.934420882153366
 31
0.0
  0
LINE
  5
152
330
1E
100
AcDbEntity
  8
IMAGE
100
AcDbLine
 10
2.960257592061756
 20
6.934420882153366
 30
0.0
 11
2.960257592061756
 21
6.939336130193307
 31
0.0
  0
LINE
  5
153
330
1E
100
AcDbEntity
  8
IMAGE
100
AcDbLine
 10
2.960257592061756
 20
6.939336130193307
 30
0.0
 11
3.039720768707852
 21
6.939336130193307
 31
0.0
  0
LINE
  5
154
330
1E
100
AcDbEntity
  8
IMAGE
100
AcDbLine
 10
2.960257592061756
 20
6.939336130193307
 30
0.0
 11
2.960257592061756
 21
6.949166626273335
 31
0.0
  0
LINE
  5
155
330
1E
100
AcDbEntity
  8
IMAGE
100
AcDbLine
 10
2.960257592061756
 20
6.949166626273335
 30
0.0
 11
3.039720768707852
 21
6.949166626273335
 31
0.0
  0
LINE
  5
156
330
1E
100
AcDbEntity
  8
IMAGE
100
AcDbLine
 10
3.119183945353956
 20
6.949166626273335
 30
0.0
 11
3.039720768707852
 21
6.949166626273335
 31
0.0
  0
LINE
  5
157
330
1E
100
AcDbEntity
  8
IMAGE
100
AcDbLine
 10
3.119183945353956
 20
6.939336130193307
 30
0.0
 11
3.119183945353956
 21
6.949166626273335
 31
0.0
  0
LINE
  5
158
330
1E
100
AcDbEntity
  8
IMAGE
100
AcDbLine
 10
3.119183945353956
 20
6.939336130193307
 30
0.0
 11
3.039720768707852
 21
6.939336130193307
 31
0.0
  0
LINE
  5
159
330
1E
100
AcDbEntity
  8
IMAGE
100
AcDbLine
 10
3.119183945353956
 20
6.934420882153366
 30
0.0
 11
3.119183945353956
 21
6.939336130193307
 31
0.0
  0
LINE
  5
15A
330
1E
100
AcDbEntity
  8
IMAGE
100
AcDbLine
 10
3.115087905320505
 20
6.934420882153366
 30
0.0
 11
3.119183945353956
 21
6.934420882153366
 31
0.0
  0
LINE
  5
15B
330
1E
100
AcDbEntity
  8
IMAGE
100
AcDbLine
 10
3.115087905320505
 20
6.934420882153366
 30
0.0
 11
3.039720768707852
 21
6.934420882153366
 31
0.0
  0
LINE
  5
15C
330
1E
100
AcDbEntity
  8
IMAGE
100
AcDbLine
 10
3.115087905320505
 20
6.826662706383771
 30
0.0
 11
3.115087905320505
 21
6.833654228047064
 31
0.0
  0
LINE
  5
15D
330
1E
100
AcDbEntity
  8
IMAGE
100
AcDbLine
 10
2.985653040268093
 20
6.949166626273335
 30
0.0
 11
2.985653040268093
 21
6.952269947732915
 31
0.0
  0
LINE
  5
15E
330
1E
100
AcDbEntity
  8
IMAGE
100
AcDbLine
 10
2.985653040268093
 20
6.992584650626316
 30
0.0
 11
3.039720768707852
 21
6.992584650626316
 31
0.0
  0
LINE
  5
15F
330
1E
100
AcDbEntity
  8
IMAGE
100
AcDbLine
 10
3.093788497147389
 20
6.992584650626316
 30
0.0
 11
3.039720768707852
 21
6.992584650626316
 31
0.0
  0
LINE
  5
160
330
1E
100
AcDbEntity
  8
IMAGE
100
AcDbLine
 10
3.093788497147389
 20
6.950952144454703
 30
0.0
 11
3.093788497147389
 21
6.975673942091736
 31
0.0
  0
LINE
  5
161
330
1E
100
AcDbEntity
  8
IMAGE
100
AcDbLine
 10
2.985653040268093
 20
6.992584650626316
 30
0.0
 11
2.971182629201491
 21
6.992584650626316
 31
0.0
  0
LINE
  5
162
330
1E
100
AcDbEntity
  8
IMAGE
100
AcDbLine
 10
2.971182629201491
 20
7.046459515441545
 30
0.0
 11
3.039720768707852
 21
7.046459515441545
 31
0.0
  0
LINE
  5
163
330
1E
100
AcDbEntity
  8
IMAGE
100
AcDbLine
 10
3.108213631800804
 20
7.046459515441545
 30
0.0
 11
3.039720768707852
 21
7.046459515441545
 31
0.0
  0
LINE
  5
164
330
1E
100
AcDbEntity
  8
IMAGE
100
AcDbLine
 10
3.108213631800804
 20
6.992584650626316
 30
0.0
 11
3.093788497147389
 21
6.992584650626316
 31
0.0
  0
LINE
  5
165
330
1E
100
AcDbEntity
  8
IMAGE
100
AcDbLine
 10
3.038526846136367
 20
7.653324808299263
 30
0.0
 11
3.128974568068533
 21
7.653324808299263
 31
0.0
  0
LINE
  5
166
330
1E
100
AcDbEntity
  8
IMAGE
100
AcDbLine
 10
3.27453580286342
 20
7.299416792188637
 30
0.0
 11
3.251227193325481
 21
7.362583124037815
 31
0.0
  0
LINE
  5
167
330
1E
100
AcDbEntity
  8
IMAGE
100
AcDbLine
 10
3.037355561771356
 20
7.612329855524698
 30
0.0
 11
3.070602082156936
 21
7.612329855524698
 31
0.0
  0
LINE
  5
168
330
1E
100
AcDbEntity
  8
IMAGE
100
AcDbLine
 10
3.093577211290929
 20
7.261867442853183
 30
0.0
 11
3.093577211290929
 21
7.28552551904875
 31
0.0
  0
ARC
  5
169
330
1E
100
AcDbEntity
  8
IMAGE
100
AcDbCircle
 10
3.113820327511687
 20
7.590852255477685
 30
0.0
 40
0.0214776000468803
100
AcDbArc
 50
16.40204759851894
 51
38.26431209438186
  0
ARC
  5
16A
330
1E
100
AcDbEntity
  8
IMAGE
100
AcDbCircle
 10
3.128974568068533
 20
7.631847208252434
 30
0.0
 40
0.0214776000468803
100
AcDbArc
 50
20.25424690312324
 51
90.0
  0
ARC
  5
16B
330
1E
100
AcDbEntity
  8
IMAGE
100
AcDbCircle
 10
2.950421692934069
 20
7.631847208252434
 30
0.0
 40
0.0214776000468803
100
AcDbArc
 50
90.0
 51
159.7457530968767
  0
LINE
  5
16C
330
1E
100
AcDbEntity
  8
IMAGE
100
AcDbLine
 10
3.040869414866234
 20
7.653324808299263
 30
0.0
 11
2.950421692934069
 21
7.653324808299263
 31
0.0
  0
ARC
  5
16D
330
1E
100
AcDbEntity
  8
IMAGE
100
AcDbCircle
 10
2.965575933490908
 20
7.590852255477685
 30
0.0
 40
0.0214776000468803
100
AcDbArc
 50
90.0
 51
163.597952401481
  0
LINE
  5
16E
330
1E
100
AcDbEntity
  8
IMAGE
100
AcDbLine
 10
3.042040699231243
 20
7.612329855524698
 30
0.0
 11
2.965575933490908
 21
7.612329855524698
 31
0.0
  0
LINE
  5
16F
330
1E
100
AcDbEntity
  8
IMAGE
100
AcDbLine
 10
2.944972388351095
 20
7.596917008684208
 30
0.0
 11
2.898918595204117
 21
7.440460286759829
 31
0.0
  0
LINE
  5
170
330
1E
100
AcDbEntity
  8
IMAGE
100
AcDbLine
 10
3.091310209293871
 20
7.291536435463447
 30
0.0
 11
3.091310209293871
 21
7.309307255291827
 31
0.0
  0
LINE
  5
171
330
1E
100
AcDbEntity
  8
IMAGE
100
AcDbLine
 10
3.091310209293871
 20
7.421297153931451
 30
0.0
 11
3.167860854379673
 21
7.421297153931451
 31
0.0
  0
LINE
  5
172
330
1E
100
AcDbEntity
  8
IMAGE
100
AcDbLine
 10
2.98799383716422
 20
7.421297153931451
 30
0.0
 11
2.958005037481576
 21
7.421297153931451
 31
0.0
  0
LINE
  5
173
330
1E
100
AcDbEntity
  8
IMAGE
100
AcDbLine
 10
3.223979522019975
 20
7.436424313274958
 30
0.0
 11
3.149124115284832
 21
7.639282465527863
 31
0.0
  0
LINE
  5
174
330
1E
100
AcDbEntity
  8
IMAGE
100
AcDbLine
 10
3.238642184535136
 20
7.396688497859162
 30
0.0
 11
3.238328860016947
 21
7.397537607303782
 31
0.0
  0
LINE
  5
175
330
1E
100
AcDbEntity
  8
IMAGE
100
AcDbLine
 10
2.920716521181729
 20
7.359833151687368
 30
0.0
 11
2.365235672909532
 21
7.359833151687368
 31
0.0
  0
LINE
  5
176
330
1E
100
AcDbEntity
  8
IMAGE
100
AcDbLine
 10
2.856906028091046
 20
7.440460286759829
 30
0.0
 11
2.93027214571777
 21
7.639282465527863
 31
0.0
  0
LINE
  5
177
330
1E
100
AcDbEntity
  8
IMAGE
100
AcDbLine
 10
3.223979522019975
 20
7.436424313274958
 30
0.0
 11
3.251227193325481
 21
7.362583124037815
 31
0.0
  0
ARC
  5
178
330
1E
100
AcDbEntity
  8
IMAGE
100
AcDbCircle
 10
2.36634573671615
 20
7.421732176940754
 30
0.0
 40
0.061899025253335
100
AcDbArc
 50
83.40222704928685
 51
269.9999999999997
  0
LINE
  5
179
330
1E
100
AcDbEntity
  8
IMAGE
100
AcDbLine
 10
3.009471437211272
 20
7.442774753978429
 30
0.0
 11
3.009471437211272
 21
7.461072895478363
 31
0.0
  0
LINE
  5
17A
330
1E
100
AcDbEntity
  8
IMAGE
100
AcDbLine
 10
3.009471437211272
 20
7.607768080160663
 30
0.0
 11
3.040342712351767
 21
7.607768080160663
 31
0.0
  0
LINE
  5
17B
330
1E
100
AcDbEntity
  8
IMAGE
100
AcDbLine
 10
3.028765984174107
 20
7.653110265523555
 30
0.0
 11
3.028765984174107
 21
7.676263721879056
 31
0.0
  0
LINE
  5
17C
330
1E
100
AcDbEntity
  8
IMAGE
100
AcDbLine
 10
3.028765984174107
 20
7.676263721879056
 30
0.0
 11
3.041307439699851
 21
7.676263721879056
 31
0.0
  0
ARC
  5
17D
330
1E
100
AcDbEntity
  8
IMAGE
100
AcDbCircle
 10
2.98799383716422
 20
7.442774753978429
 30
0.0
 40
0.0214776000468803
100
AcDbArc
 50
270.0
 51
335.6585948707891
  0
ARC
  5
17E
330
1E
100
AcDbEntity
  8
IMAGE
100
AcDbCircle
 10
3.092691587539318
 20
7.442774753978429
 30
0.0
 40
0.0214776000468803
100
AcDbArc
 50
180.0
 51
270.0
  0
LINE
  5
17F
330
1E
100
AcDbEntity
  8
IMAGE
100
AcDbLine
 10
3.071213987492491
 20
7.442774753978429
 30
0.0
 11
3.071213987492491
 21
7.448066941599673
 31
0.0
  0
LINE
  5
180
330
1E
100
AcDbEntity
  8
IMAGE
100
AcDbLine
 10
3.071213987492491
 20
7.607768080160663
 30
0.0
 11
3.040342712351767
 21
7.607768080160663
 31
0.0
  0
LINE
  5
181
330
1E
100
AcDbEntity
  8
IMAGE
100
AcDbLine
 10
3.051919440529577
 20
7.653110265523555
 30
0.0
 11
3.051919440529577
 21
7.676263721879056
 31
0.0
  0
LINE
  5
182
330
1E
100
AcDbEntity
  8
IMAGE
100
AcDbLine
 10
3.051919440529577
 20
7.676263721879056
 30
0.0
 11
3.041307439699851
 21
7.676263721879056
 31
0.0
  0
LINE
  5
183
330
1E
100
AcDbEntity
  8
IMAGE
100
AcDbLine
 10
2.920716521181729
 20
7.359833151687368
 30
0.0
 11
2.933618095077536
 21
7.359833151687368
 31
0.0
  0
LINE
  5
184
330
1E
100
AcDbEntity
  8
IMAGE
100
AcDbLine
 10
3.143781561393003
 20
7.397458779250701
 30
0.0
 11
2.953178848062897
 21
7.448479721809963
 31
0.0
  0
LINE
  5
185
330
1E
100
AcDbEntity
  8
IMAGE
100
AcDbLine
 10
3.146212750808563
 20
7.405106334959089
 30
0.0
 11
2.95392460369414
 21
7.456541436039074
 31
0.0
  0
LINE
  5
186
330
1E
100
AcDbEntity
  8
IMAGE
100
AcDbLine
 10
3.071422760808177
 20
7.439787394869473
 30
0.0
 11
3.140848814675841
 21
7.433398494206926
 31
0.0
  0
LINE
  5
187
330
1E
100
AcDbEntity
  8
IMAGE
100
AcDbLine
 10
3.140848814675841
 20
7.433398494206926
 30
0.0
 11
2.9557343415463
 21
7.472392515167012
 31
0.0
  0
LINE
  5
188
330
1E
100
AcDbEntity
  8
IMAGE
100
AcDbLine
 10
2.95392460369414
 20
7.456541436039074
 30
0.0
 11
3.009471437211272
 21
7.452337203227038
 31
0.0
  0
LINE
  5
189
330
1E
100
AcDbEntity
  8
IMAGE
100
AcDbLine
 10
3.140848814675841
 20
7.442393502639205
 30
0.0
 11
2.954951973741529
 21
7.480515205042735
 31
0.0
  0
LINE
  5
18A
330
1E
100
AcDbEntity
  8
IMAGE
100
AcDbLine
 10
2.954951973741529
 20
7.480515205042735
 30
0.0
 11
3.009471437211272
 21
7.482655692061218
 31
0.0
  0
LINE
  5
18B
330
1E
100
AcDbEntity
  8
IMAGE
100
AcDbLine
 10
2.995494044257325
 20
7.445422038357605
 30
0.0
 11
3.009471437211272
 21
7.44442783049061
 31
0.0
  0
LINE
  5
18C
330
1E
100
AcDbEntity
  8
IMAGE
100
AcDbLine
 10
3.071213987492491
 20
7.447664028549759
 30
0.0
 11
3.07419941151925
 21
7.447438067556987
 31
0.0
  0
LINE
  5
18D
330
1E
100
AcDbEntity
  8
IMAGE
100
AcDbLine
 10
3.071213987492491
 20
7.485079764474111
 30
0.0
 11
3.142143158317388
 21
7.487864512520335
 31
0.0
  0
LINE
  5
18E
330
1E
100
AcDbEntity
  8
IMAGE
100
AcDbLine
 10
3.071213987492491
 20
7.47746433874224
 30
0.0
 11
3.140420480940992
 21
7.480515205042735
 31
0.0
  0
LINE
  5
18F
330
1E
100
AcDbEntity
  8
IMAGE
100
AcDbLine
 10
3.137850478531685
 20
7.518208573711458
 30
0.0
 11
2.954523640006827
 21
7.543908597803753
 31
0.0
  0
LINE
  5
190
330
1E
100
AcDbEntity
  8
IMAGE
100
AcDbLine
 10
3.141935392901812
 20
7.487856355448574
 30
0.0
 11
2.954951973741529
 21
7.523348578529812
 31
0.0
  0
LINE
  5
191
330
1E
100
AcDbEntity
  8
IMAGE
100
AcDbLine
 10
2.954951973741529
 20
7.523348578529812
 30
0.0
 11
3.009471437211272
 21
7.524497700710778
 31
0.0
  0
LINE
  5
192
330
1E
100
AcDbEntity
  8
IMAGE
100
AcDbLine
 10
3.137850478531685
 20
7.527203582143741
 30
0.0
 11
2.954095306271982
 21
7.552903606236103
 31
0.0
  0
LINE
  5
193
330
1E
100
AcDbEntity
  8
IMAGE
100
AcDbLine
 10
2.954095306271982
 20
7.552903606236103
 30
0.0
 11
3.009471437211272
 21
7.555646291966553
 31
0.0
  0
LINE
  5
194
330
1E
100
AcDbEntity
  8
IMAGE
100
AcDbLine
 10
3.009471437211272
 20
7.46933494640497
 30
0.0
 11
3.009471437211272
 21
7.504438762943898
 31
0.0
  0
LINE
  5
195
330
1E
100
AcDbEntity
  8
IMAGE
100
AcDbLine
 10
3.009471437211272
 20
7.513068568892922
 30
0.0
 11
3.009471437211272
 21
7.536205635578813
 31
0.0
  0
LINE
  5
196
330
1E
100
AcDbEntity
  8
IMAGE
100
AcDbLine
 10
3.071213987492491
 20
7.456673455679112
 30
0.0
 11
3.071213987492491
 21
7.493210378798895
 31
0.0
  0
LINE
  5
197
330
1E
100
AcDbEntity
  8
IMAGE
100
AcDbLine
 10
3.071213987492491
 20
7.525799065939256
 30
0.0
 11
3.082072392176753
 21
7.52602793161164
 31
0.0
  0
LINE
  5
198
330
1E
100
AcDbEntity
  8
IMAGE
100
AcDbLine
 10
3.071213987492491
 20
7.516957184208358
 30
0.0
 11
3.137850478531685
 21
7.518208573711458
 31
0.0
  0
LINE
  5
199
330
1E
100
AcDbEntity
  8
IMAGE
100
AcDbLine
 10
2.987767622499466
 20
7.473785728684479
 30
0.0
 11
3.009340738385331
 21
7.474736747714288
 31
0.0
  0
LINE
  5
19A
330
1E
100
AcDbEntity
  8
IMAGE
100
AcDbLine
 10
3.107535357274764
 20
7.486605042758668
 30
0.0
 11
2.954951973741529
 21
7.514353570097576
 31
0.0
  0
LINE
  5
19B
330
1E
100
AcDbEntity
  8
IMAGE
100
AcDbLine
 10
2.996059158260178
 20
7.515545825912855
 30
0.0
 11
3.009471437211272
 21
7.515797699696051
 31
0.0
  0
LINE
  5
19C
330
1E
100
AcDbEntity
  8
IMAGE
100
AcDbLine
 10
2.999938731226979
 20
7.546682212734594
 30
0.0
 11
3.009471437211272
 21
7.547179178449358
 31
0.0
  0
LINE
  5
19D
330
1E
100
AcDbEntity
  8
IMAGE
100
AcDbLine
 10
3.071213987492491
 20
7.536523371100265
 30
0.0
 11
3.071213987492491
 21
7.561041947198575
 31
0.0
  0
LINE
  5
19E
330
1E
100
AcDbEntity
  8
IMAGE
100
AcDbLine
 10
3.009471437211272
 20
7.545193599008332
 30
0.0
 11
3.009471437211272
 21
7.567466953221696
 31
0.0
  0
LINE
  5
19F
330
1E
100
AcDbEntity
  8
IMAGE
100
AcDbLine
 10
2.944243630369747
 20
7.640283688149835
 30
0.0
 11
3.133567141183061
 21
7.640283688149835
 31
0.0
  0
LINE
  5
1A0
330
1E
100
AcDbEntity
  8
IMAGE
100
AcDbLine
 10
3.071213987492491
 20
7.558704295636175
 30
0.0
 11
3.083452992620909
 21
7.559310472776861
 31
0.0
  0
LINE
  5
1A1
330
1E
100
AcDbEntity
  8
IMAGE
100
AcDbLine
 10
3.071213987492491
 20
7.550397984388144
 30
0.0
 11
3.135708809857522
 21
7.553760273705798
 31
0.0
  0
LINE
  5
1A2
330
1E
100
AcDbEntity
  8
IMAGE
100
AcDbLine
 10
3.135708809857522
 20
7.553760273705798
 30
0.0
 11
2.954951973741529
 21
7.573463625509891
 31
0.0
  0
LINE
  5
1A3
330
1E
100
AcDbEntity
  8
IMAGE
100
AcDbLine
 10
3.134852142387755
 20
7.583743635146824
 30
0.0
 11
2.954523640006827
 21
7.59616531345814
 31
0.0
  0
LINE
  5
1A4
330
1E
100
AcDbEntity
  8
IMAGE
100
AcDbLine
 10
3.133995474917909
 20
7.604303654420615
 30
0.0
 11
2.956162698890114
 21
7.62578104282981
 31
0.0
  0
LINE
  5
1A5
330
1E
100
AcDbEntity
  8
IMAGE
100
AcDbLine
 10
3.135344754284307
 20
7.561939925939022
 30
0.0
 11
2.954523640006827
 21
7.582458633942241
 31
0.0
  0
LINE
  5
1A6
330
1E
100
AcDbEntity
  8
IMAGE
100
AcDbLine
 10
2.954523640006827
 20
7.582458633942241
 30
0.0
 11
3.009343568407492
 21
7.585576354988663
 31
0.0
  0
LINE
  5
1A7
330
1E
100
AcDbEntity
  8
IMAGE
100
AcDbLine
 10
3.135280476122451
 20
7.592738643579103
 30
0.0
 11
2.954523640006827
 21
7.604303654420615
 31
0.0
  0
LINE
  5
1A8
330
1E
100
AcDbEntity
  8
IMAGE
100
AcDbLine
 10
2.954523640006827
 20
7.604303654420615
 30
0.0
 11
3.009471437211272
 21
7.607051044280897
 31
0.0
  0
LINE
  5
1A9
330
1E
100
AcDbEntity
  8
IMAGE
100
AcDbLine
 10
3.133874460102211
 20
7.61336266462581
 30
0.0
 11
2.958210657848731
 21
7.63382835032532
 31
0.0
  0
LINE
  5
1AA
330
1E
100
AcDbEntity
  8
IMAGE
100
AcDbLine
 10
3.071213987492491
 20
7.580107169152732
 30
0.0
 11
3.134852142387755
 21
7.583743635146824
 31
0.0
  0
LINE
  5
1AB
330
1E
100
AcDbEntity
  8
IMAGE
100
AcDbLine
 10
3.071213987492491
 20
7.601449950446845
 30
0.0
 11
3.133995474917909
 21
7.604303654420615
 31
0.0
  0
LINE
  5
1AC
330
1E
100
AcDbEntity
  8
IMAGE
100
AcDbLine
 10
3.000565403598079
 20
7.577234036655237
 30
0.0
 11
3.009471437211272
 21
7.577742952861672
 31
0.0
  0
LINE
  5
1AD
330
1E
100
AcDbEntity
  8
IMAGE
100
AcDbLine
 10
3.009471437211272
 20
7.582030300207286
 30
0.0
 11
3.009471437211272
 21
7.592400874313756
 31
0.0
  0
LINE
  5
1AE
330
1E
100
AcDbEntity
  8
IMAGE
100
AcDbLine
 10
3.009471437211272
 20
7.576223422911837
 30
0.0
 11
3.009471437211272
 21
7.582030300207286
 31
0.0
  0
LINE
  5
1AF
330
1E
100
AcDbEntity
  8
IMAGE
100
AcDbLine
 10
3.071213987492491
 20
7.569217176071479
 30
0.0
 11
3.071213987492491
 21
7.588127261018453
 31
0.0
  0
LINE
  5
1B0
330
1E
100
AcDbEntity
  8
IMAGE
100
AcDbLine
 10
3.071213987492491
 20
7.596837684320849
 30
0.0
 11
3.071213987492491
 21
7.607768080160663
 31
0.0
  0
LINE
  5
1B1
330
1E
100
AcDbEntity
  8
IMAGE
100
AcDbLine
 10
3.009471437211272
 20
7.600876984541571
 30
0.0
 11
3.009471437211272
 21
7.607768080160663
 31
0.0
  0
LINE
  5
1B2
330
1E
100
AcDbEntity
  8
IMAGE
100
AcDbLine
 10
3.008922024335339
 20
7.627920229957847
 30
0.0
 11
3.008922024335339
 21
7.640283688149835
 31
0.0
  0
LINE
  5
1B3
330
1E
100
AcDbEntity
  8
IMAGE
100
AcDbLine
 10
3.071458749626698
 20
7.620634397885162
 30
0.0
 11
3.071458749626698
 21
7.639855354414951
 31
0.0
  0
ARC
  5
1B4
330
1E
100
AcDbEntity
  8
IMAGE
100
AcDbCircle
 10
3.131431953297997
 20
7.608799722824134
 30
0.0
 40
0.0051755457862211
100
AcDbArc
 50
299.6904749881143
 51
61.84020771027801
  0
ARC
  5
1B5
330
1E
100
AcDbEntity
  8
IMAGE
100
AcDbCircle
 10
3.133683771814512
 20
7.588306974479124
 30
0.0
 40
0.0047105366635529
100
AcDbArc
 50
284.3611712576872
 51
70.18620675450574
  0
ARC
  5
1B6
330
1E
100
AcDbEntity
  8
IMAGE
100
AcDbCircle
 10
3.133347750138247
 20
7.55775311687006
 30
0.0
 40
0.0046386851081559
100
AcDbArc
 50
300.5967983237887
 51
64.50001470819097
  0
ARC
  5
1B7
330
1E
100
AcDbEntity
  8
IMAGE
100
AcDbCircle
 10
2.95911239793183
 20
7.629314619895939
 30
0.0
 40
0.0046029226526689
100
AcDbArc
 50
101.2976632281976
 51
230.1461164898265
  0
LINE
  5
1B8
330
1E
100
AcDbEntity
  8
IMAGE
100
AcDbLine
 10
3.125857133955285
 20
7.635572017066255
 30
0.0
 11
3.098015441188723
 21
7.635572017066255
 31
0.0
  0
LINE
  5
1B9
330
1E
100
AcDbEntity
  8
IMAGE
100
AcDbLine
 10
3.098015441188723
 20
7.635572017066255
 30
0.0
 11
3.098015441188723
 21
7.62572034116421
 31
0.0
  0
LINE
  5
1BA
330
1E
100
AcDbEntity
  8
IMAGE
100
AcDbLine
 10
3.098015441188723
 20
7.62572034116421
 30
0.0
 11
3.125857133955285
 21
7.62572034116421
 31
0.0
  0
LINE
  5
1BB
330
1E
100
AcDbEntity
  8
IMAGE
100
AcDbLine
 10
2.95923531109037
 20
7.406841802644905
 30
0.0
 11
3.010790754605732
 21
7.406841802644905
 31
0.0
  0
LINE
  5
1BC
330
1E
100
AcDbEntity
  8
IMAGE
100
AcDbLine
 10
3.010790754605732
 20
7.406841802644905
 30
0.0
 11
3.010790754605732
 21
7.396561793007823
 31
0.0
  0
LINE
  5
1BD
330
1E
100
AcDbEntity
  8
IMAGE
100
AcDbLine
 10
3.010790754605732
 20
7.396561793007823
 30
0.0
 11
2.959591267666899
 21
7.396561793007823
 31
0.0
  0
ARC
  5
1BE
330
1E
100
AcDbEntity
  8
IMAGE
100
AcDbCircle
 10
3.125857133955285
 20
7.63064617911521
 30
0.0
 40
0.004925837951024
100
AcDbArc
 50
270.0
 51
90.00000000000003
  0
ARC
  5
1BF
330
1E
100
AcDbEntity
  8
IMAGE
100
AcDbCircle
 10
3.138040907925605
 20
7.522725344416226
 30
0.0
 40
0.004520783223477
100
AcDbArc
 50
267.5858099772507
 51
97.86681201058431
  0
ARC
  5
1C0
330
1E
100
AcDbEntity
  8
IMAGE
100
AcDbCircle
 10
3.141133523374934
 20
7.484224619471131
 30
0.0
 40
0.0037773251004148
100
AcDbArc
 50
259.1190383125036
 51
74.4970305123563
  0
ARC
  5
1C1
330
1E
100
AcDbEntity
  8
IMAGE
100
AcDbCircle
 10
3.140838848429252
 20
7.437886274583828
 30
0.0
 40
0.0045072390737615
100
AcDbArc
 50
264.6740685022613
 51
89.87330950989768
  0
ARC
  5
1C2
330
1E
100
AcDbEntity
  8
IMAGE
100
AcDbCircle
 10
2.956114678976241
 20
7.476528172134884
 30
0.0
 40
0.0041531090606907
100
AcDbArc
 50
106.2578292083121
 51
264.7455233655514
  0
ARC
  5
1C3
330
1E
100
AcDbEntity
  8
IMAGE
100
AcDbCircle
 10
2.954951973741529
 20
7.518861272736007
 30
0.0
 40
0.004507702638412
100
AcDbArc
 50
84.54737801215902
 51
269.9999999999679
  0
ARC
  5
1C4
330
1E
100
AcDbEntity
  8
IMAGE
100
AcDbCircle
 10
2.954523640006827
 20
7.548406102019871
 30
0.0
 40
0.0044975042161515
100
AcDbArc
 50
90.0
 51
269.9999999999999
  0
ARC
  5
1C5
330
1E
100
AcDbEntity
  8
IMAGE
100
AcDbCircle
 10
2.955193803749548
 20
7.577982843862944
 30
0.0
 40
0.0045256840671336
100
AcDbArc
 50
98.51568181692371
 51
266.9369401709079
  0
ARC
  5
1C6
330
1E
100
AcDbEntity
  8
IMAGE
100
AcDbCircle
 10
2.954523640006827
 20
7.600234483939299
 30
0.0
 40
0.0040691704812801
100
AcDbArc
 50
90.0
 51
269.9999999999999
  0
ARC
  5
1C7
330
1E
100
AcDbEntity
  8
IMAGE
100
AcDbCircle
 10
3.125857133955285
 20
7.63086034598264
 30
0.0
 40
0.0064250060230737
100
AcDbArc
 50
233.1301029376212
 51
132.8334278476237
  0
ARC
  5
1C8
330
1E
100
AcDbEntity
  8
IMAGE
100
AcDbCircle
 10
2.958378643620527
 20
7.631288679717556
 30
0.0
 40
0.0071288941214513
100
AcDbArc
 50
13.91116701526151
 51
299.573172725483
  0
ARC
  5
1C9
330
1E
100
AcDbEntity
  8
IMAGE
100
AcDbCircle
 10
3.142562149615223
 20
7.402130131561243
 30
0.0
 40
0.0075779973461522
100
AcDbArc
 50
198.6466700354495
 51
134.7670628459139
  0
ARC
  5
1CA
330
1E
100
AcDbEntity
  8
IMAGE
100
AcDbCircle
 10
2.959663644825068
 20
7.402130131561243
 30
0.0
 40
0.0068667121409213
100
AcDbArc
 50
43.3269930624449
 51
304.6951535312333
  0
TEXT
  5
1CB
330
1E
100
AcDbEntity
  8
IMAGE
100
AcDbText
 10
2.347335912588727
 20
7.405945510330699
 30
0.0
 40
0.0246891840388007
  1
6 
  7
SIMPLEX
100
AcDbText
  0
LINE
  5
1CC
330
1E
100
AcDbEntity
  8
IMAGE
100
AcDbLine
 10
2.958912939751701
 20
6.833654228047064
 30
0.0
 11
3.121171966193365
 21
6.833654228047064
 31
0.0
  0
LINE
  5
1CD
330
1E
100
AcDbEntity
  8
IMAGE
100
AcDbLine
 10
3.121171966193365
 20
6.833654228047064
 30
0.0
 11
3.232923878582488
 21
6.807260314479938
 31
0.0
  0
LINE
  5
1CE
330
1E
100
AcDbEntity
  8
IMAGE
100
AcDbLine
 10
2.958113634202643
 20
6.844844505732689
 30
0.0
 11
3.121971271742424
 21
6.844844505732689
 31
0.0
  0
LINE
  5
1CF
330
1E
100
AcDbEntity
  8
IMAGE
100
AcDbLine
 10
2.957314328653882
 20
6.858432700065268
 30
0.0
 11
3.121971271742424
 21
6.858432700065268
 31
0.0
  0
LINE
  5
1D0
330
1E
100
AcDbEntity
  8
IMAGE
100
AcDbLine
 10
3.121971271742424
 20
6.858432700065268
 30
0.0
 11
3.250220244476377
 21
6.869814477981575
 31
0.0
  0
LINE
  5
1D1
330
1E
100
AcDbEntity
  8
IMAGE
100
AcDbLine
 10
2.957314328653882
 20
6.884010477632427
 30
0.0
 11
3.120372660644234
 21
6.884010477632427
 31
0.0
  0
LINE
  5
1D2
330
1E
100
AcDbEntity
  8
IMAGE
100
AcDbLine
 10
3.120372660644234
 20
6.884010477632427
 30
0.0
 11
3.195514054608652
 21
6.86495943945421
 31
0.0
  0
LINE
  5
1D3
330
1E
100
AcDbEntity
  8
IMAGE
100
AcDbLine
 10
3.233867451494864
 20
6.855235477869335
 30
0.0
 11
3.238045568470832
 21
6.859413594845417
 31
0.0
  0
LINE
  5
1D4
330
1E
100
AcDbEntity
  8
IMAGE
100
AcDbLine
 10
3.221252717480052
 20
6.867243681880616
 30
0.0
 11
3.121171966193365
 21
6.89679936641583
 31
0.0
  0
LINE
  5
1D5
330
1E
100
AcDbEntity
  8
IMAGE
100
AcDbLine
 10
3.121171966193365
 20
6.89679936641583
 30
0.0
 11
2.958113634202643
 21
6.89679936641583
 31
0.0
  0
LINE
  5
1D6
330
1E
100
AcDbEntity
  8
IMAGE
100
AcDbLine
 10
2.958113634202643
 20
6.908788949650555
 30
0.0
 11
3.121171966193365
 21
6.908788949650555
 31
0.0
  0
LINE
  5
1D7
330
1E
100
AcDbEntity
  8
IMAGE
100
AcDbLine
 10
3.121171966193365
 20
6.908788949650555
 30
0.0
 11
3.242659812533466
 21
6.930370199472857
 31
0.0
  0
LINE
  5
1D8
330
1E
100
AcDbEntity
  8
IMAGE
100
AcDbLine
 10
3.242659812533466
 20
6.930370199472857
 30
0.0
 11
3.246656340278155
 21
6.921577838434108
 31
0.0
  0
LINE
  5
1D9
330
1E
100
AcDbEntity
  8
IMAGE
100
AcDbLine
 10
3.246656340278155
 20
6.921577838434108
 30
0.0
 11
3.121171966193365
 21
6.897598671964967
 31
0.0
  0
ARC
  5
1DA
330
1E
100
AcDbEntity
  8
IMAGE
100
AcDbCircle
 10
2.958582362765294
 20
6.890350648190542
 30
0.0
 40
0.0064657306791705
100
AcDbArc
 50
94.15726372402088
 51
258.6900675259793
  0
ARC
  5
1DB
330
1E
100
AcDbEntity
  8
IMAGE
100
AcDbCircle
 10
2.957703032037082
 20
6.902794158033323
 30
0.0
 40
0.0060088368818952
100
AcDbArc
 50
86.08175113591975
 51
273.91824886406
  0
ARC
  5
1DC
330
1E
100
AcDbEntity
  8
IMAGE
100
AcDbCircle
 10
2.957301255899372
 20
6.851614324926654
 30
0.0
 40
0.0068183876706294
100
AcDbArc
 50
89.89014791423272
 51
276.8427734126303
  0
LINE
  5
1DD
330
1E
100
AcDbEntity
  8
IMAGE
100
AcDbLine
 10
3.121971271742424
 20
6.844844505732689
 30
0.0
 11
3.238482065716672
 21
6.813962834259596
 31
0.0
  0
LINE
  5
1DE
330
1E
100
AcDbEntity
  8
IMAGE
100
AcDbLine
 10
3.115087905320505
 20
6.908788949650555
 30
0.0
 11
3.115087905320505
 21
6.934420882153366
 31
0.0
  0
LINE
  5
1DF
330
1E
100
AcDbEntity
  8
IMAGE
100
AcDbLine
 10
3.115087905320505
 20
6.858432700065268
 30
0.0
 11
3.115087905320505
 21
6.884010477632427
 31
0.0
  0
LINE
  5
1E0
330
1E
100
AcDbEntity
  8
IMAGE
100
AcDbLine
 10
2.96435363209513
 20
6.908788949650555
 30
0.0
 11
2.96435363209513
 21
6.934420882153366
 31
0.0
  0
LINE
  5
1E1
330
1E
100
AcDbEntity
  8
IMAGE
100
AcDbLine
 10
2.96435363209513
 20
6.858575086478758
 30
0.0
 11
2.96435363209513
 21
6.884010477632427
 31
0.0
  0
LINE
  5
1E2
330
1E
100
AcDbEntity
  8
IMAGE
100
AcDbLine
 10
3.121971271742424
 20
6.844844505732689
 30
0.0
 11
3.250220244476597
 21
6.860941701796338
 31
0.0
  0
ARC
  5
1E3
330
1E
100
AcDbEntity
  8
IMAGE
100
AcDbCircle
 10
3.117717430279501
 20
6.902957986640684
 30
0.0
 40
0.0067774588159479
100
AcDbArc
 50
297.9465009480676
 51
59.35551081782779
  0
ARC
  5
1E4
330
1E
100
AcDbEntity
  8
IMAGE
100
AcDbCircle
 10
3.118652234857647
 20
6.85173409283287
 30
0.0
 40
0.0074757838850566
100
AcDbArc
 50
292.8407591538867
 51
63.64242935810609
  0
LINE
  5
1E5
330
1E
100
AcDbEntity
  8
IMAGE
100
AcDbLine
 10
3.238482065716672
 20
6.813962834259596
 30
0.0
 11
3.232923878582488
 21
6.807260314479938
 31
0.0
  0
ARC
  5
1E6
330
1E
100
AcDbEntity
  8
IMAGE
100
AcDbCircle
 10
2.957538849105679
 20
6.839179764184683
 30
0.0
 40
0.0056938277733615
100
AcDbArc
 50
84.20619063184155
 51
283.9650429278988
  0
ARC
  5
1E7
330
1E
100
AcDbEntity
  8
IMAGE
100
AcDbCircle
 10
2.959591167322866
 20
7.401701797826365
 30
0.0
 40
0.005140004818456
100
AcDbArc
 50
89.99888146252761
 51
270.0011185374723
  0
ARC
  5
1E8
330
1E
100
AcDbEntity
  8
IMAGE
100
AcDbCircle
 10
2.954304312261255
 20
7.452440960290587
 30
0.0
 40
0.0041180189364335
100
AcDbArc
 50
95.29056452857238
 51
255.8893738514848
  0
ARC
  5
1E9
330
1E
100
AcDbEntity
  8
IMAGE
100
AcDbCircle
 10
2.98799383716422
 20
7.442774753978429
 30
0.0
 40
0.0214776000468803
100
AcDbArc
 50
357.1064511458359
 51
0.0
  0
ARC
  5
1EA
330
1E
100
AcDbEntity
  8
IMAGE
100
AcDbCircle
 10
3.145246473768244
 20
7.401203297992868
 30
0.0
 40
0.0040208691694722
100
AcDbArc
 50
248.6338110398958
 51
76.0948399531927
  0
LINE
  5
1EB
330
1E
100
AcDbEntity
  8
IMAGE
100
AcDbLine
 10
3.071213987492491
 20
7.501280325919786
 30
0.0
 11
3.071213987492491
 21
7.527550137875866
 31
0.0
  0
LINE
  5
1EC
330
1E
100
AcDbEntity
  8
IMAGE
100
AcDbLine
 10
3.250220244476597
 20
6.869814477981575
 30
0.0
 11
3.250220244476597
 21
6.860941701796338
 31
0.0
  0
LINE
  5
1ED
330
1E
100
AcDbEntity
  8
IMAGE
100
AcDbLine
 10
3.224228381515676
 20
6.857679327796574
 30
0.0
 11
3.233867451494864
 21
6.855235477869335
 31
0.0
  0
LINE
  5
1EE
330
1E
100
AcDbEntity
  8
IMAGE
100
AcDbLine
 10
2.933618095077536
 20
7.359833151687368
 30
0.0
 11
2.933618095077536
 21
7.291536435463447
 31
0.0
  0
ARC
  5
1EF
330
1E
100
AcDbEntity
  8
IMAGE
100
AcDbCircle
 10
2.970492229001029
 20
7.252773395522179
 30
0.0
 40
0.0053694000117201
100
AcDbArc
 50
270.0
 51
0.0
  0
ARC
  5
1F0
330
1E
100
AcDbEntity
  8
IMAGE
100
AcDbCircle
 10
2.981231029024556
 20
7.305657749047906
 30
0.0
 40
0.0053694000117201
100
AcDbArc
 50
90.0
 51
179.9999999999999
  0
ARC
  5
1F1
330
1E
100
AcDbEntity
  8
IMAGE
100
AcDbCircle
 10
3.014267865241988
 20
7.305657749047906
 30
0.0
 40
0.0053694000117201
100
AcDbArc
 50
0.0
 51
90.0
  0
LINE
  5
1F2
330
1E
100
AcDbEntity
  8
IMAGE
100
AcDbLine
 10
2.737825219075972
 20
7.119175566594838
 30
0.0
 11
2.737825219075972
 21
7.119048019615993
 31
0.0
  0
LINE
  5
1F3
330
1E
100
AcDbEntity
  8
IMAGE
100
AcDbLine
 10
2.828246235746176
 20
7.178036407180488
 30
0.0
 11
2.955473437292997
 21
7.189046453468188
 31
0.0
  0
ARC
  5
1F4
330
1E
100
AcDbEntity
  8
IMAGE
100
AcDbCircle
 10
2.955473437292997
 20
7.227445140680643
 30
0.0
 40
0.038398687212376
100
AcDbArc
 50
269.999999999999
 51
271.0013900768628
  0
LINE
  5
1F5
330
1E
100
AcDbEntity
  8
IMAGE
100
AcDbLine
 10
2.981231029024556
 20
7.311027149059629
 30
0.0
 11
3.014267865241988
 21
7.311027149059594
 31
0.0
  0
LINE
  5
1F6
330
1E
100
AcDbEntity
  8
IMAGE
100
AcDbLine
 10
2.97586162901287
 20
7.252773395522179
 30
0.0
 11
2.97586162901287
 21
7.305657749047906
 31
0.0
  0
LINE
  5
1F7
330
1E
100
AcDbEntity
  8
IMAGE
100
AcDbLine
 10
2.802461951401587
 20
7.247403995510342
 30
0.0
 11
2.939410346946361
 21
7.247403995510342
 31
0.0
  0
LINE
  5
1F8
330
1E
100
AcDbEntity
  8
IMAGE
100
AcDbLine
 10
2.73365085848866
 20
7.119048019615993
 30
0.0
 11
2.870811638980775
 21
7.119048019615993
 31
0.0
  0
LINE
  5
1F9
330
1E
100
AcDbEntity
  8
IMAGE
100
AcDbLine
 10
2.802461951401587
 20
7.248368722858609
 30
0.0
 11
2.73365085848866
 21
7.248368722858609
 31
0.0
  0
LINE
  5
1FA
330
1E
100
AcDbEntity
  8
IMAGE
100
AcDbLine
 10
2.927518360097446
 20
7.440460286759829
 30
0.0
 11
2.602410617632777
 21
7.440460286759829
 31
0.0
  0
LINE
  5
1FB
330
1E
100
AcDbEntity
  8
IMAGE
100
AcDbLine
 10
2.510742144825846
 20
7.432601467202641
 30
0.0
 11
2.510742144825846
 21
7.394536178451122
 31
0.0
  0
ARC
  5
1FC
330
1E
100
AcDbEntity
  8
IMAGE
100
AcDbCircle
 10
2.525120365979812
 20
7.394536178451122
 30
0.0
 40
0.0143782211539676
100
AcDbArc
 50
180.0
 51
270.0
  0
LINE
  5
1FD
330
1E
100
AcDbEntity
  8
IMAGE
100
AcDbLine
 10
2.58944614124833
 20
7.440460286759829
 30
0.0
 11
2.373457844262214
 21
7.483221259334023
 31
0.0
  0
LINE
  5
1FE
330
1E
100
AcDbEntity
  8
IMAGE
100
AcDbLine
 10
2.602410617632777
 20
7.440460286759829
 30
0.0
 11
2.518600964383034
 21
7.440460286759829
 31
0.0
  0
ARC
  5
1FF
330
1E
100
AcDbEntity
  8
IMAGE
100
AcDbCircle
 10
2.518600964383034
 20
7.432601467202641
 30
0.0
 40
0.0078588195571891
100
AcDbArc
 50
90.0
 51
180.0
  0
LINE
  5
200
330
1E
100
AcDbEntity
  8
IMAGE
100
AcDbLine
 10
2.525120365979812
 20
7.38015795729715
 30
0.0
 11
2.933618095077536
 21
7.38015795729715
 31
0.0
  0
LINE
  5
201
330
1E
100
AcDbEntity
  8
IMAGE
100
AcDbLine
 10
2.946658617968882
 20
7.432569049342269
 30
0.0
 11
2.958005037481576
 21
7.421297153931451
 31
0.0
  0
ARC
  5
202
330
1E
100
AcDbEntity
  8
IMAGE
100
AcDbCircle
 10
2.927518360097446
 20
7.413302245714731
 30
0.0
 40
0.0271580410451001
100
AcDbArc
 50
45.188780688233
 51
90.0
  0
LWPOLYLINE
  5
203
330
1E
100
AcDbEntity
  8
IMAGE
100
AcDbPolyline
 90
        2
 70
     0
 43
0.0
 10
2.933618095077536
 20
7.359833151687367
 42
-0.2233585005404296
 10
2.943716274650324
 20
7.351037860240398
 42
0.6523496497246127
  0
LWPOLYLINE
  5
207
330
1E
100
AcDbEntity
  8
IMAGE
100
AcDbPolyline
 90
        2
 70
     0
 43
0.0
 10
2.933618095077536
 20
7.380157957297149
 42
-0.2233585005404296
 10
2.943716274650324
 20
7.37136266585018
 42
0.6523496497246127
  0
LINE
  5
20B
330
1E
100
AcDbEntity
  8
IMAGE
100
AcDbLine
 10
3.010159021815651
 20
7.356751172598301
 30
0.0
 11
3.010159021815651
 21
7.311027149059597
 31
0.0
  0
LINE
  5
20C
330
1E
100
AcDbEntity
  8
IMAGE
100
AcDbLine
 10
3.019637265253448
 20
7.291536435463447
 30
0.0
 11
3.091310209293871
 21
7.291536435463447
 31
0.0
  0
LINE
  5
20D
330
1E
100
AcDbEntity
  8
IMAGE
100
AcDbLine
 10
2.965458615172527
 20
7.303677224223992
 30
0.0
 11
2.965458615172527
 21
7.344610383837753
 31
0.0
  0
LINE
  5
20E
330
1E
100
AcDbEntity
  8
IMAGE
100
AcDbLine
 10
2.965458615172527
 20
7.303677224223992
 30
0.0
 11
2.965458615172527
 21
7.344610383837753
 31
0.0
  0
LINE
  5
20F
330
1E
100
AcDbEntity
  8
IMAGE
100
AcDbLine
 10
2.978318501720655
 20
7.310168585022523
 30
0.0
 11
2.978318501720655
 21
7.344610383837753
 31
0.0
  0
LINE
  5
210
330
1E
100
AcDbEntity
  8
IMAGE
100
AcDbLine
 10
2.933618095077536
 20
7.291536435463447
 30
0.0
 11
2.953317826411984
 21
7.291536435463447
 31
0.0
  0
ARC
  5
211
330
1E
100
AcDbEntity
  8
IMAGE
100
AcDbCircle
 10
2.953317826411984
 20
7.303677224223992
 30
0.0
 40
0.0121407887605448
100
AcDbArc
 50
270.0
 51
0.0
  0
LINE
  5
212
330
1E
100
AcDbEntity
  8
IMAGE
100
AcDbLine
 10
2.943716274650324
 20
7.371362665850181
 30
0.0
 11
2.951575094207512
 21
7.356751172598301
 31
0.0
  0
LINE
  5
213
330
1E
100
AcDbEntity
  8
IMAGE
100
AcDbLine
 10
2.990459290481203
 20
7.356751172598301
 30
0.0
 11
3.010159021815651
 21
7.356751172598301
 31
0.0
  0
ARC
  5
214
330
1E
100
AcDbEntity
  8
IMAGE
100
AcDbCircle
 10
2.990459290481203
 20
7.344610383837753
 30
0.0
 40
0.0121407887605448
100
AcDbArc
 50
90.0
 51
180.0
  0
LINE
  5
215
330
1E
100
AcDbEntity
  8
IMAGE
100
AcDbLine
 10
2.953317826411984
 20
7.356751172598297
 30
0.0
 11
2.951575094207512
 21
7.356751172598297
 31
0.0
  0
ARC
  5
216
330
1E
100
AcDbEntity
  8
IMAGE
100
AcDbCircle
 10
2.953317826411984
 20
7.344610383837753
 30
0.0
 40
0.0121407887605448
100
AcDbArc
 50
0.0000000000001018
 51
90.0
  0
LINE
  5
217
330
1E
100
AcDbEntity
  8
IMAGE
100
AcDbLine
 10
2.990459290481203
 20
7.356751172598301
 30
0.0
 11
2.953317826411984
 21
7.356751172598297
 31
0.0
  0
LINE
  5
218
330
1E
100
AcDbEntity
  8
IMAGE
100
AcDbLine
 10
2.97586162901287
 20
7.291536435463447
 30
0.0
 11
2.953317826411984
 21
7.291536435463447
 31
0.0
  0
LINE
  5
219
330
1E
100
AcDbEntity
  8
IMAGE
100
AcDbLine
 10
2.73365085848866
 20
7.110961223499515
 30
0.0
 11
3.055807282929128
 21
7.110961223499515
 31
0.0
  0
LINE
  5
21A
330
1E
100
AcDbEntity
  8
IMAGE
100
AcDbLine
 10
3.055807282929128
 20
7.085552868213349
 30
0.0
 11
3.055807282929128
 21
7.139981705502222
 31
0.0
  0
LINE
  5
21B
330
1E
100
AcDbEntity
  8
IMAGE
100
AcDbLine
 10
3.055807282929128
 20
7.139981705502222
 30
0.0
 11
3.042067990052782
 21
7.139981705502222
 31
0.0
  0
LINE
  5
21C
330
1E
100
AcDbEntity
  8
IMAGE
100
AcDbLine
 10
3.042067990052782
 20
7.139981705502222
 30
0.0
 11
3.04206799005278
 21
7.110961223499515
 31
0.0
  0
LINE
  5
21D
330
1E
100
AcDbEntity
  8
IMAGE
100
AcDbLine
 10
3.091310209293871
 20
7.309307255291827
 30
0.0
 11
3.14396773684002
 21
7.309307255291827
 31
0.0
  0
LWPOLYLINE
  5
21E
330
1E
100
AcDbEntity
  8
IMAGE
100
AcDbPolyline
 90
        2
 70
     0
 43
0.0
 10
3.099959537101723
 20
7.046459515441545
 42
-0.2600169401948678
 10
3.14396773684002
 20
7.134259196441376
  0
LINE
  5
222
330
1E
100
AcDbEntity
  8
IMAGE
100
AcDbLine
 10
3.14396773684002
 20
7.309307255291827
 30
0.0
 11
3.186100593643248
 21
7.33158486240659
 31
0.0
  0
LINE
  5
223
330
1E
100
AcDbEntity
  8
IMAGE
100
AcDbLine
 10
3.220634572873846
 20
7.445489125460998
 30
0.0
 11
3.453483131617632
 21
7.568607022098294
 31
0.0
  0
LINE
  5
224
330
1E
100
AcDbEntity
  8
IMAGE
100
AcDbLine
 10
3.250165915463872
 20
7.365459187042741
 30
0.0
 11
3.521980023839873
 21
7.509179987721683
 31
0.0
  0
LINE
  5
225
330
1E
100
AcDbEntity
  8
IMAGE
100
AcDbLine
 10
3.428322475867867
 20
7.424125087767638
 30
0.0
 11
3.489830924927018
 21
7.307796315873638
 31
0.0
  0
LINE
  5
226
330
1E
100
AcDbEntity
  8
IMAGE
100
AcDbLine
 10
3.114859971886847
 20
7.249045952737002
 30
0.0
 11
3.1828785903072
 21
7.285010569727841
 31
0.0
  0
LINE
  5
227
330
1E
100
AcDbEntity
  8
IMAGE
100
AcDbLine
 10
3.377003121196247
 20
7.396990150630639
 30
0.0
 11
3.438511570255398
 21
7.280661378736642
 31
0.0
  0
LINE
  5
228
330
1E
100
AcDbEntity
  8
IMAGE
100
AcDbLine
 10
3.377003121196247
 20
7.396990150630639
 30
0.0
 11
3.428322475867867
 21
7.424125087767638
 31
0.0
  0
LINE
  5
229
330
1E
100
AcDbEntity
  8
IMAGE
100
AcDbLine
 10
3.438511570255398
 20
7.280661378736642
 30
0.0
 11
3.489830924927018
 21
7.307796315873638
 31
0.0
  0
LWPOLYLINE
  5
22A
330
1E
100
AcDbEntity
  8
IMAGE
100
AcDbPolyline
 90
        2
 70
     0
 43
0.0
 10
3.14396773684002
 20
7.134259196441376
 10
3.434653371982205
 20
7.287958253779161
  0
LINE
  5
22E
330
1E
100
AcDbEntity
  8
IMAGE
100
AcDbLine
 10
2.971182629201491
 20
7.046459515441545
 30
0.0
 11
2.971182629201491
 21
6.992584650626316
 31
0.0
  0
LINE
  5
22F
330
1E
100
AcDbEntity
  8
IMAGE
100
AcDbLine
 10
3.108213631800804
 20
7.046459515441545
 30
0.0
 11
3.108213631800804
 21
6.992584650626316
 31
0.0
  0
LINE
  5
230
330
1E
100
AcDbEntity
  8
IMAGE
100
AcDbLine
 10
3.130683728524099
 20
7.604153120489716
 30
0.0
 11
3.191755265973979
 21
7.303772315018633
 31
0.0
  0
ARC
  5
231
330
1E
100
AcDbEntity
  8
IMAGE
100
AcDbCircle
 10
3.174782930820022
 20
7.300321606507676
 30
0.0
 40
0.0173195712939384
100
AcDbArc
 50
297.8674974388279
 51
11.49237509417364
  0
LWPOLYLINE
  5
232
330
1E
100
AcDbEntity
  8
IMAGE
100
AcDbPolyline
 90
        2
 70
     0
 43
0.0
 10
3.27453580286342
 20
7.299416792188636
 42
-0.2005149959316301
 10
3.273786706844431
 20
7.266711679124207
  0
LWPOLYLINE
  5
236
330
1E
100
AcDbEntity
  8
IMAGE
100
AcDbPolyline
 90
        2
 70
     0
 43
0.0
 10
3.249154652953302
 20
7.285996594064893
 42
-0.2908297603287861
 10
3.243423828653396
 20
7.250969354188938
  0
LINE
  5
23A
330
1E
100
AcDbEntity
  8
IMAGE
100
AcDbLine
 10
3.206596251031923
 20
7.297551203508607
 30
0.0
 11
3.231432667236699
 21
7.310683375507597
 31
0.0
  0
LINE
  5
23B
330
1E
100
AcDbEntity
  8
IMAGE
100
AcDbLine
 10
3.264020246773352
 20
7.327913949193334
 30
0.0
 11
3.380861319469438
 21
7.389693275588118
 31
0.0
  0
LINE
  5
23C
330
1E
100
AcDbEntity
  8
IMAGE
100
AcDbLine
 10
3.209279279386334
 20
7.394058856431339
 30
0.0
 11
3.134423872651193
 21
7.596917008684247
 31
0.0
  0
LINE
  5
23D
330
1E
100
AcDbEntity
  8
IMAGE
100
AcDbLine
 10
3.209279279386334
 20
7.394058856431339
 30
0.0
 11
3.236526950691839
 21
7.320217667194196
 31
0.0
  0
LINE
  5
23E
330
1E
100
AcDbEntity
  8
IMAGE
100
AcDbLine
 10
3.249154652953302
 20
7.285996594064894
 30
0.0
 11
3.236526950691839
 21
7.320217667194196
 31
0.0
  0
LINE
  5
23F
330
1E
100
AcDbEntity
  8
IMAGE
100
AcDbLine
 10
3.277419298646782
 20
7.405406435218623
 30
0.0
 11
3.475420251100549
 21
7.510098776583348
 31
0.0
  0
LINE
  5
240
330
1E
100
AcDbEntity
  8
IMAGE
100
AcDbLine
 10
3.153991993227503
 20
7.543887401922269
 30
0.0
 11
3.180689952261039
 21
7.553739047322068
 31
0.0
  0
LINE
  5
241
330
1E
100
AcDbEntity
  8
IMAGE
100
AcDbLine
 10
3.170684201338165
 20
7.498651517942224
 30
0.0
 11
3.1973821603717
 21
7.508503163342023
 31
0.0
  0
ARC
  5
242
330
1E
100
AcDbEntity
  8
IMAGE
100
AcDbCircle
 10
3.267997445474213
 20
7.423225655590716
 30
0.0
 40
0.0201567837681153
100
AcDbArc
 50
200.2542469033189
 51
297.8674974388279
  0
LINE
  5
243
330
1E
100
AcDbEntity
  8
IMAGE
100
AcDbLine
 10
3.240724122271348
 20
7.438911161726874
 30
0.0
 11
3.249087042758004
 21
7.416247647208276
 31
0.0
  0
LINE
  5
244
330
1E
100
AcDbEntity
  8
IMAGE
100
AcDbLine
 10
3.462509167603782
 20
7.428465348267913
 30
0.0
 11
3.512665738381791
 21
7.333605985525583
 31
0.0
  0
LINE
  5
245
330
1E
100
AcDbEntity
  8
IMAGE
100
AcDbLine
 10
3.538357073735813
 20
7.457507742408232
 30
0.0
 11
3.54680436242026
 21
7.441531681663295
 31
0.0
  0
LINE
  5
246
330
1E
100
AcDbEntity
  8
IMAGE
100
AcDbLine
 10
3.466530663422249
 20
7.420859634306744
 30
0.0
 11
3.438019910826906
 21
7.405784669230634
 31
0.0
  0
LINE
  5
247
330
1E
100
AcDbEntity
  8
IMAGE
100
AcDbLine
 10
3.508644242563326
 20
7.341211699486752
 30
0.0
 11
3.480133489967981
 21
7.326136734410642
 31
0.0
  0
LINE
  5
248
330
1E
100
AcDbEntity
  8
IMAGE
100
AcDbLine
 10
3.513850005250899
 20
7.45561164445635
 30
0.0
 11
3.462509167603782
 21
7.428465348267913
 31
0.0
  0
LINE
  5
249
330
1E
100
AcDbEntity
  8
IMAGE
100
AcDbLine
 10
3.564006576028907
 20
7.360752281714017
 30
0.0
 11
3.512665738381791
 21
7.333605985525583
 31
0.0
  0
LINE
  5
24A
330
1E
100
AcDbEntity
  8
IMAGE
100
AcDbLine
 10
3.513850005250899
 20
7.45561164445635
 30
0.0
 11
3.538357073735813
 21
7.457507742408232
 31
0.0
  0
LINE
  5
24B
330
1E
100
AcDbEntity
  8
IMAGE
100
AcDbLine
 10
3.564006576028907
 20
7.360752281714017
 30
0.0
 11
3.579371595226483
 21
7.37993841676581
 31
0.0
  0
LINE
  5
24C
330
1E
100
AcDbEntity
  8
IMAGE
100
AcDbLine
 10
3.809103286297428
 20
7.580221360363506
 30
0.0
 11
3.4755274809319
 21
7.403844268973021
 31
0.0
  0
LINE
  5
24D
330
1E
100
AcDbEntity
  8
IMAGE
100
AcDbLine
 10
3.833223230419205
 20
7.534604156210956
 30
0.0
 11
3.499647425053675
 21
7.358227064820471
 31
0.0
  0
LINE
  5
24E
330
1E
100
AcDbEntity
  8
IMAGE
100
AcDbLine
 10
3.809103286297428
 20
7.580221360363506
 30
0.0
 11
3.833223230419205
 21
7.534604156210956
 31
0.0
  0
LINE
  5
24F
330
1E
100
AcDbEntity
  8
IMAGE
100
AcDbLine
 10
3.570924306542035
 20
7.395914477510746
 30
0.0
 11
3.579371595226483
 21
7.37993841676581
 31
0.0
  0
CIRCLE
  5
250
330
1E
100
AcDbEntity
  8
IMAGE
100
AcDbCircle
 10
3.797119504537048
 20
7.544823238353377
 30
0.0
 40
0.0161254270144923
  0
LINE
  5
251
330
1E
100
AcDbEntity
  8
IMAGE
100
AcDbLine
 10
3.565565741511326
 20
7.495744200202448
 30
0.0
 11
3.583868340794207
 21
7.46112913626224
 31
0.0
  0
LINE
  5
252
330
1E
100
AcDbEntity
  8
IMAGE
100
AcDbLine
 10
3.607988284915983
 20
7.415511932109687
 30
0.0
 11
3.626290884198864
 21
7.380896868169479
 31
0.0
  0
ARC
  5
253
330
1E
100
AcDbEntity
  8
IMAGE
100
AcDbCircle
 10
3.537054988915981
 20
7.480669235126338
 30
0.0
 40
0.0322508540289845
100
AcDbArc
 50
27.86749743882799
 51
117.8674974388278
  0
LINE
  5
254
330
1E
100
AcDbEntity
  8
IMAGE
100
AcDbLine
 10
3.475420251100549
 20
7.510098776583348
 30
0.0
 11
3.511427548286595
 21
7.529137514538422
 31
0.0
  0
ARC
  5
255
330
1E
100
AcDbEntity
  8
IMAGE
100
AcDbCircle
 10
3.537054988915981
 20
7.480669235126338
 30
0.0
 40
0.0548264518492739
100
AcDbArc
 50
48.90272163680367
 51
117.8674974388278
  0
LINE
  5
256
330
1E
100
AcDbEntity
  8
IMAGE
100
AcDbLine
 10
3.764803229386524
 20
7.601090355535465
 30
0.0
 11
3.565565741511326
 21
7.495744200202448
 31
0.0
  0
LINE
  5
257
330
1E
100
AcDbEntity
  8
IMAGE
100
AcDbLine
 10
3.636842622999688
 20
7.533431612892723
 30
0.0
 11
3.655145222282568
 21
7.498816548952515
 31
0.0
  0
LINE
  5
258
330
1E
100
AcDbEntity
  8
IMAGE
100
AcDbLine
 10
3.679265166404345
 20
7.453199344799962
 30
0.0
 11
3.697567765687225
 21
7.418584280859754
 31
0.0
  0
LINE
  5
259
330
1E
100
AcDbEntity
  8
IMAGE
100
AcDbLine
 10
3.832651874605035
 20
7.509351677885614
 30
0.0
 11
3.822341851248225
 21
7.528850663368775
 31
0.0
  0
LINE
  5
25A
330
1E
100
AcDbEntity
  8
IMAGE
100
AcDbLine
 10
3.79822190712645
 20
7.574467867521327
 30
0.0
 11
3.787911883769638
 21
7.593966853004491
 31
0.0
  0
LINE
  5
25B
330
1E
100
AcDbEntity
  8
IMAGE
100
AcDbLine
 10
3.82552837207406
 20
7.486243023502499
 30
0.0
 11
3.626290884198864
 21
7.380896868169479
 31
0.0
  0
LINE
  5
25C
330
1E
100
AcDbEntity
  8
IMAGE
100
AcDbLine
 10
3.978954213940124
 20
7.577636952305443
 30
0.0
 11
3.926717070387995
 21
7.676431229345759
 31
0.0
  0
LINE
  5
25D
330
1E
100
AcDbEntity
  8
IMAGE
100
AcDbLine
 10
3.926717070387995
 20
7.676431229345759
 30
0.0
 11
3.782397663220384
 21
7.600122825504751
 31
0.0
  0
LINE
  5
25E
330
1E
100
AcDbEntity
  8
IMAGE
100
AcDbLine
 10
3.978954213940124
 20
7.577636952305443
 30
0.0
 11
3.834634806772516
 21
7.501328548464439
 31
0.0
  0
ARC
  5
25F
330
1E
100
AcDbEntity
  8
IMAGE
100
AcDbCircle
 10
3.772795805312595
 20
7.585974277078424
 30
0.0
 40
0.0170990379218686
100
AcDbArc
 50
27.86749743882784
 51
117.8674974388279
  0
ARC
  5
260
330
1E
100
AcDbEntity
  8
IMAGE
100
AcDbCircle
 10
3.817535796147991
 20
7.501359101959543
 30
0.0
 40
0.0170990379218686
100
AcDbArc
 50
297.8674974388279
 51
27.86749743882784
  0
LINE
  5
261
330
1E
100
AcDbEntity
  8
IMAGE
100
AcDbLine
 10
3.769523219461278
 20
7.559293532405625
 30
0.0
 11
3.757712552468113
 21
7.581630632553324
 31
0.0
  0
LINE
  5
262
330
1E
100
AcDbEntity
  8
IMAGE
100
AcDbLine
 10
3.805554599461309
 20
7.491148647448131
 30
0.0
 11
3.793643163583054
 21
7.513676328253072
 31
0.0
  0
LINE
  5
263
330
1E
100
AcDbEntity
  8
IMAGE
100
AcDbLine
 10
3.912898163490131
 20
7.555936092803072
 30
0.0
 11
3.871591592652171
 21
7.634057761130485
 31
0.0
  0
LINE
  5
264
330
1E
100
AcDbEntity
  8
IMAGE
100
AcDbLine
 10
3.923320605622809
 20
7.561446924221232
 30
0.0
 11
3.882014034784846
 21
7.639568592548648
 31
0.0
  0
LINE
  5
265
330
1E
100
AcDbEntity
  8
IMAGE
100
AcDbLine
 10
3.795650002891958
 20
7.485911625139564
 30
0.0
 11
3.783738567013704
 21
7.508439305944506
 31
0.0
  0
LINE
  5
266
330
1E
100
AcDbEntity
  8
IMAGE
100
AcDbLine
 10
3.759618622891927
 20
7.554056510097058
 30
0.0
 11
3.747807955898764
 21
7.576393610244753
 31
0.0
  0
LINE
  5
267
330
1E
100
AcDbEntity
  8
IMAGE
100
AcDbLine
 10
3.526567549996132
 20
7.587184803113334
 30
0.0
 11
3.604600675809297
 21
7.588079775273406
 31
0.0
  0
LINE
  5
268
330
1E
100
AcDbEntity
  8
IMAGE
100
AcDbLine
 10
3.633796346854857
 20
7.578316740568446
 30
0.0
 11
3.650400843336212
 21
7.565512474526055
 31
0.0
  0
ARC
  5
269
330
1E
100
AcDbEntity
  8
IMAGE
100
AcDbCircle
 10
3.605138874827138
 20
7.54115390031869
 30
0.0
 40
0.0469289611908096
100
AcDbArc
 50
52.36301753420083
 51
90.65710400301869
  0
LINE
  5
26A
330
1E
100
AcDbEntity
  8
IMAGE
100
AcDbLine
 10
3.764803229386524
 20
7.601090355535465
 30
0.0
 11
3.667096592699262
 21
7.563107516712953
 31
0.0
  0
ARC
  5
26B
330
1E
100
AcDbEntity
  8
IMAGE
100
AcDbCircle
 10
3.660879283688577
 20
7.579100854007151
 30
0.0
 40
0.0171593056135813
100
AcDbArc
 50
232.363017534201
 51
291.2432789237415
  0
ARC
  5
26C
330
1E
100
AcDbEntity
  8
IMAGE
100
AcDbCircle
 10
3.528405780585714
 20
7.426908444507422
 30
0.0
 40
0.1602868997132066
100
AcDbArc
 50
90.65710400301847
 51
117.8674974388278
  0
LINE
  5
26D
330
1E
100
AcDbEntity
  8
IMAGE
100
AcDbLine
 10
2.894905128633581
 20
7.259310288520779
 30
0.0
 11
2.894905128633581
 21
7.359833151687368
 31
0.0
  0
LINE
  5
26E
330
1E
100
AcDbEntity
  8
IMAGE
100
AcDbLine
 10
2.73365085848866
 20
7.259310288520779
 30
0.0
 11
2.73365085848866
 21
7.359833151687368
 31
0.0
  0
LINE
  5
26F
330
1E
100
AcDbEntity
  8
IMAGE
100
AcDbLine
 10
2.826043025214888
 20
7.259310288520779
 30
0.0
 11
2.826043025214888
 21
7.359833151687368
 31
0.0
  0
LINE
  5
270
330
1E
100
AcDbEntity
  8
IMAGE
100
AcDbLine
 10
2.73365085848866
 20
7.259310288520779
 30
0.0
 11
2.826043025214888
 21
7.259310288520779
 31
0.0
  0
LINE
  5
271
330
1E
100
AcDbEntity
  8
IMAGE
100
AcDbLine
 10
2.826043025214888
 20
7.259310288520779
 30
0.0
 11
2.855394877174187
 21
7.247403995510342
 31
0.0
  0
LINE
  5
272
330
1E
100
AcDbEntity
  8
IMAGE
100
AcDbLine
 10
2.894905128633581
 20
7.259310288520779
 30
0.0
 11
2.924256980592883
 21
7.247403995510342
 31
0.0
  0
LINE
  5
273
330
1E
100
AcDbEntity
  8
IMAGE
100
AcDbLine
 10
2.870187496926149
 20
7.256444493519143
 30
0.0
 11
2.892474480705237
 21
7.247403995510342
 31
0.0
  0
ARC
  5
274
330
1E
100
AcDbEntity
  8
IMAGE
100
AcDbCircle
 10
2.877318041781048
 20
7.274022987243986
 30
0.0
 40
0.0189696629269504
100
AcDbArc
 50
180.0
 51
247.9205443515147
  0
LINE
  5
275
330
1E
100
AcDbEntity
  8
IMAGE
100
AcDbLine
 10
2.73365085848866
 20
7.010040923481838
 30
0.0
 11
2.73365085848866
 21
7.110961223499515
 31
0.0
  0
LINE
  5
276
330
1E
100
AcDbEntity
  8
IMAGE
100
AcDbLine
 10
2.73365085848866
 20
7.010040923481838
 30
0.0
 11
2.822874216102722
 21
7.010040923481838
 31
0.0
  0
LINE
  5
277
330
1E
100
AcDbEntity
  8
IMAGE
100
AcDbLine
 10
2.73365085848866
 20
7.119048019615993
 30
0.0
 11
2.73365085848866
 21
7.248368722858609
 31
0.0
  0
ARC
  5
278
330
1E
100
AcDbEntity
  8
IMAGE
100
AcDbCircle
 10
2.830679003643364
 20
7.149924422590753
 30
0.0
 40
0.0282170522417757
100
AcDbArc
 50
94.945966547101
 51
180.0
  0
ARC
  5
279
330
1E
100
AcDbEntity
  8
IMAGE
100
AcDbCircle
 10
2.847777440908318
 20
7.150218025309012
 30
0.0
 40
0.0294503492164566
100
AcDbArc
 50
98.33959480848749
 51
213.1691018207758
  0
LINE
  5
27A
330
1E
100
AcDbEntity
  8
IMAGE
100
AcDbLine
 10
2.830870182174967
 20
7.130334838770902
 30
0.0
 11
2.870811638980775
 21
7.130334838770902
 31
0.0
  0
LWPOLYLINE
  5
27B
330
1E
100
AcDbEntity
  8
IMAGE
100
AcDbPolyline
 90
        2
 70
     0
 43
0.0
 10
2.802461951401587
 20
7.149924422590753
 42
0.0961545096696088
 10
2.805683186675429
 20
7.119048019615992
 42
0.7407627344832087
  0
LWPOLYLINE
  5
27F
330
1E
100
AcDbEntity
  8
IMAGE
100
AcDbPolyline
 90
        2
 70
     0
 43
0.0
 10
2.823125746939549
 20
7.134105388856791
 42
0.2163396384576929
 10
2.830870182174967
 20
7.130334838770902
  0
LINE
  5
283
330
1E
100
AcDbEntity
  8
IMAGE
100
AcDbLine
 10
3.019637265253448
 20
7.25488413362809
 30
0.0
 11
3.019637265253448
 21
7.305657749047906
 31
0.0
  0
LINE
  5
284
330
1E
100
AcDbEntity
  8
IMAGE
100
AcDbLine
 10
2.822874216102722
 20
7.010040923481838
 30
0.0
 11
2.822874216102722
 21
7.035162814675155
 31
0.0
  0
LINE
  5
285
330
1E
100
AcDbEntity
  8
IMAGE
100
AcDbLine
 10
2.928870238276315
 20
7.023152023028197
 30
0.0
 11
2.928870238276315
 21
6.953068007362171
 31
0.0
  0
LINE
  5
286
330
1E
100
AcDbEntity
  8
IMAGE
100
AcDbLine
 10
2.896619384247332
 20
7.128276396882773
 30
0.0
 11
2.896619384247332
 21
7.110961223499515
 31
0.0
  0
LINE
  5
287
330
1E
100
AcDbEntity
  8
IMAGE
100
AcDbLine
 10
2.928870238276315
 20
6.810778565221259
 30
0.0
 11
2.896619384247333
 21
6.810778565221259
 31
0.0
  0
LINE
  5
288
330
1E
100
AcDbEntity
  8
IMAGE
100
AcDbLine
 10
2.878165414067291
 20
7.110961223499515
 30
0.0
 11
2.878165414067291
 21
7.182356336073658
 31
0.0
  0
LINE
  5
289
330
1E
100
AcDbEntity
  8
IMAGE
100
AcDbLine
 10
2.870811638980775
 20
7.130334838770902
 30
0.0
 11
2.870811638980775
 21
7.119048019615993
 31
0.0
  0
ARC
  5
28A
330
1E
100
AcDbEntity
  8
IMAGE
100
AcDbCircle
 10
2.865240354915114
 20
7.15240792883797
 30
0.0
 40
0.0020525760349704
100
AcDbArc
 50
180.0
 51
0.0
  0
LINE
  5
28B
330
1E
100
AcDbEntity
  8
IMAGE
100
AcDbLine
 10
2.8601828639377
 20
7.180800153850906
 30
0.0
 11
2.863187778880144
 21
7.15240792883797
 31
0.0
  0
LINE
  5
28C
330
1E
100
AcDbEntity
  8
IMAGE
100
AcDbLine
 10
2.867292930950084
 20
7.15240792883797
 30
0.0
 11
2.867292930950084
 21
7.181132977386241
 31
0.0
  0
LINE
  5
28D
330
1E
100
AcDbEntity
  8
IMAGE
100
AcDbLine
 10
2.874402997962468
 20
7.152740752373304
 30
0.0
 11
2.874402997962468
 21
7.181465800921577
 31
0.0
  0
LINE
  5
28E
330
1E
100
AcDbEntity
  8
IMAGE
100
AcDbLine
 10
2.867292930950084
 20
7.181132977386241
 30
0.0
 11
2.870297845892528
 21
7.152740752373304
 31
0.0
  0
ARC
  5
28F
330
1E
100
AcDbEntity
  8
IMAGE
100
AcDbCircle
 10
2.872350421927498
 20
7.152740752373304
 30
0.0
 40
0.0020525760349704
100
AcDbArc
 50
180.0
 51
0.0
  0
LINE
  5
290
330
1E
100
AcDbEntity
  8
IMAGE
100
AcDbLine
 10
2.8601828639377
 20
7.130582303768031
 30
0.0
 11
2.8601828639377
 21
7.180800153850906
 31
0.0
  0
LINE
  5
291
330
1E
100
AcDbEntity
  8
IMAGE
100
AcDbLine
 10
2.800547658626685
 20
7.259310288520779
 30
0.0
 11
2.800547658626685
 21
7.248368722858609
 31
0.0
  0
LINE
  5
292
330
1E
100
AcDbEntity
  8
IMAGE
100
AcDbLine
 10
2.755977415964697
 20
7.259310288520779
 30
0.0
 11
2.755977415964697
 21
7.248368722858609
 31
0.0
  0
LINE
  5
293
330
1E
100
AcDbEntity
  8
IMAGE
100
AcDbLine
 10
2.755977415964697
 20
6.99295457662917
 30
0.0
 11
2.800547658626685
 21
6.99295457662917
 31
0.0
  0
LINE
  5
294
330
1E
100
AcDbEntity
  8
IMAGE
100
AcDbLine
 10
2.970492229001029
 20
7.247403995510461
 30
0.0
 11
2.939410346946361
 21
7.247403995510342
 31
0.0
  0
LWPOLYLINE
  5
295
330
1E
100
AcDbEntity
  8
IMAGE
100
AcDbPolyline
 90
        2
 70
     0
 43
0.0
 10
2.955473437292997
 20
7.189046453468187
 42
0.412978806758373
 10
3.019637265253448
 20
7.254884133628089
  0
LINE
  5
299
330
1E
100
AcDbEntity
  8
IMAGE
100
AcDbLine
 10
2.755977415964697
 20
7.010040923481838
 30
0.0
 11
2.755977415964697
 21
6.99295457662917
 31
0.0
  0
LINE
  5
29A
330
1E
100
AcDbEntity
  8
IMAGE
100
AcDbLine
 10
2.800547658626685
 20
7.010040923481838
 30
0.0
 11
2.800547658626685
 21
6.99295457662917
 31
0.0
  0
LINE
  5
29B
330
1E
100
AcDbEntity
  8
IMAGE
100
AcDbLine
 10
2.928870238276315
 20
7.128276396882773
 30
0.0
 11
2.928870238276315
 21
7.110961223499515
 31
0.0
  0
LINE
  5
29C
330
1E
100
AcDbEntity
  8
IMAGE
100
AcDbLine
 10
2.928870238276315
 20
7.128276396882773
 30
0.0
 11
2.896619384247332
 21
7.128276396882773
 31
0.0
  0
ARC
  5
29D
330
1E
100
AcDbEntity
  8
IMAGE
100
AcDbCircle
 10
3.04248205409965
 20
7.274205808323355
 30
0.0
 40
0.0113458036168084
100
AcDbArc
 50
86.11344901147001
 51
170.1796619216899
  0
LINE
  5
29E
330
1E
100
AcDbEntity
  8
IMAGE
100
AcDbLine
 10
3.019637265253448
 20
7.28552551904875
 30
0.0
 11
3.093577211290929
 21
7.28552551904875
 31
0.0
  0
LINE
  5
29F
330
1E
100
AcDbEntity
  8
IMAGE
100
AcDbLine
 10
3.019637265253448
 20
7.276140940364337
 30
0.0
 11
3.031302495803585
 21
7.276140940364337
 31
0.0
  0
LINE
  5
2A0
330
1E
100
AcDbEntity
  8
IMAGE
100
AcDbLine
 10
3.031302495803585
 20
7.276140940364337
 30
0.0
 11
3.031302495803585
 21
7.224549229787537
 31
0.0
  0
LINE
  5
2A1
330
1E
100
AcDbEntity
  8
IMAGE
100
AcDbLine
 10
3.031302495803585
 20
7.224549229787537
 30
0.0
 11
3.012510723011134
 21
7.224549229787537
 31
0.0
  0
ARC
  5
2A2
330
1E
100
AcDbEntity
  8
IMAGE
100
AcDbCircle
 10
3.108080651871398
 20
7.261867442853183
 30
0.0
 40
0.0145034405804688
100
AcDbArc
 50
180.0000000000001
 51
297.8674974388279
  0
LWPOLYLINE
  5
2A3
330
1E
100
AcDbEntity
  8
IMAGE
100
AcDbPolyline
 90
        2
 70
     0
 43
0.0
 10
3.093577211290929
 20
7.261867442853183
 42
-0.1196420991990933
 10
3.055199683312483
 20
7.173023775092786
 42
-2.988003538488942
  0
LWPOLYLINE
  5
2A7
330
1E
100
AcDbEntity
  8
IMAGE
100
AcDbPolyline
 90
        2
 70
     0
 43
0.0
 10
2.983237338992969
 20
7.195785097422191
 42
-0.545416091770051
 10
3.004431324293667
 20
7.153172234999714
 42
0.2751975965683782
  0
LWPOLYLINE
  5
2AB
330
1E
100
AcDbEntity
  8
IMAGE
100
AcDbPolyline
 90
        2
 70
     0
 43
0.0
 10
2.987688438050399
 20
7.110961223499514
 42
-0.0546604967962376
 10
3.005762169150401
 20
7.155686503508621
 42
-0.2600169401948678
  0
ARC
  5
2AF
330
1E
100
AcDbEntity
  8
IMAGE
100
AcDbCircle
 10
3.04248205409965
 20
7.22648436182852
 30
0.0
 40
0.0113458036168084
100
AcDbArc
 50
189.8203380783099
 51
273.88655098853
  0
LWPOLYLINE
  5
2B0
330
1E
100
AcDbEntity
  8
IMAGE
100
AcDbPolyline
 90
        2
 70
     0
 43
0.0
 10
2.979428539897689
 20
7.046459515441545
 42
-0.0320806544513951
 10
2.980677396767344
 20
7.074799293182029
 42
-0.2600169401948678
  0
ARC
  5
2B4
330
1E
100
AcDbEntity
  8
IMAGE
100
AcDbCircle
 10
3.049998279275158
 20
6.464868648859884
 30
0.0
 40
0.6138572925647217
100
AcDbArc
 50
90.09404226573918
 51
111.7153023109924
  0
ARC
  5
2B5
330
1E
100
AcDbEntity
  8
IMAGE
100
AcDbCircle
 10
3.048979520071428
 20
7.085552868213349
 30
0.0
 40
0.0068277628576998
100
AcDbArc
 50
270.0940422657395
 51
0.0
  0
LWPOLYLINE
  5
2B6
330
1E
100
AcDbEntity
  8
IMAGE
100
AcDbPolyline
 90
        2
 70
     0
 43
0.0
 10
3.114859971886847
 20
7.249045952737001
 42
-0.049719290068967
 10
3.076288898397878
 20
7.188088162981466
 42
2.19011173349176
  0
LWPOLYLINE
  5
2BA
330
1E
100
AcDbEntity
  8
IMAGE
100
AcDbPolyline
 90
        7
 70
     0
 43
0.0
 10
3.036910960897245
 20
6.959647914476385
 42
0.0129144870796964
 10
3.063988461705802
 20
6.954188160479653
 42
0.0181320226406586
 10
3.083481623871252
 20
6.951503167684756
 42
0.0421516201204322
 10
3.101885432570343
 20
6.951201953286887
 42
0.3308663119352264
 10
3.103860066248016
 20
6.952888745903091
 42
0.3308663119352181
 10
3.102814730573154
 20
6.955266080717108
 42
0.0231694392973368
 10
3.093788497147389
 20
6.959864113875798
 42
0.0181320226406562
  0
LWPOLYLINE
  5
2C3
330
1E
100
AcDbEntity
  8
IMAGE
100
AcDbPolyline
 90
        7
 70
     0
 43
0.0
 10
2.985653040268093
 20
6.965324097600491
 42
0.0242048703815046
 10
2.975276252571397
 20
6.963249815811962
 42
0.3308663119352122
 10
2.973631099369979
 20
6.961240358563116
 42
0.3308663119352428
 10
2.975080439974354
 20
6.959085397008103
 42
0.0421516201204366
 10
2.992889589867086
 20
6.954435119076141
 42
0.0181320226406599
 10
3.01238802481977
 20
6.951788689044357
 42
0.0129144870796952
 10
3.039937287058608
 20
6.949779183175269
 42
0.0129144870796964
  0
LWPOLYLINE
  5
2CC
330
1E
100
AcDbEntity
  8
IMAGE
100
AcDbPolyline
 90
        7
 70
     0
 43
0.0
 10
3.04025091530689
 20
6.981813062133826
 42
0.0129144870796964
 10
3.067867186624726
 20
6.981228663090443
 42
0.0181320226406586
 10
3.087527916256455
 20
6.982033813924242
 42
0.0421516201204322
 10
3.105694841794717
 20
6.984992482752198
 42
0.3308663119352264
 10
3.107339994996136
 20
6.987001940001044
 42
0.3308663119352181
 10
3.105890654391759
 20
6.989156901556056
 42
0.028022170055912
 10
3.094131545337264
 20
6.992584650626315
 42
0.0181320226406562
  0
LWPOLYLINE
  5
2D5
330
1E
100
AcDbEntity
  8
IMAGE
100
AcDbPolyline
 90
        5
 70
     0
 43
0.0
 10
2.974023046011145
 20
6.992584650626315
 42
0.2441778521320248
 10
2.975394068222636
 20
6.991119275966661
 42
0.0421516201204366
 10
2.993203218115366
 20
6.986468998034699
 42
0.0181320226406599
 10
3.012701653068052
 20
6.983822568002914
 42
0.0129144870796952
 10
3.04025091530689
 20
6.981813062133826
 42
0.0129144870796964
  0
LWPOLYLINE
  5
2DC
330
1E
100
AcDbEntity
  8
IMAGE
100
AcDbPolyline
 90
        2
 70
     0
 43
0.0
 10
3.036910960897245
 20
6.953612539129028
 42
0.0102445799720931
 10
3.058368427163655
 20
6.949166626273334
 42
0.0181320226406586
  0
LINE
  5
2E0
330
1E
100
AcDbEntity
  8
IMAGE
100
AcDbLine
 10
2.973631099369979
 20
6.961240358563117
 30
0.0
 11
2.973631099369979
 21
6.957570857212015
 31
0.0
  0
LWPOLYLINE
  5
2E1
330
1E
100
AcDbEntity
  8
IMAGE
100
AcDbPolyline
 90
        3
 70
     0
 43
0.0
 10
2.985653040268093
 20
6.961654596249391
 42
0.0242048703815046
 10
2.975276252571397
 20
6.95958031446086
 42
0.0808566685898066
 10
2.974633857054282
 20
6.95930335305085
 42
0.3308663119352428
  0
LINE
  5
2E6
330
1E
100
AcDbEntity
  8
IMAGE
100
AcDbLine
 10
2.974023046011145
 20
6.992584650626316
 30
0.0
 11
2.974409160730237
 21
6.986310343563195
 31
0.0
  0
LINE
  5
2E7
330
1E
100
AcDbEntity
  8
IMAGE
100
AcDbLine
 10
2.973677346702716
 20
6.982656154369266
 30
0.0
 11
2.973677346702716
 21
6.97662077902191
 31
0.0
  0
LWPOLYLINE
  5
2E8
330
1E
100
AcDbEntity
  8
IMAGE
100
AcDbPolyline
 90
        5
 70
     0
 43
0.0
 10
2.973677346702716
 20
6.976620779021909
 42
0.3308663119352428
 10
2.97472268237758
 20
6.974243444207893
 42
0.0421516201204366
 10
2.991428540087463
 20
6.96651652872218
 42
0.0181320226406599
 10
3.010151475396298
 20
6.960463079214799
 42
0.0129144870796952
 10
3.036910960897245
 20
6.953612539129028
 42
0.0129144870796964
  0
LWPOLYLINE
  5
2EF
330
1E
100
AcDbEntity
  8
IMAGE
100
AcDbPolyline
 90
        2
 70
     0
 43
0.0
 10
2.985653040268093
 20
6.978528988530452
 42
0.0173213934161079
 10
2.978078631997563
 20
6.978445493127726
 42
0.3308663119352122
  0
LWPOLYLINE
  5
2F3
330
1E
100
AcDbEntity
  8
IMAGE
100
AcDbPolyline
 90
        2
 70
     0
 43
0.0
 10
2.985653040268093
 20
6.990274504034197
 42
0.0114267346842675
 10
2.980734942837669
 20
6.989384913326897
 42
0.3308663119352122
  0
LWPOLYLINE
  5
2F7
330
1E
100
AcDbEntity
  8
IMAGE
100
AcDbPolyline
 90
        5
 70
     0
 43
0.0
 10
2.974409160730237
 20
6.986310343563194
 42
0.3308663119352428
 10
2.975858501334613
 20
6.984155382008185
 42
0.0421516201204366
 10
2.993667651227344
 20
6.97950510407622
 42
0.0181320226406599
 10
3.01316608618003
 20
6.976858674044435
 42
0.0129144870796952
 10
3.040715348418867
 20
6.974849168175347
 42
0.0129144870796964
  0
LWPOLYLINE
  5
2FE
330
1E
100
AcDbEntity
  8
IMAGE
100
AcDbPolyline
 90
        6
 70
     0
 43
0.0
 10
2.975489884764343
 20
6.984325809769205
 42
0.3102203890139923
 10
2.973677346702716
 20
6.982656154369265
 42
0.3308663119352428
 10
2.97472268237758
 20
6.980278819555247
 42
0.0421516201204366
 10
2.991428540087463
 20
6.972551904069537
 42
0.0181320226406599
 10
3.010151475396298
 20
6.966498454562155
 42
0.0129144870796952
 10
3.036910960897245
 20
6.959647914476385
 42
0.0129144870796964
  0
LINE
  5
306
330
1E
100
AcDbEntity
  8
IMAGE
100
AcDbLine
 10
3.107339994996136
 20
6.987001940001045
 30
0.0
 11
3.107804428108112
 21
6.980038046042569
 31
0.0
  0
LWPOLYLINE
  5
307
330
1E
100
AcDbEntity
  8
IMAGE
100
AcDbPolyline
 90
        2
 70
     0
 43
0.0
 10
3.101014212888703
 20
6.983927370237343
 42
0.0170713309551605
 10
3.093788497147389
 20
6.985804568571498
 42
0.0181320226406562
  0
LWPOLYLINE
  5
30B
330
1E
100
AcDbEntity
  8
IMAGE
100
AcDbPolyline
 90
        6
 70
     0
 43
0.0
 10
3.040715348418867
 20
6.974849168175347
 42
0.0129144870796964
 10
3.068331619736701
 20
6.974264769131965
 42
0.0181320226406586
 10
3.087992349368432
 20
6.975069919965764
 42
0.0421516201204322
 10
3.106159274906692
 20
6.978028588793722
 42
0.3308663119352264
 10
3.107804428108112
 20
6.980038046042568
 42
0.0568505046551125
 10
3.107771590048221
 20
6.980530432913742
 42
0.0299168931654418
  0
LWPOLYLINE
  5
313
330
1E
100
AcDbEntity
  8
IMAGE
100
AcDbPolyline
 90
        2
 70
     0
 43
0.0
 10
3.039937287058608
 20
6.949779183175269
 42
0.00844730529634
 10
3.057998548047487
 20
6.949235527289135
 42
0.0181320226406586
  0
LINE
  5
317
330
1E
100
AcDbEntity
  8
IMAGE
100
AcDbLine
 10
3.103860066248016
 20
6.952888745903091
 30
0.0
 11
3.103860066248016
 21
6.949166626273335
 31
0.0
  0
LINE
  5
318
330
1E
100
AcDbEntity
  8
IMAGE
100
AcDbLine
 10
2.985653040268093
 20
6.988050156571636
 30
0.0
 11
2.985653040268093
 21
6.992584650626316
 31
0.0
  0
LINE
  5
319
330
1E
100
AcDbEntity
  8
IMAGE
100
AcDbLine
 10
2.985653040268093
 20
6.974841167835915
 30
0.0
 11
2.985653040268093
 21
6.981201838995048
 31
0.0
  0
LINE
  5
31A
330
1E
100
AcDbEntity
  8
IMAGE
100
AcDbLine
 10
2.985653040268093
 20
6.955939449084016
 30
0.0
 11
2.985653040268093
 21
6.968805792488561
 31
0.0
  0
LINE
  5
31B
330
1E
100
AcDbEntity
  8
IMAGE
100
AcDbLine
 10
3.093788497147389
 20
6.982699795234506
 30
0.0
 11
3.093788497147389
 21
6.992584650626316
 31
0.0
  0
LWPOLYLINE
  5
31C
330
1E
100
AcDbEntity
  8
IMAGE
100
AcDbPolyline
 90
        4
 70
     0
 43
0.0
 10
2.973631099369979
 20
6.957570857212014
 42
0.3308663119352428
 10
2.975080439974354
 20
6.955415895657002
 42
0.0421516201204366
 10
2.992889589867086
 20
6.950765617725042
 42
0.0097503415782472
 10
3.00335182976482
 20
6.949166626273334
 42
0.0129144870796952
  0
LINE
  5
322
330
1E
100
AcDbEntity
  8
IMAGE
100
AcDbLine
 10
2.896619384247332
 20
7.023152023028197
 30
0.0
 11
2.896619384247332
 21
6.953068007362171
 31
0.0
  0
ARC
  5
323
330
1E
100
AcDbEntity
  8
IMAGE
100
AcDbCircle
 10
2.896619384247332
 20
6.943456241791476
 30
0.0
 40
0.0096117655706949
100
AcDbArc
 50
270.0
 51
90.0
  0
ARC
  5
324
330
1E
100
AcDbEntity
  8
IMAGE
100
AcDbCircle
 10
2.928870238276315
 20
6.943456241791476
 30
0.0
 40
0.0096117655706949
100
AcDbArc
 50
90.0
 51
270.0
  0
LINE
  5
325
330
1E
100
AcDbEntity
  8
IMAGE
100
AcDbLine
 10
2.928870238276315
 20
6.953068007362171
 30
0.0
 11
2.896619384247332
 21
6.953068007362171
 31
0.0
  0
LINE
  5
326
330
1E
100
AcDbEntity
  8
IMAGE
100
AcDbLine
 10
2.896619384247332
 20
6.93384447622078
 30
0.0
 11
2.928870238276315
 21
6.93384447622078
 31
0.0
  0
LINE
  5
327
330
1E
100
AcDbEntity
  8
IMAGE
100
AcDbLine
 10
2.928870238276315
 20
6.93384447622078
 30
0.0
 11
2.928870238276315
 21
6.810778565221259
 31
0.0
  0
LINE
  5
328
330
1E
100
AcDbEntity
  8
IMAGE
100
AcDbLine
 10
2.896619384247332
 20
6.93384447622078
 30
0.0
 11
2.896619384247333
 21
6.810778565221259
 31
0.0
  0
LINE
  5
329
330
1E
100
AcDbEntity
  8
IMAGE
100
AcDbLine
 10
3.168701546617086
 20
6.299191289003148
 30
0.0
 11
2.910694714385209
 21
6.299191289003148
 31
0.0
  0
LINE
  5
32A
330
1E
100
AcDbEntity
  8
IMAGE
100
AcDbLine
 10
3.168701546617086
 20
6.299191289003148
 30
0.0
 11
3.168701546617086
 21
6.33814007673653
 31
0.0
  0
LINE
  5
32B
330
1E
100
AcDbEntity
  8
IMAGE
100
AcDbLine
 10
2.910694714385209
 20
6.299191289003148
 30
0.0
 11
2.910694714385209
 21
6.33814007673653
 31
0.0
  0
LINE
  5
32C
330
1E
100
AcDbEntity
  8
IMAGE
100
AcDbLine
 10
3.168701546617086
 20
6.54107269422053
 30
0.0
 11
2.910694714385209
 21
6.54107269422053
 31
0.0
  0
LINE
  5
32D
330
1E
100
AcDbEntity
  8
IMAGE
100
AcDbLine
 10
3.136450692588102
 20
6.621699829292992
 30
0.0
 11
2.942945568414193
 21
6.621699829292992
 31
0.0
  0
LINE
  5
32E
330
1E
100
AcDbEntity
  8
IMAGE
100
AcDbLine
 10
2.942945568414193
 20
6.621699829292992
 30
0.0
 11
2.910694714385209
 21
6.54107269422053
 31
0.0
  0
LINE
  5
32F
330
1E
100
AcDbEntity
  8
IMAGE
100
AcDbLine
 10
3.136450692588102
 20
6.621699829292992
 30
0.0
 11
3.168701546617086
 21
6.54107269422053
 31
0.0
  0
LINE
  5
330
330
1E
100
AcDbEntity
  8
IMAGE
100
AcDbLine
 10
2.942945568414193
 20
6.621699829292992
 30
0.0
 11
2.942945568414193
 21
6.815886475968023
 31
0.0
  0
LINE
  5
331
330
1E
100
AcDbEntity
  8
IMAGE
100
AcDbLine
 10
3.136450692588102
 20
6.621699829292992
 30
0.0
 11
3.136450692588102
 21
6.815886475968021
 31
0.0
  0
LINE
  5
332
330
1E
100
AcDbEntity
  8
IMAGE
100
AcDbLine
 10
2.959059825541819
 20
6.323379429524886
 30
0.0
 11
2.959059825541819
 21
6.33814007673653
 31
0.0
  0
LINE
  5
333
330
1E
100
AcDbEntity
  8
IMAGE
100
AcDbLine
 10
3.120336435460476
 20
6.323379429524888
 30
0.0
 11
3.120336435460476
 21
6.338140076736531
 31
0.0
  0
LINE
  5
334
330
1E
100
AcDbEntity
  8
IMAGE
100
AcDbLine
 10
3.149879932645005
 20
6.452382845640824
 30
0.0
 11
3.090792938275948
 21
6.452382845640824
 31
0.0
  0
ARC
  5
335
330
1E
100
AcDbEntity
  8
IMAGE
100
AcDbCircle
 10
2.921038690372519
 20
6.411891876235789
 30
0.0
 40
0.0413689370078605
100
AcDbArc
 50
23.20884674426058
 51
78.17473771644102
  0
ARC
  5
336
330
1E
100
AcDbEntity
  8
IMAGE
100
AcDbCircle
 10
2.997080960711121
 20
6.411891876235789
 30
0.0
 40
0.0413689370078605
100
AcDbArc
 50
101.8252622835589
 51
156.79115325574
  0
ARC
  5
337
330
1E
100
AcDbEntity
  8
IMAGE
100
AcDbCircle
 10
3.158357570629778
 20
6.411891876235789
 30
0.0
 40
0.0413689370078605
100
AcDbArc
 50
101.8252622835589
 51
156.79115325574
  0
ARC
  5
338
330
1E
100
AcDbEntity
  8
IMAGE
100
AcDbCircle
 10
3.082315300291174
 20
6.411891876235789
 30
0.0
 40
0.0413689370078605
100
AcDbArc
 50
23.20884674426058
 51
78.17473771644102
  0
ARC
  5
339
330
1E
100
AcDbEntity
  8
IMAGE
100
AcDbCircle
 10
3.158357570629778
 20
6.339682258408182
 30
0.0
 40
0.0413689370078605
100
AcDbArc
 50
203.2088467442593
 51
258.174737716441
  0
ARC
  5
33A
330
1E
100
AcDbEntity
  8
IMAGE
100
AcDbCircle
 10
3.082315300291174
 20
6.339682258408182
 30
0.0
 40
0.0413689370078605
100
AcDbArc
 50
281.8252622835589
 51
336.79115325574
  0
ARC
  5
33B
330
1E
100
AcDbEntity
  8
IMAGE
100
AcDbCircle
 10
2.997080960711121
 20
6.339682258408182
 30
0.0
 40
0.0413689370078605
100
AcDbArc
 50
203.2088467442593
 51
258.174737716441
  0
ARC
  5
33C
330
1E
100
AcDbEntity
  8
IMAGE
100
AcDbCircle
 10
2.921038690372519
 20
6.339682258408182
 30
0.0
 40
0.0413689370078605
100
AcDbArc
 50
281.8252622835589
 51
336.79115325574
  0
LINE
  5
33D
330
1E
100
AcDbEntity
  8
IMAGE
100
AcDbLine
 10
2.988603322726348
 20
6.452382845640824
 30
0.0
 11
2.929516328357292
 21
6.452382845640824
 31
0.0
  0
LINE
  5
33E
330
1E
100
AcDbEntity
  8
IMAGE
100
AcDbLine
 10
3.125674462172353
 20
6.826662706383771
 30
0.0
 11
2.953721798829944
 21
6.826662706383771
 31
0.0
  0
ARC
  5
33F
330
1E
100
AcDbEntity
  8
IMAGE
100
AcDbCircle
 10
2.953721798829944
 20
6.815886475968023
 30
0.0
 40
0.0107762304157491
100
AcDbArc
 50
90.0
 51
180.0
  0
ARC
  5
340
330
1E
100
AcDbEntity
  8
IMAGE
100
AcDbCircle
 10
3.125674462172353
 20
6.815886475968021
 30
0.0
 40
0.0107762304157491
100
AcDbArc
 50
0.0
 51
90.0
  0
LINE
  5
341
330
1E
100
AcDbEntity
  8
IMAGE
100
AcDbLine
 10
2.58944614124833
 20
7.440460286759829
 30
0.0
 11
2.58944614124833
 21
7.38015795729715
 31
0.0
  0
LINE
  5
342
330
1E
100
AcDbEntity
  8
IMAGE
100
AcDbLine
 10
2.883321362998353
 20
7.055664367543887
 30
0.0
 11
2.883321362998353
 21
7.023152023028197
 31
0.0
  0
LINE
  5
343
330
1E
100
AcDbEntity
  8
IMAGE
100
AcDbLine
 10
2.883321362998353
 20
7.023152023028197
 30
0.0
 11
2.912744811261823
 21
7.023152023028197
 31
0.0
  0
LINE
  5
344
330
1E
100
AcDbEntity
  8
IMAGE
100
AcDbLine
 10
2.942168259525296
 20
7.023152023028197
 30
0.0
 11
2.912744811261823
 21
7.023152023028197
 31
0.0
  0
LINE
  5
345
330
1E
100
AcDbEntity
  8
IMAGE
100
AcDbLine
 10
2.942168259525296
 20
7.06918103701326
 30
0.0
 11
2.942168259525296
 21
7.023152023028197
 31
0.0
  0
LINE
  5
346
330
1E
100
AcDbEntity
  8
IMAGE
100
AcDbLine
 10
2.74329217815282
 20
7.110961223499515
 30
0.0
 11
2.74329217815282
 21
7.119048019615993
 31
0.0
  0
LINE
  5
347
330
1E
100
AcDbEntity
  8
IMAGE
100
AcDbLine
 10
2.813232896438561
 20
7.110961223499515
 30
0.0
 11
2.813232896438561
 21
7.119048019615993
 31
0.0
  0
LINE
  5
348
330
1E
100
AcDbEntity
  8
IMAGE
100
AcDbLine
 10
2.854039469711272
 20
7.119048019615993
 30
0.0
 11
2.854039469711272
 21
7.110961223499515
 31
0.0
  0
LINE
  5
349
330
1E
100
AcDbEntity
  8
IMAGE
100
AcDbLine
 10
2.867250723116661
 20
7.119048019615993
 30
0.0
 11
2.867250723116661
 21
7.110961223499515
 31
0.0
  0
TEXT
  5
34A
330
1E
100
AcDbEntity
  8
IMAGE
100
AcDbText
 10
2.378488826087194
 20
7.405945510330699
 30
0.0
 40
0.0246891840388007
  1
5
  7
SIMPLEX
100
AcDbText
  0
TEXT
  5
34B
330
1E
100
AcDbEntity
  8
IMAGE
100
AcDbText
 10
2.409641743933162
 20
7.405945510330699
 30
0.0
 40
0.0246891840388007
  1
P
 41
1.25
  7
SIMPLEX
100
AcDbText
  0
TEXT
  5
34C
330
1E
100
AcDbEntity
  8
IMAGE
100
AcDbText
 10
2.437098552513722
 20
7.405945510330699
 30
0.0
 40
0.0246891840388007
  1
J
 41
1.25
  7
SIMPLEX
100
AcDbText
  0
LINE
  5
34D
330
1E
100
AcDbEntity
  8
IMAGE
100
AcDbLine
 10
2.959059825541819
 20
6.423204428985704
 30
0.0
 11
2.959059825541819
 21
6.428194705119085
 31
0.0
  0
LINE
  5
34E
330
1E
100
AcDbEntity
  8
IMAGE
100
AcDbLine
 10
3.120336435460476
 20
6.423204428985706
 30
0.0
 11
3.120336435460476
 21
6.428194705119085
 31
0.0
  0
LINE
  5
34F
330
1E
100
AcDbEntity
  8
IMAGE
100
AcDbLine
 10
3.168701546617086
 20
6.423204428985704
 30
0.0
 11
3.168701546617086
 21
6.54107269422053
 31
0.0
  0
ARC
  5
350
330
1E
100
AcDbEntity
  8
IMAGE
100
AcDbCircle
 10
3.193043016657792
 20
6.384099156147445
 30
0.0
 40
0.0363347932812923
100
AcDbArc
 50
142.5532855597031
 51
232.8116314160015
  0
LINE
  5
351
330
1E
100
AcDbEntity
  8
IMAGE
100
AcDbLine
 10
3.164196128446199
 20
6.406191558535929
 30
0.0
 11
3.171080908617295
 21
6.355152947186357
 31
0.0
  0
LINE
  5
352
330
1E
100
AcDbEntity
  8
IMAGE
100
AcDbLine
 10
2.691300811219486
 20
6.33814007673653
 30
0.0
 11
2.691300811219486
 21
5.496950747671128
 31
0.0
  0
LINE
  5
353
330
1E
100
AcDbEntity
  8
IMAGE
100
AcDbLine
 10
2.691300811219486
 20
6.524221307950676
 30
0.0
 11
2.905296352859242
 21
6.524221307950676
 31
0.0
  0
LINE
  5
354
330
1E
100
AcDbEntity
  8
IMAGE
100
AcDbLine
 10
2.910694714385209
 20
6.423204428985704
 30
0.0
 11
2.910694714385209
 21
6.54107269422053
 31
0.0
  0
LINE
  5
355
330
1E
100
AcDbEntity
  8
IMAGE
100
AcDbLine
 10
2.905296352859243
 20
6.33814007673653
 30
0.0
 11
2.905296352859243
 21
5.496950747671128
 31
0.0
  0
LINE
  5
356
330
1E
100
AcDbEntity
  8
IMAGE
100
AcDbLine
 10
2.676781801967598
 20
5.495593143613357
 30
0.0
 11
2.668233126584828
 21
5.485754388308587
 31
0.0
  0
LINE
  5
357
330
1E
100
AcDbEntity
  8
IMAGE
100
AcDbLine
 10
2.675497564295659
 20
5.496708989127451
 30
0.0
 11
2.666563633961528
 21
5.486426840077395
 31
0.0
  0
ARC
  5
358
330
1E
100
AcDbEntity
  8
IMAGE
100
AcDbCircle
 10
2.733014523392711
 20
5.45784547483279
 30
0.0
 40
0.0363347932812923
100
AcDbArc
 50
142.5532855597031
 51
232.8116314160015
  0
LINE
  5
359
330
1E
100
AcDbEntity
  8
IMAGE
100
AcDbLine
 10
2.704167635180898
 20
5.479937877221274
 30
0.0
 11
2.711052415352321
 21
5.428899265871702
 31
0.0
  0
ARC
  5
35A
330
1E
100
AcDbEntity
  8
IMAGE
100
AcDbCircle
 10
2.751165307480647
 20
5.45784547483279
 30
0.0
 40
0.0363347932812923
100
AcDbArc
 50
142.5532855597031
 51
232.8116314160015
  0
LINE
  5
35B
330
1E
100
AcDbEntity
  8
IMAGE
100
AcDbLine
 10
2.722318419269056
 20
5.479937877221274
 30
0.0
 11
2.729203199440162
 21
5.428899265871702
 31
0.0
  0
ARC
  5
35C
330
1E
100
AcDbEntity
  8
IMAGE
100
AcDbCircle
 10
2.769316091568805
 20
5.45784547483279
 30
0.0
 40
0.0363347932812923
100
AcDbArc
 50
142.5532855597031
 51
232.8116314160015
  0
LINE
  5
35D
330
1E
100
AcDbEntity
  8
IMAGE
100
AcDbLine
 10
2.740469203356889
 20
5.479937877221274
 30
0.0
 11
2.747353983528308
 21
5.428899265871702
 31
0.0
  0
ARC
  5
35E
330
1E
100
AcDbEntity
  8
IMAGE
100
AcDbCircle
 10
2.788092764763144
 20
5.45784547483279
 30
0.0
 40
0.0363347932812923
100
AcDbArc
 50
142.5532855597031
 51
232.8116314160015
  0
LINE
  5
35F
330
1E
100
AcDbEntity
  8
IMAGE
100
AcDbLine
 10
2.759245876551432
 20
5.479937877221274
 30
0.0
 11
2.766130656722754
 21
5.428899265871702
 31
0.0
  0
ARC
  5
360
330
1E
100
AcDbEntity
  8
IMAGE
100
AcDbCircle
 10
2.683068125783973
 20
5.415359174213582
 30
0.0
 40
0.0101391053531439
100
AcDbArc
 50
221.6972960676141
 51
316.4458918268223
  0
LINE
  5
361
330
1E
100
AcDbEntity
  8
IMAGE
100
AcDbLine
 10
2.675497564295659
 20
5.408614690830031
 30
0.0
 11
2.666563633961528
 21
5.418896839880087
 31
0.0
  0
LINE
  5
362
330
1E
100
AcDbEntity
  8
IMAGE
100
AcDbLine
 10
2.676781801967598
 20
5.409730536344133
 30
0.0
 11
2.668233126584828
 21
5.419569291648903
 31
0.0
  0
ARC
  5
363
330
1E
100
AcDbEntity
  8
IMAGE
100
AcDbCircle
 10
2.683068125783973
 20
5.415359174213582
 30
0.0
 40
0.0084378183081614
100
AcDbArc
 50
221.6972960676141
 51
330.5572729070301
  0
CIRCLE
  5
364
330
1E
100
AcDbEntity
  8
IMAGE
100
AcDbCircle
 10
2.653933667678751
 20
5.452661839978722
 30
0.0
 40
0.0360498443820563
  0
LWPOLYLINE
  5
365
330
1E
100
AcDbEntity
  8
IMAGE
100
AcDbPolyline
 90
        2
 70
     0
 43
0.0
 10
2.662021130124145
 20
5.430147508894039
 10
2.653933667678751
 20
5.425478210274208
  0
LWPOLYLINE
  5
369
330
1E
100
AcDbEntity
  8
IMAGE
100
AcDbPolyline
 90
        5
 70
     0
 43
0.0
 10
2.645846205233466
 20
5.475176171063449
 10
2.653933667678751
 20
5.479845469683336
 10
2.677475381570133
 20
5.466253654830975
 10
2.677475381570133
 20
5.439070025126513
 10
2.669387919124625
 20
5.434400726506575
  0
ARC
  5
370
330
1E
100
AcDbEntity
  8
IMAGE
100
AcDbCircle
 10
2.653933667678751
 20
5.452661839978722
 30
0.0
 40
0.019416878360384
100
AcDbArc
 50
132.6530910809695
 51
287.3469089190293
  0
LWPOLYLINE
  5
371
330
1E
100
AcDbEntity
  8
IMAGE
100
AcDbPolyline
 90
        4
 70
     0
 43
0.0
 10
2.653933667678751
 20
5.425478210274208
 10
2.630391953787688
 20
5.439070025126513
 10
2.630391953787688
 20
5.466253654830975
 10
2.63847941623298
 20
5.470922953450914
  0
LINE
  5
377
330
1E
100
AcDbEntity
  8
IMAGE
100
AcDbLine
 10
2.645846205233466
 20
5.475176171063449
 30
0.0
 11
2.669387919124625
 21
5.434400726506575
 31
0.0
  0
LINE
  5
378
330
1E
100
AcDbEntity
  8
IMAGE
100
AcDbLine
 10
2.63847941623298
 20
5.470922953450914
 30
0.0
 11
2.662021130124145
 21
5.430147508894039
 31
0.0
  0
ARC
  5
379
330
1E
100
AcDbEntity
  8
IMAGE
100
AcDbCircle
 10
2.653933667678751
 20
5.452661839978722
 30
0.0
 40
0.019416878360384
100
AcDbArc
 50
312.6530910809717
 51
107.3469089190281
  0
CIRCLE
  5
37A
330
1E
100
AcDbEntity
  8
IMAGE
100
AcDbCircle
 10
2.653933667678751
 20
5.452661839978722
 30
0.0
 40
0.0322956548274434
  0
ARC
  5
37B
330
1E
100
AcDbEntity
  8
IMAGE
100
AcDbCircle
 10
2.683068125783973
 20
5.489964505743907
 30
0.0
 40
0.0084378183081614
100
AcDbArc
 50
29.4427270929698
 51
138.3027039323858
  0
ARC
  5
37C
330
1E
100
AcDbEntity
  8
IMAGE
100
AcDbCircle
 10
2.683068125783973
 20
5.489964505743907
 30
0.0
 40
0.0101391053531439
100
AcDbArc
 50
43.55410817317756
 51
138.3027039323858
  0
LINE
  5
37D
330
1E
100
AcDbEntity
  8
IMAGE
100
AcDbLine
 10
3.153925387188317
 20
5.411886395421955
 30
0.0
 11
2.690416178661934
 21
5.411886395421955
 31
0.0
  0
LINE
  5
37E
330
1E
100
AcDbEntity
  8
IMAGE
100
AcDbLine
 10
3.153925387188317
 20
5.49695074767113
 30
0.0
 11
2.690416178661934
 21
5.49695074767113
 31
0.0
  0
ARC
  5
37F
330
1E
100
AcDbEntity
  8
IMAGE
100
AcDbCircle
 10
2.825646111152241
 20
5.45784547483279
 30
0.0
 40
0.0363347932812923
100
AcDbArc
 50
142.5532855597031
 51
232.8116314160015
  0
ARC
  5
380
330
1E
100
AcDbEntity
  8
IMAGE
100
AcDbCircle
 10
2.806869437957795
 20
5.45784547483279
 30
0.0
 40
0.0363347932812923
100
AcDbArc
 50
142.5532855597031
 51
232.8116314160015
  0
LINE
  5
381
330
1E
100
AcDbEntity
  8
IMAGE
100
AcDbLine
 10
2.778022549745987
 20
5.479937877221274
 30
0.0
 11
2.784907329917308
 21
5.428899265871702
 31
0.0
  0
LINE
  5
382
330
1E
100
AcDbEntity
  8
IMAGE
100
AcDbLine
 10
2.816827674347985
 20
5.479937877221274
 30
0.0
 11
2.823712454519307
 21
5.428899265871702
 31
0.0
  0
ARC
  5
383
330
1E
100
AcDbEntity
  8
IMAGE
100
AcDbCircle
 10
2.865077124860745
 20
5.45784547483279
 30
0.0
 40
0.0363347932812923
100
AcDbArc
 50
142.5532855597031
 51
232.8116314160015
  0
LINE
  5
384
330
1E
100
AcDbEntity
  8
IMAGE
100
AcDbLine
 10
2.836230236648935
 20
5.479937877221274
 30
0.0
 11
2.843115016820247
 21
5.428899265871702
 31
0.0
  0
ARC
  5
385
330
1E
100
AcDbEntity
  8
IMAGE
100
AcDbCircle
 10
2.883853798055293
 20
5.45784547483279
 30
0.0
 40
0.0363347932812923
100
AcDbArc
 50
142.5532855597031
 51
232.8116314160015
  0
LINE
  5
386
330
1E
100
AcDbEntity
  8
IMAGE
100
AcDbLine
 10
2.855006909843371
 20
5.479937877221274
 30
0.0
 11
2.861891690014795
 21
5.428899265871702
 31
0.0
  0
LINE
  5
387
330
1E
100
AcDbEntity
  8
IMAGE
100
AcDbLine
 10
2.796799222940434
 20
5.479937877221274
 30
0.0
 11
2.803684003111857
 21
5.428899265871702
 31
0.0
  0
ARC
  5
388
330
1E
100
AcDbEntity
  8
IMAGE
100
AcDbCircle
 10
2.845674562559691
 20
5.45784547483279
 30
0.0
 40
0.0363347932812923
100
AcDbArc
 50
142.5532855597031
 51
232.8116314160015
  0
ARC
  5
389
330
1E
100
AcDbEntity
  8
IMAGE
100
AcDbCircle
 10
3.039074296462969
 20
5.45784547483279
 30
0.0
 40
0.0363347932812923
100
AcDbArc
 50
142.5532855597031
 51
232.8116314160015
  0
ARC
  5
38A
330
1E
100
AcDbEntity
  8
IMAGE
100
AcDbCircle
 10
2.903882249462634
 20
5.45784547483279
 30
0.0
 40
0.0363347932812923
100
AcDbArc
 50
142.5532855597031
 51
232.8116314160015
  0
LINE
  5
38B
330
1E
100
AcDbEntity
  8
IMAGE
100
AcDbLine
 10
2.875035361251031
 20
5.479937877221274
 30
0.0
 11
2.881920141422137
 21
5.428899265871702
 31
0.0
  0
ARC
  5
38C
330
1E
100
AcDbEntity
  8
IMAGE
100
AcDbCircle
 10
2.923284811763579
 20
5.45784547483279
 30
0.0
 40
0.0363347932812923
100
AcDbArc
 50
142.5532855597031
 51
232.8116314160015
  0
LINE
  5
38D
330
1E
100
AcDbEntity
  8
IMAGE
100
AcDbLine
 10
2.894437923551976
 20
5.479937877221274
 30
0.0
 11
2.901322703723081
 21
5.428899265871702
 31
0.0
  0
ARC
  5
38E
330
1E
100
AcDbEntity
  8
IMAGE
100
AcDbCircle
 10
2.942687374064531
 20
5.45784547483279
 30
0.0
 40
0.0363347932812923
100
AcDbArc
 50
142.5532855597031
 51
232.8116314160015
  0
LINE
  5
38F
330
1E
100
AcDbEntity
  8
IMAGE
100
AcDbLine
 10
2.913840485852928
 20
5.479937877221274
 30
0.0
 11
2.920725266024243
 21
5.428899265871702
 31
0.0
  0
ARC
  5
390
330
1E
100
AcDbEntity
  8
IMAGE
100
AcDbCircle
 10
2.962089936365572
 20
5.45784547483279
 30
0.0
 40
0.0363347932812923
100
AcDbArc
 50
142.5532855597031
 51
232.8116314160015
  0
LINE
  5
391
330
1E
100
AcDbEntity
  8
IMAGE
100
AcDbLine
 10
2.933243048153872
 20
5.479937877221274
 30
0.0
 11
2.940127828325188
 21
5.428899265871702
 31
0.0
  0
ARC
  5
392
330
1E
100
AcDbEntity
  8
IMAGE
100
AcDbCircle
 10
2.980866609560127
 20
5.45784547483279
 30
0.0
 40
0.0363347932812923
100
AcDbArc
 50
142.5532855597031
 51
232.8116314160015
  0
LINE
  5
393
330
1E
100
AcDbEntity
  8
IMAGE
100
AcDbLine
 10
2.95201972134842
 20
5.479937877221274
 30
0.0
 11
2.958904501519635
 21
5.428899265871702
 31
0.0
  0
ARC
  5
394
330
1E
100
AcDbEntity
  8
IMAGE
100
AcDbCircle
 10
3.000269171861072
 20
5.45784547483279
 30
0.0
 40
0.0363347932812923
100
AcDbArc
 50
142.5532855597031
 51
232.8116314160015
  0
LINE
  5
395
330
1E
100
AcDbEntity
  8
IMAGE
100
AcDbLine
 10
2.971422283649479
 20
5.479937877221274
 30
0.0
 11
2.978307063820574
 21
5.428899265871702
 31
0.0
  0
LINE
  5
396
330
1E
100
AcDbEntity
  8
IMAGE
100
AcDbLine
 10
2.990824845950413
 20
5.479937877221274
 30
0.0
 11
2.997709626121519
 21
5.428899265871702
 31
0.0
  0
ARC
  5
397
330
1E
100
AcDbEntity
  8
IMAGE
100
AcDbCircle
 10
3.019671734162017
 20
5.45784547483279
 30
0.0
 40
0.0363347932812923
100
AcDbArc
 50
142.5532855597031
 51
232.8116314160015
  0
LINE
  5
398
330
1E
100
AcDbEntity
  8
IMAGE
100
AcDbLine
 10
3.153925387188317
 20
5.49695074767113
 30
0.0
 11
3.153925387188317
 21
5.411886395421955
 31
0.0
  0
LINE
  5
399
330
1E
100
AcDbEntity
  8
IMAGE
100
AcDbLine
 10
3.067809206047916
 20
5.479937877221274
 30
0.0
 11
3.074693986219012
 21
5.428899265871702
 31
0.0
  0
ARC
  5
39A
330
1E
100
AcDbEntity
  8
IMAGE
100
AcDbCircle
 10
3.096656094259509
 20
5.45784547483279
 30
0.0
 40
0.0363347932812923
100
AcDbArc
 50
142.5532855597031
 51
232.8116314160015
  0
LINE
  5
39B
330
1E
100
AcDbEntity
  8
IMAGE
100
AcDbLine
 10
3.048406643746858
 20
5.479937877221274
 30
0.0
 11
3.055291423918072
 21
5.428899265871702
 31
0.0
  0
ARC
  5
39C
330
1E
100
AcDbEntity
  8
IMAGE
100
AcDbCircle
 10
3.077253531958564
 20
5.45784547483279
 30
0.0
 40
0.0363347932812923
100
AcDbArc
 50
142.5532855597031
 51
232.8116314160015
  0
LINE
  5
39D
330
1E
100
AcDbEntity
  8
IMAGE
100
AcDbLine
 10
3.02962997055231
 20
5.479937877221274
 30
0.0
 11
3.036514750723625
 21
5.428899265871702
 31
0.0
  0
ARC
  5
39E
330
1E
100
AcDbEntity
  8
IMAGE
100
AcDbCircle
 10
3.116058656560415
 20
5.457845474832859
 30
0.0
 40
0.0363347932812923
100
AcDbArc
 50
142.5532855597031
 51
232.8116314160015
  0
LINE
  5
39F
330
1E
100
AcDbEntity
  8
IMAGE
100
AcDbLine
 10
3.087211768348714
 20
5.479937877221342
 30
0.0
 11
3.094096548520031
 21
5.428899265871772
 31
0.0
  0
ARC
  5
3A0
330
1E
100
AcDbEntity
  8
IMAGE
100
AcDbCircle
 10
3.134835329754968
 20
5.457845474832859
 30
0.0
 40
0.0363347932812923
100
AcDbArc
 50
142.5532855597031
 51
232.8116314160015
  0
LINE
  5
3A1
330
1E
100
AcDbEntity
  8
IMAGE
100
AcDbLine
 10
3.105988441543264
 20
5.479937877221342
 30
0.0
 11
3.112873221714478
 21
5.428899265871772
 31
0.0
  0
ARC
  5
3A2
330
1E
100
AcDbEntity
  8
IMAGE
100
AcDbCircle
 10
3.154237892055915
 20
5.457845474832859
 30
0.0
 40
0.0363347932812923
100
AcDbArc
 50
142.5532855597031
 51
232.8116314160015
  0
LINE
  5
3A3
330
1E
100
AcDbEntity
  8
IMAGE
100
AcDbLine
 10
3.125391003844322
 20
5.479937877221342
 30
0.0
 11
3.132275784015417
 21
5.428899265871772
 31
0.0
  0
ARC
  5
3A4
330
1E
100
AcDbEntity
  8
IMAGE
100
AcDbCircle
 10
3.173640454356855
 20
5.457845474832865
 30
0.0
 40
0.0363347932812923
100
AcDbArc
 50
142.5532855597031
 51
232.8116314160015
  0
LINE
  5
3A5
330
1E
100
AcDbEntity
  8
IMAGE
100
AcDbLine
 10
3.144793566145262
 20
5.479937877221347
 30
0.0
 11
3.151678346316357
 21
5.428899265871777
 31
0.0
  0
LINE
  5
3A6
330
1E
100
AcDbEntity
  8
IMAGE
100
AcDbLine
 10
3.010227408251365
 20
5.479937877221274
 30
0.0
 11
3.017112188422681
 21
5.428899265871702
 31
0.0
  0
ARC
  5
3A7
330
1E
100
AcDbEntity
  8
IMAGE
100
AcDbCircle
 10
3.058476858764009
 20
5.45784547483279
 30
0.0
 40
0.0363347932812923
100
AcDbArc
 50
142.5532855597031
 51
232.8116314160015
  0
LINE
  5
3A8
330
1E
100
AcDbEntity
  8
IMAGE
100
AcDbLine
 10
3.147358838073701
 20
5.411886395421955
 30
0.0
 11
3.147358838073702
 21
5.255986499967201
 31
0.0
  0
LINE
  5
3A9
330
1E
100
AcDbEntity
  8
IMAGE
100
AcDbLine
 10
2.905296352859243
 20
5.411886395421955
 30
0.0
 11
2.905296352859243
 21
4.963296574701527
 31
0.0
  0
LINE
  5
3AA
330
1E
100
AcDbEntity
  8
IMAGE
100
AcDbLine
 10
2.927964934907977
 20
5.411886395421955
 30
0.0
 11
2.927964934907979
 21
5.255986499967203
 31
0.0
  0
LINE
  5
3AB
330
1E
100
AcDbEntity
  8
IMAGE
100
AcDbLine
 10
2.691300811219486
 20
5.411886395421955
 30
0.0
 11
2.691300811219484
 21
4.936197816076573
 31
0.0
  0
TEXT
  5
3AC
330
1E
100
AcDbEntity
  8
TEXT_BUBBLES
100
AcDbText
 10
5.687367689906347
 20
5.313441177926368
 30
0.0
 40
0.125
  1
1-INCH GALVANIZED STEEL PIPE
  7
SIMPLEX
100
AcDbText
  0
TEXT
  5
3AD
330
1E
100
AcDbEntity
  8
TEXT_BUBBLES
100
AcDbText
 10
5.687367689906347
 20
4.963441177926369
 30
0.0
 40
0.125
  1
  CLAMPS OR EQUIVALENT
  7
SIMPLEX
100
AcDbText
  0
TEXT
  5
3AE
330
1E
100
AcDbEntity
  8
TEXT_BUBBLES
100
AcDbText
 10
5.687367689906347
 20
4.788441177926369
 30
0.0
 40
0.125
  1
  SUPPORT SYSTEM
  7
SIMPLEX
100
AcDbText
  0
TEXT
  5
3B0
330
1E
100
AcDbEntity
  8
TEXT_BUBBLES
100
AcDbText
 10
5.353049959522739
 20
5.845405413282028
 30
0.0
 40
0.1
  1
4
 41
1.25
  7
ROMANS
 72
     4
 11
5.415549959522739
 21
5.895405413282028
 31
0.0
100
AcDbText
  0
TEXT
  5
3B1
330
1E
100
AcDbEntity
  8
TEXT_BUBBLES
100
AcDbText
 10
5.687367689906347
 20
7.413441177926369
 30
0.0
 40
0.125
  1
IMPACT SPRINKLER:
  7
SIMPLEX
100
AcDbText
  0
TEXT
  5
3B2
330
1E
100
AcDbEntity
  8
TEXT_BUBBLES
100
AcDbText
 10
5.687367689906347
 20
7.238441177926368
 30
0.0
 40
0.125
  1
  RAIN BIRD 65PJADJ-TNT
  7
SIMPLEX
100
AcDbText
  0
TEXT
  5
3B4
330
1E
100
AcDbEntity
  8
TEXT_BUBBLES
100
AcDbText
 10
5.35602614999893
 20
6.195405413282028
 30
0.0
 40
0.1
  1
3
 41
1.25
  7
ROMANS
 72
     4
 11
5.415549959522739
 21
6.245405413282028
 31
0.0
100
AcDbText
  0
ARC
  5
3B5
330
1E
100
AcDbEntity
  8
IMAGE
100
AcDbCircle
 10
3.432572850627368
 20
5.391921366578006
 30
0.0
 40
0.1818260367492528
100
AcDbArc
 50
116.0563205359582
 51
205.2549940243739
  0
ARC
  5
3B6
330
1E
100
AcDbEntity
  8
IMAGE
100
AcDbCircle
 10
3.188258224954265
 20
5.477691459149365
 30
0.0
 40
0.1818260367492528
100
AcDbArc
 50
296.0563205359582
 51
25.2549940243739
  0
ARC
  5
3B7
330
1E
100
AcDbEntity
  8
IMAGE
100
AcDbCircle
 10
3.538673132583201
 20
5.901202303701691
 30
0.0
 40
0.1818260367492528
100
AcDbArc
 50
116.0563205359582
 51
205.2549940243739
  0
ARC
  5
3B8
330
1E
100
AcDbEntity
  8
IMAGE
100
AcDbCircle
 10
3.294358506910099
 20
5.986972396273052
 30
0.0
 40
0.1818260367492528
100
AcDbArc
 50
296.0563205359582
 51
25.2549940243739
  0
ARC
  5
3B9
330
1E
100
AcDbEntity
  8
IMAGE
100
AcDbCircle
 10
3.746629685216636
 20
5.86725024122678
 30
0.0
 40
0.1818260367492528
100
AcDbArc
 50
116.0563205359582
 51
205.2549940243739
  0
ARC
  5
3BA
330
1E
100
AcDbEntity
  8
IMAGE
100
AcDbCircle
 10
3.502315059543533
 20
5.953020333798139
 30
0.0
 40
0.1818260367492528
100
AcDbArc
 50
296.0563205359582
 51
25.2549940243739
  0
ARC
  5
3BB
330
1E
100
AcDbEntity
  8
IMAGE
100
AcDbCircle
 10
4.056442508527672
 20
5.850274209989323
 30
0.0
 40
0.1818260367492528
100
AcDbArc
 50
116.0563205359582
 51
205.2549940243739
  0
ARC
  5
3BC
330
1E
100
AcDbEntity
  8
IMAGE
100
AcDbCircle
 10
3.812127882854569
 20
5.936044302560683
 30
0.0
 40
0.1818260367492528
100
AcDbArc
 50
296.0563205359582
 51
25.2549940243739
  0
ARC
  5
3BD
330
1E
100
AcDbEntity
  8
IMAGE
100
AcDbCircle
 10
3.988538328075938
 20
5.625341796093028
 30
0.0
 40
0.1818260367492528
100
AcDbArc
 50
116.0563205359582
 51
205.2549940243739
  0
ARC
  5
3BE
330
1E
100
AcDbEntity
  8
IMAGE
100
AcDbCircle
 10
3.744223702402836
 20
5.711111888664389
 30
0.0
 40
0.1818260367492528
100
AcDbArc
 50
296.0563205359582
 51
25.2549940243739
  0
ARC
  5
3BF
330
1E
100
AcDbEntity
  8
IMAGE
100
AcDbCircle
 10
3.491989008522635
 20
5.646561835139848
 30
0.0
 40
0.1818260367492528
100
AcDbArc
 50
116.0563205359582
 51
205.2549940243739
  0
ARC
  5
3C0
330
1E
100
AcDbEntity
  8
IMAGE
100
AcDbCircle
 10
3.247674382849532
 20
5.732331927711208
 30
0.0
 40
0.1818260367492528
100
AcDbArc
 50
296.0563205359582
 51
25.2549940243739
  0
ARC
  5
3C1
330
1E
100
AcDbEntity
  8
IMAGE
100
AcDbCircle
 10
3.878194034841869
 20
5.268845140106447
 30
0.0
 40
0.1818260367492528
100
AcDbArc
 50
116.0563205359582
 51
205.2549940243739
  0
ARC
  5
3C2
330
1E
100
AcDbEntity
  8
IMAGE
100
AcDbCircle
 10
3.633879409168768
 20
5.354615232677808
 30
0.0
 40
0.1818260367492528
100
AcDbArc
 50
296.0563205359582
 51
25.2549940243739
  0
ARC
  5
3C3
330
1E
100
AcDbEntity
  8
IMAGE
100
AcDbCircle
 10
3.903658102511271
 20
5.090596812113157
 30
0.0
 40
0.1818260367492528
100
AcDbArc
 50
116.0563205359582
 51
205.2549940243739
  0
ARC
  5
3C4
330
1E
100
AcDbEntity
  8
IMAGE
100
AcDbCircle
 10
3.659343476838168
 20
5.176366904684517
 30
0.0
 40
0.1818260367492528
100
AcDbArc
 50
296.0563205359582
 51
25.2549940243739
  0
ARC
  5
3C5
330
1E
100
AcDbEntity
  8
IMAGE
100
AcDbCircle
 10
4.098882621310005
 20
5.277333155725176
 30
0.0
 40
0.1818260367492528
100
AcDbArc
 50
116.0563205359582
 51
205.2549940243739
  0
ARC
  5
3C6
330
1E
100
AcDbEntity
  8
IMAGE
100
AcDbCircle
 10
3.854567995636902
 20
5.363103248296535
 30
0.0
 40
0.1818260367492528
100
AcDbArc
 50
296.0563205359582
 51
25.2549940243739
  0
ARC
  5
3C7
330
1E
100
AcDbEntity
  8
IMAGE
100
AcDbCircle
 10
3.619700466876015
 20
5.73264774545679
 30
0.0
 40
0.1818260367492528
100
AcDbArc
 50
143.5307656099477
 51
232.7294390983634
  0
ARC
  5
3C8
330
1E
100
AcDbEntity
  8
IMAGE
100
AcDbCircle
 10
3.363370167856297
 20
5.696029131311117
 30
0.0
 40
0.1818260367492528
100
AcDbArc
 50
323.5307656099477
 51
52.72943909836341
  0
ARC
  5
3C9
330
1E
100
AcDbEntity
  8
IMAGE
100
AcDbCircle
 10
3.517565900376892
 20
5.27304219621073
 30
0.0
 40
0.1818260367492528
100
AcDbArc
 50
143.5307656099477
 51
232.7294390983634
  0
ARC
  5
3CA
330
1E
100
AcDbEntity
  8
IMAGE
100
AcDbCircle
 10
3.261235601357173
 20
5.236423582065058
 30
0.0
 40
0.1818260367492528
100
AcDbArc
 50
323.5307656099477
 51
52.72943909836341
  0
ARC
  5
3CB
330
1E
100
AcDbEntity
  8
IMAGE
100
AcDbCircle
 10
3.466498617127329
 20
5.130053803111957
 30
0.0
 40
0.1818260367492528
100
AcDbArc
 50
143.5307656099477
 51
232.7294390983634
  0
ARC
  5
3CC
330
1E
100
AcDbEntity
  8
IMAGE
100
AcDbCircle
 10
3.21016831810761
 20
5.093435188966283
 30
0.0
 40
0.1818260367492528
100
AcDbArc
 50
323.5307656099477
 51
52.72943909836341
  0
ARC
  5
3CD
330
1E
100
AcDbEntity
  8
IMAGE
100
AcDbCircle
 10
3.64012738017584
 20
5.109626889812131
 30
0.0
 40
0.1818260367492528
100
AcDbArc
 50
143.5307656099477
 51
232.7294390983634
  0
ARC
  5
3CE
330
1E
100
AcDbEntity
  8
IMAGE
100
AcDbCircle
 10
3.383797081156123
 20
5.07300827566646
 30
0.0
 40
0.1818260367492528
100
AcDbArc
 50
323.5307656099477
 51
52.72943909836341
  0
ARC
  5
3CF
330
1E
100
AcDbEntity
  8
IMAGE
100
AcDbCircle
 10
3.732048490025052
 20
5.518165155808628
 30
0.0
 40
0.1818260367492528
100
AcDbArc
 50
143.5307656099477
 51
232.7294390983634
  0
ARC
  5
3D0
330
1E
100
AcDbEntity
  8
IMAGE
100
AcDbCircle
 10
3.475718191005334
 20
5.481546541662956
 30
0.0
 40
0.1818260367492528
100
AcDbArc
 50
323.5307656099477
 51
52.72943909836341
  0
ARC
  5
3D1
330
1E
100
AcDbEntity
  8
IMAGE
100
AcDbCircle
 10
3.89546379642365
 20
5.661153548907403
 30
0.0
 40
0.1818260367492528
100
AcDbArc
 50
143.5307656099477
 51
232.7294390983634
  0
ARC
  5
3D2
330
1E
100
AcDbEntity
  8
IMAGE
100
AcDbCircle
 10
3.639133497403933
 20
5.624534934761729
 30
0.0
 40
0.1818260367492528
100
AcDbArc
 50
323.5307656099477
 51
52.72943909836341
  0
ARC
  5
3D3
330
1E
100
AcDbEntity
  8
IMAGE
100
AcDbCircle
 10
4.130373299371635
 20
5.528378612458541
 30
0.0
 40
0.1818260367492528
100
AcDbArc
 50
143.5307656099477
 51
232.7294390983634
  0
ARC
  5
3D4
330
1E
100
AcDbEntity
  8
IMAGE
100
AcDbCircle
 10
3.874043000351919
 20
5.491759998312868
 30
0.0
 40
0.1818260367492528
100
AcDbArc
 50
323.5307656099477
 51
52.72943909836341
  0
ARC
  5
3D5
330
1E
100
AcDbEntity
  8
IMAGE
100
AcDbCircle
 10
3.987384906272862
 20
5.27304219621073
 30
0.0
 40
0.1818260367492528
100
AcDbArc
 50
143.5307656099477
 51
232.7294390983634
  0
ARC
  5
3D6
330
1E
100
AcDbEntity
  8
IMAGE
100
AcDbCircle
 10
3.731054607253144
 20
5.236423582065058
 30
0.0
 40
0.1818260367492528
100
AcDbArc
 50
323.5307656099477
 51
52.72943909836341
  0
ARC
  5
3D7
330
1E
100
AcDbEntity
  8
IMAGE
100
AcDbCircle
 10
3.772902316624701
 20
5.109626889812131
 30
0.0
 40
0.1818260367492528
100
AcDbArc
 50
143.5307656099477
 51
232.7294390983634
  0
ARC
  5
3D8
330
1E
100
AcDbEntity
  8
IMAGE
100
AcDbCircle
 10
3.516572017604984
 20
5.07300827566646
 30
0.0
 40
0.1818260367492528
100
AcDbArc
 50
323.5307656099477
 51
52.72943909836341
  0
ARC
  5
3D9
330
1E
100
AcDbEntity
  8
IMAGE
100
AcDbCircle
 10
4.068472868055938
 20
5.115302411250791
 30
0.0
 40
0.1818260367492528
100
AcDbArc
 50
143.5307656099477
 51
232.7294390983634
  0
ARC
  5
3DA
330
1E
100
AcDbEntity
  8
IMAGE
100
AcDbCircle
 10
3.812142569036221
 20
5.078683797105119
 30
0.0
 40
0.1818260367492528
100
AcDbArc
 50
323.5307656099477
 51
52.72943909836341
  0
ARC
  5
3DB
330
1E
100
AcDbEntity
  8
IMAGE
100
AcDbCircle
 10
3.619700466876015
 20
5.94713033510495
 30
0.0
 40
0.1818260367492528
100
AcDbArc
 50
143.5307656099477
 51
232.7294390983634
  0
ARC
  5
3DC
330
1E
100
AcDbEntity
  8
IMAGE
100
AcDbCircle
 10
3.363370167856297
 20
5.910511720959278
 30
0.0
 40
0.1818260367492528
100
AcDbArc
 50
323.5307656099477
 51
52.72943909836341
  0
ARC
  5
3DD
330
1E
100
AcDbEntity
  8
IMAGE
100
AcDbCircle
 10
3.857050610773505
 20
5.536804421595667
 30
0.0
 40
0.1818260367492528
100
AcDbArc
 50
159.7199718669747
 51
248.9186453553905
  0
ARC
  5
3DE
330
1E
100
AcDbEntity
  8
IMAGE
100
AcDbCircle
 10
3.621094418252893
 20
5.4301703730527
 30
0.0
 40
0.1818260367492528
100
AcDbArc
 50
339.7199718669747
 51
68.91864535539045
  0
ARC
  5
3DF
330
1E
100
AcDbEntity
  8
IMAGE
100
AcDbCircle
 10
3.785556414224117
 20
5.363175658547157
 30
0.0
 40
0.1818260367492528
100
AcDbArc
 50
159.7199718669747
 51
248.9186453553905
  0
ARC
  5
3E0
330
1E
100
AcDbEntity
  8
IMAGE
100
AcDbCircle
 10
3.549600221703507
 20
5.256541610004188
 30
0.0
 40
0.1818260367492528
100
AcDbArc
 50
339.7199718669747
 51
68.91864535539045
  0
ARC
  5
3E1
330
1E
100
AcDbEntity
  8
IMAGE
100
AcDbCircle
 10
3.578280421372408
 20
5.503755393679132
 30
0.0
 40
0.1818260367492528
100
AcDbArc
 50
159.7199718669747
 51
248.9186453553905
  0
ARC
  5
3E2
330
1E
100
AcDbEntity
  8
IMAGE
100
AcDbCircle
 10
3.342324228851798
 20
5.397121345136165
 30
0.0
 40
0.1818260367492528
100
AcDbArc
 50
339.7199718669747
 51
68.91864535539045
  0
ARC
  5
3E3
330
1E
100
AcDbEntity
  8
IMAGE
100
AcDbCircle
 10
3.857050610773505
 20
5.84320812109304
 30
0.0
 40
0.1818260367492528
100
AcDbArc
 50
159.7199718669747
 51
248.9186453553905
  0
ARC
  5
3E4
330
1E
100
AcDbEntity
  8
IMAGE
100
AcDbCircle
 10
3.621094418252893
 20
5.736574072550072
 30
0.0
 40
0.1818260367492528
100
AcDbArc
 50
339.7199718669747
 51
68.91864535539045
  0
ARC
  5
3E5
330
1E
100
AcDbEntity
  8
IMAGE
100
AcDbCircle
 10
4.040892830471928
 20
5.781927381193566
 30
0.0
 40
0.1818260367492528
100
AcDbArc
 50
159.7199718669747
 51
248.9186453553905
  0
ARC
  5
3E6
330
1E
100
AcDbEntity
  8
IMAGE
100
AcDbCircle
 10
3.804936637951318
 20
5.675293332650598
 30
0.0
 40
0.1818260367492528
100
AcDbArc
 50
339.7199718669747
 51
68.91864535539045
  0
ARC
  5
3E7
330
1E
100
AcDbEntity
  8
IMAGE
100
AcDbCircle
 10
3.724275674324642
 20
5.771713924543653
 30
0.0
 40
0.1818260367492528
100
AcDbArc
 50
159.7199718669747
 51
248.9186453553905
  0
ARC
  5
3E8
330
1E
100
AcDbEntity
  8
IMAGE
100
AcDbCircle
 10
3.488319481804032
 20
5.665079876000685
 30
0.0
 40
0.1818260367492528
100
AcDbArc
 50
339.7199718669747
 51
68.91864535539045
  0
ARC
  5
3E9
330
1E
100
AcDbEntity
  8
IMAGE
100
AcDbCircle
 10
3.795004775745711
 20
5.162394939457816
 30
0.0
 40
0.1818260367492528
100
AcDbArc
 50
278.5307656099478
 51
7.729439098363569
  0
ARC
  5
3EA
330
1E
100
AcDbEntity
  8
IMAGE
100
AcDbCircle
 10
4.00215093878619
 20
5.007035317177457
 30
0.0
 40
0.1818260367492528
100
AcDbArc
 50
98.53076560994793
 51
187.7294390983635
  0
ARC
  5
3EB
330
1E
100
AcDbEntity
  8
IMAGE
100
AcDbCircle
 10
3.396679966399127
 20
5.305383332556591
 30
0.0
 40
0.1818260367492528
100
AcDbArc
 50
278.5307656099478
 51
7.729439098363569
  0
ARC
  5
3EC
330
1E
100
AcDbEntity
  8
IMAGE
100
AcDbCircle
 10
3.603826129439605
 20
5.150023710276232
 30
0.0
 40
0.1818260367492528
100
AcDbArc
 50
98.53076560994793
 51
187.7294390983635
  0
ARC
  5
3ED
330
1E
100
AcDbEntity
  8
IMAGE
100
AcDbCircle
 10
3.774296268001579
 20
5.419956916402787
 30
0.0
 40
0.1818260367492528
100
AcDbArc
 50
339.7199718669747
 51
68.91864535539045
  0
ARC
  5
3EE
330
1E
100
AcDbEntity
  8
IMAGE
100
AcDbCircle
 10
4.01025246052219
 20
5.526590964945755
 30
0.0
 40
0.1818260367492528
100
AcDbArc
 50
159.7199718669747
 51
248.9186453553905
  0
ARC
  5
3EF
330
1E
100
AcDbEntity
  8
IMAGE
100
AcDbCircle
 10
3.672443295946763
 20
5.948831101501073
 30
0.0
 40
0.1818260367492528
100
AcDbArc
 50
278.5307656099478
 51
7.729439098363569
  0
ARC
  5
3F0
330
1E
100
AcDbEntity
  8
IMAGE
100
AcDbCircle
 10
3.87958945898724
 20
5.793471479220714
 30
0.0
 40
0.1818260367492528
100
AcDbArc
 50
98.53076560994793
 51
187.7294390983635
  0
ARC
  5
3F1
330
1E
100
AcDbEntity
  8
IMAGE
100
AcDbCircle
 10
2.325953974168996
 20
5.437237763572964
 30
0.0
 40
0.1818260367492528
100
AcDbArc
 50
116.0563205359582
 51
205.2549940243739
  0
ARC
  5
3F2
330
1E
100
AcDbEntity
  8
IMAGE
100
AcDbCircle
 10
2.081639348495894
 20
5.523007856144324
 30
0.0
 40
0.1818260367492528
100
AcDbArc
 50
296.0563205359582
 51
25.2549940243739
  0
ARC
  5
3F3
330
1E
100
AcDbEntity
  8
IMAGE
100
AcDbCircle
 10
1.540811887695825
 20
5.36933363862314
 30
0.0
 40
0.1818260367492528
100
AcDbArc
 50
116.0563205359582
 51
205.2549940243739
  0
ARC
  5
3F4
330
1E
100
AcDbEntity
  8
IMAGE
100
AcDbCircle
 10
1.296497262022722
 20
5.455103731194499
 30
0.0
 40
0.1818260367492528
100
AcDbArc
 50
296.0563205359582
 51
25.2549940243739
  0
ARC
  5
3F5
330
1E
100
AcDbEntity
  8
IMAGE
100
AcDbCircle
 10
1.64691216965166
 20
5.878614575746825
 30
0.0
 40
0.1818260367492528
100
AcDbArc
 50
116.0563205359582
 51
205.2549940243739
  0
ARC
  5
3F6
330
1E
100
AcDbEntity
  8
IMAGE
100
AcDbCircle
 10
1.402597543978558
 20
5.964384668318186
 30
0.0
 40
0.1818260367492528
100
AcDbArc
 50
296.0563205359582
 51
25.2549940243739
  0
ARC
  5
3F7
330
1E
100
AcDbEntity
  8
IMAGE
100
AcDbCircle
 10
1.854868722285093
 20
5.844662513271914
 30
0.0
 40
0.1818260367492528
100
AcDbArc
 50
116.0563205359582
 51
205.2549940243739
  0
ARC
  5
3F8
330
1E
100
AcDbEntity
  8
IMAGE
100
AcDbCircle
 10
1.610554096611991
 20
5.930432605843273
 30
0.0
 40
0.1818260367492528
100
AcDbArc
 50
296.0563205359582
 51
25.2549940243739
  0
ARC
  5
3F9
330
1E
100
AcDbEntity
  8
IMAGE
100
AcDbCircle
 10
2.164681545596129
 20
5.827686482034457
 30
0.0
 40
0.1818260367492528
100
AcDbArc
 50
116.0563205359582
 51
205.2549940243739
  0
ARC
  5
3FA
330
1E
100
AcDbEntity
  8
IMAGE
100
AcDbCircle
 10
1.920366919923027
 20
5.913456574605818
 30
0.0
 40
0.1818260367492528
100
AcDbArc
 50
296.0563205359582
 51
25.2549940243739
  0
ARC
  5
3FB
330
1E
100
AcDbEntity
  8
IMAGE
100
AcDbCircle
 10
2.096777365144396
 20
5.602754068138162
 30
0.0
 40
0.1818260367492528
100
AcDbArc
 50
116.0563205359582
 51
205.2549940243739
  0
ARC
  5
3FC
330
1E
100
AcDbEntity
  8
IMAGE
100
AcDbCircle
 10
1.852462739471294
 20
5.688524160709523
 30
0.0
 40
0.1818260367492528
100
AcDbArc
 50
296.0563205359582
 51
25.2549940243739
  0
ARC
  5
3FD
330
1E
100
AcDbEntity
  8
IMAGE
100
AcDbCircle
 10
2.470250357628931
 20
5.356601615195048
 30
0.0
 40
0.1818260367492528
100
AcDbArc
 50
116.0563205359582
 51
205.2549940243739
  0
ARC
  5
3FE
330
1E
100
AcDbEntity
  8
IMAGE
100
AcDbCircle
 10
2.225935731955829
 20
5.442371707766407
 30
0.0
 40
0.1818260367492528
100
AcDbArc
 50
296.0563205359582
 51
25.2549940243739
  0
ARC
  5
3FF
330
1E
100
AcDbEntity
  8
IMAGE
100
AcDbCircle
 10
1.600228045591093
 20
5.623974107184983
 30
0.0
 40
0.1818260367492528
100
AcDbArc
 50
116.0563205359582
 51
205.2549940243739
  0
ARC
  5
400
330
1E
100
AcDbEntity
  8
IMAGE
100
AcDbCircle
 10
1.355913419917989
 20
5.709744199756342
 30
0.0
 40
0.1818260367492528
100
AcDbArc
 50
296.0563205359582
 51
25.2549940243739
  0
ARC
  5
401
330
1E
100
AcDbEntity
  8
IMAGE
100
AcDbCircle
 10
1.986433071910327
 20
5.246257412151582
 30
0.0
 40
0.1818260367492528
100
AcDbArc
 50
116.0563205359582
 51
205.2549940243739
  0
ARC
  5
402
330
1E
100
AcDbEntity
  8
IMAGE
100
AcDbCircle
 10
1.742118446237226
 20
5.332027504722942
 30
0.0
 40
0.1818260367492528
100
AcDbArc
 50
296.0563205359582
 51
25.2549940243739
  0
ARC
  5
403
330
1E
100
AcDbEntity
  8
IMAGE
100
AcDbCircle
 10
2.011897139579729
 20
5.068009084158291
 30
0.0
 40
0.1818260367492528
100
AcDbArc
 50
116.0563205359582
 51
205.2549940243739
  0
ARC
  5
404
330
1E
100
AcDbEntity
  8
IMAGE
100
AcDbCircle
 10
1.767582513906626
 20
5.153779176729651
 30
0.0
 40
0.1818260367492528
100
AcDbArc
 50
296.0563205359582
 51
25.2549940243739
  0
ARC
  5
405
330
1E
100
AcDbEntity
  8
IMAGE
100
AcDbCircle
 10
2.207121658378463
 20
5.25474542777031
 30
0.0
 40
0.1818260367492528
100
AcDbArc
 50
116.0563205359582
 51
205.2549940243739
  0
ARC
  5
406
330
1E
100
AcDbEntity
  8
IMAGE
100
AcDbCircle
 10
1.96280703270536
 20
5.34051552034167
 30
0.0
 40
0.1818260367492528
100
AcDbArc
 50
296.0563205359582
 51
25.2549940243739
  0
ARC
  5
407
330
1E
100
AcDbEntity
  8
IMAGE
100
AcDbCircle
 10
2.51437566598773
 20
5.097252618507178
 30
0.0
 40
0.1818260367492528
100
AcDbArc
 50
143.5307656099477
 51
232.7294390983634
  0
ARC
  5
408
330
1E
100
AcDbEntity
  8
IMAGE
100
AcDbCircle
 10
2.258045366968012
 20
5.060634004361506
 30
0.0
 40
0.1818260367492528
100
AcDbArc
 50
323.5307656099477
 51
52.72943909836341
  0
ARC
  5
409
330
1E
100
AcDbEntity
  8
IMAGE
100
AcDbCircle
 10
2.56544294923729
 20
5.893902237200348
 30
0.0
 40
0.1818260367492528
100
AcDbArc
 50
143.5307656099477
 51
232.7294390983634
  0
ARC
  5
40A
330
1E
100
AcDbEntity
  8
IMAGE
100
AcDbCircle
 10
2.309112650217574
 20
5.857283623054675
 30
0.0
 40
0.1818260367492528
100
AcDbArc
 50
323.5307656099477
 51
52.72943909836341
  0
ARC
  5
40B
330
1E
100
AcDbEntity
  8
IMAGE
100
AcDbCircle
 10
1.727939503944472
 20
5.710060017501924
 30
0.0
 40
0.1818260367492528
100
AcDbArc
 50
143.5307656099477
 51
232.7294390983634
  0
ARC
  5
40C
330
1E
100
AcDbEntity
  8
IMAGE
100
AcDbCircle
 10
1.471609204924755
 20
5.673441403356251
 30
0.0
 40
0.1818260367492528
100
AcDbArc
 50
323.5307656099477
 51
52.72943909836341
  0
ARC
  5
40D
330
1E
100
AcDbEntity
  8
IMAGE
100
AcDbCircle
 10
1.625804937445348
 20
5.250454468255864
 30
0.0
 40
0.1818260367492528
100
AcDbArc
 50
143.5307656099477
 51
232.7294390983634
  0
ARC
  5
40E
330
1E
100
AcDbEntity
  8
IMAGE
100
AcDbCircle
 10
1.36947463842563
 20
5.213835854110192
 30
0.0
 40
0.1818260367492528
100
AcDbArc
 50
323.5307656099477
 51
52.72943909836341
  0
ARC
  5
40F
330
1E
100
AcDbEntity
  8
IMAGE
100
AcDbCircle
 10
1.574737654195786
 20
5.107466075157091
 30
0.0
 40
0.1818260367492528
100
AcDbArc
 50
143.5307656099477
 51
232.7294390983634
  0
ARC
  5
410
330
1E
100
AcDbEntity
  8
IMAGE
100
AcDbCircle
 10
1.318407355176068
 20
5.070847461011418
 30
0.0
 40
0.1818260367492528
100
AcDbArc
 50
323.5307656099477
 51
52.72943909836341
  0
ARC
  5
411
330
1E
100
AcDbEntity
  8
IMAGE
100
AcDbCircle
 10
1.748366417244298
 20
5.087039161857266
 30
0.0
 40
0.1818260367492528
100
AcDbArc
 50
143.5307656099477
 51
232.7294390983634
  0
ARC
  5
412
330
1E
100
AcDbEntity
  8
IMAGE
100
AcDbCircle
 10
1.49203611822458
 20
5.050420547711594
 30
0.0
 40
0.1818260367492528
100
AcDbArc
 50
323.5307656099477
 51
52.72943909836341
  0
ARC
  5
413
330
1E
100
AcDbEntity
  8
IMAGE
100
AcDbCircle
 10
1.84028752709351
 20
5.495577427853763
 30
0.0
 40
0.1818260367492528
100
AcDbArc
 50
143.5307656099477
 51
232.7294390983634
  0
ARC
  5
414
330
1E
100
AcDbEntity
  8
IMAGE
100
AcDbCircle
 10
1.583957228073792
 20
5.458958813708091
 30
0.0
 40
0.1818260367492528
100
AcDbArc
 50
323.5307656099477
 51
52.72943909836341
  0
ARC
  5
415
330
1E
100
AcDbEntity
  8
IMAGE
100
AcDbCircle
 10
2.003702833492108
 20
5.638565820952537
 30
0.0
 40
0.1818260367492528
100
AcDbArc
 50
143.5307656099477
 51
232.7294390983634
  0
ARC
  5
416
330
1E
100
AcDbEntity
  8
IMAGE
100
AcDbCircle
 10
1.74737253447239
 20
5.601947206806864
 30
0.0
 40
0.1818260367492528
100
AcDbArc
 50
323.5307656099477
 51
52.72943909836341
  0
ARC
  5
417
330
1E
100
AcDbEntity
  8
IMAGE
100
AcDbCircle
 10
2.371387272888956
 20
5.791767670701223
 30
0.0
 40
0.1818260367492528
100
AcDbArc
 50
143.5307656099477
 51
232.7294390983634
  0
ARC
  5
418
330
1E
100
AcDbEntity
  8
IMAGE
100
AcDbCircle
 10
2.115056973869237
 20
5.755149056555549
 30
0.0
 40
0.1818260367492528
100
AcDbArc
 50
323.5307656099477
 51
52.72943909836341
  0
ARC
  5
419
330
1E
100
AcDbEntity
  8
IMAGE
100
AcDbCircle
 10
2.320319989639394
 20
5.689633104202099
 30
0.0
 40
0.1818260367492528
100
AcDbArc
 50
143.5307656099477
 51
232.7294390983634
  0
ARC
  5
41A
330
1E
100
AcDbEntity
  8
IMAGE
100
AcDbCircle
 10
2.063989690619675
 20
5.653014490056426
 30
0.0
 40
0.1818260367492528
100
AcDbArc
 50
323.5307656099477
 51
52.72943909836341
  0
ARC
  5
41B
330
1E
100
AcDbEntity
  8
IMAGE
100
AcDbCircle
 10
2.238612336440093
 20
5.505790884503675
 30
0.0
 40
0.1818260367492528
100
AcDbArc
 50
143.5307656099477
 51
232.7294390983634
  0
ARC
  5
41C
330
1E
100
AcDbEntity
  8
IMAGE
100
AcDbCircle
 10
1.982282037420377
 20
5.469172270358003
 30
0.0
 40
0.1818260367492528
100
AcDbArc
 50
323.5307656099477
 51
52.72943909836341
  0
ARC
  5
41D
330
1E
100
AcDbEntity
  8
IMAGE
100
AcDbCircle
 10
2.09562394334132
 20
5.250454468255864
 30
0.0
 40
0.1818260367492528
100
AcDbArc
 50
143.5307656099477
 51
232.7294390983634
  0
ARC
  5
41E
330
1E
100
AcDbEntity
  8
IMAGE
100
AcDbCircle
 10
1.839293644321603
 20
5.213835854110192
 30
0.0
 40
0.1818260367492528
100
AcDbArc
 50
323.5307656099477
 51
52.72943909836341
  0
ARC
  5
41F
330
1E
100
AcDbEntity
  8
IMAGE
100
AcDbCircle
 10
1.881141353693159
 20
5.087039161857266
 30
0.0
 40
0.1818260367492528
100
AcDbArc
 50
143.5307656099477
 51
232.7294390983634
  0
ARC
  5
420
330
1E
100
AcDbEntity
  8
IMAGE
100
AcDbCircle
 10
1.624811054673442
 20
5.050420547711594
 30
0.0
 40
0.1818260367492528
100
AcDbArc
 50
323.5307656099477
 51
52.72943909836341
  0
ARC
  5
421
330
1E
100
AcDbEntity
  8
IMAGE
100
AcDbCircle
 10
2.263942109745306
 20
5.097458937307785
 30
0.0
 40
0.1818260367492528
100
AcDbArc
 50
143.5307656099477
 51
232.7294390983634
  0
ARC
  5
422
330
1E
100
AcDbEntity
  8
IMAGE
100
AcDbCircle
 10
2.007611810725588
 20
5.060840323162113
 30
0.0
 40
0.1818260367492528
100
AcDbArc
 50
323.5307656099477
 51
52.72943909836341
  0
ARC
  5
423
330
1E
100
AcDbEntity
  8
IMAGE
100
AcDbCircle
 10
2.402027642838691
 20
5.127892988456916
 30
0.0
 40
0.1818260367492528
100
AcDbArc
 50
143.5307656099477
 51
232.7294390983634
  0
ARC
  5
424
330
1E
100
AcDbEntity
  8
IMAGE
100
AcDbCircle
 10
2.145697343818976
 20
5.091274374311243
 30
0.0
 40
0.1818260367492528
100
AcDbArc
 50
323.5307656099477
 51
52.72943909836341
  0
ARC
  5
425
330
1E
100
AcDbEntity
  8
IMAGE
100
AcDbCircle
 10
2.56544294923729
 20
5.495577427853763
 30
0.0
 40
0.1818260367492528
100
AcDbArc
 50
143.5307656099477
 51
232.7294390983634
  0
ARC
  5
426
330
1E
100
AcDbEntity
  8
IMAGE
100
AcDbCircle
 10
2.309112650217574
 20
5.458958813708091
 30
0.0
 40
0.1818260367492528
100
AcDbArc
 50
323.5307656099477
 51
52.72943909836341
  0
ARC
  5
427
330
1E
100
AcDbEntity
  8
IMAGE
100
AcDbCircle
 10
2.25903924973992
 20
5.822408040650961
 30
0.0
 40
0.1818260367492528
100
AcDbArc
 50
143.5307656099477
 51
232.7294390983634
  0
ARC
  5
428
330
1E
100
AcDbEntity
  8
IMAGE
100
AcDbCircle
 10
2.002708950720201
 20
5.785789426505288
 30
0.0
 40
0.1818260367492528
100
AcDbArc
 50
323.5307656099477
 51
52.72943909836341
  0
ARC
  5
429
330
1E
100
AcDbEntity
  8
IMAGE
100
AcDbCircle
 10
1.727939503944472
 20
5.924542607150084
 30
0.0
 40
0.1818260367492528
100
AcDbArc
 50
143.5307656099477
 51
232.7294390983634
  0
ARC
  5
42A
330
1E
100
AcDbEntity
  8
IMAGE
100
AcDbCircle
 10
1.471609204924755
 20
5.887923993004412
 30
0.0
 40
0.1818260367492528
100
AcDbArc
 50
323.5307656099477
 51
52.72943909836341
  0
ARC
  5
42B
330
1E
100
AcDbEntity
  8
IMAGE
100
AcDbCircle
 10
2.557670133536882
 20
5.309947560642553
 30
0.0
 40
0.1818260367492528
100
AcDbArc
 50
159.7199718669747
 51
248.9186453553905
  0
ARC
  5
42C
330
1E
100
AcDbEntity
  8
IMAGE
100
AcDbCircle
 10
2.321713941016271
 20
5.203313512099586
 30
0.0
 40
0.1818260367492528
100
AcDbArc
 50
339.7199718669747
 51
68.91864535539045
  0
ARC
  5
42D
330
1E
100
AcDbEntity
  8
IMAGE
100
AcDbCircle
 10
2.384041370488372
 20
5.575497433540276
 30
0.0
 40
0.1818260367492528
100
AcDbArc
 50
159.7199718669747
 51
248.9186453553905
  0
ARC
  5
42E
330
1E
100
AcDbEntity
  8
IMAGE
100
AcDbCircle
 10
2.14808517796776
 20
5.468863384997309
 30
0.0
 40
0.1818260367492528
100
AcDbArc
 50
339.7199718669747
 51
68.91864535539045
  0
ARC
  5
42F
330
1E
100
AcDbEntity
  8
IMAGE
100
AcDbCircle
 10
1.965289647841963
 20
5.514216693640801
 30
0.0
 40
0.1818260367492528
100
AcDbArc
 50
159.7199718669747
 51
248.9186453553905
  0
ARC
  5
430
330
1E
100
AcDbEntity
  8
IMAGE
100
AcDbCircle
 10
1.729333455321352
 20
5.407582645097834
 30
0.0
 40
0.1818260367492528
100
AcDbArc
 50
339.7199718669747
 51
68.91864535539045
  0
ARC
  5
431
330
1E
100
AcDbEntity
  8
IMAGE
100
AcDbCircle
 10
1.893795451292575
 20
5.340587930592291
 30
0.0
 40
0.1818260367492528
100
AcDbArc
 50
159.7199718669747
 51
248.9186453553905
  0
ARC
  5
432
330
1E
100
AcDbEntity
  8
IMAGE
100
AcDbCircle
 10
1.657839258771964
 20
5.233953882049322
 30
0.0
 40
0.1818260367492528
100
AcDbArc
 50
339.7199718669747
 51
68.91864535539045
  0
ARC
  5
433
330
1E
100
AcDbEntity
  8
IMAGE
100
AcDbCircle
 10
1.686519458440866
 20
5.481167665724266
 30
0.0
 40
0.1818260367492528
100
AcDbArc
 50
159.7199718669747
 51
248.9186453553905
  0
ARC
  5
434
330
1E
100
AcDbEntity
  8
IMAGE
100
AcDbCircle
 10
1.450563265920255
 20
5.374533617181299
 30
0.0
 40
0.1818260367492528
100
AcDbArc
 50
339.7199718669747
 51
68.91864535539045
  0
ARC
  5
435
330
1E
100
AcDbEntity
  8
IMAGE
100
AcDbCircle
 10
1.965289647841963
 20
5.820620393138174
 30
0.0
 40
0.1818260367492528
100
AcDbArc
 50
159.7199718669747
 51
248.9186453553905
  0
ARC
  5
436
330
1E
100
AcDbEntity
  8
IMAGE
100
AcDbCircle
 10
1.729333455321352
 20
5.713986344595206
 30
0.0
 40
0.1818260367492528
100
AcDbArc
 50
339.7199718669747
 51
68.91864535539045
  0
ARC
  5
437
330
1E
100
AcDbEntity
  8
IMAGE
100
AcDbCircle
 10
2.149131867540386
 20
5.7593396532387
 30
0.0
 40
0.1818260367492528
100
AcDbArc
 50
159.7199718669747
 51
248.9186453553905
  0
ARC
  5
438
330
1E
100
AcDbEntity
  8
IMAGE
100
AcDbCircle
 10
1.913175675019775
 20
5.652705604695732
 30
0.0
 40
0.1818260367492528
100
AcDbArc
 50
339.7199718669747
 51
68.91864535539045
  0
ARC
  5
439
330
1E
100
AcDbEntity
  8
IMAGE
100
AcDbCircle
 10
2.496389393637408
 20
5.800193479838349
 30
0.0
 40
0.1818260367492528
100
AcDbArc
 50
159.7199718669747
 51
248.9186453553905
  0
ARC
  5
43A
330
1E
100
AcDbEntity
  8
IMAGE
100
AcDbCircle
 10
2.260433201116798
 20
5.693559431295382
 30
0.0
 40
0.1818260367492528
100
AcDbArc
 50
339.7199718669747
 51
68.91864535539045
  0
ARC
  5
43B
330
1E
100
AcDbEntity
  8
IMAGE
100
AcDbCircle
 10
2.302333717289072
 20
5.269093734042903
 30
0.0
 40
0.1818260367492528
100
AcDbArc
 50
159.7199718669747
 51
248.9186453553905
  0
ARC
  5
43C
330
1E
100
AcDbEntity
  8
IMAGE
100
AcDbCircle
 10
2.06637752476846
 20
5.162459685499936
 30
0.0
 40
0.1818260367492528
100
AcDbArc
 50
339.7199718669747
 51
68.91864535539045
  0
ARC
  5
43D
330
1E
100
AcDbEntity
  8
IMAGE
100
AcDbCircle
 10
2.363614457188547
 20
5.350801387242203
 30
0.0
 40
0.1818260367492528
100
AcDbArc
 50
159.7199718669747
 51
248.9186453553905
  0
ARC
  5
43E
330
1E
100
AcDbEntity
  8
IMAGE
100
AcDbCircle
 10
2.127658264667935
 20
5.244167338699235
 30
0.0
 40
0.1818260367492528
100
AcDbArc
 50
339.7199718669747
 51
68.91864535539045
  0
ARC
  5
43F
330
1E
100
AcDbEntity
  8
IMAGE
100
AcDbCircle
 10
1.8325147113931
 20
5.749126196588787
 30
0.0
 40
0.1818260367492528
100
AcDbArc
 50
159.7199718669747
 51
248.9186453553905
  0
ARC
  5
440
330
1E
100
AcDbEntity
  8
IMAGE
100
AcDbCircle
 10
1.596558518872491
 20
5.642492148045819
 30
0.0
 40
0.1818260367492528
100
AcDbArc
 50
339.7199718669747
 51
68.91864535539045
  0
ARC
  5
441
330
1E
100
AcDbEntity
  8
IMAGE
100
AcDbCircle
 10
1.903243812814169
 20
5.13980721150295
 30
0.0
 40
0.1818260367492528
100
AcDbArc
 50
278.5307656099478
 51
7.729439098363569
  0
ARC
  5
442
330
1E
100
AcDbEntity
  8
IMAGE
100
AcDbCircle
 10
2.110389975854648
 20
4.984447589222591
 30
0.0
 40
0.1818260367492528
100
AcDbArc
 50
98.53076560994793
 51
187.7294390983635
  0
ARC
  5
443
330
1E
100
AcDbEntity
  8
IMAGE
100
AcDbCircle
 10
1.504919003467584
 20
5.282795604601725
 30
0.0
 40
0.1818260367492528
100
AcDbArc
 50
278.5307656099478
 51
7.729439098363569
  0
ARC
  5
444
330
1E
100
AcDbEntity
  8
IMAGE
100
AcDbCircle
 10
1.712065166508063
 20
5.127435982321366
 30
0.0
 40
0.1818260367492528
100
AcDbArc
 50
98.53076560994793
 51
187.7294390983635
  0
ARC
  5
445
330
1E
100
AcDbEntity
  8
IMAGE
100
AcDbCircle
 10
1.287766985226332
 20
5.877710536354499
 30
0.0
 40
0.1818260367492528
100
AcDbArc
 50
323.5307656099477
 51
52.72943909836341
  0
ARC
  5
446
330
1E
100
AcDbEntity
  8
IMAGE
100
AcDbCircle
 10
1.544097284246049
 20
5.914329150500172
 30
0.0
 40
0.1818260367492528
100
AcDbArc
 50
143.5307656099477
 51
232.7294390983634
  0
ARC
  5
447
330
1E
100
AcDbEntity
  8
IMAGE
100
AcDbCircle
 10
2.281141708860928
 20
5.773041523797521
 30
0.0
 40
0.1818260367492528
100
AcDbArc
 50
278.5307656099478
 51
7.729439098363569
  0
ARC
  5
448
330
1E
100
AcDbEntity
  8
IMAGE
100
AcDbCircle
 10
2.488287871901406
 20
5.617681901517163
 30
0.0
 40
0.1818260367492528
100
AcDbArc
 50
98.53076560994793
 51
187.7294390983635
  0
ARC
  5
449
330
1E
100
AcDbEntity
  8
IMAGE
100
AcDbCircle
 10
1.882535305070039
 20
5.397369188447921
 30
0.0
 40
0.1818260367492528
100
AcDbArc
 50
339.7199718669747
 51
68.91864535539045
  0
ARC
  5
44A
330
1E
100
AcDbEntity
  8
IMAGE
100
AcDbCircle
 10
2.118491497590648
 20
5.50400323699089
 30
0.0
 40
0.1818260367492528
100
AcDbArc
 50
159.7199718669747
 51
248.9186453553905
  0
ARC
  5
44B
330
1E
100
AcDbEntity
  8
IMAGE
100
AcDbCircle
 10
1.780682333015221
 20
5.926243373546207
 30
0.0
 40
0.1818260367492528
100
AcDbArc
 50
278.5307656099478
 51
7.729439098363569
  0
ARC
  5
44C
330
1E
100
AcDbEntity
  8
IMAGE
100
AcDbCircle
 10
1.987828496055698
 20
5.770883751265849
 30
0.0
 40
0.1818260367492528
100
AcDbArc
 50
98.53076560994793
 51
187.7294390983635
  0
ARC
  5
44D
330
1E
100
AcDbEntity
  8
IMAGE
100
AcDbCircle
 10
2.156057952178915
 20
5.992527764995993
 30
0.0
 40
0.1818260367492528
100
AcDbArc
 50
278.5307656099478
 51
7.729439098363569
  0
ARC
  5
44E
330
1E
100
AcDbEntity
  8
IMAGE
100
AcDbCircle
 10
2.363204115219391
 20
5.837168142715635
 30
0.0
 40
0.1818260367492528
100
AcDbArc
 50
98.53076560994793
 51
187.7294390983635
  0
TEXT
  5
459
330
1E
100
AcDbEntity
  8
TEXT_BUBBLES
100
AcDbText
 10
4.492854927628144
 20
7.154398732803804
 30
0.0
 40
0.1
  1
1
 41
1.25
  7
ROMANS
 72
     4
 11
4.543450165723382
 21
7.204398732803804
 31
0.0
100
AcDbText
  0
TEXT
  5
45B
330
1E
100
AcDbEntity
  8
TEXT_BUBBLES
100
AcDbText
 10
4.483926356199573
 20
6.070230563857502
 30
0.0
 40
0.1
  1
3
 41
1.25
  7
ROMANS
 72
     4
 11
4.543450165723382
 21
6.120230563857502
 31
0.0
100
AcDbText
  0
TEXT
  5
45D
330
1E
100
AcDbEntity
  8
TEXT_BUBBLES
100
AcDbText
 10
4.480950165723382
 20
5.046161330788642
 30
0.0
 40
0.1
  1
4
 41
1.25
  7
ROMANS
 72
     4
 11
4.543450165723382
 21
5.096161330788642
 31
0.0
100
AcDbText
  0
TEXT
  5
45F
330
1E
100
AcDbEntity
  8
TEXT_BUBBLES
100
AcDbText
 10
2.988396850127505
 20
3.689230017335895
 30
0.0
 40
0.1
  1
5
 41
1.25
  7
ROMANS
 72
     4
 11
3.047920659651315
 21
3.739230017335895
 31
0.0
100
AcDbText
  0
TEXT
  5
461
330
1E
100
AcDbEntity
  8
TEXT_BUBBLES
100
AcDbText
 10
3.517712928613445
 20
3.689230017335895
 30
0.0
 40
0.1
  1
6
 41
1.25
  7
ROMANS
 72
     4
 11
3.580212928613445
 21
3.739230017335895
 31
0.0
100
AcDbText
  0
TEXT
  5
463
330
1E
100
AcDbEntity
  8
TEXT_BUBBLES
100
AcDbText
 10
5.687367689906347
 20
6.188441177926368
 30
0.0
 40
0.125
  1
PLANT MATERIAL
  7
SIMPLEX
100
AcDbText
  0
TEXT
  5
464
330
1E
100
AcDbEntity
  8
TEXT_BUBBLES
100
AcDbText
 10
5.687367689906347
 20
3.913441177926369
 30
0.0
 40
0.125
  1
FINISH GRADE/TOP OF MULCH
  7
SIMPLEX
100
AcDbText
  0
TEXT
  5
466
330
1E
100
AcDbEntity
  8
TEXT_BUBBLES
100
AcDbText
 10
5.35602614999893
 20
5.320405413282028
 30
0.0
 40
0.1
  1
5
 41
1.25
  7
ROMANS
 72
     4
 11
5.415549959522739
 21
5.370405413282028
 31
0.0
100
AcDbText
  0
TEXT
  5
468
330
1E
100
AcDbEntity
  8
TEXT_BUBBLES
100
AcDbText
 10
5.353049959522739
 20
4.445405413282028
 30
0.0
 40
0.1
  1
6
 41
1.25
  7
ROMANS
 72
     4
 11
5.415549959522739
 21
4.495405413282028
 31
0.0
100
AcDbText
  0
TEXT
  5
46A
330
1E
100
AcDbEntity
  8
TEXT_BUBBLES
100
AcDbText
 10
5.35602614999893
 20
3.920405413282028
 30
0.0
 40
0.1
  1
7
 41
1.25
  7
ROMANS
 72
     4
 11
5.415549959522739
 21
3.970405413282028
 31
0.0
100
AcDbText
  0
TEXT
  5
46B
330
1E
100
AcDbEntity
  8
TEXT_BUBBLES
100
AcDbText
 10
5.35602614999893
 20
6.895405413282028
 30
0.0
 40
0.1
  1
2
 41
1.25
  7
ROMANS
 72
     4
 11
5.415549959522739
 21
6.945405413282028
 31
0.0
100
AcDbText
  0
TEXT
  5
46D
330
1E
100
AcDbEntity
  8
TEXT_BUBBLES
100
AcDbText
 10
5.687367689906347
 20
5.138441177926369
 30
0.0
 40
0.125
  1
  WITH STAINLESS STEEL GEAR
  7
SIMPLEX
100
AcDbText
  0
TEXT
  5
46E
330
1E
100
AcDbEntity
  8
TEXT_LEADERS
100
AcDbText
 10
4.838107399906347
 20
7.20760466792637
 30
0.0
 40
0.125
  1
IMPACT SPRINKLER:
  7
SIMPLEX
100
AcDbText
  0
TEXT
  5
46F
330
1E
100
AcDbEntity
  8
TEXT_LEADERS
100
AcDbText
 10
4.838107399906347
 20
6.11036200800376
 30
0.0
 40
0.125
  1
PLANT MATERIAL
  7
SIMPLEX
100
AcDbText
  0
TEXT
  5
470
330
1E
100
AcDbEntity
  8
TEXT_LEADERS
100
AcDbText
 10
4.838107399906347
 20
2.864437669944591
 30
0.0
 40
0.125
  1
  SUPPORT SYSTEM
  7
SIMPLEX
100
AcDbText
  0
TEXT
  5
471
330
1E
100
AcDbEntity
  8
TEXT_LEADERS
100
AcDbText
 10
4.838107399906347
 20
5.088060347293752
 30
0.0
 40
0.125
  1
UV RADIATION RESISTANT
  7
SIMPLEX
100
AcDbText
  0
TEXT
  5
472
330
1E
100
AcDbEntity
  8
TEXT_LEADERS
100
AcDbText
 10
4.838107399906347
 20
7.032604667926369
 30
0.0
 40
0.125
  1
  RAIN BIRD 65PJADJ-TNT
  7
SIMPLEX
100
AcDbText
  0
TEXT
  5
473
330
1E
100
AcDbEntity
  8
TEXT_LEADERS
100
AcDbText
 10
4.838107399906347
 20
4.464360350275101
 30
0.0
 40
0.125
  1
FINISH GRADE/TOP OF MULCH
  7
SIMPLEX
100
AcDbText
  0
TEXT
  5
474
330
1E
100
AcDbEntity
  8
TEXT_LEADERS
100
AcDbText
 10
4.838107399906347
 20
6.683924904374507
 30
0.0
 40
0.125
  1
UV RADIATION RESISTANT
  7
SIMPLEX
100
AcDbText
  0
TEXT
  5
475
330
1E
100
AcDbEntity
  8
TEXT_LEADERS
100
AcDbText
 10
4.838107399906347
 20
6.333924904374507
 30
0.0
 40
0.125
  1
  (LENGTH AS REQUIRED)
  7
SIMPLEX
100
AcDbText
  0
TEXT
  5
476
330
1E
100
AcDbEntity
  8
TEXT_LEADERS
100
AcDbText
 10
4.838107399906347
 20
6.508924904374508
 30
0.0
 40
0.125
  1
  PVC SCH 80 NIPPLE
  7
SIMPLEX
100
AcDbText
  0
TEXT
  5
477
330
1E
100
AcDbEntity
  8
TEXT_LEADERS
100
AcDbText
 10
4.838107399906347
 20
3.039437669944591
 30
0.0
 40
0.125
  1
  CLAMPS OR EQUIVALENT
  7
SIMPLEX
100
AcDbText
  0
TEXT
  5
478
330
1E
100
AcDbEntity
  8
TEXT_LEADERS
100
AcDbText
 10
4.838107399906347
 20
3.214437669944591
 30
0.0
 40
0.125
  1
  WITH STAINLESS STEEL GEAR
  7
SIMPLEX
100
AcDbText
  0
TEXT
  5
479
330
1E
100
AcDbEntity
  8
TEXT_LEADERS
100
AcDbText
 10
4.838107399906347
 20
3.389437669944587
 30
0.0
 40
0.125
  1
1-INCH GALVANIZED STEEL PIPE
  7
SIMPLEX
100
AcDbText
  0
TEXT
  5
47A
330
1E
100
AcDbEntity
  8
TEXT_LEADERS
100
AcDbText
 10
4.838107399906347
 20
3.829810662571818
 30
0.0
 40
0.125
  1
UV RADIATION RESISTANT
  7
SIMPLEX
100
AcDbText
  0
LINE
  5
4B7
330
1E
100
AcDbEntity
  8
IMAGE
100
AcDbLine
 10
2.909378148296805
 20
5.255986499967203
 30
0.0
 11
3.167384980528681
 21
5.255986499967201
 31
0.0
  0
LINE
  5
4B8
330
1E
100
AcDbEntity
  8
IMAGE
100
AcDbLine
 10
2.909378148296805
 20
5.255986499967203
 30
0.0
 11
2.909378148296806
 21
4.963296574701527
 31
0.0
  0
LINE
  5
4B9
330
1E
100
AcDbEntity
  8
IMAGE
100
AcDbLine
 10
3.167384980528681
 20
5.255986499967201
 30
0.0
 11
3.167384980528682
 21
4.963296574701528
 31
0.0
  0
LINE
  5
4BA
330
1E
100
AcDbEntity
  8
IMAGE
100
AcDbLine
 10
3.167384980528682
 20
4.963296574701528
 30
0.0
 11
3.331071489678418
 21
4.963296574701528
 31
0.0
  0
LWPOLYLINE
  5
4BB
330
1E
100
AcDbEntity
  8
IMAGE
100
AcDbPolyline
 90
        2
 70
     0
 43
0.0
 10
2.691300811219486
 20
3.999075294606311
 10
2.905296352859243
 20
3.999075294606311
  0
LINE
  5
4BF
330
1E
100
AcDbEntity
  8
IMAGE
100
AcDbLine
 10
1.294903418705535
 20
4.702353574184891
 30
0.0
 11
4.22688174843453
 21
4.702353574184891
 31
0.0
  0
TEXT
  5
4CB
330
1E
100
AcDbEntity
  8
TEXT_BUBBLES
100
AcDbText
 10
4.483926356199573
 20
6.572842026099156
 30
0.0
 40
0.1
  1
2
 41
1.25
  7
ROMANS
 72
     4
 11
4.543450165723382
 21
6.622842026099156
 31
0.0
100
AcDbText
  0
TEXT
  5
4CE
330
1E
100
AcDbEntity
  8
TEXT_BUBBLES
100
AcDbText
 10
4.490387850904334
 20
3.689230017335895
 30
0.0
 40
0.1
  1
7
 41
1.25
  7
ROMANS
 72
     4
 11
4.549911660428143
 21
3.739230017335895
 31
0.0
100
AcDbText
  0
TEXT
  5
4D3
330
1E
100
AcDbEntity
  8
TEXT_LEADERS
100
AcDbText
 10
4.838107399906347
 20
4.913060347293752
 30
0.0
 40
0.125
  1
  PVC LATERAL PIPE
  7
SIMPLEX
100
AcDbText
  0
TEXT
  5
4D4
330
1E
100
AcDbEntity
  8
TEXT_LEADERS
100
AcDbText
 10
4.838107399906347
 20
3.654810662571819
 30
0.0
 40
0.125
  1
  PVC SCH 40 TEE OR ELL
  7
SIMPLEX
100
AcDbText
  0
TEXT
  5
4D5
330
1E
100
AcDbEntity
  8
TEXT_BUBBLES
100
AcDbText
 10
5.687367689906347
 20
5.663441177926368
 30
0.0
 40
0.125
  1
  PVC LATERAL PIPE
  7
SIMPLEX
100
AcDbText
  0
TEXT
  5
4D6
330
1E
100
AcDbEntity
  8
TEXT_BUBBLES
100
AcDbText
 10
5.687367689906347
 20
4.263441177926369
 30
0.0
 40
0.125
  1
  PVC SCH 40 TEE OR ELL
  7
SIMPLEX
100
AcDbText
  0
HATCH
  5
542
330
1E
100
AcDbEntity
  8
IMAGE
100
AcDbHatch
 10
0.0
 20
0.0
 30
0.0
210
0.0
220
0.0
230
1.0
  2
EARTH
 70
     0
 71
     0
 91
        2
 92
        7
 72
     0
 73
     1
 93
        9
 10
2.691300811219486
 20
4.702353574184891
 10
1.376018938117361
 20
4.702353574184891
 10
1.475651931909165
 20
4.423539702668636
 10
1.597629850394712
 20
4.29166202251651
 10
1.789309441111162
 20
4.214526008450688
 10
2.110435012641644
 20
4.192131681120316
 10
2.374305608582406
 20
4.194619944301278
 10
2.660580359834508
 20
4.14236652074679
 10
2.691300811219486
 20
4.137389994384866
 97
        0
 92
        7
 72
     0
 73
     1
 93
        7
 10
4.132764138311392
 20
4.702353574184891
 10
3.448194144317679
 20
4.702353574184891
 10
3.547767939166019
 20
4.592844411063318
 10
3.687171283627822
 20
4.530637955434126
 10
3.851468084720244
 20
4.495802332848087
 10
4.035679644782335
 20
4.495802332848086
 10
4.077998527389209
 20
4.560497051658241
 97
        0
 75
     0
 76
     1
 52
45.0
 41
0.65
 77
     0
 78
     6
 53
45.0
 43
0.9273676899063474
 44
1.393441177926369
 45
0.0
 46
0.229809703885628
 79
     2
 49
0.1625
 49
-0.1625
 53
45.0
 43
0.8842783704277922
 44
1.436530497404924
 45
0.0
 46
0.229809703885628
 79
     2
 49
0.1625
 49
-0.1625
 53
45.0
 43
0.8411890509492369
 44
1.479619816883479
 45
0.0
 46
0.229809703885628
 79
     2
 49
0.1625
 49
-0.1625
 53
135.0
 43
0.8411890509492369
 44
1.508346029869183
 45
-0.2298097038856279
 46
0.0
 79
     2
 49
0.1625
 49
-0.1625
 53
135.0
 43
0.8842783704277922
 44
1.551435349347738
 45
-0.2298097038856279
 46
0.0
 79
     2
 49
0.1625
 49
-0.1625
 53
135.0
 43
0.9273676899063474
 44
1.594524668826293
 45
-0.2298097038856279
 46
0.0
 79
     2
 49
0.1625
 49
-0.1625
 47
0.0089778613657544
 98
        2
 10
2.203519855776985
 20
4.558263144636206
 10
3.94598596038588
 20
4.585196711400624
  0
TEXT
  5
55F
330
1E
100
AcDbEntity
  8
IMAGE
100
AcDbText
 10
1.335624342984706
 20
2.412944556649145
 30
0.0
 40
0.125
  1
USE A #4 X 24" REBAR ROD WITH "J" HOOKED RADIUS AT ONE END TO
  7
SIMPLEX
100
AcDbText
  0
TEXT
  5
561
330
1E
100
AcDbEntity
  8
IMAGE
100
AcDbText
 10
1.335624342984706
 20
2.587944556649145
 30
0.0
 40
0.125
  1
NOTE:
  7
SIMPLEX
100
AcDbText
  0
TEXT
  5
562
330
1E
100
AcDbEntity
  8
IMAGE
100
AcDbText
 10
1.335624342984706
 20
2.237944556649145
 30
0.0
 40
0.125
  1
HOLD PIPE SECURELY IN PLACE.  INSTALL AT INTERVALS OF 10 FEET.
  7
SIMPLEX
100
AcDbText
  0
LEADER
  5
567
330
1E
100
AcDbEntity
  8
TEXT_LEADERS
100
AcDbLeader
  3
Standard
 76
     3
 10
3.136450692588102
 20
6.696010555494458
 30
0.0
 10
4.532577259424257
 20
7.260082303081459
 30
0.0
 10
4.785619450904574
 20
7.260082303081459
 30
0.0
1001
ACAD
1000
DSTYLE
1002
{
1070
   147
1040
0.09
1070
    77
1070
     0
1070
   279
1070
     2
1002
}
  0
LEADER
  5
568
330
1E
100
AcDbEntity
  8
TEXT_LEADERS
100
AcDbLeader
  3
Standard
 76
     3
 10
3.147358838073703
 20
6.190218240792346
 30
0.0
 10
4.532579800991509
 20
6.749883838387763
 30
0.0
 10
4.785621992471826
 20
6.749883838387763
 30
0.0
1001
ACAD
1000
DSTYLE
1002
{
1070
   147
1040
0.09
1070
    77
1070
     0
1070
   279
1070
     2
1002
}
  0
LEADER
  5
569
330
1E
100
AcDbEntity
  8
TEXT_LEADERS
100
AcDbLeader
  3
Standard
 76
     3
 10
3.992651306613184
 20
5.957769889190451
 30
0.0
 10
4.532577259424243
 20
6.175914134135148
 30
0.0
 10
4.785619450904574
 20
6.175914134135148
 30
0.0
1001
ACAD
1000
DSTYLE
1002
{
1070
   147
1040
0.09
1070
    77
1070
     0
1070
   279
1070
     2
1002
}
  0
LEADER
  5
56A
330
1E
100
AcDbEntity
  8
TEXT_LEADERS
100
AcDbLeader
  3
Standard
 76
     3
 10
4.001026525688185
 20
4.937695018616231
 30
0.0
 10
4.530959920764012
 20
5.15180200817273
 30
0.0
 10
4.78400211224433
 20
5.15180200817273
 30
0.0
1001
ACAD
1000
DSTYLE
1002
{
1070
   147
1040
0.09
1070
    77
1070
     0
1070
   279
1070
     2
1002
}
  0
LEADER
  5
56B
330
1E
100
AcDbEntity
  8
TEXT_LEADERS
100
AcDbLeader
  3
Standard
 76
     3
 10
4.212248395893887
 20
4.702353574184891
 30
0.0
 10
4.528552670791276
 20
4.52818378595554
 30
0.0
 10
4.781594862271594
 20
4.52818378595554
 30
0.0
1001
ACAD
1000
DSTYLE
1002
{
1070
   147
1040
0.09
1070
    77
1070
     0
1070
   279
1070
     2
1002
}
  0
LEADER
  5
56C
330
1E
100
AcDbEntity
  8
TEXT_LEADERS
100
AcDbLeader
  3
Standard
 76
     3
 10
3.126136387747133
 20
4.705289742469651
 30
0.0
 10
4.532577259424256
 20
3.89328072660757
 30
0.0
 10
4.785619450904574
 20
3.89328072660757
 30
0.0
1001
ACAD
1000
DSTYLE
1002
{
1070
   147
1040
0.09
1070
    77
1070
     0
1070
   279
1070
     2
1002
}
  0
LEADER
  5
56D
330
1E
100
AcDbEntity
  8
TEXT_LEADERS
100
AcDbLeader
  3
Standard
 76
     3
 10
2.905296352859243
 20
4.383340114784849
 30
0.0
 10
4.532577259424256
 20
3.443829045332398
 30
0.0
 10
4.785619450904574
 20
3.443829045332398
 30
0.0
1001
ACAD
1000
DSTYLE
1002
{
1070
   147
1040
0.09
1070
    77
1070
     0
1070
   279
1070
     2
1002
}
  0
LEADER
  5
571
330
1E
100
AcDbEntity
  8
TEXT_BUBBLES
100
AcDbLeader
  3
Standard
 76
     2
 10
3.136450692588102
 20
6.696010555494458
 30
0.0
 10
4.387200132581928
 20
7.204398732803804
 30
0.0
1001
ACAD
1000
DSTYLE
1002
{
1070
   147
1040
0.09
1070
    77
1070
     0
1070
   279
1070
     2
1002
}
  0
LEADER
  5
572
330
1E
100
AcDbEntity
  8
TEXT_BUBBLES
100
AcDbLeader
  3
Standard
 76
     2
 10
3.147358838073702
 20
6.118861025641217
 30
0.0
 10
4.387200132581928
 20
6.622842026099156
 30
0.0
1001
ACAD
1000
DSTYLE
1002
{
1070
   147
1040
0.09
1070
    77
1070
     0
1070
   279
1070
     2
1002
}
  0
LEADER
  5
573
330
1E
100
AcDbEntity
  8
TEXT_BUBBLES
100
AcDbLeader
  3
Standard
 76
     2
 10
3.992651306613184
 20
5.95776988919045
 30
0.0
 10
4.387200132581928
 20
6.120230563857502
 30
0.0
1001
ACAD
1000
DSTYLE
1002
{
1070
   147
1040
0.09
1070
    77
1070
     0
1070
   279
1070
     2
1002
}
  0
LEADER
  5
574
330
1E
100
AcDbEntity
  8
TEXT_BUBBLES
100
AcDbLeader
  3
Standard
 76
     2
 10
4.002643864348429
 20
4.937737911509799
 30
0.0
 10
4.387200132581928
 20
5.096161330788642
 30
0.0
1001
ACAD
1000
DSTYLE
1002
{
1070
   147
1040
0.09
1070
    77
1070
     0
1070
   279
1070
     2
1002
}
  0
LEADER
  5
575
330
1E
100
AcDbEntity
  8
TEXT_BUBBLES
100
AcDbLeader
  3
Standard
 76
     2
 10
4.160784484741512
 20
4.702353574184891
 30
0.0
 10
4.549911660428143
 20
3.895480050477349
 30
0.0
1001
ACAD
1000
DSTYLE
1002
{
1070
   147
1040
0.09
1070
    77
1070
     0
1070
   279
1070
     2
1002
}
  0
LEADER
  5
576
330
1E
100
AcDbEntity
  8
TEXT_BUBBLES
100
AcDbLeader
  3
Standard
 76
     2
 10
3.189899463936304
 20
4.705289742469651
 30
0.0
 10
3.580212928613445
 20
3.895480050477349
 30
0.0
1001
ACAD
1000
DSTYLE
1002
{
1070
   147
1040
0.09
1070
    77
1070
     0
1070
   279
1070
     2
1002
}
  0
LEADER
  5
577
330
1E
100
AcDbEntity
  8
TEXT_BUBBLES
100
AcDbLeader
  3
Standard
 76
     2
 10
2.905296352859243
 20
4.288574307561958
 30
0.0
 10
3.047920659651315
 20
3.895480050477349
 30
0.0
1001
ACAD
1000
DSTYLE
1002
{
1070
   147
1040
0.09
1070
    77
1070
     0
1070
   279
1070
     2
1002
}
  0
INSERT
  5
58E
330
1E
100
AcDbEntity
  8
TITLE
100
AcDbBlockReference
 66
     1
  2
titleblock
 10
0.0
 20
0.0
 30
0.0
  0
ATTRIB
  5
58F
330
58E
100
AcDbEntity
  8
TITLE
100
AcDbText
 10
0.5055556038023421
 20
0.7842270964783673
 30
0.0
 40
0.2
  1
D
  7
L200
 72
     4
 11
0.6064423705144839
 21
0.8842270964783672
 31
0.0
100
AcDbAttribute
  2
D
 70
     0
  0
ATTRIB
  5
590
330
58E
100
AcDbEntity
  8
TITLE
100
AcDbText
 10
1.231442370514484
 20
1.34371230274675
 30
0.0
 40
0.2
  1

  7
L200
100
AcDbAttribute
  2
TITLE1
 70
     0
  0
ATTRIB
  5
591
330
58E
100
AcDbEntity
  8
TITLE
100
AcDbText
 10
1.231442370514484
 20
0.9842270964783674
 30
0.0
 40
0.2
  1
FULL OR PART-CIRCLE IMPACT SPRINKLER
  7
L200
100
AcDbAttribute
  2
TITLE2
 70
     0
  0
ATTRIB
  5
592
330
58E
100
AcDbEntity
  8
TITLE
100
AcDbText
 10
2.713645751168312
 20
0.5927927664583189
 30
0.0
 40
0.2
  1
65PJADJ-TNT ON GRADE
  7
L200
100
AcDbAttribute
  2
TITLE3
 70
     0
  0
ATTRIB
  5
593
330
58E
100
AcDbEntity
  8
TITLE
100
AcDbText
 10
2.713645751168312
 20
0.2692560808167741
 30
0.0
 40
0.2
  1

  7
L200
100
AcDbAttribute
  2
TITLE4
 70
     0
  0
ATTRIB
  5
594
330
58E
100
AcDbEntity
  8
TITLE
 62
     7
100
AcDbText
 10
7.613405306156856
 20
0.9696027915446398
 30
0.0
 40
0.08
  1
01-09-04
  7
L80
 72
     2
 11
8.261024353775903
 21
0.9696027915446398
 31
0.0
100
AcDbAttribute
  2
REVISED
 70
     0
  0
ATTRIB
  5
595
330
58E
100
AcDbEntity
  8
TITLE
 62
     7
100
AcDbText
 10
0.2639423705144838
 20
0.0847116480207214
 30
0.0
 40
0.08
  1
I-65PJ-On Grade.dwg
  7
L80
100
AcDbAttribute
  2
DWG-NAME
 70
     0
  0
ATTRIB
  5
596
330
58E
100
AcDbEntity
  8
TITLE
 62
     7
100
AcDbText
 10
1.231442370514484
 20
0.7005637793954894
 30
0.0
 40
0.1
  1
N.T.S.
  7
L100
100
AcDbAttribute
  2
SCALE
 70
     0
  0
SEQEND
  5
597
330
58E
100
AcDbEntity
  8
IMAGE
  0
TEXT
  5
5AB
330
1E
100
AcDbEntity
  8
INSTRUCT-CALLOUT
100
AcDbText
 10
11.39134015341624
 20
8.519185965410345
 30
0.0
 40
0.125
  1
TO TURN OFF THIS INSTRUCTION BOX, TURN OFF
  7
ROMANS
100
AcDbText
  0
TEXT
  5
5AC
330
1E
100
AcDbEntity
  8
INSTRUCT-CALLOUT
100
AcDbText
 10
11.39134015341624
 20
8.357285921922345
 30
0.0
 40
0.125
  1
LAYER "INSTRUCT-CALLOUT".
  7
ROMANS
100
AcDbText
  0
CIRCLE
  5
5AD
330
1E
100
AcDbEntity
  8
INSTRUCT-CALLOUT
100
AcDbCircle
 10
14.44090256733818
 20
9.021097651783788
 30
0.0
 40
0.125
  0
TEXT
  5
5AE
330
1E
100
AcDbEntity
  8
INSTRUCT-CALLOUT
100
AcDbText
 10
14.39030732924294
 20
8.958597651783788
 30
0.0
 40
0.125
  1
1
  7
ROMANS
 72
     4
 11
14.44090256733818
 21
9.021097651783788
 31
0.0
100
AcDbText
  0
LINE
  5
5AF
330
1E
100
AcDbEntity
  8
INSTRUCT-CALLOUT
100
AcDbLine
 10
14.06443434163369
 20
8.918317935205964
 30
0.0
 11
14.32031575855853
 21
8.988176206670582
 31
0.0
  0
SOLID
  5
5B0
330
1E
100
AcDbEntity
  8
INSTRUCT-CALLOUT
100
AcDbTrace
 10
14.13370875242549
 20
8.968328494185529
 30
0.0
 11
14.14951104607983
 21
8.9104468259713
 31
0.0
 12
13.96796489460997
 22
8.891980779115398
 32
0.0
 13
13.96796489460997
 23
8.891980779115398
 33
0.0
  0
TEXT
  5
5B1
330
1E
100
AcDbEntity
  8
INSTRUCT-CALLOUT
100
AcDbText
 10
12.35586712418982
 20
9.006865226184624
 30
0.0
 40
0.125
  1
ITEM 1
  7
ROMANS
100
AcDbText
  0
SOLID
  5
5B2
330
1E
100
AcDbEntity
  8
INSTRUCT-CALLOUT
100
AcDbTrace
 10
11.99123942437607
 20
8.954902459634132
 30
0.0
 11
11.96818753948433
 21
9.010297500954978
 31
0.0
 12
11.81352835796766
 22
8.913444325619353
 32
0.0
 13
11.81352835796766
 23
8.913444325619353
 33
0.0
  0
LINE
  5
5B3
330
1E
100
AcDbEntity
  8
INSTRUCT-CALLOUT
100
AcDbLine
 10
11.90585342683574
 20
8.951864133772241
 30
0.0
 11
12.19362384131406
 21
9.071615835578525
 31
0.0
  0
LINE
  5
5B4
330
1E
100
AcDbEntity
  8
INSTRUCT-CALLOUT
100
AcDbLine
 10
12.19362384131406
 20
9.071615835578525
 30
0.0
 11
12.32989238717269
 21
9.071615835578525
 31
0.0
  0
TEXT
  5
5B5
330
1E
100
AcDbEntity
  8
INSTRUCT-CALLOUT
100
AcDbText
 10
11.88649918935727
 20
9.324087089280139
 30
0.0
 40
0.125
  1
TEXT_LEADERS         TEXT_BUBBLES
  7
ROMANS
100
AcDbText
  0
TEXT
  5
5B6
330
1E
100
AcDbEntity
  8
INSTRUCT-CALLOUT
100
AcDbText
 10
11.45015545709445
 20
9.661104383755317
 30
0.0
 40
0.125
  1
BY TURNING ON THE APPROPRIATE LAYER:
  7
ROMANS
100
AcDbText
  0
TEXT
  5
5B7
330
1E
100
AcDbEntity
  8
INSTRUCT-CALLOUT
100
AcDbText
 10
11.45015545709445
 20
9.823004427242315
 30
0.0
 40
0.125
  1
CHOOSE EITHER LEADERS OR BUBBLE CALLOUTS
  7
ROMANS
100
AcDbText
  0
TEXT
  5
5B8
330
1E
100
AcDbEntity
  8
INSTRUCT-CALLOUT
100
AcDbText
 10
11.68290522614117
 20
10.1971154907172
 30
0.0
 40
0.125
  1
CHOOSING EQUIPMENT CALLOUT METHOD
  7
ROMANS
100
AcDbText
  0
LWPOLYLINE
  5
5B9
330
1E
100
AcDbEntity
  8
INSTRUCT-CALLOUT
100
AcDbPolyline
 90
        4
 70
     1
 43
0.0
 10
11.35231280619914
 20
10.14
 10
11.35231280619914
 20
8.708513978657757
 10
16.18999999999999
 20
8.708513978657757
 10
16.18999999999999
 20
10.14
  0
CIRCLE
  5
5DC
330
1E
100
AcDbEntity
  8
TEXT_BUBBLES
100
AcDbCircle
 10
5.415549959522739
 20
7.470405413282028
 30
0.0
 40
0.1562500331414542
  0
CIRCLE
  5
5DE
330
1E
100
AcDbEntity
  8
TEXT_BUBBLES
100
AcDbCircle
 10
5.415549959522739
 20
6.945405413282028
 30
0.0
 40
0.1562500331414542
  0
CIRCLE
  5
5DF
330
1E
100
AcDbEntity
  8
TEXT_BUBBLES
100
AcDbCircle
 10
5.415549959522739
 20
6.245405413282028
 30
0.0
 40
0.1562500331414542
  0
CIRCLE
  5
5E0
330
1E
100
AcDbEntity
  8
TEXT_BUBBLES
100
AcDbCircle
 10
5.415549959522739
 20
5.895405413282028
 30
0.0
 40
0.1562500331414542
  0
CIRCLE
  5
5E1
330
1E
100
AcDbEntity
  8
TEXT_BUBBLES
100
AcDbCircle
 10
5.415549959522739
 20
5.370405413282028
 30
0.0
 40
0.1562500331414542
  0
CIRCLE
  5
5E2
330
1E
100
AcDbEntity
  8
TEXT_BUBBLES
100
AcDbCircle
 10
5.415549959522739
 20
4.495405413282028
 30
0.0
 40
0.1562500331414542
  0
CIRCLE
  5
5E3
330
1E
100
AcDbEntity
  8
TEXT_BUBBLES
100
AcDbCircle
 10
5.415549959522739
 20
3.970405413282028
 30
0.0
 40
0.1562500331414542
  0
CIRCLE
  5
5E4
330
1E
100
AcDbEntity
  8
TEXT_BUBBLES
100
AcDbCircle
 10
4.543450165723382
 20
7.204398732803804
 30
0.0
 40
0.1562500331414542
  0
CIRCLE
  5
5E5
330
1E
100
AcDbEntity
  8
TEXT_BUBBLES
100
AcDbCircle
 10
4.543450165723382
 20
6.622842026099156
 30
0.0
 40
0.1562500331414542
  0
CIRCLE
  5
5E6
330
1E
100
AcDbEntity
  8
TEXT_BUBBLES
100
AcDbCircle
 10
4.543450165723382
 20
6.120230563857502
 30
0.0
 40
0.1562500331414542
  0
CIRCLE
  5
5E7
330
1E
100
AcDbEntity
  8
TEXT_BUBBLES
100
AcDbCircle
 10
4.543450165723382
 20
5.096161330788642
 30
0.0
 40
0.1562500331414542
  0
CIRCLE
  5
5E8
330
1E
100
AcDbEntity
  8
TEXT_BUBBLES
100
AcDbCircle
 10
4.549911660428143
 20
3.739230017335895
 30
0.0
 40
0.1562500331414542
  0
CIRCLE
  5
5E9
330
1E
100
AcDbEntity
  8
TEXT_BUBBLES
100
AcDbCircle
 10
3.580212928613445
 20
3.739230017335895
 30
0.0
 40
0.1562500331414542
  0
CIRCLE
  5
5EA
330
1E
100
AcDbEntity
  8
TEXT_BUBBLES
100
AcDbCircle
 10
3.047920659651315
 20
3.739230017335895
 30
0.0
 40
0.1562500331414542
  0
VIEWPORT
  5
D2
330
1A
100
AcDbEntity
 67
     1
  8
0
100
AcDbViewport
 10
6.172388059701492
 20
4.5
 30
0.0
 40
12.34477611940298
 41
9.0
 68
     1
 69
     1
 12
6.172388059701492
 22
4.5
 13
0.0
 23
0.0
 14
0.14
 24
0.14
 15
0.14
 25
0.14
 16
0.0
 26
0.0
 36
1.0
 17
0.0
 27
0.0
 37
0.0
 42
50.0
 43
0.0
 44
0.0
 45
9.0
 50
0.0
 51
0.0
 72
   100
 90
    32800
  1

281
     0
 71
     0
 74
     0
110
0.0
120
0.0
130
0.0
111
0.0
121
0.0
131
0.0
112
0.0
122
0.0
132
0.0
 79
     0
146
0.0
  0
ENDSEC
  0
SECTION
  2
OBJECTS
  0
DICTIONARY
  5
C
330
0
100
AcDbDictionary
281
     1
  3
ACAD_GROUP
350
D
  3
ACAD_LAYOUT
350
19
  3
ACAD_MLINESTYLE
350
16
  3
ACAD_PLOTSETTINGS
350
18
  3
ACAD_PLOTSTYLENAME
350
E
  3
AcadDim
350
570
  3
AcDbVariableDictionary
350
4DA
  0
DICTIONARY
  5
D
102
{ACAD_REACTORS
330
C
102
}
330
C
100
AcDbDictionary
281
     1
  0
DICTIONARY
  5
19
102
{ACAD_REACTORS
330
C
102
}
330
C
100
AcDbDictionary
281
     1
  3
Layout1
350
1D
  3
Model
350
21
  0
DICTIONARY
  5
16
102
{ACAD_REACTORS
330
C
102
}
330
C
100
AcDbDictionary
281
     1
  3
Standard
350
17
  0
DICTIONARY
  5
18
102
{ACAD_REACTORS
330
C
102
}
330
C
100
AcDbDictionary
281
     1
  0
ACDBDICTIONARYWDFLT
  5
E
102
{ACAD_REACTORS
330
C
102
}
330
C
100
AcDbDictionary
281
     1
  3
Normal
350
F
100
AcDbDictionaryWithDefault
340
F
  0
XRECORD
  5
570
102
{ACAD_REACTORS
330
C
102
}
330
C
100
AcDbXrecord
280
     1
 90
   990106
  3

 60
     4
 61
     0
 62
     1
 63
     3
 64
     0
 65
     0
 66
     0
 67
     3
 68
     1
 69
     0
 70
     0
 71
     1
 72
     0
 40
0.0
170
     1
  0
DICTIONARY
  5
4DA
102
{ACAD_REACTORS
330
C
102
}
330
C
100
AcDbDictionary
281
     1
  3
DIMASSOC
350
4DD
  3
HIDETEXT
350
4DC
  3
SORTENTS
350
4DB
  0
LAYOUT
  5
1D
102
{ACAD_REACTORS
330
19
102
}
330
19
100
AcDbPlotSettings
  1

  2
S:\AutoCAD 2002\Plotters\1055B&WDraftShaded.pc3
  4

  6

 40
0.0
 41
0.0
 42
0.0
 43
0.0
 44
0.0
 45
0.0
 46
0.0
 47
0.0
 48
0.0
 49
0.0
140
0.0
141
0.0
142
1.0
143
1.0
 70
   688
 72
     0
 73
     0
 74
     5
  7
Color.ctb
 75
    16
147
1.0
148
0.0
149
0.0
100
AcDbLayout
  1
Layout1
 70
     1
 71
     1
 10
0.0
 20
0.0
 11
12.0
 21
9.0
 12
0.0
 22
0.0
 32
0.0
 14
1.000000000000000E+20
 24
1.000000000000000E+20
 34
1.000000000000000E+20
 15
-1.000000000000000E+20
 25
-1.000000000000000E+20
 35
-1.000000000000000E+20
146
0.0
 13
0.0
 23
0.0
 33
0.0
 16
1.0
 26
0.0
 36
0.0
 17
0.0
 27
1.0
 37
0.0
 76
     0
330
1A
331
D2
  0
LAYOUT
  5
21
102
{ACAD_REACTORS
330
19
102
}
330
19
100
AcDbPlotSettings
  1

  2
OKI DOKI Color Laser.pc3
  4
Tabloid
  6

 40
5.027083396911621
 41
5.027085304260253
 42
5.027099609375
 43
5.027069091796875
 44
279.3999938964843
 45
431.7999877929687
 46
2.032
 47
1.523999999999999
 48
0.0
 49
0.0000000000000001
140
16.48999999999999
141
10.44
142
1.0
143
1.0
 70
 11940
 72
     0
 73
     1
 74
     4
  7
Color.ctb
 75
     0
147
1.0
148
0.0
149
-0.0000000000000028
100
AcDbLayout
  1
Model
 70
     1
 71
     0
 10
0.0
 20
0.0
 11
12.0
 21
9.0
 12
0.0
 22
0.0
 32
0.0
 14
0.0
 24
0.0
 34
0.0
 15
0.0
 25
0.0
 35
0.0
146
0.0
 13
0.0
 23
0.0
 33
0.0
 16
1.0
 26
0.0
 36
0.0
 17
0.0
 27
1.0
 37
0.0
 76
     0
330
1E
  0
MLINESTYLE
  5
17
102
{ACAD_REACTORS
330
16
102
}
330
16
100
AcDbMlineStyle
  2
STANDARD
 70
     0
  3

 62
   256
 51
90.0
 52
90.0
 71
     2
 49
0.5
 62
   256
  6
BYLAYER
 49
-0.5
 62
   256
  6
BYLAYER
  0
ACDBPLACEHOLDER
  5
F
102
{ACAD_REACTORS
330
E
102
}
330
E
  0
DICTIONARYVAR
  5
4DD
102
{ACAD_REACTORS
330
4DA
102
}
330
4DA
100
DictionaryVariables
280
     0
  1
1
  0
DICTIONARYVAR
  5
4DC
102
{ACAD_REACTORS
330
4DA
102
}
330
4DA
100
DictionaryVariables
280
     0
  1
1
  0
DICTIONARYVAR
  5
4DB
102
{ACAD_REACTORS
330
4DA
102
}
330
4DA
100
DictionaryVariables
280
     0
  1
1
  0
ENDSEC
  0
EOF
