  0
SECTION
  2
HEADER
  9
$ACADVER
  1
AC1015
  9
$ACADMAINTVER
 70
    13
  9
$DWGCODEPAGE
  3
ANSI_1252
  9
$INSBASE
 10
0.0
 20
0.0
 30
0.0
  9
$EXTMIN
 10
0.0
 20
0.0
 30
0.0
  9
$EXTMAX
 10
16.48999999999999
 20
10.44
 30
0.03
  9
$LIMMIN
 10
0.0
 20
0.0
  9
$LIMMAX
 10
12.0
 20
9.0
  9
$ORTHOMODE
 70
     0
  9
$REGENMODE
 70
     1
  9
$FILLMODE
 70
     1
  9
$QTEXTMODE
 70
     0
  9
$MIRRTEXT
 70
     0
  9
$LTSCALE
 40
1.0
  9
$ATTMODE
 70
     1
  9
$TEXTSIZE
 40
0.59651550821952
  9
$TRACEWID
 40
0.05
  9
$TEXTSTYLE
  7
SIMPLEX
  9
$CLAYER
  8
IMAGE
  9
$CELTYPE
  6
ByLayer
  9
$CECOLOR
 62
   256
  9
$CELTSCALE
 40
1.0
  9
$DISPSILH
 70
     0
  9
$DIMSCALE
 40
1.0
  9
$DIMASZ
 40
0.18
  9
$DIMEXO
 40
0.0625
  9
$DIMDLI
 40
0.38
  9
$DIMRND
 40
0.0
  9
$DIMDLE
 40
0.0
  9
$DIMEXE
 40
0.18
  9
$DIMTP
 40
0.0
  9
$DIMTM
 40
0.0
  9
$DIMTXT
 40
0.18
  9
$DIMCEN
 40
0.09
  9
$DIMTSZ
 40
0.0
  9
$DIMTOL
 70
     0
  9
$DIMLIM
 70
     0
  9
$DIMTIH
 70
     1
  9
$DIMTOH
 70
     1
  9
$DIMSE1
 70
     0
  9
$DIMSE2
 70
     0
  9
$DIMTAD
 70
     0
  9
$DIMZIN
 70
     0
  9
$DIMBLK
  1

  9
$DIMASO
 70
     1
  9
$DIMSHO
 70
     1
  9
$DIMPOST
  1

  9
$DIMAPOST
  1

  9
$DIMALT
 70
     0
  9
$DIMALTD
 70
     2
  9
$DIMALTF
 40
25.4
  9
$DIMLFAC
 40
1.0
  9
$DIMTOFL
 70
     0
  9
$DIMTVP
 40
0.0
  9
$DIMTIX
 70
     0
  9
$DIMSOXD
 70
     0
  9
$DIMSAH
 70
     0
  9
$DIMBLK1
  1

  9
$DIMBLK2
  1

  9
$DIMSTYLE
  2
Standard
  9
$DIMCLRD
 70
     0
  9
$DIMCLRE
 70
     0
  9
$DIMCLRT
 70
     0
  9
$DIMTFAC
 40
1.0
  9
$DIMGAP
 40
0.09
  9
$DIMJUST
 70
     0
  9
$DIMSD1
 70
     0
  9
$DIMSD2
 70
     0
  9
$DIMTOLJ
 70
     1
  9
$DIMTZIN
 70
     0
  9
$DIMALTZ
 70
     0
  9
$DIMALTTZ
 70
     0
  9
$DIMUPT
 70
     0
  9
$DIMDEC
 70
     4
  9
$DIMTDEC
 70
     4
  9
$DIMALTU
 70
     2
  9
$DIMALTTD
 70
     2
  9
$DIMTXSTY
  7
STANDARD
  9
$DIMAUNIT
 70
     0
  9
$DIMADEC
 70
     0
  9
$DIMALTRND
 40
0.0
  9
$DIMAZIN
 70
     0
  9
$DIMDSEP
 70
    46
  9
$DIMATFIT
 70
     3
  9
$DIMFRAC
 70
     0
  9
$DIMLDRBLK
  1

  9
$DIMLUNIT
 70
     2
  9
$DIMLWD
 70
    -2
  9
$DIMLWE
 70
    -2
  9
$DIMTMOVE
 70
     2
  9
$LUNITS
 70
     2
  9
$LUPREC
 70
     4
  9
$SKETCHINC
 40
0.1
  9
$FILLETRAD
 40
0.0
  9
$AUNITS
 70
     0
  9
$AUPREC
 70
     0
  9
$MENU
  1
ACAD
  9
$ELEVATION
 40
0.0
  9
$PELEVATION
 40
0.0
  9
$THICKNESS
 40
0.0
  9
$LIMCHECK
 70
     0
  9
$CHAMFERA
 40
0.0
  9
$CHAMFERB
 40
0.0
  9
$CHAMFERC
 40
0.0
  9
$CHAMFERD
 40
0.0
  9
$SKPOLY
 70
     0
  9
$TDCREATE
 40
2449665.668368866
  9
$TDUCREATE
 40
2449665.960035532
  9
$TDUPDATE
 40
2453019.468537199
  9
$TDUUPDATE
 40
2453019.760203865
  9
$TDINDWG
 40
0.1796499537
  9
$TDUSRTIMER
 40
0.1796499537
  9
$USRTIMER
 70
     1
  9
$ANGBASE
 50
0.0
  9
$ANGDIR
 70
     0
  9
$PDMODE
 70
     0
  9
$PDSIZE
 40
0.0
  9
$PLINEWID
 40
0.0
  9
$SPLFRAME
 70
     0
  9
$SPLINETYPE
 70
     6
  9
$SPLINESEGS
 70
     8
  9
$HANDSEED
  5
4ED
  9
$SURFTAB1
 70
     6
  9
$SURFTAB2
 70
     6
  9
$SURFTYPE
 70
     6
  9
$SURFU
 70
     6
  9
$SURFV
 70
     6
  9
$UCSBASE
  2

  9
$UCSNAME
  2

  9
$UCSORG
 10
0.0
 20
0.0
 30
0.0
  9
$UCSXDIR
 10
1.0
 20
0.0
 30
0.0
  9
$UCSYDIR
 10
0.0
 20
1.0
 30
0.0
  9
$UCSORTHOREF
  2

  9
$UCSORTHOVIEW
 70
     0
  9
$UCSORGTOP
 10
0.0
 20
0.0
 30
0.0
  9
$UCSORGBOTTOM
 10
0.0
 20
0.0
 30
0.0
  9
$UCSORGLEFT
 10
0.0
 20
0.0
 30
0.0
  9
$UCSORGRIGHT
 10
0.0
 20
0.0
 30
0.0
  9
$UCSORGFRONT
 10
0.0
 20
0.0
 30
0.0
  9
$UCSORGBACK
 10
0.0
 20
0.0
 30
0.0
  9
$PUCSBASE
  2

  9
$PUCSNAME
  2

  9
$PUCSORG
 10
0.0
 20
0.0
 30
0.0
  9
$PUCSXDIR
 10
1.0
 20
0.0
 30
0.0
  9
$PUCSYDIR
 10
0.0
 20
1.0
 30
0.0
  9
$PUCSORTHOREF
  2

  9
$PUCSORTHOVIEW
 70
     0
  9
$PUCSORGTOP
 10
0.0
 20
0.0
 30
0.0
  9
$PUCSORGBOTTOM
 10
0.0
 20
0.0
 30
0.0
  9
$PUCSORGLEFT
 10
0.0
 20
0.0
 30
0.0
  9
$PUCSORGRIGHT
 10
0.0
 20
0.0
 30
0.0
  9
$PUCSORGFRONT
 10
0.0
 20
0.0
 30
0.0
  9
$PUCSORGBACK
 10
0.0
 20
0.0
 30
0.0
  9
$USERI1
 70
     0
  9
$USERI2
 70
     0
  9
$USERI3
 70
     0
  9
$USERI4
 70
     0
  9
$USERI5
 70
     0
  9
$USERR1
 40
0.0
  9
$USERR2
 40
0.0
  9
$USERR3
 40
0.0
  9
$USERR4
 40
0.0
  9
$USERR5
 40
0.0
  9
$WORLDVIEW
 70
     1
  9
$SHADEDGE
 70
     3
  9
$SHADEDIF
 70
    70
  9
$TILEMODE
 70
     1
  9
$MAXACTVP
 70
    16
  9
$PINSBASE
 10
0.0
 20
0.0
 30
0.0
  9
$PLIMCHECK
 70
     0
  9
$PEXTMIN
 10
1.000000000000000E+20
 20
1.000000000000000E+20
 30
1.000000000000000E+20
  9
$PEXTMAX
 10
-1.000000000000000E+20
 20
-1.000000000000000E+20
 30
-1.000000000000000E+20
  9
$PLIMMIN
 10
0.0
 20
0.0
  9
$PLIMMAX
 10
12.0
 20
9.0
  9
$UNITMODE
 70
     0
  9
$VISRETAIN
 70
     0
  9
$PLINEGEN
 70
     1
  9
$PSLTSCALE
 70
     1
  9
$TREEDEPTH
 70
  3020
  9
$CMLSTYLE
  2
Standard
  9
$CMLJUST
 70
     0
  9
$CMLSCALE
 40
1.0
  9
$PROXYGRAPHICS
 70
     1
  9
$MEASUREMENT
 70
     0
  9
$CELWEIGHT
370
    -1
  9
$ENDCAPS
280
     0
  9
$JOINSTYLE
280
     0
  9
$LWDISPLAY
290
     0
  9
$INSUNITS
 70
     0
  9
$HYPERLINKBASE
  1

  9
$STYLESHEET
  1
Color.ctb
  9
$XEDIT
290
     1
  9
$CEPSNTYPE
380
     0
  9
$PSTYLEMODE
290
     1
  9
$FINGERPRINTGUID
  2
{063EC763-6795-44CE-BCAB-E440AC20D1F4}
  9
$VERSIONGUID
  2
{31C1AC75-31B6-49A0-8BAE-8FF97F0B1A6B}
  9
$EXTNAMES
290
     1
  9
$PSVPSCALE
 40
0.0
  9
$OLESTARTUP
290
     0
  0
ENDSEC
  0
SECTION
  2
CLASSES
  0
CLASS
  1
ACDBDICTIONARYWDFLT
  2
AcDbDictionaryWithDefault
  3
AutoCAD 2000
 90
        0
280
     0
281
     0
  0
CLASS
  1
ACDBPLACEHOLDER
  2
AcDbPlaceHolder
  3
AutoCAD 2000
 90
        0
280
     0
281
     0
  0
CLASS
  1
LAYOUT
  2
AcDbLayout
  3
AutoCAD 2000
 90
        0
280
     0
281
     0
  0
CLASS
  1
DICTIONARYVAR
  2
AcDbDictionaryVar
  3
AutoCAD 2000
 90
        0
280
     0
281
     0
  0
ENDSEC
  0
SECTION
  2
TABLES
  0
TABLE
  2
VPORT
  5
8
330
0
100
AcDbSymbolTable
 70
     2
  0
VPORT
  5
4EC
330
8
100
AcDbSymbolTableRecord
100
AcDbViewportTableRecord
  2
*Active
 70
     0
 10
0.0
 20
0.0
 11
1.0
 21
1.0
 12
8.245000038393772
 22
5.220000024307517
 13
0.0
 23
0.0
 14
0.14
 24
0.14
 15
0.14
 25
0.14
 16
0.0
 26
0.0
 36
1.0
 17
0.0
 27
0.0
 37
0.0
 40
11.0072450655855
 41
1.505548705302096
 42
50.0
 43
0.0
 44
0.0
 50
0.0
 51
0.0
 71
     0
 72
  5000
 73
     1
 74
     1
 75
     0
 76
     0
 77
     0
 78
     0
281
     0
 65
     1
110
0.0
120
0.0
130
0.0
111
1.0
121
0.0
131
0.0
112
0.0
122
1.0
132
0.0
 79
     0
146
0.0
  0
ENDTAB
  0
TABLE
  2
LTYPE
  5
5
330
0
100
AcDbSymbolTable
 70
     1
  0
LTYPE
  5
13
330
5
100
AcDbSymbolTableRecord
100
AcDbLinetypeTableRecord
  2
ByBlock
 70
     0
  3

 72
    65
 73
     0
 40
0.0
  0
LTYPE
  5
14
330
5
100
AcDbSymbolTableRecord
100
AcDbLinetypeTableRecord
  2
ByLayer
 70
     0
  3

 72
    65
 73
     0
 40
0.0
  0
LTYPE
  5
15
330
5
100
AcDbSymbolTableRecord
100
AcDbLinetypeTableRecord
  2
CONTINUOUS
 70
     0
  3
Solid line
 72
    65
 73
     0
 40
0.0
  0
ENDTAB
  0
TABLE
  2
LAYER
  5
2
330
0
100
AcDbSymbolTable
 70
     6
  0
LAYER
  5
10
330
2
100
AcDbSymbolTableRecord
100
AcDbLayerTableRecord
  2
0
 70
     0
 62
     7
  6
CONTINUOUS
370
    -3
390
F
  0
LAYER
  5
2B
330
2
100
AcDbSymbolTableRecord
100
AcDbLayerTableRecord
  2
TEXT_BUBBLES
 70
     0
 62
     6
  6
CONTINUOUS
370
    -3
390
F
  0
LAYER
  5
2C
330
2
100
AcDbSymbolTableRecord
100
AcDbLayerTableRecord
  2
IMAGE
 70
     0
 62
     7
  6
CONTINUOUS
370
    -3
390
F
  0
LAYER
  5
2F
330
2
100
AcDbSymbolTableRecord
100
AcDbLayerTableRecord
  2
TEXT_LEADERS
 70
     0
 62
    -5
  6
CONTINUOUS
370
    -3
390
F
  0
LAYER
  5
31
330
2
100
AcDbSymbolTableRecord
100
AcDbLayerTableRecord
  2
INSTRUCT-CALLOUT
 70
     0
 62
     4
  6
CONTINUOUS
370
    -3
390
F
  0
LAYER
  5
42B
330
2
100
AcDbSymbolTableRecord
100
AcDbLayerTableRecord
  2
TITLE
 70
     0
 62
     4
  6
CONTINUOUS
370
    -3
390
F
  0
ENDTAB
  0
TABLE
  2
STYLE
  5
3
330
0
100
AcDbSymbolTable
 70
     6
  0
STYLE
  5
11
330
3
100
AcDbSymbolTableRecord
100
AcDbTextStyleTableRecord
  2
STANDARD
 70
     0
 40
0.0
 41
1.0
 50
0.0
 71
     0
 42
0.2
  3
txt
  4

  0
STYLE
  5
25
330
3
100
AcDbSymbolTableRecord
100
AcDbTextStyleTableRecord
  2
ROMANS
 70
     0
 40
0.0
 41
1.0
 50
0.0
 71
     0
 42
0.59651550821952
  3
ROMANS.SHX
  4

  0
STYLE
  5
26
330
3
100
AcDbSymbolTableRecord
100
AcDbTextStyleTableRecord
  2
SIMPLEX
 70
     0
 40
0.0
 41
1.0
 50
0.0
 71
     0
 42
0.59651550821952
  3
SIMPLEX
  4

  0
STYLE
  5
42C
330
3
100
AcDbSymbolTableRecord
100
AcDbTextStyleTableRecord
  2
L100
 70
     0
 40
0.1
 41
1.0
 50
0.0
 71
     0
 42
0.1
  3
romans.shx
  4

  0
STYLE
  5
42D
330
3
100
AcDbSymbolTableRecord
100
AcDbTextStyleTableRecord
  2
L200
 70
     0
 40
0.2
 41
1.0
 50
0.0
 71
     0
 42
0.081
  3
ARIAL.TTF
  4

1001
ACAD
1000
Arial
1071
       34
  0
STYLE
  5
42E
330
3
100
AcDbSymbolTableRecord
100
AcDbTextStyleTableRecord
  2
L80
 70
     0
 40
0.08
 41
1.0
 50
0.0
 71
     0
 42
0.08
  3
ROMANS
  4

  0
ENDTAB
  0
TABLE
  2
VIEW
  5
6
330
0
100
AcDbSymbolTable
 70
     0
  0
ENDTAB
  0
TABLE
  2
UCS
  5
7
330
0
100
AcDbSymbolTable
 70
     0
  0
ENDTAB
  0
TABLE
  2
APPID
  5
9
330
0
100
AcDbSymbolTable
 70
     3
  0
APPID
  5
12
330
9
100
AcDbSymbolTableRecord
100
AcDbRegAppTableRecord
  2
ACAD
 70
     0
  0
APPID
  5
423
330
9
100
AcDbSymbolTableRecord
100
AcDbRegAppTableRecord
  2
DCO15
 70
     0
  0
APPID
  5
42F
330
9
100
AcDbSymbolTableRecord
100
AcDbRegAppTableRecord
  2
RAK
 70
     0
  0
ENDTAB
  0
TABLE
  2
DIMSTYLE
  5
A
330
0
100
AcDbSymbolTable
 70
     1
100
AcDbDimStyleTable
 71
     0
  0
DIMSTYLE
105
414
330
A
100
AcDbSymbolTableRecord
100
AcDbDimStyleTableRecord
  2
Standard
 70
     0
340
11
  0
ENDTAB
  0
TABLE
  2
BLOCK_RECORD
  5
1
330
0
100
AcDbSymbolTable
 70
     2
  0
BLOCK_RECORD
  5
1E
330
1
100
AcDbSymbolTableRecord
100
AcDbBlockTableRecord
  2
*Model_Space
340
21
  0
BLOCK_RECORD
  5
1A
330
1
100
AcDbSymbolTableRecord
100
AcDbBlockTableRecord
  2
*Paper_Space
340
1D
  0
BLOCK_RECORD
  5
22
330
1
100
AcDbSymbolTableRecord
100
AcDbBlockTableRecord
  2
*X0
340
0
102
{BLKREFS
331
155
102
}
  0
BLOCK_RECORD
  5
430
330
1
100
AcDbSymbolTableRecord
100
AcDbBlockTableRecord
  2
titleblock
340
0
102
{BLKREFS
331
43F
102
}
  0
ENDTAB
  0
ENDSEC
  0
SECTION
  2
BLOCKS
  0
BLOCK
  5
35
330
1E
100
AcDbEntity
  8
0
100
AcDbBlockBegin
  2
*Model_Space
 70
     0
 10
0.0
 20
0.0
 30
0.0
  3
*Model_Space
  1

  0
ENDBLK
  5
36
330
1E
100
AcDbEntity
  8
0
100
AcDbBlockEnd
  0
BLOCK
  5
33
330
1A
100
AcDbEntity
 67
     1
  8
0
100
AcDbBlockBegin
  2
*Paper_Space
 70
     0
 10
0.0
 20
0.0
 30
0.0
  3
*Paper_Space
  1

  0
ENDBLK
  5
34
330
1A
100
AcDbEntity
 67
     1
  8
0
100
AcDbBlockEnd
  0
BLOCK
  5
37
330
22
100
AcDbEntity
  8
0
100
AcDbBlockBegin
  2
*X0
 70
     1
 10
0.0
 20
0.0
 30
0.0
  3
*X0
  1

  0
LINE
  5
38
330
22
100
AcDbEntity
  8
0
 62
     0
100
AcDbLine
 10
2.182277667596367
 20
1.970145633240403
 30
0.0
 11
2.200167573778146
 21
1.988035539422182
 31
0.0
  0
LINE
  5
39
330
22
100
AcDbEntity
  8
0
 62
     0
100
AcDbLine
 10
2.29782192174813
 20
2.085689887392166
 30
0.0
 11
2.314984512682979
 21
2.102852478327015
 31
0.0
  0
LINE
  5
3A
330
22
100
AcDbEntity
  8
0
 62
     0
100
AcDbLine
 10
2.288620796416604
 20
2.103005266355135
 30
0.0
 11
2.298885854904866
 21
2.113270324843397
 31
0.0
  0
LINE
  5
3B
330
22
100
AcDbEntity
  8
0
 62
     0
100
AcDbLine
 10
2.2753798351199
 20
2.116280809352927
 30
0.0
 11
2.280609891690813
 21
2.121510865923839
 31
0.0
  0
LINE
  5
3C
330
22
100
AcDbEntity
  8
0
 62
     0
100
AcDbLine
 10
2.258104081759679
 20
2.125521560287201
 30
0.0
 11
2.259725025225472
 21
2.127142503752994
 31
0.0
  0
LINE
  5
3D
330
22
100
AcDbEntity
  8
0
 62
     0
100
AcDbLine
 10
2.171288611474819
 20
1.932640072824359
 30
0.0
 11
2.237699223905385
 21
1.999050685254925
 31
0.0
  0
LINE
  5
3E
330
22
100
AcDbEntity
  8
0
 62
     0
100
AcDbLine
 10
2.301476857640116
 20
2.062828318989656
 30
0.0
 11
2.329107592040394
 21
2.090459053389935
 31
0.0
  0
LINE
  5
3F
330
22
100
AcDbEntity
  8
0
 62
     0
100
AcDbLine
 10
2.175645446803893
 20
1.910480403858938
 30
0.0
 11
2.341311424122982
 21
2.076146381178026
 31
0.0
  0
LINE
  5
40
330
22
100
AcDbEntity
  8
0
 62
     0
100
AcDbLine
 10
2.185275754553761
 20
1.89359420731431
 30
0.0
 11
2.351527027677813
 21
2.059845480438362
 31
0.0
  0
LINE
  5
41
330
22
100
AcDbEntity
  8
0
 62
     0
100
AcDbLine
 10
2.198896029418179
 20
1.880697977884233
 30
0.0
 11
2.359535312936381
 21
2.041337261402435
 31
0.0
  0
LINE
  5
42
330
22
100
AcDbEntity
  8
0
 62
     0
100
AcDbLine
 10
2.216612080391566
 20
1.871897524563124
 30
0.0
 11
2.364872975546216
 21
2.020158419717775
 31
0.0
  0
LINE
  5
43
330
22
100
AcDbEntity
  8
0
 62
     0
100
AcDbLine
 10
2.240107376620533
 20
1.868876316497596
 30
0.0
 11
2.366544058459199
 21
1.995312998336262
 31
0.0
  0
LINE
  5
44
330
22
100
AcDbEntity
  8
0
 62
     0
100
AcDbLine
 10
2.271354660518765
 20
1.873607096101333
 30
0.0
 11
2.361813278855462
 21
1.96406571443803
 31
0.0
  0
ENDBLK
  5
45
330
22
100
AcDbEntity
  8
0
100
AcDbBlockEnd
  0
BLOCK
  5
43C
330
430
100
AcDbEntity
  8
0
100
AcDbBlockBegin
  2
titleblock
 70
     2
 10
0.0
 20
0.0
 30
0.0
  3
titleblock
  1

  0
LWPOLYLINE
  5
431
330
430
100
AcDbEntity
  8
IMAGE
100
AcDbPolyline
 90
        4
 70
     1
 43
0.0
 10
0.0
 20
0.0
 10
16.48999999999999
 20
0.0000000000000001
 10
16.48999999999999
 20
10.44
 10
0.0
 20
10.44
  0
ATTDEF
  5
432
330
430
100
AcDbEntity
  8
TITLE
100
AcDbText
 10
0.5055556038023421
 20
0.7842270964783673
 30
0.0
 40
0.2
  1
D
  7
L200
 72
     4
 11
0.6064423705144839
 21
0.8842270964783672
 31
0.0
100
AcDbAttributeDefinition
  3
#
  2
D
 70
     0
  0
ATTDEF
  5
433
330
430
100
AcDbEntity
  8
TITLE
100
AcDbText
 10
1.231442370514484
 20
1.34371230274675
 30
0.0
 40
0.2
  1

  7
L200
100
AcDbAttributeDefinition
  3
DETAIL TITLE TOP LINE
  2
TITLE1
 70
     0
  0
ATTDEF
  5
434
330
430
100
AcDbEntity
  8
TITLE
100
AcDbText
 10
1.231442370514484
 20
0.9842270964783674
 30
0.0
 40
0.2
  1
TITLE
  7
L200
100
AcDbAttributeDefinition
  3
DETAIL TITLE TOP 2ND LINE
  2
TITLE2
 70
     0
  0
ATTDEF
  5
435
330
430
100
AcDbEntity
  8
TITLE
100
AcDbText
 10
2.713645751168312
 20
0.5927927664583189
 30
0.0
 40
0.2
  1
TITLE2
  7
L200
100
AcDbAttributeDefinition
  3
DETAIL TITLE BOTTOM 1
  2
TITLE3
 70
     0
  0
ATTDEF
  5
436
330
430
100
AcDbEntity
  8
TITLE
100
AcDbText
 10
2.713645751168312
 20
0.2692560808167741
 30
0.0
 40
0.2
  1

  7
L200
100
AcDbAttributeDefinition
  3
DETAIL TITLE BOTTOM 2
  2
TITLE4
 70
     0
  0
ATTDEF
  5
437
330
430
100
AcDbEntity
  8
TITLE
 62
     7
100
AcDbText
 10
8.177214829966379
 20
0.9696027915446398
 30
0.0
 40
0.08
  1
-
  7
L80
 72
     2
 11
8.261024353775903
 21
0.9696027915446398
 31
0.0
100
AcDbAttributeDefinition
  3
REVISION DATE
  2
REVISED
 70
     0
  0
ATTDEF
  5
438
330
430
100
AcDbEntity
  8
TITLE
 62
     7
100
AcDbText
 10
0.2639423705144838
 20
0.0847116480207214
 30
0.0
 40
0.08
  1
-
  7
L80
100
AcDbAttributeDefinition
  3
DWG-NAME
  2
DWG-NAME
 70
     0
  0
LWPOLYLINE
  5
439
330
430
100
AcDbEntity
  8
TITLE
 62
     3
100
AcDbPolyline
 90
        2
 70
     1
 43
0.03
 10
0.6064423705144839
 20
0.5417270964783675
 42
0.9999999999999998
 10
0.6064423705144839
 20
1.226727096478367
 42
0.9999999999999998
  0
ATTDEF
  5
43A
330
430
100
AcDbEntity
  8
TITLE
 62
     7
100
AcDbText
 10
1.231442370514484
 20
0.7005637793954894
 30
0.0
 40
0.1
  1
N.T.S.
  7
L100
100
AcDbAttributeDefinition
  3
SCALE
  2
SCALE
 70
     0
  0
LWPOLYLINE
  5
43B
330
430
100
AcDbEntity
  8
TITLE
 62
     3
100
AcDbPolyline
 90
        2
 70
     0
 43
0.04
 39
0.03
 10
0.9489423705144833
 20
0.8842270964783672
 10
8.261024353775903
 20
0.8842270964783672
  0
ENDBLK
  5
43D
330
430
100
AcDbEntity
  8
0
100
AcDbBlockEnd
  0
ENDSEC
  0
SECTION
  2
ENTITIES
  0
TEXT
  5
B3
330
1E
100
AcDbEntity
  8
TEXT_BUBBLES
100
AcDbText
 10
4.588362519113744
 20
5.929098772953555
 30
0.0
 40
0.10000000149
  1

  7
ROMANS
100
AcDbText
  0
TEXT
  5
B5
330
1E
100
AcDbEntity
  8
TEXT_BUBBLES
100
AcDbText
 10
4.588362519113744
 20
3.755036997746555
 30
0.0
 40
0.10000000149
  1

  7
ROMANS
100
AcDbText
  0
TEXT
  5
B6
330
1E
100
AcDbEntity
  8
TEXT_BUBBLES
100
AcDbText
 10
4.588362519113744
 20
5.618518519352554
 30
0.0
 40
0.10000000149
  1

  7
ROMANS
100
AcDbText
  0
TEXT
  5
B7
330
1E
100
AcDbEntity
  8
TEXT_BUBBLES
100
AcDbText
 10
16.90309906005899
 20
1.433911323547
 30
0.0
 40
0.10000000149
  1

  7
ROMANS
100
AcDbText
  0
TEXT
  5
B8
330
1E
100
AcDbEntity
  8
TEXT_BUBBLES
100
AcDbText
 10
16.90309906005899
 20
0.968012332916
 30
0.0
 40
0.10000000149
  1

  7
ROMANS
100
AcDbText
  0
TEXT
  5
B9
330
1E
100
AcDbEntity
  8
TEXT_BUBBLES
100
AcDbText
 10
16.90309906005899
 20
1.12331199646
 30
0.0
 40
0.10000000149
  1

  7
ROMANS
100
AcDbText
  0
TEXT
  5
BA
330
1E
100
AcDbEntity
  8
TEXT_BUBBLES
100
AcDbText
 10
16.90309906005899
 20
1.744510650635
 30
0.0
 40
0.10000000149
  1

  7
ROMANS
100
AcDbText
  0
TEXT
  5
BB
330
1E
100
AcDbEntity
  8
TEXT_BUBBLES
100
AcDbText
 10
16.90309906005899
 20
2.521008968353
 30
0.0
 40
0.10000000149
  1

  7
ROMANS
100
AcDbText
  0
TEXT
  5
BC
330
1E
100
AcDbEntity
  8
TEXT_BUBBLES
100
AcDbText
 10
16.90309906005899
 20
2.986907958984
 30
0.0
 40
0.10000000149
  1

  7
ROMANS
100
AcDbText
  0
TEXT
  5
BD
330
1E
100
AcDbEntity
  8
TEXT_BUBBLES
100
AcDbText
 10
16.90309906005899
 20
2.831608295440999
 30
0.0
 40
0.10000000149
  1

  7
ROMANS
100
AcDbText
  0
TEXT
  5
BE
330
1E
100
AcDbEntity
  8
TEXT_BUBBLES
100
AcDbText
 10
4.588362519113744
 20
3.133876490543554
 30
0.0
 40
0.10000000149
  1

  7
ROMANS
100
AcDbText
  0
TEXT
  5
BF
330
1E
100
AcDbEntity
  8
TEXT_BUBBLES
100
AcDbText
 10
16.90309906005899
 20
2.210409641266
 30
0.0
 40
0.10000000149
  1

  7
ROMANS
100
AcDbText
  0
TEXT
  5
C0
330
1E
100
AcDbEntity
  8
TEXT_BUBBLES
100
AcDbText
 10
16.90309906005899
 20
2.055109977722
 30
0.0
 40
0.10000000149
  1

  7
ROMANS
100
AcDbText
  0
TEXT
  5
C1
330
1E
100
AcDbEntity
  8
TEXT_BUBBLES
100
AcDbText
 10
4.588362519113744
 20
4.842067885349554
 30
0.0
 40
0.10000000149
  1

  7
ROMANS
100
AcDbText
  0
TEXT
  5
C2
330
1E
100
AcDbEntity
  8
TEXT_BUBBLES
100
AcDbText
 10
4.588362519113744
 20
6.394969153355554
 30
0.0
 40
0.10000000149
  1

  7
ROMANS
100
AcDbText
  0
TEXT
  5
C3
330
1E
100
AcDbEntity
  8
TEXT_BUBBLES
100
AcDbText
 10
4.588362519113744
 20
5.152648138950555
 30
0.0
 40
0.10000000149
  1

  7
ROMANS
100
AcDbText
  0
TEXT
  5
C4
330
1E
100
AcDbEntity
  8
TEXT_BUBBLES
100
AcDbText
 10
4.588362519113744
 20
4.065617251347554
 30
0.0
 40
0.10000000149
  1

  7
ROMANS
100
AcDbText
  0
TEXT
  5
C5
330
1E
100
AcDbEntity
  8
TEXT_BUBBLES
100
AcDbText
 10
4.588362519113744
 20
3.444456744145555
 30
0.0
 40
0.10000000149
  1

  7
ROMANS
100
AcDbText
  0
TEXT
  5
C6
330
1E
100
AcDbEntity
  8
TEXT_BUBBLES
100
AcDbText
 10
4.943858846179014
 20
7.711170525654319
 30
0.0
 40
0.125
  1
1
  7
ROMANS
 72
     4
 11
4.994454084274252
 21
7.773670525654319
 31
0.0
100
AcDbText
  0
TEXT
  5
C9
330
1E
100
AcDbEntity
  8
TEXT_BUBBLES
100
AcDbText
 10
5.26627181
 20
4.741706289999999
 30
0.0
 40
0.125
  1
  (LENGTH AS REQUIRED)
  7
SIMPLEX
100
AcDbText
  0
TEXT
  5
CB
330
1E
100
AcDbEntity
  8
TEXT_BUBBLES
100
AcDbText
 10
5.26627181
 20
5.26670629
 30
0.0
 40
0.125
  1
PVC SCH 40 STREET ELL
  7
SIMPLEX
100
AcDbText
  0
TEXT
  5
CC
330
1E
100
AcDbEntity
  8
TEXT_BUBBLES
100
AcDbText
 10
5.26627181
 20
4.916706289999999
 30
0.0
 40
0.125
  1
PVC SCH 80 NIPPLE
  7
SIMPLEX
100
AcDbText
  0
TEXT
  5
CD
330
1E
100
AcDbEntity
  8
TEXT_BUBBLES
100
AcDbText
 10
5.26627181
 20
4.041706289999999
 30
0.0
 40
0.125
  1
PVC SCH 40 TEE OR ELL
  7
SIMPLEX
100
AcDbText
  0
TEXT
  5
CE
330
1E
100
AcDbEntity
  8
TEXT_BUBBLES
100
AcDbText
 10
5.26627181
 20
4.39170629
 30
0.0
 40
0.125
  1
PVC LATERAL PIPE
  7
SIMPLEX
100
AcDbText
  0
TEXT
  5
CF
330
1E
100
AcDbEntity
  8
TEXT_BUBBLES
100
AcDbText
 10
5.26627181
 20
5.616706289999999
 30
0.0
 40
0.125
  1
PVC SCH 40 ELL
  7
SIMPLEX
100
AcDbText
  0
TEXT
  5
D0
330
1E
100
AcDbEntity
  8
TEXT_BUBBLES
100
AcDbText
 10
5.26627181
 20
6.666706289999999
 30
0.0
 40
0.125
  1
UV RADIATION RESISTANT
  7
SIMPLEX
100
AcDbText
  0
TEXT
  5
D1
330
1E
100
AcDbEntity
  8
TEXT_BUBBLES
100
AcDbText
 10
5.26627181
 20
6.491706289999999
 30
0.0
 40
0.125
  1
  PVC SCH 80 NIPPLE
  7
SIMPLEX
100
AcDbText
  0
TEXT
  5
D2
330
1E
100
AcDbEntity
  8
TEXT_BUBBLES
100
AcDbText
 10
5.26627181
 20
6.316706289999999
 30
0.0
 40
0.125
  1
  (LENGTH AS REQUIRED)
  7
SIMPLEX
100
AcDbText
  0
TEXT
  5
D3
330
1E
100
AcDbEntity
  8
TEXT_BUBBLES
100
AcDbText
 10
5.26627181
 20
3.691706289999999
 30
0.0
 40
0.125
  1
1-INCH GALVANIZED STEEL PIPE
  7
SIMPLEX
100
AcDbText
  0
TEXT
  5
D4
330
1E
100
AcDbEntity
  8
TEXT_BUBBLES
100
AcDbText
 10
5.26627181
 20
3.341706289999999
 30
0.0
 40
0.125
  1
  CLAMPS OR EQUIVALENT
  7
SIMPLEX
100
AcDbText
  0
TEXT
  5
D5
330
1E
100
AcDbEntity
  8
TEXT_BUBBLES
100
AcDbText
 10
5.26627181
 20
3.16670629
 30
0.0
 40
0.125
  1
  SUPPORT SYSTEM
  7
SIMPLEX
100
AcDbText
  0
TEXT
  5
D7
330
1E
100
AcDbEntity
  8
TEXT_BUBBLES
100
AcDbText
 10
4.931954084274252
 20
5.961170525654319
 30
0.0
 40
0.125
  1
4
  7
ROMANS
 72
     4
 11
4.994454084274252
 21
6.023670525654319
 31
0.0
100
AcDbText
  0
TEXT
  5
D8
330
1E
100
AcDbEntity
  8
TEXT_BUBBLES
100
AcDbText
 10
5.26627181
 20
7.71670629
 30
0.0
 40
0.125
  1
IMPACT SPRINKLER:
  7
SIMPLEX
100
AcDbText
  0
TEXT
  5
D9
330
1E
100
AcDbEntity
  8
TEXT_BUBBLES
100
AcDbText
 10
5.26627181
 20
7.541706289999999
 30
0.0
 40
0.125
  1
  RAIN BIRD 2045-PJ MAXI-BIRD
  7
SIMPLEX
100
AcDbText
  0
TEXT
  5
DB
330
1E
100
AcDbEntity
  8
TEXT_BUBBLES
100
AcDbText
 10
4.934930274750443
 20
6.661170525654318
 30
0.0
 40
0.125
  1
3
  7
ROMANS
 72
     4
 11
4.994454084274252
 21
6.723670525654318
 31
0.0
100
AcDbText
  0
TEXT
  5
DC
330
1E
100
AcDbEntity
  8
TEXT_BUBBLES
100
AcDbText
 10
5.26627181
 20
5.96670629
 30
0.0
 40
0.125
  1
PLANT MATERIAL
  7
SIMPLEX
100
AcDbText
  0
TEXT
  5
DD
330
1E
100
AcDbEntity
  8
TEXT_BUBBLES
100
AcDbText
 10
5.26627181
 20
2.81670629000001
 30
0.0
 40
0.125
  1
FINISH GRADE/TOP OF MULCH
  7
SIMPLEX
100
AcDbText
  0
TEXT
  5
DF
330
1E
100
AcDbEntity
  8
TEXT_BUBBLES
100
AcDbText
 10
4.934930274750443
 20
5.611170525654318
 30
0.0
 40
0.125
  1
5
  7
ROMANS
 72
     4
 11
4.994454084274252
 21
5.673670525654318
 31
0.0
100
AcDbText
  0
TEXT
  5
E1
330
1E
100
AcDbEntity
  8
TEXT_BUBBLES
100
AcDbText
 10
4.931954084274252
 20
5.261170525654319
 30
0.0
 40
0.125
  1
6
  7
ROMANS
 72
     4
 11
4.994454084274252
 21
5.323670525654319
 31
0.0
100
AcDbText
  0
TEXT
  5
E3
330
1E
100
AcDbEntity
  8
TEXT_BUBBLES
100
AcDbText
 10
4.934930274750443
 20
4.911170525654318
 30
0.0
 40
0.125
  1
7
  7
ROMANS
 72
     4
 11
4.994454084274252
 21
4.973670525654318
 31
0.0
100
AcDbText
  0
TEXT
  5
E5
330
1E
100
AcDbEntity
  8
TEXT_BUBBLES
100
AcDbText
 10
4.934930274750443
 20
4.386170525654319
 30
0.0
 40
0.125
  1
8
  7
ROMANS
 72
     4
 11
4.994454084274252
 21
4.448670525654319
 31
0.0
100
AcDbText
  0
TEXT
  5
E7
330
1E
100
AcDbEntity
  8
TEXT_BUBBLES
100
AcDbText
 10
4.937906465226634
 20
4.036170525654318
 30
0.0
 40
0.125
  1
9
  7
ROMANS
 72
     4
 11
4.994454084274252
 21
4.098670525654318
 31
0.0
100
AcDbText
  0
TEXT
  5
E9
330
1E
100
AcDbEntity
  8
TEXT_BUBBLES
100
AcDbText
 10
4.866477893798061
 20
3.686170525654318
 30
0.0
 40
0.125
  1
10
  7
ROMANS
 72
     4
 11
4.994454084274252
 21
3.748670525654318
 31
0.0
100
AcDbText
  0
TEXT
  5
EA
330
1E
100
AcDbEntity
  8
TEXT_BUBBLES
100
AcDbText
 10
4.934930274750443
 20
7.186170525654318
 30
0.0
 40
0.125
  1
2
  7
ROMANS
 72
     4
 11
4.994454084274252
 21
7.248670525654318
 31
0.0
100
AcDbText
  0
TEXT
  5
EC
330
1E
100
AcDbEntity
  8
TEXT_BUBBLES
100
AcDbText
 10
5.26627181
 20
3.51670629
 30
0.0
 40
0.125
  1
  WITH STAINLESS STEEL GEAR
  7
SIMPLEX
100
AcDbText
  0
TEXT
  5
ED
330
1E
100
AcDbEntity
  8
TEXT_LEADERS
100
AcDbText
 10
4.896028689999999
 20
7.815122109999999
 30
0.0
 40
0.125
  1
IMPACT SPRINKLER:
  7
SIMPLEX
100
AcDbText
  0
TEXT
  5
EE
330
1E
100
AcDbEntity
  8
TEXT_LEADERS
100
AcDbText
 10
4.896028689999999
 20
4.117694080464631
 30
0.0
 40
0.125
  1
PVC SCH 40 ELL
  7
SIMPLEX
100
AcDbText
  0
TEXT
  5
EF
330
1E
100
AcDbEntity
  8
TEXT_LEADERS
100
AcDbText
 10
4.896028689999999
 20
1.987498908865067
 30
0.0
 40
0.125
  1
  SUPPORT SYSTEM
  7
SIMPLEX
100
AcDbText
  0
TEXT
  5
F0
330
1E
100
AcDbEntity
  8
TEXT_LEADERS
100
AcDbText
 10
4.896028689999999
 20
3.147927706624573
 30
0.0
 40
0.125
  1
PVC LATERAL PIPE
  7
SIMPLEX
100
AcDbText
  0
TEXT
  5
F1
330
1E
100
AcDbEntity
  8
TEXT_LEADERS
100
AcDbText
 10
4.896028689999999
 20
5.488719290760747
 30
0.0
 40
0.125
  1
FINISH GRADE/TOP OF MULCH
  7
SIMPLEX
100
AcDbText
  0
TEXT
  5
F2
330
1E
100
AcDbEntity
  8
TEXT_LEADERS
100
AcDbText
 10
4.896028689999999
 20
6.870162183851866
 30
0.0
 40
0.125
  1
UV RADIATION RESISTANT
  7
SIMPLEX
100
AcDbText
  0
TEXT
  5
F3
330
1E
100
AcDbEntity
  8
TEXT_LEADERS
100
AcDbText
 10
4.896028689999999
 20
6.520162183851866
 30
0.0
 40
0.125
  1
  (LENGTH AS REQUIRED)
  7
SIMPLEX
100
AcDbText
  0
TEXT
  5
F4
330
1E
100
AcDbEntity
  8
TEXT_LEADERS
100
AcDbText
 10
4.896028689999999
 20
6.695162183851866
 30
0.0
 40
0.125
  1
  PVC SCH 80 NIPPLE
  7
SIMPLEX
100
AcDbText
  0
TEXT
  5
F5
330
1E
100
AcDbEntity
  8
TEXT_LEADERS
100
AcDbText
 10
4.896028689999999
 20
2.162498908865067
 30
0.0
 40
0.125
  1
  CLAMPS OR EQUIVALENT
  7
SIMPLEX
100
AcDbText
  0
TEXT
  5
F6
330
1E
100
AcDbEntity
  8
TEXT_LEADERS
100
AcDbText
 10
4.896028689999999
 20
2.337498908865068
 30
0.0
 40
0.125
  1
  WITH STAINLESS STEEL GEAR
  7
SIMPLEX
100
AcDbText
  0
TEXT
  5
F7
330
1E
100
AcDbEntity
  8
TEXT_LEADERS
100
AcDbText
 10
4.896028689999999
 20
2.512498908865072
 30
0.0
 40
0.125
  1
1-INCH GALVANIZED STEEL PIPE
  7
SIMPLEX
100
AcDbText
  0
TEXT
  5
F8
330
1E
100
AcDbEntity
  8
TEXT_LEADERS
100
AcDbText
 10
4.896028689999999
 20
2.754711294464722
 30
0.0
 40
0.125
  1
PVC SCH 40 STREET ELL
  7
SIMPLEX
100
AcDbText
  0
TEXT
  5
F9
330
1E
100
AcDbEntity
  8
TEXT_LEADERS
100
AcDbText
 10
4.896028689999999
 20
3.583075185460305
 30
0.0
 40
0.125
  1
PVC SCH 80 NIPPLE
  7
SIMPLEX
100
AcDbText
  0
TEXT
  5
FA
330
1E
100
AcDbEntity
  8
TEXT_LEADERS
100
AcDbText
 10
4.896028689999999
 20
3.408075185460305
 30
0.0
 40
0.125
  1
  (LENGTH AS REQUIRED)
  7
SIMPLEX
100
AcDbText
  0
TEXT
  5
FB
330
1E
100
AcDbEntity
  8
TEXT_LEADERS
100
AcDbText
 10
4.896028689999999
 20
2.950302492641857
 30
0.0
 40
0.125
  1
PVC SCH 40 TEE OR ELL
  7
SIMPLEX
100
AcDbText
  0
TEXT
  5
FC
330
1E
100
AcDbEntity
  8
TEXT_LEADERS
100
AcDbText
 10
4.896028689999999
 20
3.834930946251646
 30
0.0
 40
0.125
  1
PVC SCH 40 STREET ELL
  7
SIMPLEX
100
AcDbText
  0
TEXT
  5
FD
330
1E
100
AcDbEntity
  8
TEXT_BUBBLES
100
AcDbText
 10
4.588362519113744
 20
5.929098772953555
 30
0.0
 40
0.10000000149
  1

  7
ROMANS
100
AcDbText
  0
TEXT
  5
FE
330
1E
100
AcDbEntity
  8
TEXT_BUBBLES
100
AcDbText
 10
4.588362519113744
 20
3.755036997746555
 30
0.0
 40
0.10000000149
  1

  7
ROMANS
100
AcDbText
  0
TEXT
  5
FF
330
1E
100
AcDbEntity
  8
TEXT_BUBBLES
100
AcDbText
 10
4.588362519113744
 20
5.618518519352554
 30
0.0
 40
0.10000000149
  1

  7
ROMANS
100
AcDbText
  0
TEXT
  5
100
330
1E
100
AcDbEntity
  8
TEXT_BUBBLES
100
AcDbText
 10
16.90309906005899
 20
1.433911323547
 30
0.0
 40
0.10000000149
  1

  7
ROMANS
100
AcDbText
  0
TEXT
  5
101
330
1E
100
AcDbEntity
  8
TEXT_BUBBLES
100
AcDbText
 10
16.90309906005899
 20
0.968012332916
 30
0.0
 40
0.10000000149
  1

  7
ROMANS
100
AcDbText
  0
TEXT
  5
102
330
1E
100
AcDbEntity
  8
TEXT_BUBBLES
100
AcDbText
 10
16.90309906005899
 20
1.12331199646
 30
0.0
 40
0.10000000149
  1

  7
ROMANS
100
AcDbText
  0
TEXT
  5
103
330
1E
100
AcDbEntity
  8
TEXT_BUBBLES
100
AcDbText
 10
16.90309906005899
 20
1.744510650635
 30
0.0
 40
0.10000000149
  1

  7
ROMANS
100
AcDbText
  0
TEXT
  5
104
330
1E
100
AcDbEntity
  8
TEXT_BUBBLES
100
AcDbText
 10
16.90309906005899
 20
2.521008968353
 30
0.0
 40
0.10000000149
  1

  7
ROMANS
100
AcDbText
  0
TEXT
  5
105
330
1E
100
AcDbEntity
  8
TEXT_BUBBLES
100
AcDbText
 10
16.90309906005899
 20
2.986907958984
 30
0.0
 40
0.10000000149
  1

  7
ROMANS
100
AcDbText
  0
TEXT
  5
106
330
1E
100
AcDbEntity
  8
TEXT_BUBBLES
100
AcDbText
 10
16.90309906005899
 20
2.831608295440999
 30
0.0
 40
0.10000000149
  1

  7
ROMANS
100
AcDbText
  0
TEXT
  5
107
330
1E
100
AcDbEntity
  8
TEXT_BUBBLES
100
AcDbText
 10
4.588362519113744
 20
3.133876490543554
 30
0.0
 40
0.10000000149
  1

  7
ROMANS
100
AcDbText
  0
TEXT
  5
108
330
1E
100
AcDbEntity
  8
TEXT_BUBBLES
100
AcDbText
 10
16.90309906005899
 20
2.210409641266
 30
0.0
 40
0.10000000149
  1

  7
ROMANS
100
AcDbText
  0
TEXT
  5
109
330
1E
100
AcDbEntity
  8
TEXT_BUBBLES
100
AcDbText
 10
16.90309906005899
 20
2.055109977722
 30
0.0
 40
0.10000000149
  1

  7
ROMANS
100
AcDbText
  0
TEXT
  5
10A
330
1E
100
AcDbEntity
  8
TEXT_BUBBLES
100
AcDbText
 10
4.588362519113744
 20
4.842067885349554
 30
0.0
 40
0.10000000149
  1

  7
ROMANS
100
AcDbText
  0
TEXT
  5
10B
330
1E
100
AcDbEntity
  8
TEXT_BUBBLES
100
AcDbText
 10
4.588362519113744
 20
6.394969153355554
 30
0.0
 40
0.10000000149
  1

  7
ROMANS
100
AcDbText
  0
TEXT
  5
10C
330
1E
100
AcDbEntity
  8
TEXT_BUBBLES
100
AcDbText
 10
4.588362519113744
 20
5.152648138950555
 30
0.0
 40
0.10000000149
  1

  7
ROMANS
100
AcDbText
  0
TEXT
  5
10D
330
1E
100
AcDbEntity
  8
TEXT_BUBBLES
100
AcDbText
 10
4.588362519113744
 20
4.065617251347554
 30
0.0
 40
0.10000000149
  1

  7
ROMANS
100
AcDbText
  0
TEXT
  5
10E
330
1E
100
AcDbEntity
  8
TEXT_BUBBLES
100
AcDbText
 10
4.588362519113744
 20
3.444456744145555
 30
0.0
 40
0.10000000149
  1

  7
ROMANS
100
AcDbText
  0
TEXT
  5
10F
330
1E
100
AcDbEntity
  8
TEXT_LEADERS
100
AcDbText
 10
4.841919898987
 20
4.539030075072999
 30
0.0
 40
0.10000000149
  1

  7
SIMPLEX
100
AcDbText
  0
TEXT
  5
110
330
1E
100
AcDbEntity
  8
TEXT_BUBBLES
100
AcDbText
 10
8.242199897765999
 20
0.107129439712
 30
0.0
 40
0.10000000149
  1

  7
SIMPLEX
100
AcDbText
  0
TEXT
  5
111
330
1E
100
AcDbEntity
  8
TEXT_BUBBLES
100
AcDbText
 10
8.242199897765999
 20
0.9404628872869999
 30
0.0
 40
0.10000000149
  1

  7
SIMPLEX
100
AcDbText
  0
TEXT
  5
112
330
1E
100
AcDbEntity
  8
TEXT_BUBBLES
100
AcDbText
 10
8.242199897765999
 20
0.6071295142170001
 30
0.0
 40
0.10000000149
  1

  7
SIMPLEX
100
AcDbText
  0
TEXT
  5
113
330
1E
100
AcDbEntity
  8
TEXT_BUBBLES
100
AcDbText
 10
8.242199897765999
 20
-1.559537649154999
 30
0.0
 40
0.10000000149
  1

  7
SIMPLEX
100
AcDbText
  0
TEXT
  5
114
330
1E
100
AcDbEntity
  8
TEXT_BUBBLES
100
AcDbText
 10
8.242199897765999
 20
-1.226204156876
 30
0.0
 40
0.10000000149
  1

  7
SIMPLEX
100
AcDbText
  0
TEXT
  5
115
330
1E
100
AcDbEntity
  8
TEXT_BUBBLES
100
AcDbText
 10
8.242199897765999
 20
1.440463066101
 30
0.0
 40
0.10000000149
  1

  7
SIMPLEX
100
AcDbText
  0
TEXT
  5
12A
330
1E
100
AcDbEntity
  8
TEXT_LEADERS
100
AcDbText
 10
4.896028689999999
 20
7.267496845708834
 30
0.0
 40
0.125
  1
UV RADIATION RESISTANT
  7
SIMPLEX
100
AcDbText
  0
TEXT
  5
12B
330
1E
100
AcDbEntity
  8
TEXT_LEADERS
100
AcDbText
 10
4.896028689999999
 20
7.092496845708834
 30
0.0
 40
0.125
  1
  PVC SCH 80 COUPLING
  7
SIMPLEX
100
AcDbText
  0
TEXT
  5
12C
330
1E
100
AcDbEntity
  8
TEXT_BUBBLES
100
AcDbText
 10
5.26627181
 20
7.01670629
 30
0.0
 40
0.125
  1
  PVC SCH 80 COUPLING
  7
SIMPLEX
100
AcDbText
  0
TEXT
  5
12D
330
1E
100
AcDbEntity
  8
TEXT_BUBBLES
100
AcDbText
 10
5.26627181
 20
7.191706289999999
 30
0.0
 40
0.125
  1
UV RADIATION RESISTANT
  7
SIMPLEX
100
AcDbText
  0
TEXT
  5
12F
330
1E
100
AcDbEntity
  8
TEXT_BUBBLES
100
AcDbText
 10
4.884335036655205
 20
2.811170525654329
 30
0.0
 40
0.125
  1
11
  7
ROMANS
 72
     4
 11
4.994454084274252
 21
2.873670525654329
 31
0.0
100
AcDbText
  0
TEXT
  5
130
330
1E
100
AcDbEntity
  8
TEXT_LEADERS
100
AcDbText
 10
4.896028689999999
 20
7.64012211
 30
0.0
 40
0.125
  1
  RAIN BIRD 2045-PJ MAXI-BIRD
  7
SIMPLEX
100
AcDbText
  0
LINE
  5
145
330
1E
100
AcDbEntity
  8
IMAGE
100
AcDbLine
 10
2.809511879459337
 20
5.787094007489612
 30
0.0
 11
2.83101678994171
 21
5.779923982447327
 31
0.0
  0
LINE
  5
146
330
1E
100
AcDbEntity
  8
IMAGE
100
AcDbLine
 10
3.039145647604938
 20
5.710522100062559
 30
0.0
 11
4.203509354859903
 21
5.320275139220983
 31
0.0
  0
ARC
  5
147
330
1E
100
AcDbEntity
  8
IMAGE
100
AcDbCircle
 10
3.563129488014803
 20
6.081112234279281
 30
0.0
 40
0.1818260367492528
100
AcDbArc
 50
125.2845423413962
 51
214.483215829812
  0
ARC
  5
148
330
1E
100
AcDbEntity
  8
IMAGE
100
AcDbCircle
 10
3.308222203997438
 20
6.126592138109188
 30
0.0
 40
0.1818260367492528
100
AcDbArc
 50
305.2845423413962
 51
34.4832158298119
  0
ARC
  5
149
330
1E
100
AcDbEntity
  8
IMAGE
100
AcDbCircle
 10
3.879249523736994
 20
6.035020437214305
 30
0.0
 40
0.1818260367492528
100
AcDbArc
 50
97.81009726740675
 51
187.0087707558224
  0
ARC
  5
14A
330
1E
100
AcDbEntity
  8
IMAGE
100
AcDbCircle
 10
3.674073813766439
 20
6.19297319323827
 30
0.0
 40
0.1818260367492528
100
AcDbArc
 50
277.8100972674067
 51
7.008770755822406
  0
ARC
  5
14B
330
1E
100
AcDbEntity
  8
IMAGE
100
AcDbCircle
 10
3.569271565553007
 20
5.723163197282207
 30
0.0
 40
0.1818260367492528
100
AcDbArc
 50
141.4737485984232
 51
230.672422086839
  0
ARC
  5
14C
330
1E
100
AcDbEntity
  8
IMAGE
100
AcDbCircle
 10
3.311792056325706
 20
5.69576890178925
 30
0.0
 40
0.1818260367492528
100
AcDbArc
 50
321.4737485984232
 51
50.67242208683896
  0
ARC
  5
14D
330
1E
100
AcDbEntity
  8
IMAGE
100
AcDbCircle
 10
4.185627396799464
 20
5.660840890802429
 30
0.0
 40
0.1818260367492528
100
AcDbArc
 50
141.4737485984232
 51
230.672422086839
  0
ARC
  5
14E
330
1E
100
AcDbEntity
  8
IMAGE
100
AcDbCircle
 10
3.928147887572163
 20
5.633446595309472
 30
0.0
 40
0.1818260367492528
100
AcDbArc
 50
321.4737485984232
 51
50.67242208683896
  0
ARC
  5
14F
330
1E
100
AcDbEntity
  8
IMAGE
100
AcDbCircle
 10
3.88893009803825
 20
5.862625137747599
 30
0.0
 40
0.1818260367492528
100
AcDbArc
 50
321.4737485984232
 51
50.67242208683896
  0
ARC
  5
150
330
1E
100
AcDbEntity
  8
IMAGE
100
AcDbCircle
 10
4.146409607265551
 20
5.890019433240556
 30
0.0
 40
0.1818260367492528
100
AcDbArc
 50
141.4737485984232
 51
230.672422086839
  0
ARC
  5
151
330
1E
100
AcDbEntity
  8
IMAGE
100
AcDbCircle
 10
4.064428859228873
 20
5.711606663351767
 30
0.0
 40
0.1818260367492528
100
AcDbArc
 50
125.2845423413962
 51
214.483215829812
  0
ARC
  5
152
330
1E
100
AcDbEntity
  8
IMAGE
100
AcDbCircle
 10
3.809521575211507
 20
5.757086567181673
 30
0.0
 40
0.1818260367492528
100
AcDbArc
 50
305.2845423413962
 51
34.4832158298119
  0
ARC
  5
153
330
1E
100
AcDbEntity
  8
IMAGE
100
AcDbCircle
 10
4.093697508898875
 20
5.551719791847409
 30
0.0
 40
0.1818260367492528
100
AcDbArc
 50
141.4737485984232
 51
230.672422086839
  0
ARC
  5
154
330
1E
100
AcDbEntity
  8
IMAGE
100
AcDbCircle
 10
3.836217999671574
 20
5.52432549635445
 30
0.0
 40
0.1818260367492528
100
AcDbArc
 50
321.4737485984232
 51
50.67242208683896
  0
INSERT
  5
155
330
1E
100
AcDbEntity
  8
IMAGE
100
AcDbBlockReference
  2
*X0
 10
0.9759024205807218
 20
1.836706290298662
 30
0.0
1001
ACAD
1000
HATCH
1002
{
1070
    16
1000
ANSI31
1040
0.15
1040
0.0
1002
}
  0
LWPOLYLINE
  5
156
330
1E
100
AcDbEntity
  8
IMAGE
100
AcDbPolyline
 90
        3
 70
     0
 43
0.0
 10
3.212285416295997
 20
3.705529333663691
 42
-1.0
 10
3.212285416295997
 20
3.835743669540182
 42
1.0
 10
3.212285416295997
 20
3.965958005416674
 42
1.0
  0
ARC
  5
15B
330
1E
100
AcDbEntity
  8
IMAGE
100
AcDbCircle
 10
3.212285416295997
 20
3.835743669540182
 30
0.0
 40
0.1302143358764916
100
AcDbArc
 50
270.0
 51
90.0
  0
LINE
  5
15C
330
1E
100
AcDbEntity
  8
IMAGE
100
AcDbLine
 10
2.73807517090671
 20
4.091165333355609
 30
0.0
 11
2.562560399458376
 21
4.091152330924236
 31
0.0
  0
LINE
  5
15D
330
1E
100
AcDbEntity
  8
IMAGE
100
AcDbLine
 10
2.76001451685613
 20
4.117088954848943
 30
0.0
 11
2.540621057361925
 21
4.117088954848943
 31
0.0
  0
LINE
  5
15E
330
1E
100
AcDbEntity
  8
IMAGE
100
AcDbLine
 10
2.776207915107026
 20
3.976663880487147
 30
0.0
 11
2.776207915107026
 21
4.061270896530296
 31
0.0
  0
LINE
  5
15F
330
1E
100
AcDbEntity
  8
IMAGE
100
AcDbLine
 10
2.877155601815965
 20
3.943737070916712
 30
0.0
 11
2.805905387673882
 21
3.943779266783852
 31
0.0
  0
ARC
  5
160
330
1E
100
AcDbEntity
  8
IMAGE
100
AcDbCircle
 10
2.810676452160602
 20
3.978184028226711
 30
0.0
 40
0.0345020419071655
100
AcDbArc
 50
182.5252492149752
 51
274.3030742342432
  0
LINE
  5
161
330
1E
100
AcDbEntity
  8
IMAGE
100
AcDbLine
 10
2.876006764197
 20
3.724245576657275
 30
0.0
 11
2.652357450605908
 21
3.724378026458806
 31
0.0
  0
LINE
  5
162
330
1E
100
AcDbEntity
  8
IMAGE
100
AcDbLine
 10
2.524677930261905
 20
4.061270896530296
 30
0.0
 11
2.524662808611967
 21
3.855463370056664
 31
0.0
  0
ARC
  5
163
330
1E
100
AcDbEntity
  8
IMAGE
100
AcDbCircle
 10
2.654010628212743
 20
3.853726936926923
 30
0.0
 40
0.1293594744712923
100
AcDbArc
 50
179.2308775358508
 51
270.0
  0
LINE
  5
164
330
1E
100
AcDbEntity
  8
IMAGE
100
AcDbLine
 10
2.877024318721881
 20
3.958296982171722
 30
0.0
 11
2.877024318721881
 21
3.709380626992972
 31
0.0
  0
LINE
  5
165
330
1E
100
AcDbEntity
  8
IMAGE
100
AcDbLine
 10
3.105645181314703
 20
3.709380626992972
 30
0.0
 11
2.877024318721881
 21
3.709380626992972
 31
0.0
  0
LINE
  5
166
330
1E
100
AcDbEntity
  8
IMAGE
100
AcDbLine
 10
3.105645181314703
 20
3.958296982171722
 30
0.0
 11
2.877024318721881
 21
3.958296982171722
 31
0.0
  0
ARC
  5
167
330
1E
100
AcDbEntity
  8
IMAGE
100
AcDbCircle
 10
3.212285416295997
 20
3.835743669540182
 30
0.0
 40
0.1302143358764916
100
AcDbArc
 50
90.0
 51
270.0
  0
CIRCLE
  5
168
330
1E
100
AcDbEntity
  8
IMAGE
100
AcDbCircle
 10
3.212285416295997
 20
3.835743669540182
 30
0.0
 40
0.1624544679404956
  0
LINE
  5
169
330
1E
100
AcDbEntity
  8
IMAGE
100
AcDbLine
 10
2.52466929777213
 20
4.061270896530296
 30
0.0
 11
2.776207915107026
 21
4.061270896530296
 31
0.0
  0
LINE
  5
16A
330
1E
100
AcDbEntity
  8
IMAGE
100
AcDbLine
 10
2.73807517090671
 20
4.519984164991464
 30
0.0
 11
2.562560399458376
 21
4.519997167422838
 31
0.0
  0
LINE
  5
16B
330
1E
100
AcDbEntity
  8
IMAGE
100
AcDbLine
 10
2.76001451685613
 20
4.494060543498131
 30
0.0
 11
2.540621057361925
 21
4.494060543498131
 31
0.0
  0
LINE
  5
16C
330
1E
100
AcDbEntity
  8
IMAGE
100
AcDbLine
 10
2.76001451685613
 20
4.549878601816779
 30
0.0
 11
2.540621057361925
 21
4.549878601816779
 31
0.0
  0
LINE
  5
16D
330
1E
100
AcDbEntity
  8
IMAGE
100
AcDbLine
 10
2.540621057361925
 20
4.549878601816779
 30
0.0
 11
2.540621057361925
 21
4.061270896530296
 31
0.0
  0
LINE
  5
16E
330
1E
100
AcDbEntity
  8
IMAGE
100
AcDbLine
 10
2.76001451685613
 20
4.549878601816779
 30
0.0
 11
2.76001451685613
 21
4.061270896530296
 31
0.0
  0
LWPOLYLINE
  5
16F
330
1E
100
AcDbEntity
  8
IMAGE
100
AcDbPolyline
 90
        4
 70
     0
 43
0.0
 10
2.775966276445925
 20
4.851282615898924
 10
2.775966276445925
 20
4.549878601816779
 10
2.52466929777213
 20
4.549878601816779
 10
2.52466929777213
 20
4.839826791244169
  0
LWPOLYLINE
  5
175
330
1E
100
AcDbEntity
  8
IMAGE
100
AcDbPolyline
 90
        2
 70
     0
 43
0.0
 10
1.93410495361738
 20
3.815221303626628
 10
2.137340749513095
 20
3.748219041662359
  0
LINE
  5
179
330
1E
100
AcDbEntity
  8
IMAGE
100
AcDbLine
 10
3.395182648392133
 20
6.891292775457133
 30
0.0
 11
3.239371744952451
 21
6.942672916700162
 31
0.0
  0
LINE
  5
17A
330
1E
100
AcDbEntity
  8
IMAGE
100
AcDbLine
 10
3.224851586415029
 20
6.964128916028306
 30
0.0
 11
3.214930623012489
 21
6.9340359783564
 31
0.0
  0
LINE
  5
17B
330
1E
100
AcDbEntity
  8
IMAGE
100
AcDbLine
 10
3.419619968279889
 20
6.89991816965584
 30
0.0
 11
3.409699004877349
 21
6.869825231983933
 31
0.0
  0
LINE
  5
17C
330
1E
100
AcDbEntity
  8
IMAGE
100
AcDbLine
 10
3.387566151620087
 20
7.348795973796239
 30
0.0
 11
3.380660971448545
 21
7.327850713937472
 31
0.0
  0
LINE
  5
17D
330
1E
100
AcDbEntity
  8
IMAGE
100
AcDbLine
 10
3.515160910416272
 20
7.544753714244837
 30
0.0
 11
3.506889221667519
 21
7.54167526808375
 31
0.0
  0
LINE
  5
17E
330
1E
100
AcDbEntity
  8
IMAGE
100
AcDbLine
 10
3.533070796490973
 20
7.533043792869323
 30
0.0
 11
3.528251697828006
 21
7.540437976637621
 31
0.0
  0
LINE
  5
17F
330
1E
100
AcDbEntity
  8
IMAGE
100
AcDbLine
 10
3.515160910416272
 20
7.544753714244837
 30
0.0
 11
3.528251697828006
 21
7.540437976637621
 31
0.0
  0
LINE
  5
180
330
1E
100
AcDbEntity
  8
IMAGE
100
AcDbLine
 10
3.506889221667519
 20
7.54167526808375
 30
0.0
 11
3.533070796490973
 21
7.533043792869323
 31
0.0
  0
LINE
  5
181
330
1E
100
AcDbEntity
  8
IMAGE
100
AcDbLine
 10
3.50343663158175
 20
7.531202638154372
 30
0.0
 11
3.506889221667519
 21
7.54167526808375
 31
0.0
  0
LINE
  5
182
330
1E
100
AcDbEntity
  8
IMAGE
100
AcDbLine
 10
3.529618206405203
 20
7.522571162939946
 30
0.0
 11
3.533070796490973
 21
7.533043792869323
 31
0.0
  0
ARC
  5
183
330
1E
100
AcDbEntity
  8
IMAGE
100
AcDbCircle
 10
3.23256048774717
 20
7.332602601444538
 30
0.0
 40
0.0408001729505316
100
AcDbArc
 50
287.287218583749
 51
328.3038658762145
  0
ARC
  5
184
330
1E
100
AcDbEntity
  8
IMAGE
100
AcDbCircle
 10
3.235082647987693
 20
7.336231429593073
 30
0.0
 40
0.0408001729505316
100
AcDbArc
 50
278.9159825935746
 51
328.3038658762145
  0
ARC
  5
185
330
1E
100
AcDbEntity
  8
IMAGE
100
AcDbCircle
 10
3.23256048774717
 20
7.332602601444538
 30
0.0
 40
0.0408001729505316
100
AcDbArc
 50
142.0948783873717
 51
273.6290617054673
  0
ARC
  5
186
330
1E
100
AcDbEntity
  8
IMAGE
100
AcDbCircle
 10
3.235082647987693
 20
7.336231429593073
 30
0.0
 40
0.0408001729505316
100
AcDbArc
 50
142.0948783873717
 51
262.1135252523416
  0
ARC
  5
187
330
1E
100
AcDbEntity
  8
IMAGE
100
AcDbCircle
 10
3.23256048774717
 20
7.332602601444538
 30
0.0
 40
0.0339082518440229
100
AcDbArc
 50
332.6879967516208
 51
137.7107475119654
  0
ARC
  5
188
330
1E
100
AcDbEntity
  8
IMAGE
100
AcDbCircle
 10
3.235082647987693
 20
7.336231429593073
 30
0.0
 40
0.0339082518440229
100
AcDbArc
 50
328.9356805123046
 51
141.4630637512816
  0
LINE
  5
189
330
1E
100
AcDbEntity
  8
IMAGE
100
AcDbLine
 10
3.214319228824363
 20
7.306357483160679
 30
0.0
 11
3.259343939123735
 21
7.275063762568104
 31
0.0
  0
LINE
  5
18A
330
1E
100
AcDbEntity
  8
IMAGE
100
AcDbLine
 10
3.21825260372366
 20
7.312016735623664
 30
0.0
 11
3.261595120242637
 21
7.281892197504364
 31
0.0
  0
CIRCLE
  5
18B
330
1E
100
AcDbEntity
  8
IMAGE
100
AcDbCircle
 10
3.237604808228226
 20
7.339860257741598
 30
0.0
 40
0.0339082518440229
  0
ARC
  5
18C
330
1E
100
AcDbEntity
  8
IMAGE
100
AcDbCircle
 10
3.237604808228226
 20
7.339860257741598
 30
0.0
 40
0.0408001729505316
100
AcDbArc
 50
268.9894202881064
 51
235.1993721317931
  0
LINE
  5
18D
330
1E
100
AcDbEntity
  8
IMAGE
100
AcDbLine
 10
3.243451459370799
 20
7.061769117308093
 30
0.0
 11
3.240214656165387
 21
7.051951026749295
 31
0.0
  0
LINE
  5
18E
330
1E
100
AcDbEntity
  8
IMAGE
100
AcDbLine
 10
3.254240803388831
 20
7.094496085837409
 30
0.0
 11
3.247767196978012
 21
7.074859904719822
 31
0.0
  0
LINE
  5
18F
330
1E
100
AcDbEntity
  8
IMAGE
100
AcDbLine
 10
3.203258519778137
 20
7.089533412584348
 30
0.0
 11
3.242315945828602
 21
7.208005040799486
 31
0.0
  0
LINE
  5
190
330
1E
100
AcDbEntity
  8
IMAGE
100
AcDbLine
 10
3.216349307189871
 20
7.085217674977133
 30
0.0
 11
3.25540673332499
 21
7.203689303449051
 31
0.0
  0
ARC
  5
191
330
1E
100
AcDbEntity
  8
IMAGE
100
AcDbCircle
 10
3.24988462963758
 20
7.066905040465966
 30
0.0
 40
0.0068919211065088
100
AcDbArc
 50
251.7537767314497
 51
71.75377673144653
  0
LINE
  5
192
330
1E
100
AcDbEntity
  8
IMAGE
100
AcDbLine
 10
3.195404047331105
 20
7.092122855148675
 30
0.0
 11
3.191088309723891
 21
7.079032067736948
 31
0.0
  0
ARC
  5
193
330
1E
100
AcDbEntity
  8
IMAGE
100
AcDbCircle
 10
3.312392711407365
 20
7.046297534533438
 30
0.0
 40
0.0068919211065088
100
AcDbArc
 50
251.7537767314497
 51
71.75377673144653
  0
ARC
  5
194
330
1E
100
AcDbEntity
  8
IMAGE
100
AcDbCircle
 10
3.273120349172177
 20
7.059244747355082
 30
0.0
 40
0.0068919211065088
100
AcDbArc
 50
71.75377673144975
 51
251.7537767314464
  0
LINE
  5
195
330
1E
100
AcDbEntity
  8
IMAGE
100
AcDbLine
 10
3.209732126188956
 20
7.109169593701937
 30
0.0
 11
3.156059897800883
 21
7.126864117891509
 31
0.0
  0
LINE
  5
196
330
1E
100
AcDbEntity
  8
IMAGE
100
AcDbLine
 10
3.214047863796172
 20
7.122260381113669
 30
0.0
 11
3.160375635408099
 21
7.139954905303241
 31
0.0
  0
ARC
  5
197
330
1E
100
AcDbEntity
  8
IMAGE
100
AcDbCircle
 10
3.147428422586457
 20
7.100682543068055
 30
0.0
 40
0.0068919211065088
100
AcDbArc
 50
71.75377673144975
 51
251.7537767314464
  0
ARC
  5
198
330
1E
100
AcDbEntity
  8
IMAGE
100
AcDbCircle
 10
3.158217766604492
 20
7.133409511597376
 30
0.0
 40
0.0068919211065086
100
AcDbArc
 50
71.75377673144975
 51
251.7537767314464
  0
LINE
  5
199
330
1E
100
AcDbEntity
  8
IMAGE
100
AcDbLine
 10
3.459449451664307
 20
6.990559446789067
 30
0.0
 11
3.456212648458896
 21
6.980741356230268
 31
0.0
  0
LINE
  5
19A
330
1E
100
AcDbEntity
  8
IMAGE
100
AcDbLine
 10
3.47023879568234
 20
7.023286415318382
 30
0.0
 11
3.463765189271521
 21
7.003650234200794
 31
0.0
  0
LINE
  5
19B
330
1E
100
AcDbEntity
  8
IMAGE
100
AcDbLine
 10
3.47023879568234
 20
7.023286415318382
 30
0.0
 11
3.22282291360069
 21
7.10485385609472
 31
0.0
  0
LINE
  5
19C
330
1E
100
AcDbEntity
  8
IMAGE
100
AcDbLine
 10
3.474554533289555
 20
7.036377202730115
 30
0.0
 11
3.227138651207905
 21
7.117944643506453
 31
0.0
  0
ARC
  5
19D
330
1E
100
AcDbEntity
  8
IMAGE
100
AcDbCircle
 10
3.472396664485948
 20
7.029831809024248
 30
0.0
 40
0.0068919211065087
100
AcDbArc
 50
251.7537767314481
 51
71.75377673144815
  0
ARC
  5
19E
330
1E
100
AcDbEntity
  8
IMAGE
100
AcDbCircle
 10
3.461607320467914
 20
6.997104840494928
 30
0.0
 40
0.0068919211065087
100
AcDbArc
 50
251.7537767314481
 51
71.75377673144815
  0
LINE
  5
19F
330
1E
100
AcDbEntity
  8
IMAGE
100
AcDbLine
 10
3.459449451664307
 20
6.990559446789067
 30
0.0
 11
3.145270553782851
 21
7.094137149362193
 31
0.0
  0
LINE
  5
1A0
330
1E
100
AcDbEntity
  8
IMAGE
100
AcDbLine
 10
3.463765189271521
 20
7.003650234200794
 30
0.0
 11
3.149586291390065
 21
7.107227936773922
 31
0.0
  0
LINE
  5
1A1
330
1E
100
AcDbEntity
  8
IMAGE
100
AcDbLine
 10
3.227067288908094
 20
7.20577538256183
 30
0.0
 11
3.240158076319814
 21
7.201459644954619
 31
0.0
  0
LINE
  5
1A2
330
1E
100
AcDbEntity
  8
IMAGE
100
AcDbLine
 10
3.231383026515307
 20
7.218866169973557
 30
0.0
 11
3.251019209771896
 21
7.212392562857557
 31
0.0
  0
LINE
  5
1A3
330
1E
100
AcDbEntity
  8
IMAGE
100
AcDbLine
 10
3.233684469908993
 20
7.181823463837025
 30
0.0
 11
3.220593682497272
 21
7.186139201444236
 31
0.0
  0
ARC
  5
1A4
330
1E
100
AcDbEntity
  8
IMAGE
100
AcDbCircle
 10
3.248861338829289
 20
7.205847169856879
 30
0.0
 40
0.0068919211065087
100
AcDbArc
 50
341.7537580074817
 51
161.7537580074818
  0
ARC
  5
1A5
330
1E
100
AcDbEntity
  8
IMAGE
100
AcDbCircle
 10
3.191030454892624
 20
7.030430618539721
 30
0.0
 40
0.0068919211065087
100
AcDbArc
 50
161.7537580074802
 51
341.7537580074802
  0
LINE
  5
1A6
330
1E
100
AcDbEntity
  8
IMAGE
100
AcDbLine
 10
3.197575849388325
 20
7.028272752131893
 30
0.0
 11
3.212033569582657
 21
7.072126887565405
 31
0.0
  0
LINE
  5
1A7
330
1E
100
AcDbEntity
  8
IMAGE
100
AcDbLine
 10
3.184485061891939
 20
7.032588489482337
 30
0.0
 11
3.198942782170924
 21
7.076442625172621
 31
0.0
  0
LINE
  5
1A8
330
1E
100
AcDbEntity
  8
IMAGE
100
AcDbLine
 10
3.261952126241022
 20
7.201531432249662
 30
0.0
 11
3.257636388633807
 21
7.18844064483793
 31
0.0
  0
ARC
  5
1A9
330
1E
100
AcDbEntity
  8
IMAGE
100
AcDbCircle
 10
3.248861338829289
 20
7.205847169856879
 30
0.0
 40
0.0137838422130174
100
AcDbArc
 50
341.7537767314481
 51
71.75377673144815
  0
LINE
  5
1AA
330
1E
100
AcDbEntity
  8
IMAGE
100
AcDbLine
 10
3.277272569751394
 20
7.18196703842711
 30
0.0
 11
3.25109099492794
 21
7.190598513641537
 31
0.0
  0
LINE
  5
1AB
330
1E
100
AcDbEntity
  8
IMAGE
100
AcDbLine
 10
3.237856632926126
 20
7.238502351091144
 30
0.0
 11
3.246365644743749
 21
7.235697121646456
 31
0.0
  0
LINE
  5
1AC
330
1E
100
AcDbEntity
  8
IMAGE
100
AcDbLine
 10
3.220593682497272
 20
7.186139201444236
 30
0.0
 11
3.237856632926126
 21
7.238502351091144
 31
0.0
  0
LINE
  5
1AD
330
1E
100
AcDbEntity
  8
IMAGE
100
AcDbLine
 10
3.27295683214418
 20
7.168876251015383
 30
0.0
 11
3.246775257320726
 21
7.17750772622981
 31
0.0
  0
LINE
  5
1AE
330
1E
100
AcDbEntity
  8
IMAGE
100
AcDbLine
 10
3.285904044965822
 20
7.208148613250569
 30
0.0
 11
3.27295683214418
 21
7.168876251015383
 31
0.0
  0
ARC
  5
1AF
330
1E
100
AcDbEntity
  8
IMAGE
100
AcDbCircle
 10
3.375612257378907
 20
7.233725474814736
 30
0.0
 40
0.0275676844260349
100
AcDbArc
 50
5.331955209647258
 51
48.17559825325107
  0
LINE
  5
1B0
330
1E
100
AcDbEntity
  8
IMAGE
100
AcDbLine
 10
3.382632297222525
 20
7.219800254799581
 30
0.0
 11
3.396155476981462
 21
7.215341967179504
 31
0.0
  0
LINE
  5
1B1
330
1E
100
AcDbEntity
  8
IMAGE
100
AcDbLine
 10
3.389537477394065
 20
7.240745514658341
 30
0.0
 11
3.403060657153003
 21
7.236287227038264
 31
0.0
  0
ARC
  5
1B2
330
1E
100
AcDbEntity
  8
IMAGE
100
AcDbCircle
 10
3.375612257378907
 20
7.233725474814736
 30
0.0
 40
0.0275676844260349
100
AcDbArc
 50
275.3319552096452
 51
318.175598253249
  0
LINE
  5
1B3
330
1E
100
AcDbEntity
  8
IMAGE
100
AcDbLine
 10
3.267575784012915
 20
7.300033151640889
 30
0.0
 11
3.311429921842201
 21
7.285575430656722
 31
0.0
  0
LINE
  5
1B4
330
1E
100
AcDbEntity
  8
IMAGE
100
AcDbLine
 10
3.265354890215491
 20
7.293296586258064
 30
0.0
 11
3.309209028044777
 21
7.278838865273899
 31
0.0
  0
LINE
  5
1B5
330
1E
100
AcDbEntity
  8
IMAGE
100
AcDbLine
 10
3.251544529872404
 20
7.251406066540527
 30
0.0
 11
3.29539866770169
 21
7.236948345556362
 31
0.0
  0
LINE
  5
1B6
330
1E
100
AcDbEntity
  8
IMAGE
100
AcDbLine
 10
3.311758029559245
 20
7.389616156399085
 30
0.0
 11
3.307051454694387
 21
7.375339854964483
 31
0.0
  0
LINE
  5
1B7
330
1E
100
AcDbEntity
  8
IMAGE
100
AcDbLine
 10
3.207031730265418
 20
7.424142057256798
 30
0.0
 11
3.20232515540056
 21
7.409865755822195
 31
0.0
  0
LINE
  5
1B8
330
1E
100
AcDbEntity
  8
IMAGE
100
AcDbLine
 10
3.207031730265418
 20
7.424142057256798
 30
0.0
 11
3.311758029559245
 21
7.389616156399085
 31
0.0
  0
LINE
  5
1B9
330
1E
100
AcDbEntity
  8
IMAGE
100
AcDbLine
 10
3.444090469024171
 20
7.36731596757388
 30
0.0
 11
3.4619764956383
 21
7.361419347662913
 31
0.0
  0
LINE
  5
1BA
330
1E
100
AcDbEntity
  8
IMAGE
100
AcDbLine
 10
3.447583832266294
 20
7.380097329727673
 30
0.0
 11
3.466119603741226
 21
7.373986503578178
 31
0.0
  0
LINE
  5
1BB
330
1E
100
AcDbEntity
  8
IMAGE
100
AcDbLine
 10
3.446139672726901
 20
7.387539959229187
 30
0.0
 11
3.453008489066061
 21
7.38527546527175
 31
0.0
  0
LINE
  5
1BC
330
1E
100
AcDbEntity
  8
IMAGE
100
AcDbLine
 10
3.423519338159885
 20
7.373479183042388
 30
0.0
 11
3.421361469356282
 21
7.366933789336535
 31
0.0
  0
ARC
  5
1BD
330
1E
100
AcDbEntity
  8
IMAGE
100
AcDbCircle
 10
3.435550133974246
 20
7.373141297989091
 30
0.0
 40
0.0034459605532544
100
AcDbArc
 50
251.7537767314481
 51
341.7537767314481
  0
ARC
  5
1BE
330
1E
100
AcDbEntity
  8
IMAGE
100
AcDbCircle
 10
3.435550133974246
 20
7.373141297989091
 30
0.0
 40
0.0103378816597631
100
AcDbArc
 50
251.7537767314481
 51
341.7537767314481
  0
LINE
  5
1BF
330
1E
100
AcDbEntity
  8
IMAGE
100
AcDbLine
 10
3.43447119957244
 20
7.369868601136152
 30
0.0
 11
3.423519338159885
 21
7.373479183042388
 31
0.0
  0
LINE
  5
1C0
330
1E
100
AcDbEntity
  8
IMAGE
100
AcDbLine
 10
3.432313330768836
 20
7.363323207430299
 30
0.0
 11
3.421361469356282
 21
7.366933789336535
 31
0.0
  0
LINE
  5
1C1
330
1E
100
AcDbEntity
  8
IMAGE
100
AcDbLine
 10
3.439999403166343
 20
7.375631222440238
 30
0.0
 11
3.438822830827179
 21
7.372062363587287
 31
0.0
  0
LINE
  5
1C2
330
1E
100
AcDbEntity
  8
IMAGE
100
AcDbLine
 10
3.446544796872223
 20
7.373473353636626
 30
0.0
 11
3.445368224533059
 21
7.369904494783677
 31
0.0
  0
LINE
  5
1C3
330
1E
100
AcDbEntity
  8
IMAGE
100
AcDbLine
 10
3.43818441834989
 20
7.39727738025811
 30
0.0
 11
3.444826165694195
 21
7.395675168222332
 31
0.0
  0
LINE
  5
1C4
330
1E
100
AcDbEntity
  8
IMAGE
100
AcDbLine
 10
3.404343633823314
 20
7.404960506480648
 30
0.0
 11
3.404220511302796
 21
7.404587042918127
 31
0.0
  0
ARC
  5
1C5
330
1E
100
AcDbEntity
  8
IMAGE
100
AcDbCircle
 10
3.426908615754623
 20
7.379946960047449
 30
0.0
 40
0.0206757633195262
100
AcDbArc
 50
341.7537767314481
 51
66.20642754193046
  0
LINE
  5
1C6
330
1E
100
AcDbEntity
  8
IMAGE
100
AcDbLine
 10
3.435250100540765
 20
7.398865385468395
 30
0.0
 11
3.404436320556915
 21
7.412451752791243
 31
0.0
  0
LINE
  5
1C7
330
1E
100
AcDbEntity
  8
IMAGE
100
AcDbLine
 10
3.432469605612046
 20
7.392559243661416
 30
0.0
 11
3.40165582562821
 21
7.406145610984259
 31
0.0
  0
ARC
  5
1C8
330
1E
100
AcDbEntity
  8
IMAGE
100
AcDbCircle
 10
3.40304607309257
 20
7.409298681887749
 30
0.0
 40
0.0034459605532544
100
AcDbArc
 50
66.20642754193081
 51
246.2064275419311
  0
ARC
  5
1C9
330
1E
100
AcDbEntity
  8
IMAGE
100
AcDbCircle
 10
3.426908615754623
 20
7.379946960047449
 30
0.0
 40
0.0137838422130174
100
AcDbArc
 50
341.7537767314481
 51
66.20642754193024
  0
LINE
  5
1CA
330
1E
100
AcDbEntity
  8
IMAGE
100
AcDbLine
 10
3.41337759464414
 20
7.410351127883508
 30
0.0
 11
3.446991231457534
 21
7.402242392233565
 31
0.0
  0
LINE
  5
1CB
330
1E
100
AcDbEntity
  8
IMAGE
100
AcDbLine
 10
3.499403324398421
 20
7.388667575684008
 30
0.0
 11
3.487326777798347
 21
7.352036177161275
 31
0.0
  0
LINE
  5
1CC
330
1E
100
AcDbEntity
  8
IMAGE
100
AcDbLine
 10
3.449572680738006
 20
7.410072618911001
 30
0.0
 11
3.443643781890258
 21
7.392088681641096
 31
0.0
  0
LINE
  5
1CD
330
1E
100
AcDbEntity
  8
IMAGE
100
AcDbLine
 10
3.432647048857937
 20
7.448549684613835
 30
0.0
 11
3.437326709309285
 21
7.462744347427735
 31
0.0
  0
LINE
  5
1CE
330
1E
100
AcDbEntity
  8
IMAGE
100
AcDbLine
 10
3.439492820821162
 20
7.469314743474216
 30
0.0
 11
3.444172481272508
 21
7.483509406288108
 31
0.0
  0
LINE
  5
1CF
330
1E
100
AcDbEntity
  8
IMAGE
100
AcDbLine
 10
3.446338592784389
 20
7.4900798023346
 30
0.0
 11
3.451018253235735
 21
7.504274465148494
 31
0.0
  0
LINE
  5
1D0
330
1E
100
AcDbEntity
  8
IMAGE
100
AcDbLine
 10
3.541198495191907
 20
7.425626478655274
 30
0.0
 11
3.545878155643252
 21
7.439821141469167
 31
0.0
  0
LINE
  5
1D1
330
1E
100
AcDbEntity
  8
IMAGE
100
AcDbLine
 10
3.548044267155132
 20
7.446391537515653
 30
0.0
 11
3.552723927606478
 21
7.460586200329546
 31
0.0
  0
LINE
  5
1D2
330
1E
100
AcDbEntity
  8
IMAGE
100
AcDbLine
 10
3.554890039118357
 20
7.467156596376032
 30
0.0
 11
3.559646961413987
 21
7.481585615045313
 31
0.0
  0
LINE
  5
1D3
330
1E
100
AcDbEntity
  8
IMAGE
100
AcDbLine
 10
3.499366382286949
 20
7.382518240244063
 30
0.0
 11
3.53240644923486
 21
7.374547868866992
 31
0.0
  0
ARC
  5
1D4
330
1E
100
AcDbEntity
  8
IMAGE
100
AcDbCircle
 10
3.533196042544366
 20
7.377902147707542
 30
0.0
 40
0.0034459605532544
100
AcDbArc
 50
256.7537954554171
 51
76.75379545541717
  0
LINE
  5
1D5
330
1E
100
AcDbEntity
  8
IMAGE
100
AcDbLine
 10
3.403835668725972
 20
7.412652960181256
 30
0.0
 11
3.406655410502113
 21
7.411972743970473
 31
0.0
  0
LINE
  5
1D6
330
1E
100
AcDbEntity
  8
IMAGE
100
AcDbLine
 10
3.45885057475838
 20
7.429792945575632
 30
0.0
 11
3.429638368488852
 21
7.439423551682192
 31
0.0
  0
LINE
  5
1D7
330
1E
100
AcDbEntity
  8
IMAGE
100
AcDbLine
 10
3.519108926090766
 20
7.508303142594522
 30
0.0
 11
3.520929301354741
 21
7.513824828053442
 31
0.0
  0
LINE
  5
1D8
330
1E
100
AcDbEntity
  8
IMAGE
100
AcDbLine
 10
3.453184364747609
 20
7.510844861194966
 30
0.0
 11
3.455532794132134
 21
7.517968276152554
 31
0.0
  0
ARC
  5
1D9
330
1E
100
AcDbEntity
  8
IMAGE
100
AcDbCircle
 10
3.510485386343383
 20
7.508559798170734
 30
0.0
 40
0.0034459605532544
100
AcDbArc
 50
66.75375800747914
 51
246.7537580074791
  0
ARC
  5
1DA
330
1E
100
AcDbEntity
  8
IMAGE
100
AcDbCircle
 10
3.567424902360487
 20
7.481727442009425
 30
0.0
 40
0.0034459605532544
100
AcDbArc
 50
246.7537580074791
 51
66.75375800747914
  0
LINE
  5
1DB
330
1E
100
AcDbEntity
  8
IMAGE
100
AcDbLine
 10
3.509125324446627
 20
7.505393589748724
 30
0.0
 11
3.56606484046372
 21
7.478561233587422
 31
0.0
  0
LINE
  5
1DC
330
1E
100
AcDbEntity
  8
IMAGE
100
AcDbLine
 10
3.511845450433761
 20
7.51172600565046
 30
0.0
 11
3.568784966450854
 21
7.484893649489158
 31
0.0
  0
ARC
  5
1DD
330
1E
100
AcDbEntity
  8
IMAGE
100
AcDbCircle
 10
3.445329161956849
 20
7.510468678375451
 30
0.0
 40
0.0034459605532544
100
AcDbArc
 50
66.75375800747914
 51
246.7537580074791
  0
ARC
  5
1DE
330
1E
100
AcDbEntity
  8
IMAGE
100
AcDbCircle
 10
3.560579130397264
 20
7.460962383149052
 30
0.0
 40
0.0034459605532544
100
AcDbArc
 50
246.7537580074791
 51
66.75375800747914
  0
LINE
  5
1DF
330
1E
100
AcDbEntity
  8
IMAGE
100
AcDbLine
 10
3.443969100060085
 20
7.507302469953456
 30
0.0
 11
3.559219068500496
 21
7.457796174727045
 31
0.0
  0
LINE
  5
1E0
330
1E
100
AcDbEntity
  8
IMAGE
100
AcDbLine
 10
3.446689226047219
 20
7.513634885855193
 30
0.0
 11
3.561939194487629
 21
7.464128590628781
 31
0.0
  0
LINE
  5
1E1
330
1E
100
AcDbEntity
  8
IMAGE
100
AcDbLine
 10
3.559167438511162
 20
7.480131093720974
 30
0.0
 11
3.566635309050983
 21
7.47837316316888
 31
0.0
  0
LINE
  5
1E2
330
1E
100
AcDbEntity
  8
IMAGE
100
AcDbLine
 10
3.446118757590255
 20
7.513822956668969
 30
0.0
 11
3.453586625806151
 21
7.512065026663918
 31
0.0
  0
ARC
  5
1E3
330
1E
100
AcDbEntity
  8
IMAGE
100
AcDbCircle
 10
3.567424902360487
 20
7.481727442009425
 30
0.0
 40
0.0034459605532544
100
AcDbArc
 50
256.7537954554171
 51
76.75379545541717
  0
ARC
  5
1E4
330
1E
100
AcDbEntity
  8
IMAGE
100
AcDbCircle
 10
3.438483389993626
 20
7.489703619515077
 30
0.0
 40
0.0034459605532544
100
AcDbArc
 50
66.75375800747914
 51
246.7537580074791
  0
ARC
  5
1E5
330
1E
100
AcDbEntity
  8
IMAGE
100
AcDbCircle
 10
3.553733358434039
 20
7.440197324288673
 30
0.0
 40
0.0034459605532544
100
AcDbArc
 50
246.7537580074791
 51
66.75375800747914
  0
LINE
  5
1E6
330
1E
100
AcDbEntity
  8
IMAGE
100
AcDbLine
 10
3.437123328096862
 20
7.486537411093083
 30
0.0
 11
3.552373296537273
 21
7.437031115866671
 31
0.0
  0
LINE
  5
1E7
330
1E
100
AcDbEntity
  8
IMAGE
100
AcDbLine
 10
3.439843454083991
 20
7.492869826994807
 30
0.0
 11
3.555093422524404
 21
7.443363531768401
 31
0.0
  0
LINE
  5
1E8
330
1E
100
AcDbEntity
  8
IMAGE
100
AcDbLine
 10
3.552321666547936
 20
7.459366034860595
 30
0.0
 11
3.559789537087756
 21
7.457608104308494
 31
0.0
  0
LINE
  5
1E9
330
1E
100
AcDbEntity
  8
IMAGE
100
AcDbLine
 10
3.43927298562703
 20
7.493057897808588
 30
0.0
 11
3.446740853842928
 21
7.491299967803547
 31
0.0
  0
ARC
  5
1EA
330
1E
100
AcDbEntity
  8
IMAGE
100
AcDbCircle
 10
3.560579130397264
 20
7.460962383149052
 30
0.0
 40
0.0034459605532544
100
AcDbArc
 50
256.7537954554171
 51
76.75379545541717
  0
ARC
  5
1EB
330
1E
100
AcDbEntity
  8
IMAGE
100
AcDbCircle
 10
3.431637618030404
 20
7.468938560654708
 30
0.0
 40
0.0034459605532544
100
AcDbArc
 50
66.75375800747914
 51
246.7537580074791
  0
ARC
  5
1EC
330
1E
100
AcDbEntity
  8
IMAGE
100
AcDbCircle
 10
3.546887586470814
 20
7.419432265428294
 30
0.0
 40
0.0034459605532544
100
AcDbArc
 50
246.7537580074791
 51
66.75375800747914
  0
LINE
  5
1ED
330
1E
100
AcDbEntity
  8
IMAGE
100
AcDbLine
 10
3.430277556133637
 20
7.465772352232704
 30
0.0
 11
3.545527524574049
 21
7.416266057006298
 31
0.0
  0
LINE
  5
1EE
330
1E
100
AcDbEntity
  8
IMAGE
100
AcDbLine
 10
3.432997682120766
 20
7.472104768134428
 30
0.0
 11
3.548247650561176
 21
7.422598472908015
 31
0.0
  0
LINE
  5
1EF
330
1E
100
AcDbEntity
  8
IMAGE
100
AcDbLine
 10
3.545475894584711
 20
7.438600976000214
 30
0.0
 11
3.552943765124533
 21
7.436843045448124
 31
0.0
  0
LINE
  5
1F0
330
1E
100
AcDbEntity
  8
IMAGE
100
AcDbLine
 10
3.432427213663805
 20
7.472292838948209
 30
0.0
 11
3.439895081879705
 21
7.470534908943173
 31
0.0
  0
ARC
  5
1F1
330
1E
100
AcDbEntity
  8
IMAGE
100
AcDbCircle
 10
3.553733358434039
 20
7.440197324288673
 30
0.0
 40
0.0034459605532544
100
AcDbArc
 50
256.7537954554171
 51
76.75379545541717
  0
ARC
  5
1F2
330
1E
100
AcDbEntity
  8
IMAGE
100
AcDbCircle
 10
3.424791846067177
 20
7.448173501794322
 30
0.0
 40
0.0034459605532544
100
AcDbArc
 50
66.75375800747914
 51
246.7537580074791
  0
ARC
  5
1F3
330
1E
100
AcDbEntity
  8
IMAGE
100
AcDbCircle
 10
3.540041814507591
 20
7.398667206567921
 30
0.0
 40
0.0034459605532544
100
AcDbArc
 50
246.7537580074791
 51
66.75375800747914
  0
LINE
  5
1F4
330
1E
100
AcDbEntity
  8
IMAGE
100
AcDbLine
 10
3.423431784170412
 20
7.445007293372325
 30
0.0
 11
3.538681752610822
 21
7.395500998145912
 31
0.0
  0
LINE
  5
1F5
330
1E
100
AcDbEntity
  8
IMAGE
100
AcDbLine
 10
3.426151910157543
 20
7.451339709274055
 30
0.0
 11
3.541401878597953
 21
7.401833414047642
 31
0.0
  0
LINE
  5
1F6
330
1E
100
AcDbEntity
  8
IMAGE
100
AcDbLine
 10
3.538630122621486
 20
7.417835917139836
 30
0.0
 11
3.546097993161308
 21
7.416077986587744
 31
0.0
  0
LINE
  5
1F7
330
1E
100
AcDbEntity
  8
IMAGE
100
AcDbLine
 10
3.425581441700582
 20
7.451527780087836
 30
0.0
 11
3.433049309916479
 21
7.449769850082789
 31
0.0
  0
ARC
  5
1F8
330
1E
100
AcDbEntity
  8
IMAGE
100
AcDbCircle
 10
3.546887586470814
 20
7.419432265428294
 30
0.0
 40
0.0034459605532544
100
AcDbArc
 50
256.7537954554171
 51
76.75379545541717
  0
ARC
  5
1F9
330
1E
100
AcDbEntity
  8
IMAGE
100
AcDbCircle
 10
3.540041814507591
 20
7.398667206567921
 30
0.0
 40
0.0034459605532544
100
AcDbArc
 50
256.7537954554171
 51
76.75379545541717
  0
LINE
  5
1FA
330
1E
100
AcDbEntity
  8
IMAGE
100
AcDbLine
 10
3.418735669737356
 20
7.430762721227457
 30
0.0
 11
3.453681724579895
 21
7.42253644880412
 31
0.0
  0
LINE
  5
1FB
330
1E
100
AcDbEntity
  8
IMAGE
100
AcDbLine
 10
3.504306164031635
 20
7.40353920069775
 30
0.0
 11
3.539252221198083
 21
7.395312927727365
 31
0.0
  0
LINE
  5
1FC
330
1E
100
AcDbEntity
  8
IMAGE
100
AcDbLine
 10
3.419306138194318
 20
7.430574650413674
 30
0.0
 11
3.53455610663473
 21
7.38106835518727
 31
0.0
  0
LINE
  5
1FD
330
1E
100
AcDbEntity
  8
IMAGE
100
AcDbLine
 10
3.416586012207187
 20
7.424242234511945
 30
0.0
 11
3.531835980647596
 21
7.374735939285534
 31
0.0
  0
ARC
  5
1FE
330
1E
100
AcDbEntity
  8
IMAGE
100
AcDbCircle
 10
3.417946074103953
 20
7.427408442933948
 30
0.0
 40
0.0034459605532544
100
AcDbArc
 50
66.75375800747914
 51
246.7537580074791
  0
ARC
  5
1FF
330
1E
100
AcDbEntity
  8
IMAGE
100
AcDbCircle
 10
3.533196042544366
 20
7.377902147707542
 30
0.0
 40
0.0034459605532544
100
AcDbArc
 50
246.7537580074791
 51
66.75375800747914
  0
CIRCLE
  5
200
330
1E
100
AcDbEntity
  8
IMAGE
100
AcDbCircle
 10
3.38922016311076
 20
7.385405470924739
 30
0.0
 40
0.0049997144834675
  0
LINE
  5
201
330
1E
100
AcDbEntity
  8
IMAGE
100
AcDbLine
 10
3.446793826911672
 20
7.366424731398858
 30
0.0
 11
3.435745538637208
 21
7.332912315624842
 31
0.0
  0
LINE
  5
202
330
1E
100
AcDbEntity
  8
IMAGE
100
AcDbLine
 10
3.404903307194142
 20
7.380235091741942
 30
0.0
 11
3.409046415297068
 21
7.392802247657206
 31
0.0
  0
LINE
  5
203
330
1E
100
AcDbEntity
  8
IMAGE
100
AcDbLine
 10
3.398619729236513
 20
7.382306645793404
 30
0.0
 11
3.40276283733944
 21
7.394873801708669
 31
0.0
  0
LINE
  5
204
330
1E
100
AcDbEntity
  8
IMAGE
100
AcDbLine
 10
3.398619729236513
 20
7.382306645793404
 30
0.0
 11
3.436482950082843
 21
7.369823995132501
 31
0.0
  0
LINE
  5
205
330
1E
100
AcDbEntity
  8
IMAGE
100
AcDbLine
 10
3.430037619024655
 20
7.371948875536093
 30
0.0
 11
3.434180727127582
 21
7.384516031451358
 31
0.0
  0
LINE
  5
206
330
1E
100
AcDbEntity
  8
IMAGE
100
AcDbLine
 10
3.436321196982283
 20
7.369877321484631
 30
0.0
 11
3.44046430508521
 21
7.382444477399895
 31
0.0
  0
ARC
  5
207
330
1E
100
AcDbEntity
  8
IMAGE
100
AcDbCircle
 10
3.414157877191115
 20
7.40171203371511
 30
0.0
 40
0.0034459605532544
100
AcDbArc
 50
172.8523225715838
 51
251.7537767314481
  0
ARC
  5
208
330
1E
100
AcDbEntity
  8
IMAGE
100
AcDbCircle
 10
3.401067089779382
 20
7.406027771322325
 30
0.0
 40
0.0034459605532544
100
AcDbArc
 50
251.7537767314481
 51
335.4068015220298
  0
ARC
  5
209
330
1E
100
AcDbEntity
  8
IMAGE
100
AcDbCircle
 10
3.412359794853186
 20
7.418269768671624
 30
0.0
 40
0.0034459605532544
100
AcDbArc
 50
341.7537767314481
 51
161.7537767314481
  0
LINE
  5
20A
330
1E
100
AcDbEntity
  8
IMAGE
100
AcDbLine
 10
3.415632491706119
 20
7.417190834269819
 30
0.0
 11
3.412847470865322
 21
7.408743120557298
 31
0.0
  0
LINE
  5
20B
330
1E
100
AcDbEntity
  8
IMAGE
100
AcDbLine
 10
3.409087098000252
 20
7.419348703073428
 30
0.0
 11
3.406511656231149
 21
7.411536698786081
 31
0.0
  0
LINE
  5
20C
330
1E
100
AcDbEntity
  8
IMAGE
100
AcDbLine
 10
3.342684797460809
 20
7.414680177590964
 30
0.0
 11
3.344756351512271
 21
7.420963755548592
 31
0.0
  0
LINE
  5
20D
330
1E
100
AcDbEntity
  8
IMAGE
100
AcDbLine
 10
3.342684797460809
 20
7.414680177590964
 30
0.0
 11
3.44046430508521
 21
7.382444477399895
 31
0.0
  0
LWPOLYLINE
  5
20E
330
1E
100
AcDbEntity
  8
IMAGE
100
AcDbPolyline
 90
        6
 70
     0
 43
0.0
 10
3.705241636409728
 20
7.216094961719463
 42
0.0269144404662705
 10
3.70515551190376
 20
7.220710476002302
 42
0.0624775271329113
 10
3.703061932753652
 20
7.231185409142772
 42
0.0756612043681038
 10
3.699035516706933
 20
7.239051589528385
 42
0.107081525558033
 10
3.692856301778448
 20
7.24461850744815
 42
0.1492029026861064
 10
3.686973908768187
 20
7.245957088358627
 42
0.1492029026860998
  0
LWPOLYLINE
  5
216
330
1E
100
AcDbEntity
  8
IMAGE
100
AcDbPolyline
 90
        9
 70
     0
 43
0.0
 10
3.672543462198347
 20
7.222964586548716
 42
0.0269144404663062
 10
3.672629586704329
 20
7.218349072265871
 42
0.062477527132918
 10
3.674723165854441
 20
7.207874139125415
 42
0.0756612043681155
 10
3.678749581901156
 20
7.200007958739794
 42
0.1070815255580553
 10
3.684928796829657
 20
7.194441040820034
 42
0.149202902686114
 10
3.690811189839888
 20
7.193102459909551
 42
0.1492029026861015
 10
3.696438552856982
 20
7.195276656739382
 42
0.1070815255580422
 10
3.701748884174045
 20
7.201677723334942
 42
0.0267597965324953
 10
3.703045926707771
 20
7.204538449602299
 42
0.0624775271329189
  0
LWPOLYLINE
  5
221
330
1E
100
AcDbEntity
  8
IMAGE
100
AcDbPolyline
 90
        4
 70
     0
 43
0.0
 10
3.686973908768187
 20
7.245957088358627
 42
0.1492029026860998
 10
3.681346545751108
 20
7.243782891528798
 42
0.1070815255580472
 10
3.676036214434043
 20
7.237381824933232
 42
0.0267597965324959
 10
3.67473917190033
 20
7.234521098665869
 42
0.0624775271329136
  0
LWPOLYLINE
  5
227
330
1E
100
AcDbEntity
  8
IMAGE
100
AcDbPolyline
 90
        3
 70
     0
 43
0.0
 10
3.708607340360543
 20
7.205135043404389
 42
0.048802598267344
 10
3.710158299979589
 20
7.210639584842143
 42
0.0355033860300761
 10
3.710803050062511
 20
7.216691555521542
 42
0.0624775271329113
  0
LWPOLYLINE
  5
22C
330
1E
100
AcDbEntity
  8
IMAGE
100
AcDbPolyline
 90
        3
 70
     0
 43
0.0
 10
3.679229875878428
 20
7.2318083235568
 42
0.0191372537753844
 10
3.67874962593407
 20
7.229613151030203
 42
0.0355033860300523
 10
3.67810487585113
 20
7.223561180350793
 42
0.062477527132918
  0
LINE
  5
231
330
1E
100
AcDbEntity
  8
IMAGE
100
AcDbLine
 10
3.678104875851143
 20
7.22356118035079
 30
0.0
 11
3.70860734036053
 21
7.205135043404393
 31
0.0
  0
LINE
  5
232
330
1E
100
AcDbEntity
  8
IMAGE
100
AcDbLine
 10
3.67254346219836
 20
7.222964586548711
 30
0.0
 11
3.678104875851143
 21
7.22356118035079
 31
0.0
  0
LINE
  5
233
330
1E
100
AcDbEntity
  8
IMAGE
100
AcDbLine
 10
3.703045926707745
 20
7.204538449602308
 30
0.0
 11
3.70860734036053
 21
7.205135043404393
 31
0.0
  0
LINE
  5
234
330
1E
100
AcDbEntity
  8
IMAGE
100
AcDbLine
 10
3.705241636409727
 20
7.216094961719463
 30
0.0
 11
3.710803050062511
 21
7.216691555521542
 31
0.0
  0
LINE
  5
235
330
1E
100
AcDbEntity
  8
IMAGE
100
AcDbLine
 10
3.67254346219836
 20
7.222964586548711
 30
0.0
 11
3.703045926707745
 21
7.204538449602308
 31
0.0
  0
LINE
  5
236
330
1E
100
AcDbEntity
  8
IMAGE
100
AcDbLine
 10
3.67473917190033
 20
7.234521098665869
 30
0.0
 11
3.705241636409727
 21
7.216094961719463
 31
0.0
  0
LINE
  5
237
330
1E
100
AcDbEntity
  8
IMAGE
100
AcDbLine
 10
3.710122639567406
 20
7.210444164389292
 30
0.0
 11
3.74554513014684
 21
7.213185052480175
 31
0.0
  0
LINE
  5
238
330
1E
100
AcDbEntity
  8
IMAGE
100
AcDbLine
 10
3.701748884174045
 20
7.201677723334942
 30
0.0
 11
3.742697127994079
 21
7.204819784775054
 31
0.0
  0
LINE
  5
239
330
1E
100
AcDbEntity
  8
IMAGE
100
AcDbLine
 10
3.696438552856981
 20
7.195276656739382
 30
0.0
 11
3.737386796676954
 21
7.198418718179485
 31
0.0
  0
LINE
  5
23A
330
1E
100
AcDbEntity
  8
IMAGE
100
AcDbLine
 10
3.692856301778448
 20
7.24461850744815
 30
0.0
 11
3.733804545598421
 21
7.247760568888253
 31
0.0
  0
LINE
  5
23B
330
1E
100
AcDbEntity
  8
IMAGE
100
AcDbLine
 10
3.699035516706933
 20
7.239051589528385
 30
0.0
 11
3.739983760526963
 21
7.242193650968482
 31
0.0
  0
LINE
  5
23C
330
1E
100
AcDbEntity
  8
IMAGE
100
AcDbLine
 10
3.703061932753651
 20
7.231185409142771
 30
0.0
 11
3.744010176573694
 21
7.234327470582867
 31
0.0
  0
LINE
  5
23D
330
1E
100
AcDbEntity
  8
IMAGE
100
AcDbLine
 10
3.70515551190376
 20
7.220710476002302
 30
0.0
 11
3.746103755723794
 21
7.223852537442414
 31
0.0
  0
LINE
  5
23E
330
1E
100
AcDbEntity
  8
IMAGE
100
AcDbLine
 10
3.701617991735202
 20
7.193931692920745
 30
0.0
 11
3.702816932123395
 21
7.177417513332052
 31
0.0
  0
LINE
  5
23F
330
1E
100
AcDbEntity
  8
IMAGE
100
AcDbLine
 10
3.744697833863768
 20
7.209696623603347
 30
0.0
 11
3.746699554371315
 21
7.182124967602977
 31
0.0
  0
LWPOLYLINE
  5
240
330
1E
100
AcDbEntity
  8
IMAGE
100
AcDbPolyline
 90
        9
 70
     0
 43
0.0
 10
3.731759433659935
 20
7.196244521349658
 42
0.1492029026861015
 10
3.737386796677016
 20
7.198418718179494
 42
0.1070815255580422
 10
3.742697127994092
 20
7.204819784775049
 42
0.0756612043681028
 10
3.74554513014684
 20
7.213185052480175
 42
0.0624775271329189
 10
3.746103755723795
 20
7.223852537442414
 42
0.0624775271329113
 10
3.744010176573697
 20
7.234327470582874
 42
0.0756612043681038
 10
3.739983760526976
 20
7.242193650968479
 42
0.107081525558033
 10
3.73380454559848
 20
7.247760568888255
 42
0.1492029026861064
 10
3.727922152588231
 20
7.249099149798729
 42
0.1492029026860998
  0
LINE
  5
24B
330
1E
100
AcDbEntity
  8
IMAGE
100
AcDbLine
 10
3.731759433659935
 20
7.196244521349658
 30
0.0
 11
3.690811189839888
 21
7.193102459909551
 31
0.0
  0
LINE
  5
24C
330
1E
100
AcDbEntity
  8
IMAGE
100
AcDbLine
 10
3.727922152588231
 20
7.249099149798729
 30
0.0
 11
3.686973908768187
 21
7.245957088358627
 31
0.0
  0
LINE
  5
24D
330
1E
100
AcDbEntity
  8
IMAGE
100
AcDbLine
 10
3.476583506019838
 20
7.319448958067184
 30
0.0
 11
3.469475997198299
 21
7.297889981253064
 31
0.0
  0
ARC
  5
24E
330
1E
100
AcDbEntity
  8
IMAGE
100
AcDbCircle
 10
3.52689386300012
 20
7.384006537996185
 30
0.0
 40
0.0275676844260349
100
AcDbArc
 50
170.5357990662431
 51
276.1229190181332
  0
LINE
  5
24F
330
1E
100
AcDbEntity
  8
IMAGE
100
AcDbLine
 10
3.475290225078529
 20
7.35074497078833
 30
0.0
 11
3.58361919955682
 21
7.36236582814484
 31
0.0
  0
LINE
  5
250
330
1E
100
AcDbEntity
  8
IMAGE
100
AcDbLine
 10
3.473016056261988
 20
7.343846808011717
 30
0.0
 11
3.581345030740282
 21
7.355467665368232
 31
0.0
  0
ARC
  5
251
330
1E
100
AcDbEntity
  8
IMAGE
100
AcDbCircle
 10
3.764383157247232
 20
7.369311115953596
 30
0.0
 40
0.0551353688520697
100
AcDbArc
 50
276.1229190181308
 51
154.0766907937632
  0
LINE
  5
252
330
1E
100
AcDbEntity
  8
IMAGE
100
AcDbLine
 10
3.711246564523349
 20
7.40045434127877
 30
0.0
 11
3.734226391941958
 21
7.415468221633839
 31
0.0
  0
LINE
  5
253
330
1E
100
AcDbEntity
  8
IMAGE
100
AcDbLine
 10
3.770263995498319
 20
7.314490274662
 30
0.0
 11
3.755387630770419
 21
7.312894430952423
 31
0.0
  0
ARC
  5
254
330
1E
100
AcDbEntity
  8
IMAGE
100
AcDbCircle
 10
3.448743265425996
 20
7.532306685621044
 30
0.0
 40
0.0050489493790321
100
AcDbArc
 50
341.7537767314481
 51
161.7537767314481
  0
ARC
  5
255
330
1E
100
AcDbEntity
  8
IMAGE
100
AcDbCircle
 10
3.574244728119717
 20
7.490931681561136
 30
0.0
 40
0.0050489493790321
100
AcDbArc
 50
341.7537767314481
 51
161.7537767314481
  0
ARC
  5
256
330
1E
100
AcDbEntity
  8
IMAGE
100
AcDbCircle
 10
3.510485386343383
 20
7.508559798170734
 30
0.0
 40
0.0049997144834675
100
AcDbArc
 50
18.30475104771659
 51
291.2315783538474
  0
LINE
  5
257
330
1E
100
AcDbEntity
  8
IMAGE
100
AcDbLine
 10
3.500041471332008
 20
7.503294768288029
 30
0.0
 11
3.505220356460664
 21
7.519003713182099
 31
0.0
  0
LINE
  5
258
330
1E
100
AcDbEntity
  8
IMAGE
100
AcDbLine
 10
3.515750416226086
 20
7.498115883159369
 30
0.0
 11
3.516936224393885
 21
7.501712756752846
 31
0.0
  0
LINE
  5
259
330
1E
100
AcDbEntity
  8
IMAGE
100
AcDbLine
 10
3.449940299458881
 20
7.519811995618802
 30
0.0
 11
3.45353835245269
 21
7.530725853486194
 31
0.0
  0
LINE
  5
25A
330
1E
100
AcDbEntity
  8
IMAGE
100
AcDbLine
 10
3.567186247433371
 20
7.485647034854538
 30
0.0
 11
3.569449641093024
 21
7.492512513695988
 31
0.0
  0
LINE
  5
25B
330
1E
100
AcDbEntity
  8
IMAGE
100
AcDbLine
 10
3.545105538023576
 20
7.488438161023857
 30
0.0
 11
3.449940299458881
 21
7.519811995618802
 31
0.0
  0
LINE
  5
25C
330
1E
100
AcDbEntity
  8
IMAGE
100
AcDbLine
 10
3.534364667782667
 20
7.404897650824485
 30
0.0
 11
3.539032383680031
 21
7.419056082608801
 31
0.0
  0
LINE
  5
25D
330
1E
100
AcDbEntity
  8
IMAGE
100
AcDbLine
 10
3.429638368488852
 20
7.439423551682192
 30
0.0
 11
3.430480937346057
 21
7.441979288567349
 31
0.0
  0
LINE
  5
25E
330
1E
100
AcDbEntity
  8
IMAGE
100
AcDbLine
 10
3.466110876090448
 20
7.322901548152957
 30
0.0
 11
3.497963015059385
 21
7.312400615726595
 31
0.0
  0
LINE
  5
25F
330
1E
100
AcDbEntity
  8
IMAGE
100
AcDbLine
 10
3.473016056261988
 20
7.343846808011717
 30
0.0
 11
3.504868195230925
 21
7.333345875585353
 31
0.0
  0
LINE
  5
260
330
1E
100
AcDbEntity
  8
IMAGE
100
AcDbLine
 10
3.475290225078529
 20
7.35074497078833
 30
0.0
 11
3.466110876090448
 21
7.322901548152957
 31
0.0
  0
LINE
  5
261
330
1E
100
AcDbEntity
  8
IMAGE
100
AcDbLine
 10
3.425272908707819
 20
7.336364905710617
 30
0.0
 11
3.421820318622048
 21
7.325892275781233
 31
0.0
  0
LINE
  5
262
330
1E
100
AcDbEntity
  8
IMAGE
100
AcDbLine
 10
3.453008489066061
 20
7.38527546527175
 30
0.0
 11
3.450936935014599
 21
7.378991887314121
 31
0.0
  0
LINE
  5
263
330
1E
100
AcDbEntity
  8
IMAGE
100
AcDbLine
 10
3.534364667782667
 20
7.404897650824485
 30
0.0
 11
3.533950545219481
 21
7.405034177701267
 31
0.0
  0
LINE
  5
264
330
1E
100
AcDbEntity
  8
IMAGE
100
AcDbLine
 10
3.456346219479757
 20
7.430618575075055
 30
0.0
 11
3.451738792249878
 21
7.416643014957468
 31
0.0
  0
LINE
  5
265
330
1E
100
AcDbEntity
  8
IMAGE
100
AcDbLine
 10
3.2938387584231
 20
7.379695783175463
 30
0.0
 11
3.242049907136536
 21
7.222606334234734
 31
0.0
  0
ARC
  5
266
330
1E
100
AcDbEntity
  8
IMAGE
100
AcDbCircle
 10
3.515225965488239
 20
7.364763765373501
 30
0.0
 40
0.0330812213112419
100
AcDbArc
 50
251.7537767314481
 51
276.1229190181328
  0
ARC
  5
267
330
1E
100
AcDbEntity
  8
IMAGE
100
AcDbCircle
 10
3.515225965488239
 20
7.364763765373501
 30
0.0
 40
0.0551353688520697
100
AcDbArc
 50
251.7537767314481
 51
276.1229190181328
  0
LINE
  5
268
330
1E
100
AcDbEntity
  8
IMAGE
100
AcDbLine
 10
3.518754468438903
 20
7.331871260598544
 30
0.0
 11
3.575575340249043
 21
7.33796664966097
 31
0.0
  0
LINE
  5
269
330
1E
100
AcDbEntity
  8
IMAGE
100
AcDbLine
 10
3.521106803739328
 20
7.309942924081909
 30
0.0
 11
3.567994777527245
 21
7.314972773738936
 31
0.0
  0
LINE
  5
26A
330
1E
100
AcDbEntity
  8
IMAGE
100
AcDbLine
 10
3.206490269230202
 20
7.431714353806162
 30
0.0
 11
3.442650718808748
 21
7.353857575483601
 31
0.0
  0
ARC
  5
26B
330
1E
100
AcDbEntity
  8
IMAGE
100
AcDbCircle
 10
3.320007930277309
 20
7.487177107701862
 30
0.0
 40
0.0551353688520697
100
AcDbArc
 50
224.7180849420358
 51
251.7537767314481
  0
LINE
  5
26C
330
1E
100
AcDbEntity
  8
IMAGE
100
AcDbLine
 10
3.280829982253926
 20
7.448382813184098
 30
0.0
 11
3.214135467793367
 21
7.515736898455156
 31
0.0
  0
LINE
  5
26D
330
1E
100
AcDbEntity
  8
IMAGE
100
AcDbLine
 10
3.302744979848455
 20
7.434813958054954
 30
0.0
 11
3.434717144332833
 21
7.391305709432693
 31
0.0
  0
CIRCLE
  5
26E
330
1E
100
AcDbEntity
  8
IMAGE
100
AcDbCircle
 10
3.174957519769984
 20
7.476942603937393
 30
0.0
 40
0.0551353688520697
  0
LINE
  5
26F
330
1E
100
AcDbEntity
  8
IMAGE
100
AcDbLine
 10
3.15769456934113
 20
7.424579454290487
 30
0.0
 11
3.435745538637208
 21
7.332912315624842
 31
0.0
  0
LINE
  5
270
330
1E
100
AcDbEntity
  8
IMAGE
100
AcDbLine
 10
3.39576879664725
 20
7.252532153132214
 30
0.0
 11
3.432603487510679
 21
7.256483549241671
 31
0.0
  0
LINE
  5
271
330
1E
100
AcDbEntity
  8
IMAGE
100
AcDbLine
 10
3.425022924788881
 20
7.233489673319642
 30
0.0
 11
3.545388451986977
 21
7.246401737049099
 31
0.0
  0
LINE
  5
272
330
1E
100
AcDbEntity
  8
IMAGE
100
AcDbLine
 10
3.452185656075302
 20
7.315881508309344
 30
0.0
 11
3.425022924788881
 21
7.233489673319642
 31
0.0
  0
LINE
  5
273
330
1E
100
AcDbEntity
  8
IMAGE
100
AcDbLine
 10
3.406842546271999
 20
7.319219238723045
 30
0.0
 11
3.286933578251558
 21
7.358750523316697
 31
0.0
  0
LINE
  5
274
330
1E
100
AcDbEntity
  8
IMAGE
100
AcDbLine
 10
3.41029513635777
 20
7.329691868652428
 30
0.0
 11
3.473130915934067
 21
7.308976328137802
 31
0.0
  0
LINE
  5
275
330
1E
100
AcDbEntity
  8
IMAGE
100
AcDbLine
 10
3.41029513635777
 20
7.329691868652428
 30
0.0
 11
3.406842546271999
 21
7.319219238723045
 31
0.0
  0
ARC
  5
276
330
1E
100
AcDbEntity
  8
IMAGE
100
AcDbCircle
 10
3.479948627127688
 20
7.29443739116729
 30
0.0
 40
0.011027073770414
100
AcDbArc
 50
161.7537767314481
 51
276.1229190181328
  0
LINE
  5
277
330
1E
100
AcDbEntity
  8
IMAGE
100
AcDbLine
 10
3.481124794777901
 20
7.283473222908973
 30
0.0
 11
3.560414214805446
 21
7.291978897816898
 31
0.0
  0
LINE
  5
278
330
1E
100
AcDbEntity
  8
IMAGE
100
AcDbLine
 10
3.506249096361648
 20
7.409432634544392
 30
0.0
 11
3.501569435910301
 21
7.395237971730495
 31
0.0
  0
ARC
  5
279
330
1E
100
AcDbEntity
  8
IMAGE
100
AcDbCircle
 10
3.449261805269722
 20
7.247180209573802
 30
0.0
 40
0.0330812213112419
100
AcDbArc
 50
251.7537767314481
 51
276.1229190181328
  0
ARC
  5
27A
330
1E
100
AcDbEntity
  8
IMAGE
100
AcDbCircle
 10
3.449261805269722
 20
7.247180209573802
 30
0.0
 40
0.0441082950816558
100
AcDbArc
 50
251.7537767314481
 51
276.1229190181328
  0
LINE
  5
27B
330
1E
100
AcDbEntity
  8
IMAGE
100
AcDbLine
 10
3.386948034829738
 20
7.232891042211306
 30
0.0
 11
3.438904035012408
 21
7.215762319785651
 31
0.0
  0
LINE
  5
27C
330
1E
100
AcDbEntity
  8
IMAGE
100
AcDbLine
 10
3.383495444743965
 20
7.222418412281918
 30
0.0
 11
3.435451444926634
 21
7.205289689856263
 31
0.0
  0
LINE
  5
27D
330
1E
100
AcDbEntity
  8
IMAGE
100
AcDbLine
 10
3.452790308220371
 20
7.214287704798843
 30
0.0
 11
3.537807889265177
 21
7.223407861127061
 31
0.0
  0
LINE
  5
27E
330
1E
100
AcDbEntity
  8
IMAGE
100
AcDbLine
 10
3.453966475870596
 20
7.203323536540523
 30
0.0
 11
3.53443395827764
 21
7.211955586639712
 31
0.0
  0
LINE
  5
27F
330
1E
100
AcDbEntity
  8
IMAGE
100
AcDbLine
 10
3.349769357827854
 20
7.338034982802071
 30
0.0
 11
3.397305805087052
 21
7.264308931999456
 31
0.0
  0
LINE
  5
280
330
1E
100
AcDbEntity
  8
IMAGE
100
AcDbLine
 10
3.37486396952954
 20
7.196236837458471
 30
0.0
 11
3.479590268823355
 21
7.161710936600764
 31
0.0
  0
ARC
  5
281
330
1E
100
AcDbEntity
  8
IMAGE
100
AcDbCircle
 10
3.393822853313901
 20
7.505110069099142
 30
0.0
 40
0.005513536885207
100
AcDbArc
 50
161.7537767314481
 51
265.7900201993744
  0
ARC
  5
282
330
1E
100
AcDbEntity
  8
IMAGE
100
AcDbCircle
 10
3.423941721141659
 20
7.50842145751268
 30
0.0
 40
0.011027073770414
100
AcDbArc
 50
265.7900201993743
 51
341.7537767314481
  0
ARC
  5
283
330
1E
100
AcDbEntity
  8
IMAGE
100
AcDbCircle
 10
3.579978617747493
 20
7.456979609011542
 30
0.0
 40
0.011027073770414
100
AcDbArc
 50
161.7537767314481
 51
237.717533263522
  0
ARC
  5
284
330
1E
100
AcDbEntity
  8
IMAGE
100
AcDbCircle
 10
3.383893249833315
 20
7.564807961654601
 30
0.0
 40
0.0055135368852067
100
AcDbArc
 50
71.7537767314502
 51
251.7537767314461
  0
LINE
  5
285
330
1E
100
AcDbEntity
  8
IMAGE
100
AcDbLine
 10
3.380383229911513
 20
7.571770571662181
 30
0.0
 11
3.664941057233277
 21
7.477958268538278
 31
0.0
  0
LINE
  5
286
330
1E
100
AcDbEntity
  8
IMAGE
100
AcDbLine
 10
3.382166954790428
 20
7.559571646689906
 30
0.0
 11
3.612038537069385
 21
7.483788166195658
 31
0.0
  0
ARC
  5
287
330
1E
100
AcDbEntity
  8
IMAGE
100
AcDbCircle
 10
3.373478049739969
 20
7.550825311803407
 30
0.0
 40
0.0220541475408279
100
AcDbArc
 50
71.75377673144812
 51
161.7537767314481
  0
ARC
  5
288
330
1E
100
AcDbEntity
  8
IMAGE
100
AcDbCircle
 10
3.556295661081086
 20
7.20904846189407
 30
0.0
 40
0.0220541475408279
100
AcDbArc
 50
161.7537767314481
 51
276.1229190181346
  0
ARC
  5
289
330
1E
100
AcDbEntity
  8
IMAGE
100
AcDbCircle
 10
3.556295661081086
 20
7.20904846189407
 30
0.0
 40
0.011027073770414
100
AcDbArc
 50
161.7537767314483
 51
276.1229190181345
  0
ARC
  5
28A
330
1E
100
AcDbEntity
  8
IMAGE
100
AcDbCircle
 10
3.751218089506052
 20
7.272173201685156
 30
0.0
 40
0.011027073770414
100
AcDbArc
 50
4.15242619606334
 51
26.75377673144816
  0
ARC
  5
28B
330
1E
100
AcDbEntity
  8
IMAGE
100
AcDbCircle
 10
3.608585946983616
 20
7.473315536266282
 30
0.0
 40
0.011027073770414
100
AcDbArc
 50
341.7537767314481
 51
71.75377673144827
  0
ARC
  5
28C
330
1E
100
AcDbEntity
  8
IMAGE
100
AcDbCircle
 10
3.640003836771757
 20
7.462957766008971
 30
0.0
 40
0.011027073770414
100
AcDbArc
 50
71.75377673144741
 51
161.7537767314481
  0
ARC
  5
28D
330
1E
100
AcDbEntity
  8
IMAGE
100
AcDbCircle
 10
3.58078703858572
 20
7.283337365787959
 30
0.0
 40
0.011027073770414
100
AcDbArc
 50
161.7537767314481
 51
276.1229190181366
  0
ARC
  5
28E
330
1E
100
AcDbEntity
  8
IMAGE
100
AcDbCircle
 10
3.646988078544687
 20
7.290439000839167
 30
0.0
 40
0.011027073770414
100
AcDbArc
 50
276.1229190181365
 51
341.7537767314481
  0
ARC
  5
28F
330
1E
100
AcDbEntity
  8
IMAGE
100
AcDbCircle
 10
3.684558813241085
 20
7.404401096215604
 30
0.0
 40
0.011027073770414
100
AcDbArc
 50
341.7537767314481
 51
26.75377673144803
  0
ARC
  5
290
330
1E
100
AcDbEntity
  8
IMAGE
100
AcDbCircle
 10
3.658035877061735
 20
7.457013008679512
 30
0.0
 40
0.011027073770414
100
AcDbArc
 50
26.7537767314478
 51
71.75377673144786
  0
ARC
  5
291
330
1E
100
AcDbEntity
  8
IMAGE
100
AcDbCircle
 10
3.684558813241085
 20
7.404401096215604
 30
0.0
 40
0.0220541475408279
100
AcDbArc
 50
341.7537767314485
 51
26.7537767314478
  0
ARC
  5
292
330
1E
100
AcDbEntity
  8
IMAGE
100
AcDbCircle
 10
3.646988078544687
 20
7.290439000839167
 30
0.0
 40
0.0220541475408279
100
AcDbArc
 50
276.1229190181365
 51
341.7537767314481
  0
ARC
  5
293
330
1E
100
AcDbEntity
  8
IMAGE
100
AcDbCircle
 10
3.756571320602315
 20
7.198437909610257
 30
0.0
 40
0.0220541475408279
100
AcDbArc
 50
341.7537767314481
 51
4.152426196063173
  0
ARC
  5
294
330
1E
100
AcDbEntity
  8
IMAGE
100
AcDbCircle
 10
3.751218089506052
 20
7.272173201685156
 30
0.0
 40
0.0220541475408279
100
AcDbArc
 50
4.152426196063395
 51
26.75377673144824
  0
ARC
  5
295
330
1E
100
AcDbEntity
  8
IMAGE
100
AcDbCircle
 10
3.658035877061732
 20
7.457013008679505
 30
0.0
 40
0.0220541475408279
100
AcDbArc
 50
26.75377673144816
 51
71.75377673144815
  0
LINE
  5
296
330
1E
100
AcDbEntity
  8
IMAGE
100
AcDbLine
 10
3.397305805087052
 20
7.264308931999456
 30
0.0
 11
3.269670627822705
 21
7.306387373669792
 31
0.0
  0
LINE
  5
297
330
1E
100
AcDbEntity
  8
IMAGE
100
AcDbLine
 10
3.291082930094479
 20
7.22385755814464
 30
0.0
 11
3.31352476565199
 21
7.291929652685626
 31
0.0
  0
LINE
  5
298
330
1E
100
AcDbEntity
  8
IMAGE
100
AcDbLine
 10
3.37486396952954
 20
7.196236837458471
 30
0.0
 11
3.397305805087052
 21
7.264308931999456
 31
0.0
  0
LINE
  5
299
330
1E
100
AcDbEntity
  8
IMAGE
100
AcDbLine
 10
3.247228792265193
 20
7.238315279128807
 30
0.0
 11
3.291082930094479
 21
7.22385755814464
 31
0.0
  0
LINE
  5
29A
330
1E
100
AcDbEntity
  8
IMAGE
100
AcDbLine
 10
3.636498096774219
 20
7.187007214847126
 30
0.0
 11
3.654971445980108
 21
7.188988920637772
 31
0.0
  0
LINE
  5
29B
330
1E
100
AcDbEntity
  8
IMAGE
100
AcDbLine
 10
3.62496175298141
 20
7.191164835141441
 30
0.0
 11
3.611828718193
 21
7.184360837634134
 31
0.0
  0
LINE
  5
29C
330
1E
100
AcDbEntity
  8
IMAGE
100
AcDbLine
 10
3.598123507870116
 20
7.182890628071367
 30
0.0
 11
3.611828718193
 21
7.184360837634134
 31
0.0
  0
ARC
  5
29D
330
1E
100
AcDbEntity
  8
IMAGE
100
AcDbCircle
 10
3.319551590852618
 20
7.182542186777924
 30
0.0
 40
0.0137838422130174
100
AcDbArc
 50
71.75377673144815
 51
161.7537767314481
  0
LINE
  5
29E
330
1E
100
AcDbEntity
  8
IMAGE
100
AcDbLine
 10
3.479590268823355
 20
7.161710936600764
 30
0.0
 11
3.599021162898051
 21
7.174522738712672
 31
0.0
  0
LINE
  5
29F
330
1E
100
AcDbEntity
  8
IMAGE
100
AcDbLine
 10
3.474411383694699
 20
7.146001991706693
 30
0.0
 11
3.479590268823355
 21
7.161710936600764
 31
0.0
  0
ARC
  5
2A0
330
1E
100
AcDbEntity
  8
IMAGE
100
AcDbCircle
 10
3.470095646087486
 20
7.132911204294966
 30
0.0
 40
0.0137838422130174
100
AcDbArc
 50
341.7537767314481
 51
71.75377673144815
  0
LINE
  5
2A1
330
1E
100
AcDbEntity
  8
IMAGE
100
AcDbLine
 10
3.306460803440897
 20
7.186857924385135
 30
0.0
 11
3.290061000533481
 21
7.137112932220558
 31
0.0
  0
LINE
  5
2A2
330
1E
100
AcDbEntity
  8
IMAGE
100
AcDbLine
 10
3.483186433499219
 20
7.12859546668775
 30
0.0
 11
3.466786630591803
 21
7.078850474523173
 31
0.0
  0
LINE
  5
2A3
330
1E
100
AcDbEntity
  8
IMAGE
100
AcDbLine
 10
3.242049907136536
 20
7.222606334234734
 30
0.0
 11
3.474411383694699
 21
7.146001991706693
 31
0.0
  0
LINE
  5
2A4
330
1E
100
AcDbEntity
  8
IMAGE
100
AcDbLine
 10
3.290061000533481
 20
7.137112932220558
 30
0.0
 11
3.466786630591803
 21
7.078850474523173
 31
0.0
  0
LINE
  5
2A5
330
1E
100
AcDbEntity
  8
IMAGE
100
AcDbLine
 10
3.306424484798147
 20
7.131718260211538
 30
0.0
 11
3.297793009583721
 21
7.105536685388086
 31
0.0
  0
LINE
  5
2A6
330
1E
100
AcDbEntity
  8
IMAGE
100
AcDbLine
 10
3.450423146327136
 20
7.084245146532193
 30
0.0
 11
3.44179167111271
 21
7.058063571708741
 31
0.0
  0
LINE
  5
2A7
330
1E
100
AcDbEntity
  8
IMAGE
100
AcDbLine
 10
3.261793344201454
 20
7.117404963807929
 30
0.0
 11
3.258556540996047
 21
7.107586873249141
 31
0.0
  0
LINE
  5
2A8
330
1E
100
AcDbEntity
  8
IMAGE
100
AcDbLine
 10
3.477791336494963
 20
7.046195293288903
 30
0.0
 11
3.474554533289555
 21
7.036377202730115
 31
0.0
  0
LINE
  5
2A9
330
1E
100
AcDbEntity
  8
IMAGE
100
AcDbLine
 10
3.477791336494963
 20
7.046195293288903
 30
0.0
 11
3.261793344201454
 21
7.117404963807929
 31
0.0
  0
LINE
  5
2AA
330
1E
100
AcDbEntity
  8
IMAGE
100
AcDbLine
 10
3.295307864859689
 20
7.033788037374716
 30
0.0
 11
3.267687144173522
 21
6.950006997939661
 31
0.0
  0
LINE
  5
2AB
330
1E
100
AcDbEntity
  8
IMAGE
100
AcDbLine
 10
3.401119439764607
 20
6.998904345604842
 30
0.0
 11
3.37349871907844
 21
6.915123306169785
 31
0.0
  0
LINE
  5
2AC
330
1E
100
AcDbEntity
  8
IMAGE
100
AcDbLine
 10
3.214781356721075
 20
6.967448843824595
 30
0.0
 11
3.242402077407242
 21
7.051229883259649
 31
0.0
  0
LINE
  5
2AD
330
1E
100
AcDbEntity
  8
IMAGE
100
AcDbLine
 10
3.426404506530887
 20
6.897681460284852
 30
0.0
 11
3.454025227217053
 21
6.981462499719908
 31
0.0
  0
LINE
  5
2AE
330
1E
100
AcDbEntity
  8
IMAGE
100
AcDbLine
 10
3.456212648458896
 20
6.980741356230268
 30
0.0
 11
3.240214656165387
 21
7.051951026749295
 31
0.0
  0
LINE
  5
2AF
330
1E
100
AcDbEntity
  8
IMAGE
100
AcDbLine
 10
3.214781356721075
 20
6.967448843824595
 30
0.0
 11
3.426404506530887
 21
6.897681460284852
 31
0.0
  0
LINE
  5
2B0
330
1E
100
AcDbEntity
  8
IMAGE
100
AcDbLine
 10
3.388586538349213
 20
7.506836364142026
 30
0.0
 11
3.403638490816645
 21
7.552492965125651
 31
0.0
  0
LINE
  5
2B1
330
1E
100
AcDbEntity
  8
IMAGE
100
AcDbLine
 10
3.434414351071048
 20
7.504968867426908
 30
0.0
 11
3.443948178399329
 21
7.533887517755887
 31
0.0
  0
LINE
  5
2B2
330
1E
100
AcDbEntity
  8
IMAGE
100
AcDbLine
 10
3.423132202609576
 20
7.497424138035448
 30
0.0
 11
3.393418094047859
 21
7.499611409360527
 31
0.0
  0
LINE
  5
2B3
330
1E
100
AcDbEntity
  8
IMAGE
100
AcDbLine
 10
3.400542399558236
 20
7.499086985445147
 30
0.0
 11
3.37184296244237
 21
7.412033910324899
 31
0.0
  0
LINE
  5
2B4
330
1E
100
AcDbEntity
  8
IMAGE
100
AcDbLine
 10
3.574089127524004
 20
7.447657041723207
 30
0.0
 11
3.60524821656991
 21
7.427972426462989
 31
0.0
  0
LINE
  5
2B5
330
1E
100
AcDbEntity
  8
IMAGE
100
AcDbLine
 10
3.579039815146397
 20
7.489350849426291
 30
0.0
 11
3.569505987818117
 21
7.460432199097311
 31
0.0
  0
LINE
  5
2B6
330
1E
100
AcDbEntity
  8
IMAGE
100
AcDbLine
 10
3.597225852842162
 20
7.191258517430046
 30
0.0
 11
3.558647996381524
 21
7.187120125377434
 31
0.0
  0
LINE
  5
2B7
330
1E
100
AcDbEntity
  8
IMAGE
100
AcDbLine
 10
3.599021162898051
 20
7.174522738712672
 30
0.0
 11
3.589625898330232
 21
7.26210486319449
 31
0.0
  0
LINE
  5
2B8
330
1E
100
AcDbEntity
  8
IMAGE
100
AcDbLine
 10
3.623460105837751
 20
7.205163104813911
 30
0.0
 11
3.557471828731312
 21
7.19808429363575
 31
0.0
  0
LINE
  5
2B9
330
1E
100
AcDbEntity
  8
IMAGE
100
AcDbLine
 10
3.63560044174628
 20
7.195375104205808
 30
0.0
 11
3.624636273487964
 21
7.194198936555595
 31
0.0
  0
LINE
  5
2BA
330
1E
100
AcDbEntity
  8
IMAGE
100
AcDbLine
 10
3.62496175298141
 20
7.191164835141441
 30
0.0
 11
3.617036318976033
 21
7.265045282320039
 31
0.0
  0
LINE
  5
2BB
330
1E
100
AcDbEntity
  8
IMAGE
100
AcDbLine
 10
3.636498096774219
 20
7.187007214847126
 30
0.0
 11
3.628000487234351
 21
7.266221449970259
 31
0.0
  0
LINE
  5
2BC
330
1E
100
AcDbEntity
  8
IMAGE
100
AcDbLine
 10
3.697623797679706
 20
7.248947637495096
 30
0.0
 11
3.6977807106635
 21
7.246786321369819
 31
0.0
  0
LINE
  5
2BD
330
1E
100
AcDbEntity
  8
IMAGE
100
AcDbLine
 10
3.741506419927627
 20
7.25365509176602
 30
0.0
 11
3.742667896732611
 21
7.237656934781247
 31
0.0
  0
LINE
  5
2BE
330
1E
100
AcDbEntity
  8
IMAGE
100
AcDbLine
 10
3.763447731051594
 20
7.256008818901484
 30
0.0
 11
3.697623797679706
 21
7.248947637495096
 31
0.0
  0
LINE
  5
2BF
330
1E
100
AcDbEntity
  8
IMAGE
100
AcDbLine
 10
3.693199906357875
 20
7.17638585873407
 30
0.0
 11
3.63560044174628
 21
7.195375104205808
 31
0.0
  0
LINE
  5
2C0
330
1E
100
AcDbEntity
  8
IMAGE
100
AcDbLine
 10
3.775431168295281
 20
7.185207116110719
 30
0.0
 11
3.764958538365891
 21
7.188659706196492
 31
0.0
  0
LINE
  5
2C1
330
1E
100
AcDbEntity
  8
IMAGE
100
AcDbLine
 10
3.775431168295281
 20
7.185207116110719
 30
0.0
 11
3.693199906357875
 21
7.17638585873407
 31
0.0
  0
LINE
  5
2C2
330
1E
100
AcDbEntity
  8
IMAGE
100
AcDbLine
 10
3.561169923144116
 20
7.259052283492971
 30
0.0
 11
3.545823031151709
 21
7.21250105197984
 31
0.0
  0
LINE
  5
2C3
330
1E
100
AcDbEntity
  8
IMAGE
100
AcDbLine
 10
3.64816424619491
 20
7.27947483258084
 30
0.0
 11
3.581963206235944
 21
7.272373197529633
 31
0.0
  0
LINE
  5
2C4
330
1E
100
AcDbEntity
  8
IMAGE
100
AcDbLine
 10
3.64934041384511
 20
7.26851066432253
 30
0.0
 11
3.561169923144116
 21
7.259052283492971
 31
0.0
  0
LINE
  5
2C5
330
1E
100
AcDbEntity
  8
IMAGE
100
AcDbLine
 10
3.703481592652904
 20
7.39136119146514
 30
0.0
 11
3.761064707008286
 21
7.277137119462764
 31
0.0
  0
LINE
  5
2C6
330
1E
100
AcDbEntity
  8
IMAGE
100
AcDbLine
 10
3.705504073099837
 20
7.397495916044066
 30
0.0
 11
3.667933338403439
 21
7.28353382066763
 31
0.0
  0
LINE
  5
2C7
330
1E
100
AcDbEntity
  8
IMAGE
100
AcDbLine
 10
3.695031443170458
 20
7.400948506129827
 30
0.0
 11
3.657460708474063
 21
7.286986410753398
 31
0.0
  0
LINE
  5
2C8
330
1E
100
AcDbEntity
  8
IMAGE
100
AcDbLine
 10
3.643456426857527
 20
7.473430395938347
 30
0.0
 11
3.661488467147504
 21
7.46748563860889
 31
0.0
  0
LINE
  5
2C9
330
1E
100
AcDbEntity
  8
IMAGE
100
AcDbLine
 10
3.767727539491677
 20
7.197058827825182
 30
0.0
 11
3.764958538365891
 21
7.188659706196492
 31
0.0
  0
LINE
  5
2CA
330
1E
100
AcDbEntity
  8
IMAGE
100
AcDbLine
 10
3.762216216596176
 20
7.272971673004413
 30
0.0
 11
3.767727539491677
 21
7.197058827825182
 31
0.0
  0
LINE
  5
2CB
330
1E
100
AcDbEntity
  8
IMAGE
100
AcDbLine
 10
3.667882494563957
 20
7.461976926457133
 30
0.0
 11
3.694405430743304
 21
7.409365013993216
 31
0.0
  0
LINE
  5
2CC
330
1E
100
AcDbEntity
  8
IMAGE
100
AcDbLine
 10
3.629531206842381
 20
7.466410356094739
 30
0.0
 11
3.570314408656344
 21
7.286789955873729
 31
0.0
  0
LINE
  5
2CD
330
1E
100
AcDbEntity
  8
IMAGE
100
AcDbLine
 10
3.387403269755116
 20
7.557845351647022
 30
0.0
 11
3.342519598640095
 21
7.421701162565058
 31
0.0
  0
LINE
  5
2CE
330
1E
100
AcDbEntity
  8
IMAGE
100
AcDbLine
 10
3.619058576912992
 20
7.469862946180512
 30
0.0
 11
3.53535040122232
 21
7.215953642065612
 31
0.0
  0
LINE
  5
2CF
330
1E
100
AcDbEntity
  8
IMAGE
100
AcDbLine
 10
3.378656934868627
 20
7.566534256697485
 30
0.0
 11
3.332046968710719
 21
7.425153752650828
 31
0.0
  0
LINE
  5
2D0
330
1E
100
AcDbEntity
  8
IMAGE
100
AcDbLine
 10
3.352532789881204
 20
7.55773049197495
 30
0.0
 11
3.311101708851954
 21
7.43205893282237
 31
0.0
  0
LINE
  5
2D1
330
1E
100
AcDbEntity
  8
IMAGE
100
AcDbLine
 10
3.777516580461081
 20
7.191532729438714
 30
0.0
 11
3.775431168295281
 21
7.185207116110719
 31
0.0
  0
LINE
  5
2D2
330
1E
100
AcDbEntity
  8
IMAGE
100
AcDbLine
 10
3.773214343686293
 20
7.273770144323689
 30
0.0
 11
3.778567574782558
 21
7.200034852248798
 31
0.0
  0
LINE
  5
2D3
330
1E
100
AcDbEntity
  8
IMAGE
100
AcDbLine
 10
3.677729112066192
 20
7.466940844234741
 30
0.0
 11
3.77091132451051
 21
7.282101037240389
 31
0.0
  0
LINE
  5
2D4
330
1E
100
AcDbEntity
  8
IMAGE
100
AcDbLine
 10
3.46678242682892
 20
7.543286703454569
 30
0.0
 11
3.488594769955865
 21
7.605760891926152
 31
0.0
  0
LINE
  5
2D5
330
1E
100
AcDbEntity
  8
IMAGE
100
AcDbLine
 10
3.566272411158046
 20
7.510487097639746
 30
0.0
 11
3.58589114906035
 21
7.573684468320742
 31
0.0
  0
LINE
  5
2D6
330
1E
100
AcDbEntity
  8
IMAGE
100
AcDbLine
 10
3.55818821936686
 20
7.582817499951909
 30
0.0
 11
3.597460581602047
 21
7.569870287130266
 31
0.0
  0
LINE
  5
2D7
330
1E
100
AcDbEntity
  8
IMAGE
100
AcDbLine
 10
3.565093399538403
 20
7.603762759810674
 30
0.0
 11
3.591274974361869
 21
7.595131284596243
 31
0.0
  0
LINE
  5
2D8
330
1E
100
AcDbEntity
  8
IMAGE
100
AcDbLine
 10
3.580859774268512
 20
7.58114863474506
 30
0.0
 11
3.599186876644934
 21
7.57510660209496
 31
0.0
  0
LINE
  5
2D9
330
1E
100
AcDbEntity
  8
IMAGE
100
AcDbLine
 10
3.565093399538403
 20
7.603762759810674
 30
0.0
 11
3.580859774268512
 21
7.58114863474506
 31
0.0
  0
LINE
  5
2DA
330
1E
100
AcDbEntity
  8
IMAGE
100
AcDbLine
 10
3.523202879820885
 20
7.617573120153755
 30
0.0
 11
3.497078734833463
 21
7.608769355431226
 31
0.0
  0
LINE
  5
2DB
330
1E
100
AcDbEntity
  8
IMAGE
100
AcDbLine
 10
3.497078734833463
 20
7.608769355431226
 30
0.0
 11
3.495352439790576
 21
7.603533040466532
 31
0.0
  0
LINE
  5
2DC
330
1E
100
AcDbEntity
  8
IMAGE
100
AcDbLine
 10
3.580859774268512
 20
7.58114863474506
 30
0.0
 11
3.579133479225625
 21
7.575912319780366
 31
0.0
  0
LINE
  5
2DD
330
1E
100
AcDbEntity
  8
IMAGE
100
AcDbLine
 10
3.523202879820885
 20
7.617573120153755
 30
0.0
 11
3.495582159134717
 21
7.533792080718699
 31
0.0
  0
LINE
  5
2DE
330
1E
100
AcDbEntity
  8
IMAGE
100
AcDbLine
 10
3.565093399538403
 20
7.603762759810674
 30
0.0
 11
3.537472678852235
 21
7.51998172037562
 31
0.0
  0
LINE
  5
2DF
330
1E
100
AcDbEntity
  8
IMAGE
100
AcDbLine
 10
3.478751632457042
 20
7.614811388081326
 30
0.0
 11
3.477025337414155
 21
7.609575073116632
 31
0.0
  0
LINE
  5
2E0
330
1E
100
AcDbEntity
  8
IMAGE
100
AcDbLine
 10
3.497021304997417
 20
7.626204595368186
 30
0.0
 11
3.478751632457042
 21
7.614811388081326
 31
0.0
  0
LINE
  5
2E1
330
1E
100
AcDbEntity
  8
IMAGE
100
AcDbLine
 10
3.599186876644934
 20
7.57510660209496
 30
0.0
 11
3.591274974361869
 21
7.595131284596243
 31
0.0
  0
LINE
  5
2E2
330
1E
100
AcDbEntity
  8
IMAGE
100
AcDbLine
 10
3.597460581602047
 20
7.569870287130266
 30
0.0
 11
3.599186876644934
 21
7.57510660209496
 31
0.0
  0
LINE
  5
2E3
330
1E
100
AcDbEntity
  8
IMAGE
100
AcDbLine
 10
3.478751632457042
 20
7.614811388081326
 30
0.0
 11
3.497078734833463
 21
7.608769355431226
 31
0.0
  0
LINE
  5
2E4
330
1E
100
AcDbEntity
  8
IMAGE
100
AcDbLine
 10
3.497021304997417
 20
7.626204595368186
 30
0.0
 11
3.523202879820885
 21
7.617573120153755
 31
0.0
  0
LINE
  5
2E5
330
1E
100
AcDbEntity
  8
IMAGE
100
AcDbLine
 10
3.477025337414155
 20
7.609575073116632
 30
0.0
 11
3.516297699649342
 21
7.596627860294988
 31
0.0
  0
LINE
  5
2E6
330
1E
100
AcDbEntity
  8
IMAGE
100
AcDbLine
 10
3.123220465934155
 20
6.727342923173461
 30
0.0
 11
3.081404477001009
 21
6.600516981026684
 31
0.0
  0
LINE
  5
2E7
330
1E
100
AcDbEntity
  8
IMAGE
100
AcDbLine
 10
3.367932487940161
 20
6.64666688413226
 30
0.0
 11
3.326104471356376
 21
6.519844907230854
 31
0.0
  0
LINE
  5
2E8
330
1E
100
AcDbEntity
  8
IMAGE
100
AcDbLine
 10
3.1936795329456
 20
6.94104198385564
 30
0.0
 11
3.438411821291445
 21
6.860359263458899
 31
0.0
  0
LINE
  5
2E9
330
1E
100
AcDbEntity
  8
IMAGE
100
AcDbLine
 10
3.099573110906147
 20
6.594527191860461
 30
0.0
 11
3.307935837451238
 21
6.525834696397078
 31
0.0
  0
LINE
  5
2EA
330
1E
100
AcDbEntity
  8
IMAGE
100
AcDbLine
 10
3.326104471356376
 20
6.519844907230854
 30
0.0
 11
3.081404477001009
 21
6.600516981026684
 31
0.0
  0
LINE
  5
2EB
330
1E
100
AcDbEntity
  8
IMAGE
100
AcDbLine
 10
3.438358536199916
 20
6.860376830352789
 30
0.0
 11
3.193626247854072
 21
6.941059550749532
 31
0.0
  0
LINE
  5
2EC
330
1E
100
AcDbEntity
  8
IMAGE
100
AcDbLine
 10
3.1936795329456
 20
6.94104198385564
 30
0.0
 11
3.149856707105178
 21
6.808129399063455
 31
0.0
  0
LINE
  5
2ED
330
1E
100
AcDbEntity
  8
IMAGE
100
AcDbLine
 10
3.438411821291445
 20
6.860359263458899
 30
0.0
 11
3.394576390568232
 21
6.727450834212516
 31
0.0
  0
TEXT
  5
2F3
330
1E
100
AcDbEntity
  8
TEXT_BUBBLES
100
AcDbText
 10
4.296950324418138
 20
7.598028991737749
 30
0.0
 40
0.125
  1
1
  7
ROMANS
 72
     4
 11
4.347545562513376
 21
7.660528991737749
 31
0.0
100
AcDbText
  0
ARC
  5
2F6
330
1E
100
AcDbEntity
  8
IMAGE
100
AcDbCircle
 10
3.968828513035273
 20
6.014066456316083
 30
0.0
 40
0.1818260367492528
100
AcDbArc
 50
80.28454234139642
 51
169.4832158298047
  0
ARC
  5
2F7
330
1E
100
AcDbEntity
  8
IMAGE
100
AcDbCircle
 10
3.820740992338585
 20
6.226472273824445
 30
0.0
 40
0.1818260367492528
100
AcDbArc
 50
260.2845423413963
 51
349.4832158298046
  0
ARC
  5
2F8
330
1E
100
AcDbEntity
  8
IMAGE
100
AcDbCircle
 10
3.960714061892827
 20
5.685547385608836
 30
0.0
 40
0.1818260367492528
100
AcDbArc
 50
141.4737485984232
 51
230.672422086839
  0
ARC
  5
2F9
330
1E
100
AcDbEntity
  8
IMAGE
100
AcDbCircle
 10
3.703234552665525
 20
5.658153090115879
 30
0.0
 40
0.1818260367492528
100
AcDbArc
 50
321.4737485984232
 51
50.67242208683896
  0
ARC
  5
2FA
330
1E
100
AcDbEntity
  8
IMAGE
100
AcDbCircle
 10
3.508385040013926
 20
5.980490886511747
 30
0.0
 40
0.1818260367492528
100
AcDbArc
 50
321.4737485984232
 51
50.67242208683896
  0
ARC
  5
2FB
330
1E
100
AcDbEntity
  8
IMAGE
100
AcDbCircle
 10
3.765864549241227
 20
6.007885182004704
 30
0.0
 40
0.1818260367492528
100
AcDbArc
 50
141.4737485984232
 51
230.672422086839
  0
ARC
  5
2FC
330
1E
100
AcDbEntity
  8
IMAGE
100
AcDbCircle
 10
3.315337883085108
 20
5.848322757043074
 30
0.0
 40
0.1818260367492528
100
AcDbArc
 50
321.4737485984232
 51
50.67242208683896
  0
ARC
  5
2FD
330
1E
100
AcDbEntity
  8
IMAGE
100
AcDbCircle
 10
3.572817392312409
 20
5.875717052536032
 30
0.0
 40
0.1818260367492528
100
AcDbArc
 50
141.4737485984232
 51
230.672422086839
  0
ARC
  5
2FE
330
1E
100
AcDbEntity
  8
IMAGE
100
AcDbCircle
 10
3.455672941647249
 20
5.642191245118599
 30
0.0
 40
0.1818260367492528
100
AcDbArc
 50
321.4737485984232
 51
50.67242208683896
  0
ARC
  5
2FF
330
1E
100
AcDbEntity
  8
IMAGE
100
AcDbCircle
 10
3.713152450874551
 20
5.669585540611556
 30
0.0
 40
0.1818260367492528
100
AcDbArc
 50
141.4737485984232
 51
230.672422086839
  0
ARC
  5
300
330
1E
100
AcDbEntity
  8
IMAGE
100
AcDbCircle
 10
3.577935768262543
 20
5.784704994371214
 30
0.0
 40
0.1818260367492528
100
AcDbArc
 50
321.4737485984232
 51
50.67242208683896
  0
ARC
  5
301
330
1E
100
AcDbEntity
  8
IMAGE
100
AcDbCircle
 10
3.835415277489844
 20
5.812099289864169
 30
0.0
 40
0.1818260367492528
100
AcDbArc
 50
141.4737485984232
 51
230.672422086839
  0
ARC
  5
302
330
1E
100
AcDbEntity
  8
IMAGE
100
AcDbCircle
 10
3.449196935715098
 20
6.229228492961386
 30
0.0
 40
0.1818260367492528
100
AcDbArc
 50
305.2845423413962
 51
34.4832158298119
  0
ARC
  5
303
330
1E
100
AcDbEntity
  8
IMAGE
100
AcDbCircle
 10
3.704104219732466
 20
6.18374858913148
 30
0.0
 40
0.1818260367492528
100
AcDbArc
 50
125.2845423413962
 51
214.483215829812
  0
ARC
  5
304
330
1E
100
AcDbEntity
  8
IMAGE
100
AcDbCircle
 10
3.655923616798101
 20
5.963648803165359
 30
0.0
 40
0.1818260367492528
100
AcDbArc
 50
305.2845423413962
 51
34.4832158298119
  0
ARC
  5
305
330
1E
100
AcDbEntity
  8
IMAGE
100
AcDbCircle
 10
3.910830900815467
 20
5.918168899335455
 30
0.0
 40
0.1818260367492528
100
AcDbArc
 50
125.2845423413962
 51
214.483215829812
  0
ARC
  5
306
330
1E
100
AcDbEntity
  8
IMAGE
100
AcDbCircle
 10
3.438952836906295
 20
5.810131130364533
 30
0.0
 40
0.1818260367492528
100
AcDbArc
 50
305.2845423413962
 51
34.4832158298119
  0
ARC
  5
307
330
1E
100
AcDbEntity
  8
IMAGE
100
AcDbCircle
 10
3.693860120923661
 20
5.764651226534626
 30
0.0
 40
0.1818260367492528
100
AcDbArc
 50
125.2845423413962
 51
214.483215829812
  0
ARC
  5
308
330
1E
100
AcDbEntity
  8
IMAGE
100
AcDbCircle
 10
3.399408455846854
 20
6.049005786814948
 30
0.0
 40
0.1818260367492528
100
AcDbArc
 50
305.2845423413962
 51
34.4832158298119
  0
ARC
  5
309
330
1E
100
AcDbEntity
  8
IMAGE
100
AcDbCircle
 10
3.65431573986422
 20
6.003525882985043
 30
0.0
 40
0.1818260367492528
100
AcDbArc
 50
125.2845423413962
 51
214.483215829812
  0
ARC
  5
30A
330
1E
100
AcDbEntity
  8
IMAGE
100
AcDbCircle
 10
3.692308934322297
 20
5.664277070834302
 30
0.0
 40
0.1818260367492528
100
AcDbArc
 50
277.8100972674067
 51
7.008770755822406
  0
ARC
  5
30B
330
1E
100
AcDbEntity
  8
IMAGE
100
AcDbCircle
 10
3.897484644292853
 20
5.506324314810335
 30
0.0
 40
0.1818260367492528
100
AcDbArc
 50
97.81009726740675
 51
187.0087707558224
  0
ARC
  5
30C
330
1E
100
AcDbEntity
  8
IMAGE
100
AcDbCircle
 10
3.566421521353668
 20
5.708945788013767
 30
0.0
 40
0.1818260367492528
100
AcDbArc
 50
277.8100972674067
 51
7.008770755822406
  0
ARC
  5
30D
330
1E
100
AcDbEntity
  8
IMAGE
100
AcDbCircle
 10
3.771597231324222
 20
5.550993031989801
 30
0.0
 40
0.1818260367492528
100
AcDbArc
 50
97.81009726740675
 51
187.0087707558224
  0
ARC
  5
30E
330
1E
100
AcDbEntity
  8
IMAGE
100
AcDbCircle
 10
3.765835015352434
 20
5.944084478993927
 30
0.0
 40
0.1818260367492528
100
AcDbArc
 50
277.8100972674067
 51
7.008770755822406
  0
ARC
  5
30F
330
1E
100
AcDbEntity
  8
IMAGE
100
AcDbCircle
 10
3.97101072532299
 20
5.786131722969962
 30
0.0
 40
0.1818260367492528
100
AcDbArc
 50
97.81009726740675
 51
187.0087707558224
  0
ARC
  5
310
330
1E
100
AcDbEntity
  8
IMAGE
100
AcDbCircle
 10
3.900751567621041
 20
6.136446357930447
 30
0.0
 40
0.1818260367492528
100
AcDbArc
 50
277.8100972674067
 51
7.008770755822406
  0
ARC
  5
311
330
1E
100
AcDbEntity
  8
IMAGE
100
AcDbCircle
 10
4.105927277591597
 20
5.97849360190648
 30
0.0
 40
0.1818260367492528
100
AcDbArc
 50
97.81009726740675
 51
187.0087707558224
  0
ARC
  5
312
330
1E
100
AcDbEntity
  8
IMAGE
100
AcDbCircle
 10
3.611831421161577
 20
6.249571598678794
 30
0.0
 40
0.1818260367492528
100
AcDbArc
 50
277.8100972674067
 51
7.008770755822406
  0
ARC
  5
313
330
1E
100
AcDbEntity
  8
IMAGE
100
AcDbCircle
 10
3.817007131132132
 20
6.091618842654829
 30
0.0
 40
0.1818260367492528
100
AcDbArc
 50
97.81009726740675
 51
187.0087707558224
  0
ARC
  5
314
330
1E
100
AcDbEntity
  8
IMAGE
100
AcDbCircle
 10
3.407595126757162
 20
6.323452341892634
 30
0.0
 40
0.1818260367492528
100
AcDbArc
 50
277.8100972674067
 51
7.008770755822406
  0
ARC
  5
315
330
1E
100
AcDbEntity
  8
IMAGE
100
AcDbCircle
 10
3.612770836727717
 20
6.165499585868667
 30
0.0
 40
0.1818260367492528
100
AcDbArc
 50
97.81009726740675
 51
187.0087707558224
  0
LINE
  5
316
330
1E
100
AcDbEntity
  8
IMAGE
100
AcDbLine
 10
2.637352240541871
 20
5.948358572123943
 30
0.0
 11
2.142660655895032
 21
4.447826575424659
 31
0.0
  0
LINE
  5
317
330
1E
100
AcDbEntity
  8
IMAGE
100
AcDbLine
 10
3.070479563438988
 20
5.805566254339893
 30
0.0
 11
2.817548900717653
 21
5.038359849099215
 31
0.0
  0
LINE
  5
318
330
1E
100
AcDbEntity
  8
IMAGE
100
AcDbLine
 10
2.840588036437587
 20
5.881356310159674
 30
0.0
 11
2.137340749513094
 21
3.748219041662359
 31
0.0
  0
LINE
  5
319
330
1E
100
AcDbEntity
  8
IMAGE
100
AcDbLine
 10
2.862116836893897
 20
5.874258749803278
 30
0.0
 11
2.609186174172562
 21
5.107052344562598
 31
0.0
  0
ARC
  5
31A
330
1E
100
AcDbEntity
  8
IMAGE
100
AcDbCircle
 10
3.000456433925867
 20
5.877043555348603
 30
0.0
 40
0.0363347932812923
100
AcDbArc
 50
124.3070622911517
 51
214.5654081474501
  0
LINE
  5
31B
330
1E
100
AcDbEntity
  8
IMAGE
100
AcDbLine
 10
2.961550134848709
 20
5.913132107691215
 30
0.0
 11
2.952108495949271
 21
5.862504096655893
 31
0.0
  0
LINE
  5
31C
330
1E
100
AcDbEntity
  8
IMAGE
100
AcDbLine
 10
3.089350274938723
 20
5.870999281494793
 30
0.0
 11
3.079908636039076
 21
5.82037127045954
 31
0.0
  0
ARC
  5
31D
330
1E
100
AcDbEntity
  8
IMAGE
100
AcDbCircle
 10
3.109829577072606
 20
5.840985694789837
 30
0.0
 40
0.0363347932812923
100
AcDbArc
 50
124.3070622911517
 51
214.5654081474501
  0
LINE
  5
31E
330
1E
100
AcDbEntity
  8
IMAGE
100
AcDbLine
 10
3.070923277995552
 20
5.877074247132409
 30
0.0
 11
3.061481639095906
 21
5.826446236097156
 31
0.0
  0
ARC
  5
31F
330
1E
100
AcDbEntity
  8
IMAGE
100
AcDbCircle
 10
3.091402580129436
 20
5.847060660427453
 30
0.0
 40
0.0363347932812923
100
AcDbArc
 50
124.3070622911517
 51
214.5654081474501
  0
LINE
  5
320
330
1E
100
AcDbEntity
  8
IMAGE
100
AcDbLine
 10
3.05249628105227
 20
5.883149212770067
 30
0.0
 11
3.043054642152736
 21
5.832521201734778
 31
0.0
  0
ARC
  5
321
330
1E
100
AcDbEntity
  8
IMAGE
100
AcDbCircle
 10
3.072975583186259
 20
5.853135626065077
 30
0.0
 40
0.0363347932812923
100
AcDbArc
 50
124.3070622911517
 51
214.5654081474501
  0
LINE
  5
322
330
1E
100
AcDbEntity
  8
IMAGE
100
AcDbLine
 10
3.034663703365244
 20
5.889028211774245
 30
0.0
 11
3.025222064465809
 21
5.838400200738924
 31
0.0
  0
ARC
  5
323
330
1E
100
AcDbEntity
  8
IMAGE
100
AcDbCircle
 10
3.055143005499231
 20
5.859014625069255
 30
0.0
 40
0.0363347932812923
100
AcDbArc
 50
124.3070622911517
 51
214.5654081474501
  0
LINE
  5
324
330
1E
100
AcDbEntity
  8
IMAGE
100
AcDbLine
 10
2.979977131791883
 20
5.907057142053592
 30
0.0
 11
2.970535492892445
 21
5.85642913101827
 31
0.0
  0
ARC
  5
325
330
1E
100
AcDbEntity
  8
IMAGE
100
AcDbCircle
 10
3.018289011612898
 20
5.871164556344423
 30
0.0
 40
0.0363347932812923
100
AcDbArc
 50
124.3070622911517
 51
214.5654081474501
  0
LINE
  5
326
330
1E
100
AcDbEntity
  8
IMAGE
100
AcDbLine
 10
2.997809709478907
 20
5.901178143049415
 30
0.0
 11
2.988368070579373
 21
5.850550132014125
 31
0.0
  0
ARC
  5
327
330
1E
100
AcDbEntity
  8
IMAGE
100
AcDbCircle
 10
3.036716008556072
 20
5.8650895907068
 30
0.0
 40
0.0363347932812923
100
AcDbArc
 50
124.3070622911517
 51
214.5654081474501
  0
LINE
  5
328
330
1E
100
AcDbEntity
  8
IMAGE
100
AcDbLine
 10
3.016236706422189
 20
5.895103177411757
 30
0.0
 11
3.006795067522542
 21
5.844475166376504
 31
0.0
  0
LINE
  5
329
330
1E
100
AcDbEntity
  8
IMAGE
100
AcDbLine
 10
3.103349696129218
 20
5.884297556677484
 30
0.0
 11
3.076715944932594
 21
5.803510259899042
 31
0.0
  0
ARC
  5
32A
330
1E
100
AcDbEntity
  8
IMAGE
100
AcDbCircle
 10
2.963602440039421
 20
5.889193486623879
 30
0.0
 40
0.0363347932812923
100
AcDbArc
 50
124.3070622911517
 51
214.5654081474501
  0
LINE
  5
32B
330
1E
100
AcDbEntity
  8
IMAGE
100
AcDbLine
 10
2.943123137905528
 20
5.919207073328839
 30
0.0
 11
2.933681499005891
 21
5.868579062293584
 31
0.0
  0
LINE
  5
32C
330
1E
100
AcDbEntity
  8
IMAGE
100
AcDbLine
 10
2.924696140962364
 20
5.925282038966459
 30
0.0
 11
2.915254502062717
 21
5.874654027931207
 31
0.0
  0
ARC
  5
32D
330
1E
100
AcDbEntity
  8
IMAGE
100
AcDbCircle
 10
2.945175443096247
 20
5.895268452261502
 30
0.0
 40
0.0363347932812923
100
AcDbArc
 50
124.3070622911517
 51
214.5654081474501
  0
LINE
  5
32E
330
1E
100
AcDbEntity
  8
IMAGE
100
AcDbLine
 10
2.906269144019082
 20
5.931357004604116
 30
0.0
 11
2.896827505119548
 21
5.880728993568826
 31
0.0
  0
ARC
  5
32F
330
1E
100
AcDbEntity
  8
IMAGE
100
AcDbCircle
 10
2.926748446153073
 20
5.901343417899123
 30
0.0
 40
0.0363347932812923
100
AcDbArc
 50
124.3070622911517
 51
214.5654081474501
  0
LINE
  5
330
330
1E
100
AcDbEntity
  8
IMAGE
100
AcDbLine
 10
2.888436566332058
 20
5.937236003608294
 30
0.0
 11
2.87899492743262
 21
5.886607992572972
 31
0.0
  0
ARC
  5
331
330
1E
100
AcDbEntity
  8
IMAGE
100
AcDbCircle
 10
2.908915868466042
 20
5.907222416903303
 30
0.0
 40
0.0363347932812923
100
AcDbArc
 50
124.3070622911517
 51
214.5654081474501
  0
LINE
  5
332
330
1E
100
AcDbEntity
  8
IMAGE
100
AcDbLine
 10
2.870009569388884
 20
5.943310969245917
 30
0.0
 11
2.860567930489446
 21
5.892682958210595
 31
0.0
  0
ARC
  5
333
330
1E
100
AcDbEntity
  8
IMAGE
100
AcDbCircle
 10
2.890488871522777
 20
5.913297382540957
 30
0.0
 40
0.0363347932812923
100
AcDbArc
 50
124.3070622911517
 51
214.5654081474501
  0
LINE
  5
334
330
1E
100
AcDbEntity
  8
IMAGE
100
AcDbLine
 10
2.851582572445703
 20
5.94938593488354
 30
0.0
 11
2.842140933546066
 21
5.898757923848286
 31
0.0
  0
ARC
  5
335
330
1E
100
AcDbEntity
  8
IMAGE
100
AcDbCircle
 10
2.872061874579596
 20
5.919372348178582
 30
0.0
 40
0.0363347932812923
100
AcDbArc
 50
124.3070622911517
 51
214.5654081474501
  0
LINE
  5
336
330
1E
100
AcDbEntity
  8
IMAGE
100
AcDbLine
 10
2.833155575502528
 20
5.955460900521163
 30
0.0
 11
2.823713936602892
 21
5.904832889485907
 31
0.0
  0
ARC
  5
337
330
1E
100
AcDbEntity
  8
IMAGE
100
AcDbCircle
 10
2.853634877636421
 20
5.925447313816205
 30
0.0
 40
0.0363347932812923
100
AcDbArc
 50
124.3070622911517
 51
214.5654081474501
  0
ARC
  5
338
330
1E
100
AcDbEntity
  8
IMAGE
100
AcDbCircle
 10
2.982029436982602
 20
5.883118520986254
 30
0.0
 40
0.0363347932812923
100
AcDbArc
 50
124.3070622911517
 51
214.5654081474501
  0
ARC
  5
339
330
1E
100
AcDbEntity
  8
IMAGE
100
AcDbCircle
 10
2.798353886806797
 20
5.943672210729106
 30
0.0
 40
0.0363347932812923
100
AcDbArc
 50
124.3070622911517
 51
214.5654081474501
  0
LINE
  5
33A
330
1E
100
AcDbEntity
  8
IMAGE
100
AcDbLine
 10
2.758853168473281
 20
5.97995672970523
 30
0.0
 11
2.749411529573947
 21
5.929328718669875
 31
0.0
  0
LINE
  5
33B
330
1E
100
AcDbEntity
  8
IMAGE
100
AcDbLine
 10
2.814134159302902
 20
5.961731832792331
 30
0.0
 11
2.804692520403567
 21
5.911103821756976
 31
0.0
  0
ARC
  5
33C
330
1E
100
AcDbEntity
  8
IMAGE
100
AcDbCircle
 10
2.834613461437097
 20
5.931718246087271
 30
0.0
 40
0.0363347932812923
100
AcDbArc
 50
124.3070622911517
 51
214.5654081474501
  0
LINE
  5
33D
330
1E
100
AcDbEntity
  8
IMAGE
100
AcDbLine
 10
2.796301581615984
 20
5.967610831796474
 30
0.0
 11
2.786859942716544
 21
5.916982820761154
 31
0.0
  0
ARC
  5
33E
330
1E
100
AcDbEntity
  8
IMAGE
100
AcDbCircle
 10
2.816780883750073
 20
5.937597245091449
 30
0.0
 40
0.0363347932812923
100
AcDbArc
 50
124.3070622911517
 51
214.5654081474501
  0
LINE
  5
33F
330
1E
100
AcDbEntity
  8
IMAGE
100
AcDbLine
 10
2.777874584672805
 20
5.973685797434098
 30
0.0
 11
2.768432945773374
 21
5.923057786398775
 31
0.0
  0
LINE
  5
340
330
1E
100
AcDbEntity
  8
IMAGE
100
AcDbLine
 10
2.741020590786354
 20
5.985835728709377
 30
0.0
 11
2.731578951886922
 21
5.935207717674055
 31
0.0
  0
ARC
  5
341
330
1E
100
AcDbEntity
  8
IMAGE
100
AcDbCircle
 10
2.761499892920442
 20
5.955822142004352
 30
0.0
 40
0.0363347932812923
100
AcDbArc
 50
124.3070622911517
 51
214.5654081474501
  0
ARC
  5
342
330
1E
100
AcDbEntity
  8
IMAGE
100
AcDbCircle
 10
2.779332470607368
 20
5.949943143000206
 30
0.0
 40
0.0363347932812923
100
AcDbArc
 50
124.3070622911517
 51
214.5654081474501
  0
LINE
  5
343
330
1E
100
AcDbEntity
  8
IMAGE
100
AcDbLine
 10
3.103349696129218
 20
5.884297556677484
 30
0.0
 11
2.66314583871226
 21
6.029422848422187
 31
0.0
  0
LINE
  5
344
330
1E
100
AcDbEntity
  8
IMAGE
100
AcDbLine
 10
3.076715944932594
 20
5.803510259899042
 30
0.0
 11
2.636512087515637
 21
5.948635551643745
 31
0.0
  0
ARC
  5
345
330
1E
100
AcDbEntity
  8
IMAGE
100
AcDbCircle
 10
2.653979846880563
 20
6.025088560579387
 30
0.0
 40
0.0101391053531439
100
AcDbArc
 50
25.30788490461779
 51
120.0564806638344
  0
ARC
  5
346
330
1E
100
AcDbEntity
  8
IMAGE
100
AcDbCircle
 10
2.653979846880563
 20
6.025088560579387
 30
0.0
 40
0.0084378183081614
100
AcDbArc
 50
11.1965038244184
 51
120.0564806638344
  0
CIRCLE
  5
347
330
1E
100
AcDbEntity
  8
IMAGE
100
AcDbCircle
 10
2.614630766521006
 20
5.998783515490446
 30
0.0
 40
0.0322956548274434
  0
ARC
  5
348
330
1E
100
AcDbEntity
  8
IMAGE
100
AcDbCircle
 10
2.614630766521006
 20
5.998783515490446
 30
0.0
 40
0.019416878360384
100
AcDbArc
 50
294.4068678124203
 51
89.10068565047673
  0
LINE
  5
349
330
1E
100
AcDbEntity
  8
IMAGE
100
AcDbLine
 10
2.605671135076168
 20
6.020965200669126
 30
0.0
 11
2.615262325274728
 21
5.974869015986232
 31
0.0
  0
LINE
  5
34A
330
1E
100
AcDbEntity
  8
IMAGE
100
AcDbLine
 10
2.613999207767401
 20
6.022698014994665
 30
0.0
 11
2.623590397965956
 21
5.976601830311777
 31
0.0
  0
LWPOLYLINE
  5
34B
330
1E
100
AcDbEntity
  8
IMAGE
100
AcDbPolyline
 90
        4
 70
     0
 43
0.0
 10
2.606119539302695
 20
5.97296668502754
 10
2.588017121885903
 20
5.993246039247441
 10
2.596528349104198
 20
6.019062869710298
 10
2.605671135076168
 20
6.020965200669126
  0
ARC
  5
351
330
1E
100
AcDbEntity
  8
IMAGE
100
AcDbCircle
 10
2.614630766521006
 20
5.998783515490446
 30
0.0
 40
0.019416878360384
100
AcDbArc
 50
114.4068678124181
 51
269.100685650478
  0
LWPOLYLINE
  5
352
330
1E
100
AcDbEntity
  8
IMAGE
100
AcDbPolyline
 90
        5
 70
     0
 43
0.0
 10
2.613999207767401
 20
6.022698014994665
 10
2.623141993739349
 20
6.024600345953446
 10
2.641244411156426
 20
6.004320991733392
 10
2.632733183938131
 20
5.978504161270535
 10
2.623590397965957
 20
5.976601830311777
  0
LWPOLYLINE
  5
359
330
1E
100
AcDbEntity
  8
IMAGE
100
AcDbPolyline
 90
        2
 70
     0
 43
0.0
 10
2.615262325274728
 20
5.974869015986234
 10
2.606119539302695
 20
5.97296668502754
  0
CIRCLE
  5
35D
330
1E
100
AcDbEntity
  8
IMAGE
100
AcDbCircle
 10
2.614630766521006
 20
5.998783515490446
 30
0.0
 40
0.0360498443820563
  0
ARC
  5
35E
330
1E
100
AcDbEntity
  8
IMAGE
100
AcDbCircle
 10
2.630620827674729
 20
5.954234402518682
 30
0.0
 40
0.0084378183081614
100
AcDbArc
 50
203.4510727990611
 51
312.3110496384787
  0
LINE
  5
35F
330
1E
100
AcDbEntity
  8
IMAGE
100
AcDbLine
 10
2.622888248386251
 20
5.950857029436368
 30
0.0
 11
2.61784992853773
 21
5.9628776903937
 31
0.0
  0
LINE
  5
360
330
1E
100
AcDbEntity
  8
IMAGE
100
AcDbLine
 10
2.621319209908858
 20
5.950199385257629
 30
0.0
 11
2.616053832933747
 21
5.962761769808846
 31
0.0
  0
ARC
  5
361
330
1E
100
AcDbEntity
  8
IMAGE
100
AcDbCircle
 10
2.630620827674729
 20
5.954234402518682
 30
0.0
 40
0.0101391053531439
100
AcDbArc
 50
203.4510727990611
 51
298.199668558271
  0
LINE
  5
362
330
1E
100
AcDbEntity
  8
IMAGE
100
AcDbLine
 10
2.723188013099323
 20
5.991714727713556
 30
0.0
 11
2.713746374199892
 21
5.941086716678233
 31
0.0
  0
ARC
  5
363
330
1E
100
AcDbEntity
  8
IMAGE
100
AcDbCircle
 10
2.743667315233319
 20
5.961701141008562
 30
0.0
 40
0.0363347932812923
100
AcDbArc
 50
124.3070622911517
 51
214.5654081474501
  0
LINE
  5
364
330
1E
100
AcDbEntity
  8
IMAGE
100
AcDbLine
 10
2.705355435412305
 20
5.997593726717733
 30
0.0
 11
2.695913796512965
 21
5.946965715682379
 31
0.0
  0
ARC
  5
365
330
1E
100
AcDbEntity
  8
IMAGE
100
AcDbCircle
 10
2.725834737546495
 20
5.967580140012675
 30
0.0
 40
0.0363347932812923
100
AcDbArc
 50
124.3070622911517
 51
214.5654081474501
  0
LINE
  5
366
330
1E
100
AcDbEntity
  8
IMAGE
100
AcDbLine
 10
2.688117276981734
 20
6.003276759088365
 30
0.0
 11
2.678675638082097
 21
5.952648748053109
 31
0.0
  0
ARC
  5
367
330
1E
100
AcDbEntity
  8
IMAGE
100
AcDbCircle
 10
2.708596579115615
 20
5.973263172383409
 30
0.0
 40
0.0363347932812923
100
AcDbArc
 50
124.3070622911517
 51
214.5654081474501
  0
LINE
  5
368
330
1E
100
AcDbEntity
  8
IMAGE
100
AcDbLine
 10
2.670879118550853
 20
6.008959791459099
 30
0.0
 11
2.661437479651518
 21
5.958331780423744
 31
0.0
  0
ARC
  5
369
330
1E
100
AcDbEntity
  8
IMAGE
100
AcDbCircle
 10
2.691358420684945
 20
5.978946204754075
 30
0.0
 40
0.0363347932812923
100
AcDbArc
 50
124.3070622911517
 51
214.5654081474501
  0
LINE
  5
36A
330
1E
100
AcDbEntity
  8
IMAGE
100
AcDbLine
 10
2.648901640864446
 20
6.033864281690334
 30
0.0
 11
2.637197557373035
 21
6.026896345846143
 31
0.0
  0
LINE
  5
36B
330
1E
100
AcDbEntity
  8
IMAGE
100
AcDbLine
 10
2.649771934191596
 20
6.032402444786274
 30
0.0
 11
2.638572562058702
 21
6.025734984956917
 31
0.0
  0
LINE
  5
36C
330
1E
100
AcDbEntity
  8
IMAGE
100
AcDbLine
 10
3.119856390395177
 20
6.728451983068824
 30
0.0
 11
2.86722178763421
 21
5.962143606938115
 31
0.0
  0
LINE
  5
36D
330
1E
100
AcDbEntity
  8
IMAGE
100
AcDbLine
 10
2.973086059209565
 20
6.966709601183792
 30
0.0
 11
3.176321855105278
 21
6.899707339219524
 31
0.0
  0
LINE
  5
36E
330
1E
100
AcDbEntity
  8
IMAGE
100
AcDbLine
 10
2.916620594499462
 20
6.795454245033091
 30
0.0
 11
2.663985991738495
 21
6.029145868902384
 31
0.0
  0
LINE
  5
36F
330
1E
100
AcDbEntity
  8
IMAGE
100
AcDbLine
 10
3.387051428239492
 20
6.712018075845803
 30
0.0
 11
3.377609789339845
 21
6.66139006481055
 31
0.0
  0
ARC
  5
370
330
1E
100
AcDbEntity
  8
IMAGE
100
AcDbCircle
 10
3.407530730373374
 20
6.682004489140846
 30
0.0
 40
0.0363347932812923
100
AcDbArc
 50
124.3070622911517
 51
214.5654081474501
  0
LINE
  5
371
330
1E
100
AcDbEntity
  8
IMAGE
100
AcDbLine
 10
3.368624431296323
 20
6.718093041483419
 30
0.0
 11
3.359182792396675
 21
6.667465030448166
 31
0.0
  0
ARC
  5
372
330
1E
100
AcDbEntity
  8
IMAGE
100
AcDbCircle
 10
3.389103733430205
 20
6.688079454778462
 30
0.0
 40
0.0363347932812923
100
AcDbArc
 50
124.3070622911517
 51
214.5654081474501
  0
LINE
  5
373
330
1E
100
AcDbEntity
  8
IMAGE
100
AcDbLine
 10
3.350197434353152
 20
6.724168007121033
 30
0.0
 11
3.340755795453505
 21
6.673539996085782
 31
0.0
  0
ARC
  5
374
330
1E
100
AcDbEntity
  8
IMAGE
100
AcDbCircle
 10
3.370676736487035
 20
6.694154420416078
 30
0.0
 40
0.0363347932812923
100
AcDbArc
 50
124.3070622911517
 51
214.5654081474501
  0
LINE
  5
375
330
1E
100
AcDbEntity
  8
IMAGE
100
AcDbLine
 10
3.331770437409869
 20
6.73024297275869
 30
0.0
 11
3.322328798510335
 21
6.679614961723402
 31
0.0
  0
ARC
  5
376
330
1E
100
AcDbEntity
  8
IMAGE
100
AcDbCircle
 10
3.352249739543859
 20
6.700229386053701
 30
0.0
 40
0.0363347932812923
100
AcDbArc
 50
124.3070622911517
 51
214.5654081474501
  0
LINE
  5
377
330
1E
100
AcDbEntity
  8
IMAGE
100
AcDbLine
 10
3.313937859722844
 20
6.736121971762868
 30
0.0
 11
3.304496220823408
 21
6.685493960727548
 31
0.0
  0
ARC
  5
378
330
1E
100
AcDbEntity
  8
IMAGE
100
AcDbCircle
 10
3.33441716185683
 20
6.706108385057879
 30
0.0
 40
0.0363347932812923
100
AcDbArc
 50
124.3070622911517
 51
214.5654081474501
  0
ARC
  5
379
330
1E
100
AcDbEntity
  8
IMAGE
100
AcDbCircle
 10
3.24287659639702
 20
6.736287246612503
 30
0.0
 40
0.0363347932812923
100
AcDbArc
 50
124.3070622911517
 51
214.5654081474501
  0
LINE
  5
37A
330
1E
100
AcDbEntity
  8
IMAGE
100
AcDbLine
 10
3.222397294263127
 20
6.766300833317464
 30
0.0
 11
3.212955655363491
 21
6.715672822282208
 31
0.0
  0
ARC
  5
37B
330
1E
100
AcDbEntity
  8
IMAGE
100
AcDbCircle
 10
3.261303593340201
 20
6.730212280974878
 30
0.0
 40
0.0363347932812923
100
AcDbArc
 50
124.3070622911517
 51
214.5654081474501
  0
LINE
  5
37C
330
1E
100
AcDbEntity
  8
IMAGE
100
AcDbLine
 10
3.240824291206308
 20
6.760225867679839
 30
0.0
 11
3.23138265230687
 21
6.709597856644517
 31
0.0
  0
ARC
  5
37D
330
1E
100
AcDbEntity
  8
IMAGE
100
AcDbCircle
 10
3.279730590283466
 20
6.724137315337227
 30
0.0
 40
0.0363347932812923
100
AcDbArc
 50
124.3070622911517
 51
214.5654081474501
  0
LINE
  5
37E
330
1E
100
AcDbEntity
  8
IMAGE
100
AcDbLine
 10
3.259251288149482
 20
6.754150902042216
 30
0.0
 11
3.249809649250044
 21
6.703522891006896
 31
0.0
  0
ARC
  5
37F
330
1E
100
AcDbEntity
  8
IMAGE
100
AcDbCircle
 10
3.297563167970497
 20
6.718258316333047
 30
0.0
 40
0.0363347932812923
100
AcDbArc
 50
124.3070622911517
 51
214.5654081474501
  0
LINE
  5
380
330
1E
100
AcDbEntity
  8
IMAGE
100
AcDbLine
 10
3.277083865836506
 20
6.748271903038039
 30
0.0
 11
3.267642226936972
 21
6.69764389200275
 31
0.0
  0
ARC
  5
381
330
1E
100
AcDbEntity
  8
IMAGE
100
AcDbCircle
 10
3.315990164913672
 20
6.712183350695424
 30
0.0
 40
0.0363347932812923
100
AcDbArc
 50
124.3070622911517
 51
214.5654081474501
  0
LINE
  5
382
330
1E
100
AcDbEntity
  8
IMAGE
100
AcDbLine
 10
3.295510862779789
 20
6.742196937400381
 30
0.0
 11
3.286069223880141
 21
6.691568926365128
 31
0.0
  0
LINE
  5
383
330
1E
100
AcDbEntity
  8
IMAGE
100
AcDbLine
 10
3.402061890851761
 20
6.724983033455666
 30
0.0
 11
3.375428139655137
 21
6.644195736677223
 31
0.0
  0
LINE
  5
384
330
1E
100
AcDbEntity
  8
IMAGE
100
AcDbLine
 10
3.203970297319963
 20
6.772375798955083
 30
0.0
 11
3.194528658420316
 21
6.721747787919831
 31
0.0
  0
ARC
  5
385
330
1E
100
AcDbEntity
  8
IMAGE
100
AcDbCircle
 10
3.224449599453846
 20
6.742362212250126
 30
0.0
 40
0.0363347932812923
100
AcDbArc
 50
124.3070622911517
 51
214.5654081474501
  0
LINE
  5
386
330
1E
100
AcDbEntity
  8
IMAGE
100
AcDbLine
 10
3.185543300376681
 20
6.778450764592742
 30
0.0
 11
3.176101661477147
 21
6.72782275355745
 31
0.0
  0
ARC
  5
387
330
1E
100
AcDbEntity
  8
IMAGE
100
AcDbCircle
 10
3.206022602510672
 20
6.748437177887749
 30
0.0
 40
0.0363347932812923
100
AcDbArc
 50
124.3070622911517
 51
214.5654081474501
  0
LINE
  5
388
330
1E
100
AcDbEntity
  8
IMAGE
100
AcDbLine
 10
3.167710722689657
 20
6.784329763596918
 30
0.0
 11
3.158269083790219
 21
6.733701752561596
 31
0.0
  0
ARC
  5
389
330
1E
100
AcDbEntity
  8
IMAGE
100
AcDbCircle
 10
3.188190024823642
 20
6.754316176891929
 30
0.0
 40
0.0363347932812923
100
AcDbArc
 50
124.3070622911517
 51
214.5654081474501
  0
LINE
  5
38A
330
1E
100
AcDbEntity
  8
IMAGE
100
AcDbLine
 10
3.149283725746483
 20
6.790404729234541
 30
0.0
 11
3.139842086847045
 21
6.73977671819922
 31
0.0
  0
ARC
  5
38B
330
1E
100
AcDbEntity
  8
IMAGE
100
AcDbCircle
 10
3.169763027880376
 20
6.760391142529581
 30
0.0
 40
0.0363347932812923
100
AcDbArc
 50
124.3070622911517
 51
214.5654081474501
  0
LINE
  5
38C
330
1E
100
AcDbEntity
  8
IMAGE
100
AcDbLine
 10
3.130856728803302
 20
6.796479694872166
 30
0.0
 11
3.121415089903665
 21
6.74585168383691
 31
0.0
  0
ARC
  5
38D
330
1E
100
AcDbEntity
  8
IMAGE
100
AcDbCircle
 10
3.151336030937195
 20
6.766466108167206
 30
0.0
 40
0.0363347932812923
100
AcDbArc
 50
124.3070622911517
 51
214.5654081474501
  0
LINE
  5
38E
330
1E
100
AcDbEntity
  8
IMAGE
100
AcDbLine
 10
3.112429731860128
 20
6.802554660509789
 30
0.0
 11
3.102988092960491
 21
6.751926649474533
 31
0.0
  0
ARC
  5
38F
330
1E
100
AcDbEntity
  8
IMAGE
100
AcDbCircle
 10
3.132909033994021
 20
6.772541073804829
 30
0.0
 40
0.0363347932812923
100
AcDbArc
 50
124.3070622911517
 51
214.5654081474501
  0
LINE
  5
390
330
1E
100
AcDbEntity
  8
IMAGE
100
AcDbLine
 10
3.093408315660501
 20
6.808825592780955
 30
0.0
 11
3.083966676761167
 21
6.7581975817456
 31
0.0
  0
ARC
  5
391
330
1E
100
AcDbEntity
  8
IMAGE
100
AcDbCircle
 10
3.113887617794696
 20
6.778812006075895
 30
0.0
 40
0.0363347932812923
100
AcDbArc
 50
124.3070622911517
 51
214.5654081474501
  0
LINE
  5
392
330
1E
100
AcDbEntity
  8
IMAGE
100
AcDbLine
 10
3.075575737973584
 20
6.814704591785098
 30
0.0
 11
3.066134099074143
 21
6.764076580749778
 31
0.0
  0
ARC
  5
393
330
1E
100
AcDbEntity
  8
IMAGE
100
AcDbCircle
 10
3.096055040107673
 20
6.784691005080073
 30
0.0
 40
0.0363347932812923
100
AcDbArc
 50
124.3070622911517
 51
214.5654081474501
  0
LINE
  5
394
330
1E
100
AcDbEntity
  8
IMAGE
100
AcDbLine
 10
3.057148741030404
 20
6.820779557422723
 30
0.0
 11
3.047707102130973
 21
6.770151546387399
 31
0.0
  0
ARC
  5
395
330
1E
100
AcDbEntity
  8
IMAGE
100
AcDbCircle
 10
3.077628043164395
 20
6.79076597071773
 30
0.0
 40
0.0363347932812923
100
AcDbArc
 50
124.3070622911517
 51
214.5654081474501
  0
LINE
  5
396
330
1E
100
AcDbEntity
  8
IMAGE
100
AcDbLine
 10
3.038127324830881
 20
6.827050489693855
 30
0.0
 11
3.028685685931546
 21
6.776422478658499
 31
0.0
  0
ARC
  5
397
330
1E
100
AcDbEntity
  8
IMAGE
100
AcDbCircle
 10
3.058606626964968
 20
6.797036902988832
 30
0.0
 40
0.0363347932812923
100
AcDbArc
 50
124.3070622911517
 51
214.5654081474501
  0
LINE
  5
398
330
1E
100
AcDbEntity
  8
IMAGE
100
AcDbLine
 10
3.020294747143953
 20
6.832929488698001
 30
0.0
 11
3.01085310824452
 21
6.782301477662677
 31
0.0
  0
CIRCLE
  5
399
330
1E
100
AcDbEntity
  8
IMAGE
100
AcDbCircle
 10
2.893904922878605
 20
6.84587727547907
 30
0.0
 40
0.0322956548274434
  0
ARC
  5
39A
330
1E
100
AcDbEntity
  8
IMAGE
100
AcDbCircle
 10
2.893904922878605
 20
6.84587727547907
 30
0.0
 40
0.019416878360384
100
AcDbArc
 50
294.4068678124203
 51
89.10068565047673
  0
LINE
  5
39B
330
1E
100
AcDbEntity
  8
IMAGE
100
AcDbLine
 10
2.884945291433768
 20
6.86805896065775
 30
0.0
 11
2.894536481632329
 21
6.82196277597486
 31
0.0
  0
LINE
  5
39C
330
1E
100
AcDbEntity
  8
IMAGE
100
AcDbLine
 10
2.893273364125001
 20
6.869791774983289
 30
0.0
 11
2.902864554323556
 21
6.823695590300401
 31
0.0
  0
LWPOLYLINE
  5
39D
330
1E
100
AcDbEntity
  8
IMAGE
100
AcDbPolyline
 90
        4
 70
     0
 43
0.0
 10
2.885393695660295
 20
6.820060445016165
 10
2.867291278243502
 20
6.840339799236067
 10
2.875802505461797
 20
6.866156629698922
 10
2.884945291433767
 20
6.86805896065775
  0
ARC
  5
3A3
330
1E
100
AcDbEntity
  8
IMAGE
100
AcDbCircle
 10
2.893904922878605
 20
6.84587727547907
 30
0.0
 40
0.019416878360384
100
AcDbArc
 50
114.4068678124181
 51
269.100685650478
  0
LWPOLYLINE
  5
3A4
330
1E
100
AcDbEntity
  8
IMAGE
100
AcDbPolyline
 90
        5
 70
     0
 43
0.0
 10
2.893273364125
 20
6.869791774983289
 10
2.902416150096948
 20
6.87169410594207
 10
2.920518567514025
 20
6.851414751722016
 10
2.912007340295731
 20
6.825597921259163
 10
2.902864554323556
 20
6.823695590300401
  0
LWPOLYLINE
  5
3AB
330
1E
100
AcDbEntity
  8
IMAGE
100
AcDbPolyline
 90
        2
 70
     0
 43
0.0
 10
2.894536481632329
 20
6.82196277597486
 10
2.885393695660295
 20
6.820060445016165
  0
ARC
  5
3AF
330
1E
100
AcDbEntity
  8
IMAGE
100
AcDbCircle
 10
2.933254003238162
 20
6.872182320568011
 30
0.0
 40
0.0101391053531439
100
AcDbArc
 50
25.30788490461779
 51
120.0564806638344
  0
CIRCLE
  5
3B0
330
1E
100
AcDbEntity
  8
IMAGE
100
AcDbCircle
 10
2.893904922878605
 20
6.84587727547907
 30
0.0
 40
0.0360498443820563
  0
LINE
  5
3B1
330
1E
100
AcDbEntity
  8
IMAGE
100
AcDbLine
 10
2.928175797222046
 20
6.880958041678958
 30
0.0
 11
2.916471713730635
 21
6.873990105834767
 31
0.0
  0
LINE
  5
3B2
330
1E
100
AcDbEntity
  8
IMAGE
100
AcDbLine
 10
2.929046090549195
 20
6.879496204774898
 30
0.0
 11
2.917846718416301
 21
6.872828744945541
 31
0.0
  0
ARC
  5
3B3
330
1E
100
AcDbEntity
  8
IMAGE
100
AcDbCircle
 10
2.933254003238162
 20
6.872182320568011
 30
0.0
 40
0.0084378183081614
100
AcDbArc
 50
11.1965038244184
 51
120.0564806638344
  0
ARC
  5
3B4
330
1E
100
AcDbEntity
  8
IMAGE
100
AcDbCircle
 10
2.909894984032328
 20
6.801328162507306
 30
0.0
 40
0.0084378183081614
100
AcDbArc
 50
203.4510727990611
 51
312.3110496384788
  0
LINE
  5
3B5
330
1E
100
AcDbEntity
  8
IMAGE
100
AcDbLine
 10
2.902162404743851
 20
6.797950789424993
 30
0.0
 11
2.897124084895329
 21
6.809971450382324
 31
0.0
  0
LINE
  5
3B6
330
1E
100
AcDbEntity
  8
IMAGE
100
AcDbLine
 10
2.900593366266458
 20
6.797293145246253
 30
0.0
 11
2.895327989291347
 21
6.80985552979747
 31
0.0
  0
ARC
  5
3B7
330
1E
100
AcDbEntity
  8
IMAGE
100
AcDbCircle
 10
2.909894984032328
 20
6.801328162507306
 30
0.0
 40
0.0101391053531439
100
AcDbArc
 50
203.4510727990611
 51
298.199668558271
  0
LINE
  5
3B8
330
1E
100
AcDbEntity
  8
IMAGE
100
AcDbLine
 10
3.002462169456922
 20
6.838808487702181
 30
0.0
 11
2.993020530557492
 21
6.788180476666857
 31
0.0
  0
ARC
  5
3B9
330
1E
100
AcDbEntity
  8
IMAGE
100
AcDbCircle
 10
3.022941471590918
 20
6.808794900997186
 30
0.0
 40
0.0363347932812923
100
AcDbArc
 50
124.3070622911517
 51
214.5654081474501
  0
LINE
  5
3BA
330
1E
100
AcDbEntity
  8
IMAGE
100
AcDbLine
 10
2.984629591769904
 20
6.844687486706357
 30
0.0
 11
2.975187952870564
 21
6.794059475671003
 31
0.0
  0
ARC
  5
3BB
330
1E
100
AcDbEntity
  8
IMAGE
100
AcDbCircle
 10
3.005108893904094
 20
6.814673900001299
 30
0.0
 40
0.0363347932812923
100
AcDbArc
 50
124.3070622911517
 51
214.5654081474501
  0
LINE
  5
3BC
330
1E
100
AcDbEntity
  8
IMAGE
100
AcDbLine
 10
2.967391433339333
 20
6.850370519076991
 30
0.0
 11
2.957949794439696
 21
6.799742508041735
 31
0.0
  0
ARC
  5
3BD
330
1E
100
AcDbEntity
  8
IMAGE
100
AcDbCircle
 10
2.987870735473214
 20
6.820356932372034
 30
0.0
 40
0.0363347932812923
100
AcDbArc
 50
124.3070622911517
 51
214.5654081474501
  0
LINE
  5
3BE
330
1E
100
AcDbEntity
  8
IMAGE
100
AcDbLine
 10
2.950153274908453
 20
6.856053551447724
 30
0.0
 11
2.940711636009118
 21
6.805425540412368
 31
0.0
  0
ARC
  5
3BF
330
1E
100
AcDbEntity
  8
IMAGE
100
AcDbCircle
 10
2.970632577042545
 20
6.826039964742699
 30
0.0
 40
0.0363347932812923
100
AcDbArc
 50
124.3070622911517
 51
214.5654081474501
  0
LINE
  5
3C0
330
1E
100
AcDbEntity
  8
IMAGE
100
AcDbLine
 10
3.375428139655137
 20
6.644195736677223
 30
0.0
 11
2.915786243873236
 21
6.795729311632369
 31
0.0
  0
LINE
  5
3C1
330
1E
100
AcDbEntity
  8
IMAGE
100
AcDbLine
 10
3.402061890851761
 20
6.724983033455666
 30
0.0
 11
2.942419995069859
 21
6.876516608410812
 31
0.0
  0
ARC
  5
3C2
330
1E
100
AcDbEntity
  8
IMAGE
100
AcDbCircle
 10
3.040774049278041
 20
6.802915901992976
 30
0.0
 40
0.0363347932812923
100
AcDbArc
 50
124.3070622911517
 51
214.5654081474501
  0
LINE
  5
3C3
330
1E
100
AcDbEntity
  8
IMAGE
100
AcDbLine
 10
2.142660655895034
 20
4.447826575424658
 30
0.0
 11
1.934104953617379
 21
3.815221303626628
 31
0.0
  0
LINE
  5
3C4
330
1E
100
AcDbEntity
  8
IMAGE
100
AcDbLine
 10
2.973086059209565
 20
6.966709601183792
 30
0.0
 11
2.943260148096094
 21
6.876239628891008
 31
0.0
  0
LINE
  5
3C5
330
1E
100
AcDbEntity
  8
IMAGE
100
AcDbLine
 10
3.176316052705272
 20
6.899709252140048
 30
0.0
 11
3.1464901415918
 21
6.809239279847266
 31
0.0
  0
LINE
  5
3C6
330
1E
100
AcDbEntity
  8
IMAGE
100
AcDbLine
 10
2.429302410254018
 20
5.917803994712331
 30
0.0
 11
2.60646698858996
 21
5.854675335500774
 31
0.0
  0
LINE
  5
3C7
330
1E
100
AcDbEntity
  8
IMAGE
100
AcDbLine
 10
2.59042617153513
 20
5.113237094673296
 30
0.0
 11
2.52559654657206
 21
4.917902881857363
 31
0.0
  0
LINE
  5
3C8
330
1E
100
AcDbEntity
  8
IMAGE
100
AcDbLine
 10
2.834725716469239
 20
5.03269704002748
 30
0.0
 11
2.771307046420529
 21
4.836897667172317
 31
0.0
  0
LINE
  5
3C9
330
1E
100
AcDbEntity
  8
IMAGE
100
AcDbLine
 10
2.834725716469239
 20
5.03269704002748
 30
0.0
 11
2.590426171535132
 21
5.113237094673294
 31
0.0
  0
ARC
  5
3CA
330
1E
100
AcDbEntity
  8
IMAGE
100
AcDbCircle
 10
2.648451796496295
 20
4.87740027451484
 30
0.0
 40
0.1293594744712923
100
AcDbArc
 50
161.5166386883741
 51
342.3746608584916
  0
LINE
  5
3CB
330
1E
100
AcDbEntity
  8
IMAGE
100
AcDbLine
 10
2.833931233680429
 20
5.088051850245298
 30
0.0
 11
2.625568507135339
 21
5.156744345708681
 31
0.0
  0
LWPOLYLINE
  5
3CC
330
1E
100
AcDbEntity
  8
IMAGE
100
AcDbPolyline
 90
        2
 70
     0
 43
0.0
 10
2.810444251579963
 20
5.06733849789315
 10
2.632486294574381
 20
5.126007226014412
  0
LINE
  5
3D0
330
1E
100
AcDbEntity
  8
IMAGE
100
AcDbLine
 10
3.307935837451238
 20
6.525834696397078
 30
0.0
 11
3.097113314635611
 21
5.886353551118334
 31
0.0
  0
LINE
  5
3D1
330
1E
100
AcDbEntity
  8
IMAGE
100
AcDbLine
 10
3.099573110906147
 20
6.594527191860461
 30
0.0
 11
2.888750588090521
 21
5.955046046581717
 31
0.0
  0
LINE
  5
3D2
330
1E
100
AcDbEntity
  8
IMAGE
100
AcDbLine
 10
3.291586909129268
 20
6.476244020468413
 30
0.0
 11
3.083224182584178
 21
6.544936515931796
 31
0.0
  0
LWPOLYLINE
  5
3D3
330
1E
100
AcDbEntity
  8
IMAGE
100
AcDbPolyline
 90
        2
 70
     0
 43
0.0
 10
3.2845178565308
 20
6.505330643094389
 10
3.106559899525217
 20
6.563999371215651
  0
TEXT
  5
3D7
330
1E
100
AcDbEntity
  8
TEXT_BUBBLES
100
AcDbText
 10
1.171288851691878
 20
5.690727881731344
 30
0.0
 40
0.125
  1
11
  7
ROMANS
 72
     4
 11
1.281407899310925
 21
5.753227881731344
 31
0.0
100
AcDbText
  0
TEXT
  5
3D8
330
1E
100
AcDbEntity
  8
TEXT_BUBBLES
100
AcDbText
 10
1.153431708834735
 20
4.930176736506085
 30
0.0
 40
0.125
  1
10
  7
ROMANS
 72
     4
 11
1.281407899310925
 21
4.992676736506085
 31
0.0
100
AcDbText
  0
TEXT
  5
3D9
330
1E
100
AcDbEntity
  8
TEXT_BUBBLES
100
AcDbText
 10
2.753773066493339
 20
3.153895679808753
 30
0.0
 40
0.125
  1
6
  7
ROMANS
 72
     4
 11
2.816273066493339
 21
3.216395679808753
 31
0.0
100
AcDbText
  0
TEXT
  5
3DA
330
1E
100
AcDbEntity
  8
TEXT_BUBBLES
100
AcDbText
 10
3.090779369472164
 20
3.153895679808753
 30
0.0
 40
0.125
  1
9
  7
ROMANS
 72
     4
 11
3.147326988519783
 21
3.216395679808753
 31
0.0
100
AcDbText
  0
TEXT
  5
3DB
330
1E
100
AcDbEntity
  8
TEXT_BUBBLES
100
AcDbText
 10
3.422083828404854
 20
3.153895679808753
 30
0.0
 40
0.125
  1
8
  7
ROMANS
 72
     4
 11
3.481607637928663
 21
3.216395679808753
 31
0.0
100
AcDbText
  0
TEXT
  5
3DC
330
1E
100
AcDbEntity
  8
TEXT_BUBBLES
100
AcDbText
 10
4.180072065266996
 20
3.690440038749482
 30
0.0
 40
0.125
  1
7
  7
ROMANS
 72
     4
 11
4.239595874790805
 21
3.752940038749482
 31
0.0
100
AcDbText
  0
TEXT
  5
3DD
330
1E
100
AcDbEntity
  8
TEXT_BUBBLES
100
AcDbText
 10
4.177095874790805
 20
4.009317288472324
 30
0.0
 40
0.125
  1
6
  7
ROMANS
 72
     4
 11
4.239595874790805
 21
4.071817288472324
 31
0.0
100
AcDbText
  0
TEXT
  5
3DE
330
1E
100
AcDbEntity
  8
TEXT_BUBBLES
100
AcDbText
 10
4.180072065266996
 20
4.324835096943097
 30
0.0
 40
0.125
  1
5
  7
ROMANS
 72
     4
 11
4.239595874790805
 21
4.387335096943097
 31
0.0
100
AcDbText
  0
TEXT
  5
3E3
330
1E
100
AcDbEntity
  8
TEXT_BUBBLES
100
AcDbText
 10
4.289171920455613
 20
6.664970055190568
 30
0.0
 40
0.125
  1
3
  7
ROMANS
 72
     4
 11
4.348695729979422
 21
6.727470055190568
 31
0.0
100
AcDbText
  0
TEXT
  5
3E6
330
1E
100
AcDbEntity
  8
TEXT_BUBBLES
100
AcDbText
 10
4.288021752989567
 20
7.007596507307088
 30
0.0
 40
0.125
  1
2
  7
ROMANS
 72
     4
 11
4.347545562513376
 21
7.070096507307088
 31
0.0
100
AcDbText
  0
LINE
  5
3E7
330
1E
100
AcDbEntity
  8
IMAGE
100
AcDbLine
 10
1.733590158009567
 20
5.917227474817803
 30
0.0
 11
2.429302410254015
 21
5.917803994712329
 31
0.0
  0
TEXT
  5
3E8
330
1E
100
AcDbEntity
  8
TEXT_BUBBLES
100
AcDbText
 10
4.285045562513376
 20
6.296386789419406
 30
0.0
 40
0.125
  1
4
  7
ROMANS
 72
     4
 11
4.347545562513376
 21
6.358886789419406
 31
0.0
100
AcDbText
  0
ARC
  5
3EC
330
1E
100
AcDbEntity
  8
IMAGE
100
AcDbCircle
 10
3.947342881069031
 20
5.476880267668024
 30
0.0
 40
0.1818260367492528
100
AcDbArc
 50
321.4737485984232
 51
50.67242208683896
  0
ARC
  5
3ED
330
1E
100
AcDbEntity
  8
IMAGE
100
AcDbCircle
 10
4.204822390296332
 20
5.504274563160981
 30
0.0
 40
0.1818260367492528
100
AcDbArc
 50
141.4737485984232
 51
230.672422086839
  0
TEXT
  5
413
330
1E
100
AcDbEntity
  8
TEXT_LEADERS
100
AcDbText
 10
4.896028689999999
 20
6.081645150794851
 30
0.0
 40
0.125
  1
PLANT MATERIAL
  7
SIMPLEX
100
AcDbText
  0
INSERT
  5
43F
330
1E
100
AcDbEntity
  8
TITLE
100
AcDbBlockReference
 66
     1
  2
titleblock
 10
0.0
 20
0.0
 30
0.0
  0
ATTRIB
  5
440
330
43F
100
AcDbEntity
  8
TITLE
100
AcDbText
 10
0.5055556038023421
 20
0.7842270964783673
 30
0.0
 40
0.2
  1
D
  7
L200
 72
     4
 11
0.6064423705144839
 21
0.8842270964783672
 31
0.0
100
AcDbAttribute
  2
D
 70
     0
  0
ATTRIB
  5
441
330
43F
100
AcDbEntity
  8
TITLE
100
AcDbText
 10
1.231442370514484
 20
1.34371230274675
 30
0.0
 40
0.2
  1

  7
L200
100
AcDbAttribute
  2
TITLE1
 70
     0
  0
ATTRIB
  5
442
330
43F
100
AcDbEntity
  8
TITLE
100
AcDbText
 10
1.231442370514484
 20
0.9842270964783674
 30
0.0
 40
0.2
  1
FULL OR PART-CIRCLE IMPACT SPRINKLER
  7
L200
100
AcDbAttribute
  2
TITLE2
 70
     0
  0
ATTRIB
  5
443
330
43F
100
AcDbEntity
  8
TITLE
100
AcDbText
 10
2.713645751168312
 20
0.5927927664583189
 30
0.0
 40
0.2
  1
2045-PJ MAXI-BIRD ON SLOPE
  7
L200
100
AcDbAttribute
  2
TITLE3
 70
     0
  0
ATTRIB
  5
444
330
43F
100
AcDbEntity
  8
TITLE
100
AcDbText
 10
2.713645751168312
 20
0.2692560808167741
 30
0.0
 40
0.2
  1

  7
L200
100
AcDbAttribute
  2
TITLE4
 70
     0
  0
ATTRIB
  5
445
330
43F
100
AcDbEntity
  8
TITLE
 62
     7
100
AcDbText
 10
7.613405306156856
 20
0.9696027915446398
 30
0.0
 40
0.08
  1
01-09-04
  7
L80
 72
     2
 11
8.261024353775903
 21
0.9696027915446398
 31
0.0
100
AcDbAttribute
  2
REVISED
 70
     0
  0
ATTRIB
  5
446
330
43F
100
AcDbEntity
  8
TITLE
 62
     7
100
AcDbText
 10
0.2639423705144838
 20
0.0847116480207214
 30
0.0
 40
0.08
  1
I-2045-PJ Maxi-Bird-On Slope.dwg
  7
L80
100
AcDbAttribute
  2
DWG-NAME
 70
     0
  0
ATTRIB
  5
447
330
43F
100
AcDbEntity
  8
TITLE
 62
     7
100
AcDbText
 10
1.231442370514484
 20
0.7005637793954894
 30
0.0
 40
0.1
  1
N.T.S.
  7
L100
100
AcDbAttribute
  2
SCALE
 70
     0
  0
SEQEND
  5
448
330
43F
100
AcDbEntity
  8
IMAGE
  0
TEXT
  5
45C
330
1E
100
AcDbEntity
  8
INSTRUCT-CALLOUT
100
AcDbText
 10
11.39134015341624
 20
8.519185965410345
 30
0.0
 40
0.125
  1
TO TURN OFF THIS INSTRUCTION BOX, TURN OFF
  7
ROMANS
100
AcDbText
  0
TEXT
  5
45D
330
1E
100
AcDbEntity
  8
INSTRUCT-CALLOUT
100
AcDbText
 10
11.39134015341624
 20
8.357285921922345
 30
0.0
 40
0.125
  1
LAYER "INSTRUCT-CALLOUT".
  7
ROMANS
100
AcDbText
  0
CIRCLE
  5
45E
330
1E
100
AcDbEntity
  8
INSTRUCT-CALLOUT
100
AcDbCircle
 10
14.44090256733818
 20
9.021097651783788
 30
0.0
 40
0.125
  0
TEXT
  5
45F
330
1E
100
AcDbEntity
  8
INSTRUCT-CALLOUT
100
AcDbText
 10
14.39030732924294
 20
8.958597651783788
 30
0.0
 40
0.125
  1
1
  7
ROMANS
 72
     4
 11
14.44090256733818
 21
9.021097651783788
 31
0.0
100
AcDbText
  0
LINE
  5
460
330
1E
100
AcDbEntity
  8
INSTRUCT-CALLOUT
100
AcDbLine
 10
14.06443434163369
 20
8.918317935205964
 30
0.0
 11
14.32031575855853
 21
8.988176206670582
 31
0.0
  0
SOLID
  5
461
330
1E
100
AcDbEntity
  8
INSTRUCT-CALLOUT
100
AcDbTrace
 10
14.13370875242549
 20
8.968328494185529
 30
0.0
 11
14.14951104607983
 21
8.9104468259713
 31
0.0
 12
13.96796489460997
 22
8.891980779115398
 32
0.0
 13
13.96796489460997
 23
8.891980779115398
 33
0.0
  0
TEXT
  5
462
330
1E
100
AcDbEntity
  8
INSTRUCT-CALLOUT
100
AcDbText
 10
12.35586712418982
 20
9.006865226184624
 30
0.0
 40
0.125
  1
ITEM 1
  7
ROMANS
100
AcDbText
  0
SOLID
  5
463
330
1E
100
AcDbEntity
  8
INSTRUCT-CALLOUT
100
AcDbTrace
 10
11.99123942437607
 20
8.954902459634132
 30
0.0
 11
11.96818753948433
 21
9.010297500954978
 31
0.0
 12
11.81352835796766
 22
8.913444325619353
 32
0.0
 13
11.81352835796766
 23
8.913444325619353
 33
0.0
  0
LINE
  5
464
330
1E
100
AcDbEntity
  8
INSTRUCT-CALLOUT
100
AcDbLine
 10
11.90585342683574
 20
8.951864133772241
 30
0.0
 11
12.19362384131406
 21
9.071615835578525
 31
0.0
  0
LINE
  5
465
330
1E
100
AcDbEntity
  8
INSTRUCT-CALLOUT
100
AcDbLine
 10
12.19362384131406
 20
9.071615835578525
 30
0.0
 11
12.32989238717269
 21
9.071615835578525
 31
0.0
  0
TEXT
  5
466
330
1E
100
AcDbEntity
  8
INSTRUCT-CALLOUT
100
AcDbText
 10
11.88649918935727
 20
9.324087089280139
 30
0.0
 40
0.125
  1
TEXT_LEADERS         TEXT_BUBBLES
  7
ROMANS
100
AcDbText
  0
TEXT
  5
467
330
1E
100
AcDbEntity
  8
INSTRUCT-CALLOUT
100
AcDbText
 10
11.45015545709445
 20
9.661104383755317
 30
0.0
 40
0.125
  1
BY TURNING ON THE APPROPRIATE LAYER:
  7
ROMANS
100
AcDbText
  0
TEXT
  5
468
330
1E
100
AcDbEntity
  8
INSTRUCT-CALLOUT
100
AcDbText
 10
11.45015545709445
 20
9.823004427242315
 30
0.0
 40
0.125
  1
CHOOSE EITHER LEADERS OR BUBBLE CALLOUTS
  7
ROMANS
100
AcDbText
  0
TEXT
  5
469
330
1E
100
AcDbEntity
  8
INSTRUCT-CALLOUT
100
AcDbText
 10
11.68290522614117
 20
10.1971154907172
 30
0.0
 40
0.125
  1
CHOOSING EQUIPMENT CALLOUT METHOD
  7
ROMANS
100
AcDbText
  0
LWPOLYLINE
  5
46A
330
1E
100
AcDbEntity
  8
INSTRUCT-CALLOUT
100
AcDbPolyline
 90
        4
 70
     1
 43
0.0
 10
11.35231280619914
 20
10.14
 10
11.35231280619914
 20
8.708513978657757
 10
16.18999999999999
 20
8.708513978657757
 10
16.18999999999999
 20
10.14
  0
LEADER
  5
47B
330
1E
100
AcDbEntity
  8
TEXT_BUBBLES
100
AcDbLeader
  3
Standard
 76
     2
 10
2.48895775719836
 20
5.498238381481195
 30
0.0
 10
1.43765793245238
 20
4.992676736506085
 30
0.0
1001
ACAD
1000
DSTYLE
1002
{
1070
   147
1040
0.09
1070
    77
1070
     0
1070
   279
1070
     2
1002
}
  0
LEADER
  5
47C
330
1E
100
AcDbEntity
  8
TEXT_BUBBLES
100
AcDbLeader
  3
Standard
 76
     2
 10
2.812454773393691
 20
4.963937529874778
 30
0.0
 10
4.083345841649351
 20
4.387335096943097
 30
0.0
1001
ACAD
1000
DSTYLE
1002
{
1070
   147
1040
0.09
1070
    77
1070
     0
1070
   279
1070
     2
1002
}
  0
LEADER
  5
47D
330
1E
100
AcDbEntity
  8
TEXT_BUBBLES
100
AcDbLeader
  3
Standard
 76
     2
 10
2.775966276445925
 20
4.663162031112209
 30
0.0
 10
4.083345841649351
 20
4.071817288472324
 30
0.0
1001
ACAD
1000
DSTYLE
1002
{
1070
   147
1040
0.09
1070
    77
1070
     0
1070
   279
1070
     2
1002
}
  0
LEADER
  5
47E
330
1E
100
AcDbEntity
  8
TEXT_BUBBLES
100
AcDbLeader
  3
Standard
 76
     2
 10
2.760014516856131
 20
4.350729710611862
 30
0.0
 10
4.083345841649351
 20
3.752940038749482
 30
0.0
1001
ACAD
1000
DSTYLE
1002
{
1070
   147
1040
0.09
1070
    77
1070
     0
1070
   279
1070
     2
1002
}
  0
LEADER
  5
484
330
1E
100
AcDbEntity
  8
TEXT_BUBBLES
100
AcDbLeader
  3
Standard
 76
     2
 10
3.691726371511236
 20
7.439175344077531
 30
0.0
 10
4.191295529371922
 20
7.660528991737749
 30
0.0
1001
ACAD
1000
DSTYLE
1002
{
1070
   147
1040
0.09
1070
    77
1070
     0
1070
   279
1070
     2
1002
}
  0
LEADER
  5
485
330
1E
100
AcDbEntity
  8
TEXT_BUBBLES
100
AcDbLeader
  3
Standard
 76
     2
 10
3.406443295130828
 20
6.76343112730899
 30
0.0
 10
4.191295529371922
 20
7.070096507307088
 30
0.0
1001
ACAD
1000
DSTYLE
1002
{
1070
   147
1040
0.09
1070
    77
1070
     0
1070
   279
1070
     2
1002
}
  0
LEADER
  5
486
330
1E
100
AcDbEntity
  8
TEXT_BUBBLES
100
AcDbLeader
  3
Standard
 76
     2
 10
3.251856781129195
 20
6.355731907169317
 30
0.0
 10
4.192445696837968
 20
6.727470055190568
 30
0.0
1001
ACAD
1000
DSTYLE
1002
{
1070
   147
1040
0.09
1070
    77
1070
     0
1070
   279
1070
     2
1002
}
  0
LEADER
  5
487
330
1E
100
AcDbEntity
  8
TEXT_BUBBLES
100
AcDbLeader
  3
Standard
 76
     2
 10
3.855581104291756
 20
6.203734751029728
 30
0.0
 10
4.191295529371922
 20
6.358886789419406
 30
0.0
1001
ACAD
1000
DSTYLE
1002
{
1070
   147
1040
0.09
1070
    77
1070
     0
1070
   279
1070
     2
1002
}
  0
LEADER
  5
488
330
1E
100
AcDbEntity
  8
TEXT_BUBBLES
100
AcDbLeader
  3
Standard
 76
     2
 10
2.702244229570552
 20
3.724348482464832
 30
0.0
 10
2.816273066493339
 20
3.372645712950207
 30
0.0
1001
ACAD
1000
DSTYLE
1002
{
1070
   147
1040
0.09
1070
    77
1070
     0
1070
   279
1070
     2
1002
}
  0
LEADER
  5
489
330
1E
100
AcDbEntity
  8
TEXT_BUBBLES
100
AcDbLeader
  3
Standard
 76
     2
 10
2.991124052947999
 20
3.709380626992972
 30
0.0
 10
3.147326988519783
 20
3.372645712950207
 30
0.0
1001
ACAD
1000
DSTYLE
1002
{
1070
   147
1040
0.09
1070
    77
1070
     0
1070
   279
1070
     2
1002
}
  0
LEADER
  5
48A
330
1E
100
AcDbEntity
  8
TEXT_BUBBLES
100
AcDbLeader
  3
Standard
 76
     2
 10
3.290161563927656
 20
3.693171723548408
 30
0.0
 10
3.481607637928663
 20
3.372645712950207
 30
0.0
1001
ACAD
1000
DSTYLE
1002
{
1070
   147
1040
0.09
1070
    77
1070
     0
1070
   279
1070
     2
1002
}
  0
LEADER
  5
48B
330
1E
100
AcDbEntity
  8
TEXT_BUBBLES
100
AcDbLeader
  3
Standard
 76
     2
 10
1.781358021279293
 20
5.917267058889241
 30
0.0
 10
1.43765793245238
 20
5.753227881731344
 30
0.0
1001
ACAD
1000
DSTYLE
1002
{
1070
   147
1040
0.09
1070
    77
1070
     0
1070
   279
1070
     2
1002
}
  0
LEADER
  5
491
330
1E
100
AcDbEntity
  8
TEXT_LEADERS
100
AcDbLeader
  3
Standard
 76
     3
 10
3.691726952555466
 20
7.439174191495933
 30
0.0
 10
4.603187700749347
 20
7.86392332517642
 30
0.0
 10
4.843321087173507
 20
7.86392332517642
 30
0.0
1001
ACAD
1000
DSTYLE
1002
{
1070
   147
1040
0.09
1070
    77
1070
     0
1070
   279
1070
     2
1002
}
  0
LEADER
  5
492
330
1E
100
AcDbEntity
  8
TEXT_LEADERS
100
AcDbLeader
  3
Standard
 76
     3
 10
3.412951237249906
 20
6.783163119225177
 30
0.0
 10
4.592088557290855
 20
7.333003881576553
 30
0.0
 10
4.832221943715015
 20
7.333003881576553
 30
0.0
1001
ACAD
1000
DSTYLE
1002
{
1070
   147
1040
0.09
1070
    77
1070
     0
1070
   279
1070
     2
1002
}
  0
LEADER
  5
493
330
1E
100
AcDbEntity
  8
TEXT_LEADERS
100
AcDbLeader
  3
Standard
 76
     3
 10
3.231800283170127
 20
6.294895180078434
 30
0.0
 10
4.603187700749346
 20
6.934238986398156
 30
0.0
 10
4.843321087173507
 20
6.934238986398156
 30
0.0
1001
ACAD
1000
DSTYLE
1002
{
1070
   147
1040
0.09
1070
    77
1070
     0
1070
   279
1070
     2
1002
}
  0
LEADER
  5
494
330
1E
100
AcDbEntity
  8
TEXT_LEADERS
100
AcDbLeader
  3
Standard
 76
     3
 10
4.066794873651289
 20
5.900372048032624
 30
0.0
 10
4.603187700749347
 20
6.150496131087821
 30
0.0
 10
4.843321087173507
 20
6.150496131087821
 30
0.0
1001
ACAD
1000
DSTYLE
1002
{
1070
   147
1040
0.09
1070
    77
1070
     0
1070
   279
1070
     2
1002
}
  0
LEADER
  5
495
330
1E
100
AcDbEntity
  8
TEXT_LEADERS
100
AcDbLeader
  3
Standard
 76
     3
 10
4.130038005276867
 20
5.344899722334538
 30
0.0
 10
4.603187700749347
 20
5.565533048787029
 30
0.0
 10
4.843321087173507
 20
5.565533048787029
 30
0.0
1001
ACAD
1000
DSTYLE
1002
{
1070
   147
1040
0.09
1070
    77
1070
     0
1070
   279
1070
     2
1002
}
  0
LEADER
  5
496
330
1E
100
AcDbEntity
  8
TEXT_LEADERS
100
AcDbLeader
  3
Standard
 76
     3
 10
2.833056724264871
 20
5.010641272295063
 30
0.0
 10
4.603187700749348
 20
4.185896322444863
 30
0.0
 10
4.843321087173507
 20
4.185896322444863
 30
0.0
1001
ACAD
1000
DSTYLE
1002
{
1070
   147
1040
0.09
1070
    77
1070
     0
1070
   279
1070
     2
1002
}
  0
LEADER
  5
497
330
1E
100
AcDbEntity
  8
TEXT_LEADERS
100
AcDbLeader
  3
Standard
 76
     3
 10
2.775966276445925
 20
4.761756809460043
 30
0.0
 10
4.603187700749347
 20
3.909709466162596
 30
0.0
 10
4.843321087173507
 20
3.909709466162596
 30
0.0
1001
ACAD
1000
DSTYLE
1002
{
1070
   147
1040
0.09
1070
    77
1070
     0
1070
   279
1070
     2
1002
}
  0
LEADER
  5
498
330
1E
100
AcDbEntity
  8
TEXT_LEADERS
100
AcDbLeader
  3
Standard
 76
     3
 10
2.760014516856131
 20
4.507709641164657
 30
0.0
 10
4.603187700749346
 20
3.648223870209444
 30
0.0
 10
4.843321087173507
 20
3.648223870209444
 30
0.0
1001
ACAD
1000
DSTYLE
1002
{
1070
   147
1040
0.09
1070
    77
1070
     0
1070
   279
1070
     2
1002
}
  0
LEADER
  5
499
330
1E
100
AcDbEntity
  8
TEXT_LEADERS
100
AcDbLeader
  3
Standard
 76
     3
 10
3.368188424090423
 20
3.790074135773342
 30
0.0
 10
4.603187700749347
 20
3.214184515251486
 30
0.0
 10
4.843321087173507
 20
3.214184515251486
 30
0.0
1001
ACAD
1000
DSTYLE
1002
{
1070
   147
1040
0.09
1070
    77
1070
     0
1070
   279
1070
     2
1002
}
  0
LEADER
  5
49A
330
1E
100
AcDbEntity
  8
TEXT_LEADERS
100
AcDbLeader
  3
Standard
 76
     3
 10
2.980268339475927
 20
3.709380626992972
 30
0.0
 10
4.461237680151844
 20
3.018793281943133
 30
0.0
 10
4.843321087173507
 20
3.018793281943133
 30
0.0
1001
ACAD
1000
DSTYLE
1002
{
1070
   147
1040
0.09
1070
    77
1070
     0
1070
   279
1070
     2
1002
}
  0
LEADER
  5
49B
330
1E
100
AcDbEntity
  8
TEXT_LEADERS
100
AcDbLeader
  3
Standard
 76
     3
 10
2.654010628212743
 20
3.72436746245563
 30
0.0
 10
4.587415489730971
 20
2.820359231330953
 30
0.0
 10
4.843321087173507
 20
2.820359231330953
 30
0.0
1001
ACAD
1000
DSTYLE
1002
{
1070
   147
1040
0.09
1070
    77
1070
     0
1070
   279
1070
     2
1002
}
  0
LEADER
  5
49C
330
1E
100
AcDbEntity
  8
TEXT_LEADERS
100
AcDbLeader
  3
Standard
 76
     3
 10
2.153590957850854
 20
3.77681878538154
 30
0.0
 10
4.713593299310099
 20
2.583070088664539
 30
0.0
 10
4.843321087173507
 20
2.583070088664539
 30
0.0
1001
ACAD
1000
DSTYLE
1002
{
1070
   147
1040
0.09
1070
    77
1070
     0
1070
   279
1070
     2
1002
}
  0
HATCH
  5
4B0
330
1E
100
AcDbEntity
  8
IMAGE
100
AcDbHatch
 10
0.0
 20
0.0
 30
0.0
210
0.0
220
0.0
230
1.0
  2
EARTH
 70
     0
 71
     0
 91
        2
 92
        7
 72
     0
 73
     1
 93
        9
 10
2.606466988589961
 20
5.854675335500774
 10
2.429302410254022
 20
5.91780399471233
 10
1.733590158009567
 20
5.917227474817803
 10
1.75081406926696
 20
5.771760475018229
 10
1.864570916735159
 20
5.636630193020663
 10
2.044273829280029
 20
5.608615379380469
 10
2.21573345957497
 20
5.613559165583875
 10
2.331138948059334
 20
5.623446763144912
 10
2.519994105745698
 20
5.592379934524269
 97
        0
 92
        7
 72
     0
 73
     1
 93
        8
 10
3.039145647604938
 20
5.71052210006256
 10
2.956165116387537
 20
5.458819936413048
 10
3.157522533900098
 20
5.391737991820478
 10
3.423000849248326
 20
5.381372287907174
 10
3.622109556821069
 20
5.352348286764851
 10
3.892250584558294
 20
5.302517314504386
 10
4.029137833072236
 20
5.304590475410426
 10
4.119148126759012
 20
5.34854956298918
 97
        0
 75
     0
 76
     1
 52
45.0
 41
0.65
 77
     0
 78
     6
 53
45.0
 43
0.0
 44
0.0
 45
0.0
 46
0.229809703885628
 79
     2
 49
0.1625
 49
-0.1625
 53
45.0
 43
-0.0430893194785553
 44
0.0430893194785553
 45
0.0
 46
0.229809703885628
 79
     2
 49
0.1625
 49
-0.1625
 53
45.0
 43
-0.0861786389571105
 44
0.0861786389571105
 45
0.0
 46
0.229809703885628
 79
     2
 49
0.1625
 49
-0.1625
 53
135.0
 43
-0.0861786389571105
 44
0.114904851942814
 45
-0.2298097038856279
 46
0.0
 79
     2
 49
0.1625
 49
-0.1625
 53
135.0
 43
-0.0430893194785552
 44
0.1579941714213692
 45
-0.2298097038856279
 46
0.0
 79
     2
 49
0.1625
 49
-0.1625
 53
135.0
 43
0.0
 44
0.2010834908999244
 45
-0.2298097038856279
 46
0.0
 79
     2
 49
0.1625
 49
-0.1625
 47
0.0041229319493528
 98
        2
 10
2.362744370213436
 20
5.811078565995626
 10
3.158817933283071
 20
5.571948518551047
  0
CIRCLE
  5
4CB
330
1E
100
AcDbEntity
  8
TEXT_BUBBLES
100
AcDbCircle
 10
4.994454084274252
 20
7.773670525654319
 30
0.0
 40
0.1562500331414542
  0
CIRCLE
  5
4CC
330
1E
100
AcDbEntity
  8
TEXT_BUBBLES
100
AcDbCircle
 10
4.994454084274252
 20
7.248670525654318
 30
0.0
 40
0.1562500331414542
  0
CIRCLE
  5
4CD
330
1E
100
AcDbEntity
  8
TEXT_BUBBLES
100
AcDbCircle
 10
4.994454084274252
 20
6.723670525654318
 30
0.0
 40
0.1562500331414542
  0
CIRCLE
  5
4CE
330
1E
100
AcDbEntity
  8
TEXT_BUBBLES
100
AcDbCircle
 10
4.994454084274252
 20
6.023670525654319
 30
0.0
 40
0.1562500331414542
  0
CIRCLE
  5
4CF
330
1E
100
AcDbEntity
  8
TEXT_BUBBLES
100
AcDbCircle
 10
4.994454084274252
 20
5.673670525654318
 30
0.0
 40
0.1562500331414542
  0
CIRCLE
  5
4D0
330
1E
100
AcDbEntity
  8
TEXT_BUBBLES
100
AcDbCircle
 10
4.994454084274252
 20
5.323670525654319
 30
0.0
 40
0.1562500331414542
  0
CIRCLE
  5
4D1
330
1E
100
AcDbEntity
  8
TEXT_BUBBLES
100
AcDbCircle
 10
4.994454084274252
 20
4.973670525654318
 30
0.0
 40
0.1562500331414542
  0
CIRCLE
  5
4D2
330
1E
100
AcDbEntity
  8
TEXT_BUBBLES
100
AcDbCircle
 10
4.994454084274252
 20
4.448670525654319
 30
0.0
 40
0.1562500331414542
  0
CIRCLE
  5
4D3
330
1E
100
AcDbEntity
  8
TEXT_BUBBLES
100
AcDbCircle
 10
4.994454084274252
 20
4.098670525654318
 30
0.0
 40
0.1562500331414542
  0
CIRCLE
  5
4D5
330
1E
100
AcDbEntity
  8
TEXT_BUBBLES
100
AcDbCircle
 10
4.994454084274252
 20
3.748670525654318
 30
0.0
 40
0.1562500331414542
  0
CIRCLE
  5
4D6
330
1E
100
AcDbEntity
  8
TEXT_BUBBLES
100
AcDbCircle
 10
4.994454084274252
 20
2.873670525654329
 30
0.0
 40
0.1562500331414542
  0
CIRCLE
  5
4D7
330
1E
100
AcDbEntity
  8
TEXT_BUBBLES
100
AcDbCircle
 10
4.347545562513376
 20
7.660528991737749
 30
0.0
 40
0.1562500331414542
  0
CIRCLE
  5
4D8
330
1E
100
AcDbEntity
  8
TEXT_BUBBLES
100
AcDbCircle
 10
4.347545562513376
 20
7.070096507307088
 30
0.0
 40
0.1562500331414542
  0
CIRCLE
  5
4D9
330
1E
100
AcDbEntity
  8
TEXT_BUBBLES
100
AcDbCircle
 10
4.348695729979422
 20
6.727470055190568
 30
0.0
 40
0.1562500331414542
  0
CIRCLE
  5
4DA
330
1E
100
AcDbEntity
  8
TEXT_BUBBLES
100
AcDbCircle
 10
4.347545562513376
 20
6.358886789419406
 30
0.0
 40
0.1562500331414542
  0
CIRCLE
  5
4DB
330
1E
100
AcDbEntity
  8
TEXT_BUBBLES
100
AcDbCircle
 10
4.239595874790805
 20
4.387335096943097
 30
0.0
 40
0.1562500331414542
  0
CIRCLE
  5
4DC
330
1E
100
AcDbEntity
  8
TEXT_BUBBLES
100
AcDbCircle
 10
4.239595874790805
 20
4.071817288472324
 30
0.0
 40
0.1562500331414542
  0
CIRCLE
  5
4DD
330
1E
100
AcDbEntity
  8
TEXT_BUBBLES
100
AcDbCircle
 10
4.239595874790805
 20
3.752940038749482
 30
0.0
 40
0.1562500331414542
  0
CIRCLE
  5
4DE
330
1E
100
AcDbEntity
  8
TEXT_BUBBLES
100
AcDbCircle
 10
3.481607637928663
 20
3.216395679808753
 30
0.0
 40
0.1562500331414542
  0
CIRCLE
  5
4DF
330
1E
100
AcDbEntity
  8
TEXT_BUBBLES
100
AcDbCircle
 10
3.147326988519783
 20
3.216395679808753
 30
0.0
 40
0.1562500331414542
  0
CIRCLE
  5
4E0
330
1E
100
AcDbEntity
  8
TEXT_BUBBLES
100
AcDbCircle
 10
2.816273066493339
 20
3.216395679808753
 30
0.0
 40
0.1562500331414542
  0
CIRCLE
  5
4E1
330
1E
100
AcDbEntity
  8
TEXT_BUBBLES
100
AcDbCircle
 10
1.281407899310925
 20
4.992676736506085
 30
0.0
 40
0.1562500331414542
  0
CIRCLE
  5
4E2
330
1E
100
AcDbEntity
  8
TEXT_BUBBLES
100
AcDbCircle
 10
1.281407899310925
 20
5.753227881731344
 30
0.0
 40
0.1562500331414542
  0
VIEWPORT
  5
C8
330
1A
100
AcDbEntity
 67
     1
  8
0
100
AcDbViewport
 10
6.172388059701492
 20
4.5
 30
0.0
 40
12.34477611940298
 41
9.0
 68
     1
 69
     1
 12
6.172388059701492
 22
4.5
 13
0.0
 23
0.0
 14
0.14
 24
0.14
 15
0.14
 25
0.14
 16
0.0
 26
0.0
 36
1.0
 17
0.0
 27
0.0
 37
0.0
 42
50.0
 43
0.0
 44
0.0
 45
9.0
 50
0.0
 51
0.0
 72
   100
 90
    32800
  1

281
     0
 71
     0
 74
     0
110
0.0
120
0.0
130
0.0
111
0.0
121
0.0
131
0.0
112
0.0
122
0.0
132
0.0
 79
     0
146
0.0
  0
ENDSEC
  0
SECTION
  2
OBJECTS
  0
DICTIONARY
  5
C
330
0
100
AcDbDictionary
281
     1
  3
ACAD_GROUP
350
D
  3
ACAD_LAYOUT
350
19
  3
ACAD_MLINESTYLE
350
16
  3
ACAD_PLOTSETTINGS
350
18
  3
ACAD_PLOTSTYLENAME
350
E
  3
AcadDim
350
490
  3
AcDbVariableDictionary
350
417
  3
ASE_INDEX_DICTIONARY
350
422
  0
DICTIONARY
  5
D
102
{ACAD_REACTORS
330
C
102
}
330
C
100
AcDbDictionary
281
     1
  0
DICTIONARY
  5
19
102
{ACAD_REACTORS
330
C
102
}
330
C
100
AcDbDictionary
281
     1
  3
Layout1
350
1D
  3
Model
350
21
  0
DICTIONARY
  5
16
102
{ACAD_REACTORS
330
C
102
}
330
C
100
AcDbDictionary
281
     1
  3
Standard
350
17
  0
DICTIONARY
  5
18
102
{ACAD_REACTORS
330
C
102
}
330
C
100
AcDbDictionary
281
     1
  0
ACDBDICTIONARYWDFLT
  5
E
102
{ACAD_REACTORS
330
C
102
}
330
C
100
AcDbDictionary
281
     1
  3
Normal
350
F
100
AcDbDictionaryWithDefault
340
F
  0
XRECORD
  5
490
102
{ACAD_REACTORS
330
C
102
}
330
C
100
AcDbXrecord
280
     1
 90
   990106
  3

 60
     4
 61
     0
 62
     1
 63
     3
 64
     0
 65
     0
 66
     0
 67
     3
 68
     1
 69
     0
 70
     0
 71
     1
 72
     0
 40
0.0
170
     1
  0
DICTIONARY
  5
417
102
{ACAD_REACTORS
330
C
102
}
330
C
100
AcDbDictionary
281
     1
  3
DIMASSOC
350
41A
  3
HIDETEXT
350
419
  3
SORTENTS
350
418
  0
DICTIONARY
  5
422
102
{ACAD_REACTORS
330
C
102
}
330
C
100
AcDbDictionary
281
     1
  3
ASEBlockHierarchyIndexRecord
350
424
1001
DCO15
1040
1487050231.185
  0
LAYOUT
  5
1D
102
{ACAD_REACTORS
330
19
102
}
330
19
100
AcDbPlotSettings
  1

  2
S:\AutoCAD 2002\Plotters\1055B&WDraftShaded.pc3
  4

  6

 40
0.0
 41
0.0
 42
0.0
 43
0.0
 44
0.0
 45
0.0
 46
0.0
 47
0.0
 48
0.0
 49
0.0
140
0.0
141
0.0
142
1.0
143
1.0
 70
   688
 72
     0
 73
     0
 74
     5
  7
Color.ctb
 75
    16
147
1.0
148
0.0
149
0.0
100
AcDbLayout
  1
Layout1
 70
     1
 71
     1
 10
0.0
 20
0.0
 11
12.0
 21
9.0
 12
0.0
 22
0.0
 32
0.0
 14
1.000000000000000E+20
 24
1.000000000000000E+20
 34
1.000000000000000E+20
 15
-1.000000000000000E+20
 25
-1.000000000000000E+20
 35
-1.000000000000000E+20
146
0.0
 13
0.0
 23
0.0
 33
0.0
 16
1.0
 26
0.0
 36
0.0
 17
0.0
 27
1.0
 37
0.0
 76
     0
330
1A
331
C8
  0
LAYOUT
  5
21
102
{ACAD_REACTORS
330
19
102
}
330
19
100
AcDbPlotSettings
  1

  2
OKI DOKI Color Laser.pc3
  4
Tabloid
  6

 40
5.027083396911621
 41
5.027085304260253
 42
5.027099609375
 43
5.027069091796875
 44
279.3999938964843
 45
431.7999877929687
 46
0.0
 47
0.0
 48
0.0
 49
0.0000000000000001
140
16.48999999999999
141
10.44
142
1.0
143
1.0
 70
 11936
 72
     0
 73
     1
 74
     4
  7
Color.ctb
 75
     0
147
1.0
148
0.0
149
-0.0000000000000028
100
AcDbLayout
  1
Model
 70
     1
 71
     0
 10
0.0
 20
0.0
 11
12.0
 21
9.0
 12
0.0
 22
0.0
 32
0.0
 14
0.0
 24
0.0
 34
0.0
 15
0.0
 25
0.0
 35
0.0
146
0.0
 13
0.0
 23
0.0
 33
0.0
 16
1.0
 26
0.0
 36
0.0
 17
0.0
 27
1.0
 37
0.0
 76
     0
330
1E
  0
MLINESTYLE
  5
17
102
{ACAD_REACTORS
330
16
102
}
330
16
100
AcDbMlineStyle
  2
STANDARD
 70
     0
  3

 62
   256
 51
90.0
 52
90.0
 71
     2
 49
0.5
 62
   256
  6
BYLAYER
 49
-0.5
 62
   256
  6
BYLAYER
  0
ACDBPLACEHOLDER
  5
F
102
{ACAD_REACTORS
330
E
102
}
330
E
  0
DICTIONARYVAR
  5
41A
102
{ACAD_REACTORS
330
417
102
}
330
417
100
DictionaryVariables
280
     0
  1
1
  0
DICTIONARYVAR
  5
419
102
{ACAD_REACTORS
330
417
102
}
330
417
100
DictionaryVariables
280
     0
  1
1
  0
DICTIONARYVAR
  5
418
102
{ACAD_REACTORS
330
417
102
}
330
417
100
DictionaryVariables
280
     0
  1
1
  0
XRECORD
  5
424
102
{ACAD_REACTORS
330
422
102
}
330
422
100
AcDbXrecord
280
     1
330
0
330
155
  0
ENDSEC
  0
EOF
