  0
SECTION
  2
HEADER
  9
$ACADVER
  1
AC1015
  9
$ACADMAINTVER
 70
    13
  9
$DWGCODEPAGE
  3
ANSI_1252
  9
$INSBASE
 10
0.0
 20
0.0
 30
0.0
  9
$EXTMIN
 10
0.0
 20
0.0
 30
0.0
  9
$EXTMAX
 10
16.48999999999999
 20
10.44
 30
0.03
  9
$LIMMIN
 10
0.0
 20
0.0
  9
$LIMMAX
 10
12.0
 20
9.0
  9
$ORTHOMODE
 70
     0
  9
$REGENMODE
 70
     1
  9
$FILLMODE
 70
     1
  9
$QTEXTMODE
 70
     0
  9
$MIRRTEXT
 70
     0
  9
$LTSCALE
 40
1.0
  9
$ATTMODE
 70
     1
  9
$TEXTSIZE
 40
0.1
  9
$TRACEWID
 40
0.05
  9
$TEXTSTYLE
  7
SIMPLEX
  9
$CLAYER
  8
IMAGE
  9
$CELTYPE
  6
ByLayer
  9
$CECOLOR
 62
   256
  9
$CELTSCALE
 40
1.0
  9
$DISPSILH
 70
     0
  9
$DIMSCALE
 40
1.0
  9
$DIMASZ
 40
0.18
  9
$DIMEXO
 40
0.0625
  9
$DIMDLI
 40
0.38
  9
$DIMRND
 40
0.0
  9
$DIMDLE
 40
0.0
  9
$DIMEXE
 40
0.18
  9
$DIMTP
 40
0.0
  9
$DIMTM
 40
0.0
  9
$DIMTXT
 40
0.18
  9
$DIMCEN
 40
0.09
  9
$DIMTSZ
 40
0.0
  9
$DIMTOL
 70
     0
  9
$DIMLIM
 70
     0
  9
$DIMTIH
 70
     1
  9
$DIMTOH
 70
     1
  9
$DIMSE1
 70
     0
  9
$DIMSE2
 70
     0
  9
$DIMTAD
 70
     0
  9
$DIMZIN
 70
     0
  9
$DIMBLK
  1

  9
$DIMASO
 70
     1
  9
$DIMSHO
 70
     1
  9
$DIMPOST
  1

  9
$DIMAPOST
  1

  9
$DIMALT
 70
     0
  9
$DIMALTD
 70
     2
  9
$DIMALTF
 40
25.4
  9
$DIMLFAC
 40
1.0
  9
$DIMTOFL
 70
     0
  9
$DIMTVP
 40
0.0
  9
$DIMTIX
 70
     0
  9
$DIMSOXD
 70
     0
  9
$DIMSAH
 70
     0
  9
$DIMBLK1
  1

  9
$DIMBLK2
  1

  9
$DIMSTYLE
  2
Standard
  9
$DIMCLRD
 70
     0
  9
$DIMCLRE
 70
     0
  9
$DIMCLRT
 70
     0
  9
$DIMTFAC
 40
1.0
  9
$DIMGAP
 40
0.09
  9
$DIMJUST
 70
     0
  9
$DIMSD1
 70
     0
  9
$DIMSD2
 70
     0
  9
$DIMTOLJ
 70
     1
  9
$DIMTZIN
 70
     0
  9
$DIMALTZ
 70
     0
  9
$DIMALTTZ
 70
     0
  9
$DIMUPT
 70
     0
  9
$DIMDEC
 70
     4
  9
$DIMTDEC
 70
     4
  9
$DIMALTU
 70
     2
  9
$DIMALTTD
 70
     2
  9
$DIMTXSTY
  7
STANDARD
  9
$DIMAUNIT
 70
     0
  9
$DIMADEC
 70
     0
  9
$DIMALTRND
 40
0.0
  9
$DIMAZIN
 70
     0
  9
$DIMDSEP
 70
    46
  9
$DIMATFIT
 70
     3
  9
$DIMFRAC
 70
     0
  9
$DIMLDRBLK
  1

  9
$DIMLUNIT
 70
     2
  9
$DIMLWD
 70
    -2
  9
$DIMLWE
 70
    -2
  9
$DIMTMOVE
 70
     2
  9
$LUNITS
 70
     2
  9
$LUPREC
 70
     4
  9
$SKETCHINC
 40
0.1
  9
$FILLETRAD
 40
0.0
  9
$AUNITS
 70
     0
  9
$AUPREC
 70
     0
  9
$MENU
  1
DET
  9
$ELEVATION
 40
0.0
  9
$PELEVATION
 40
0.0
  9
$THICKNESS
 40
0.0
  9
$LIMCHECK
 70
     0
  9
$CHAMFERA
 40
0.0
  9
$CHAMFERB
 40
0.0
  9
$CHAMFERC
 40
0.0
  9
$CHAMFERD
 40
0.0
  9
$SKPOLY
 70
     0
  9
$TDCREATE
 40
2449665.651246527
  9
$TDUCREATE
 40
2449665.942913194
  9
$TDUPDATE
 40
2453019.497107419
  9
$TDUUPDATE
 40
2453019.788774085
  9
$TDINDWG
 40
0.0711227778
  9
$TDUSRTIMER
 40
0.0711227778
  9
$USRTIMER
 70
     1
  9
$ANGBASE
 50
0.0
  9
$ANGDIR
 70
     0
  9
$PDMODE
 70
     0
  9
$PDSIZE
 40
0.0
  9
$PLINEWID
 40
0.0
  9
$SPLFRAME
 70
     0
  9
$SPLINETYPE
 70
     6
  9
$SPLINESEGS
 70
     8
  9
$HANDSEED
  5
7C5
  9
$SURFTAB1
 70
     6
  9
$SURFTAB2
 70
     6
  9
$SURFTYPE
 70
     6
  9
$SURFU
 70
     6
  9
$SURFV
 70
     6
  9
$UCSBASE
  2

  9
$UCSNAME
  2

  9
$UCSORG
 10
0.0
 20
0.0
 30
0.0
  9
$UCSXDIR
 10
1.0
 20
0.0
 30
0.0
  9
$UCSYDIR
 10
0.0
 20
1.0
 30
0.0
  9
$UCSORTHOREF
  2

  9
$UCSORTHOVIEW
 70
     0
  9
$UCSORGTOP
 10
0.0
 20
0.0
 30
0.0
  9
$UCSORGBOTTOM
 10
0.0
 20
0.0
 30
0.0
  9
$UCSORGLEFT
 10
0.0
 20
0.0
 30
0.0
  9
$UCSORGRIGHT
 10
0.0
 20
0.0
 30
0.0
  9
$UCSORGFRONT
 10
0.0
 20
0.0
 30
0.0
  9
$UCSORGBACK
 10
0.0
 20
0.0
 30
0.0
  9
$PUCSBASE
  2

  9
$PUCSNAME
  2

  9
$PUCSORG
 10
0.0
 20
0.0
 30
0.0
  9
$PUCSXDIR
 10
1.0
 20
0.0
 30
0.0
  9
$PUCSYDIR
 10
0.0
 20
1.0
 30
0.0
  9
$PUCSORTHOREF
  2

  9
$PUCSORTHOVIEW
 70
     0
  9
$PUCSORGTOP
 10
0.0
 20
0.0
 30
0.0
  9
$PUCSORGBOTTOM
 10
0.0
 20
0.0
 30
0.0
  9
$PUCSORGLEFT
 10
0.0
 20
0.0
 30
0.0
  9
$PUCSORGRIGHT
 10
0.0
 20
0.0
 30
0.0
  9
$PUCSORGFRONT
 10
0.0
 20
0.0
 30
0.0
  9
$PUCSORGBACK
 10
0.0
 20
0.0
 30
0.0
  9
$USERI1
 70
     0
  9
$USERI2
 70
     0
  9
$USERI3
 70
     0
  9
$USERI4
 70
     0
  9
$USERI5
 70
     0
  9
$USERR1
 40
0.0
  9
$USERR2
 40
0.0
  9
$USERR3
 40
0.0
  9
$USERR4
 40
0.0
  9
$USERR5
 40
0.0
  9
$WORLDVIEW
 70
     1
  9
$SHADEDGE
 70
     3
  9
$SHADEDIF
 70
    70
  9
$TILEMODE
 70
     1
  9
$MAXACTVP
 70
    16
  9
$PINSBASE
 10
0.0
 20
0.0
 30
0.0
  9
$PLIMCHECK
 70
     0
  9
$PEXTMIN
 10
1.000000000000000E+20
 20
1.000000000000000E+20
 30
1.000000000000000E+20
  9
$PEXTMAX
 10
-1.000000000000000E+20
 20
-1.000000000000000E+20
 30
-1.000000000000000E+20
  9
$PLIMMIN
 10
0.0
 20
0.0
  9
$PLIMMAX
 10
12.0
 20
9.0
  9
$UNITMODE
 70
     0
  9
$VISRETAIN
 70
     0
  9
$PLINEGEN
 70
     1
  9
$PSLTSCALE
 70
     1
  9
$TREEDEPTH
 70
  3020
  9
$CMLSTYLE
  2
Standard
  9
$CMLJUST
 70
     0
  9
$CMLSCALE
 40
1.0
  9
$PROXYGRAPHICS
 70
     1
  9
$MEASUREMENT
 70
     0
  9
$CELWEIGHT
370
    -1
  9
$ENDCAPS
280
     0
  9
$JOINSTYLE
280
     0
  9
$LWDISPLAY
290
     0
  9
$INSUNITS
 70
     0
  9
$HYPERLINKBASE
  1

  9
$STYLESHEET
  1
TRexLJ5Shaded2.ctb
  9
$XEDIT
290
     1
  9
$CEPSNTYPE
380
     0
  9
$PSTYLEMODE
290
     1
  9
$FINGERPRINTGUID
  2
{A006A3A8-A7F3-49BC-87E2-9A295EB26ED7}
  9
$VERSIONGUID
  2
{A2F61155-1469-41EC-B719-B1477D4D5233}
  9
$EXTNAMES
290
     1
  9
$PSVPSCALE
 40
0.0
  9
$OLESTARTUP
290
     0
  0
ENDSEC
  0
SECTION
  2
CLASSES
  0
CLASS
  1
ACDBDICTIONARYWDFLT
  2
AcDbDictionaryWithDefault
  3
AutoCAD 2000
 90
        0
280
     0
281
     0
  0
CLASS
  1
ACDBPLACEHOLDER
  2
AcDbPlaceHolder
  3
AutoCAD 2000
 90
        0
280
     0
281
     0
  0
CLASS
  1
LAYOUT
  2
AcDbLayout
  3
AutoCAD 2000
 90
        0
280
     0
281
     0
  0
CLASS
  1
DICTIONARYVAR
  2
AcDbDictionaryVar
  3
AutoCAD 2000
 90
        0
280
     0
281
     0
  0
ENDSEC
  0
SECTION
  2
TABLES
  0
TABLE
  2
VPORT
  5
8
330
0
100
AcDbSymbolTable
 70
     2
  0
VPORT
  5
7C4
330
8
100
AcDbSymbolTableRecord
100
AcDbViewportTableRecord
  2
*Active
 70
     0
 10
0.0
 20
0.0
 11
1.0
 21
1.0
 12
8.245000038393772
 22
5.220000024307517
 13
0.0
 23
0.0
 14
0.14
 24
0.14
 15
0.14
 25
0.14
 16
0.0
 26
0.0
 36
1.0
 17
0.0
 27
0.0
 37
0.0
 40
11.0072450655855
 41
1.505548705302096
 42
50.0
 43
0.0
 44
0.0
 50
0.0
 51
0.0
 71
     0
 72
  5000
 73
     1
 74
     1
 75
     0
 76
     0
 77
     0
 78
     0
281
     0
 65
     1
110
0.0
120
0.0
130
0.0
111
1.0
121
0.0
131
0.0
112
0.0
122
1.0
132
0.0
 79
     0
146
0.0
  0
ENDTAB
  0
TABLE
  2
LTYPE
  5
5
330
0
100
AcDbSymbolTable
 70
     1
  0
LTYPE
  5
13
330
5
100
AcDbSymbolTableRecord
100
AcDbLinetypeTableRecord
  2
ByBlock
 70
     0
  3

 72
    65
 73
     0
 40
0.0
  0
LTYPE
  5
14
330
5
100
AcDbSymbolTableRecord
100
AcDbLinetypeTableRecord
  2
ByLayer
 70
     0
  3

 72
    65
 73
     0
 40
0.0
  0
LTYPE
  5
15
330
5
100
AcDbSymbolTableRecord
100
AcDbLinetypeTableRecord
  2
CONTINUOUS
 70
     0
  3
Solid line
 72
    65
 73
     0
 40
0.0
  0
ENDTAB
  0
TABLE
  2
LAYER
  5
2
330
0
100
AcDbSymbolTable
 70
     7
  0
LAYER
  5
10
330
2
100
AcDbSymbolTableRecord
100
AcDbLayerTableRecord
  2
0
 70
     0
 62
     7
  6
CONTINUOUS
370
    -3
390
F
  0
LAYER
  5
2A
330
2
100
AcDbSymbolTableRecord
100
AcDbLayerTableRecord
  2
TEXT_BUBBLES
 70
     0
 62
     6
  6
CONTINUOUS
370
    -3
390
F
  0
LAYER
  5
2B
330
2
100
AcDbSymbolTableRecord
100
AcDbLayerTableRecord
  2
IMAGE
 70
     0
 62
     7
  6
CONTINUOUS
370
    -3
390
F
  0
LAYER
  5
2E
330
2
100
AcDbSymbolTableRecord
100
AcDbLayerTableRecord
  2
TEXT_LEADERS
 70
     0
 62
    -5
  6
CONTINUOUS
370
    -3
390
F
  0
LAYER
  5
30
330
2
100
AcDbSymbolTableRecord
100
AcDbLayerTableRecord
  2
INSTRUCT-CALLOUT
 70
     0
 62
     4
  6
CONTINUOUS
370
    -3
390
F
  0
LAYER
  5
32
330
2
100
AcDbSymbolTableRecord
100
AcDbLayerTableRecord
  2
NOTE
 70
     0
 62
     7
  6
CONTINUOUS
370
    -3
390
F
  0
LAYER
  5
476
330
2
100
AcDbSymbolTableRecord
100
AcDbLayerTableRecord
  2
TITLE
 70
     0
 62
     4
  6
CONTINUOUS
370
    -3
390
F
  0
ENDTAB
  0
TABLE
  2
STYLE
  5
3
330
0
100
AcDbSymbolTable
 70
     6
  0
STYLE
  5
11
330
3
100
AcDbSymbolTableRecord
100
AcDbTextStyleTableRecord
  2
STANDARD
 70
     0
 40
0.0
 41
1.0
 50
0.0
 71
     0
 42
0.2
  3
txt
  4

  0
STYLE
  5
24
330
3
100
AcDbSymbolTableRecord
100
AcDbTextStyleTableRecord
  2
ROMANS
 70
     0
 40
0.0
 41
1.0
 50
0.0
 71
     0
 42
0.59651550821952
  3
ROMANS.SHX
  4

  0
STYLE
  5
25
330
3
100
AcDbSymbolTableRecord
100
AcDbTextStyleTableRecord
  2
SIMPLEX
 70
     0
 40
0.0
 41
1.0
 50
0.0
 71
     0
 42
0.1
  3
SIMPLEX
  4

  0
STYLE
  5
477
330
3
100
AcDbSymbolTableRecord
100
AcDbTextStyleTableRecord
  2
L100
 70
     0
 40
0.1
 41
1.0
 50
0.0
 71
     0
 42
0.1
  3
romans.shx
  4

  0
STYLE
  5
478
330
3
100
AcDbSymbolTableRecord
100
AcDbTextStyleTableRecord
  2
L200
 70
     0
 40
0.2
 41
1.0
 50
0.0
 71
     0
 42
0.081
  3
ARIAL.TTF
  4

1001
ACAD
1000
Arial
1071
       34
  0
STYLE
  5
479
330
3
100
AcDbSymbolTableRecord
100
AcDbTextStyleTableRecord
  2
L80
 70
     0
 40
0.08
 41
1.0
 50
0.0
 71
     0
 42
0.08
  3
ROMANS
  4

  0
ENDTAB
  0
TABLE
  2
VIEW
  5
6
330
0
100
AcDbSymbolTable
 70
     0
  0
ENDTAB
  0
TABLE
  2
UCS
  5
7
330
0
100
AcDbSymbolTable
 70
     0
  0
ENDTAB
  0
TABLE
  2
APPID
  5
9
330
0
100
AcDbSymbolTable
 70
     3
  0
APPID
  5
12
330
9
100
AcDbSymbolTableRecord
100
AcDbRegAppTableRecord
  2
ACAD
 70
     0
  0
APPID
  5
46E
330
9
100
AcDbSymbolTableRecord
100
AcDbRegAppTableRecord
  2
DCO15
 70
     0
  0
APPID
  5
47A
330
9
100
AcDbSymbolTableRecord
100
AcDbRegAppTableRecord
  2
RAK
 70
     0
  0
ENDTAB
  0
TABLE
  2
DIMSTYLE
  5
A
330
0
100
AcDbSymbolTable
 70
     1
100
AcDbDimStyleTable
 71
     0
  0
DIMSTYLE
105
45E
330
A
100
AcDbSymbolTableRecord
100
AcDbDimStyleTableRecord
  2
Standard
 70
     0
340
11
  0
ENDTAB
  0
TABLE
  2
BLOCK_RECORD
  5
1
330
0
100
AcDbSymbolTable
 70
     1
  0
BLOCK_RECORD
  5
1E
330
1
100
AcDbSymbolTableRecord
100
AcDbBlockTableRecord
  2
*Model_Space
340
21
  0
BLOCK_RECORD
  5
1A
330
1
100
AcDbSymbolTableRecord
100
AcDbBlockTableRecord
  2
*Paper_Space
340
1D
  0
BLOCK_RECORD
  5
47B
330
1
100
AcDbSymbolTableRecord
100
AcDbBlockTableRecord
  2
titleblock
340
0
102
{BLKREFS
331
48A
102
}
  0
ENDTAB
  0
ENDSEC
  0
SECTION
  2
BLOCKS
  0
BLOCK
  5
35
330
1E
100
AcDbEntity
  8
0
100
AcDbBlockBegin
  2
*Model_Space
 70
     0
 10
0.0
 20
0.0
 30
0.0
  3
*Model_Space
  1

  0
ENDBLK
  5
36
330
1E
100
AcDbEntity
  8
0
100
AcDbBlockEnd
  0
BLOCK
  5
33
330
1A
100
AcDbEntity
 67
     1
  8
0
100
AcDbBlockBegin
  2
*Paper_Space
 70
     0
 10
0.0
 20
0.0
 30
0.0
  3
*Paper_Space
  1

  0
ENDBLK
  5
34
330
1A
100
AcDbEntity
 67
     1
  8
0
100
AcDbBlockEnd
  0
BLOCK
  5
487
330
47B
100
AcDbEntity
  8
0
100
AcDbBlockBegin
  2
titleblock
 70
     2
 10
0.0
 20
0.0
 30
0.0
  3
titleblock
  1

  0
LWPOLYLINE
  5
47C
330
47B
100
AcDbEntity
  8
IMAGE
100
AcDbPolyline
 90
        4
 70
     1
 43
0.0
 10
0.0
 20
0.0
 10
16.48999999999999
 20
0.0000000000000001
 10
16.48999999999999
 20
10.44
 10
0.0
 20
10.44
  0
ATTDEF
  5
47D
330
47B
100
AcDbEntity
  8
TITLE
100
AcDbText
 10
0.5055556038023421
 20
0.7842270964783673
 30
0.0
 40
0.2
  1
D
  7
L200
 72
     4
 11
0.6064423705144839
 21
0.8842270964783672
 31
0.0
100
AcDbAttributeDefinition
  3
#
  2
D
 70
     0
  0
ATTDEF
  5
47E
330
47B
100
AcDbEntity
  8
TITLE
100
AcDbText
 10
1.231442370514484
 20
1.34371230274675
 30
0.0
 40
0.2
  1

  7
L200
100
AcDbAttributeDefinition
  3
DETAIL TITLE TOP LINE
  2
TITLE1
 70
     0
  0
ATTDEF
  5
47F
330
47B
100
AcDbEntity
  8
TITLE
100
AcDbText
 10
1.231442370514484
 20
0.9842270964783674
 30
0.0
 40
0.2
  1
TITLE
  7
L200
100
AcDbAttributeDefinition
  3
DETAIL TITLE TOP 2ND LINE
  2
TITLE2
 70
     0
  0
ATTDEF
  5
480
330
47B
100
AcDbEntity
  8
TITLE
100
AcDbText
 10
2.713645751168312
 20
0.5927927664583189
 30
0.0
 40
0.2
  1
TITLE2
  7
L200
100
AcDbAttributeDefinition
  3
DETAIL TITLE BOTTOM 1
  2
TITLE3
 70
     0
  0
ATTDEF
  5
481
330
47B
100
AcDbEntity
  8
TITLE
100
AcDbText
 10
2.713645751168312
 20
0.2692560808167741
 30
0.0
 40
0.2
  1

  7
L200
100
AcDbAttributeDefinition
  3
DETAIL TITLE BOTTOM 2
  2
TITLE4
 70
     0
  0
ATTDEF
  5
482
330
47B
100
AcDbEntity
  8
TITLE
 62
     7
100
AcDbText
 10
8.177214829966379
 20
0.9696027915446398
 30
0.0
 40
0.08
  1
-
  7
L80
 72
     2
 11
8.261024353775903
 21
0.9696027915446398
 31
0.0
100
AcDbAttributeDefinition
  3
REVISION DATE
  2
REVISED
 70
     0
  0
ATTDEF
  5
483
330
47B
100
AcDbEntity
  8
TITLE
 62
     7
100
AcDbText
 10
0.2639423705144838
 20
0.0847116480207214
 30
0.0
 40
0.08
  1
-
  7
L80
100
AcDbAttributeDefinition
  3
DWG-NAME
  2
DWG-NAME
 70
     0
  0
LWPOLYLINE
  5
484
330
47B
100
AcDbEntity
  8
TITLE
 62
     3
100
AcDbPolyline
 90
        2
 70
     1
 43
0.03
 10
0.6064423705144839
 20
0.5417270964783675
 42
0.9999999999999998
 10
0.6064423705144839
 20
1.226727096478367
 42
0.9999999999999998
  0
ATTDEF
  5
485
330
47B
100
AcDbEntity
  8
TITLE
 62
     7
100
AcDbText
 10
1.231442370514484
 20
0.7005637793954894
 30
0.0
 40
0.1
  1
N.T.S.
  7
L100
100
AcDbAttributeDefinition
  3
SCALE
  2
SCALE
 70
     0
  0
LWPOLYLINE
  5
486
330
47B
100
AcDbEntity
  8
TITLE
 62
     3
100
AcDbPolyline
 90
        2
 70
     0
 43
0.04
 39
0.03
 10
0.9489423705144833
 20
0.8842270964783672
 10
8.261024353775903
 20
0.8842270964783672
  0
ENDBLK
  5
488
330
47B
100
AcDbEntity
  8
0
100
AcDbBlockEnd
  0
ENDSEC
  0
SECTION
  2
ENTITIES
  0
TEXT
  5
AE
330
1E
100
AcDbEntity
  8
TEXT_BUBBLES
100
AcDbText
 10
5.583729562774085
 20
7.923172534523763
 30
0.0
 40
0.125
  1
1
  7
ROMANS
 72
     4
 11
5.634324800869324
 21
7.985672534523763
 31
0.0
100
AcDbText
  0
LWPOLYLINE
  5
B1
330
1E
100
AcDbEntity
  8
IMAGE
100
AcDbPolyline
 90
        2
 70
     0
 43
0.0
 10
2.228287977020838
 20
6.13463298324058
 10
2.415667415916805
 20
6.13463298324058
  0
LWPOLYLINE
  5
B8
330
1E
100
AcDbEntity
  8
IMAGE
100
AcDbPolyline
 90
        2
 70
     0
 43
0.0
 10
2.688597936149276
 20
4.403844246878463
 10
2.649787007274164
 20
4.220528219426368
  0
LWPOLYLINE
  5
BE
330
1E
100
AcDbEntity
  8
IMAGE
100
AcDbPolyline
 90
        2
 70
     0
 43
0.0
 10
4.008326705782473
 20
4.123579272748681
 10
3.969515776907361
 20
3.940263245296584
  0
LWPOLYLINE
  5
C2
330
1E
100
AcDbEntity
  8
IMAGE
100
AcDbPolyline
 90
        2
 70
     0
 43
0.0
 10
2.228287977020838
 20
4.620510401488512
 10
2.415667415916805
 20
4.620510401488512
  0
TEXT
  5
C7
330
1E
100
AcDbEntity
  8
TEXT_BUBBLES
100
AcDbText
 10
5.90614253
 20
3.7287083
 30
0.0
 40
0.125
  1
  (LENGTH AS REQUIRED)
  7
SIMPLEX
100
AcDbText
  0
TEXT
  5
C9
330
1E
100
AcDbEntity
  8
TEXT_BUBBLES
100
AcDbText
 10
5.90614253
 20
4.2537083
 30
0.0
 40
0.125
  1
PVC SCH 40 STREET ELL
  7
SIMPLEX
100
AcDbText
  0
TEXT
  5
CA
330
1E
100
AcDbEntity
  8
TEXT_BUBBLES
100
AcDbText
 10
5.90614253
 20
3.903708299999999
 30
0.0
 40
0.125
  1
PVC SCH 80 NIPPLE
  7
SIMPLEX
100
AcDbText
  0
TEXT
  5
CB
330
1E
100
AcDbEntity
  8
TEXT_BUBBLES
100
AcDbText
 10
5.90614253
 20
3.378708299999999
 30
0.0
 40
0.125
  1
PVC SCH 40 TEE OR ELL
  7
SIMPLEX
100
AcDbText
  0
TEXT
  5
CC
330
1E
100
AcDbEntity
  8
TEXT_BUBBLES
100
AcDbText
 10
5.90614253
 20
3.02870830000001
 30
0.0
 40
0.125
  1
PVC LATERAL PIPE
  7
SIMPLEX
100
AcDbText
  0
TEXT
  5
CD
330
1E
100
AcDbEntity
  8
TEXT_BUBBLES
100
AcDbText
 10
5.90614253
 20
5.4787083
 30
0.0
 40
0.125
  1
PVC SCH 40 ELL
  7
SIMPLEX
100
AcDbText
  0
LWPOLYLINE
  5
CE
330
1E
100
AcDbEntity
  8
IMAGE
100
AcDbPolyline
 90
        4
 70
     0
 43
0.0
 10
1.500894153136113
 20
4.084698811245337
 42
0.6332430429610296
 10
1.500894153136113
 20
3.953881322845052
 42
-0.6332430429610812
 10
1.500894153136113
 20
3.82306383444477
 42
-0.6134111328532366
 10
1.500894153136113
 20
3.953881322845052
 42
-0.6134111328532366
  0
LWPOLYLINE
  5
D4
330
1E
100
AcDbEntity
  8
IMAGE
100
AcDbPolyline
 90
        4
 70
     0
 43
0.0
 10
4.891044087632573
 20
4.086584243812183
 42
-0.6332430429610296
 10
4.891044087632573
 20
3.9557667554119
 42
0.6332430429610812
 10
4.891044087632573
 20
3.824949267011614
 42
0.6134111328532366
 10
4.891044087632569
 20
3.955766755411897
 42
0.6134111328532366
  0
TEXT
  5
F3
330
1E
100
AcDbEntity
  8
TEXT_BUBBLES
100
AcDbText
 10
5.90614253
 20
6.1787083
 30
0.0
 40
0.125
  1
UV RADIATION RESISTANT
  7
SIMPLEX
100
AcDbText
  0
TEXT
  5
F4
330
1E
100
AcDbEntity
  8
TEXT_BUBBLES
100
AcDbText
 10
5.90614253
 20
6.0037083
 30
0.0
 40
0.125
  1
  PVC SCH 80 NIPPLE
  7
SIMPLEX
100
AcDbText
  0
TEXT
  5
F5
330
1E
100
AcDbEntity
  8
TEXT_BUBBLES
100
AcDbText
 10
5.90614253
 20
5.828708299999999
 30
0.0
 40
0.125
  1
  (LENGTH AS REQUIRED)
  7
SIMPLEX
100
AcDbText
  0
CIRCLE
  5
10C
330
1E
100
AcDbEntity
  8
IMAGE
100
AcDbCircle
 10
1.93843603421128
 20
6.334182642535033
 30
0.0
 40
0.0360498443820563
  0
LWPOLYLINE
  5
10E
330
1E
100
AcDbEntity
  8
IMAGE
100
AcDbPolyline
 90
        2
 70
     0
 43
0.0
 10
1.946523496656673
 20
6.311668311450352
 10
1.938436034211279
 20
6.306999012830521
  0
LWPOLYLINE
  5
112
330
1E
100
AcDbEntity
  8
IMAGE
100
AcDbPolyline
 90
        5
 70
     0
 43
0.0
 10
1.930348571765994
 20
6.35669697361976
 10
1.938436034211279
 20
6.361366272239648
 10
1.96197774810266
 20
6.347774457387286
 10
1.96197774810266
 20
6.320590827682826
 10
1.953890285657153
 20
6.315921529062887
  0
LWPOLYLINE
  5
11A
330
1E
100
AcDbEntity
  8
IMAGE
100
AcDbPolyline
 90
        4
 70
     0
 43
0.0
 10
1.938436034211279
 20
6.306999012830521
 10
1.914894320320216
 20
6.320590827682826
 10
1.914894320320216
 20
6.347774457387286
 10
1.922981782765508
 20
6.352443756007225
  0
CIRCLE
  5
123
330
1E
100
AcDbEntity
  8
IMAGE
100
AcDbCircle
 10
1.93843603421128
 20
6.334182642535033
 30
0.0
 40
0.0322956548274434
  0
CIRCLE
  5
15F
330
1E
100
AcDbEntity
  8
IMAGE
100
AcDbCircle
 10
1.93843603421128
 20
5.443812708220756
 30
0.0
 40
0.0360498443820563
  0
LWPOLYLINE
  5
160
330
1E
100
AcDbEntity
  8
IMAGE
100
AcDbPolyline
 90
        2
 70
     0
 43
0.0
 10
1.946523496656673
 20
5.421298377136073
 10
1.938436034211279
 20
5.416629078516242
  0
LWPOLYLINE
  5
164
330
1E
100
AcDbEntity
  8
IMAGE
100
AcDbPolyline
 90
        5
 70
     0
 43
0.0
 10
1.930348571765994
 20
5.466327039305483
 10
1.938436034211279
 20
5.47099633792537
 10
1.96197774810266
 20
5.457404523073009
 10
1.96197774810266
 20
5.430220893368547
 10
1.953890285657153
 20
5.425551594748609
  0
LWPOLYLINE
  5
16C
330
1E
100
AcDbEntity
  8
IMAGE
100
AcDbPolyline
 90
        4
 70
     0
 43
0.0
 10
1.938436034211279
 20
5.416629078516242
 10
1.914894320320216
 20
5.430220893368547
 10
1.914894320320216
 20
5.457404523073009
 10
1.922981782765508
 20
5.462073821692948
  0
CIRCLE
  5
175
330
1E
100
AcDbEntity
  8
IMAGE
100
AcDbCircle
 10
1.93843603421128
 20
5.443812708220756
 30
0.0
 40
0.0322956548274434
  0
TEXT
  5
1A7
330
1E
100
AcDbEntity
  8
TEXT_BUBBLES
100
AcDbText
 10
5.90614253
 20
5.1287083
 30
0.0
 40
0.125
  1
1-INCH GALVANIZED STEEL PIPE
  7
SIMPLEX
100
AcDbText
  0
TEXT
  5
1A8
330
1E
100
AcDbEntity
  8
TEXT_BUBBLES
100
AcDbText
 10
5.90614253
 20
4.778708299999999
 30
0.0
 40
0.125
  1
  CLAMPS OR EQUIVALENT
  7
SIMPLEX
100
AcDbText
  0
TEXT
  5
1A9
330
1E
100
AcDbEntity
  8
TEXT_BUBBLES
100
AcDbText
 10
5.90614253
 20
4.6037083
 30
0.0
 40
0.125
  1
  SUPPORT SYSTEM
  7
SIMPLEX
100
AcDbText
  0
TEXT
  5
1AB
330
1E
100
AcDbEntity
  8
TEXT_BUBBLES
100
AcDbText
 10
5.571824800869324
 20
6.523172534523762
 30
0.0
 40
0.125
  1
4
  7
ROMANS
 72
     4
 11
5.634324800869324
 21
6.585672534523762
 31
0.0
100
AcDbText
  0
TEXT
  5
1AC
330
1E
100
AcDbEntity
  8
TEXT_BUBBLES
100
AcDbText
 10
5.90614253
 20
7.9287083
 30
0.0
 40
0.125
  1
IMPACT SPRINKLER:
  7
SIMPLEX
100
AcDbText
  0
TEXT
  5
1AD
330
1E
100
AcDbEntity
  8
TEXT_BUBBLES
100
AcDbText
 10
5.90614253
 20
7.7537083
 30
0.0
 40
0.125
  1
  RAIN BIRD 2045-PJ MAXI-BIRD
  7
SIMPLEX
100
AcDbText
  0
TEXT
  5
1AF
330
1E
100
AcDbEntity
  8
TEXT_BUBBLES
100
AcDbText
 10
5.574800991345514
 20
6.873172534523763
 30
0.0
 40
0.125
  1
3
  7
ROMANS
 72
     4
 11
5.634324800869324
 21
6.935672534523763
 31
0.0
100
AcDbText
  0
TEXT
  5
244
330
1E
100
AcDbEntity
  8
TEXT_BUBBLES
100
AcDbText
 10
3.786188026676158
 20
7.315703758750252
 30
0.0
 40
0.125
  1
1
  7
ROMANS
 72
     4
 11
3.836783264771396
 21
7.378203758750252
 31
0.0
100
AcDbText
  0
TEXT
  5
246
330
1E
100
AcDbEntity
  8
TEXT_BUBBLES
100
AcDbText
 10
3.777259455247587
 20
6.012997685099239
 30
0.0
 40
0.125
  1
3
  7
ROMANS
 72
     4
 11
3.836783264771396
 21
6.075497685099239
 31
0.0
100
AcDbText
  0
TEXT
  5
248
330
1E
100
AcDbEntity
  8
TEXT_BUBBLES
100
AcDbText
 10
3.774283264771396
 20
5.373901509451851
 30
0.0
 40
0.125
  1
4
  7
ROMANS
 72
     4
 11
3.836783264771396
 21
5.436401509451851
 31
0.0
100
AcDbText
  0
TEXT
  5
24A
330
1E
100
AcDbEntity
  8
TEXT_BUBBLES
100
AcDbText
 10
2.923774563714805
 20
4.941476163686258
 30
0.0
 40
0.125
  1
5
  7
ROMANS
 72
     4
 11
2.983298373238614
 21
5.003976163686258
 31
0.0
100
AcDbText
  0
TEXT
  5
24C
330
1E
100
AcDbEntity
  8
TEXT_BUBBLES
100
AcDbText
 10
2.920798373238614
 20
4.593141689629307
 30
0.0
 40
0.125
  1
6
  7
ROMANS
 72
     4
 11
2.983298373238614
 21
4.655641689629307
 31
0.0
100
AcDbText
  0
TEXT
  5
24E
330
1E
100
AcDbEntity
  8
TEXT_BUBBLES
100
AcDbText
 10
2.348327369798478
 20
3.027601206683637
 30
0.0
 40
0.125
  1
7
  7
ROMANS
 72
     4
 11
2.407851179322287
 21
3.090101206683637
 31
0.0
100
AcDbText
  0
TEXT
  5
250
330
1E
100
AcDbEntity
  8
TEXT_BUBBLES
100
AcDbText
 10
2.880619638760607
 20
3.027601206683637
 30
0.0
 40
0.125
  1
8
  7
ROMANS
 72
     4
 11
2.940143448284416
 21
3.090101206683637
 31
0.0
100
AcDbText
  0
TEXT
  5
252
330
1E
100
AcDbEntity
  8
TEXT_BUBBLES
100
AcDbText
 10
3.694999419945481
 20
3.027601206683637
 30
0.0
 40
0.125
  1
9
  7
ROMANS
 72
     4
 11
3.7515470389931
 21
3.090101206683637
 31
0.0
100
AcDbText
  0
TEXT
  5
254
330
1E
100
AcDbEntity
  8
TEXT_BUBBLES
100
AcDbText
 10
4.374122461922911
 20
3.027601206683637
 30
0.0
 40
0.125
  1
8
  7
ROMANS
 72
     4
 11
4.43364627144672
 21
3.090101206683637
 31
0.0
100
AcDbText
  0
TEXT
  5
256
330
1E
100
AcDbEntity
  8
TEXT_BUBBLES
100
AcDbText
 10
4.675880540669776
 20
3.027601206683637
 30
0.0
 40
0.125
  1
10
  7
ROMANS
 72
     4
 11
4.803856731145967
 21
3.090101206683637
 31
0.0
100
AcDbText
  0
TEXT
  5
258
330
1E
100
AcDbEntity
  8
TEXT_BUBBLES
100
AcDbText
 10
5.014403872767406
 20
3.027601206683637
 30
0.0
 40
0.125
  1
11
  7
ROMANS
 72
     4
 11
5.124522920386453
 21
3.090101206683637
 31
0.0
100
AcDbText
  0
TEXT
  5
25A
330
1E
100
AcDbEntity
  8
TEXT_BUBBLES
100
AcDbText
 10
5.90614253
 20
6.8787083
 30
0.0
 40
0.125
  1
PLANT MATERIAL
  7
SIMPLEX
100
AcDbText
  0
TEXT
  5
25B
330
1E
100
AcDbEntity
  8
TEXT_BUBBLES
100
AcDbText
 10
5.90614253
 20
6.528708299999999
 30
0.0
 40
0.125
  1
FINISH GRADE/TOP OF MULCH
  7
SIMPLEX
100
AcDbText
  0
TEXT
  5
25D
330
1E
100
AcDbEntity
  8
TEXT_BUBBLES
100
AcDbText
 10
5.574800991345514
 20
6.173172534523763
 30
0.0
 40
0.125
  1
5
  7
ROMANS
 72
     4
 11
5.634324800869324
 21
6.235672534523763
 31
0.0
100
AcDbText
  0
TEXT
  5
25F
330
1E
100
AcDbEntity
  8
TEXT_BUBBLES
100
AcDbText
 10
5.571824800869324
 20
5.473172534523762
 30
0.0
 40
0.125
  1
6
  7
ROMANS
 72
     4
 11
5.634324800869324
 21
5.535672534523762
 31
0.0
100
AcDbText
  0
TEXT
  5
261
330
1E
100
AcDbEntity
  8
TEXT_BUBBLES
100
AcDbText
 10
5.574800991345514
 20
5.123172534523763
 30
0.0
 40
0.125
  1
7
  7
ROMANS
 72
     4
 11
5.634324800869324
 21
5.185672534523763
 31
0.0
100
AcDbText
  0
TEXT
  5
263
330
1E
100
AcDbEntity
  8
TEXT_BUBBLES
100
AcDbText
 10
5.574800991345514
 20
4.248172534523763
 30
0.0
 40
0.125
  1
8
  7
ROMANS
 72
     4
 11
5.634324800869324
 21
4.310672534523763
 31
0.0
100
AcDbText
  0
TEXT
  5
265
330
1E
100
AcDbEntity
  8
TEXT_BUBBLES
100
AcDbText
 10
5.577777181821705
 20
3.898172534523762
 30
0.0
 40
0.125
  1
9
  7
ROMANS
 72
     4
 11
5.634324800869324
 21
3.960672534523762
 31
0.0
100
AcDbText
  0
TEXT
  5
267
330
1E
100
AcDbEntity
  8
TEXT_BUBBLES
100
AcDbText
 10
5.506348610393133
 20
3.373172534523762
 30
0.0
 40
0.125
  1
10
  7
ROMANS
 72
     4
 11
5.634324800869324
 21
3.435672534523762
 31
0.0
100
AcDbText
  0
TEXT
  5
268
330
1E
100
AcDbEntity
  8
TEXT_BUBBLES
100
AcDbText
 10
5.574800991345514
 20
7.398172534523762
 30
0.0
 40
0.125
  1
2
  7
ROMANS
 72
     4
 11
5.634324800869324
 21
7.460672534523762
 31
0.0
100
AcDbText
  0
TEXT
  5
26A
330
1E
100
AcDbEntity
  8
TEXT_BUBBLES
100
AcDbText
 10
5.90614253
 20
4.953708299999999
 30
0.0
 40
0.125
  1
  WITH STAINLESS STEEL GEAR
  7
SIMPLEX
100
AcDbText
  0
TEXT
  5
26B
330
1E
100
AcDbEntity
  8
TEXT_LEADERS
100
AcDbText
 10
5.40614253
 20
7.642696779999999
 30
0.0
 40
0.125
  1
IMPACT SPRINKLER:
  7
SIMPLEX
100
AcDbText
  0
TEXT
  5
26C
330
1E
100
AcDbEntity
  8
TEXT_LEADERS
100
AcDbText
 10
5.40614253
 20
6.438338070491968
 30
0.0
 40
0.125
  1
PLANT MATERIAL
  7
SIMPLEX
100
AcDbText
  0
TEXT
  5
26D
330
1E
100
AcDbEntity
  8
TEXT_LEADERS
100
AcDbText
 10
5.40614253
 20
2.864830961239569
 30
0.0
 40
0.125
  1
PVC SCH 40 ELL
  7
SIMPLEX
100
AcDbText
  0
TEXT
  5
26E
330
1E
100
AcDbEntity
  8
TEXT_LEADERS
100
AcDbText
 10
5.40614253
 20
2.119566718478125
 30
0.0
 40
0.125
  1
  SUPPORT SYSTEM
  7
SIMPLEX
100
AcDbText
  0
TEXT
  5
26F
330
1E
100
AcDbEntity
  8
TEXT_LEADERS
100
AcDbText
 10
5.40614253
 20
3.074370126803414
 30
0.0
 40
0.125
  1
PVC LATERAL PIPE
  7
SIMPLEX
100
AcDbText
  0
TEXT
  5
270
330
1E
100
AcDbEntity
  8
TEXT_LEADERS
100
AcDbText
 10
5.40614253
 20
5.800111614714925
 30
0.0
 40
0.125
  1
FINISH GRADE/TOP OF MULCH
  7
SIMPLEX
100
AcDbText
  0
TEXT
  5
271
330
1E
100
AcDbEntity
  8
TEXT_LEADERS
100
AcDbText
 10
5.40614253
 20
5.614841074360886
 30
0.0
 40
0.125
  1
UV RADIATION RESISTANT
  7
SIMPLEX
100
AcDbText
  0
TEXT
  5
272
330
1E
100
AcDbEntity
  8
TEXT_LEADERS
100
AcDbText
 10
5.40614253
 20
5.264841074360886
 30
0.0
 40
0.125
  1
  (LENGTH AS REQUIRED)
  7
SIMPLEX
100
AcDbText
  0
TEXT
  5
273
330
1E
100
AcDbEntity
  8
TEXT_LEADERS
100
AcDbText
 10
5.40614253
 20
5.439841074360886
 30
0.0
 40
0.125
  1
  PVC SCH 80 NIPPLE
  7
SIMPLEX
100
AcDbText
  0
TEXT
  5
274
330
1E
100
AcDbEntity
  8
TEXT_LEADERS
100
AcDbText
 10
5.40614253
 20
2.294566718478125
 30
0.0
 40
0.125
  1
  CLAMPS OR EQUIVALENT
  7
SIMPLEX
100
AcDbText
  0
TEXT
  5
275
330
1E
100
AcDbEntity
  8
TEXT_LEADERS
100
AcDbText
 10
5.40614253
 20
2.46956671847813
 30
0.0
 40
0.125
  1
  WITH STAINLESS STEEL GEAR
  7
SIMPLEX
100
AcDbText
  0
TEXT
  5
276
330
1E
100
AcDbEntity
  8
TEXT_LEADERS
100
AcDbText
 10
5.40614253
 20
2.64456671847813
 30
0.0
 40
0.125
  1
1-INCH GALVANIZED STEEL PIPE
  7
SIMPLEX
100
AcDbText
  0
TEXT
  5
277
330
1E
100
AcDbEntity
  8
TEXT_LEADERS
100
AcDbText
 10
5.40614253
 20
5.098077548600896
 30
0.0
 40
0.125
  1
PVC SCH 40 STREET ELL
  7
SIMPLEX
100
AcDbText
  0
TEXT
  5
278
330
1E
100
AcDbEntity
  8
TEXT_LEADERS
100
AcDbText
 10
5.40614253
 20
4.746043482486865
 30
0.0
 40
0.125
  1
PVC SCH 80 NIPPLE
  7
SIMPLEX
100
AcDbText
  0
TEXT
  5
279
330
1E
100
AcDbEntity
  8
TEXT_LEADERS
100
AcDbText
 10
5.40614253
 20
4.571043482486865
 30
0.0
 40
0.125
  1
  (LENGTH AS REQUIRED)
  7
SIMPLEX
100
AcDbText
  0
TEXT
  5
27A
330
1E
100
AcDbEntity
  8
TEXT_LEADERS
100
AcDbText
 10
5.40614253
 20
3.31666386116632
 30
0.0
 40
0.125
  1
PVC SCH 40 TEE OR ELL
  7
SIMPLEX
100
AcDbText
  0
SOLID
  5
27F
330
1E
100
AcDbEntity
  8
TEXT_BUBBLES
100
AcDbTrace
 10
3.465277522505456
 20
5.31759176135087
 30
0.0
 11
3.442801126900501
 21
5.373222792624876
 31
0.0
 12
3.287146230880956
 22
5.277978090173009
 32
0.0
 13
3.287146230880956
 23
5.277978090173009
 33
0.0
  0
TEXT
  5
294
330
1E
100
AcDbEntity
  8
TEXT_LEADERS
100
AcDbText
 10
5.40614253
 20
3.607023772526428
 30
0.0
 40
0.125
  1
PVC SCH 40 STREET ELL
  7
SIMPLEX
100
AcDbText
  0
TEXT
  5
2DD
330
1E
100
AcDbEntity
  8
TEXT_LEADERS
100
AcDbText
 10
5.40614253
 20
7.265953291165942
 30
0.0
 40
0.125
  1
UV RADIATION RESISTANT
  7
SIMPLEX
100
AcDbText
  0
TEXT
  5
2DE
330
1E
100
AcDbEntity
  8
TEXT_LEADERS
100
AcDbText
 10
5.40614253
 20
7.090953291165942
 30
0.0
 40
0.125
  1
  PVC SCH 80 COUPLING
  7
SIMPLEX
100
AcDbText
  0
TEXT
  5
2DF
330
1E
100
AcDbEntity
  8
TEXT_BUBBLES
100
AcDbText
 10
5.90614253
 20
7.2287083
 30
0.0
 40
0.125
  1
  PVC SCH 80 COUPLING
  7
SIMPLEX
100
AcDbText
  0
TEXT
  5
2E0
330
1E
100
AcDbEntity
  8
TEXT_BUBBLES
100
AcDbText
 10
5.90614253
 20
7.403708299999999
 30
0.0
 40
0.125
  1
UV RADIATION RESISTANT
  7
SIMPLEX
100
AcDbText
  0
TEXT
  5
2E2
330
1E
100
AcDbEntity
  8
TEXT_BUBBLES
100
AcDbText
 10
5.524205753250276
 20
3.023172534523773
 30
0.0
 40
0.125
  1
11
  7
ROMANS
 72
     4
 11
5.634324800869324
 21
3.085672534523773
 31
0.0
100
AcDbText
  0
TEXT
  5
2E7
330
1E
100
AcDbEntity
  8
TEXT_BUBBLES
100
AcDbText
 10
3.777259455247587
 20
6.846380654759748
 30
0.0
 40
0.125
  1
2
  7
ROMANS
 72
     4
 11
3.836783264771396
 21
6.908880654759748
 31
0.0
100
AcDbText
  0
CIRCLE
  5
360
330
1E
100
AcDbEntity
  8
0
100
AcDbCircle
 10
2.015576699637568
 20
7.023088594616082
 30
0.0
 40
0.0551353688520697
  0
LWPOLYLINE
  5
384
330
1E
100
AcDbEntity
  8
0
100
AcDbPolyline
 90
        9
 70
     0
 43
0.0
 10
2.632269391349118
 20
6.930839427305437
 42
0.1492029026861015
 10
2.636933065593771
 20
6.934666239153521
 42
0.1070815255580422
 10
2.639972210548971
 20
6.942408129762354
 42
0.0756612043681028
 10
2.640057839090135
 20
6.951244502762257
 42
0.0624775271329189
 10
2.637248374446185
 20
6.961550530433926
 42
0.0624775271329113
 10
2.631980346754871
 20
6.970843279338225
 42
0.0756612043681038
 10
2.625693469288135
 20
6.977053270623116
 42
0.107081525558033
 10
2.618081938018292
 20
6.980405562971087
 42
0.1492029026861064
 10
2.61207620180442
 20
6.979835055381055
 42
0.1492029026860998
  0
LWPOLYLINE
  5
39E
330
1E
100
AcDbEntity
  8
0
100
AcDbPolyline
 90
        3
 70
     0
 43
0.0
 10
2.571245962656916
 20
6.948168005400512
 42
0.0191372537753844
 10
2.571477170955155
 20
6.945932839824227
 42
0.0355033860300523
 10
2.572759718369455
 20
6.939983291614156
 42
0.062477527132918
  0
LWPOLYLINE
  5
3A3
330
1E
100
AcDbEntity
  8
0
100
AcDbPolyline
 90
        3
 70
     0
 43
0.0
 10
2.607497757531682
 20
6.932033983526075
 42
0.048802598267344
 10
2.607247255981902
 20
6.937747362662227
 42
0.0355033860300761
 10
2.605964708567588
 20
6.943696910872281
 42
0.0624775271329113
  0
LWPOLYLINE
  5
3A8
330
1E
100
AcDbEntity
  8
0
100
AcDbPolyline
 90
        4
 70
     0
 43
0.0
 10
2.574170628457306
 20
6.964030033037959
 42
0.1492029026860998
 10
2.569506954212653
 20
6.960203221189882
 42
0.1070815255580472
 10
2.566467809257466
 20
6.952461330581042
 42
0.0267597965324959
 10
2.566131679166509
 20
6.949338336717296
 42
0.0624775271329136
  0
LWPOLYLINE
  5
3AE
330
1E
100
AcDbEntity
  8
0
100
AcDbPolyline
 90
        9
 70
     0
 43
0.0
 10
2.567664728130588
 20
6.937675409371083
 42
0.0269144404663062
 10
2.569191645360239
 20
6.93331892990947
 42
0.062477527132918
 10
2.574459673051566
 20
6.924026181005178
 42
0.0756612043681155
 10
2.580746550518303
 20
6.917816189720271
 42
0.1070815255580553
 10
2.588358081788145
 20
6.914463897372314
 42
0.149202902686114
 10
2.594363818002004
 20
6.915034404962334
 42
0.1492029026861015
 10
2.599027492246671
 20
6.918861216810416
 42
0.1070815255580422
 10
2.602066637201858
 20
6.926603107419248
 42
0.0267597965324953
 10
2.602402767292829
 20
6.929726101282994
 42
0.0624775271329189
  0
LWPOLYLINE
  5
3B9
330
1E
100
AcDbEntity
  8
0
100
AcDbPolyline
 90
        6
 70
     0
 43
0.0
 10
2.600869718328722
 20
6.941389028629208
 42
0.0269144404662705
 10
2.599342801099085
 20
6.945745508090821
 42
0.0624775271329113
 10
2.594074773407758
 20
6.955038256995127
 42
0.0756612043681038
 10
2.587787895941021
 20
6.961248248280027
 42
0.107081525558033
 10
2.580176364671192
 20
6.964600540627991
 42
0.1492029026861064
 10
2.574170628457306
 20
6.964030033037959
 42
0.1492029026860998
  0
CIRCLE
  5
3CE
330
1E
100
AcDbEntity
  8
0
100
AcDbCircle
 10
2.247726553952217
 20
7.003239861829332
 30
0.0
 40
0.0049997144834675
  0
CIRCLE
  5
443
330
1E
100
AcDbEntity
  8
0
100
AcDbCircle
 10
2.117994715606808
 20
6.912513722268704
 30
0.0
 40
0.0339082518440229
  0
TEXT
  5
456
330
1E
100
AcDbEntity
  8
TEXT_LEADERS
100
AcDbText
 10
5.40614253
 20
7.467696779999999
 30
0.0
 40
0.125
  1
  RAIN BIRD 2045-PJ MAXI-BIRD
  7
SIMPLEX
100
AcDbText
  0
LWPOLYLINE
  5
457
330
1E
100
AcDbEntity
  8
IMAGE
100
AcDbPolyline
 90
        2
 70
     0
 43
0.0
 10
1.975803177752013
 20
2.957770392272452
 10
2.189798719391771
 20
2.957770392272452
  0
INSERT
  5
48A
330
1E
100
AcDbEntity
  8
TITLE
100
AcDbBlockReference
 66
     1
  2
titleblock
 10
0.0
 20
0.0
 30
0.0
  0
ATTRIB
  5
48B
330
48A
100
AcDbEntity
  8
TITLE
100
AcDbText
 10
0.5055556038023421
 20
0.7842270964783673
 30
0.0
 40
0.2
  1
D
  7
L200
 72
     4
 11
0.6064423705144839
 21
0.8842270964783672
 31
0.0
100
AcDbAttribute
  2
D
 70
     0
  0
ATTRIB
  5
48C
330
48A
100
AcDbEntity
  8
TITLE
100
AcDbText
 10
1.231442370514484
 20
1.34371230274675
 30
0.0
 40
0.2
  1

  7
L200
100
AcDbAttribute
  2
TITLE1
 70
     0
  0
ATTRIB
  5
48D
330
48A
100
AcDbEntity
  8
TITLE
100
AcDbText
 10
1.231442370514484
 20
0.9842270964783674
 30
0.0
 40
0.2
  1
FULL OR PART-CIRCLE IMPACT SPRINKLER
  7
L200
100
AcDbAttribute
  2
TITLE2
 70
     0
  0
ATTRIB
  5
48E
330
48A
100
AcDbEntity
  8
TITLE
100
AcDbText
 10
2.713645751168312
 20
0.5927927664583189
 30
0.0
 40
0.2
  1
2045-PJ MAXI-BIRD BELOW GRADE
  7
L200
100
AcDbAttribute
  2
TITLE3
 70
     0
  0
ATTRIB
  5
48F
330
48A
100
AcDbEntity
  8
TITLE
100
AcDbText
 10
2.713645751168312
 20
0.2692560808167741
 30
0.0
 40
0.2
  1

  7
L200
100
AcDbAttribute
  2
TITLE4
 70
     0
  0
ATTRIB
  5
490
330
48A
100
AcDbEntity
  8
TITLE
 62
     7
100
AcDbText
 10
7.613405306156856
 20
0.9696027915446398
 30
0.0
 40
0.08
  1
01-09-04
  7
L80
 72
     2
 11
8.261024353775903
 21
0.9696027915446398
 31
0.0
100
AcDbAttribute
  2
REVISED
 70
     0
  0
ATTRIB
  5
491
330
48A
100
AcDbEntity
  8
TITLE
 62
     7
100
AcDbText
 10
0.2639423705144838
 20
0.0847116480207214
 30
0.0
 40
0.08
  1
I-2045-PJ Maxi-Bird-Below Grade.dwg
  7
L80
100
AcDbAttribute
  2
DWG-NAME
 70
     0
  0
ATTRIB
  5
492
330
48A
100
AcDbEntity
  8
TITLE
 62
     7
100
AcDbText
 10
1.231442370514484
 20
0.7005637793954894
 30
0.0
 40
0.1
  1
N.T.S.
  7
L100
100
AcDbAttribute
  2
SCALE
 70
     0
  0
SEQEND
  5
493
330
48A
100
AcDbEntity
  8
IMAGE
  0
LWPOLYLINE
  5
4A7
330
1E
100
AcDbEntity
  8
INSTRUCT-CALLOUT
100
AcDbPolyline
 90
        4
 70
     1
 43
0.0
 10
11.35231280619914
 20
10.14
 10
11.35231280619914
 20
8.708513978657757
 10
16.18999999999999
 20
8.708513978657757
 10
16.18999999999999
 20
10.14
  0
TEXT
  5
4A8
330
1E
100
AcDbEntity
  8
INSTRUCT-CALLOUT
100
AcDbText
 10
11.68290522614117
 20
10.1971154907172
 30
0.0
 40
0.125
  1
CHOOSING EQUIPMENT CALLOUT METHOD
  7
ROMANS
100
AcDbText
  0
TEXT
  5
4A9
330
1E
100
AcDbEntity
  8
INSTRUCT-CALLOUT
100
AcDbText
 10
11.45015545709445
 20
9.823004427242315
 30
0.0
 40
0.125
  1
CHOOSE EITHER LEADERS OR BUBBLE CALLOUTS
  7
ROMANS
100
AcDbText
  0
TEXT
  5
4AA
330
1E
100
AcDbEntity
  8
INSTRUCT-CALLOUT
100
AcDbText
 10
11.45015545709445
 20
9.661104383755317
 30
0.0
 40
0.125
  1
BY TURNING ON THE APPROPRIATE LAYER:
  7
ROMANS
100
AcDbText
  0
TEXT
  5
4AB
330
1E
100
AcDbEntity
  8
INSTRUCT-CALLOUT
100
AcDbText
 10
11.88649918935727
 20
9.324087089280139
 30
0.0
 40
0.125
  1
TEXT_LEADERS         TEXT_BUBBLES
  7
ROMANS
100
AcDbText
  0
SOLID
  5
4AE
330
1E
100
AcDbEntity
  8
INSTRUCT-CALLOUT
100
AcDbTrace
 10
11.99123942437607
 20
8.954902459634132
 30
0.0
 11
11.96818753948433
 21
9.010297500954978
 31
0.0
 12
11.81352835796766
 22
8.913444325619353
 32
0.0
 13
11.81352835796766
 23
8.913444325619353
 33
0.0
  0
TEXT
  5
4AF
330
1E
100
AcDbEntity
  8
INSTRUCT-CALLOUT
100
AcDbText
 10
12.35586712418982
 20
9.006865226184624
 30
0.0
 40
0.125
  1
ITEM 1
  7
ROMANS
100
AcDbText
  0
SOLID
  5
4B0
330
1E
100
AcDbEntity
  8
INSTRUCT-CALLOUT
100
AcDbTrace
 10
14.13370875242549
 20
8.968328494185529
 30
0.0
 11
14.14951104607983
 21
8.9104468259713
 31
0.0
 12
13.96796489460997
 22
8.891980779115398
 32
0.0
 13
13.96796489460997
 23
8.891980779115398
 33
0.0
  0
TEXT
  5
4B2
330
1E
100
AcDbEntity
  8
INSTRUCT-CALLOUT
100
AcDbText
 10
14.39030732924294
 20
8.958597651783788
 30
0.0
 40
0.125
  1
1
  7
ROMANS
 72
     4
 11
14.44090256733818
 21
9.021097651783788
 31
0.0
100
AcDbText
  0
CIRCLE
  5
4B3
330
1E
100
AcDbEntity
  8
INSTRUCT-CALLOUT
100
AcDbCircle
 10
14.44090256733818
 20
9.021097651783788
 30
0.0
 40
0.125
  0
TEXT
  5
4B4
330
1E
100
AcDbEntity
  8
INSTRUCT-CALLOUT
100
AcDbText
 10
11.39134015341624
 20
8.357285921922345
 30
0.0
 40
0.125
  1
LAYER "INSTRUCT-CALLOUT".
  7
ROMANS
100
AcDbText
  0
TEXT
  5
4B5
330
1E
100
AcDbEntity
  8
INSTRUCT-CALLOUT
100
AcDbText
 10
11.39134015341624
 20
8.519185965410345
 30
0.0
 40
0.125
  1
TO TURN OFF THIS INSTRUCTION BOX, TURN OFF
  7
ROMANS
100
AcDbText
  0
HATCH
  5
4BC
330
1E
100
AcDbEntity
  8
IMAGE
100
AcDbHatch
 10
0.0
 20
0.0
 30
0.0
210
0.0
220
0.0
230
1.0
  2
EARTH
 70
     0
 71
     0
 91
        2
 92
        7
 72
     0
 73
     1
 93
        6
 10
1.975803177752013
 20
5.276028018114328
 10
1.057779407425089
 20
5.276028018114367
 10
1.150555021818087
 20
5.016051237603583
 10
1.366121806574952
 20
4.923316178431885
 10
1.649905963934984
 20
4.896041168426892
 10
1.975803177752013
 20
4.896041168426892
 97
        0
 92
        7
 72
     0
 73
     1
 93
        7
 10
3.208162108493101
 20
5.27797809017301
 10
2.431861204606229
 20
5.27797809017301
 10
2.43186120460623
 20
5.027060602744684
 10
2.648779900093198
 20
5.084338148909888
 10
2.815230239855714
 20
5.138888194074596
 10
3.019882241909245
 20
5.155253200077592
 10
3.167231692648268
 20
5.1988932412403
 97
        0
 75
     0
 76
     1
 52
45.0
 41
0.65
 77
     0
 78
     6
 53
45.0
 43
-0.2975537178866663
 44
-0.8504251922573393
 45
0.0
 46
0.229809703885628
 79
     2
 49
0.1625
 49
-0.1625
 53
45.0
 43
-0.3406430373652216
 44
-0.8073358727787841
 45
0.0
 46
0.229809703885628
 79
     2
 49
0.1625
 49
-0.1625
 53
45.0
 43
-0.3837323568437769
 44
-0.7642465533002288
 45
0.0
 46
0.229809703885628
 79
     2
 49
0.1625
 49
-0.1625
 53
135.0
 43
-0.3837323568437769
 44
-0.7355203403145252
 45
-0.2298097038856279
 46
0.0
 79
     2
 49
0.1625
 49
-0.1625
 53
135.0
 43
-0.3406430373652216
 44
-0.6924310208359703
 45
-0.2298097038856279
 46
0.0
 79
     2
 49
0.1625
 49
-0.1625
 53
135.0
 43
-0.2975537178866663
 44
-0.649341701357415
 45
-0.2298097038856279
 46
0.0
 79
     2
 49
0.1625
 49
-0.1625
 47
0.002727501947352
 98
        2
 10
1.655535407211085
 20
5.16343570307909
 10
2.659694682796535
 20
5.226168251245294
  0
LWPOLYLINE
  5
4BE
330
1E
100
AcDbEntity
  8
INSTRUCT-CALLOUT
100
AcDbPolyline
 90
        2
 70
   128
 43
0.0
 10
14.06443434163369
 20
8.918317935205964
 10
14.32031575855853
 20
8.988176206670582
  0
LWPOLYLINE
  5
4BF
330
1E
100
AcDbEntity
  8
INSTRUCT-CALLOUT
100
AcDbPolyline
 90
        2
 70
   128
 43
0.0
 10
11.90585342683574
 20
8.951864133772241
 10
12.19362384131406
 20
9.071615835578525
  0
LWPOLYLINE
  5
4C0
330
1E
100
AcDbEntity
  8
INSTRUCT-CALLOUT
100
AcDbPolyline
 90
        2
 70
   128
 43
0.0
 10
12.19362384131406
 20
9.071615835578525
 10
12.32989238717269
 20
9.071615835578525
  0
LWPOLYLINE
  5
4C1
330
1E
100
AcDbEntity
  8
0
100
AcDbPolyline
 90
        2
 70
   128
 43
0.0
 10
2.244032645453961
 20
6.535838129258973
 10
2.408096524467962
 20
6.535850283388851
  0
LWPOLYLINE
  5
4C2
330
1E
100
AcDbEntity
  8
0
100
AcDbPolyline
 90
        2
 70
   128
 43
0.0
 10
2.428604505292918
 20
6.551681190930883
 10
2.428604505292918
 20
6.519995067587062
  0
LWPOLYLINE
  5
4C3
330
1E
100
AcDbEntity
  8
0
100
AcDbPolyline
 90
        2
 70
   128
 43
0.0
 10
2.22352466102741
 20
6.551681190930883
 10
2.22352466102741
 20
6.519995067587062
  0
LWPOLYLINE
  5
4C4
330
1E
100
AcDbEntity
  8
0
100
AcDbPolyline
 90
        2
 70
   128
 43
0.0
 10
2.257618184212534
 20
6.967953225764015
 10
2.257618184212534
 20
6.945899078223185
  0
LWPOLYLINE
  5
4C5
330
1E
100
AcDbEntity
  8
0
100
AcDbPolyline
 90
        2
 70
   128
 43
0.0
 10
2.317442844102655
 20
7.194008238057501
 10
2.310550922996144
 20
7.18849470117229
  0
LWPOLYLINE
  5
4C6
330
1E
100
AcDbEntity
  8
0
100
AcDbPolyline
 90
        2
 70
   128
 43
0.0
 10
2.338118607422178
 20
7.18849470117229
 10
2.331226686315679
 20
7.194008238057501
  0
LWPOLYLINE
  5
4C7
330
1E
100
AcDbEntity
  8
0
100
AcDbPolyline
 90
        2
 70
   128
 43
0.0
 10
2.317442844102655
 20
7.194008238057501
 10
2.331226686315679
 20
7.194008238057501
  0
LWPOLYLINE
  5
4C8
330
1E
100
AcDbEntity
  8
0
100
AcDbPolyline
 90
        2
 70
   128
 43
0.0
 10
2.310550922996144
 20
7.18849470117229
 10
2.338118607422178
 20
7.18849470117229
  0
LWPOLYLINE
  5
4C9
330
1E
100
AcDbEntity
  8
0
100
AcDbPolyline
 90
        2
 70
   128
 43
0.0
 10
2.310550922996144
 20
7.177467627401881
 10
2.310550922996144
 20
7.18849470117229
  0
LWPOLYLINE
  5
4CA
330
1E
100
AcDbEntity
  8
0
100
AcDbPolyline
 90
        2
 70
   128
 43
0.0
 10
2.338118607422178
 20
7.177467627401881
 10
2.338118607422178
 20
7.18849470117229
  0
LWPOLYLINE
  5
4CB
330
1E
100
AcDbEntity
  8
0
100
AcDbPolyline
 90
        2
 70
   128
 43
0.0
 10
2.139188569886112
 20
6.870839380283801
 42
0.1809044711570091
 10
2.155157578041714
 20
6.894551675045207
  0
LWPOLYLINE
  5
4CC
330
1E
100
AcDbEntity
  8
0
100
AcDbPolyline
 90
        2
 70
   128
 43
0.0
 10
2.135361294104615
 20
6.87197702515079
 42
0.2188941821879481
 10
2.156416733010845
 20
6.898787736278734
  0
LWPOLYLINE
  5
4CD
330
1E
100
AcDbEntity
  8
0
100
AcDbPolyline
 90
        2
 70
   128
 43
0.0
 10
2.077054388264491
 20
6.917767585791626
 42
0.6465217193162165
 10
2.130678040832353
 20
6.866179159294745
  0
LWPOLYLINE
  5
4CE
330
1E
100
AcDbEntity
  8
0
100
AcDbPolyline
 90
        2
 70
   128
 43
0.0
 10
2.078313543233621
 20
6.922003647025153
 42
0.5774587573490131
 10
2.124072579088316
 20
6.868142610604817
  0
LWPOLYLINE
  5
4CF
330
1E
100
AcDbEntity
  8
0
100
AcDbPolyline
 90
        2
 70
   128
 43
0.0
 10
2.148961078711444
 20
6.898698734060596
 42
0.8771520937080875
 10
2.084510042563903
 20
6.917856588009756
  0
LWPOLYLINE
  5
4D0
330
1E
100
AcDbEntity
  8
0
100
AcDbPolyline
 90
        2
 70
   128
 43
0.0
 10
2.149798796198427
 20
6.900754895760962
 42
0.9368265273875199
 10
2.084931480046039
 20
6.920036487542925
  0
LWPOLYLINE
  5
4D1
330
1E
100
AcDbEntity
  8
0
100
AcDbPolyline
 90
        2
 70
   128
 43
0.0
 10
2.106369699660334
 20
6.873404732035796
 10
2.158928658652953
 20
6.857781758065364
  0
LWPOLYLINE
  5
4D2
330
1E
100
AcDbEntity
  8
0
100
AcDbPolyline
 90
        2
 70
   128
 43
0.0
 10
2.108333384786426
 20
6.880010980385941
 10
2.158928658652953
 20
6.864971705221556
  0
LWPOLYLINE
  5
4D3
330
1E
100
AcDbEntity
  8
0
100
AcDbPolyline
 90
        2
 70
   128
 43
0.0
 10
2.130083899427263
 20
6.87354571298739
 42
6.733345633447876
 10
2.106369699660346
 20
6.873404732035795
  0
LWPOLYLINE
  5
4D4
330
1E
100
AcDbEntity
  8
0
100
AcDbPolyline
 90
        2
 70
   128
 43
0.0
 10
2.210618066951764
 20
6.650235662753962
 10
2.210618066951764
 20
6.639897781094195
  0
LWPOLYLINE
  5
4D5
330
1E
100
AcDbEntity
  8
0
100
AcDbPolyline
 90
        2
 70
   128
 43
0.0
 10
2.210618066951764
 20
6.684695268286501
 10
2.210618066951764
 20
6.664019504966979
  0
LWPOLYLINE
  5
4D6
330
1E
100
AcDbEntity
  8
0
100
AcDbPolyline
 90
        2
 70
   128
 43
0.0
 10
2.163753003427503
 20
6.664019504966979
 10
2.163753003427503
 20
6.788763279247035
  0
LWPOLYLINE
  5
4D7
330
1E
100
AcDbEntity
  8
0
100
AcDbPolyline
 90
        2
 70
   128
 43
0.0
 10
2.177536845640527
 20
6.664019504966979
 10
2.177536845640527
 20
6.788763279517409
  0
LWPOLYLINE
  5
4D8
330
1E
100
AcDbEntity
  8
0
100
AcDbPolyline
 90
        2
 70
   128
 43
0.0
 10
2.215119712187307
 20
6.650235662753959
 42
0.9999999999999714
 10
2.215119712187307
 20
6.664019504966977
  0
LWPOLYLINE
  5
4D9
330
1E
100
AcDbEntity
  8
0
100
AcDbPolyline
 90
        2
 70
   128
 43
0.0
 10
2.155482698099698
 20
6.664019504966979
 10
2.155482698099698
 20
6.650235662753962
  0
LWPOLYLINE
  5
4DA
330
1E
100
AcDbEntity
  8
0
100
AcDbPolyline
 90
        2
 70
   128
 43
0.0
 10
2.280937107967579
 20
6.650235662753959
 42
0.9999999999999714
 10
2.280937107967579
 20
6.664019504966977
  0
LWPOLYLINE
  5
4DB
330
1E
100
AcDbEntity
  8
0
100
AcDbPolyline
 90
        2
 70
   128
 43
0.0
 10
2.239585581328523
 20
6.664019504966977
 42
0.9999999999999715
 10
2.239585581328523
 20
6.650235662753959
  0
LWPOLYLINE
  5
4DC
330
1E
100
AcDbEntity
  8
0
100
AcDbPolyline
 90
        2
 70
   128
 43
0.0
 10
2.163753003427503
 20
6.684695268286501
 10
2.107239250354142
 20
6.684695268286501
  0
LWPOLYLINE
  5
4DD
330
1E
100
AcDbEntity
  8
0
100
AcDbPolyline
 90
        2
 70
   128
 43
0.0
 10
2.163753003427503
 20
6.698479110499524
 10
2.107239250354142
 20
6.698479110499524
  0
LWPOLYLINE
  5
4DE
330
1E
100
AcDbEntity
  8
0
100
AcDbPolyline
 90
        2
 70
   128
 43
0.0
 10
2.107239250354142
 20
6.664019504966977
 42
0.9999999999999715
 10
2.107239250354142
 20
6.650235662753959
  0
LWPOLYLINE
  5
4DF
330
1E
100
AcDbEntity
  8
0
100
AcDbPolyline
 90
        2
 70
   128
 43
0.0
 10
2.107239250354142
 20
6.698479110499522
 42
0.9999999999999715
 10
2.107239250354142
 20
6.684695268286504
  0
LWPOLYLINE
  5
4E0
330
1E
100
AcDbEntity
  8
0
100
AcDbPolyline
 90
        2
 70
   128
 43
0.0
 10
2.438051463466557
 20
6.650235662753962
 10
2.438051463466557
 20
6.639897781094195
  0
LWPOLYLINE
  5
4E1
330
1E
100
AcDbEntity
  8
0
100
AcDbPolyline
 90
        2
 70
   128
 43
0.0
 10
2.438051463466557
 20
6.684695268286501
 10
2.438051463466557
 20
6.664019504966979
  0
LWPOLYLINE
  5
4E2
330
1E
100
AcDbEntity
  8
0
100
AcDbPolyline
 90
        2
 70
   128
 43
0.0
 10
2.438051463466557
 20
6.684695268286501
 10
2.177536845640527
 20
6.684695268286501
  0
LWPOLYLINE
  5
4E3
330
1E
100
AcDbEntity
  8
0
100
AcDbPolyline
 90
        2
 70
   128
 43
0.0
 10
2.438051463466557
 20
6.698479110499524
 10
2.177536845640527
 20
6.698479110499524
  0
LWPOLYLINE
  5
4E4
330
1E
100
AcDbEntity
  8
0
100
AcDbPolyline
 90
        2
 70
   128
 43
0.0
 10
2.438051463466557
 20
6.684695268286504
 42
0.9999999999999998
 10
2.438051463466557
 20
6.698479110499522
  0
LWPOLYLINE
  5
4E5
330
1E
100
AcDbEntity
  8
0
100
AcDbPolyline
 90
        2
 70
   128
 43
0.0
 10
2.438051463466557
 20
6.650235662753959
 42
0.9999999999999998
 10
2.438051463466557
 20
6.664019504966977
  0
LWPOLYLINE
  5
4E6
330
1E
100
AcDbEntity
  8
0
100
AcDbPolyline
 90
        2
 70
   128
 43
0.0
 10
2.438051463466557
 20
6.650235662753962
 10
2.107239250354142
 20
6.650235662753962
  0
LWPOLYLINE
  5
4E7
330
1E
100
AcDbEntity
  8
0
100
AcDbPolyline
 90
        2
 70
   128
 43
0.0
 10
2.438051463466557
 20
6.664019504966979
 10
2.107239250354142
 20
6.664019504966979
  0
LWPOLYLINE
  5
4E8
330
1E
100
AcDbEntity
  8
0
100
AcDbPolyline
 90
        2
 70
   128
 43
0.0
 10
2.149969161214493
 20
6.781871355888279
 10
2.163753003427503
 20
6.781871355888279
  0
LWPOLYLINE
  5
4E9
330
1E
100
AcDbEntity
  8
0
100
AcDbPolyline
 90
        2
 70
   128
 43
0.0
 10
2.149969161214493
 20
6.795655198101295
 10
2.17064492678626
 20
6.795655198101295
  0
LWPOLYLINE
  5
4EA
330
1E
100
AcDbEntity
  8
0
100
AcDbPolyline
 90
        2
 70
   128
 43
0.0
 10
2.163753003427503
 20
6.76119559256875
 10
2.149969161214493
 20
6.76119559256875
  0
LWPOLYLINE
  5
4EB
330
1E
100
AcDbEntity
  8
0
100
AcDbPolyline
 90
        2
 70
   128
 43
0.0
 10
2.177536845640523
 20
6.788763274742546
 42
0.9999999999999998
 10
2.163753003427506
 20
6.788763279247035
  0
LWPOLYLINE
  5
4EC
330
1E
100
AcDbEntity
  8
0
100
AcDbPolyline
 90
        2
 70
   128
 43
0.0
 10
2.163753003427506
 20
6.604059793592593
 42
0.9999999999999998
 10
2.177536845640523
 20
6.604059789088104
  0
LWPOLYLINE
  5
4ED
330
1E
100
AcDbEntity
  8
0
100
AcDbPolyline
 90
        2
 70
   128
 43
0.0
 10
2.177536845640527
 20
6.604059793862967
 10
2.177536845640527
 20
6.650235662753962
  0
LWPOLYLINE
  5
4EE
330
1E
100
AcDbEntity
  8
0
100
AcDbPolyline
 90
        2
 70
   128
 43
0.0
 10
2.163753003427503
 20
6.6040597935926
 10
2.163753003427503
 20
6.650235662753962
  0
LWPOLYLINE
  5
4EF
330
1E
100
AcDbEntity
  8
0
100
AcDbPolyline
 90
        2
 70
   128
 43
0.0
 10
2.184428766747038
 20
6.78876327699479
 10
2.184428766747038
 20
6.774979434781768
  0
LWPOLYLINE
  5
4F0
330
1E
100
AcDbEntity
  8
0
100
AcDbPolyline
 90
        2
 70
   128
 43
0.0
 10
2.184428766747032
 20
6.78876327699479
 42
0.4142135623730951
 10
2.170644924534014
 20
6.802547119207808
  0
LWPOLYLINE
  5
4F1
330
1E
100
AcDbEntity
  8
0
100
AcDbPolyline
 90
        2
 70
   128
 43
0.0
 10
2.20510453006656
 20
6.774979434781768
 10
2.177536845640527
 20
6.774979434781768
  0
LWPOLYLINE
  5
4F2
330
1E
100
AcDbEntity
  8
0
100
AcDbPolyline
 90
        2
 70
   128
 43
0.0
 10
2.149969161214493
 20
6.816330961420817
 10
2.158928658652953
 20
6.816330961420817
  0
LWPOLYLINE
  5
4F3
330
1E
100
AcDbEntity
  8
0
100
AcDbPolyline
 90
        2
 70
   128
 43
0.0
 10
2.149969161214493
 20
6.76119559256875
 10
2.149969161214493
 20
6.816330961420817
  0
LWPOLYLINE
  5
4F4
330
1E
100
AcDbEntity
  8
0
100
AcDbPolyline
 90
        2
 70
   128
 43
0.0
 10
2.20510453006656
 20
6.76119559256875
 10
2.177536845640527
 20
6.76119559256875
  0
LWPOLYLINE
  5
4F5
330
1E
100
AcDbEntity
  8
0
100
AcDbPolyline
 90
        2
 70
   128
 43
0.0
 10
2.20510453006656
 20
6.802547119207806
 10
2.20510453006656
 20
6.76119559256875
  0
LWPOLYLINE
  5
4F6
330
1E
100
AcDbEntity
  8
0
100
AcDbPolyline
 90
        2
 70
   128
 43
0.0
 10
2.307560246582849
 20
6.865952793387684
 42
0.1891491962322038
 10
2.293321120229868
 20
6.880191919740664
  0
LWPOLYLINE
  5
4F7
330
1E
100
AcDbEntity
  8
0
100
AcDbPolyline
 90
        2
 70
   128
 43
0.0
 10
2.293321120229879
 20
6.843898645846858
 10
2.307560246582848
 20
6.843898645846858
  0
LWPOLYLINE
  5
4F8
330
1E
100
AcDbEntity
  8
0
100
AcDbPolyline
 90
        2
 70
   128
 43
0.0
 10
2.293321120229879
 20
6.86595279338768
 10
2.307560246582848
 20
6.86595279338768
  0
LWPOLYLINE
  5
4F9
330
1E
100
AcDbEntity
  8
0
100
AcDbPolyline
 90
        2
 70
   128
 43
0.0
 10
2.293321120229868
 20
6.829659519493879
 42
0.1891491962322037
 10
2.307560246582849
 20
6.843898645846859
  0
LWPOLYLINE
  5
4FA
330
1E
100
AcDbEntity
  8
0
100
AcDbPolyline
 90
        2
 70
   128
 43
0.0
 10
2.158928658652953
 20
6.884073080986579
 10
2.20510453006656
 20
6.884073080986579
  0
LWPOLYLINE
  5
4FB
330
1E
100
AcDbEntity
  8
0
100
AcDbPolyline
 90
        2
 70
   128
 43
0.0
 10
2.158928658652953
 20
6.876979867158102
 10
2.20510453006656
 20
6.876979867158102
  0
LWPOLYLINE
  5
4FC
330
1E
100
AcDbEntity
  8
0
100
AcDbPolyline
 90
        2
 70
   128
 43
0.0
 10
2.158928658652953
 20
6.832871572076436
 10
2.20510453006656
 20
6.832871572076436
  0
LWPOLYLINE
  5
4FD
330
1E
100
AcDbEntity
  8
0
100
AcDbPolyline
 90
        2
 70
   128
 43
0.0
 10
2.17284086384611
 20
6.982985345694688
 10
2.17284086384611
 20
6.967953225764015
  0
LWPOLYLINE
  5
4FE
330
1E
100
AcDbEntity
  8
0
100
AcDbPolyline
 90
        2
 70
   128
 43
0.0
 10
2.062570126141963
 20
6.982985345694688
 10
2.062570126141963
 20
6.967953225764015
  0
LWPOLYLINE
  5
4FF
330
1E
100
AcDbEntity
  8
0
100
AcDbPolyline
 90
        2
 70
   128
 43
0.0
 10
2.062570126141963
 20
6.982985345694688
 10
2.17284086384611
 20
6.982985345694688
  0
LWPOLYLINE
  5
500
330
1E
100
AcDbEntity
  8
0
100
AcDbPolyline
 90
        2
 70
   128
 43
0.0
 10
2.305501813384887
 20
7.003239861829332
 10
2.324334765209168
 20
7.003239861829332
  0
LWPOLYLINE
  5
501
330
1E
100
AcDbEntity
  8
0
100
AcDbPolyline
 90
        2
 70
   128
 43
0.0
 10
2.304817669615809
 20
7.016472350353835
 10
2.324334765209168
 20
7.016472350353835
  0
LWPOLYLINE
  5
502
330
1E
100
AcDbEntity
  8
0
100
AcDbPolyline
 90
        2
 70
   128
 43
0.0
 10
2.301115826489162
 20
7.023088594616082
 10
2.308348292927687
 20
7.023088594616082
  0
LWPOLYLINE
  5
503
330
1E
100
AcDbEntity
  8
0
100
AcDbPolyline
 90
        2
 70
   128
 43
0.0
 10
2.284035293588065
 20
7.002652343523633
 10
2.284035293588065
 20
6.995760422417136
  0
LWPOLYLINE
  5
504
330
1E
100
AcDbEntity
  8
0
100
AcDbPolyline
 90
        2
 70
   128
 43
0.0
 10
2.295566970400281
 20
7.002652343523642
 42
0.4142135623730951
 10
2.299012930953536
 20
7.006098304076896
  0
LWPOLYLINE
  5
505
330
1E
100
AcDbEntity
  8
0
100
AcDbPolyline
 90
        2
 70
   128
 43
0.0
 10
2.295566970400281
 20
6.995760422417133
 42
0.4142135623730951
 10
2.305904852060045
 20
7.006098304076896
  0
LWPOLYLINE
  5
506
330
1E
100
AcDbEntity
  8
0
100
AcDbPolyline
 90
        2
 70
   128
 43
0.0
 10
2.295566970400282
 20
7.002652343523633
 10
2.284035293588065
 20
7.002652343523633
  0
LWPOLYLINE
  5
507
330
1E
100
AcDbEntity
  8
0
100
AcDbPolyline
 90
        2
 70
   128
 43
0.0
 10
2.295566970400282
 20
6.995760422417136
 10
2.284035293588065
 20
6.995760422417136
  0
LWPOLYLINE
  5
508
330
1E
100
AcDbEntity
  8
0
100
AcDbPolyline
 90
        2
 70
   128
 43
0.0
 10
2.299012930953538
 20
7.00985610609158
 10
2.299012930953538
 20
7.006098304076896
  0
LWPOLYLINE
  5
509
330
1E
100
AcDbEntity
  8
0
100
AcDbPolyline
 90
        2
 70
   128
 43
0.0
 10
2.305904852060064
 20
7.00985610609158
 10
2.305904852060064
 20
7.006098304076896
  0
LWPOLYLINE
  5
50A
330
1E
100
AcDbEntity
  8
0
100
AcDbPolyline
 90
        2
 70
   128
 43
0.0
 10
2.290511765899335
 20
7.029845616112622
 10
2.297321219157265
 20
7.030403502768876
  0
LWPOLYLINE
  5
50B
330
1E
100
AcDbEntity
  8
0
100
AcDbPolyline
 90
        2
 70
   128
 43
0.0
 10
2.255966907832592
 20
7.026546842541398
 10
2.255966907832592
 20
7.026153607004358
  0
LWPOLYLINE
  5
50C
330
1E
100
AcDbEntity
  8
0
100
AcDbPolyline
 90
        2
 70
   128
 43
0.0
 10
2.305904852060054
 20
7.00985610609158
 42
0.3861318475932249
 10
2.287227779929051
 20
7.030435037608498
  0
LWPOLYLINE
  5
50D
330
1E
100
AcDbEntity
  8
0
100
AcDbPolyline
 90
        2
 70
   128
 43
0.0
 10
2.287227779929049
 20
7.030435037608505
 10
2.253709416008383
 20
7.033690447568288
  0
LWPOLYLINE
  5
50E
330
1E
100
AcDbEntity
  8
0
100
AcDbPolyline
 90
        2
 70
   128
 43
0.0
 10
2.28656154953287
 20
7.023575393769531
 10
2.253043185612218
 20
7.026830803729314
  0
LWPOLYLINE
  5
50F
330
1E
100
AcDbEntity
  8
0
100
AcDbPolyline
 90
        2
 70
   128
 43
0.0
 10
2.253709416008394
 20
7.033690447568286
 42
1.000000000000002
 10
2.25304318561222
 20
7.026830803729314
  0
LWPOLYLINE
  5
510
330
1E
100
AcDbEntity
  8
0
100
AcDbPolyline
 90
        2
 70
   128
 43
0.0
 10
2.299012930953546
 20
7.00985610609158
 42
0.3861318475932237
 10
2.286561549532877
 20
7.023575393769526
  0
LWPOLYLINE
  5
511
330
1E
100
AcDbEntity
  8
0
100
AcDbPolyline
 90
        2
 70
   128
 43
0.0
 10
2.262858828939104
 20
7.034494966262302
 10
2.297321219157265
 20
7.037318409924674
  0
LWPOLYLINE
  5
512
330
1E
100
AcDbEntity
  8
0
100
AcDbPolyline
 90
        2
 70
   128
 43
0.0
 10
2.351348311261056
 20
7.040836427776657
 10
2.351348311261056
 20
7.002265683221814
  0
LWPOLYLINE
  5
513
330
1E
100
AcDbEntity
  8
0
100
AcDbPolyline
 90
        2
 70
   128
 43
0.0
 10
2.297321219157265
 20
7.045563185859027
 10
2.297321219157265
 20
7.026627139775571
  0
LWPOLYLINE
  5
514
330
1E
100
AcDbEntity
  8
0
100
AcDbPolyline
 90
        2
 70
   128
 43
0.0
 10
2.269199396357087
 20
7.076806179986274
 10
2.269199396357087
 20
7.091752339169831
  0
LWPOLYLINE
  5
515
330
1E
100
AcDbEntity
  8
0
100
AcDbPolyline
 90
        2
 70
   128
 43
0.0
 10
2.269199396357087
 20
7.09867058629533
 10
2.269199396357087
 20
7.11361674547888
  0
LWPOLYLINE
  5
516
330
1E
100
AcDbEntity
  8
0
100
AcDbPolyline
 90
        2
 70
   128
 43
0.0
 10
2.269199396357087
 20
7.120534992604392
 10
2.269199396357087
 20
7.135481151787944
  0
LWPOLYLINE
  5
517
330
1E
100
AcDbEntity
  8
0
100
AcDbPolyline
 90
        2
 70
   128
 43
0.0
 10
2.379470134061221
 20
7.089023146827576
 10
2.379470134061221
 20
7.103969306011125
  0
LWPOLYLINE
  5
518
330
1E
100
AcDbEntity
  8
0
100
AcDbPolyline
 90
        2
 70
   128
 43
0.0
 10
2.379470134061221
 20
7.110887553136631
 10
2.379470134061221
 20
7.125833712320181
  0
LWPOLYLINE
  5
519
330
1E
100
AcDbEntity
  8
0
100
AcDbPolyline
 90
        2
 70
   128
 43
0.0
 10
2.379470134061221
 20
7.132751959445688
 10
2.379470134061221
 20
7.147944881794108
  0
LWPOLYLINE
  5
51A
330
1E
100
AcDbEntity
  8
0
100
AcDbPolyline
 90
        2
 70
   128
 43
0.0
 10
2.353238590944112
 20
7.034984715737229
 10
2.387112928502829
 20
7.037759981268495
  0
LWPOLYLINE
  5
51B
330
1E
100
AcDbEntity
  8
0
100
AcDbPolyline
 90
        2
 70
   128
 43
0.0
 10
2.387112928502836
 20
7.037759981268495
 42
0.9999999999999998
 10
2.386512255756166
 20
7.044625676338169
  0
LWPOLYLINE
  5
51C
330
1E
100
AcDbEntity
  8
0
100
AcDbPolyline
 90
        2
 70
   128
 43
0.0
 10
2.25307596681531
 20
7.033693473391716
 10
2.255966907832592
 20
7.033930323158717
  0
LWPOLYLINE
  5
51D
330
1E
100
AcDbEntity
  8
0
100
AcDbPolyline
 90
        2
 70
   128
 43
0.0
 10
2.299958160459587
 20
7.06719688969774
 10
2.269199396357087
 20
7.06719688969774
  0
LWPOLYLINE
  5
51E
330
1E
100
AcDbEntity
  8
0
100
AcDbPolyline
 90
        2
 70
   128
 43
0.0
 10
2.332605070536973
 20
7.160626538116437
 10
2.332605070536973
 20
7.16644055363146
  0
LWPOLYLINE
  5
51F
330
1E
100
AcDbEntity
  8
0
100
AcDbPolyline
 90
        2
 70
   128
 43
0.0
 10
2.269199396357087
 20
7.142399398913434
 10
2.269199396357087
 20
7.14989994297584
  0
LWPOLYLINE
  5
520
330
1E
100
AcDbEntity
  8
0
100
AcDbPolyline
 90
        2
 70
   128
 43
0.0
 10
2.324635101582502
 20
7.16160309583849
 42
0.9999999999999998
 10
2.324034428835832
 20
7.154737400768816
  0
LWPOLYLINE
  5
521
330
1E
100
AcDbEntity
  8
0
100
AcDbPolyline
 90
        2
 70
   128
 43
0.0
 10
2.386512255756166
 20
7.147082012813761
 42
0.9999999999999998
 10
2.387112928502836
 20
7.153947707883435
  0
LWPOLYLINE
  5
522
330
1E
100
AcDbEntity
  8
0
100
AcDbPolyline
 90
        2
 70
   128
 43
0.0
 10
2.324034431214184
 20
7.154737400560732
 10
2.386512258134503
 20
7.147082012605682
  0
LWPOLYLINE
  5
523
330
1E
100
AcDbEntity
  8
0
100
AcDbPolyline
 90
        2
 70
   128
 43
0.0
 10
2.32463510158251
 20
7.161603095838492
 10
2.387112928502829
 20
7.153947707883443
  0
LWPOLYLINE
  5
524
330
1E
100
AcDbEntity
  8
0
100
AcDbPolyline
 90
        2
 70
   128
 43
0.0
 10
2.26215727466217
 20
7.143015504728904
 42
0.9999999999999998
 10
2.261556601915499
 20
7.136149809659229
  0
LWPOLYLINE
  5
525
330
1E
100
AcDbEntity
  8
0
100
AcDbPolyline
 90
        2
 70
   128
 43
0.0
 10
2.386512255756166
 20
7.125217606504712
 42
0.9999999999999998
 10
2.387112928502836
 20
7.132083301574386
  0
LWPOLYLINE
  5
526
330
1E
100
AcDbEntity
  8
0
100
AcDbPolyline
 90
        2
 70
   128
 43
0.0
 10
2.261556604293837
 20
7.136149809451158
 10
2.386512258134503
 20
7.125217606296628
  0
LWPOLYLINE
  5
527
330
1E
100
AcDbEntity
  8
0
100
AcDbPolyline
 90
        2
 70
   128
 43
0.0
 10
2.262157274662163
 20
7.14301550472892
 10
2.387112928502829
 20
7.132083301574388
  0
LWPOLYLINE
  5
528
330
1E
100
AcDbEntity
  8
0
100
AcDbPolyline
 90
        2
 70
   128
 43
0.0
 10
2.379470134061221
 20
7.146413354942469
 10
2.387112928502829
 20
7.147082012813768
  0
LWPOLYLINE
  5
529
330
1E
100
AcDbEntity
  8
0
100
AcDbPolyline
 90
        2
 70
   128
 43
0.0
 10
2.261556604293837
 20
7.143015504936991
 10
2.269199396357087
 20
7.143684162600205
  0
LWPOLYLINE
  5
52A
330
1E
100
AcDbEntity
  8
0
100
AcDbPolyline
 90
        2
 70
   128
 43
0.0
 10
2.387112928502836
 20
7.147082012813761
 42
0.9999999999999998
 10
2.386512255756166
 20
7.153947707883435
  0
LWPOLYLINE
  5
52B
330
1E
100
AcDbEntity
  8
0
100
AcDbPolyline
 90
        2
 70
   128
 43
0.0
 10
2.26215727466217
 20
7.121151098419854
 42
0.9999999999999998
 10
2.261556601915499
 20
7.11428540335018
  0
LWPOLYLINE
  5
52C
330
1E
100
AcDbEntity
  8
0
100
AcDbPolyline
 90
        2
 70
   128
 43
0.0
 10
2.386512255756166
 20
7.103353200195655
 42
0.9999999999999998
 10
2.387112928502836
 20
7.11021889526533
  0
LWPOLYLINE
  5
52D
330
1E
100
AcDbEntity
  8
0
100
AcDbPolyline
 90
        2
 70
   128
 43
0.0
 10
2.261556604293837
 20
7.114285403142108
 10
2.386512258134503
 20
7.103353199987578
  0
LWPOLYLINE
  5
52E
330
1E
100
AcDbEntity
  8
0
100
AcDbPolyline
 90
        2
 70
   128
 43
0.0
 10
2.262157274662163
 20
7.121151098419856
 10
2.387112928502829
 20
7.110218895265331
  0
LWPOLYLINE
  5
52F
330
1E
100
AcDbEntity
  8
0
100
AcDbPolyline
 90
        2
 70
   128
 43
0.0
 10
2.379470134061221
 20
7.124548948633412
 10
2.387112928502829
 20
7.125217606504705
  0
LWPOLYLINE
  5
530
330
1E
100
AcDbEntity
  8
0
100
AcDbPolyline
 90
        2
 70
   128
 43
0.0
 10
2.261556604293837
 20
7.121151098627935
 10
2.269199396357087
 20
7.121819756291156
  0
LWPOLYLINE
  5
531
330
1E
100
AcDbEntity
  8
0
100
AcDbPolyline
 90
        2
 70
   128
 43
0.0
 10
2.387112928502836
 20
7.125217606504712
 42
0.9999999999999998
 10
2.386512255756166
 20
7.132083301574386
  0
LWPOLYLINE
  5
532
330
1E
100
AcDbEntity
  8
0
100
AcDbPolyline
 90
        2
 70
   128
 43
0.0
 10
2.26215727466217
 20
7.099286692110807
 42
0.9999999999999998
 10
2.261556601915499
 20
7.092420997041132
  0
LWPOLYLINE
  5
533
330
1E
100
AcDbEntity
  8
0
100
AcDbPolyline
 90
        2
 70
   128
 43
0.0
 10
2.386512255756166
 20
7.081488793886601
 42
0.9999999999999998
 10
2.387112928502836
 20
7.088354488956275
  0
LWPOLYLINE
  5
534
330
1E
100
AcDbEntity
  8
0
100
AcDbPolyline
 90
        2
 70
   128
 43
0.0
 10
2.261556604293837
 20
7.092420996833054
 10
2.386512258134503
 20
7.081488793678529
  0
LWPOLYLINE
  5
535
330
1E
100
AcDbEntity
  8
0
100
AcDbPolyline
 90
        2
 70
   128
 43
0.0
 10
2.262157274662163
 20
7.099286692110799
 10
2.387112928502829
 20
7.088354488956268
  0
LWPOLYLINE
  5
536
330
1E
100
AcDbEntity
  8
0
100
AcDbPolyline
 90
        2
 70
   128
 43
0.0
 10
2.379470134061221
 20
7.102684542324356
 10
2.387112928502829
 20
7.103353200195657
  0
LWPOLYLINE
  5
537
330
1E
100
AcDbEntity
  8
0
100
AcDbPolyline
 90
        2
 70
   128
 43
0.0
 10
2.261556604293837
 20
7.099286692318878
 10
2.269199396357087
 20
7.099955349982106
  0
LWPOLYLINE
  5
538
330
1E
100
AcDbEntity
  8
0
100
AcDbPolyline
 90
        2
 70
   128
 43
0.0
 10
2.387112928502836
 20
7.103353200195655
 42
0.9999999999999998
 10
2.386512255756166
 20
7.11021889526533
  0
LWPOLYLINE
  5
539
330
1E
100
AcDbEntity
  8
0
100
AcDbPolyline
 90
        2
 70
   128
 43
0.0
 10
2.26215727466217
 20
7.077422285801743
 42
0.9999999999999998
 10
2.261556601915499
 20
7.070556590732069
  0
LWPOLYLINE
  5
53A
330
1E
100
AcDbEntity
  8
0
100
AcDbPolyline
 90
        2
 70
   128
 43
0.0
 10
2.386512255756166
 20
7.059624387577551
 42
0.9999999999999998
 10
2.387112928502836
 20
7.066490082647225
  0
LWPOLYLINE
  5
53B
330
1E
100
AcDbEntity
  8
0
100
AcDbPolyline
 90
        2
 70
   128
 43
0.0
 10
2.261556604293837
 20
7.070556590523997
 10
2.386512258134503
 20
7.059624387369465
  0
LWPOLYLINE
  5
53C
330
1E
100
AcDbEntity
  8
0
100
AcDbPolyline
 90
        2
 70
   128
 43
0.0
 10
2.262157274662163
 20
7.07742228580175
 10
2.387112928502829
 20
7.066490082647218
  0
LWPOLYLINE
  5
53D
330
1E
100
AcDbEntity
  8
0
100
AcDbPolyline
 90
        2
 70
   128
 43
0.0
 10
2.379470134061221
 20
7.080820136015299
 10
2.387112928502829
 20
7.081488793886601
  0
LWPOLYLINE
  5
53E
330
1E
100
AcDbEntity
  8
0
100
AcDbPolyline
 90
        2
 70
   128
 43
0.0
 10
2.261556604293837
 20
7.077422286009829
 10
2.269199396357087
 20
7.078090943673045
  0
LWPOLYLINE
  5
53F
330
1E
100
AcDbEntity
  8
0
100
AcDbPolyline
 90
        2
 70
   128
 43
0.0
 10
2.387112928502836
 20
7.081488793886601
 42
0.9999999999999998
 10
2.386512255756166
 20
7.088354488956275
  0
LWPOLYLINE
  5
540
330
1E
100
AcDbEntity
  8
0
100
AcDbPolyline
 90
        2
 70
   128
 43
0.0
 10
2.387112928502836
 20
7.059624387577551
 42
0.9999999999999998
 10
2.386512255756166
 20
7.066490082647225
  0
LWPOLYLINE
  5
541
330
1E
100
AcDbEntity
  8
0
100
AcDbPolyline
 90
        2
 70
   128
 43
0.0
 10
2.261556604293837
 20
7.055557879700772
 10
2.297321219157265
 20
7.058686878056695
  0
LWPOLYLINE
  5
542
330
1E
100
AcDbEntity
  8
0
100
AcDbPolyline
 90
        2
 70
   128
 43
0.0
 10
2.351348311261056
 20
7.056495389013544
 10
2.387112928502829
 20
7.059624387577544
  0
LWPOLYLINE
  5
543
330
1E
100
AcDbEntity
  8
0
100
AcDbPolyline
 90
        2
 70
   128
 43
0.0
 10
2.262157274662163
 20
7.055557879492694
 10
2.387112928502829
 20
7.044625676338169
  0
LWPOLYLINE
  5
544
330
1E
100
AcDbEntity
  8
0
100
AcDbPolyline
 90
        2
 70
   128
 43
0.0
 10
2.261556604293837
 20
7.048692184214941
 10
2.386512258134503
 20
7.037759981060409
  0
LWPOLYLINE
  5
545
330
1E
100
AcDbEntity
  8
0
100
AcDbPolyline
 90
        2
 70
   128
 43
0.0
 10
2.26215727466217
 20
7.055557879492694
 42
0.9999999999999998
 10
2.261556601915499
 20
7.048692184423019
  0
LWPOLYLINE
  5
546
330
1E
100
AcDbEntity
  8
0
100
AcDbPolyline
 90
        2
 70
   128
 43
0.0
 10
2.386512255756166
 20
7.037759981268495
 42
0.9999999999999998
 10
2.387112928502836
 20
7.044625676338169
  0
LWPOLYLINE
  5
547
330
1E
100
AcDbEntity
  8
0
100
AcDbPolyline
 90
        2
 70
   128
 43
0.0
 10
2.308348292927687
 20
7.003239861829332
 10
2.308348292927687
 20
6.967953225764015
  0
LWPOLYLINE
  5
548
330
1E
100
AcDbEntity
  8
0
100
AcDbPolyline
 90
        2
 70
   128
 43
0.0
 10
2.264239997846027
 20
7.003239861829332
 10
2.264239997846027
 20
7.016472350353835
  0
LWPOLYLINE
  5
549
330
1E
100
AcDbEntity
  8
0
100
AcDbPolyline
 90
        2
 70
   128
 43
0.0
 10
2.25762375358378
 20
7.003239861829332
 10
2.25762375358378
 20
7.016472350353835
  0
LWPOLYLINE
  5
54A
330
1E
100
AcDbEntity
  8
0
100
AcDbPolyline
 90
        2
 70
   128
 43
0.0
 10
2.25762375358378
 20
7.003239861829332
 10
2.297491535819315
 20
7.003239861829332
  0
LWPOLYLINE
  5
54B
330
1E
100
AcDbEntity
  8
0
100
AcDbPolyline
 90
        2
 70
   128
 43
0.0
 10
2.290704974895017
 20
7.003239861829332
 10
2.290704974895017
 20
7.016472350353835
  0
LWPOLYLINE
  5
54C
330
1E
100
AcDbEntity
  8
0
100
AcDbPolyline
 90
        2
 70
   128
 43
0.0
 10
2.297321219157265
 20
7.003239861829332
 10
2.297321219157265
 20
7.016472350353835
  0
LWPOLYLINE
  5
54D
330
1E
100
AcDbEntity
  8
0
100
AcDbPolyline
 90
        2
 70
   128
 43
0.0
 10
2.262923276844538
 20
7.025871217889217
 42
0.3585513456052364
 10
2.266304789492361
 20
7.023088594616083
  0
LWPOLYLINE
  5
54E
330
1E
100
AcDbEntity
  8
0
100
AcDbPolyline
 90
        2
 70
   128
 43
0.0
 10
2.252520947279336
 20
7.023088594616083
 42
0.3821279925101888
 10
2.255945786345655
 20
7.02615360700436
  0
LWPOLYLINE
  5
54F
330
1E
100
AcDbEntity
  8
0
100
AcDbPolyline
 90
        2
 70
   128
 43
0.0
 10
2.262858828939102
 20
7.041696781603663
 42
0.9999999999999998
 10
2.255966907832593
 20
7.041696781603663
  0
LWPOLYLINE
  5
550
330
1E
100
AcDbEntity
  8
0
100
AcDbPolyline
 90
        2
 70
   128
 43
0.0
 10
2.262858828939104
 20
7.041696781603663
 10
2.262858828939104
 20
7.032801827525513
  0
LWPOLYLINE
  5
551
330
1E
100
AcDbEntity
  8
0
100
AcDbPolyline
 90
        2
 70
   128
 43
0.0
 10
2.255966907832592
 20
7.041696781603663
 10
2.255966907832592
 20
7.033471192792426
  0
LWPOLYLINE
  5
552
330
1E
100
AcDbEntity
  8
0
100
AcDbPolyline
 90
        2
 70
   128
 43
0.0
 10
2.194365051405747
 20
7.016472350353835
 10
2.194365051405747
 20
7.023088594616082
  0
LWPOLYLINE
  5
553
330
1E
100
AcDbEntity
  8
0
100
AcDbPolyline
 90
        2
 70
   128
 43
0.0
 10
2.194365051405747
 20
7.016472350353835
 10
2.297321219157265
 20
7.016472350353835
  0
LWPOLYLINE
  5
554
330
1E
100
AcDbEntity
  8
0
100
AcDbPolyline
 90
        2
 70
   128
 43
0.0
 10
2.572759718369469
 20
6.939983291614156
 10
2.607497757531668
 20
6.932033983526075
  0
LWPOLYLINE
  5
555
330
1E
100
AcDbEntity
  8
0
100
AcDbPolyline
 90
        2
 70
   128
 43
0.0
 10
2.567664728130602
 20
6.937675409371083
 10
2.572759718369469
 20
6.939983291614156
  0
LWPOLYLINE
  5
556
330
1E
100
AcDbEntity
  8
0
100
AcDbPolyline
 90
        2
 70
   128
 43
0.0
 10
2.602402767292802
 20
6.929726101282994
 10
2.607497757531668
 20
6.932033983526075
  0
LWPOLYLINE
  5
557
330
1E
100
AcDbEntity
  8
0
100
AcDbPolyline
 90
        2
 70
   128
 43
0.0
 10
2.600869718328722
 20
6.941389028629208
 10
2.605964708567588
 20
6.943696910872281
  0
LWPOLYLINE
  5
558
330
1E
100
AcDbEntity
  8
0
100
AcDbPolyline
 90
        2
 70
   128
 43
0.0
 10
2.567664728130602
 20
6.937675409371083
 10
2.602402767292802
 20
6.929726101282994
  0
LWPOLYLINE
  5
559
330
1E
100
AcDbEntity
  8
0
100
AcDbPolyline
 90
        2
 70
   128
 43
0.0
 10
2.566131679166509
 20
6.949338336717296
 10
2.600869718328722
 20
6.941389028629208
  0
LWPOLYLINE
  5
55A
330
1E
100
AcDbEntity
  8
0
100
AcDbPolyline
 90
        2
 70
   128
 43
0.0
 10
2.607274574962842
 20
6.937550602677296
 10
2.640057839090135
 20
6.951244502762257
  0
LWPOLYLINE
  5
55B
330
1E
100
AcDbEntity
  8
0
100
AcDbPolyline
 90
        2
 70
   128
 43
0.0
 10
2.602066637201858
 20
6.926603107419248
 10
2.639972210548958
 20
6.942408129762354
  0
LWPOLYLINE
  5
55C
330
1E
100
AcDbEntity
  8
0
100
AcDbPolyline
 90
        2
 70
   128
 43
0.0
 10
2.599027492246671
 20
6.918861216810416
 10
2.636933065593716
 20
6.934666239153493
  0
LWPOLYLINE
  5
55D
330
1E
100
AcDbEntity
  8
0
100
AcDbPolyline
 90
        2
 70
   128
 43
0.0
 10
2.580176364671192
 20
6.964600540627991
 10
2.618081938018237
 20
6.980405562971068
  0
LWPOLYLINE
  5
55E
330
1E
100
AcDbEntity
  8
0
100
AcDbPolyline
 90
        2
 70
   128
 43
0.0
 10
2.587787895941021
 20
6.961248248280027
 10
2.625693469288121
 20
6.977053270623116
  0
LWPOLYLINE
  5
55F
330
1E
100
AcDbEntity
  8
0
100
AcDbPolyline
 90
        2
 70
   128
 43
0.0
 10
2.594074773407758
 20
6.955038256995127
 10
2.631980346754871
 20
6.970843279338218
  0
LWPOLYLINE
  5
560
330
1E
100
AcDbEntity
  8
0
100
AcDbPolyline
 90
        2
 70
   128
 43
0.0
 10
2.599342801099085
 20
6.945745508090821
 10
2.637248374446185
 20
6.961550530433926
  0
LWPOLYLINE
  5
561
330
1E
100
AcDbEntity
  8
0
100
AcDbPolyline
 90
        2
 70
   128
 43
0.0
 10
2.604367617522463
 20
6.919205566640558
 10
2.610676884438057
 20
6.903897113533538
  0
LWPOLYLINE
  5
562
330
1E
100
AcDbEntity
  8
0
100
AcDbPolyline
 90
        2
 70
   128
 43
0.0
 10
2.640345376346884
 20
6.947666183415694
 10
2.650879168599586
 20
6.922107577812688
  0
LWPOLYLINE
  5
563
330
1E
100
AcDbEntity
  8
0
100
AcDbPolyline
 90
        2
 70
   128
 43
0.0
 10
2.632269391349118
 20
6.930839427305437
 10
2.594363818002004
 20
6.915034404962334
  0
LWPOLYLINE
  5
564
330
1E
100
AcDbEntity
  8
0
100
AcDbPolyline
 90
        2
 70
   128
 43
0.0
 10
2.61207620180442
 20
6.979835055381055
 10
2.574170628457306
 20
6.964030033037959
  0
LWPOLYLINE
  5
565
330
1E
100
AcDbEntity
  8
0
100
AcDbPolyline
 90
        2
 70
   128
 43
0.0
 10
2.351348311261056
 20
6.967953225764015
 10
2.351348311261056
 20
6.945252869755352
  0
LWPOLYLINE
  5
566
330
1E
100
AcDbEntity
  8
0
100
AcDbPolyline
 90
        2
 70
   128
 43
0.0
 10
2.351671505555852
 20
7.040808151939754
 42
0.4963342645270857
 10
2.39029080558853
 20
7.019905499383552
  0
LWPOLYLINE
  5
567
330
1E
100
AcDbEntity
  8
0
100
AcDbPolyline
 90
        2
 70
   128
 43
0.0
 10
2.340321237490634
 20
6.99727073984514
 10
2.43956490142436
 20
7.04222523023518
  0
LWPOLYLINE
  5
568
330
1E
100
AcDbEntity
  8
0
100
AcDbPolyline
 90
        2
 70
   128
 43
0.0
 10
2.340321237490634
 20
6.990007373304838
 10
2.43956490142436
 20
7.034961863694883
  0
LWPOLYLINE
  5
569
330
1E
100
AcDbEntity
  8
0
100
AcDbPolyline
 90
        2
 70
   128
 43
0.0
 10
2.631815046982824
 20
7.055195581274455
 42
1.696880342150164
 10
2.554424252903785
 20
7.112784246263452
  0
LWPOLYLINE
  5
56A
330
1E
100
AcDbEntity
  8
0
100
AcDbPolyline
 90
        2
 70
   128
 43
0.0
 10
2.548849573352644
 20
7.118358925814606
 10
2.56597310565728
 20
7.13981291642049
  0
LWPOLYLINE
  5
56B
330
1E
100
AcDbEntity
  8
0
100
AcDbPolyline
 90
        2
 70
   128
 43
0.0
 10
2.631815046982822
 20
7.055195581274455
 10
2.618186329931623
 20
7.04902216923562
  0
LWPOLYLINE
  5
56C
330
1E
100
AcDbEntity
  8
0
100
AcDbPolyline
 90
        2
 70
   128
 43
0.0
 10
2.263310822833668
 20
7.161391604252431
 42
0.9999999999999998
 10
2.253212924075603
 20
7.161391604252431
  0
LWPOLYLINE
  5
56D
330
1E
100
AcDbEntity
  8
0
100
AcDbPolyline
 90
        2
 70
   128
 43
0.0
 10
2.395456606342717
 20
7.161391604252431
 42
0.9999999999999998
 10
2.385358707584652
 20
7.161391604252431
  0
LWPOLYLINE
  5
56E
330
1E
100
AcDbEntity
  8
0
100
AcDbPolyline
 90
        2
 70
   128
 43
0.0
 10
2.328351172579797
 20
7.161147766859321
 42
2.504196482311332
 10
2.327513479775423
 20
7.15431111386411
  0
LWPOLYLINE
  5
56F
330
1E
100
AcDbEntity
  8
0
100
AcDbPolyline
 90
        2
 70
   128
 43
0.0
 10
2.316064459881348
 20
7.14989994297584
 10
2.316064459881348
 20
7.16644055363146
  0
LWPOLYLINE
  5
570
330
1E
100
AcDbEntity
  8
0
100
AcDbPolyline
 90
        2
 70
   128
 43
0.0
 10
2.332605070536973
 20
7.14989994297584
 10
2.332605070536973
 20
7.153687242892438
  0
LWPOLYLINE
  5
571
330
1E
100
AcDbEntity
  8
0
100
AcDbPolyline
 90
        2
 70
   128
 43
0.0
 10
2.263310822833679
 20
7.14989994297584
 10
2.263310822833679
 20
7.161391604252431
  0
LWPOLYLINE
  5
572
330
1E
100
AcDbEntity
  8
0
100
AcDbPolyline
 90
        2
 70
   128
 43
0.0
 10
2.385358707584643
 20
7.154162652006016
 10
2.385358707584643
 20
7.161391604252431
  0
LWPOLYLINE
  5
573
330
1E
100
AcDbEntity
  8
0
100
AcDbPolyline
 90
        2
 70
   128
 43
0.0
 10
2.363514316426798
 20
7.14989994297584
 10
2.263310822833679
 20
7.14989994297584
  0
LWPOLYLINE
  5
574
330
1E
100
AcDbEntity
  8
0
100
AcDbPolyline
 90
        2
 70
   128
 43
0.0
 10
2.379470134061221
 20
7.06719688969774
 10
2.379470134061221
 20
7.082104899702082
  0
LWPOLYLINE
  5
575
330
1E
100
AcDbEntity
  8
0
100
AcDbPolyline
 90
        2
 70
   128
 43
0.0
 10
2.269199396357087
 20
7.06719688969774
 10
2.269199396357087
 20
7.069887932860767
  0
LWPOLYLINE
  5
576
330
1E
100
AcDbEntity
  8
0
100
AcDbPolyline
 90
        2
 70
   128
 43
0.0
 10
2.340321237490634
 20
6.967953225764015
 10
2.373859698080225
 20
6.967953225764015
  0
LWPOLYLINE
  5
577
330
1E
100
AcDbEntity
  8
0
100
AcDbPolyline
 90
        2
 70
   128
 43
0.0
 10
2.340321237490634
 20
6.990007373304838
 10
2.373859698080225
 20
6.990007373304838
  0
LWPOLYLINE
  5
578
330
1E
100
AcDbEntity
  8
0
100
AcDbPolyline
 90
        2
 70
   128
 43
0.0
 10
2.340321237490634
 20
6.99727073984514
 10
2.340321237490634
 20
6.967953225764015
  0
LWPOLYLINE
  5
579
330
1E
100
AcDbEntity
  8
0
100
AcDbPolyline
 90
        2
 70
   128
 43
0.0
 10
2.297321219157265
 20
6.967953225764015
 10
2.297321219157265
 20
6.9569261519936
  0
LWPOLYLINE
  5
57A
330
1E
100
AcDbEntity
  8
0
100
AcDbPolyline
 90
        2
 70
   128
 43
0.0
 10
2.308348292927687
 20
7.023088594616082
 10
2.308348292927687
 20
7.016472350353835
  0
LWPOLYLINE
  5
57B
330
1E
100
AcDbEntity
  8
0
100
AcDbPolyline
 90
        2
 70
   128
 43
0.0
 10
2.379470134061221
 20
7.06719688969774
 10
2.379034086947455
 20
7.06719688969774
  0
LWPOLYLINE
  5
57C
330
1E
100
AcDbEntity
  8
0
100
AcDbPolyline
 90
        2
 70
   128
 43
0.0
 10
2.297321219157265
 20
7.06719688969774
 10
2.297321219157265
 20
7.052481432984512
  0
LWPOLYLINE
  5
57D
330
1E
100
AcDbEntity
  8
0
100
AcDbPolyline
 90
        2
 70
   128
 43
0.0
 10
2.158928658652953
 20
6.967953225764015
 10
2.158928658652953
 20
6.802547119207806
  0
LWPOLYLINE
  5
57E
330
1E
100
AcDbEntity
  8
0
100
AcDbPolyline
 90
        2
 70
   128
 43
0.0
 10
2.373859698080224
 20
6.99000737330484
 42
0.1067329925838223
 10
2.387509469961951
 20
6.992954711178659
  0
LWPOLYLINE
  5
57F
330
1E
100
AcDbEntity
  8
0
100
AcDbPolyline
 90
        2
 70
   128
 43
0.0
 10
2.373859698080224
 20
6.967953225764012
 42
0.1067329925838223
 10
2.396609317883102
 20
6.97286545555371
  0
LWPOLYLINE
  5
580
330
1E
100
AcDbEntity
  8
0
100
AcDbPolyline
 90
        2
 70
   128
 43
0.0
 10
2.387509469961961
 20
6.992954711178663
 10
2.43956490142436
 20
7.016534306093548
  0
LWPOLYLINE
  5
581
330
1E
100
AcDbEntity
  8
0
100
AcDbPolyline
 90
        2
 70
   128
 43
0.0
 10
2.3966093178831
 20
6.972865455553712
 10
2.43956490142436
 20
6.992323084292554
  0
LWPOLYLINE
  5
582
330
1E
100
AcDbEntity
  8
0
100
AcDbPolyline
 90
        2
 70
   128
 43
0.0
 10
2.059684994719227
 20
6.990007373304838
 10
2.308348292927687
 20
6.990007373304838
  0
LWPOLYLINE
  5
583
330
1E
100
AcDbEntity
  8
0
100
AcDbPolyline
 90
        2
 70
   128
 43
0.0
 10
2.125067974916119
 20
7.029113592388981
 42
0.1185157189849694
 10
2.150129506212515
 20
7.023088594616079
  0
LWPOLYLINE
  5
584
330
1E
100
AcDbEntity
  8
0
100
AcDbPolyline
 90
        2
 70
   128
 43
0.0
 10
2.125067974916113
 20
7.029113592388982
 10
2.040638230933969
 20
7.072198965695246
  0
LWPOLYLINE
  5
585
330
1E
100
AcDbEntity
  8
0
100
AcDbPolyline
 90
        2
 70
   128
 43
0.0
 10
2.150129506212514
 20
7.023088594616082
 10
2.289088564560174
 20
7.023088594616082
  0
LWPOLYLINE
  5
586
330
1E
100
AcDbEntity
  8
0
100
AcDbPolyline
 90
        2
 70
   128
 43
0.0
 10
2.015576699637568
 20
6.967953225764015
 10
2.308348292927687
 20
6.967953225764015
  0
LWPOLYLINE
  5
587
330
1E
100
AcDbEntity
  8
0
100
AcDbPolyline
 90
        2
 70
   128
 43
0.0
 10
2.295548716587934
 20
6.879097830497347
 10
2.329294163720227
 20
6.894383535586081
  0
LWPOLYLINE
  5
588
330
1E
100
AcDbEntity
  8
0
100
AcDbPolyline
 90
        2
 70
   128
 43
0.0
 10
2.329294163720227
 20
6.870172313785088
 10
2.43956490142436
 20
6.920121747551801
  0
LWPOLYLINE
  5
589
330
1E
100
AcDbEntity
  8
0
100
AcDbPolyline
 90
        2
 70
   128
 43
0.0
 10
2.329294163720227
 20
6.9569261519936
 10
2.329294163720227
 20
6.870172313785088
  0
LWPOLYLINE
  5
58A
330
1E
100
AcDbEntity
  8
0
100
AcDbPolyline
 90
        2
 70
   128
 43
0.0
 10
2.285185868638568
 20
6.945899078223185
 10
2.158928658652953
 20
6.945899078223185
  0
LWPOLYLINE
  5
58B
330
1E
100
AcDbEntity
  8
0
100
AcDbPolyline
 90
        2
 70
   128
 43
0.0
 10
2.285185868638568
 20
6.9569261519936
 10
2.351348311261056
 20
6.9569261519936
  0
LWPOLYLINE
  5
58C
330
1E
100
AcDbEntity
  8
0
100
AcDbPolyline
 90
        2
 70
   128
 43
0.0
 10
2.285185868638568
 20
6.9569261519936
 10
2.285185868638568
 20
6.945899078223185
  0
LWPOLYLINE
  5
58D
330
1E
100
AcDbEntity
  8
0
100
AcDbPolyline
 90
        2
 70
   128
 43
0.0
 10
2.351348311261064
 20
6.945252869755352
 42
0.5450430459587292
 10
2.366925308992054
 20
6.935208241942877
  0
LWPOLYLINE
  5
58E
330
1E
100
AcDbEntity
  8
0
100
AcDbPolyline
 90
        2
 70
   128
 43
0.0
 10
2.366925308992048
 20
6.935208241942879
 10
2.43956490142436
 20
6.968111862491554
  0
LWPOLYLINE
  5
58F
330
1E
100
AcDbEntity
  8
0
100
AcDbPolyline
 90
        2
 70
   128
 43
0.0
 10
2.351348311261056
 20
7.062700834085719
 10
2.351348311261056
 20
7.047754674902163
  0
LWPOLYLINE
  5
590
330
1E
100
AcDbEntity
  8
0
100
AcDbPolyline
 90
        2
 70
   128
 43
0.0
 10
2.348027784238174
 20
6.857682488059878
 42
0.1067329925838223
 10
2.361677556119901
 20
6.860629825933696
  0
LWPOLYLINE
  5
591
330
1E
100
AcDbEntity
  8
0
100
AcDbPolyline
 90
        2
 70
   128
 43
0.0
 10
2.348027784238174
 20
6.846655414289464
 42
0.1067329925838223
 10
2.366227480080477
 20
6.850585198121223
  0
LWPOLYLINE
  5
592
330
1E
100
AcDbEntity
  8
0
100
AcDbPolyline
 90
        2
 70
   128
 43
0.0
 10
2.293321120229879
 20
6.857682488059873
 10
2.348027784238175
 20
6.857682488059873
  0
LWPOLYLINE
  5
593
330
1E
100
AcDbEntity
  8
0
100
AcDbPolyline
 90
        2
 70
   128
 43
0.0
 10
2.293321120229879
 20
6.846655414289452
 10
2.348027784238175
 20
6.846655414289452
  0
LWPOLYLINE
  5
594
330
1E
100
AcDbEntity
  8
0
100
AcDbPolyline
 90
        2
 70
   128
 43
0.0
 10
2.361677556119897
 20
6.860629825933694
 10
2.43956490142436
 20
6.895910525750801
  0
LWPOLYLINE
  5
595
330
1E
100
AcDbEntity
  8
0
100
AcDbPolyline
 90
        2
 70
   128
 43
0.0
 10
2.366227480080481
 20
6.850585198121221
 10
2.439946333416416
 20
6.883977692437724
  0
LWPOLYLINE
  5
596
330
1E
100
AcDbEntity
  8
0
100
AcDbPolyline
 90
        2
 70
   128
 43
0.0
 10
2.225091101275442
 20
6.945899078223185
 10
2.293321120229879
 20
6.890763709371119
  0
LWPOLYLINE
  5
597
330
1E
100
AcDbEntity
  8
0
100
AcDbPolyline
 90
        2
 70
   128
 43
0.0
 10
2.293321120229879
 20
6.819087729863426
 10
2.403591857934012
 20
6.819087729863426
  0
LWPOLYLINE
  5
598
330
1E
100
AcDbEntity
  8
0
100
AcDbPolyline
 90
        2
 70
   128
 43
0.0
 10
2.209104628993959
 20
7.118366792737811
 42
0.487928364926484
 10
2.21595539499378
 20
7.113017876279353
  0
LWPOLYLINE
  5
599
330
1E
100
AcDbEntity
  8
0
100
AcDbPolyline
 90
        2
 70
   128
 43
0.0
 10
2.244860308534428
 20
7.120244104664511
 42
0.3441507314089123
 10
2.253212924075613
 20
7.130941937581427
  0
LWPOLYLINE
  5
59A
330
1E
100
AcDbEntity
  8
0
100
AcDbPolyline
 90
        2
 70
   128
 43
0.0
 10
2.395456606342708
 20
7.130941937581427
 42
0.3441507314089123
 10
2.403809221883893
 20
7.120244104664511
  0
LWPOLYLINE
  5
59B
330
1E
100
AcDbEntity
  8
0
100
AcDbPolyline
 90
        2
 70
   128
 43
0.0
 10
2.186496343078987
 20
7.177467627401878
 42
0.9999999999999642
 10
2.186496343078987
 20
7.166440553631463
  0
LWPOLYLINE
  5
59C
330
1E
100
AcDbEntity
  8
0
100
AcDbPolyline
 90
        2
 70
   128
 43
0.0
 10
2.180982806193783
 20
7.177467627401881
 10
2.480605744747381
 20
7.177467627401881
  0
LWPOLYLINE
  5
59D
330
1E
100
AcDbEntity
  8
0
100
AcDbPolyline
 90
        2
 70
   128
 43
0.0
 10
2.186496343078987
 20
7.16644055363146
 10
2.428537827653952
 20
7.16644055363146
  0
LWPOLYLINE
  5
59E
330
1E
100
AcDbEntity
  8
0
100
AcDbPolyline
 90
        2
 70
   128
 43
0.0
 10
2.180982806193783
 20
7.177467627401872
 42
0.4142135623730952
 10
2.158928658652956
 20
7.155413479861044
  0
LWPOLYLINE
  5
59F
330
1E
100
AcDbEntity
  8
0
100
AcDbPolyline
 90
        2
 70
   128
 43
0.0
 10
2.439564901424362
 20
6.888061664094685
 42
0.5450430459587399
 10
2.470718896886341
 20
6.867972408469737
  0
LWPOLYLINE
  5
5A0
330
1E
100
AcDbEntity
  8
0
100
AcDbPolyline
 90
        2
 70
   128
 43
0.0
 10
2.450591975194775
 20
6.888061664094685
 42
0.5450430459587388
 10
2.466168972925765
 20
6.878017036282211
  0
LWPOLYLINE
  5
5A1
330
1E
100
AcDbEntity
  8
0
100
AcDbPolyline
 90
        2
 70
   128
 43
0.0
 10
2.637171436492145
 20
7.013244775319349
 42
0.0989379378004547
 10
2.634773618769189
 20
7.016840243118658
  0
LWPOLYLINE
  5
5A2
330
1E
100
AcDbEntity
  8
0
100
AcDbPolyline
 90
        2
 70
   128
 43
0.0
 10
2.439564901424366
 20
7.155413479861051
 42
0.4142135623730956
 10
2.428537827653952
 20
7.166440553631465
  0
LWPOLYLINE
  5
5A3
330
1E
100
AcDbEntity
  8
0
100
AcDbPolyline
 90
        2
 70
   128
 43
0.0
 10
2.461619048965189
 20
7.166440553631465
 42
0.4142135623730989
 10
2.450591975194775
 20
7.155413479861051
  0
LWPOLYLINE
  5
5A4
330
1E
100
AcDbEntity
  8
0
100
AcDbPolyline
 90
        2
 70
   128
 43
0.0
 10
2.450591975194775
 20
6.966283584384525
 42
0.5450430459587514
 10
2.466168972925766
 20
6.956238956572051
  0
LWPOLYLINE
  5
5A5
330
1E
100
AcDbEntity
  8
0
100
AcDbPolyline
 90
        2
 70
   128
 43
0.0
 10
2.526817878663051
 20
6.983711145143753
 42
0.2944623162644199
 10
2.533295028472888
 20
6.993755772956227
  0
LWPOLYLINE
  5
5A6
330
1E
100
AcDbEntity
  8
0
100
AcDbPolyline
 90
        2
 70
   128
 43
0.0
 10
2.533295028472888
 20
7.113751269905966
 42
0.1989123673796579
 10
2.530065273342178
 20
7.12154858854567
  0
LWPOLYLINE
  5
5A7
330
1E
100
AcDbEntity
  8
0
100
AcDbPolyline
 90
        2
 70
   128
 43
0.0
 10
2.488403063387086
 20
7.163210798500755
 42
0.1989123673796581
 10
2.480605744747382
 20
7.166440553631465
  0
LWPOLYLINE
  5
5A8
330
1E
100
AcDbEntity
  8
0
100
AcDbPolyline
 90
        2
 70
   128
 43
0.0
 10
2.544322102243302
 20
7.113751269905966
 42
0.1989123673796544
 10
2.537862591981882
 20
7.129345907185374
  0
LWPOLYLINE
  5
5A9
330
1E
100
AcDbEntity
  8
0
100
AcDbPolyline
 90
        2
 70
   128
 43
0.0
 10
2.531367802623627
 20
6.973666517331279
 42
0.2944623162644204
 10
2.544322102243302
 20
6.993755772956227
  0
LWPOLYLINE
  5
5AA
330
1E
100
AcDbEntity
  8
0
100
AcDbPolyline
 90
        2
 70
   128
 43
0.0
 10
2.677201125862409
 20
6.940691163194127
 42
0.098044907810131
 10
2.675537251046901
 20
6.949094864874916
  0
LWPOLYLINE
  5
5AB
330
1E
100
AcDbEntity
  8
0
100
AcDbPolyline
 90
        2
 70
   128
 43
0.0
 10
2.647366572854805
 20
7.017446626159743
 42
0.0989379378004549
 10
2.642570937408893
 20
7.024637561758362
  0
LWPOLYLINE
  5
5AC
330
1E
100
AcDbEntity
  8
0
100
AcDbPolyline
 90
        2
 70
   128
 43
0.0
 10
2.49620038202679
 20
7.171008117140452
 42
0.198912367379658
 10
2.480605744747382
 20
7.177467627401872
  0
LWPOLYLINE
  5
5AD
330
1E
100
AcDbEntity
  8
0
100
AcDbPolyline
 90
        2
 70
   128
 43
0.0
 10
2.293321120229879
 20
6.890763709371119
 10
2.158928658652953
 20
6.890763709371119
  0
LWPOLYLINE
  5
5AE
330
1E
100
AcDbEntity
  8
0
100
AcDbPolyline
 90
        2
 70
   128
 43
0.0
 10
2.20510453006656
 20
6.819087729863426
 10
2.20510453006656
 20
6.890763709371119
  0
LWPOLYLINE
  5
5AF
330
1E
100
AcDbEntity
  8
0
100
AcDbPolyline
 90
        2
 70
   128
 43
0.0
 10
2.293321120229879
 20
6.819087729863426
 10
2.293321120229879
 20
6.890763709371119
  0
LWPOLYLINE
  5
5B0
330
1E
100
AcDbEntity
  8
0
100
AcDbPolyline
 90
        2
 70
   128
 43
0.0
 10
2.158928658652953
 20
6.819087729863426
 10
2.20510453006656
 20
6.819087729863426
  0
LWPOLYLINE
  5
5B1
330
1E
100
AcDbEntity
  8
0
100
AcDbPolyline
 90
        2
 70
   128
 43
0.0
 10
2.544690028497337
 20
6.892240135354004
 10
2.561614058925477
 20
6.899906228413106
  0
LWPOLYLINE
  5
5B2
330
1E
100
AcDbEntity
  8
0
100
AcDbPolyline
 90
        2
 70
   128
 43
0.0
 10
2.532431978836745
 20
6.892576666386752
 10
2.522089615919271
 20
6.882002806442706
  0
LWPOLYLINE
  5
5B3
330
1E
100
AcDbEntity
  8
0
100
AcDbPolyline
 90
        2
 70
   128
 43
0.0
 10
2.50953383115369
 20
6.876315401491998
 10
2.522089615919271
 20
6.882002806442706
  0
LWPOLYLINE
  5
5B4
330
1E
100
AcDbEntity
  8
0
100
AcDbPolyline
 90
        2
 70
   128
 43
0.0
 10
2.24507767248431
 20
6.802547119207808
 42
0.4142135623730951
 10
2.231293830271292
 20
6.78876327699479
  0
LWPOLYLINE
  5
5B5
330
1E
100
AcDbEntity
  8
0
100
AcDbPolyline
 90
        2
 70
   128
 43
0.0
 10
2.403591857934012
 20
6.819087729863426
 10
2.513006348119452
 20
6.86864930843288
  0
LWPOLYLINE
  5
5B6
330
1E
100
AcDbEntity
  8
0
100
AcDbPolyline
 90
        2
 70
   128
 43
0.0
 10
2.403591857934012
 20
6.802547119207806
 10
2.403591857934012
 20
6.819087729863426
  0
LWPOLYLINE
  5
5B7
330
1E
100
AcDbEntity
  8
0
100
AcDbPolyline
 90
        2
 70
   128
 43
0.0
 10
2.417375700147029
 20
6.78876327699479
 42
0.4142135623730951
 10
2.403591857934012
 20
6.802547119207808
  0
LWPOLYLINE
  5
5B8
330
1E
100
AcDbEntity
  8
0
100
AcDbPolyline
 90
        2
 70
   128
 43
0.0
 10
2.231293830271299
 20
6.78876327699479
 10
2.231293830271299
 20
6.736384676585311
  0
LWPOLYLINE
  5
5B9
330
1E
100
AcDbEntity
  8
0
100
AcDbPolyline
 90
        2
 70
   128
 43
0.0
 10
2.417375700147036
 20
6.78876327699479
 10
2.417375700147036
 20
6.736384676585311
  0
LWPOLYLINE
  5
5BA
330
1E
100
AcDbEntity
  8
0
100
AcDbPolyline
 90
        2
 70
   128
 43
0.0
 10
2.158928658652953
 20
6.802547119207806
 10
2.403591857934012
 20
6.802547119207806
  0
LWPOLYLINE
  5
5BB
330
1E
100
AcDbEntity
  8
0
100
AcDbPolyline
 90
        2
 70
   128
 43
0.0
 10
2.231293830271299
 20
6.736384676585311
 10
2.417375700147036
 20
6.736384676585311
  0
LWPOLYLINE
  5
5BC
330
1E
100
AcDbEntity
  8
0
100
AcDbPolyline
 90
        2
 70
   128
 43
0.0
 10
2.248523633037579
 20
6.736384676585311
 10
2.248523633037579
 20
6.708816992159279
  0
LWPOLYLINE
  5
5BD
330
1E
100
AcDbEntity
  8
0
100
AcDbPolyline
 90
        2
 70
   128
 43
0.0
 10
2.400145897380756
 20
6.736384676585311
 10
2.400145897380756
 20
6.708816992159279
  0
LWPOLYLINE
  5
5BE
330
1E
100
AcDbEntity
  8
0
100
AcDbPolyline
 90
        2
 70
   128
 43
0.0
 10
2.210618066951764
 20
6.708816992159279
 10
2.210618066951764
 20
6.698479110499524
  0
LWPOLYLINE
  5
5BF
330
1E
100
AcDbEntity
  8
0
100
AcDbPolyline
 90
        2
 70
   128
 43
0.0
 10
2.438051463466557
 20
6.708816992159279
 10
2.438051463466557
 20
6.698479110499524
  0
LWPOLYLINE
  5
5C0
330
1E
100
AcDbEntity
  8
0
100
AcDbPolyline
 90
        2
 70
   128
 43
0.0
 10
2.438051463466557
 20
6.708816992159279
 10
2.210618066951764
 20
6.708816992159279
  0
LWPOLYLINE
  5
5C1
330
1E
100
AcDbEntity
  8
0
100
AcDbPolyline
 90
        2
 70
   128
 43
0.0
 10
2.268628030124093
 20
6.639897781094195
 10
2.268628030124093
 20
6.551681190930883
  0
LWPOLYLINE
  5
5C2
330
1E
100
AcDbEntity
  8
0
100
AcDbPolyline
 90
        2
 70
   128
 43
0.0
 10
2.380041500294242
 20
6.639897781094195
 10
2.380041500294242
 20
6.551681190930883
  0
LWPOLYLINE
  5
5C3
330
1E
100
AcDbEntity
  8
0
100
AcDbPolyline
 90
        2
 70
   128
 43
0.0
 10
2.212921295039032
 20
6.551681190930883
 10
2.212921295039032
 20
6.639897781094195
  0
LWPOLYLINE
  5
5C4
330
1E
100
AcDbEntity
  8
0
100
AcDbPolyline
 90
        2
 70
   128
 43
0.0
 10
2.435748235379303
 20
6.551681190930883
 10
2.435748235379303
 20
6.639897781094195
  0
LWPOLYLINE
  5
5C5
330
1E
100
AcDbEntity
  8
0
100
AcDbPolyline
 90
        2
 70
   128
 43
0.0
 10
2.438051463466557
 20
6.639897781094195
 10
2.210618066951764
 20
6.639897781094195
  0
LWPOLYLINE
  5
5C6
330
1E
100
AcDbEntity
  8
0
100
AcDbPolyline
 90
        2
 70
   128
 43
0.0
 10
2.212921295039032
 20
6.551681190930883
 10
2.435748235379303
 20
6.551681190930883
  0
LWPOLYLINE
  5
5C7
330
1E
100
AcDbEntity
  8
0
100
AcDbPolyline
 90
        2
 70
   128
 43
0.0
 10
2.209104628993961
 20
7.118366792737811
 10
2.209104628993961
 20
7.16644055363146
  0
LWPOLYLINE
  5
5C8
330
1E
100
AcDbEntity
  8
0
100
AcDbPolyline
 90
        2
 70
   128
 43
0.0
 10
2.25321292407562
 20
7.130941937581427
 10
2.25321292407562
 20
7.161391604252431
  0
LWPOLYLINE
  5
5C9
330
1E
100
AcDbEntity
  8
0
100
AcDbPolyline
 90
        2
 70
   128
 43
0.0
 10
2.244860308534433
 20
7.120244104664514
 10
2.215955394993782
 20
7.113017876279355
  0
LWPOLYLINE
  5
5CA
330
1E
100
AcDbEntity
  8
0
100
AcDbPolyline
 90
        2
 70
   128
 43
0.0
 10
2.222885686521355
 20
7.114750449161247
 10
2.222885686521355
 20
7.023088594616082
  0
LWPOLYLINE
  5
5CB
330
1E
100
AcDbEntity
  8
0
100
AcDbPolyline
 90
        2
 70
   128
 43
0.0
 10
2.403809221883888
 20
7.120244104664514
 10
2.43956490142436
 20
7.1113051847794
  0
LWPOLYLINE
  5
5CC
330
1E
100
AcDbEntity
  8
0
100
AcDbPolyline
 90
        2
 70
   128
 43
0.0
 10
2.395456606342715
 20
7.161391604252431
 10
2.395456606342715
 20
7.130941937581427
  0
LWPOLYLINE
  5
5CD
330
1E
100
AcDbEntity
  8
0
100
AcDbPolyline
 90
        2
 70
   128
 43
0.0
 10
2.506061314187915
 20
6.883981494551093
 10
2.470718896886342
 20
6.867972408469739
  0
LWPOLYLINE
  5
5CE
330
1E
100
AcDbEntity
  8
0
100
AcDbPolyline
 90
        2
 70
   128
 43
0.0
 10
2.513006348119452
 20
6.86864930843288
 10
2.476661410928645
 20
6.948886114610871
  0
LWPOLYLINE
  5
5CF
330
1E
100
AcDbEntity
  8
0
100
AcDbPolyline
 90
        2
 70
   128
 43
0.0
 10
2.526622959758534
 20
6.90540093226501
 10
2.466168972925773
 20
6.878017036282212
  0
LWPOLYLINE
  5
5D0
330
1E
100
AcDbEntity
  8
0
100
AcDbPolyline
 90
        2
 70
   128
 43
0.0
 10
2.541217511531576
 20
6.899906228413106
 10
2.531172883719103
 20
6.895356304452537
  0
LWPOLYLINE
  5
5D1
330
1E
100
AcDbEntity
  8
0
100
AcDbPolyline
 90
        2
 70
   128
 43
0.0
 10
2.532431978836745
 20
6.892576666386752
 10
2.501772980459834
 20
6.960260924512315
  0
LWPOLYLINE
  5
5D2
330
1E
100
AcDbEntity
  8
0
100
AcDbPolyline
 90
        2
 70
   128
 43
0.0
 10
2.544690028497337
 20
6.892240135354004
 10
2.511817608272306
 20
6.964810848472891
  0
LWPOLYLINE
  5
5D3
330
1E
100
AcDbEntity
  8
0
100
AcDbPolyline
 90
        2
 70
   128
 43
0.0
 10
2.583348693932059
 20
6.970204709718279
 10
2.584174427977765
 20
6.968201194716183
  0
LWPOLYLINE
  5
5D4
330
1E
100
AcDbEntity
  8
0
100
AcDbPolyline
 90
        2
 70
   128
 43
0.0
 10
2.623550978093588
 20
6.988415173997429
 10
2.629663097804551
 20
6.973585067864403
  0
LWPOLYLINE
  5
5D5
330
1E
100
AcDbEntity
  8
0
100
AcDbPolyline
 90
        2
 70
   128
 43
0.0
 10
2.643652120174358
 20
6.997520406137008
 10
2.583348693932059
 20
6.970204709718279
  0
LWPOLYLINE
  5
5D6
330
1E
100
AcDbEntity
  8
0
100
AcDbPolyline
 90
        2
 70
   128
 43
0.0
 10
2.601866417268847
 20
6.899906228413106
 10
2.541217511531576
 20
6.899906228413106
  0
LWPOLYLINE
  5
5D7
330
1E
100
AcDbEntity
  8
0
100
AcDbPolyline
 90
        2
 70
   128
 43
0.0
 10
2.677201125862412
 20
6.934030658117441
 10
2.66617405209199
 20
6.934030658117441
  0
LWPOLYLINE
  5
5D8
330
1E
100
AcDbEntity
  8
0
100
AcDbPolyline
 90
        2
 70
   128
 43
0.0
 10
2.677201125862412
 20
6.934030658117441
 10
2.601866417268847
 20
6.899906228413106
  0
LWPOLYLINE
  5
5D9
330
1E
100
AcDbEntity
  8
0
100
AcDbPolyline
 90
        2
 70
   128
 43
0.0
 10
2.450591975194782
 20
6.93707741920685
 10
2.450591975194782
 20
6.888061664094685
  0
LWPOLYLINE
  5
5DA
330
1E
100
AcDbEntity
  8
0
100
AcDbPolyline
 90
        2
 70
   128
 43
0.0
 10
2.526817878663058
 20
6.983711145143747
 10
2.466168972925773
 20
6.956238956572045
  0
LWPOLYLINE
  5
5DB
330
1E
100
AcDbEntity
  8
0
100
AcDbPolyline
 90
        2
 70
   128
 43
0.0
 10
2.531367802623614
 20
6.973666517331274
 10
2.450591975194782
 20
6.93707741920685
  0
LWPOLYLINE
  5
5DC
330
1E
100
AcDbEntity
  8
0
100
AcDbPolyline
 90
        2
 70
   128
 43
0.0
 10
2.54432210224329
 20
7.107291759644537
 10
2.634773618769196
 20
7.016840243118652
  0
LWPOLYLINE
  5
5DD
330
1E
100
AcDbEntity
  8
0
100
AcDbPolyline
 90
        2
 70
   128
 43
0.0
 10
2.54432210224329
 20
7.113751269905966
 10
2.54432210224329
 20
6.993755772956227
  0
LWPOLYLINE
  5
5DE
330
1E
100
AcDbEntity
  8
0
100
AcDbPolyline
 90
        2
 70
   128
 43
0.0
 10
2.533295028472882
 20
7.113751269905959
 10
2.533295028472882
 20
6.993755772956227
  0
LWPOLYLINE
  5
5DF
330
1E
100
AcDbEntity
  8
0
100
AcDbPolyline
 90
        2
 70
   128
 43
0.0
 10
2.461619048965189
 20
7.16644055363146
 10
2.480605744747381
 20
7.16644055363146
  0
LWPOLYLINE
  5
5E0
330
1E
100
AcDbEntity
  8
0
100
AcDbPolyline
 90
        2
 70
   128
 43
0.0
 10
2.66617405209199
 20
6.942874447540992
 10
2.66617405209199
 20
6.934030658117441
  0
LWPOLYLINE
  5
5E1
330
1E
100
AcDbEntity
  8
0
100
AcDbPolyline
 90
        2
 70
   128
 43
0.0
 10
2.637171436492151
 20
7.013244775319341
 10
2.66617405209199
 20
6.942874447540992
  0
LWPOLYLINE
  5
5E2
330
1E
100
AcDbEntity
  8
0
100
AcDbPolyline
 90
        2
 70
   128
 43
0.0
 10
2.488403063387078
 20
7.163210798500756
 10
2.530065273342172
 20
7.121548588545662
  0
LWPOLYLINE
  5
5E3
330
1E
100
AcDbEntity
  8
0
100
AcDbPolyline
 90
        2
 70
   128
 43
0.0
 10
2.450591975194782
 20
7.155413479861051
 10
2.450591975194782
 20
6.966283584384525
  0
LWPOLYLINE
  5
5E4
330
1E
100
AcDbEntity
  8
0
100
AcDbPolyline
 90
        2
 70
   128
 43
0.0
 10
2.19200987996419
 20
7.16644055363146
 10
2.19200987996419
 20
7.023088594616082
  0
LWPOLYLINE
  5
5E5
330
1E
100
AcDbEntity
  8
0
100
AcDbPolyline
 90
        2
 70
   128
 43
0.0
 10
2.43956490142436
 20
7.155413479861051
 10
2.43956490142436
 20
6.888061664094685
  0
LWPOLYLINE
  5
5E6
330
1E
100
AcDbEntity
  8
0
100
AcDbPolyline
 90
        2
 70
   128
 43
0.0
 10
2.180982806193783
 20
7.17195409051667
 10
2.180982806193783
 20
7.023088594616082
  0
LWPOLYLINE
  5
5E7
330
1E
100
AcDbEntity
  8
0
100
AcDbPolyline
 90
        2
 70
   128
 43
0.0
 10
2.158928658652953
 20
7.155413479861044
 10
2.158928658652953
 20
7.023088594616082
  0
LWPOLYLINE
  5
5E8
330
1E
100
AcDbEntity
  8
0
100
AcDbPolyline
 90
        2
 70
   128
 43
0.0
 10
2.677201125862412
 20
6.940691163194127
 10
2.677201125862412
 20
6.934030658117441
  0
LWPOLYLINE
  5
5E9
330
1E
100
AcDbEntity
  8
0
100
AcDbPolyline
 90
        2
 70
   128
 43
0.0
 10
2.647366572854803
 20
7.017446626159744
 10
2.675537251046899
 20
6.949094864874924
  0
LWPOLYLINE
  5
5EA
330
1E
100
AcDbEntity
  8
0
100
AcDbPolyline
 90
        2
 70
   128
 43
0.0
 10
2.496200382026789
 20
7.171008117140454
 10
2.642570937408893
 20
7.024637561758362
  0
LWPOLYLINE
  5
5EB
330
1E
100
AcDbEntity
  8
0
100
AcDbPolyline
 90
        2
 70
   128
 43
0.0
 10
2.271956164799703
 20
7.177467627401881
 10
2.273111034531488
 20
7.243630070024362
  0
LWPOLYLINE
  5
5EC
330
1E
100
AcDbEntity
  8
0
100
AcDbPolyline
 90
        2
 70
   128
 43
0.0
 10
2.376713365618632
 20
7.177467627401881
 10
2.375558495886846
 20
7.243630070024362
  0
LWPOLYLINE
  5
5ED
330
1E
100
AcDbEntity
  8
0
100
AcDbPolyline
 90
        2
 70
   128
 43
0.0
 10
2.346388912749984
 20
7.243630070024362
 10
2.38774043938904
 20
7.243630070024362
  0
LWPOLYLINE
  5
5EE
330
1E
100
AcDbEntity
  8
0
100
AcDbPolyline
 90
        2
 70
   128
 43
0.0
 10
2.346388912749984
 20
7.265684217565192
 10
2.373956597176031
 20
7.265684217565192
  0
LWPOLYLINE
  5
5EF
330
1E
100
AcDbEntity
  8
0
100
AcDbPolyline
 90
        2
 70
   128
 43
0.0
 10
2.368443060290813
 20
7.249143606909573
 10
2.38774043938904
 20
7.249143606909573
  0
LWPOLYLINE
  5
5F0
330
1E
100
AcDbEntity
  8
0
100
AcDbPolyline
 90
        2
 70
   128
 43
0.0
 10
2.346388912749984
 20
7.265684217565192
 10
2.368443060290813
 20
7.249143606909573
  0
LWPOLYLINE
  5
5F1
330
1E
100
AcDbEntity
  8
0
100
AcDbPolyline
 90
        2
 70
   128
 43
0.0
 10
2.302280617668338
 20
7.265684217565192
 10
2.280226470127509
 20
7.249143606909573
  0
LWPOLYLINE
  5
5F2
330
1E
100
AcDbEntity
  8
0
100
AcDbPolyline
 90
        2
 70
   128
 43
0.0
 10
2.280226470127509
 20
7.249143606909573
 10
2.280226470127509
 20
7.243630070024362
  0
LWPOLYLINE
  5
5F3
330
1E
100
AcDbEntity
  8
0
100
AcDbPolyline
 90
        2
 70
   128
 43
0.0
 10
2.368443060290813
 20
7.249143606909573
 10
2.368443060290813
 20
7.243630070024362
  0
LWPOLYLINE
  5
5F4
330
1E
100
AcDbEntity
  8
0
100
AcDbPolyline
 90
        2
 70
   128
 43
0.0
 10
2.302280617668338
 20
7.265684217565192
 10
2.302280617668338
 20
7.177467627401881
  0
LWPOLYLINE
  5
5F5
330
1E
100
AcDbEntity
  8
0
100
AcDbPolyline
 90
        2
 70
   128
 43
0.0
 10
2.346388912749984
 20
7.265684217565192
 10
2.346388912749984
 20
7.177467627401881
  0
LWPOLYLINE
  5
5F6
330
1E
100
AcDbEntity
  8
0
100
AcDbPolyline
 90
        2
 70
   128
 43
0.0
 10
2.260929091029281
 20
7.249143606909573
 10
2.260929091029281
 20
7.243630070024362
  0
LWPOLYLINE
  5
5F7
330
1E
100
AcDbEntity
  8
0
100
AcDbPolyline
 90
        2
 70
   128
 43
0.0
 10
2.274712933242291
 20
7.265684217565192
 10
2.260929091029281
 20
7.249143606909573
  0
LWPOLYLINE
  5
5F8
330
1E
100
AcDbEntity
  8
0
100
AcDbPolyline
 90
        2
 70
   128
 43
0.0
 10
2.38774043938904
 20
7.249143606909573
 10
2.373956597176031
 20
7.265684217565192
  0
LWPOLYLINE
  5
5F9
330
1E
100
AcDbEntity
  8
0
100
AcDbPolyline
 90
        2
 70
   128
 43
0.0
 10
2.38774043938904
 20
7.243630070024362
 10
2.38774043938904
 20
7.249143606909573
  0
LWPOLYLINE
  5
5FA
330
1E
100
AcDbEntity
  8
0
100
AcDbPolyline
 90
        2
 70
   128
 43
0.0
 10
2.260929091029281
 20
7.249143606909573
 10
2.280226470127509
 20
7.249143606909573
  0
LWPOLYLINE
  5
5FB
330
1E
100
AcDbEntity
  8
0
100
AcDbPolyline
 90
        2
 70
   128
 43
0.0
 10
2.274712933242291
 20
7.265684217565192
 10
2.302280617668338
 20
7.265684217565192
  0
LWPOLYLINE
  5
5FC
330
1E
100
AcDbEntity
  8
0
100
AcDbPolyline
 90
        2
 70
   128
 43
0.0
 10
2.260929091029281
 20
7.243630070024362
 10
2.302280617668338
 20
7.243630070024362
  0
LWPOLYLINE
  5
5FE
330
1E
100
AcDbEntity
  8
IMAGE
100
AcDbPolyline
 90
        2
 70
   128
 43
0.0
 10
1.008432138436006
 20
5.27602801811437
 10
1.975803177752013
 20
5.276028018114327
  0
LWPOLYLINE
  5
5FF
330
1E
100
AcDbEntity
  8
IMAGE
100
AcDbPolyline
 90
        2
 70
   128
 43
0.0
 10
2.193340847941039
 20
6.293407197978266
 10
2.193336780479625
 20
6.161438286007225
  0
LWPOLYLINE
  5
600
330
1E
100
AcDbEntity
  8
IMAGE
100
AcDbPolyline
 90
        2
 70
   128
 43
0.0
 10
2.451008308290097
 20
6.293407197978266
 10
2.450991725567113
 20
6.161438286007225
  0
LWPOLYLINE
  5
601
330
1E
100
AcDbEntity
  8
IMAGE
100
AcDbPolyline
 90
        2
 70
   128
 43
0.0
 10
2.193347831687458
 20
6.519995067587062
 10
2.451036780479625
 20
6.519995067587062
  0
LWPOLYLINE
  5
602
330
1E
100
AcDbEntity
  8
IMAGE
100
AcDbPolyline
 90
        2
 70
   128
 43
0.0
 10
2.212467301440507
 20
6.161438286007225
 10
2.431861204606231
 20
6.161438286007225
  0
LWPOLYLINE
  5
603
330
1E
100
AcDbEntity
  8
IMAGE
100
AcDbPolyline
 90
        2
 70
   128
 43
0.0
 10
2.193336780479625
 20
6.161438286007225
 10
2.450991725567113
 20
6.161438286007225
  0
LWPOLYLINE
  5
604
330
1E
100
AcDbEntity
  8
IMAGE
100
AcDbPolyline
 90
        2
 70
   128
 43
0.0
 10
2.193347831687458
 20
6.519995067587062
 10
2.451036780479625
 20
6.519995067587062
  0
LWPOLYLINE
  5
605
330
1E
100
AcDbEntity
  8
IMAGE
100
AcDbPolyline
 90
        2
 70
   128
 43
0.0
 10
2.193347831687458
 20
6.519995067587062
 10
2.193343469740107
 20
6.378471550227441
  0
LWPOLYLINE
  5
606
330
1E
100
AcDbEntity
  8
IMAGE
100
AcDbPolyline
 90
        2
 70
   128
 43
0.0
 10
2.451036780479625
 20
6.519995067587062
 10
2.451018997160439
 20
6.378471550227441
  0
LWPOLYLINE
  5
607
330
1E
100
AcDbEntity
  8
IMAGE
100
AcDbPolyline
 90
        2
 70
   128
 43
0.0
 10
1.975803177752012
 20
3.82306383444477
 10
1.500894153136113
 20
3.82306383444477
  0
LWPOLYLINE
  5
608
330
1E
100
AcDbEntity
  8
IMAGE
100
AcDbPolyline
 90
        2
 70
   128
 43
0.0
 10
1.975803177752012
 20
4.084698811245337
 10
1.500894153136113
 20
4.084698811245337
  0
LWPOLYLINE
  5
614
330
1E
100
AcDbEntity
  8
IMAGE
100
AcDbPolyline
 90
        2
 70
   128
 43
0.0
 10
1.684048829397506
 20
6.381982785014125
 42
0.4101231278983581
 10
1.530846979648819
 20
6.177713652015877
  0
LWPOLYLINE
  5
615
330
1E
100
AcDbEntity
  8
IMAGE
100
AcDbPolyline
 90
        2
 70
   128
 43
0.0
 10
1.53084697964882
 20
6.177713652015876
 42
0.4101231278983581
 10
1.684048829397507
 20
6.381982785014124
  0
LWPOLYLINE
  5
616
330
1E
100
AcDbEntity
  8
IMAGE
100
AcDbPolyline
 90
        2
 70
   128
 43
0.0
 10
1.308673210233813
 20
6.315698393564339
 42
0.4101231278983581
 10
1.155471360485126
 20
6.111429260566091
  0
LWPOLYLINE
  5
617
330
1E
100
AcDbEntity
  8
IMAGE
100
AcDbPolyline
 90
        2
 70
   128
 43
0.0
 10
1.155471360485126
 20
6.11142926056609
 42
0.4101231278983581
 10
1.308673210233813
 20
6.315698393564338
  0
LWPOLYLINE
  5
618
330
1E
100
AcDbEntity
  8
IMAGE
100
AcDbPolyline
 90
        2
 70
   128
 43
0.0
 10
1.295753762108862
 20
5.932025988968617
 42
0.4101231278983582
 10
1.400906782199843
 20
5.69934696578857
  0
LWPOLYLINE
  5
619
330
1E
100
AcDbEntity
  8
IMAGE
100
AcDbPolyline
 90
        2
 70
   128
 43
0.0
 10
1.400906782199843
 20
5.699346965788568
 42
0.4101231278983582
 10
1.295753762108862
 20
5.932025988968615
  0
LWPOLYLINE
  5
61A
330
1E
100
AcDbEntity
  8
IMAGE
100
AcDbPolyline
 90
        2
 70
   128
 43
0.0
 10
1.809132586079521
 20
6.162496543815652
 42
0.4101231278983581
 10
1.655930736330834
 20
5.958227410817404
  0
LWPOLYLINE
  5
61B
330
1E
100
AcDbEntity
  8
IMAGE
100
AcDbPolyline
 90
        2
 70
   128
 43
0.0
 10
1.655930736330833
 20
5.958227410817404
 42
0.4101231278983581
 10
1.80913258607952
 20
6.162496543815652
  0
LWPOLYLINE
  5
61C
330
1E
100
AcDbEntity
  8
IMAGE
100
AcDbPolyline
 90
        2
 70
   128
 43
0.0
 10
1.431234690032761
 20
5.529262231521082
 42
0.4101231278983581
 10
1.278032840284074
 20
5.324993098522834
  0
LWPOLYLINE
  5
61D
330
1E
100
AcDbEntity
  8
IMAGE
100
AcDbPolyline
 90
        2
 70
   128
 43
0.0
 10
1.278032840284074
 20
5.324993098522833
 42
0.4101231278983581
 10
1.431234690032761
 20
5.529262231521081
  0
LWPOLYLINE
  5
61E
330
1E
100
AcDbEntity
  8
IMAGE
100
AcDbPolyline
 90
        2
 70
   128
 43
0.0
 10
1.114929996002296
 20
5.944469925386466
 42
0.4101231278983582
 10
1.009776975911314
 20
6.177148948566514
  0
LWPOLYLINE
  5
61F
330
1E
100
AcDbEntity
  8
IMAGE
100
AcDbPolyline
 90
        2
 70
   128
 43
0.0
 10
1.009776975911314
 20
6.177148948566514
 42
0.4101231278983582
 10
1.114929996002296
 20
5.944469925386466
  0
LWPOLYLINE
  5
620
330
1E
100
AcDbEntity
  8
IMAGE
100
AcDbPolyline
 90
        2
 70
   128
 43
0.0
 10
1.646029741797742
 20
5.546145116039881
 42
0.4101231278983582
 10
1.54087672170676
 20
5.778824139219929
  0
LWPOLYLINE
  5
621
330
1E
100
AcDbEntity
  8
IMAGE
100
AcDbPolyline
 90
        2
 70
   128
 43
0.0
 10
1.54087672170676
 20
5.77882413921993
 42
0.4101231278983582
 10
1.646029741797742
 20
5.546145116039883
  0
LWPOLYLINE
  5
622
330
1E
100
AcDbEntity
  8
IMAGE
100
AcDbPolyline
 90
        2
 70
   128
 43
0.0
 10
1.584749001898267
 20
5.464437462840582
 42
0.4101231278983582
 10
1.479595981807285
 20
5.69711648602063
  0
LWPOLYLINE
  5
623
330
1E
100
AcDbEntity
  8
IMAGE
100
AcDbPolyline
 90
        2
 70
   128
 43
0.0
 10
1.479595981807285
 20
5.69711648602063
 42
0.4101231278983582
 10
1.584749001898267
 20
5.464437462840582
  0
LWPOLYLINE
  5
624
330
1E
100
AcDbEntity
  8
IMAGE
100
AcDbPolyline
 90
        2
 70
   128
 43
0.0
 10
1.778804678246603
 20
5.995537208636029
 42
0.4101231278983582
 10
1.673651658155622
 20
6.228216231816076
  0
LWPOLYLINE
  5
625
330
1E
100
AcDbEntity
  8
IMAGE
100
AcDbPolyline
 90
        2
 70
   128
 43
0.0
 10
1.673651658155621
 20
6.228216231816076
 42
0.4101231278983582
 10
1.778804678246603
 20
5.995537208636029
  0
LWPOLYLINE
  5
626
330
1E
100
AcDbEntity
  8
IMAGE
100
AcDbPolyline
 90
        2
 70
   128
 43
0.0
 10
1.431547152149582
 20
5.954683382036379
 42
0.4101231278983582
 10
1.326394132058601
 20
6.187362405216426
  0
LWPOLYLINE
  5
627
330
1E
100
AcDbEntity
  8
IMAGE
100
AcDbPolyline
 90
        2
 70
   128
 43
0.0
 10
1.326394132058599
 20
6.187362405216426
 42
0.4101231278983582
 10
1.43154715214958
 20
5.954683382036379
  0
LWPOLYLINE
  5
628
330
1E
100
AcDbEntity
  8
IMAGE
100
AcDbPolyline
 90
        2
 70
   128
 43
0.0
 10
1.247704932451157
 20
6.015964121935852
 42
0.4101231278983582
 10
1.142551912360175
 20
6.2486431451159
  0
LWPOLYLINE
  5
629
330
1E
100
AcDbEntity
  8
IMAGE
100
AcDbPolyline
 90
        2
 70
   128
 43
0.0
 10
1.142551912360175
 20
6.248643145115901
 42
0.4101231278983582
 10
1.247704932451157
 20
6.015964121935854
  0
LWPOLYLINE
  5
62A
330
1E
100
AcDbEntity
  8
IMAGE
100
AcDbPolyline
 90
        2
 70
   128
 43
0.0
 10
1.176210735901771
 20
5.535931659389969
 42
0.4101231278983582
 10
1.071057715810789
 20
5.768610682570016
  0
LWPOLYLINE
  5
62B
330
1E
100
AcDbEntity
  8
IMAGE
100
AcDbPolyline
 90
        2
 70
   128
 43
0.0
 10
1.071057715810789
 20
5.768610682570018
 42
0.4101231278983582
 10
1.176210735901771
 20
5.53593165938997
  0
LWPOLYLINE
  5
62C
330
1E
100
AcDbEntity
  8
IMAGE
100
AcDbPolyline
 90
        2
 70
   128
 43
0.0
 10
1.247704932451157
 20
5.709560422438481
 42
0.4101231278983582
 10
1.142551912360175
 20
5.942239445618528
  0
LWPOLYLINE
  5
62D
330
1E
100
AcDbEntity
  8
IMAGE
100
AcDbPolyline
 90
        2
 70
   128
 43
0.0
 10
1.142551912360175
 20
5.942239445618528
 42
0.4101231278983582
 10
1.247704932451157
 20
5.709560422438481
  0
LWPOLYLINE
  5
62E
330
1E
100
AcDbEntity
  8
IMAGE
100
AcDbPolyline
 90
        2
 70
   128
 43
0.0
 10
1.666456655097565
 20
5.770841162337956
 42
0.4101231278983582
 10
1.561303635006584
 20
6.003520185518003
  0
LWPOLYLINE
  5
62F
330
1E
100
AcDbEntity
  8
IMAGE
100
AcDbPolyline
 90
        2
 70
   128
 43
0.0
 10
1.561303635006586
 20
6.003520185518003
 42
0.4101231278983582
 10
1.666456655097567
 20
5.770841162337956
  0
LWPOLYLINE
  5
630
330
1E
100
AcDbEntity
  8
IMAGE
100
AcDbPolyline
 90
        2
 70
   128
 43
0.0
 10
1.840085418146078
 20
5.505291289440232
 42
0.4101231278983582
 10
1.734932398055097
 20
5.737970312620279
  0
LWPOLYLINE
  5
631
330
1E
100
AcDbEntity
  8
IMAGE
100
AcDbPolyline
 90
        2
 70
   128
 43
0.0
 10
1.734932398055096
 20
5.737970312620281
 42
0.4101231278983582
 10
1.840085418146078
 20
5.505291289440234
  0
LWPOLYLINE
  5
632
330
1E
100
AcDbEntity
  8
IMAGE
100
AcDbPolyline
 90
        2
 70
   128
 43
0.0
 10
1.496745982195339
 20
6.042713920248422
 42
0.4101231278983581
 10
1.460635959912801
 20
6.295484076226198
  0
LWPOLYLINE
  5
633
330
1E
100
AcDbEntity
  8
IMAGE
100
AcDbPolyline
 90
        2
 70
   128
 43
0.0
 10
1.460635959912801
 20
6.2954840762262
 42
0.4101231278983582
 10
1.496745982195339
 20
6.042713920248423
  0
LWPOLYLINE
  5
634
330
1E
100
AcDbEntity
  8
IMAGE
100
AcDbPolyline
 90
        2
 70
   128
 43
0.0
 10
1.803149681692712
 20
5.715883307451225
 42
0.4101231278983581
 10
1.767039659410174
 20
5.968653463429001
  0
LWPOLYLINE
  5
635
330
1E
100
AcDbEntity
  8
IMAGE
100
AcDbPolyline
 90
        2
 70
   128
 43
0.0
 10
1.767039659410172
 20
5.968653463429001
 42
0.4101231278983582
 10
1.80314968169271
 20
5.715883307451224
  0
LWPOLYLINE
  5
636
330
1E
100
AcDbEntity
  8
IMAGE
100
AcDbPolyline
 90
        2
 70
   128
 43
0.0
 10
1.639734375294112
 20
5.348198868054378
 42
0.4101231278983581
 10
1.603624353011575
 20
5.600969024032155
  0
LWPOLYLINE
  5
637
330
1E
100
AcDbEntity
  8
IMAGE
100
AcDbPolyline
 90
        2
 70
   128
 43
0.0
 10
1.603624353011573
 20
5.600969024032155
 42
0.4101231278983582
 10
1.639734375294111
 20
5.348198868054377
  0
LWPOLYLINE
  5
638
330
1E
100
AcDbEntity
  8
IMAGE
100
AcDbPolyline
 90
        2
 70
   128
 43
0.0
 10
1.455892155595687
 20
5.286918128154903
 42
0.4101231278983581
 10
1.41978213331315
 20
5.539688284132679
  0
LWPOLYLINE
  5
639
330
1E
100
AcDbEntity
  8
IMAGE
100
AcDbPolyline
 90
        2
 70
   128
 43
0.0
 10
1.41978213331315
 20
5.539688284132679
 42
0.4101231278983582
 10
1.455892155595688
 20
5.286918128154902
  0
LWPOLYLINE
  5
63A
330
1E
100
AcDbEntity
  8
IMAGE
100
AcDbPolyline
 90
        2
 70
   128
 43
0.0
 10
1.118848086148577
 20
5.307345041454729
 42
0.4101231278983581
 10
1.08273806386604
 20
5.560115197432505
  0
LWPOLYLINE
  5
63B
330
1E
100
AcDbEntity
  8
IMAGE
100
AcDbPolyline
 90
        2
 70
   128
 43
0.0
 10
1.082738063866041
 20
5.560115197432505
 42
0.4101231278983582
 10
1.118848086148579
 20
5.307345041454728
  0
LWPOLYLINE
  5
63C
330
1E
100
AcDbEntity
  8
IMAGE
100
AcDbPolyline
 90
        2
 70
   128
 43
0.0
 10
1.333330675796739
 20
5.470760347853326
 42
0.4101231278983581
 10
1.297220653514201
 20
5.723530503831103
  0
LWPOLYLINE
  5
63D
330
1E
100
AcDbEntity
  8
IMAGE
100
AcDbPolyline
 90
        2
 70
   128
 43
0.0
 10
1.297220653514201
 20
5.723530503831103
 42
0.4101231278983582
 10
1.333330675796739
 20
5.470760347853325
  0
LWPOLYLINE
  5
63E
330
1E
100
AcDbEntity
  8
IMAGE
100
AcDbPolyline
 90
        2
 70
   128
 43
0.0
 10
1.476319068895513
 20
5.726096764101137
 42
0.4101231278983581
 10
1.440209046612975
 20
5.978866920078914
  0
LWPOLYLINE
  5
63F
330
1E
100
AcDbEntity
  8
IMAGE
100
AcDbPolyline
 90
        2
 70
   128
 43
0.0
 10
1.440209046612973
 20
5.978866920078914
 42
0.4101231278983582
 10
1.476319068895511
 20
5.726096764101137
  0
LWPOLYLINE
  5
640
330
1E
100
AcDbEntity
  8
IMAGE
100
AcDbPolyline
 90
        2
 70
   128
 43
0.0
 10
1.558026722094812
 20
5.909938983799561
 42
0.4101231278983581
 10
1.521916699812274
 20
6.162709139777337
  0
LWPOLYLINE
  5
641
330
1E
100
AcDbEntity
  8
IMAGE
100
AcDbPolyline
 90
        2
 70
   128
 43
0.0
 10
1.521916699812276
 20
6.162709139777337
 42
0.4101231278983582
 10
1.558026722094814
 20
5.90993898379956
  0
LWPOLYLINE
  5
642
330
1E
100
AcDbEntity
  8
IMAGE
100
AcDbPolyline
 90
        2
 70
   128
 43
0.0
 10
1.609094005344374
 20
6.012073550298683
 42
0.4101231278983581
 10
1.572983983061836
 20
6.26484370627646
  0
LWPOLYLINE
  5
643
330
1E
100
AcDbEntity
  8
IMAGE
100
AcDbPolyline
 90
        2
 70
   128
 43
0.0
 10
1.572983983061838
 20
6.264843706276462
 42
0.4101231278983582
 10
1.609094005344376
 20
6.012073550298684
  0
LWPOLYLINE
  5
644
330
1E
100
AcDbEntity
  8
IMAGE
100
AcDbPolyline
 90
        2
 70
   128
 43
0.0
 10
1.241409565947527
 20
5.858871700549999
 42
0.4101231278983581
 10
1.20529954366499
 20
6.111641856527775
  0
LWPOLYLINE
  5
645
330
1E
100
AcDbEntity
  8
IMAGE
100
AcDbPolyline
 90
        2
 70
   128
 43
0.0
 10
1.20529954366499
 20
6.111641856527777
 42
0.4101231278983582
 10
1.241409565947528
 20
5.858871700549999
  0
LWPOLYLINE
  5
646
330
1E
100
AcDbEntity
  8
IMAGE
100
AcDbPolyline
 90
        2
 70
   128
 43
0.0
 10
1.07799425954893
 20
5.715883307451225
 42
0.4101231278983581
 10
1.041884237266392
 20
5.968653463429001
  0
LWPOLYLINE
  5
647
330
1E
100
AcDbEntity
  8
IMAGE
100
AcDbPolyline
 90
        2
 70
   128
 43
0.0
 10
1.04188423726639
 20
5.968653463429001
 42
0.4101231278983582
 10
1.077994259548928
 20
5.715883307451224
  0
LWPOLYLINE
  5
648
330
1E
100
AcDbEntity
  8
IMAGE
100
AcDbPolyline
 90
        2
 70
   128
 43
0.0
 10
1.803149681692712
 20
6.11420811679781
 42
0.4101231278983581
 10
1.767039659410174
 20
6.366978272775586
  0
LWPOLYLINE
  5
649
330
1E
100
AcDbEntity
  8
IMAGE
100
AcDbPolyline
 90
        2
 70
   128
 43
0.0
 10
1.767039659410172
 20
6.366978272775586
 42
0.4101231278983582
 10
1.80314968169271
 20
6.114208116797809
  0
LWPOLYLINE
  5
64A
330
1E
100
AcDbEntity
  8
IMAGE
100
AcDbPolyline
 90
        2
 70
   128
 43
0.0
 10
1.752082398443148
 20
5.31755849810464
 42
0.4101231278983581
 10
1.71597237616061
 20
5.570328654082416
  0
LWPOLYLINE
  5
64B
330
1E
100
AcDbEntity
  8
IMAGE
100
AcDbPolyline
 90
        2
 70
   128
 43
0.0
 10
1.715972376160612
 20
5.570328654082418
 42
0.4101231278983582
 10
1.75208239844315
 20
5.317558498104641
  0
LWPOLYLINE
  5
64C
330
1E
100
AcDbEntity
  8
IMAGE
100
AcDbPolyline
 90
        2
 70
   128
 43
0.0
 10
1.390491795723097
 20
5.542170055223579
 42
0.4101231278983583
 10
1.475070637008744
 20
5.783091422206775
  0
LWPOLYLINE
  5
64D
330
1E
100
AcDbEntity
  8
IMAGE
100
AcDbPolyline
 90
        2
 70
   128
 43
0.0
 10
1.475070637008745
 20
5.783091422206775
 42
0.4101231278983584
 10
1.390491795723099
 20
5.542170055223577
  0
LWPOLYLINE
  5
64E
330
1E
100
AcDbEntity
  8
IMAGE
100
AcDbPolyline
 90
        2
 70
   128
 43
0.0
 10
1.195267276924364
 20
5.35543371161156
 42
0.4101231278983583
 10
1.27984611821001
 20
5.596355078594757
  0
LWPOLYLINE
  5
64F
330
1E
100
AcDbEntity
  8
IMAGE
100
AcDbPolyline
 90
        2
 70
   128
 43
0.0
 10
1.27984611821001
 20
5.596355078594756
 42
0.4101231278983584
 10
1.195267276924364
 20
5.355433711611558
  0
LWPOLYLINE
  5
650
330
1E
100
AcDbEntity
  8
IMAGE
100
AcDbPolyline
 90
        2
 70
   128
 43
0.0
 10
1.169803209254962
 20
5.533682039604851
 42
0.4101231278983583
 10
1.254382050540608
 20
5.774603406588048
  0
LWPOLYLINE
  5
651
330
1E
100
AcDbEntity
  8
IMAGE
100
AcDbPolyline
 90
        2
 70
   128
 43
0.0
 10
1.254382050540608
 20
5.774603406588047
 42
0.4101231278983584
 10
1.169803209254962
 20
5.533682039604849
  0
LWPOLYLINE
  5
652
330
1E
100
AcDbEntity
  8
IMAGE
100
AcDbPolyline
 90
        2
 70
   128
 43
0.0
 10
1.653620494973566
 20
5.644026242648315
 42
0.4101231278983583
 10
1.738199336259213
 20
5.884947609631512
  0
LWPOLYLINE
  5
653
330
1E
100
AcDbEntity
  8
IMAGE
100
AcDbPolyline
 90
        2
 70
   128
 43
0.0
 10
1.738199336259213
 20
5.884947609631513
 42
0.4101231278983584
 10
1.653620494973567
 20
5.644026242648315
  0
LWPOLYLINE
  5
654
330
1E
100
AcDbEntity
  8
IMAGE
100
AcDbPolyline
 90
        2
 70
   128
 43
0.0
 10
1.280147502489031
 20
5.890178695591432
 42
0.4101231278983583
 10
1.364726343774678
 20
6.131100062574629
  0
LWPOLYLINE
  5
655
330
1E
100
AcDbEntity
  8
IMAGE
100
AcDbPolyline
 90
        2
 70
   128
 43
0.0
 10
1.364726343774678
 20
6.131100062574628
 42
0.4101231278983584
 10
1.280147502489032
 20
5.89017869559143
  0
LWPOLYLINE
  5
656
330
1E
100
AcDbEntity
  8
IMAGE
100
AcDbPolyline
 90
        2
 70
   128
 43
0.0
 10
1.348051682940764
 20
6.115111109487726
 42
0.4101231278983583
 10
1.43263052422641
 20
6.356032476470923
  0
LWPOLYLINE
  5
657
330
1E
100
AcDbEntity
  8
IMAGE
100
AcDbPolyline
 90
        2
 70
   128
 43
0.0
 10
1.432630524226412
 20
6.356032476470922
 42
0.4101231278983584
 10
1.348051682940766
 20
6.115111109487724
  0
LWPOLYLINE
  5
658
330
1E
100
AcDbEntity
  8
IMAGE
100
AcDbPolyline
 90
        2
 70
   128
 43
0.0
 10
1.038238859629729
 20
6.132087140725182
 42
0.4101231278983583
 10
1.122817700915375
 20
6.373008507708379
  0
LWPOLYLINE
  5
659
330
1E
100
AcDbEntity
  8
IMAGE
100
AcDbPolyline
 90
        2
 70
   128
 43
0.0
 10
1.122817700915375
 20
6.373008507708378
 42
0.4101231278983584
 10
1.038238859629729
 20
6.132087140725181
  0
LWPOLYLINE
  5
65A
330
1E
100
AcDbEntity
  8
IMAGE
100
AcDbPolyline
 90
        2
 70
   128
 43
0.0
 10
1.50932411151363
 20
5.724662391026233
 42
0.4101231278983583
 10
1.593902952799276
 20
5.96558375800943
  0
LWPOLYLINE
  5
65B
330
1E
100
AcDbEntity
  8
IMAGE
100
AcDbPolyline
 90
        2
 70
   128
 43
0.0
 10
1.593902952799278
 20
5.965583758009429
 42
0.4101231278983584
 10
1.509324111513632
 20
5.724662391026232
  0
LWPOLYLINE
  5
65C
330
1E
100
AcDbEntity
  8
IMAGE
100
AcDbPolyline
 90
        2
 70
   128
 43
0.0
 10
3.137119668873873
 20
6.338286121519205
 42
0.4101231278983581
 10
2.983917819125186
 20
6.134016988520957
  0
LWPOLYLINE
  5
65D
330
1E
100
AcDbEntity
  8
IMAGE
100
AcDbPolyline
 90
        2
 70
   128
 43
0.0
 10
2.983917819125186
 20
6.134016988520956
 42
0.4101231278983581
 10
3.137119668873873
 20
6.338286121519204
  0
LWPOLYLINE
  5
65E
330
1E
100
AcDbEntity
  8
IMAGE
100
AcDbPolyline
 90
        2
 70
   128
 43
0.0
 10
3.124200220748922
 20
5.954613716923483
 42
0.4101231278983582
 10
3.229353240839903
 20
5.721934693743436
  0
LWPOLYLINE
  5
65F
330
1E
100
AcDbEntity
  8
IMAGE
100
AcDbPolyline
 90
        2
 70
   128
 43
0.0
 10
3.229353240839904
 20
5.721934693743434
 42
0.4101231278983582
 10
3.124200220748923
 20
5.954613716923481
  0
LWPOLYLINE
  5
660
330
1E
100
AcDbEntity
  8
IMAGE
100
AcDbPolyline
 90
        2
 70
   128
 43
0.0
 10
2.861356339326237
 20
5.694838352574722
 42
0.4101231278983581
 10
2.70815448957755
 20
5.490569219576474
  0
LWPOLYLINE
  5
661
330
1E
100
AcDbEntity
  8
IMAGE
100
AcDbPolyline
 90
        2
 70
   128
 43
0.0
 10
2.70815448957755
 20
5.490569219576475
 42
0.4101231278983581
 10
2.861356339326237
 20
5.694838352574723
  0
LWPOLYLINE
  5
662
330
1E
100
AcDbEntity
  8
IMAGE
100
AcDbPolyline
 90
        2
 70
   128
 43
0.0
 10
3.259681148672822
 20
5.551849959475948
 42
0.4101231278983581
 10
3.106479298924135
 20
5.3475808264777
  0
LWPOLYLINE
  5
663
330
1E
100
AcDbEntity
  8
IMAGE
100
AcDbPolyline
 90
        2
 70
   128
 43
0.0
 10
3.106479298924134
 20
5.347580826477699
 42
0.4101231278983581
 10
3.259681148672822
 20
5.551849959475947
  0
LWPOLYLINE
  5
664
330
1E
100
AcDbEntity
  8
IMAGE
100
AcDbPolyline
 90
        2
 70
   128
 43
0.0
 10
2.943376454642356
 20
5.967057653341332
 42
0.4101231278983582
 10
2.838223434551375
 20
6.199736676521379
  0
LWPOLYLINE
  5
665
330
1E
100
AcDbEntity
  8
IMAGE
100
AcDbPolyline
 90
        2
 70
   128
 43
0.0
 10
2.838223434551375
 20
6.199736676521379
 42
0.4101231278983582
 10
2.943376454642356
 20
5.967057653341332
  0
LWPOLYLINE
  5
666
330
1E
100
AcDbEntity
  8
IMAGE
100
AcDbPolyline
 90
        2
 70
   128
 43
0.0
 10
3.259993610789641
 20
5.977271109991245
 42
0.4101231278983582
 10
3.15484059069866
 20
6.209950133171292
  0
LWPOLYLINE
  5
667
330
1E
100
AcDbEntity
  8
IMAGE
100
AcDbPolyline
 90
        2
 70
   128
 43
0.0
 10
3.154840590698659
 20
6.209950133171292
 42
0.4101231278983582
 10
3.25999361078964
 20
5.977271109991245
  0
LWPOLYLINE
  5
668
330
1E
100
AcDbEntity
  8
IMAGE
100
AcDbPolyline
 90
        2
 70
   128
 43
0.0
 10
3.076151391091217
 20
6.038551849890718
 42
0.4101231278983582
 10
2.970998371000236
 20
6.271230873070765
  0
LWPOLYLINE
  5
669
330
1E
100
AcDbEntity
  8
IMAGE
100
AcDbPolyline
 90
        2
 70
   128
 43
0.0
 10
2.970998371000236
 20
6.271230873070767
 42
0.4101231278983582
 10
3.076151391091217
 20
6.03855184989072
  0
LWPOLYLINE
  5
66A
330
1E
100
AcDbEntity
  8
IMAGE
100
AcDbPolyline
 90
        2
 70
   128
 43
0.0
 10
2.797381201690122
 20
5.699099122476812
 42
0.4101231278983582
 10
2.692228181599141
 20
5.931778145656859
  0
LWPOLYLINE
  5
66B
330
1E
100
AcDbEntity
  8
IMAGE
100
AcDbPolyline
 90
        2
 70
   128
 43
0.0
 10
2.69222818159914
 20
5.931778145656859
 42
0.4101231278983582
 10
2.797381201690121
 20
5.699099122476812
  0
LWPOLYLINE
  5
66C
330
1E
100
AcDbEntity
  8
IMAGE
100
AcDbPolyline
 90
        2
 70
   128
 43
0.0
 10
3.004657194541831
 20
5.558519387344834
 42
0.4101231278983582
 10
2.89950417445085
 20
5.791198410524882
  0
LWPOLYLINE
  5
66D
330
1E
100
AcDbEntity
  8
IMAGE
100
AcDbPolyline
 90
        2
 70
   128
 43
0.0
 10
2.899504174450849
 20
5.791198410524883
 42
0.4101231278983582
 10
3.00465719454183
 20
5.558519387344836
  0
LWPOLYLINE
  5
66E
330
1E
100
AcDbEntity
  8
IMAGE
100
AcDbPolyline
 90
        2
 70
   128
 43
0.0
 10
3.076151391091217
 20
5.732148150393347
 42
0.4101231278983582
 10
2.970998371000236
 20
5.964827173573394
  0
LWPOLYLINE
  5
66F
330
1E
100
AcDbEntity
  8
IMAGE
100
AcDbPolyline
 90
        2
 70
   128
 43
0.0
 10
2.970998371000236
 20
5.964827173573394
 42
0.4101231278983582
 10
3.076151391091217
 20
5.732148150393347
  0
LWPOLYLINE
  5
670
330
1E
100
AcDbEntity
  8
IMAGE
100
AcDbPolyline
 90
        2
 70
   128
 43
0.0
 10
2.794092695039951
 20
6.167436214702412
 42
0.4101231278983581
 10
2.757982672757414
 20
6.420206370680189
  0
LWPOLYLINE
  5
671
330
1E
100
AcDbEntity
  8
IMAGE
100
AcDbPolyline
 90
        2
 70
   128
 43
0.0
 10
2.757982672757416
 20
6.420206370680189
 42
0.4101231278983582
 10
2.794092695039954
 20
6.167436214702411
  0
LWPOLYLINE
  5
672
330
1E
100
AcDbEntity
  8
IMAGE
100
AcDbPolyline
 90
        2
 70
   128
 43
0.0
 10
3.242865096219876
 20
5.335608290848254
 42
0.4101231278983581
 10
3.206755073937339
 20
5.58837844682603
  0
LWPOLYLINE
  5
673
330
1E
100
AcDbEntity
  8
IMAGE
100
AcDbPolyline
 90
        2
 70
   128
 43
0.0
 10
3.206755073937339
 20
5.58837844682603
 42
0.4101231278983582
 10
3.242865096219877
 20
5.335608290848253
  0
LWPOLYLINE
  5
674
330
1E
100
AcDbEntity
  8
IMAGE
100
AcDbPolyline
 90
        2
 70
   128
 43
0.0
 10
2.947294544788638
 20
5.329932769409595
 42
0.4101231278983581
 10
2.911184522506101
 20
5.582702925387371
  0
LWPOLYLINE
  5
675
330
1E
100
AcDbEntity
  8
IMAGE
100
AcDbPolyline
 90
        2
 70
   128
 43
0.0
 10
2.911184522506102
 20
5.582702925387371
 42
0.4101231278983582
 10
2.94729454478864
 20
5.329932769409594
  0
LWPOLYLINE
  5
676
330
1E
100
AcDbEntity
  8
IMAGE
100
AcDbPolyline
 90
        2
 70
   128
 43
0.0
 10
3.1617771344368
 20
5.493348075808192
 42
0.4101231278983581
 10
3.125667112154262
 20
5.746118231785969
  0
LWPOLYLINE
  5
677
330
1E
100
AcDbEntity
  8
IMAGE
100
AcDbPolyline
 90
        2
 70
   128
 43
0.0
 10
3.125667112154262
 20
5.746118231785969
 42
0.4101231278983582
 10
3.1617771344368
 20
5.493348075808191
  0
LWPOLYLINE
  5
678
330
1E
100
AcDbEntity
  8
IMAGE
100
AcDbPolyline
 90
        2
 70
   128
 43
0.0
 10
3.304765527535574
 20
5.748684492056003
 42
0.4101231278983581
 10
3.268655505253036
 20
6.00145464803378
  0
LWPOLYLINE
  5
679
330
1E
100
AcDbEntity
  8
IMAGE
100
AcDbPolyline
 90
        2
 70
   128
 43
0.0
 10
3.268655505253034
 20
6.00145464803378
 42
0.4101231278983582
 10
3.304765527535572
 20
5.748684492056002
  0
LWPOLYLINE
  5
67A
330
1E
100
AcDbEntity
  8
IMAGE
100
AcDbPolyline
 90
        2
 70
   128
 43
0.0
 10
3.069856024587588
 20
5.881459428504864
 42
0.4101231278983581
 10
3.033746002305051
 20
6.134229584482641
  0
LWPOLYLINE
  5
67B
330
1E
100
AcDbEntity
  8
IMAGE
100
AcDbPolyline
 90
        2
 70
   128
 43
0.0
 10
3.033746002305051
 20
6.134229584482643
 42
0.4101231278983582
 10
3.069856024587588
 20
5.881459428504865
  0
LWPOLYLINE
  5
67C
330
1E
100
AcDbEntity
  8
IMAGE
100
AcDbPolyline
 90
        2
 70
   128
 43
0.0
 10
2.906440718188989
 20
5.738471035406091
 42
0.4101231278983581
 10
2.870330695906452
 20
5.991241191383867
  0
LWPOLYLINE
  5
67D
330
1E
100
AcDbEntity
  8
IMAGE
100
AcDbPolyline
 90
        2
 70
   128
 43
0.0
 10
2.870330695906451
 20
5.991241191383867
 42
0.4101231278983582
 10
2.906440718188989
 20
5.73847103540609
  0
LWPOLYLINE
  5
67E
330
1E
100
AcDbEntity
  8
IMAGE
100
AcDbPolyline
 90
        2
 70
   128
 43
0.0
 10
2.814519608339778
 20
5.329932769409595
 42
0.4101231278983581
 10
2.77840958605724
 20
5.582702925387371
  0
LWPOLYLINE
  5
67F
330
1E
100
AcDbEntity
  8
IMAGE
100
AcDbPolyline
 90
        2
 70
   128
 43
0.0
 10
2.778409586057239
 20
5.582702925387371
 42
0.4101231278983582
 10
2.814519608339777
 20
5.329932769409594
  0
LWPOLYLINE
  5
680
330
1E
100
AcDbEntity
  8
IMAGE
100
AcDbPolyline
 90
        2
 70
   128
 43
0.0
 10
2.640890845291266
 20
5.350359682709418
 42
0.4101231278983581
 10
2.604780823008729
 20
5.603129838687195
  0
LWPOLYLINE
  5
681
330
1E
100
AcDbEntity
  8
IMAGE
100
AcDbPolyline
 90
        2
 70
   128
 43
0.0
 10
2.604780823008729
 20
5.603129838687197
 42
0.4101231278983582
 10
2.640890845291267
 20
5.350359682709419
  0
LWPOLYLINE
  5
682
330
1E
100
AcDbEntity
  8
IMAGE
100
AcDbPolyline
 90
        2
 70
   128
 43
0.0
 10
2.691958128540829
 20
5.493348075808192
 42
0.4101231278983581
 10
2.655848106258291
 20
5.746118231785969
  0
LWPOLYLINE
  5
683
330
1E
100
AcDbEntity
  8
IMAGE
100
AcDbPolyline
 90
        2
 70
   128
 43
0.0
 10
2.655848106258291
 20
5.746118231785969
 42
0.4101231278983582
 10
2.691958128540829
 20
5.493348075808191
  0
LWPOLYLINE
  5
684
330
1E
100
AcDbEntity
  8
IMAGE
100
AcDbPolyline
 90
        2
 70
   128
 43
0.0
 10
2.794092695039951
 20
5.952953625054252
 42
0.4101231278983581
 10
2.757982672757414
 20
6.205723781032029
  0
LWPOLYLINE
  5
685
330
1E
100
AcDbEntity
  8
IMAGE
100
AcDbPolyline
 90
        2
 70
   128
 43
0.0
 10
2.757982672757416
 20
6.205723781032029
 42
0.4101231278983582
 10
2.794092695039954
 20
5.952953625054251
  0
LWPOLYLINE
  5
686
330
1E
100
AcDbEntity
  8
IMAGE
100
AcDbPolyline
 90
        2
 70
   128
 43
0.0
 10
3.218938254363158
 20
5.564757783178444
 42
0.4101231278983583
 10
3.303517095648804
 20
5.805679150161641
  0
LWPOLYLINE
  5
687
330
1E
100
AcDbEntity
  8
IMAGE
100
AcDbPolyline
 90
        2
 70
   128
 43
0.0
 10
3.303517095648806
 20
5.80567915016164
 42
0.4101231278983584
 10
3.21893825436316
 20
5.564757783178443
  0
LWPOLYLINE
  5
688
330
1E
100
AcDbEntity
  8
IMAGE
100
AcDbPolyline
 90
        2
 70
   128
 43
0.0
 10
3.023713735564423
 20
5.378021439566426
 42
0.4101231278983583
 10
3.10829257685007
 20
5.618942806549623
  0
LWPOLYLINE
  5
689
330
1E
100
AcDbEntity
  8
IMAGE
100
AcDbPolyline
 90
        2
 70
   128
 43
0.0
 10
3.108292576850071
 20
5.618942806549622
 42
0.4101231278983584
 10
3.023713735564425
 20
5.378021439566424
  0
LWPOLYLINE
  5
68A
330
1E
100
AcDbEntity
  8
IMAGE
100
AcDbPolyline
 90
        2
 70
   128
 43
0.0
 10
2.998249667895022
 20
5.556269767559717
 42
0.4101231278983583
 10
3.082828509180669
 20
5.797191134542914
  0
LWPOLYLINE
  5
68B
330
1E
100
AcDbEntity
  8
IMAGE
100
AcDbPolyline
 90
        2
 70
   128
 43
0.0
 10
3.082828509180669
 20
5.797191134542913
 42
0.4101231278983584
 10
2.998249667895023
 20
5.556269767559715
  0
LWPOLYLINE
  5
68C
330
1E
100
AcDbEntity
  8
IMAGE
100
AcDbPolyline
 90
        2
 70
   128
 43
0.0
 10
2.612044641575787
 20
5.933986462593116
 42
0.4101231278983583
 10
2.696623482861434
 20
6.174907829576313
  0
LWPOLYLINE
  5
68D
330
1E
100
AcDbEntity
  8
IMAGE
100
AcDbPolyline
 90
        2
 70
   128
 43
0.0
 10
2.696623482861435
 20
6.174907829576314
 42
0.4101231278983584
 10
2.612044641575788
 20
5.933986462593116
  0
LWPOLYLINE
  5
68E
330
1E
100
AcDbEntity
  8
IMAGE
100
AcDbPolyline
 90
        2
 70
   128
 43
0.0
 10
3.108593961129091
 20
5.912766423546298
 42
0.4101231278983583
 10
3.193172802414737
 20
6.153687790529494
  0
LWPOLYLINE
  5
68F
330
1E
100
AcDbEntity
  8
IMAGE
100
AcDbPolyline
 90
        2
 70
   128
 43
0.0
 10
3.193172802414738
 20
6.153687790529493
 42
0.4101231278983584
 10
3.108593961129092
 20
5.912766423546296
  0
LWPOLYLINE
  5
690
330
1E
100
AcDbEntity
  8
IMAGE
100
AcDbPolyline
 90
        2
 70
   128
 43
0.0
 10
3.176498141580824
 20
6.137698837442592
 42
0.4101231278983583
 10
3.26107698286647
 20
6.378620204425788
  0
LWPOLYLINE
  5
691
330
1E
100
AcDbEntity
  8
IMAGE
100
AcDbPolyline
 90
        2
 70
   128
 43
0.0
 10
3.261076982866471
 20
6.378620204425788
 42
0.4101231278983584
 10
3.176498141580825
 20
6.13769883744259
  0
LWPOLYLINE
  5
692
330
1E
100
AcDbEntity
  8
IMAGE
100
AcDbPolyline
 90
        2
 70
   128
 43
0.0
 10
2.866685318269789
 20
6.154674868680048
 42
0.4101231278983583
 10
2.951264159555435
 20
6.395596235663245
  0
LWPOLYLINE
  5
693
330
1E
100
AcDbEntity
  8
IMAGE
100
AcDbPolyline
 90
        2
 70
   128
 43
0.0
 10
2.951264159555436
 20
6.395596235663244
 42
0.4101231278983584
 10
2.86668531826979
 20
6.154674868680046
  0
LWPOLYLINE
  5
694
330
1E
100
AcDbEntity
  8
IMAGE
100
AcDbPolyline
 90
        2
 70
   128
 43
0.0
 10
2.658728765636354
 20
6.18862693115496
 42
0.4101231278983583
 10
2.743307606922001
 20
6.429548298138157
  0
LWPOLYLINE
  5
695
330
1E
100
AcDbEntity
  8
IMAGE
100
AcDbPolyline
 90
        2
 70
   128
 43
0.0
 10
2.743307606922001
 20
6.429548298138156
 42
0.4101231278983584
 10
2.658728765636355
 20
6.188626931154958
  0
LWPOLYLINE
  5
696
330
1E
100
AcDbEntity
  8
IMAGE
100
AcDbPolyline
 90
        2
 70
   128
 43
0.0
 10
2.55262848368052
 20
5.679345994031274
 42
0.4101231278983583
 10
2.637207324966166
 20
5.920267361014471
  0
LWPOLYLINE
  5
697
330
1E
100
AcDbEntity
  8
IMAGE
100
AcDbPolyline
 90
        2
 70
   128
 43
0.0
 10
2.637207324966167
 20
5.92026736101447
 42
0.4101231278983584
 10
2.552628483680521
 20
5.679345994031272
  0
LWPOLYLINE
  5
698
330
1E
100
AcDbEntity
  8
IMAGE
100
AcDbPolyline
 90
        2
 70
   128
 43
0.0
 10
1.975803177752013
 20
5.403037263663989
 10
1.975803177752012
 20
3.82306383444477
  0
LWPOLYLINE
  5
699
330
1E
100
AcDbEntity
  8
IMAGE
100
AcDbPolyline
 90
        2
 70
   128
 43
0.0
 10
2.212467301440505
 20
5.403037263663989
 10
2.212467301440507
 20
4.595213280121177
  0
LWPOLYLINE
  5
69A
330
1E
100
AcDbEntity
  8
IMAGE
100
AcDbPolyline
 90
        2
 70
   128
 43
0.0
 10
2.189798719391771
 20
5.403037263663989
 10
2.189798719391771
 20
2.957770392272452
  0
LWPOLYLINE
  5
69B
330
1E
100
AcDbEntity
  8
IMAGE
100
AcDbPolyline
 90
        2
 70
   128
 43
0.0
 10
2.431861204606229
 20
5.403037263663989
 10
2.431861204606231
 20
4.595213280121177
  0
LWPOLYLINE
  5
69C
330
1E
100
AcDbEntity
  8
IMAGE
100
AcDbPolyline
 90
        2
 70
   128
 43
0.0
 10
2.314132337084795
 20
5.471088745463282
 42
0.4155348312255251
 10
2.321017117256112
 20
5.420050134113806
  0
LWPOLYLINE
  5
69D
330
1E
100
AcDbEntity
  8
IMAGE
100
AcDbPolyline
 90
        2
 70
   128
 43
0.0
 10
2.294729774783893
 20
5.471088745463308
 10
2.301614554955208
 20
5.420050134113736
  0
LWPOLYLINE
  5
69E
330
1E
100
AcDbEntity
  8
IMAGE
100
AcDbPolyline
 90
        2
 70
   128
 43
0.0
 10
2.429295932677789
 20
5.471088745463381
 10
2.436180712848885
 20
5.420050134113811
  0
LWPOLYLINE
  5
69F
330
1E
100
AcDbEntity
  8
IMAGE
100
AcDbPolyline
 90
        2
 70
   128
 43
0.0
 10
2.42929593267764
 20
5.471088745463356
 42
0.4155348312255251
 10
2.436180712848957
 20
5.42005013411388
  0
LWPOLYLINE
  5
6A0
330
1E
100
AcDbEntity
  8
IMAGE
100
AcDbPolyline
 90
        2
 70
   128
 43
0.0
 10
2.40989337037685
 20
5.471088745463376
 10
2.416778150547945
 20
5.420050134113806
  0
LWPOLYLINE
  5
6A1
330
1E
100
AcDbEntity
  8
IMAGE
100
AcDbPolyline
 90
        2
 70
   128
 43
0.0
 10
2.4098933703767
 20
5.471088745463351
 42
0.4155348312255251
 10
2.416778150548017
 20
5.420050134113875
  0
LWPOLYLINE
  5
6A2
330
1E
100
AcDbEntity
  8
IMAGE
100
AcDbPolyline
 90
        2
 70
   128
 43
0.0
 10
2.390490808075791
 20
5.471088745463376
 10
2.397375588247006
 20
5.420050134113806
  0
LWPOLYLINE
  5
6A3
330
1E
100
AcDbEntity
  8
IMAGE
100
AcDbPolyline
 90
        2
 70
   128
 43
0.0
 10
2.390490808075754
 20
5.471088745463351
 42
0.4155348312255251
 10
2.397375588247071
 20
5.420050134113875
  0
LWPOLYLINE
  5
6A4
330
1E
100
AcDbEntity
  8
IMAGE
100
AcDbPolyline
 90
        2
 70
   128
 43
0.0
 10
2.371714134881242
 20
5.471088745463376
 10
2.378598915052559
 20
5.420050134113806
  0
LWPOLYLINE
  5
6A5
330
1E
100
AcDbEntity
  8
IMAGE
100
AcDbPolyline
 90
        2
 70
   128
 43
0.0
 10
2.371714134881202
 20
5.471088745463351
 42
0.4155348312255251
 10
2.378598915052519
 20
5.420050134113875
  0
LWPOLYLINE
  5
6A6
330
1E
100
AcDbEntity
  8
IMAGE
100
AcDbPolyline
 90
        2
 70
   128
 43
0.0
 10
2.314132337084838
 20
5.471088745463308
 10
2.321017117256153
 20
5.420050134113736
  0
LWPOLYLINE
  5
6A7
330
1E
100
AcDbEntity
  8
IMAGE
100
AcDbPolyline
 90
        2
 70
   128
 43
0.0
 10
2.33290901027935
 20
5.471088745463282
 42
0.4155348312255251
 10
2.339793790450667
 20
5.420050134113806
  0
LWPOLYLINE
  5
6A8
330
1E
100
AcDbEntity
  8
IMAGE
100
AcDbPolyline
 90
        2
 70
   128
 43
0.0
 10
2.332909010279386
 20
5.471088745463308
 10
2.3397937904506
 20
5.420050134113736
  0
LWPOLYLINE
  5
6A9
330
1E
100
AcDbEntity
  8
IMAGE
100
AcDbPolyline
 90
        2
 70
   128
 43
0.0
 10
2.352311572580294
 20
5.471088745463282
 42
0.4155348312255251
 10
2.359196352751612
 20
5.420050134113806
  0
LWPOLYLINE
  5
6AA
330
1E
100
AcDbEntity
  8
IMAGE
100
AcDbPolyline
 90
        2
 70
   128
 43
0.0
 10
2.352311572580444
 20
5.471088745463308
 10
2.359196352751539
 20
5.420050134113736
  0
LWPOLYLINE
  5
6AB
330
1E
100
AcDbEntity
  8
IMAGE
100
AcDbPolyline
 90
        2
 70
   128
 43
0.0
 10
2.438427753720845
 20
5.488101615913164
 10
2.438427753720845
 20
5.403037263663989
  0
LWPOLYLINE
  5
6AC
330
1E
100
AcDbEntity
  8
IMAGE
100
AcDbPolyline
 90
        2
 70
   128
 43
0.0
 10
2.275327212482802
 20
5.471088745463282
 42
0.4155348312255251
 10
2.282211992654119
 20
5.420050134113806
  0
LWPOLYLINE
  5
6AD
330
1E
100
AcDbEntity
  8
IMAGE
100
AcDbPolyline
 90
        2
 70
   128
 43
0.0
 10
2.275327212482941
 20
5.471088745463308
 10
2.282211992654047
 20
5.420050134113736
  0
LWPOLYLINE
  5
6AE
330
1E
100
AcDbEntity
  8
IMAGE
100
AcDbPolyline
 90
        2
 70
   128
 43
0.0
 10
2.255924650182007
 20
5.471088745463308
 10
2.262809430353102
 20
5.420050134113736
  0
LWPOLYLINE
  5
6AF
330
1E
100
AcDbEntity
  8
IMAGE
100
AcDbPolyline
 90
        2
 70
   128
 43
0.0
 10
2.255924650181859
 20
5.471088745463282
 42
0.4155348312255251
 10
2.262809430353176
 20
5.420050134113806
  0
LWPOLYLINE
  5
6B0
330
1E
100
AcDbEntity
  8
IMAGE
100
AcDbPolyline
 90
        2
 70
   128
 43
0.0
 10
2.236522087880948
 20
5.471088745463308
 10
2.243406868052162
 20
5.420050134113736
  0
LWPOLYLINE
  5
6B1
330
1E
100
AcDbEntity
  8
IMAGE
100
AcDbPolyline
 90
        2
 70
   128
 43
0.0
 10
2.236522087880912
 20
5.471088745463282
 42
0.4155348312255251
 10
2.243406868052229
 20
5.420050134113806
  0
LWPOLYLINE
  5
6B2
330
1E
100
AcDbEntity
  8
IMAGE
100
AcDbPolyline
 90
        2
 70
   128
 43
0.0
 10
2.2177454146864
 20
5.471088745463308
 10
2.224630194857716
 20
5.420050134113736
  0
LWPOLYLINE
  5
6B3
330
1E
100
AcDbEntity
  8
IMAGE
100
AcDbPolyline
 90
        2
 70
   128
 43
0.0
 10
2.217745414686357
 20
5.471088745463282
 42
0.4155348312255251
 10
2.224630194857674
 20
5.420050134113806
  0
LWPOLYLINE
  5
6B4
330
1E
100
AcDbEntity
  8
IMAGE
100
AcDbPolyline
 90
        2
 70
   128
 43
0.0
 10
2.198342852385455
 20
5.471088745463308
 10
2.205227632556771
 20
5.420050134113736
  0
LWPOLYLINE
  5
6B5
330
1E
100
AcDbEntity
  8
IMAGE
100
AcDbPolyline
 90
        2
 70
   128
 43
0.0
 10
2.198342852385318
 20
5.471088745463282
 42
0.4155348312255251
 10
2.205227632556635
 20
5.420050134113806
  0
LWPOLYLINE
  5
6B6
330
1E
100
AcDbEntity
  8
IMAGE
100
AcDbPolyline
 90
        2
 70
   128
 43
0.0
 10
2.178940290084503
 20
5.471088745463308
 10
2.185825070255609
 20
5.420050134113736
  0
LWPOLYLINE
  5
6B7
330
1E
100
AcDbEntity
  8
IMAGE
100
AcDbPolyline
 90
        2
 70
   128
 43
0.0
 10
2.178940290084364
 20
5.471088745463282
 42
0.4155348312255251
 10
2.185825070255682
 20
5.420050134113806
  0
LWPOLYLINE
  5
6B8
330
1E
100
AcDbEntity
  8
IMAGE
100
AcDbPolyline
 90
        2
 70
   128
 43
0.0
 10
2.159537727783559
 20
5.471088745463308
 10
2.166422507954664
 20
5.420050134113736
  0
LWPOLYLINE
  5
6B9
330
1E
100
AcDbEntity
  8
IMAGE
100
AcDbPolyline
 90
        2
 70
   128
 43
0.0
 10
2.159537727783421
 20
5.471088745463282
 42
0.4155348312255251
 10
2.166422507954739
 20
5.420050134113806
  0
LWPOLYLINE
  5
6BA
330
1E
100
AcDbEntity
  8
IMAGE
100
AcDbPolyline
 90
        2
 70
   128
 43
0.0
 10
2.294729774783756
 20
5.471088745463282
 42
0.4155348312255251
 10
2.301614554955073
 20
5.420050134113806
  0
LWPOLYLINE
  5
6BB
330
1E
100
AcDbEntity
  8
IMAGE
100
AcDbPolyline
 90
        2
 70
   128
 43
0.0
 10
2.101330040880478
 20
5.471088745463282
 42
0.4155348312255251
 10
2.108214821051796
 20
5.420050134113806
  0
LWPOLYLINE
  5
6BC
330
1E
100
AcDbEntity
  8
IMAGE
100
AcDbPolyline
 90
        2
 70
   128
 43
0.0
 10
2.081301589472961
 20
5.471088745463308
 10
2.088186369644385
 20
5.420050134113736
  0
LWPOLYLINE
  5
6BD
330
1E
100
AcDbEntity
  8
IMAGE
100
AcDbPolyline
 90
        2
 70
   128
 43
0.0
 10
2.139509276375899
 20
5.471088745463308
 10
2.146394056547323
 20
5.420050134113736
  0
LWPOLYLINE
  5
6BE
330
1E
100
AcDbEntity
  8
IMAGE
100
AcDbPolyline
 90
        2
 70
   128
 43
0.0
 10
2.13950927637608
 20
5.471088745463282
 42
0.4155348312255251
 10
2.146394056547397
 20
5.420050134113806
  0
LWPOLYLINE
  5
6BF
330
1E
100
AcDbEntity
  8
IMAGE
100
AcDbPolyline
 90
        2
 70
   128
 43
0.0
 10
2.120732603181463
 20
5.471088745463308
 10
2.127617383352775
 20
5.420050134113736
  0
LWPOLYLINE
  5
6C0
330
1E
100
AcDbEntity
  8
IMAGE
100
AcDbPolyline
 90
        2
 70
   128
 43
0.0
 10
2.120732603181532
 20
5.471088745463282
 42
0.4155348312255251
 10
2.127617383352849
 20
5.420050134113806
  0
LWPOLYLINE
  5
6C1
330
1E
100
AcDbEntity
  8
IMAGE
100
AcDbPolyline
 90
        2
 70
   128
 43
0.0
 10
2.101330040880513
 20
5.471088745463308
 10
2.108214821051835
 20
5.420050134113736
  0
LWPOLYLINE
  5
6C2
330
1E
100
AcDbEntity
  8
IMAGE
100
AcDbPolyline
 90
        2
 70
   128
 43
0.0
 10
2.062524916278515
 20
5.471088745463308
 10
2.069409696449835
 20
5.420050134113736
  0
LWPOLYLINE
  5
6C3
330
1E
100
AcDbEntity
  8
IMAGE
100
AcDbPolyline
 90
        2
 70
   128
 43
0.0
 10
2.062524916278582
 20
5.471088745463282
 42
0.4155348312255251
 10
2.069409696449899
 20
5.420050134113806
  0
LWPOLYLINE
  5
6C4
330
1E
100
AcDbEntity
  8
IMAGE
100
AcDbPolyline
 90
        2
 70
   128
 43
0.0
 10
2.081301589473027
 20
5.471088745463282
 42
0.4155348312255251
 10
2.088186369644344
 20
5.420050134113806
  0
LWPOLYLINE
  5
6C5
330
1E
100
AcDbEntity
  8
IMAGE
100
AcDbPolyline
 90
        2
 70
   128
 43
0.0
 10
2.438427753720845
 20
5.488101615913164
 10
1.974918545194461
 20
5.488101615913164
  0
LWPOLYLINE
  5
6C6
330
1E
100
AcDbEntity
  8
IMAGE
100
AcDbPolyline
 90
        2
 70
   128
 43
0.0
 10
2.438427753720845
 20
5.403037263663989
 10
1.974918545194461
 20
5.403037263663989
  0
LWPOLYLINE
  5
6C7
330
1E
100
AcDbEntity
  8
IMAGE
100
AcDbPolyline
 90
        2
 70
   128
 43
0.0
 10
1.974918545194475
 20
5.488101615913091
 42
0.43870182288337
 10
1.959999930828014
 20
5.487859857369505
  0
LWPOLYLINE
  5
6C8
330
1E
100
AcDbEntity
  8
IMAGE
100
AcDbPolyline
 90
        2
 70
   128
 43
0.0
 10
1.974918545194466
 20
5.485263011470604
 42
0.5142610552218948
 10
1.961270230103444
 20
5.48672816953257
  0
LWPOLYLINE
  5
6C9
330
1E
100
AcDbEntity
  8
IMAGE
100
AcDbPolyline
 90
        2
 70
   128
 43
0.0
 10
1.951592090760818
 20
5.42953218507462
 42
0.8003906752381499
 10
1.932646766662164
 20
5.462346448979348
  0
LWPOLYLINE
  5
6CA
330
1E
100
AcDbEntity
  8
IMAGE
100
AcDbPolyline
 90
        2
 70
   128
 43
0.0
 10
1.922981782765508
 20
5.462073821692948
 10
1.946523496656673
 20
5.421298377136073
  0
LWPOLYLINE
  5
6CB
330
1E
100
AcDbEntity
  8
IMAGE
100
AcDbPolyline
 90
        2
 70
   128
 43
0.0
 10
1.930348571765994
 20
5.466327039305483
 10
1.953890285657153
 20
5.425551594748609
  0
LWPOLYLINE
  5
6CC
330
1E
100
AcDbEntity
  8
IMAGE
100
AcDbPolyline
 90
        2
 70
   128
 43
0.0
 10
1.925279977661742
 20
5.458093231366891
 42
0.8003906752381745
 10
1.944225301760396
 20
5.425278967462164
  0
LWPOLYLINE
  5
6CD
330
1E
100
AcDbEntity
  8
IMAGE
100
AcDbPolyline
 90
        2
 70
   128
 43
0.0
 10
1.961270230103444
 20
5.400897246908987
 42
0.5142610552218948
 10
1.974918545194466
 20
5.402362404970953
  0
LWPOLYLINE
  5
6CE
330
1E
100
AcDbEntity
  8
IMAGE
100
AcDbPolyline
 90
        2
 70
   128
 43
0.0
 10
1.961284168500125
 20
5.400881404586167
 10
1.952735493117356
 20
5.410720159890937
  0
LWPOLYLINE
  5
6CF
330
1E
100
AcDbEntity
  8
IMAGE
100
AcDbPolyline
 90
        2
 70
   128
 43
0.0
 10
1.959999930828186
 20
5.399765559072065
 10
1.951066000494056
 20
5.410047708122121
  0
LWPOLYLINE
  5
6D0
330
1E
100
AcDbEntity
  8
IMAGE
100
AcDbPolyline
 90
        2
 70
   128
 43
0.0
 10
1.959999930828014
 20
5.399765559072053
 42
0.4387018228833698
 10
1.974918545194475
 20
5.399523800528466
  0
LWPOLYLINE
  5
6D1
330
1E
100
AcDbEntity
  8
IMAGE
100
AcDbPolyline
 90
        2
 70
   128
 43
0.0
 10
2.043748243083959
 20
5.471088745463308
 10
2.050633023255282
 20
5.420050134113736
  0
LWPOLYLINE
  5
6D2
330
1E
100
AcDbEntity
  8
IMAGE
100
AcDbPolyline
 90
        2
 70
   128
 43
0.0
 10
2.043748243083931
 20
5.471088745463282
 42
0.4155348312255251
 10
2.050633023255248
 20
5.420050134113806
  0
LWPOLYLINE
  5
6D3
330
1E
100
AcDbEntity
  8
IMAGE
100
AcDbPolyline
 90
        2
 70
   128
 43
0.0
 10
2.024971569889417
 20
5.471088745463308
 10
2.031856350060835
 20
5.420050134113736
  0
LWPOLYLINE
  5
6D4
330
1E
100
AcDbEntity
  8
IMAGE
100
AcDbPolyline
 90
        2
 70
   128
 43
0.0
 10
2.024971569889592
 20
5.471088745463282
 42
0.4155348312255251
 10
2.031856350060909
 20
5.420050134113806
  0
LWPOLYLINE
  5
6D5
330
1E
100
AcDbEntity
  8
IMAGE
100
AcDbPolyline
 90
        2
 70
   128
 43
0.0
 10
2.006820785801584
 20
5.471088745463308
 10
2.013705565972689
 20
5.420050134113736
  0
LWPOLYLINE
  5
6D6
330
1E
100
AcDbEntity
  8
IMAGE
100
AcDbPolyline
 90
        2
 70
   128
 43
0.0
 10
2.006820785801432
 20
5.471088745463282
 42
0.4155348312255251
 10
2.013705565972749
 20
5.420050134113806
  0
LWPOLYLINE
  5
6D7
330
1E
100
AcDbEntity
  8
IMAGE
100
AcDbPolyline
 90
        2
 70
   128
 43
0.0
 10
1.988670001713425
 20
5.471088745463308
 10
1.995554781884849
 20
5.420050134113736
  0
LWPOLYLINE
  5
6D8
330
1E
100
AcDbEntity
  8
IMAGE
100
AcDbPolyline
 90
        2
 70
   128
 43
0.0
 10
1.988670001713496
 20
5.471088745463282
 42
0.4155348312255251
 10
1.995554781884813
 20
5.420050134113806
  0
LWPOLYLINE
  5
6D9
330
1E
100
AcDbEntity
  8
IMAGE
100
AcDbPolyline
 90
        2
 70
   128
 43
0.0
 10
1.959999930828186
 20
5.487859857369485
 10
1.951066000494056
 20
5.477577708319429
  0
LWPOLYLINE
  5
6DA
330
1E
100
AcDbEntity
  8
IMAGE
100
AcDbPolyline
 90
        2
 70
   128
 43
0.0
 10
1.961284168500125
 20
5.486744011855391
 10
1.952735493117356
 20
5.476905256550621
  0
LWPOLYLINE
  5
6DB
330
1E
100
AcDbEntity
  8
IMAGE
100
AcDbPolyline
 90
        2
 70
   128
 43
0.0
 10
2.189798719391771
 20
6.293407197978266
 10
2.189798719391771
 20
5.488101615913162
  0
LWPOLYLINE
  5
6DC
330
1E
100
AcDbEntity
  8
IMAGE
100
AcDbPolyline
 90
        2
 70
   128
 43
0.0
 10
1.975803177752013
 20
6.479488429192413
 10
2.189798719391769
 20
6.479488429192413
  0
LWPOLYLINE
  5
6DD
330
1E
100
AcDbEntity
  8
IMAGE
100
AcDbPolyline
 90
        2
 70
   128
 43
0.0
 10
1.975803177752013
 20
6.293407197978266
 10
1.975803177752013
 20
5.488101615913162
  0
LWPOLYLINE
  5
6DE
330
1E
100
AcDbEntity
  8
IMAGE
100
AcDbPolyline
 90
        2
 70
   128
 43
0.0
 10
2.448698494978727
 20
6.361458679777665
 10
2.455583275149822
 20
6.310420068428093
  0
LWPOLYLINE
  5
6DF
330
1E
100
AcDbEntity
  8
IMAGE
100
AcDbPolyline
 90
        2
 70
   128
 43
0.0
 10
2.448698494978579
 20
6.361458679777639
 42
0.4155348312255251
 10
2.455583275149896
 20
6.310420068428163
  0
LWPOLYLINE
  5
6E0
330
1E
100
AcDbEntity
  8
IMAGE
100
AcDbPolyline
 90
        2
 70
   128
 43
0.0
 10
2.429295932677789
 20
6.36145867977766
 10
2.436180712848885
 20
6.310420068428088
  0
LWPOLYLINE
  5
6E1
330
1E
100
AcDbEntity
  8
IMAGE
100
AcDbPolyline
 90
        2
 70
   128
 43
0.0
 10
2.42929593267764
 20
6.361458679777634
 42
0.4155348312255251
 10
2.436180712848957
 20
6.310420068428157
  0
LWPOLYLINE
  5
6E2
330
1E
100
AcDbEntity
  8
IMAGE
100
AcDbPolyline
 90
        2
 70
   128
 43
0.0
 10
2.40989337037685
 20
6.361458679777653
 10
2.416778150547945
 20
6.310420068428083
  0
LWPOLYLINE
  5
6E3
330
1E
100
AcDbEntity
  8
IMAGE
100
AcDbPolyline
 90
        2
 70
   128
 43
0.0
 10
2.4098933703767
 20
6.361458679777628
 42
0.4155348312255251
 10
2.416778150548017
 20
6.310420068428152
  0
LWPOLYLINE
  5
6E4
330
1E
100
AcDbEntity
  8
IMAGE
100
AcDbPolyline
 90
        2
 70
   128
 43
0.0
 10
2.390490808075791
 20
6.361458679777653
 10
2.397375588247006
 20
6.310420068428083
  0
LWPOLYLINE
  5
6E5
330
1E
100
AcDbEntity
  8
IMAGE
100
AcDbPolyline
 90
        2
 70
   128
 43
0.0
 10
2.390490808075754
 20
6.361458679777628
 42
0.4155348312255251
 10
2.397375588247071
 20
6.310420068428152
  0
LWPOLYLINE
  5
6E6
330
1E
100
AcDbEntity
  8
IMAGE
100
AcDbPolyline
 90
        2
 70
   128
 43
0.0
 10
2.371714134881242
 20
6.361458679777653
 10
2.378598915052559
 20
6.310420068428083
  0
LWPOLYLINE
  5
6E7
330
1E
100
AcDbEntity
  8
IMAGE
100
AcDbPolyline
 90
        2
 70
   128
 43
0.0
 10
2.371714134881202
 20
6.361458679777628
 42
0.4155348312255251
 10
2.378598915052519
 20
6.310420068428152
  0
LWPOLYLINE
  5
6E8
330
1E
100
AcDbEntity
  8
IMAGE
100
AcDbPolyline
 90
        2
 70
   128
 43
0.0
 10
2.275327212482802
 20
6.361458679777559
 42
0.4155348312255251
 10
2.282211992654119
 20
6.310420068428083
  0
LWPOLYLINE
  5
6E9
330
1E
100
AcDbEntity
  8
IMAGE
100
AcDbPolyline
 90
        2
 70
   128
 43
0.0
 10
2.275327212482941
 20
6.361458679777586
 10
2.282211992654047
 20
6.310420068428014
  0
LWPOLYLINE
  5
6EA
330
1E
100
AcDbEntity
  8
IMAGE
100
AcDbPolyline
 90
        2
 70
   128
 43
0.0
 10
2.294729774783756
 20
6.361458679777559
 42
0.4155348312255251
 10
2.301614554955073
 20
6.310420068428083
  0
LWPOLYLINE
  5
6EB
330
1E
100
AcDbEntity
  8
IMAGE
100
AcDbPolyline
 90
        2
 70
   128
 43
0.0
 10
2.294729774783893
 20
6.361458679777586
 10
2.301614554955208
 20
6.310420068428014
  0
LWPOLYLINE
  5
6EC
330
1E
100
AcDbEntity
  8
IMAGE
100
AcDbPolyline
 90
        2
 70
   128
 43
0.0
 10
2.314132337084795
 20
6.361458679777559
 42
0.4155348312255251
 10
2.321017117256112
 20
6.310420068428083
  0
LWPOLYLINE
  5
6ED
330
1E
100
AcDbEntity
  8
IMAGE
100
AcDbPolyline
 90
        2
 70
   128
 43
0.0
 10
2.314132337084838
 20
6.361458679777586
 10
2.321017117256153
 20
6.310420068428014
  0
LWPOLYLINE
  5
6EE
330
1E
100
AcDbEntity
  8
IMAGE
100
AcDbPolyline
 90
        2
 70
   128
 43
0.0
 10
2.33290901027935
 20
6.361458679777559
 42
0.4155348312255251
 10
2.339793790450667
 20
6.310420068428083
  0
LWPOLYLINE
  5
6EF
330
1E
100
AcDbEntity
  8
IMAGE
100
AcDbPolyline
 90
        2
 70
   128
 43
0.0
 10
2.332909010279386
 20
6.361458679777586
 10
2.3397937904506
 20
6.310420068428014
  0
LWPOLYLINE
  5
6F0
330
1E
100
AcDbEntity
  8
IMAGE
100
AcDbPolyline
 90
        2
 70
   128
 43
0.0
 10
2.352311572580294
 20
6.361458679777559
 42
0.4155348312255251
 10
2.359196352751612
 20
6.310420068428083
  0
LWPOLYLINE
  5
6F1
330
1E
100
AcDbEntity
  8
IMAGE
100
AcDbPolyline
 90
        2
 70
   128
 43
0.0
 10
2.352311572580444
 20
6.361458679777586
 10
2.359196352751539
 20
6.310420068428014
  0
LWPOLYLINE
  5
6F2
330
1E
100
AcDbEntity
  8
IMAGE
100
AcDbPolyline
 90
        2
 70
   128
 43
0.0
 10
2.458894884178783
 20
6.378471550227441
 10
2.458894884178783
 20
6.293407197978266
  0
LWPOLYLINE
  5
6F3
330
1E
100
AcDbEntity
  8
IMAGE
100
AcDbPolyline
 90
        2
 70
   128
 43
0.0
 10
2.255924650182007
 20
6.361458679777586
 10
2.262809430353102
 20
6.310420068428014
  0
LWPOLYLINE
  5
6F4
330
1E
100
AcDbEntity
  8
IMAGE
100
AcDbPolyline
 90
        2
 70
   128
 43
0.0
 10
2.255924650181859
 20
6.361458679777559
 42
0.4155348312255251
 10
2.262809430353176
 20
6.310420068428083
  0
LWPOLYLINE
  5
6F5
330
1E
100
AcDbEntity
  8
IMAGE
100
AcDbPolyline
 90
        2
 70
   128
 43
0.0
 10
2.236522087880948
 20
6.361458679777586
 10
2.243406868052162
 20
6.310420068428014
  0
LWPOLYLINE
  5
6F6
330
1E
100
AcDbEntity
  8
IMAGE
100
AcDbPolyline
 90
        2
 70
   128
 43
0.0
 10
2.236522087880912
 20
6.361458679777559
 42
0.4155348312255251
 10
2.243406868052229
 20
6.310420068428083
  0
LWPOLYLINE
  5
6F7
330
1E
100
AcDbEntity
  8
IMAGE
100
AcDbPolyline
 90
        2
 70
   128
 43
0.0
 10
2.2177454146864
 20
6.361458679777586
 10
2.224630194857716
 20
6.310420068428014
  0
LWPOLYLINE
  5
6F8
330
1E
100
AcDbEntity
  8
IMAGE
100
AcDbPolyline
 90
        2
 70
   128
 43
0.0
 10
2.217745414686357
 20
6.361458679777559
 42
0.4155348312255251
 10
2.224630194857674
 20
6.310420068428083
  0
LWPOLYLINE
  5
6F9
330
1E
100
AcDbEntity
  8
IMAGE
100
AcDbPolyline
 90
        2
 70
   128
 43
0.0
 10
2.198342852385455
 20
6.361458679777586
 10
2.205227632556771
 20
6.310420068428014
  0
LWPOLYLINE
  5
6FA
330
1E
100
AcDbEntity
  8
IMAGE
100
AcDbPolyline
 90
        2
 70
   128
 43
0.0
 10
2.198342852385318
 20
6.361458679777559
 42
0.4155348312255251
 10
2.205227632556635
 20
6.310420068428083
  0
LWPOLYLINE
  5
6FB
330
1E
100
AcDbEntity
  8
IMAGE
100
AcDbPolyline
 90
        2
 70
   128
 43
0.0
 10
2.178940290084503
 20
6.361458679777586
 10
2.185825070255609
 20
6.310420068428014
  0
LWPOLYLINE
  5
6FC
330
1E
100
AcDbEntity
  8
IMAGE
100
AcDbPolyline
 90
        2
 70
   128
 43
0.0
 10
2.178940290084364
 20
6.361458679777559
 42
0.4155348312255251
 10
2.185825070255682
 20
6.310420068428083
  0
LWPOLYLINE
  5
6FD
330
1E
100
AcDbEntity
  8
IMAGE
100
AcDbPolyline
 90
        2
 70
   128
 43
0.0
 10
2.159537727783559
 20
6.361458679777586
 10
2.166422507954664
 20
6.310420068428014
  0
LWPOLYLINE
  5
6FE
330
1E
100
AcDbEntity
  8
IMAGE
100
AcDbPolyline
 90
        2
 70
   128
 43
0.0
 10
2.159537727783421
 20
6.361458679777559
 42
0.4155348312255251
 10
2.166422507954739
 20
6.310420068428083
  0
LWPOLYLINE
  5
6FF
330
1E
100
AcDbEntity
  8
IMAGE
100
AcDbPolyline
 90
        2
 70
   128
 43
0.0
 10
2.139509276375899
 20
6.361458679777586
 10
2.146394056547323
 20
6.310420068428014
  0
LWPOLYLINE
  5
700
330
1E
100
AcDbEntity
  8
IMAGE
100
AcDbPolyline
 90
        2
 70
   128
 43
0.0
 10
2.13950927637608
 20
6.361458679777559
 42
0.4155348312255251
 10
2.146394056547397
 20
6.310420068428083
  0
LWPOLYLINE
  5
701
330
1E
100
AcDbEntity
  8
IMAGE
100
AcDbPolyline
 90
        2
 70
   128
 43
0.0
 10
2.120732603181463
 20
6.361458679777586
 10
2.127617383352775
 20
6.310420068428014
  0
LWPOLYLINE
  5
702
330
1E
100
AcDbEntity
  8
IMAGE
100
AcDbPolyline
 90
        2
 70
   128
 43
0.0
 10
2.120732603181532
 20
6.361458679777559
 42
0.4155348312255251
 10
2.127617383352849
 20
6.310420068428083
  0
LWPOLYLINE
  5
703
330
1E
100
AcDbEntity
  8
IMAGE
100
AcDbPolyline
 90
        2
 70
   128
 43
0.0
 10
2.101330040880513
 20
6.361458679777586
 10
2.108214821051835
 20
6.310420068428014
  0
LWPOLYLINE
  5
704
330
1E
100
AcDbEntity
  8
IMAGE
100
AcDbPolyline
 90
        2
 70
   128
 43
0.0
 10
2.101330040880478
 20
6.361458679777559
 42
0.4155348312255251
 10
2.108214821051796
 20
6.310420068428083
  0
LWPOLYLINE
  5
705
330
1E
100
AcDbEntity
  8
IMAGE
100
AcDbPolyline
 90
        2
 70
   128
 43
0.0
 10
2.081301589472961
 20
6.361458679777586
 10
2.088186369644385
 20
6.310420068428014
  0
LWPOLYLINE
  5
706
330
1E
100
AcDbEntity
  8
IMAGE
100
AcDbPolyline
 90
        2
 70
   128
 43
0.0
 10
2.081301589473027
 20
6.361458679777559
 42
0.4155348312255251
 10
2.088186369644344
 20
6.310420068428083
  0
LWPOLYLINE
  5
707
330
1E
100
AcDbEntity
  8
IMAGE
100
AcDbPolyline
 90
        2
 70
   128
 43
0.0
 10
2.062524916278515
 20
6.361458679777586
 10
2.069409696449835
 20
6.310420068428014
  0
LWPOLYLINE
  5
708
330
1E
100
AcDbEntity
  8
IMAGE
100
AcDbPolyline
 90
        2
 70
   128
 43
0.0
 10
1.951592090760818
 20
6.319902119388897
 42
0.8003906752381499
 10
1.932646766662164
 20
6.352716383293625
  0
LWPOLYLINE
  5
709
330
1E
100
AcDbEntity
  8
IMAGE
100
AcDbPolyline
 90
        2
 70
   128
 43
0.0
 10
1.922981782765508
 20
6.352443756007225
 10
1.946523496656673
 20
6.311668311450352
  0
LWPOLYLINE
  5
70A
330
1E
100
AcDbEntity
  8
IMAGE
100
AcDbPolyline
 90
        2
 70
   128
 43
0.0
 10
1.930348571765994
 20
6.35669697361976
 10
1.953890285657153
 20
6.315921529062887
  0
LWPOLYLINE
  5
70B
330
1E
100
AcDbEntity
  8
IMAGE
100
AcDbPolyline
 90
        2
 70
   128
 43
0.0
 10
1.925279977661742
 20
6.348463165681168
 42
0.8003906752381745
 10
1.944225301760396
 20
6.315648901776441
  0
LWPOLYLINE
  5
70C
330
1E
100
AcDbEntity
  8
IMAGE
100
AcDbPolyline
 90
        2
 70
   128
 43
0.0
 10
1.974918545194475
 20
6.378471550227368
 42
0.43870182288337
 10
1.959999930828014
 20
6.378229791683782
  0
LWPOLYLINE
  5
70D
330
1E
100
AcDbEntity
  8
IMAGE
100
AcDbPolyline
 90
        2
 70
   128
 43
0.0
 10
1.959999930828186
 20
6.378229791683763
 10
1.951066000494056
 20
6.367947642633707
  0
LWPOLYLINE
  5
70E
330
1E
100
AcDbEntity
  8
IMAGE
100
AcDbPolyline
 90
        2
 70
   128
 43
0.0
 10
1.961284168500125
 20
6.377113946169668
 10
1.952735493117356
 20
6.367275190864898
  0
LWPOLYLINE
  5
70F
330
1E
100
AcDbEntity
  8
IMAGE
100
AcDbPolyline
 90
        2
 70
   128
 43
0.0
 10
1.974918545194466
 20
6.375632945784881
 42
0.5142610552218948
 10
1.961270230103444
 20
6.377098103846847
  0
LWPOLYLINE
  5
710
330
1E
100
AcDbEntity
  8
IMAGE
100
AcDbPolyline
 90
        2
 70
   128
 43
0.0
 10
1.961270230103444
 20
6.291267181223265
 42
0.5142610552218948
 10
1.974918545194466
 20
6.292732339285231
  0
LWPOLYLINE
  5
711
330
1E
100
AcDbEntity
  8
IMAGE
100
AcDbPolyline
 90
        2
 70
   128
 43
0.0
 10
1.961284168500125
 20
6.291251338900444
 10
1.952735493117356
 20
6.301090094205214
  0
LWPOLYLINE
  5
712
330
1E
100
AcDbEntity
  8
IMAGE
100
AcDbPolyline
 90
        2
 70
   128
 43
0.0
 10
1.959999930828186
 20
6.290135493386342
 10
1.951066000494056
 20
6.300417642436398
  0
LWPOLYLINE
  5
713
330
1E
100
AcDbEntity
  8
IMAGE
100
AcDbPolyline
 90
        2
 70
   128
 43
0.0
 10
1.959999930828014
 20
6.29013549338633
 42
0.4387018228833698
 10
1.974918545194475
 20
6.289893734842744
  0
LWPOLYLINE
  5
714
330
1E
100
AcDbEntity
  8
IMAGE
100
AcDbPolyline
 90
        2
 70
   128
 43
0.0
 10
2.043748243083959
 20
6.361458679777586
 10
2.050633023255282
 20
6.310420068428014
  0
LWPOLYLINE
  5
715
330
1E
100
AcDbEntity
  8
IMAGE
100
AcDbPolyline
 90
        2
 70
   128
 43
0.0
 10
2.043748243083931
 20
6.361458679777559
 42
0.4155348312255251
 10
2.050633023255248
 20
6.310420068428083
  0
LWPOLYLINE
  5
716
330
1E
100
AcDbEntity
  8
IMAGE
100
AcDbPolyline
 90
        2
 70
   128
 43
0.0
 10
2.024971569889417
 20
6.361458679777586
 10
2.031856350060835
 20
6.310420068428014
  0
LWPOLYLINE
  5
717
330
1E
100
AcDbEntity
  8
IMAGE
100
AcDbPolyline
 90
        2
 70
   128
 43
0.0
 10
2.024971569889592
 20
6.361458679777559
 42
0.4155348312255251
 10
2.031856350060909
 20
6.310420068428083
  0
LWPOLYLINE
  5
718
330
1E
100
AcDbEntity
  8
IMAGE
100
AcDbPolyline
 90
        2
 70
   128
 43
0.0
 10
2.006820785801584
 20
6.361458679777586
 10
2.013705565972689
 20
6.310420068428014
  0
LWPOLYLINE
  5
719
330
1E
100
AcDbEntity
  8
IMAGE
100
AcDbPolyline
 90
        2
 70
   128
 43
0.0
 10
2.006820785801432
 20
6.361458679777559
 42
0.4155348312255251
 10
2.013705565972749
 20
6.310420068428083
  0
LWPOLYLINE
  5
71A
330
1E
100
AcDbEntity
  8
IMAGE
100
AcDbPolyline
 90
        2
 70
   128
 43
0.0
 10
1.988670001713425
 20
6.361458679777586
 10
1.995554781884849
 20
6.310420068428014
  0
LWPOLYLINE
  5
71B
330
1E
100
AcDbEntity
  8
IMAGE
100
AcDbPolyline
 90
        2
 70
   128
 43
0.0
 10
1.988670001713496
 20
6.361458679777559
 42
0.4155348312255251
 10
1.995554781884813
 20
6.310420068428083
  0
LWPOLYLINE
  5
71C
330
1E
100
AcDbEntity
  8
IMAGE
100
AcDbPolyline
 90
        2
 70
   128
 43
0.0
 10
2.458894884178783
 20
6.293407197978266
 10
1.974918545194461
 20
6.293407197978266
  0
LWPOLYLINE
  5
71D
330
1E
100
AcDbEntity
  8
IMAGE
100
AcDbPolyline
 90
        2
 70
   128
 43
0.0
 10
2.458894884178783
 20
6.378471550227441
 10
1.974918545194461
 20
6.378471550227441
  0
LWPOLYLINE
  5
71E
330
1E
100
AcDbEntity
  8
IMAGE
100
AcDbPolyline
 90
        2
 70
   128
 43
0.0
 10
2.062524916278582
 20
6.361458679777559
 42
0.4155348312255251
 10
2.069409696449899
 20
6.310420068428083
  0
LWPOLYLINE
  5
71F
330
1E
100
AcDbEntity
  8
IMAGE
100
AcDbPolyline
 90
        2
 70
   128
 43
0.0
 10
1.975803177752013
 20
3.82306383444477
 10
1.975803177752013
 20
2.957770392272452
  0
LWPOLYLINE
  5
720
330
1E
100
AcDbEntity
  8
IMAGE
100
AcDbPolyline
 90
        2
 70
   128
 43
0.0
 10
1.975803177752013
 20
6.479488429192413
 10
1.975803177752013
 20
6.378471550227441
  0
LWPOLYLINE
  5
721
330
1E
100
AcDbEntity
  8
IMAGE
100
AcDbPolyline
 90
        2
 70
   128
 43
0.0
 10
2.189798719391771
 20
6.479488429192413
 10
2.189798719391771
 20
6.378471550227441
  0
LWPOLYLINE
  5
722
330
1E
100
AcDbEntity
  8
IMAGE
100
AcDbPolyline
 90
        2
 70
   128
 43
0.0
 10
2.431861204606229
 20
5.277978090173009
 10
3.287146230880957
 20
5.277978090173009
  0
LWPOLYLINE
  5
723
330
1E
100
AcDbEntity
  8
IMAGE
100
AcDbPolyline
 90
        2
 70
   128
 43
0.0
 10
4.165496301021547
 20
4.118824375876187
 10
4.694856392212501
 20
4.118824375876188
  0
LWPOLYLINE
  5
724
330
1E
100
AcDbEntity
  8
IMAGE
100
AcDbPolyline
 90
        2
 70
   128
 43
0.0
 10
3.208245591562811
 20
4.084698811245337
 10
2.189798719391771
 20
4.084698811245337
  0
LWPOLYLINE
  5
725
330
1E
100
AcDbEntity
  8
IMAGE
100
AcDbPolyline
 90
        2
 70
   128
 43
0.0
 10
3.957685431749784
 20
3.823063834444768
 10
2.189798719391771
 20
3.82306383444477
  0
LWPOLYLINE
  5
726
330
1E
100
AcDbEntity
  8
IMAGE
100
AcDbPolyline
 90
        2
 70
   128
 43
0.0
 10
4.891044087632573
 20
3.824949267011614
 10
4.694856392212501
 20
3.824949267011614
  0
LWPOLYLINE
  5
727
330
1E
100
AcDbEntity
  8
IMAGE
100
AcDbPolyline
 90
        2
 70
   128
 43
0.0
 10
4.891044087632573
 20
4.086584243812183
 10
4.694856392212501
 20
4.086584243812183
  0
LWPOLYLINE
  5
728
330
1E
100
AcDbEntity
  8
IMAGE
100
AcDbPolyline
 90
        2
 70
   128
 43
0.0
 10
4.355579271362938
 20
4.078475364624189
 10
4.304287299048138
 20
3.8385893512731
  0
LWPOLYLINE
  5
729
330
1E
100
AcDbEntity
  8
IMAGE
100
AcDbPolyline
 90
        2
 70
   128
 43
0.0
 10
3.957685431749784
 20
3.926030435446765
 10
3.957685431749784
 20
3.793915439995197
  0
LWPOLYLINE
  5
72A
330
1E
100
AcDbEntity
  8
IMAGE
100
AcDbPolyline
 90
        2
 70
   128
 43
0.0
 10
4.694856392212501
 20
3.793915439995195
 10
3.957685431749784
 20
3.793915439995195
  0
LWPOLYLINE
  5
72B
330
1E
100
AcDbEntity
  8
IMAGE
100
AcDbPolyline
 90
        2
 70
   128
 43
0.0
 10
4.039226264574934
 20
4.145627782368753
 10
3.988034397151811
 20
3.906209946829878
  0
LWPOLYLINE
  5
72C
330
1E
100
AcDbEntity
  8
IMAGE
100
AcDbPolyline
 90
        2
 70
   128
 43
0.0
 10
2.66771293632122
 20
4.436544423747251
 10
2.617302101247468
 20
4.196960920618273
  0
LWPOLYLINE
  5
72D
330
1E
100
AcDbEntity
  8
IMAGE
100
AcDbPolyline
 90
        2
 70
   128
 43
0.0
 10
2.66771293632122
 20
4.436544423747251
 10
2.451848071214702
 20
4.482298429444909
  0
LWPOLYLINE
  5
72E
330
1E
100
AcDbEntity
  8
IMAGE
100
AcDbPolyline
 90
        2
 70
   128
 43
0.0
 10
2.617302101247468
 20
4.196960920618272
 10
2.315878428071497
 20
4.260220980856095
  0
LWPOLYLINE
  5
72F
330
1E
100
AcDbEntity
  8
IMAGE
100
AcDbPolyline
 90
        2
 70
   128
 43
0.0
 10
4.331337641118531
 20
3.855165937054051
 42
0.7839606403240236
 10
4.370689323042425
 20
4.049954627616227
  0
LWPOLYLINE
  5
730
330
1E
100
AcDbEntity
  8
IMAGE
100
AcDbPolyline
 90
        2
 70
   128
 43
0.0
 10
4.331337641118531
 20
3.855165937054053
 10
4.370689323042427
 20
4.049954627616227
  0
LWPOLYLINE
  5
731
330
1E
100
AcDbEntity
  8
IMAGE
100
AcDbPolyline
 90
        2
 70
   128
 43
0.0
 10
4.304287299048138
 20
3.8385893512731
 10
4.331337641118531
 20
3.855165937054055
  0
LWPOLYLINE
  5
732
330
1E
100
AcDbEntity
  8
IMAGE
100
AcDbPolyline
 90
        2
 70
   128
 43
0.0
 10
4.355579271362938
 20
4.078475364624187
 10
4.370689323042427
 20
4.049954627616227
  0
LWPOLYLINE
  5
733
330
1E
100
AcDbEntity
  8
IMAGE
100
AcDbPolyline
 90
        2
 70
   128
 43
0.0
 10
3.988034397151811
 20
3.906209946829878
 10
4.304287299048138
 20
3.8385893512731
  0
LWPOLYLINE
  5
734
330
1E
100
AcDbEntity
  8
IMAGE
100
AcDbPolyline
 90
        2
 70
   128
 43
0.0
 10
4.039226264574934
 20
4.145627782368753
 10
4.355579271362938
 20
4.078475364624187
  0
LWPOLYLINE
  5
735
330
1E
100
AcDbEntity
  8
IMAGE
100
AcDbPolyline
 90
        2
 70
   128
 43
0.0
 10
4.694856392212501
 20
4.118824375876187
 10
4.694856392212497
 20
3.793915439995195
  0
LWPOLYLINE
  5
736
330
1E
100
AcDbEntity
  8
IMAGE
100
AcDbPolyline
 90
        2
 70
   128
 43
0.0
 10
2.451614402648275
 20
4.595213280121177
 10
2.452025001526362
 20
4.389402283384283
  0
LWPOLYLINE
  5
737
330
1E
100
AcDbEntity
  8
IMAGE
100
AcDbPolyline
 90
        2
 70
   128
 43
0.0
 10
2.194381107646708
 20
4.595213280121177
 10
2.193306052583779
 20
4.389402283384283
  0
LWPOLYLINE
  5
738
330
1E
100
AcDbEntity
  8
IMAGE
100
AcDbPolyline
 90
        2
 70
   128
 43
0.0
 10
2.194381107646708
 20
4.595213280121177
 10
2.451614402648274
 20
4.595213280121177
  0
LWPOLYLINE
  5
739
330
1E
100
AcDbEntity
  8
IMAGE
100
AcDbPolyline
 90
        2
 70
   128
 43
0.0
 10
4.036942327387262
 20
4.133507054521764
 10
2.665764057702236
 20
4.42380737926423
  0
LWPOLYLINE
  5
73A
330
1E
100
AcDbEntity
  8
IMAGE
100
AcDbPolyline
 90
        2
 70
   128
 43
0.0
 10
3.991068846326489
 20
3.918962633756139
 10
2.619890576641464
 20
4.209262958498605
  0
LWPOLYLINE
  5
73B
330
1E
100
AcDbEntity
  8
IMAGE
100
AcDbPolyline
 90
        2
 70
   128
 43
0.0
 10
2.193313647794834
 20
4.390804056309669
 42
1.007515829047522
 10
2.452023893564465
 20
4.389937679975619
  0
LWPOLYLINE
  5
73C
330
1E
100
AcDbEntity
  8
IMAGE
100
AcDbPolyline
 90
        2
 70
   128
 43
0.0
 10
2.212467301440507
 20
4.647536084052211
 10
2.431861204606231
 20
4.647536084052211
  0
LWPOLYLINE
  5
73D
330
1E
100
AcDbEntity
  8
IMAGE
100
AcDbPolyline
 90
        2
 70
   128
 43
0.0
 10
3.986245940981532
 20
4.144471903190718
 10
3.940804022585536
 20
3.92983566021488
  0
LWPOLYLINE
  5
73E
330
1E
100
AcDbEntity
  8
IMAGE
100
AcDbPolyline
 90
        2
 70
   128
 43
0.0
 10
2.716668324083484
 20
4.413934904743536
 10
2.67122640568749
 20
4.199298661767697
  0
LWPOLYLINE
  5
73F
330
1E
100
AcDbEntity
  8
IMAGE
100
AcDbPolyline
 90
        2
 70
   128
 43
0.0
 10
2.212467301440507
 20
6.161438286007225
 10
2.212467301440505
 20
5.488101615913162
  0
LWPOLYLINE
  5
740
330
1E
100
AcDbEntity
  8
IMAGE
100
AcDbPolyline
 90
        2
 70
   128
 43
0.0
 10
2.431861204606231
 20
6.161438286007225
 10
2.431861204606229
 20
5.488101615913162
  0
LWPOLYLINE
  5
741
330
1E
100
AcDbEntity
  8
IMAGE
100
AcDbPolyline
 90
        2
 70
   128
 43
0.0
 10
2.212467301440507
 20
6.109222171671335
 10
2.431861204606231
 20
6.109222171671335
  0
TEXT
  5
747
330
1E
100
AcDbEntity
  8
NOTE
100
AcDbText
 10
0.8807812847227287
 20
2.178274490954222
 30
0.0
 40
0.125
  1
FLOWS LESS THAN 4 GPM.
  7
SIMPLEX
100
AcDbText
  0
TEXT
  5
74A
330
1E
100
AcDbEntity
  8
NOTE
100
AcDbText
 10
0.8807812847227287
 20
2.528274490954222
 30
0.0
 40
0.125
  1
NOTE:
  7
SIMPLEX
100
AcDbText
  0
TEXT
  5
74B
330
1E
100
AcDbEntity
  8
NOTE
100
AcDbText
 10
0.8807812847227287
 20
2.353274490954222
 30
0.0
 40
0.125
  1
A SWING PIPE ASSEMBLY MAY BE USED WITH
  7
SIMPLEX
100
AcDbText
  0
LEADER
  5
75E
330
1E
100
AcDbEntity
  8
TEXT_BUBBLES
100
AcDbLeader
  3
Standard
 76
     2
 10
2.668891356935252
 20
6.981506591906217
 30
0.0
 10
3.680533231629942
 20
7.378203758750252
 30
0.0
1001
ACAD
1000
DSTYLE
1002
{
1070
   147
1040
0.09
1070
    77
1070
     0
1070
   279
1070
     2
1002
}
  0
LEADER
  5
75F
330
1E
100
AcDbEntity
  8
TEXT_BUBBLES
100
AcDbLeader
  3
Standard
 76
     2
 10
2.454212568120996
 20
6.413930191344951
 30
0.0
 10
3.680533231629942
 20
6.908880654759748
 30
0.0
1001
ACAD
1000
DSTYLE
1002
{
1070
   147
1040
0.09
1070
    77
1070
     0
1070
   279
1070
     2
1002
}
  0
LEADER
  5
760
330
1E
100
AcDbEntity
  8
TEXT_BUBBLES
100
AcDbLeader
  3
Standard
 76
     2
 10
3.324076184739443
 20
5.931994935698108
 30
0.0
 10
3.680533231629942
 20
6.075497685099239
 30
0.0
1001
ACAD
1000
DSTYLE
1002
{
1070
   147
1040
0.09
1070
    77
1070
     0
1070
   279
1070
     2
1002
}
  0
LEADER
  5
761
330
1E
100
AcDbEntity
  8
TEXT_BUBBLES
100
AcDbLeader
  3
Standard
 76
     2
 10
3.287146230880956
 20
5.277978090173009
 30
0.0
 10
3.680533231629942
 20
5.436401509451851
 30
0.0
1001
ACAD
1000
DSTYLE
1002
{
1070
   147
1040
0.09
1070
    77
1070
     0
1070
   279
1070
     2
1002
}
  0
LEADER
  5
763
330
1E
100
AcDbEntity
  8
TEXT_BUBBLES
100
AcDbLeader
  3
Standard
 76
     2
 10
2.43186120460623
 20
4.825894762875624
 30
0.0
 10
2.82704834009716
 20
5.003976163686258
 30
0.0
1001
ACAD
1000
DSTYLE
1002
{
1070
   147
1040
0.09
1070
    77
1070
     0
1070
   279
1070
     2
1002
}
  0
LEADER
  5
764
330
1E
100
AcDbEntity
  8
TEXT_BUBBLES
100
AcDbLeader
  3
Standard
 76
     2
 10
2.451735139706578
 20
4.534694326859439
 30
0.0
 10
2.82704834009716
 20
4.655641689629307
 30
0.0
1001
ACAD
1000
DSTYLE
1002
{
1070
   147
1040
0.09
1070
    77
1070
     0
1070
   279
1070
     2
1002
}
  0
LEADER
  5
765
330
1E
100
AcDbEntity
  8
TEXT_BUBBLES
100
AcDbLeader
  3
Standard
 76
     2
 10
2.195197080917738
 20
3.616438569969832
 30
0.0
 10
2.407851179322287
 20
3.246351239825091
 30
0.0
1001
ACAD
1000
DSTYLE
1002
{
1070
   147
1040
0.09
1070
    77
1070
     0
1070
   279
1070
     2
1002
}
  0
LEADER
  5
767
330
1E
100
AcDbEntity
  8
TEXT_BUBBLES
100
AcDbLeader
  3
Standard
 76
     2
 10
2.481421307682344
 20
4.225478346258809
 30
0.0
 10
2.940143448284416
 20
3.246351239825091
 30
0.0
1001
ACAD
1000
DSTYLE
1002
{
1070
   147
1040
0.09
1070
    77
1070
     0
1070
   279
1070
     2
1002
}
  0
LEADER
  5
768
330
1E
100
AcDbEntity
  8
TEXT_BUBBLES
100
AcDbLeader
  3
Standard
 76
     2
 10
3.36293551293247
 20
4.051948485922348
 30
0.0
 10
3.7515470389931
 20
3.246351239825091
 30
0.0
1001
ACAD
1000
DSTYLE
1002
{
1070
   147
1040
0.09
1070
    77
1070
     0
1070
   279
1070
     2
1002
}
  0
LEADER
  5
769
330
1E
100
AcDbEntity
  8
TEXT_BUBBLES
100
AcDbLeader
  3
Standard
 76
     2
 10
4.114874407476329
 20
3.879089256435761
 30
0.0
 10
4.43364627144672
 20
3.246351239825091
 30
0.0
1001
ACAD
1000
DSTYLE
1002
{
1070
   147
1040
0.09
1070
    77
1070
     0
1070
   279
1070
     2
1002
}
  0
LEADER
  5
76B
330
1E
100
AcDbEntity
  8
TEXT_BUBBLES
100
AcDbLeader
  3
Standard
 76
     2
 10
4.827625032009854
 20
3.824949267011614
 30
0.0
 10
5.124522920386453
 20
3.246351239825091
 30
0.0
1001
ACAD
1000
DSTYLE
1002
{
1070
   147
1040
0.09
1070
    77
1070
     0
1070
   279
1070
     2
1002
}
  0
LEADER
  5
76C
330
1E
100
AcDbEntity
  8
TEXT_BUBBLES
100
AcDbLeader
  3
Standard
 76
     2
 10
4.519497322772035
 20
3.793915439995196
 30
0.0
 10
4.803856731145967
 20
3.246351239825091
 30
0.0
1001
ACAD
1000
DSTYLE
1002
{
1070
   147
1040
0.09
1070
    77
1070
     0
1070
   279
1070
     2
1002
}
  0
LEADER
  5
774
330
1E
100
AcDbEntity
  8
TEXT_LEADERS
100
AcDbLeader
  3
Standard
 76
     3
 10
2.675545758021727
 20
6.978936227163877
 30
0.0
 10
4.448297480103834
 20
7.695174414779479
 30
0.0
 10
5.301218345054962
 20
7.695174414779479
 30
0.0
1001
ACAD
1000
DSTYLE
1002
{
1070
   147
1040
0.09
1070
    77
1070
     0
1070
   279
1070
     2
1002
}
  0
LEADER
  5
776
330
1E
100
AcDbEntity
  8
TEXT_LEADERS
100
AcDbLeader
  3
Standard
 76
     3
 10
2.451028884308591
 20
6.404286844652363
 30
0.0
 10
4.738899916473389
 20
7.328646742975468
 30
0.0
 10
5.301218345054962
 20
7.328646742975468
 30
0.0
1001
ACAD
1000
DSTYLE
1002
{
1070
   147
1040
0.09
1070
    77
1070
     0
1070
   279
1070
     2
1002
}
  0
LEADER
  5
777
330
1E
100
AcDbEntity
  8
TEXT_LEADERS
100
AcDbLeader
  3
Standard
 76
     3
 10
3.324076184739443
 20
5.931994935698108
 30
0.0
 10
4.738899916473389
 20
6.503620828252573
 30
0.0
 10
5.301218345054962
 20
6.503620828252573
 30
0.0
1001
ACAD
1000
DSTYLE
1002
{
1070
   147
1040
0.09
1070
    77
1070
     0
1070
   279
1070
     2
1002
}
  0
LEADER
  5
778
330
1E
100
AcDbEntity
  8
TEXT_LEADERS
100
AcDbLeader
  3
Standard
 76
     3
 10
3.287146230880957
 20
5.277978090173009
 30
0.0
 10
4.738899916473389
 20
5.864524652605195
 30
0.0
 10
5.301218345054962
 20
5.864524652605195
 30
0.0
1001
ACAD
1000
DSTYLE
1002
{
1070
   147
1040
0.09
1070
    77
1070
     0
1070
   279
1070
     2
1002
}
  0
LEADER
  5
779
330
1E
100
AcDbEntity
  8
TEXT_LEADERS
100
AcDbLeader
  3
Standard
 76
     3
 10
2.43186120460623
 20
4.743523709145224
 30
0.0
 10
4.738899916473389
 20
5.675627852756502
 30
0.0
 10
5.301218345054962
 20
5.675627852756502
 30
0.0
1001
ACAD
1000
DSTYLE
1002
{
1070
   147
1040
0.09
1070
    77
1070
     0
1070
   279
1070
     2
1002
}
  0
LEADER
  5
77A
330
1E
100
AcDbEntity
  8
TEXT_LEADERS
100
AcDbLeader
  3
Standard
 76
     3
 10
2.581135700115959
 20
4.454895049527266
 30
0.0
 10
4.344736510862225
 20
5.167436028972892
 30
0.0
 10
5.301218345054962
 20
5.167436028972892
 30
0.0
1001
ACAD
1000
DSTYLE
1002
{
1070
   147
1040
0.09
1070
    77
1070
     0
1070
   279
1070
     2
1002
}
  0
LEADER
  5
77B
330
1E
100
AcDbEntity
  8
TEXT_LEADERS
100
AcDbLeader
  3
Standard
 76
     3
 10
3.382792346347516
 20
4.272001046240097
 30
0.0
 10
4.738899916473389
 20
4.819904069624531
 30
0.0
 10
5.301218345054962
 20
4.819904069624531
 30
0.0
1001
ACAD
1000
DSTYLE
1002
{
1070
   147
1040
0.09
1070
    77
1070
     0
1070
   279
1070
     2
1002
}
  0
LEADER
  5
77C
330
1E
100
AcDbEntity
  8
TEXT_LEADERS
100
AcDbLeader
  3
Standard
 76
     3
 10
2.387233865495457
 20
4.277309449953522
 30
0.0
 10
4.738899916473389
 20
2.919574422377305
 30
0.0
 10
5.301218345054962
 20
2.919574422377305
 30
0.0
1001
ACAD
1000
DSTYLE
1002
{
1070
   147
1040
0.09
1070
    77
1070
     0
1070
   279
1070
     2
1002
}
  0
LEADER
  5
77D
330
1E
100
AcDbEntity
  8
TEXT_LEADERS
100
AcDbLeader
  3
Standard
 76
     3
 10
2.195197080917738
 20
4.021036166191136
 30
0.0
 10
4.468530209967878
 20
2.70852667217634
 30
0.0
 10
5.301218345054962
 20
2.70852667217634
 30
0.0
1001
ACAD
1000
DSTYLE
1002
{
1070
   147
1040
0.09
1070
    77
1070
     0
1070
   279
1070
     2
1002
}
  0
LEADER
  5
77E
330
1E
100
AcDbEntity
  8
TEXT_LEADERS
100
AcDbLeader
  3
Standard
 76
     3
 10
3.553184102103227
 20
3.82406766549416
 30
0.0
 10
4.738899916473389
 20
3.139494320885149
 30
0.0
 10
5.301218345054962
 20
3.139494320885149
 30
0.0
1001
ACAD
1000
DSTYLE
1002
{
1070
   147
1040
0.09
1070
    77
1070
     0
1070
   279
1070
     2
1002
}
  0
LEADER
  5
77F
330
1E
100
AcDbEntity
  8
TEXT_LEADERS
100
AcDbLeader
  3
Standard
 76
     3
 10
4.039955651850615
 20
3.793915439995196
 30
0.0
 10
4.73889991647339
 20
3.390379780666691
 30
0.0
 10
5.301218345054962
 20
3.390379780666691
 30
0.0
1001
ACAD
1000
DSTYLE
1002
{
1070
   147
1040
0.09
1070
    77
1070
     0
1070
   279
1070
     2
1002
}
  0
LEADER
  5
780
330
1E
100
AcDbEntity
  8
TEXT_LEADERS
100
AcDbLeader
  3
Standard
 76
     3
 10
4.390518309653723
 20
3.877121892734318
 30
0.0
 10
4.738899916473389
 20
3.675983678256268
 30
0.0
 10
5.301218345054962
 20
3.675983678256268
 30
0.0
1001
ACAD
1000
DSTYLE
1002
{
1070
   147
1040
0.09
1070
    77
1070
     0
1070
   279
1070
     2
1002
}
  0
CIRCLE
  5
7A6
330
1E
100
AcDbEntity
  8
TEXT_BUBBLES
100
AcDbCircle
 10
5.634324800869324
 20
7.985672534523763
 30
0.0
 40
0.1562500331414542
  0
CIRCLE
  5
7A7
330
1E
100
AcDbEntity
  8
TEXT_BUBBLES
100
AcDbCircle
 10
5.634324800869324
 20
7.460672534523762
 30
0.0
 40
0.1562500331414542
  0
CIRCLE
  5
7A8
330
1E
100
AcDbEntity
  8
TEXT_BUBBLES
100
AcDbCircle
 10
5.634324800869324
 20
6.935672534523763
 30
0.0
 40
0.1562500331414542
  0
CIRCLE
  5
7A9
330
1E
100
AcDbEntity
  8
TEXT_BUBBLES
100
AcDbCircle
 10
5.634324800869324
 20
6.585672534523762
 30
0.0
 40
0.1562500331414542
  0
CIRCLE
  5
7AA
330
1E
100
AcDbEntity
  8
TEXT_BUBBLES
100
AcDbCircle
 10
5.634324800869324
 20
6.235672534523763
 30
0.0
 40
0.1562500331414542
  0
CIRCLE
  5
7AB
330
1E
100
AcDbEntity
  8
TEXT_BUBBLES
100
AcDbCircle
 10
5.634324800869324
 20
5.535672534523762
 30
0.0
 40
0.1562500331414542
  0
CIRCLE
  5
7AC
330
1E
100
AcDbEntity
  8
TEXT_BUBBLES
100
AcDbCircle
 10
5.634324800869324
 20
5.185672534523763
 30
0.0
 40
0.1562500331414542
  0
CIRCLE
  5
7AD
330
1E
100
AcDbEntity
  8
TEXT_BUBBLES
100
AcDbCircle
 10
5.634324800869324
 20
4.310672534523763
 30
0.0
 40
0.1562500331414542
  0
CIRCLE
  5
7AE
330
1E
100
AcDbEntity
  8
TEXT_BUBBLES
100
AcDbCircle
 10
5.634324800869324
 20
3.960672534523762
 30
0.0
 40
0.1562500331414542
  0
CIRCLE
  5
7AF
330
1E
100
AcDbEntity
  8
TEXT_BUBBLES
100
AcDbCircle
 10
5.634324800869324
 20
3.435672534523762
 30
0.0
 40
0.1562500331414542
  0
CIRCLE
  5
7B0
330
1E
100
AcDbEntity
  8
TEXT_BUBBLES
100
AcDbCircle
 10
5.634324800869324
 20
3.085672534523773
 30
0.0
 40
0.1562500331414542
  0
CIRCLE
  5
7B1
330
1E
100
AcDbEntity
  8
TEXT_BUBBLES
100
AcDbCircle
 10
3.836783264771396
 20
7.378203758750252
 30
0.0
 40
0.1562500331414542
  0
CIRCLE
  5
7B2
330
1E
100
AcDbEntity
  8
TEXT_BUBBLES
100
AcDbCircle
 10
3.836783264771396
 20
6.908880654759748
 30
0.0
 40
0.1562500331414542
  0
CIRCLE
  5
7B3
330
1E
100
AcDbEntity
  8
TEXT_BUBBLES
100
AcDbCircle
 10
3.836783264771396
 20
6.075497685099239
 30
0.0
 40
0.1562500331414542
  0
CIRCLE
  5
7B4
330
1E
100
AcDbEntity
  8
TEXT_BUBBLES
100
AcDbCircle
 10
3.836783264771396
 20
5.436401509451851
 30
0.0
 40
0.1562500331414542
  0
CIRCLE
  5
7B5
330
1E
100
AcDbEntity
  8
TEXT_BUBBLES
100
AcDbCircle
 10
2.983298373238614
 20
5.003976163686258
 30
0.0
 40
0.1562500331414542
  0
CIRCLE
  5
7B6
330
1E
100
AcDbEntity
  8
TEXT_BUBBLES
100
AcDbCircle
 10
2.983298373238614
 20
4.655641689629307
 30
0.0
 40
0.1562500331414542
  0
CIRCLE
  5
7B7
330
1E
100
AcDbEntity
  8
TEXT_BUBBLES
100
AcDbCircle
 10
5.124522920386453
 20
3.090101206683637
 30
0.0
 40
0.1562500331414542
  0
CIRCLE
  5
7B8
330
1E
100
AcDbEntity
  8
TEXT_BUBBLES
100
AcDbCircle
 10
4.803856731145967
 20
3.090101206683637
 30
0.0
 40
0.1562500331414542
  0
CIRCLE
  5
7B9
330
1E
100
AcDbEntity
  8
TEXT_BUBBLES
100
AcDbCircle
 10
4.43364627144672
 20
3.090101206683637
 30
0.0
 40
0.1562500331414542
  0
CIRCLE
  5
7BA
330
1E
100
AcDbEntity
  8
TEXT_BUBBLES
100
AcDbCircle
 10
3.7515470389931
 20
3.090101206683637
 30
0.0
 40
0.1562500331414542
  0
CIRCLE
  5
7BB
330
1E
100
AcDbEntity
  8
TEXT_BUBBLES
100
AcDbCircle
 10
2.940143448284416
 20
3.090101206683637
 30
0.0
 40
0.1562500331414542
  0
CIRCLE
  5
7BC
330
1E
100
AcDbEntity
  8
TEXT_BUBBLES
100
AcDbCircle
 10
2.407851179322287
 20
3.090101206683637
 30
0.0
 40
0.1562500331414542
  0
VIEWPORT
  5
B0
330
1A
100
AcDbEntity
 67
     1
  8
0
100
AcDbViewport
 10
6.172388059701492
 20
4.5
 30
0.0
 40
12.34477611940298
 41
9.0
 68
     1
 69
     1
 12
6.172388059701492
 22
4.5
 13
0.0
 23
0.0
 14
0.14
 24
0.14
 15
0.14
 25
0.14
 16
0.0
 26
0.0
 36
1.0
 17
0.0
 27
0.0
 37
0.0
 42
50.0
 43
0.0
 44
0.0
 45
9.0
 50
0.0
 51
0.0
 72
   100
 90
    32800
  1

281
     0
 71
     0
 74
     0
110
0.0
120
0.0
130
0.0
111
0.0
121
0.0
131
0.0
112
0.0
122
0.0
132
0.0
 79
     0
146
0.0
  0
ENDSEC
  0
SECTION
  2
OBJECTS
  0
DICTIONARY
  5
C
330
0
100
AcDbDictionary
281
     1
  3
ACAD_GROUP
350
D
  3
ACAD_LAYOUT
350
19
  3
ACAD_MLINESTYLE
350
16
  3
ACAD_PLOTSETTINGS
350
18
  3
ACAD_PLOTSTYLENAME
350
E
  3
AcadDim
350
781
  3
AcDbVariableDictionary
350
461
  3
ASE_INDEX_DICTIONARY
350
46D
  0
DICTIONARY
  5
D
102
{ACAD_REACTORS
330
C
102
}
330
C
100
AcDbDictionary
281
     1
  0
DICTIONARY
  5
19
102
{ACAD_REACTORS
330
C
102
}
330
C
100
AcDbDictionary
281
     1
  3
Layout1
350
1D
  3
Model
350
21
  0
DICTIONARY
  5
16
102
{ACAD_REACTORS
330
C
102
}
330
C
100
AcDbDictionary
281
     1
  3
Standard
350
17
  0
DICTIONARY
  5
18
102
{ACAD_REACTORS
330
C
102
}
330
C
100
AcDbDictionary
281
     1
  0
ACDBDICTIONARYWDFLT
  5
E
102
{ACAD_REACTORS
330
C
102
}
330
C
100
AcDbDictionary
281
     1
  3
Normal
350
F
100
AcDbDictionaryWithDefault
340
F
  0
XRECORD
  5
781
102
{ACAD_REACTORS
330
C
102
}
330
C
100
AcDbXrecord
280
     1
 90
   990106
  3

 60
     4
 61
     0
 62
     1
 63
     3
 64
     0
 65
     0
 66
     0
 67
     3
 68
     1
 69
     0
 70
     0
 71
     1
 72
     0
 40
0.0
170
     1
  0
DICTIONARY
  5
461
102
{ACAD_REACTORS
330
C
102
}
330
C
100
AcDbDictionary
281
     1
  3
DIMASSOC
350
464
  3
HIDETEXT
350
463
  3
SORTENTS
350
462
  0
DICTIONARY
  5
46D
102
{ACAD_REACTORS
330
C
102
}
330
C
100
AcDbDictionary
281
     1
  3
ASEBlockHierarchyIndexRecord
350
46F
1001
DCO15
1040
1487050231.966
  0
LAYOUT
  5
1D
102
{ACAD_REACTORS
330
19
102
}
330
19
100
AcDbPlotSettings
  1

  2
S:\AutoCAD 2002\Plotters\1055B&WDraftShaded.pc3
  4

  6

 40
0.0
 41
0.0
 42
0.0
 43
0.0
 44
0.0
 45
0.0
 46
0.0
 47
0.0
 48
0.0
 49
0.0
140
0.0
141
0.0
142
1.0
143
1.0
 70
   688
 72
     0
 73
     0
 74
     5
  7
TRexLJ5Shaded2.ctb
 75
    16
147
1.0
148
0.0
149
0.0
100
AcDbLayout
  1
Layout1
 70
     1
 71
     1
 10
0.0
 20
0.0
 11
12.0
 21
9.0
 12
0.0
 22
0.0
 32
0.0
 14
1.000000000000000E+20
 24
1.000000000000000E+20
 34
1.000000000000000E+20
 15
-1.000000000000000E+20
 25
-1.000000000000000E+20
 35
-1.000000000000000E+20
146
0.0
 13
0.0
 23
0.0
 33
0.0
 16
1.0
 26
0.0
 36
0.0
 17
0.0
 27
1.0
 37
0.0
 76
     0
330
1A
331
B0
  0
LAYOUT
  5
21
102
{ACAD_REACTORS
330
19
102
}
330
19
100
AcDbPlotSettings
  1

  2
OKI DOKI Color Laser.pc3
  4
Tabloid
  6

 40
5.027083396911621
 41
5.027085304260253
 42
5.027099609375
 43
5.027069091796875
 44
279.3999938964843
 45
431.7999877929687
 46
2.032
 47
1.523999999999999
 48
0.0
 49
0.0000000000000001
140
16.48999999999999
141
10.44
142
1.0
143
1.0
 70
 11940
 72
     0
 73
     1
 74
     4
  7
TRexLJ5Shaded2.ctb
 75
     0
147
1.0
148
0.0
149
-0.0000000000000028
100
AcDbLayout
  1
Model
 70
     1
 71
     0
 10
0.0
 20
0.0
 11
12.0
 21
9.0
 12
0.0
 22
0.0
 32
0.0
 14
0.0
 24
0.0
 34
0.0
 15
0.0
 25
0.0
 35
0.0
146
0.0
 13
0.0
 23
0.0
 33
0.0
 16
1.0
 26
0.0
 36
0.0
 17
0.0
 27
1.0
 37
0.0
 76
     0
330
1E
  0
MLINESTYLE
  5
17
102
{ACAD_REACTORS
330
16
102
}
330
16
100
AcDbMlineStyle
  2
STANDARD
 70
     0
  3

 62
   256
 51
90.0
 52
90.0
 71
     2
 49
0.5
 62
   256
  6
BYLAYER
 49
-0.5
 62
   256
  6
BYLAYER
  0
ACDBPLACEHOLDER
  5
F
102
{ACAD_REACTORS
330
E
102
}
330
E
  0
DICTIONARYVAR
  5
464
102
{ACAD_REACTORS
330
461
102
}
330
461
100
DictionaryVariables
280
     0
  1
1
  0
DICTIONARYVAR
  5
463
102
{ACAD_REACTORS
330
461
102
}
330
461
100
DictionaryVariables
280
     0
  1
1
  0
DICTIONARYVAR
  5
462
102
{ACAD_REACTORS
330
461
102
}
330
461
100
DictionaryVariables
280
     0
  1
1
  0
XRECORD
  5
46F
102
{ACAD_REACTORS
330
46D
102
}
330
46D
100
AcDbXrecord
280
     1
330
0
  0
ENDSEC
  0
EOF
