  0
SECTION
  2
HEADER
  9
$ACADVER
  1
AC1015
  9
$ACADMAINTVER
 70
    13
  9
$DWGCODEPAGE
  3
ANSI_1252
  9
$INSBASE
 10
0.0
 20
0.0
 30
0.0
  9
$EXTMIN
 10
-0.3204338855164478
 20
-1.862359710502812
 30
0.0
  9
$EXTMAX
 10
16.16956611448354
 20
8.577640289497187
 30
0.03
  9
$LIMMIN
 10
0.0
 20
0.0
  9
$LIMMAX
 10
12.0
 20
9.0
  9
$ORTHOMODE
 70
     1
  9
$REGENMODE
 70
     1
  9
$FILLMODE
 70
     1
  9
$QTEXTMODE
 70
     0
  9
$MIRRTEXT
 70
     0
  9
$LTSCALE
 40
1.0
  9
$ATTMODE
 70
     1
  9
$TEXTSIZE
 40
0.24
  9
$TRACEWID
 40
0.05
  9
$TEXTSTYLE
  7
ROMANS
  9
$CLAYER
  8
IMAGE
  9
$CELTYPE
  6
ByLayer
  9
$CECOLOR
 62
   256
  9
$CELTSCALE
 40
1.0
  9
$DISPSILH
 70
     0
  9
$DIMSCALE
 40
1.0
  9
$DIMASZ
 40
0.18
  9
$DIMEXO
 40
0.0625
  9
$DIMDLI
 40
0.38
  9
$DIMRND
 40
0.0
  9
$DIMDLE
 40
0.0
  9
$DIMEXE
 40
0.18
  9
$DIMTP
 40
0.0
  9
$DIMTM
 40
0.0
  9
$DIMTXT
 40
0.18
  9
$DIMCEN
 40
0.09
  9
$DIMTSZ
 40
0.0
  9
$DIMTOL
 70
     0
  9
$DIMLIM
 70
     0
  9
$DIMTIH
 70
     1
  9
$DIMTOH
 70
     1
  9
$DIMSE1
 70
     0
  9
$DIMSE2
 70
     0
  9
$DIMTAD
 70
     0
  9
$DIMZIN
 70
     0
  9
$DIMBLK
  1

  9
$DIMASO
 70
     1
  9
$DIMSHO
 70
     1
  9
$DIMPOST
  1

  9
$DIMAPOST
  1

  9
$DIMALT
 70
     0
  9
$DIMALTD
 70
     2
  9
$DIMALTF
 40
25.4
  9
$DIMLFAC
 40
1.0
  9
$DIMTOFL
 70
     0
  9
$DIMTVP
 40
0.0
  9
$DIMTIX
 70
     0
  9
$DIMSOXD
 70
     0
  9
$DIMSAH
 70
     0
  9
$DIMBLK1
  1

  9
$DIMBLK2
  1

  9
$DIMSTYLE
  2
Standard
  9
$DIMCLRD
 70
     0
  9
$DIMCLRE
 70
     0
  9
$DIMCLRT
 70
     0
  9
$DIMTFAC
 40
1.0
  9
$DIMGAP
 40
0.09
  9
$DIMJUST
 70
     0
  9
$DIMSD1
 70
     0
  9
$DIMSD2
 70
     0
  9
$DIMTOLJ
 70
     1
  9
$DIMTZIN
 70
     0
  9
$DIMALTZ
 70
     0
  9
$DIMALTTZ
 70
     0
  9
$DIMUPT
 70
     0
  9
$DIMDEC
 70
     4
  9
$DIMTDEC
 70
     4
  9
$DIMALTU
 70
     2
  9
$DIMALTTD
 70
     2
  9
$DIMTXSTY
  7
STANDARD
  9
$DIMAUNIT
 70
     0
  9
$DIMADEC
 70
     0
  9
$DIMALTRND
 40
0.0
  9
$DIMAZIN
 70
     0
  9
$DIMDSEP
 70
    46
  9
$DIMATFIT
 70
     3
  9
$DIMFRAC
 70
     0
  9
$DIMLDRBLK
  1

  9
$DIMLUNIT
 70
     2
  9
$DIMLWD
 70
    -2
  9
$DIMLWE
 70
    -2
  9
$DIMTMOVE
 70
     2
  9
$LUNITS
 70
     2
  9
$LUPREC
 70
     4
  9
$SKETCHINC
 40
0.1
  9
$FILLETRAD
 40
0.0
  9
$AUNITS
 70
     0
  9
$AUPREC
 70
     0
  9
$MENU
  1
ACAD
  9
$ELEVATION
 40
0.0
  9
$PELEVATION
 40
0.0
  9
$THICKNESS
 40
0.0
  9
$LIMCHECK
 70
     0
  9
$CHAMFERA
 40
0.0
  9
$CHAMFERB
 40
0.0
  9
$CHAMFERC
 40
0.0
  9
$CHAMFERD
 40
0.0
  9
$SKPOLY
 70
     0
  9
$TDCREATE
 40
2449661.611372222
  9
$TDUCREATE
 40
2449661.903038888
  9
$TDUPDATE
 40
2453045.362647719
  9
$TDUUPDATE
 40
2453045.654314387
  9
$TDINDWG
 40
0.3124644329
  9
$TDUSRTIMER
 40
0.3124644329
  9
$USRTIMER
 70
     1
  9
$ANGBASE
 50
0.0
  9
$ANGDIR
 70
     0
  9
$PDMODE
 70
     0
  9
$PDSIZE
 40
0.0
  9
$PLINEWID
 40
0.0
  9
$SPLFRAME
 70
     0
  9
$SPLINETYPE
 70
     6
  9
$SPLINESEGS
 70
     8
  9
$HANDSEED
  5
610
  9
$SURFTAB1
 70
     6
  9
$SURFTAB2
 70
     6
  9
$SURFTYPE
 70
     6
  9
$SURFU
 70
     6
  9
$SURFV
 70
     6
  9
$UCSBASE
  2

  9
$UCSNAME
  2

  9
$UCSORG
 10
0.0
 20
0.0
 30
0.0
  9
$UCSXDIR
 10
1.0
 20
0.0
 30
0.0
  9
$UCSYDIR
 10
0.0
 20
1.0
 30
0.0
  9
$UCSORTHOREF
  2

  9
$UCSORTHOVIEW
 70
     0
  9
$UCSORGTOP
 10
0.0
 20
0.0
 30
0.0
  9
$UCSORGBOTTOM
 10
0.0
 20
0.0
 30
0.0
  9
$UCSORGLEFT
 10
0.0
 20
0.0
 30
0.0
  9
$UCSORGRIGHT
 10
0.0
 20
0.0
 30
0.0
  9
$UCSORGFRONT
 10
0.0
 20
0.0
 30
0.0
  9
$UCSORGBACK
 10
0.0
 20
0.0
 30
0.0
  9
$PUCSBASE
  2

  9
$PUCSNAME
  2

  9
$PUCSORG
 10
0.0
 20
0.0
 30
0.0
  9
$PUCSXDIR
 10
1.0
 20
0.0
 30
0.0
  9
$PUCSYDIR
 10
0.0
 20
1.0
 30
0.0
  9
$PUCSORTHOREF
  2

  9
$PUCSORTHOVIEW
 70
     0
  9
$PUCSORGTOP
 10
0.0
 20
0.0
 30
0.0
  9
$PUCSORGBOTTOM
 10
0.0
 20
0.0
 30
0.0
  9
$PUCSORGLEFT
 10
0.0
 20
0.0
 30
0.0
  9
$PUCSORGRIGHT
 10
0.0
 20
0.0
 30
0.0
  9
$PUCSORGFRONT
 10
0.0
 20
0.0
 30
0.0
  9
$PUCSORGBACK
 10
0.0
 20
0.0
 30
0.0
  9
$USERI1
 70
     0
  9
$USERI2
 70
     0
  9
$USERI3
 70
     0
  9
$USERI4
 70
     0
  9
$USERI5
 70
     0
  9
$USERR1
 40
0.0
  9
$USERR2
 40
0.0
  9
$USERR3
 40
0.0
  9
$USERR4
 40
0.0
  9
$USERR5
 40
0.0
  9
$WORLDVIEW
 70
     1
  9
$SHADEDGE
 70
     3
  9
$SHADEDIF
 70
    70
  9
$TILEMODE
 70
     1
  9
$MAXACTVP
 70
    16
  9
$PINSBASE
 10
0.0
 20
0.0
 30
0.0
  9
$PLIMCHECK
 70
     0
  9
$PEXTMIN
 10
1.000000000000000E+20
 20
1.000000000000000E+20
 30
1.000000000000000E+20
  9
$PEXTMAX
 10
-1.000000000000000E+20
 20
-1.000000000000000E+20
 30
-1.000000000000000E+20
  9
$PLIMMIN
 10
0.0
 20
0.0
  9
$PLIMMAX
 10
12.0
 20
9.0
  9
$UNITMODE
 70
     0
  9
$VISRETAIN
 70
     0
  9
$PLINEGEN
 70
     1
  9
$PSLTSCALE
 70
     1
  9
$TREEDEPTH
 70
  3020
  9
$CMLSTYLE
  2
Standard
  9
$CMLJUST
 70
     0
  9
$CMLSCALE
 40
1.0
  9
$PROXYGRAPHICS
 70
     1
  9
$MEASUREMENT
 70
     0
  9
$CELWEIGHT
370
    -1
  9
$ENDCAPS
280
     0
  9
$JOINSTYLE
280
     0
  9
$LWDISPLAY
290
     0
  9
$INSUNITS
 70
     0
  9
$HYPERLINKBASE
  1

  9
$STYLESHEET
  1
8500ColorShaded.ctb
  9
$XEDIT
290
     1
  9
$CEPSNTYPE
380
     0
  9
$PSTYLEMODE
290
     1
  9
$FINGERPRINTGUID
  2
{AFC3A5A6-5474-4BD7-BBF9-1140C8127D0F}
  9
$VERSIONGUID
  2
{F90EC004-C4BE-4F1B-BD9F-5C092FD38E38}
  9
$EXTNAMES
290
     1
  9
$PSVPSCALE
 40
0.0
  9
$OLESTARTUP
290
     0
  0
ENDSEC
  0
SECTION
  2
CLASSES
  0
CLASS
  1
ACDBDICTIONARYWDFLT
  2
AcDbDictionaryWithDefault
  3
AutoCAD 2000
 90
        0
280
     0
281
     0
  0
CLASS
  1
ACDBPLACEHOLDER
  2
AcDbPlaceHolder
  3
AutoCAD 2000
 90
        0
280
     0
281
     0
  0
CLASS
  1
LAYOUT
  2
AcDbLayout
  3
AutoCAD 2000
 90
        0
280
     0
281
     0
  0
CLASS
  1
DICTIONARYVAR
  2
AcDbDictionaryVar
  3
AutoCAD 2000
 90
        0
280
     0
281
     0
  0
CLASS
  1
PLOTSETTINGS
  2
AcDbPlotSettings
  3
AutoCAD 2000
 90
        0
280
     0
281
     0
  0
ENDSEC
  0
SECTION
  2
TABLES
  0
TABLE
  2
VPORT
  5
8
330
0
100
AcDbSymbolTable
 70
     3
  0
VPORT
  5
60F
330
8
100
AcDbSymbolTableRecord
100
AcDbViewportTableRecord
  2
*Active
 70
     0
 10
0.0
 20
0.0
 11
1.0
 21
1.0
 12
8.689402325171737
 22
3.824259684477087
 13
0.0
 23
0.0
 14
0.14
 24
0.14
 15
0.14
 25
0.14
 16
0.0
 26
0.0
 36
1.0
 17
0.0
 27
0.0
 37
0.0
 40
11.46175896980849
 41
1.639044943820224
 42
50.0
 43
0.0
 44
0.0
 50
0.0
 51
0.0
 71
     0
 72
  5000
 73
     1
 74
     1
 75
     0
 76
     0
 77
     0
 78
     0
281
     0
 65
     1
110
0.0
120
0.0
130
0.0
111
1.0
121
0.0
131
0.0
112
0.0
122
1.0
132
0.0
 79
     0
146
0.0
  0
ENDTAB
  0
TABLE
  2
LTYPE
  5
5
330
0
100
AcDbSymbolTable
 70
     2
  0
LTYPE
  5
13
330
5
100
AcDbSymbolTableRecord
100
AcDbLinetypeTableRecord
  2
ByBlock
 70
     0
  3

 72
    65
 73
     0
 40
0.0
  0
LTYPE
  5
14
330
5
100
AcDbSymbolTableRecord
100
AcDbLinetypeTableRecord
  2
ByLayer
 70
     0
  3

 72
    65
 73
     0
 40
0.0
  0
LTYPE
  5
15
330
5
100
AcDbSymbolTableRecord
100
AcDbLinetypeTableRecord
  2
CONTINUOUS
 70
     0
  3
Solid line
 72
    65
 73
     0
 40
0.0
  0
LTYPE
  5
26
330
5
100
AcDbSymbolTableRecord
100
AcDbLinetypeTableRecord
  2
HIDDEN
 70
     0
  3
__ __ __ __ __ __ __ __ __ __ __ __ __ __ __ __
 72
    65
 73
     2
 40
0.375
 49
0.25
 74
     0
 49
-0.125
 74
     0
  0
ENDTAB
  0
TABLE
  2
LAYER
  5
2
330
0
100
AcDbSymbolTable
 70
    10
  0
LAYER
  5
10
330
2
100
AcDbSymbolTableRecord
100
AcDbLayerTableRecord
  2
0
 70
     0
 62
     7
  6
CONTINUOUS
370
    -3
390
F
  0
LAYER
  5
2C
330
2
100
AcDbSymbolTableRecord
100
AcDbLayerTableRecord
  2
TEXT_BUBBLES
 70
     0
 62
     6
  6
CONTINUOUS
370
    -3
390
F
  0
LAYER
  5
2D
330
2
100
AcDbSymbolTableRecord
100
AcDbLayerTableRecord
  2
IMAGE
 70
     0
 62
     7
  6
CONTINUOUS
370
    -3
390
F
  0
LAYER
  5
30
330
2
100
AcDbSymbolTableRecord
100
AcDbLayerTableRecord
  2
TEXT_LEADERS
 70
     0
 62
    -5
  6
CONTINUOUS
370
    -3
390
F
  0
LAYER
  5
32
330
2
100
AcDbSymbolTableRecord
100
AcDbLayerTableRecord
  2
INSTRUCT-OPTION
 70
     0
 62
     7
  6
CONTINUOUS
370
    -3
390
F
  0
LAYER
  5
34
330
2
100
AcDbSymbolTableRecord
100
AcDbLayerTableRecord
  2
INSTRUCT-CALLOUT
 70
     0
 62
     4
  6
CONTINUOUS
370
    -3
390
F
  0
LAYER
  5
35
330
2
100
AcDbSymbolTableRecord
100
AcDbLayerTableRecord
  2
OPTION-MODEL-33DRC
 70
     0
 62
    -1
  6
CONTINUOUS
370
    -3
390
F
  0
LAYER
  5
36
330
2
100
AcDbSymbolTableRecord
100
AcDbLayerTableRecord
  2
OPTION-MODEL-33DLRC
 70
     0
 62
    -1
  6
CONTINUOUS
370
    -3
390
F
  0
LAYER
  5
37
330
2
100
AcDbSymbolTableRecord
100
AcDbLayerTableRecord
  2
OPTION-MODEL-33DNP
 70
     0
 62
     1
  6
CONTINUOUS
370
    -3
390
F
  0
LAYER
  5
544
330
2
100
AcDbSymbolTableRecord
100
AcDbLayerTableRecord
  2
TITLE
 70
     0
 62
     4
  6
CONTINUOUS
370
    -3
390
F
  0
ENDTAB
  0
TABLE
  2
STYLE
  5
3
330
0
100
AcDbSymbolTable
 70
     5
  0
STYLE
  5
11
330
3
100
AcDbSymbolTableRecord
100
AcDbTextStyleTableRecord
  2
STANDARD
 70
     0
 40
0.0
 41
1.0
 50
0.0
 71
     0
 42
0.2
  3
txt
  4

  0
STYLE
  5
25
330
3
100
AcDbSymbolTableRecord
100
AcDbTextStyleTableRecord
  2
ROMANS
 70
     0
 40
0.0
 41
1.0
 50
0.0
 71
     0
 42
0.24
  3
ROMANS.SHX
  4

  0
STYLE
  5
545
330
3
100
AcDbSymbolTableRecord
100
AcDbTextStyleTableRecord
  2
L100
 70
     0
 40
0.1
 41
1.0
 50
0.0
 71
     0
 42
0.1
  3
romans.shx
  4

  0
STYLE
  5
546
330
3
100
AcDbSymbolTableRecord
100
AcDbTextStyleTableRecord
  2
L200
 70
     0
 40
0.2
 41
1.0
 50
0.0
 71
     0
 42
0.081
  3
ARIAL.TTF
  4

1001
ACAD
1000
Arial
1071
       34
  0
STYLE
  5
547
330
3
100
AcDbSymbolTableRecord
100
AcDbTextStyleTableRecord
  2
L80
 70
     0
 40
0.08
 41
1.0
 50
0.0
 71
     0
 42
0.08
  3
ROMANS
  4

  0
ENDTAB
  0
TABLE
  2
VIEW
  5
6
330
0
100
AcDbSymbolTable
 70
     0
  0
ENDTAB
  0
TABLE
  2
UCS
  5
7
330
0
100
AcDbSymbolTable
 70
     0
  0
ENDTAB
  0
TABLE
  2
APPID
  5
9
330
0
100
AcDbSymbolTable
 70
     3
  0
APPID
  5
12
330
9
100
AcDbSymbolTableRecord
100
AcDbRegAppTableRecord
  2
ACAD
 70
     0
  0
APPID
  5
548
330
9
100
AcDbSymbolTableRecord
100
AcDbRegAppTableRecord
  2
RAK
 70
     0
  0
APPID
  5
549
330
9
100
AcDbSymbolTableRecord
100
AcDbRegAppTableRecord
  2
DCO15
 70
     0
  0
ENDTAB
  0
TABLE
  2
DIMSTYLE
  5
A
330
0
100
AcDbSymbolTable
 70
     1
100
AcDbDimStyleTable
 71
     0
  0
DIMSTYLE
105
533
330
A
100
AcDbSymbolTableRecord
100
AcDbDimStyleTableRecord
  2
Standard
 70
     0
340
11
  0
ENDTAB
  0
TABLE
  2
BLOCK_RECORD
  5
1
330
0
100
AcDbSymbolTable
 70
     3
  0
BLOCK_RECORD
  5
1E
330
1
100
AcDbSymbolTableRecord
100
AcDbBlockTableRecord
  2
*Model_Space
340
21
  0
BLOCK_RECORD
  5
1A
330
1
100
AcDbSymbolTableRecord
100
AcDbBlockTableRecord
  2
*Paper_Space
340
1D
  0
BLOCK_RECORD
  5
22
330
1
100
AcDbSymbolTableRecord
100
AcDbBlockTableRecord
  2
*X0
340
0
102
{BLKREFS
331
1E4
102
}
  0
BLOCK_RECORD
  5
23
330
1
100
AcDbSymbolTableRecord
100
AcDbBlockTableRecord
  2
*X1
340
0
102
{BLKREFS
331
1E9
102
}
  0
BLOCK_RECORD
  5
54A
330
1
100
AcDbSymbolTableRecord
100
AcDbBlockTableRecord
  2
titleblock
340
0
102
{BLKREFS
331
559
102
}
  0
ENDTAB
  0
ENDSEC
  0
SECTION
  2
BLOCKS
  0
BLOCK
  5
3A
330
1E
100
AcDbEntity
  8
0
100
AcDbBlockBegin
  2
*Model_Space
 70
     0
 10
0.0
 20
0.0
 30
0.0
  3
*Model_Space
  1

  0
ENDBLK
  5
3B
330
1E
100
AcDbEntity
  8
0
100
AcDbBlockEnd
  0
BLOCK
  5
38
330
1A
100
AcDbEntity
 67
     1
  8
0
100
AcDbBlockBegin
  2
*Paper_Space
 70
     0
 10
0.0
 20
0.0
 30
0.0
  3
*Paper_Space
  1

  0
ENDBLK
  5
39
330
1A
100
AcDbEntity
 67
     1
  8
0
100
AcDbBlockEnd
  0
BLOCK
  5
3C
330
22
100
AcDbEntity
  8
0
100
AcDbBlockBegin
  2
*X0
 70
     1
 10
0.0
 20
0.0
 30
0.0
  3
*X0
  1

  0
LINE
  5
3D
330
22
100
AcDbEntity
  8
0
 62
     0
100
AcDbLine
 10
3.712310601229374
 20
8.485281374238569
 30
0.0
 11
3.800698948877692
 21
8.573669721886888
 31
0.0
  0
LINE
  5
3E
330
22
100
AcDbEntity
  8
0
 62
     0
100
AcDbLine
 10
3.889087296526011
 20
8.662058069535207
 30
0.0
 11
3.977475644174329
 21
8.750446417183527
 31
0.0
  0
LINE
  5
3F
330
22
100
AcDbEntity
  8
0
 62
     0
100
AcDbLine
 10
3.535533905932737
 20
8.485281374238569
 30
0.0
 11
3.623922253581055
 21
8.573669721886888
 31
0.0
  0
LINE
  5
40
330
22
100
AcDbEntity
  8
0
 62
     0
100
AcDbLine
 10
3.712310601229373
 20
8.662058069535207
 30
0.0
 11
3.800698948877692
 21
8.750446417183527
 31
0.0
  0
LINE
  5
41
330
22
100
AcDbEntity
  8
0
 62
     0
100
AcDbLine
 10
3.88908729652601
 20
8.838834764831846
 30
0.0
 11
3.94829707583411
 21
8.898044544139946
 31
0.0
  0
LINE
  5
42
330
22
100
AcDbEntity
  8
0
 62
     0
100
AcDbLine
 10
3.535533905932738
 20
8.662058069535207
 30
0.0
 11
3.623922253581056
 21
8.750446417183527
 31
0.0
  0
LINE
  5
43
330
22
100
AcDbEntity
  8
0
 62
     0
100
AcDbLine
 10
3.712310601229374
 20
8.838834764831846
 30
0.0
 11
3.771520380537474
 21
8.898044544139946
 31
0.0
  0
LINE
  5
44
330
22
100
AcDbEntity
  8
0
 62
     0
100
AcDbLine
 10
3.445666420590246
 20
8.748967279489352
 30
0.0
 11
3.447145558284419
 21
8.750446417183525
 31
0.0
  0
LINE
  5
45
330
22
100
AcDbEntity
  8
0
 62
     0
100
AcDbLine
 10
3.535533905932737
 20
8.838834764831844
 30
0.0
 11
3.594743685240837
 21
8.898044544139944
 31
0.0
  0
LINE
  5
46
330
22
100
AcDbEntity
  8
0
 62
     0
100
AcDbLine
 10
3.889087296526011
 20
8.485281374238571
 30
0.0
 11
3.977475644174329
 21
8.57366972188689
 31
0.0
  0
LINE
  5
47
330
22
100
AcDbEntity
  8
0
 62
     0
100
AcDbLine
 10
3.679164970861255
 20
8.518427004606689
 30
0.0
 11
3.767553318509573
 21
8.606815352255008
 31
0.0
  0
LINE
  5
48
330
22
100
AcDbEntity
  8
0
 62
     0
100
AcDbLine
 10
3.855941666157892
 20
8.695203699903327
 30
0.0
 11
3.94433001380621
 21
8.783592047551646
 31
0.0
  0
LINE
  5
49
330
22
100
AcDbEntity
  8
0
 62
     0
100
AcDbLine
 10
3.502388275564618
 20
8.518427004606689
 30
0.0
 11
3.590776623212936
 21
8.606815352255008
 31
0.0
  0
LINE
  5
4A
330
22
100
AcDbEntity
  8
0
 62
     0
100
AcDbLine
 10
3.679164970861254
 20
8.695203699903327
 30
0.0
 11
3.767553318509572
 21
8.783592047551646
 31
0.0
  0
LINE
  5
4B
330
22
100
AcDbEntity
  8
0
 62
     0
100
AcDbLine
 10
3.855941666157891
 20
8.871980395199965
 30
0.0
 11
3.882005815097871
 21
8.898044544139946
 31
0.0
  0
LINE
  5
4C
330
22
100
AcDbEntity
  8
0
 62
     0
100
AcDbLine
 10
3.502388275564618
 20
8.695203699903327
 30
0.0
 11
3.590776623212936
 21
8.783592047551646
 31
0.0
  0
LINE
  5
4D
330
22
100
AcDbEntity
  8
0
 62
     0
100
AcDbLine
 10
3.679164970861255
 20
8.871980395199965
 30
0.0
 11
3.705229119801235
 21
8.898044544139946
 31
0.0
  0
LINE
  5
4E
330
22
100
AcDbEntity
  8
0
 62
     0
100
AcDbLine
 10
3.502388275564618
 20
8.871980395199964
 30
0.0
 11
3.528452424504599
 21
8.898044544139944
 31
0.0
  0
LINE
  5
4F
330
22
100
AcDbEntity
  8
0
 62
     0
100
AcDbLine
 10
3.855941666157892
 20
8.518427004606689
 30
0.0
 11
3.94433001380621
 21
8.606815352255008
 31
0.0
  0
LINE
  5
50
330
22
100
AcDbEntity
  8
0
 62
     0
100
AcDbLine
 10
3.532364955075066
 20
8.437918249556739
 30
0.0
 11
3.557630992844817
 21
8.463184287326489
 31
0.0
  0
LINE
  5
51
330
22
100
AcDbEntity
  8
0
 62
     0
100
AcDbLine
 10
3.646019340493135
 20
8.551572634974808
 30
0.0
 11
3.734407688141454
 21
8.639960982623128
 31
0.0
  0
LINE
  5
52
330
22
100
AcDbEntity
  8
0
 62
     0
100
AcDbLine
 10
3.822796035789772
 20
8.728349330271447
 30
0.0
 11
3.91118438343809
 21
8.816737677919766
 31
0.0
  0
LINE
  5
53
330
22
100
AcDbEntity
  8
0
 62
     0
100
AcDbLine
 10
3.469242645196499
 20
8.551572634974808
 30
0.0
 11
3.557630992844817
 21
8.639960982623128
 31
0.0
  0
LINE
  5
54
330
22
100
AcDbEntity
  8
0
 62
     0
100
AcDbLine
 10
3.646019340493135
 20
8.728349330271447
 30
0.0
 11
3.734407688141454
 21
8.816737677919766
 31
0.0
  0
LINE
  5
55
330
22
100
AcDbEntity
  8
0
 62
     0
100
AcDbLine
 10
3.469242645196498
 20
8.728349330271445
 30
0.0
 11
3.557630992844817
 21
8.816737677919764
 31
0.0
  0
LINE
  5
56
330
22
100
AcDbEntity
  8
0
 62
     0
100
AcDbLine
 10
3.69168324892849
 20
8.420459848113527
 30
0.0
 11
3.734407688141454
 21
8.463184287326491
 31
0.0
  0
LINE
  5
57
330
22
100
AcDbEntity
  8
0
 62
     0
100
AcDbLine
 10
3.822796035789772
 20
8.55157263497481
 30
0.0
 11
3.91118438343809
 21
8.639960982623129
 31
0.0
  0
LINE
  5
58
330
22
100
AcDbEntity
  8
0
 62
     0
100
AcDbLine
 10
3.999572731086408
 20
8.728349330271448
 30
0.0
 11
4.006818659779136
 21
8.735595258964176
 31
0.0
  0
LINE
  5
59
330
22
100
AcDbEntity
  8
0
 62
     0
100
AcDbLine
 10
3.888785312402934
 20
8.440785216291333
 30
0.0
 11
3.911184383438091
 21
8.463184287326489
 31
0.0
  0
LINE
  5
5A
330
22
100
AcDbEntity
  8
0
 62
     0
100
AcDbLine
 10
3.770433825427904
 20
8.449255236952119
 30
0.0
 11
3.734407688141452
 21
8.485281374238571
 31
0.0
  0
LINE
  5
5B
330
22
100
AcDbEntity
  8
0
 62
     0
100
AcDbLine
 10
3.646019340493134
 20
8.57366972188689
 30
0.0
 11
3.557630992844816
 21
8.662058069535209
 31
0.0
  0
LINE
  5
5C
330
22
100
AcDbEntity
  8
0
 62
     0
100
AcDbLine
 10
3.469242645196497
 20
8.750446417183528
 30
0.0
 11
3.444577965998586
 21
8.77511109638144
 31
0.0
  0
LINE
  5
5D
330
22
100
AcDbEntity
  8
0
 62
     0
100
AcDbLine
 10
3.615226699844925
 20
8.427685667238462
 30
0.0
 11
3.557630992844815
 21
8.485281374238571
 31
0.0
  0
LINE
  5
5E
330
22
100
AcDbEntity
  8
0
 62
     0
100
AcDbLine
 10
3.469242645196497
 20
8.57366972188689
 30
0.0
 11
3.452257495968546
 21
8.590654871114841
 31
0.0
  0
LINE
  5
5F
330
22
100
AcDbEntity
  8
0
 62
     0
100
AcDbLine
 10
3.929442384574172
 20
8.467023373102486
 30
0.0
 11
3.911184383438088
 21
8.485281374238571
 31
0.0
  0
LINE
  5
60
330
22
100
AcDbEntity
  8
0
 62
     0
100
AcDbLine
 10
3.82279603578977
 20
8.57366972188689
 30
0.0
 11
3.734407688141452
 21
8.662058069535209
 31
0.0
  0
LINE
  5
61
330
22
100
AcDbEntity
  8
0
 62
     0
100
AcDbLine
 10
3.646019340493134
 20
8.750446417183528
 30
0.0
 11
3.557630992844815
 21
8.838834764831847
 31
0.0
  0
LINE
  5
62
330
22
100
AcDbEntity
  8
0
 62
     0
100
AcDbLine
 10
3.995147133285459
 20
8.578095319687836
 30
0.0
 11
3.911184383438088
 21
8.662058069535207
 31
0.0
  0
LINE
  5
63
330
22
100
AcDbEntity
  8
0
 62
     0
100
AcDbLine
 10
3.82279603578977
 20
8.750446417183527
 30
0.0
 11
3.734407688141451
 21
8.838834764831846
 31
0.0
  0
LINE
  5
64
330
22
100
AcDbEntity
  8
0
 62
     0
100
AcDbLine
 10
3.999572731086407
 20
8.750446417183527
 30
0.0
 11
3.911184383438089
 21
8.838834764831846
 31
0.0
  0
LINE
  5
65
330
22
100
AcDbEntity
  8
0
 62
     0
100
AcDbLine
 10
3.818975627841825
 20
8.467004695274436
 30
0.0
 11
3.767553318509571
 21
8.51842700460669
 31
0.0
  0
LINE
  5
66
330
22
100
AcDbEntity
  8
0
 62
     0
100
AcDbLine
 10
3.679164970861253
 20
8.60681535225501
 30
0.0
 11
3.590776623212935
 21
8.695203699903329
 31
0.0
  0
LINE
  5
67
330
22
100
AcDbEntity
  8
0
 62
     0
100
AcDbLine
 10
3.502388275564617
 20
8.783592047551648
 30
0.0
 11
3.441698142259851
 21
8.844282180856414
 31
0.0
  0
LINE
  5
68
330
22
100
AcDbEntity
  8
0
 62
     0
100
AcDbLine
 10
3.679164970861252
 20
8.430038656958371
 30
0.0
 11
3.590776623212934
 21
8.51842700460669
 31
0.0
  0
LINE
  5
69
330
22
100
AcDbEntity
  8
0
 62
     0
100
AcDbLine
 10
3.502388275564616
 20
8.60681535225501
 30
0.0
 11
3.44937767222981
 21
8.659825955589814
 31
0.0
  0
LINE
  5
6A
330
22
100
AcDbEntity
  8
0
 62
     0
100
AcDbLine
 10
3.463526645447383
 20
8.468900287075603
 30
0.0
 11
3.457057202199768
 21
8.475369730323219
 31
0.0
  0
LINE
  5
6B
330
22
100
AcDbEntity
  8
0
 62
     0
100
AcDbLine
 10
3.954081665340905
 20
8.508675353071993
 30
0.0
 11
3.944330013806208
 21
8.51842700460669
 31
0.0
  0
LINE
  5
6C
330
22
100
AcDbEntity
  8
0
 62
     0
100
AcDbLine
 10
3.855941666157889
 20
8.60681535225501
 30
0.0
 11
3.767553318509571
 21
8.695203699903329
 31
0.0
  0
LINE
  5
6D
330
22
100
AcDbEntity
  8
0
 62
     0
100
AcDbLine
 10
3.679164970861253
 20
8.783592047551648
 30
0.0
 11
3.590776623212935
 21
8.871980395199967
 31
0.0
  0
LINE
  5
6E
330
22
100
AcDbEntity
  8
0
 62
     0
100
AcDbLine
 10
4.002342181286541
 20
8.637191532422992
 30
0.0
 11
3.944330013806207
 21
8.695203699903327
 31
0.0
  0
LINE
  5
6F
330
22
100
AcDbEntity
  8
0
 62
     0
100
AcDbLine
 10
3.855941666157888
 20
8.783592047551646
 30
0.0
 11
3.76755331850957
 21
8.871980395199965
 31
0.0
  0
LINE
  5
70
330
22
100
AcDbEntity
  8
0
 62
     0
100
AcDbLine
 10
3.97297269715678
 20
8.843337711849391
 30
0.0
 11
3.944330013806208
 21
8.871980395199964
 31
0.0
  0
LINE
  5
71
330
22
100
AcDbEntity
  8
0
 62
     0
100
AcDbLine
 10
3.889087296526008
 20
8.463184287326491
 30
0.0
 11
3.800698948877689
 21
8.55157263497481
 31
0.0
  0
LINE
  5
72
330
22
100
AcDbEntity
  8
0
 62
     0
100
AcDbLine
 10
3.712310601229371
 20
8.639960982623129
 30
0.0
 11
3.623922253581053
 21
8.728349330271448
 31
0.0
  0
LINE
  5
73
330
22
100
AcDbEntity
  8
0
 62
     0
100
AcDbLine
 10
3.535533905932735
 20
8.816737677919768
 30
0.0
 11
3.454227039712556
 21
8.898044544139946
 31
0.0
  0
LINE
  5
74
330
22
100
AcDbEntity
  8
0
 62
     0
100
AcDbLine
 10
3.712310601229372
 20
8.463184287326491
 30
0.0
 11
3.623922253581054
 21
8.55157263497481
 31
0.0
  0
LINE
  5
75
330
22
100
AcDbEntity
  8
0
 62
     0
100
AcDbLine
 10
3.535533905932736
 20
8.639960982623129
 30
0.0
 11
3.447145558284418
 21
8.728349330271448
 31
0.0
  0
LINE
  5
76
330
22
100
AcDbEntity
  8
0
 62
     0
100
AcDbLine
 10
3.535533905932735
 20
8.463184287326491
 30
0.0
 11
3.454177378461033
 21
8.544540814798192
 31
0.0
  0
LINE
  5
77
330
22
100
AcDbEntity
  8
0
 62
     0
100
AcDbLine
 10
3.978720946107638
 20
8.550327333041497
 30
0.0
 11
3.977475644174327
 21
8.551572634974808
 31
0.0
  0
LINE
  5
78
330
22
100
AcDbEntity
  8
0
 62
     0
100
AcDbLine
 10
3.889087296526009
 20
8.639960982623128
 30
0.0
 11
3.80069894887769
 21
8.728349330271447
 31
0.0
  0
LINE
  5
79
330
22
100
AcDbEntity
  8
0
 62
     0
100
AcDbLine
 10
3.712310601229372
 20
8.816737677919766
 30
0.0
 11
3.631003735009194
 21
8.898044544139944
 31
0.0
  0
LINE
  5
7A
330
22
100
AcDbEntity
  8
0
 62
     0
100
AcDbLine
 10
4.005226617634966
 20
8.700598356810807
 30
0.0
 11
3.977475644174327
 21
8.728349330271447
 31
0.0
  0
LINE
  5
7B
330
22
100
AcDbEntity
  8
0
 62
     0
100
AcDbLine
 10
3.889087296526009
 20
8.816737677919766
 30
0.0
 11
3.80778043030583
 21
8.898044544139944
 31
0.0
  0
ENDBLK
  5
7C
330
22
100
AcDbEntity
  8
0
100
AcDbBlockEnd
  0
BLOCK
  5
7D
330
23
100
AcDbEntity
  8
0
100
AcDbBlockBegin
  2
*X1
 70
     1
 10
0.0
 20
0.0
 30
0.0
  3
*X1
  1

  0
LINE
  5
7E
330
23
100
AcDbEntity
  8
0
 62
     0
100
AcDbLine
 10
1.590990257669731
 20
8.485281374238569
 30
0.0
 11
1.67937860531805
 21
8.573669721886888
 31
0.0
  0
LINE
  5
7F
330
23
100
AcDbEntity
  8
0
 62
     0
100
AcDbLine
 10
1.767766952966368
 20
8.662058069535207
 30
0.0
 11
1.856155300614687
 21
8.750446417183527
 31
0.0
  0
LINE
  5
80
330
23
100
AcDbEntity
  8
0
 62
     0
100
AcDbLine
 10
1.944543648263005
 20
8.838834764831846
 30
0.0
 11
1.955250882199919
 21
8.849541998768758
 31
0.0
  0
LINE
  5
81
330
23
100
AcDbEntity
  8
0
 62
     0
100
AcDbLine
 10
1.440774787057745
 20
8.51184259892322
 30
0.0
 11
1.502601910021413
 21
8.573669721886888
 31
0.0
  0
LINE
  5
82
330
23
100
AcDbEntity
  8
0
 62
     0
100
AcDbLine
 10
1.590990257669732
 20
8.662058069535207
 30
0.0
 11
1.67937860531805
 21
8.750446417183527
 31
0.0
  0
LINE
  5
83
330
23
100
AcDbEntity
  8
0
 62
     0
100
AcDbLine
 10
1.767766952966369
 20
8.838834764831846
 30
0.0
 11
1.826976732274469
 21
8.898044544139946
 31
0.0
  0
LINE
  5
84
330
23
100
AcDbEntity
  8
0
 62
     0
100
AcDbLine
 10
1.414213562373095
 20
8.662058069535206
 30
0.0
 11
1.502601910021413
 21
8.750446417183525
 31
0.0
  0
LINE
  5
85
330
23
100
AcDbEntity
  8
0
 62
     0
100
AcDbLine
 10
1.590990257669732
 20
8.838834764831844
 30
0.0
 11
1.650200036977832
 21
8.898044544139944
 31
0.0
  0
LINE
  5
86
330
23
100
AcDbEntity
  8
0
 62
     0
100
AcDbLine
 10
1.426719169572225
 20
8.851340372030973
 30
0.0
 11
1.473423341681195
 21
8.898044544139944
 31
0.0
  0
LINE
  5
87
330
23
100
AcDbEntity
  8
0
 62
     0
100
AcDbLine
 10
1.767766952966368
 20
8.485281374238569
 30
0.0
 11
1.856155300614687
 21
8.573669721886888
 31
0.0
  0
LINE
  5
88
330
23
100
AcDbEntity
  8
0
 62
     0
100
AcDbLine
 10
1.944543648263005
 20
8.662058069535207
 30
0.0
 11
1.947571352229958
 21
8.665085773502161
 31
0.0
  0
LINE
  5
89
330
23
100
AcDbEntity
  8
0
 62
     0
100
AcDbLine
 10
1.557844627301613
 20
8.518427004606689
 30
0.0
 11
1.646232974949931
 21
8.606815352255008
 31
0.0
  0
LINE
  5
8A
330
23
100
AcDbEntity
  8
0
 62
     0
100
AcDbLine
 10
1.73462132259825
 20
8.695203699903327
 30
0.0
 11
1.823009670246568
 21
8.783592047551646
 31
0.0
  0
LINE
  5
8B
330
23
100
AcDbEntity
  8
0
 62
     0
100
AcDbLine
 10
1.911398017894887
 20
8.871980395199965
 30
0.0
 11
1.937462166834868
 21
8.898044544139947
 31
0.0
  0
LINE
  5
8C
330
23
100
AcDbEntity
  8
0
 62
     0
100
AcDbLine
 10
1.416135506291012
 20
8.553494578892726
 30
0.0
 11
1.469456279653294
 21
8.606815352255008
 31
0.0
  0
LINE
  5
8D
330
23
100
AcDbEntity
  8
0
 62
     0
100
AcDbLine
 10
1.557844627301612
 20
8.695203699903327
 30
0.0
 11
1.646232974949931
 21
8.783592047551646
 31
0.0
  0
LINE
  5
8E
330
23
100
AcDbEntity
  8
0
 62
     0
100
AcDbLine
 10
1.734621322598249
 20
8.871980395199965
 30
0.0
 11
1.76068547153823
 21
8.898044544139946
 31
0.0
  0
LINE
  5
8F
330
23
100
AcDbEntity
  8
0
 62
     0
100
AcDbLine
 10
1.391284088433699
 20
8.705419856332049
 30
0.0
 11
1.469456279653294
 21
8.783592047551644
 31
0.0
  0
LINE
  5
90
330
23
100
AcDbEntity
  8
0
 62
     0
100
AcDbLine
 10
1.557844627301613
 20
8.871980395199964
 30
0.0
 11
1.583908776241593
 21
8.898044544139944
 31
0.0
  0
LINE
  5
91
330
23
100
AcDbEntity
  8
0
 62
     0
100
AcDbLine
 10
1.734621322598249
 20
8.518427004606689
 30
0.0
 11
1.823009670246567
 21
8.606815352255008
 31
0.0
  0
LINE
  5
92
330
23
100
AcDbEntity
  8
0
 62
     0
100
AcDbLine
 10
1.911398017894886
 20
8.695203699903327
 30
0.0
 11
1.950451175968694
 21
8.734256857977136
 31
0.0
  0
LINE
  5
93
330
23
100
AcDbEntity
  8
0
 62
     0
100
AcDbLine
 10
1.911398017894885
 20
8.518427004606689
 30
0.0
 11
1.942771645998734
 21
8.549800632710537
 31
0.0
  0
LINE
  5
94
330
23
100
AcDbEntity
  8
0
 62
     0
100
AcDbLine
 10
1.606424461609119
 20
8.456521404353797
 30
0.0
 11
1.613087344581812
 21
8.463184287326489
 31
0.0
  0
LINE
  5
95
330
23
100
AcDbEntity
  8
0
 62
     0
100
AcDbLine
 10
1.70147569223013
 20
8.551572634974808
 30
0.0
 11
1.789864039878449
 21
8.639960982623128
 31
0.0
  0
LINE
  5
96
330
23
100
AcDbEntity
  8
0
 62
     0
100
AcDbLine
 10
1.878252387526767
 20
8.728349330271447
 30
0.0
 11
1.953330999707429
 21
8.80342794245211
 31
0.0
  0
LINE
  5
97
330
23
100
AcDbEntity
  8
0
 62
     0
100
AcDbLine
 10
1.524698996933493
 20
8.551572634974807
 30
0.0
 11
1.613087344581812
 21
8.639960982623126
 31
0.0
  0
LINE
  5
98
330
23
100
AcDbEntity
  8
0
 62
     0
100
AcDbLine
 10
1.70147569223013
 20
8.728349330271445
 30
0.0
 11
1.789864039878449
 21
8.816737677919764
 31
0.0
  0
LINE
  5
99
330
23
100
AcDbEntity
  8
0
 62
     0
100
AcDbLine
 10
1.39609148234774
 20
8.599741815685693
 30
0.0
 11
1.436310649285174
 21
8.639960982623128
 31
0.0
  0
LINE
  5
9A
330
23
100
AcDbEntity
  8
0
 62
     0
100
AcDbLine
 10
1.524698996933493
 20
8.728349330271447
 30
0.0
 11
1.613087344581811
 21
8.816737677919766
 31
0.0
  0
LINE
  5
9B
330
23
100
AcDbEntity
  8
0
 62
     0
100
AcDbLine
 10
1.400752146098985
 20
8.781179174733575
 30
0.0
 11
1.436310649285174
 21
8.816737677919764
 31
0.0
  0
LINE
  5
9C
330
23
100
AcDbEntity
  8
0
 62
     0
100
AcDbLine
 10
1.750542010553336
 20
8.423862258001378
 30
0.0
 11
1.789864039878448
 21
8.463184287326489
 31
0.0
  0
LINE
  5
9D
330
23
100
AcDbEntity
  8
0
 62
     0
100
AcDbLine
 10
1.878252387526766
 20
8.551572634974808
 30
0.0
 11
1.945651469737469
 21
8.618971717185511
 31
0.0
  0
LINE
  5
9E
330
23
100
AcDbEntity
  8
0
 62
     0
100
AcDbLine
 10
1.840210063940775
 20
8.434935350176242
 30
0.0
 11
1.789864039878446
 21
8.485281374238571
 31
0.0
  0
LINE
  5
9F
330
23
100
AcDbEntity
  8
0
 62
     0
100
AcDbLine
 10
1.701475692230128
 20
8.57366972188689
 30
0.0
 11
1.613087344581809
 21
8.662058069535209
 31
0.0
  0
LINE
  5
A0
330
23
100
AcDbEntity
  8
0
 62
     0
100
AcDbLine
 10
1.524698996933491
 20
8.750446417183528
 30
0.0
 11
1.436310649285172
 21
8.838834764831847
 31
0.0
  0
LINE
  5
A1
330
23
100
AcDbEntity
  8
0
 62
     0
100
AcDbLine
 10
1.662265911004113
 20
8.436102807816267
 30
0.0
 11
1.613087344581809
 21
8.485281374238571
 31
0.0
  0
LINE
  5
A2
330
23
100
AcDbEntity
  8
0
 62
     0
100
AcDbLine
 10
1.524698996933491
 20
8.57366972188689
 30
0.0
 11
1.436310649285172
 21
8.662058069535209
 31
0.0
  0
LINE
  5
A3
330
23
100
AcDbEntity
  8
0
 62
     0
100
AcDbLine
 10
1.878252387526765
 20
8.57366972188689
 30
0.0
 11
1.789864039878446
 21
8.662058069535209
 31
0.0
  0
LINE
  5
A4
330
23
100
AcDbEntity
  8
0
 62
     0
100
AcDbLine
 10
1.701475692230128
 20
8.750446417183528
 30
0.0
 11
1.613087344581809
 21
8.838834764831847
 31
0.0
  0
LINE
  5
A5
330
23
100
AcDbEntity
  8
0
 62
     0
100
AcDbLine
 10
1.878252387526765
 20
8.750446417183527
 30
0.0
 11
1.789864039878446
 21
8.838834764831846
 31
0.0
  0
LINE
  5
A6
330
23
100
AcDbEntity
  8
0
 62
     0
100
AcDbLine
 10
1.734621322598248
 20
8.430038656958371
 30
0.0
 11
1.646232974949929
 21
8.51842700460669
 31
0.0
  0
LINE
  5
A7
330
23
100
AcDbEntity
  8
0
 62
     0
100
AcDbLine
 10
1.557844627301611
 20
8.60681535225501
 30
0.0
 11
1.469456279653292
 21
8.695203699903329
 31
0.0
  0
LINE
  5
A8
330
23
100
AcDbEntity
  8
0
 62
     0
100
AcDbLine
 10
1.544410241701851
 20
8.443473042558132
 30
0.0
 11
1.469456279653292
 21
8.51842700460669
 31
0.0
  0
LINE
  5
A9
330
23
100
AcDbEntity
  8
0
 62
     0
100
AcDbLine
 10
1.891649318099129
 20
8.449787356754127
 30
0.0
 11
1.823009670246567
 21
8.518427004606689
 31
0.0
  0
LINE
  5
AA
330
23
100
AcDbEntity
  8
0
 62
     0
100
AcDbLine
 10
1.734621322598248
 20
8.606815352255008
 30
0.0
 11
1.64623297494993
 21
8.695203699903327
 31
0.0
  0
LINE
  5
AB
330
23
100
AcDbEntity
  8
0
 62
     0
100
AcDbLine
 10
1.557844627301611
 20
8.783592047551646
 30
0.0
 11
1.469456279653293
 21
8.871980395199965
 31
0.0
  0
LINE
  5
AC
330
23
100
AcDbEntity
  8
0
 62
     0
100
AcDbLine
 10
1.911398017894884
 20
8.60681535225501
 30
0.0
 11
1.823009670246565
 21
8.695203699903329
 31
0.0
  0
LINE
  5
AD
330
23
100
AcDbEntity
  8
0
 62
     0
100
AcDbLine
 10
1.734621322598247
 20
8.783592047551648
 30
0.0
 11
1.646232974949928
 21
8.871980395199967
 31
0.0
  0
LINE
  5
AE
330
23
100
AcDbEntity
  8
0
 62
     0
100
AcDbLine
 10
1.911398017894885
 20
8.783592047551646
 30
0.0
 11
1.823009670246566
 21
8.871980395199965
 31
0.0
  0
LINE
  5
AF
330
23
100
AcDbEntity
  8
0
 62
     0
100
AcDbLine
 10
1.767766952966367
 20
8.463184287326491
 30
0.0
 11
1.679378605318049
 21
8.55157263497481
 31
0.0
  0
LINE
  5
B0
330
23
100
AcDbEntity
  8
0
 62
     0
100
AcDbLine
 10
1.59099025766973
 20
8.639960982623129
 30
0.0
 11
1.502601910021412
 21
8.728349330271448
 31
0.0
  0
LINE
  5
B1
330
23
100
AcDbEntity
  8
0
 62
     0
100
AcDbLine
 10
1.414213562373093
 20
8.816737677919768
 30
0.0
 11
1.413993849618277
 21
8.816957390674584
 31
0.0
  0
LINE
  5
B2
330
23
100
AcDbEntity
  8
0
 62
     0
100
AcDbLine
 10
1.590990257669729
 20
8.463184287326491
 30
0.0
 11
1.502601910021411
 21
8.55157263497481
 31
0.0
  0
LINE
  5
B3
330
23
100
AcDbEntity
  8
0
 62
     0
100
AcDbLine
 10
1.414213562373092
 20
8.639960982623129
 30
0.0
 11
1.393310996996726
 21
8.660863547999495
 31
0.0
  0
LINE
  5
B4
330
23
100
AcDbEntity
  8
0
 62
     0
100
AcDbLine
 10
1.937055747006341
 20
8.470672188583153
 30
0.0
 11
1.856155300614686
 21
8.551572634974808
 31
0.0
  0
LINE
  5
B5
330
23
100
AcDbEntity
  8
0
 62
     0
100
AcDbLine
 10
1.767766952966367
 20
8.639960982623128
 30
0.0
 11
1.679378605318049
 21
8.728349330271447
 31
0.0
  0
LINE
  5
B6
330
23
100
AcDbEntity
  8
0
 62
     0
100
AcDbLine
 10
1.59099025766973
 20
8.816737677919766
 30
0.0
 11
1.509683391449552
 21
8.898044544139944
 31
0.0
  0
LINE
  5
B7
330
23
100
AcDbEntity
  8
0
 62
     0
100
AcDbLine
 10
1.944543648263004
 20
8.639960982623128
 30
0.0
 11
1.856155300614685
 21
8.728349330271447
 31
0.0
  0
LINE
  5
B8
330
23
100
AcDbEntity
  8
0
 62
     0
100
AcDbLine
 10
1.767766952966367
 20
8.816737677919766
 30
0.0
 11
1.686460086746188
 21
8.898044544139944
 31
0.0
  0
LINE
  5
B9
330
23
100
AcDbEntity
  8
0
 62
     0
100
AcDbLine
 10
1.944543648263003
 20
8.816737677919764
 30
0.0
 11
1.863236782042825
 21
8.898044544139942
 31
0.0
  0
ENDBLK
  5
BA
330
23
100
AcDbEntity
  8
0
100
AcDbBlockEnd
  0
BLOCK
  5
556
330
54A
100
AcDbEntity
  8
0
100
AcDbBlockBegin
  2
titleblock
 70
     2
 10
0.0
 20
0.0
 30
0.0
  3
titleblock
  1

  0
LWPOLYLINE
  5
54B
330
54A
100
AcDbEntity
  8
IMAGE
100
AcDbPolyline
 90
        4
 70
     1
 43
0.0
 10
0.0
 20
0.0
 10
16.48999999999999
 20
0.0000000000000001
 10
16.48999999999999
 20
10.44
 10
0.0
 20
10.44
  0
ATTDEF
  5
54C
330
54A
100
AcDbEntity
  8
TITLE
100
AcDbText
 10
0.5055556038023421
 20
0.7842270964783673
 30
0.0
 40
0.2
  1
D
  7
L200
 72
     4
 11
0.6064423705144839
 21
0.8842270964783672
 31
0.0
100
AcDbAttributeDefinition
  3
#
  2
D
 70
     0
  0
ATTDEF
  5
54D
330
54A
100
AcDbEntity
  8
TITLE
100
AcDbText
 10
1.231442370514484
 20
1.34371230274675
 30
0.0
 40
0.2
  1

  7
L200
100
AcDbAttributeDefinition
  3
DETAIL TITLE TOP LINE
  2
TITLE1
 70
     0
  0
ATTDEF
  5
54E
330
54A
100
AcDbEntity
  8
TITLE
100
AcDbText
 10
1.231442370514484
 20
0.9842270964783674
 30
0.0
 40
0.2
  1
TITLE
  7
L200
100
AcDbAttributeDefinition
  3
DETAIL TITLE TOP 2ND LINE
  2
TITLE2
 70
     0
  0
ATTDEF
  5
54F
330
54A
100
AcDbEntity
  8
TITLE
100
AcDbText
 10
2.713645751168312
 20
0.5927927664583189
 30
0.0
 40
0.2
  1
TITLE2
  7
L200
100
AcDbAttributeDefinition
  3
DETAIL TITLE BOTTOM 1
  2
TITLE3
 70
     0
  0
ATTDEF
  5
550
330
54A
100
AcDbEntity
  8
TITLE
100
AcDbText
 10
2.713645751168312
 20
0.2692560808167741
 30
0.0
 40
0.2
  1

  7
L200
100
AcDbAttributeDefinition
  3
DETAIL TITLE BOTTOM 2
  2
TITLE4
 70
     0
  0
ATTDEF
  5
551
330
54A
100
AcDbEntity
  8
TITLE
 62
     7
100
AcDbText
 10
8.177214829966379
 20
0.9696027915446398
 30
0.0
 40
0.08
  1
-
  7
L80
 72
     2
 11
8.261024353775903
 21
0.9696027915446398
 31
0.0
100
AcDbAttributeDefinition
  3
REVISION DATE
  2
REVISED
 70
     0
  0
ATTDEF
  5
552
330
54A
100
AcDbEntity
  8
TITLE
 62
     7
100
AcDbText
 10
0.2639423705144838
 20
0.0847116480207214
 30
0.0
 40
0.08
  1
-
  7
L80
100
AcDbAttributeDefinition
  3
DWG-NAME
  2
DWG-NAME
 70
     0
  0
LWPOLYLINE
  5
553
330
54A
100
AcDbEntity
  8
TITLE
 62
     3
100
AcDbPolyline
 90
        2
 70
     1
 43
0.03
 10
0.6064423705144839
 20
0.5417270964783675
 42
0.9999999999999998
 10
0.6064423705144839
 20
1.226727096478367
 42
0.9999999999999998
  0
ATTDEF
  5
554
330
54A
100
AcDbEntity
  8
TITLE
 62
     7
100
AcDbText
 10
1.231442370514484
 20
0.7005637793954894
 30
0.0
 40
0.1
  1
N.T.S.
  7
L100
100
AcDbAttributeDefinition
  3
SCALE
  2
SCALE
 70
     0
  0
LWPOLYLINE
  5
555
330
54A
100
AcDbEntity
  8
TITLE
 62
     3
100
AcDbPolyline
 90
        2
 70
     0
 43
0.04
 39
0.03
 10
0.9489423705144833
 20
0.8842270964783672
 10
8.261024353775903
 20
0.8842270964783672
  0
ENDBLK
  5
557
330
54A
100
AcDbEntity
  8
0
100
AcDbBlockEnd
  0
ENDSEC
  0
SECTION
  2
ENTITIES
  0
LINE
  5
DA
330
1E
100
AcDbEntity
  8
IMAGE
100
AcDbLine
 10
1.904178524357571
 20
3.706935520173195
 30
0.0
 11
2.122552806912742
 21
3.706935520173195
 31
0.0
  0
LINE
  5
DB
330
1E
100
AcDbEntity
  8
IMAGE
100
AcDbLine
 10
1.866027936992698
 20
3.815644572949188
 30
0.0
 11
1.866027936992698
 21
2.240318760084591
 31
0.0
  0
LINE
  5
DC
330
1E
100
AcDbEntity
  8
IMAGE
100
AcDbLine
 10
1.904178524357571
 20
3.903535197949188
 30
0.0
 11
1.904178524357571
 21
4.470703995680957
 31
0.0
  0
LINE
  5
DD
330
1E
100
AcDbEntity
  8
IMAGE
100
AcDbLine
 10
2.122552806912742
 20
3.903535197949188
 30
0.0
 11
2.122552806912742
 21
4.470703995680961
 31
0.0
  0
LINE
  5
DE
330
1E
100
AcDbEntity
  8
IMAGE
100
AcDbLine
 10
1.904178524357571
 20
4.422635243273451
 30
0.0
 11
2.122552806912742
 21
4.422635243273451
 31
0.0
  0
LINE
  5
DF
330
1E
100
AcDbEntity
  8
IMAGE
100
AcDbLine
 10
2.146547812900458
 20
3.815644572949188
 30
0.0
 11
1.358604620696644
 21
3.815644572949188
 31
0.0
  0
LINE
  5
E0
330
1E
100
AcDbEntity
  8
IMAGE
100
AcDbLine
 10
2.146547812900458
 20
3.903535197949188
 30
0.0
 11
1.358604620696644
 21
3.903535197949188
 31
0.0
  0
LINE
  5
E1
330
1E
100
AcDbEntity
  8
IMAGE
100
AcDbLine
 10
2.146547812900457
 20
3.903535197949188
 30
0.0
 11
2.146547812900457
 21
3.815644572949188
 31
0.0
  0
CIRCLE
  5
E2
330
1E
100
AcDbEntity
  8
IMAGE
100
AcDbCircle
 10
1.320909974148457
 20
3.857774786275856
 30
0.0
 40
0.0333686816218297
  0
ARC
  5
E3
330
1E
100
AcDbEntity
  8
IMAGE
100
AcDbCircle
 10
1.320909974148457
 20
3.857774786275856
 30
0.0
 40
0.0200620063460326
100
AcDbArc
 50
312.6530910809717
 51
107.3469089190281
  0
LINE
  5
E4
330
1E
100
AcDbEntity
  8
IMAGE
100
AcDbLine
 10
1.304942253445649
 20
3.876642627314192
 30
0.0
 11
1.329266143450816
 21
3.834512413987522
 31
0.0
  0
LINE
  5
E5
330
1E
100
AcDbEntity
  8
IMAGE
100
AcDbLine
 10
1.312553804846099
 20
3.881037158564191
 30
0.0
 11
1.336877694851265
 21
3.838906945237523
 31
0.0
  0
LWPOLYLINE
  5
E6
330
1E
100
AcDbEntity
  8
IMAGE
100
AcDbPolyline
 90
        4
 70
     0
 43
0.0
 10
1.320909974148457
 20
3.82968797739141
 10
1.296586084143289
 20
3.843731381833634
 10
1.296586084143289
 20
3.87181819071808
 10
1.304942253445649
 20
3.87664262731419
  0
ARC
  5
EC
330
1E
100
AcDbEntity
  8
IMAGE
100
AcDbCircle
 10
1.320909974148457
 20
3.857774786275856
 30
0.0
 40
0.0200620063460326
100
AcDbArc
 50
132.6530910809695
 51
287.3469089190293
  0
LWPOLYLINE
  5
ED
330
1E
100
AcDbEntity
  8
IMAGE
100
AcDbPolyline
 90
        5
 70
     0
 43
0.0
 10
1.312553804846099
 20
3.881037158564191
 10
1.320909974148457
 20
3.885861595160302
 10
1.345233864153626
 20
3.87181819071808
 10
1.345233864153626
 20
3.843731381833634
 10
1.336877694851265
 20
3.838906945237523
  0
LWPOLYLINE
  5
F4
330
1E
100
AcDbEntity
  8
IMAGE
100
AcDbPolyline
 90
        2
 70
     0
 43
0.0
 10
1.329266143450816
 20
3.834512413987522
 10
1.320909974148457
 20
3.82968797739141
  0
ARC
  5
F8
330
1E
100
AcDbEntity
  8
IMAGE
100
AcDbCircle
 10
1.351012427928436
 20
3.89631683734168
 30
0.0
 40
0.0104759782784076
100
AcDbArc
 50
43.55410817317756
 51
138.3027039323858
  0
CIRCLE
  5
F9
330
1E
100
AcDbEntity
  8
IMAGE
100
AcDbCircle
 10
1.320909974148457
 20
3.857774786275856
 30
0.0
 40
0.0372476045501682
  0
LINE
  5
FA
330
1E
100
AcDbEntity
  8
IMAGE
100
AcDbLine
 10
1.343190333675894
 20
3.903285406950573
 30
0.0
 11
1.333959572493433
 21
3.892661632332221
 31
0.0
  0
LINE
  5
FB
330
1E
100
AcDbEntity
  8
IMAGE
100
AcDbLine
 10
1.344517240290122
 20
3.902132487342678
 30
0.0
 11
1.335684534198376
 21
3.89196683827712
 31
0.0
  0
ARC
  5
FC
330
1E
100
AcDbEntity
  8
IMAGE
100
AcDbCircle
 10
1.351012427928436
 20
3.89631683734168
 30
0.0
 40
0.0087181657784076
100
AcDbArc
 50
29.4427270929698
 51
138.3027039323858
  0
ARC
  5
FD
330
1E
100
AcDbEntity
  8
IMAGE
100
AcDbCircle
 10
1.351012427928436
 20
3.819232735210035
 30
0.0
 40
0.0087181657784076
100
AcDbArc
 50
221.6972960676141
 51
330.5572729070301
  0
LINE
  5
FE
330
1E
100
AcDbEntity
  8
IMAGE
100
AcDbLine
 10
1.344517240290122
 20
3.813417085209036
 30
0.0
 11
1.335684534198376
 21
3.823582734274593
 31
0.0
  0
LINE
  5
FF
330
1E
100
AcDbEntity
  8
IMAGE
100
AcDbLine
 10
1.343190333675894
 20
3.81226416560114
 30
0.0
 11
1.333959572493433
 21
3.822887940219493
 31
0.0
  0
ARC
  5
100
330
1E
100
AcDbEntity
  8
IMAGE
100
AcDbCircle
 10
1.351012427928436
 20
3.819232735210035
 30
0.0
 40
0.0104759782784076
100
AcDbArc
 50
221.6972960676141
 51
316.4458918268223
  0
LINE
  5
101
330
1E
100
AcDbEntity
  8
IMAGE
100
AcDbLine
 10
1.362636112218124
 20
4.966919926834567
 30
0.0
 11
1.866027936992698
 21
4.966919926834567
 31
0.0
  0
LINE
  5
102
330
1E
100
AcDbEntity
  8
IMAGE
100
AcDbLine
 10
2.148945725168583
 20
4.631265909068965
 30
0.0
 11
2.148945725168583
 21
4.594429668212193
 31
0.0
  0
LINE
  5
103
330
1E
100
AcDbEntity
  8
IMAGE
100
AcDbLine
 10
1.877785606101732
 20
4.631265909068965
 30
0.0
 11
1.877785606101732
 21
4.594429668212193
 31
0.0
  0
LINE
  5
104
330
1E
100
AcDbEntity
  8
IMAGE
100
AcDbLine
 10
1.921094292129202
 20
4.701578409068966
 30
0.0
 11
1.928207819902535
 21
4.648844034068965
 31
0.0
  0
ARC
  5
105
330
1E
100
AcDbEntity
  8
IMAGE
100
AcDbCircle
 10
1.950899621473389
 20
4.678751984105589
 30
0.0
 40
0.0375420209088982
100
AcDbArc
 50
142.5532855597031
 51
232.8116314160014
  0
LINE
  5
106
330
1E
100
AcDbEntity
  8
IMAGE
100
AcDbLine
 10
1.964933348963349
 20
4.701578409068966
 30
0.0
 11
1.972046876736683
 21
4.648844034068965
 31
0.0
  0
ARC
  5
107
330
1E
100
AcDbEntity
  8
IMAGE
100
AcDbCircle
 10
1.994738678307537
 20
4.678751984105589
 30
0.0
 40
0.0375420209088982
100
AcDbArc
 50
142.5532855597031
 51
232.8116314160014
  0
LINE
  5
108
330
1E
100
AcDbEntity
  8
IMAGE
100
AcDbLine
 10
2.008772405797499
 20
4.701578409068966
 30
0.0
 11
2.015885933570832
 21
4.648844034068965
 31
0.0
  0
ARC
  5
109
330
1E
100
AcDbEntity
  8
IMAGE
100
AcDbCircle
 10
2.038577735141687
 20
4.678751984105589
 30
0.0
 40
0.0375420209088982
100
AcDbArc
 50
142.5532855597031
 51
232.8116314160014
  0
LINE
  5
10A
330
1E
100
AcDbEntity
  8
IMAGE
100
AcDbLine
 10
2.050572436732385
 20
4.701578409068966
 30
0.0
 11
2.057685964505718
 21
4.648844034068965
 31
0.0
  0
ARC
  5
10B
330
1E
100
AcDbEntity
  8
IMAGE
100
AcDbCircle
 10
2.080377766076573
 20
4.678751984105589
 30
0.0
 40
0.0375420209088982
100
AcDbArc
 50
142.5532855597031
 51
232.8116314160014
  0
LINE
  5
10C
330
1E
100
AcDbEntity
  8
IMAGE
100
AcDbLine
 10
2.091352954717639
 20
4.701578409068966
 30
0.0
 11
2.098466482490972
 21
4.648844034068965
 31
0.0
  0
ARC
  5
10D
330
1E
100
AcDbEntity
  8
IMAGE
100
AcDbCircle
 10
2.121158284061827
 20
4.678751984105589
 30
0.0
 40
0.0375420209088982
100
AcDbArc
 50
142.5532855597031
 51
232.8116314160014
  0
LINE
  5
10E
330
1E
100
AcDbEntity
  8
IMAGE
100
AcDbLine
 10
1.866027936992698
 20
4.966919926834567
 30
0.0
 11
1.866027936992698
 21
4.719156534068965
 31
0.0
  0
LINE
  5
10F
330
1E
100
AcDbEntity
  8
IMAGE
100
AcDbLine
 10
1.866027936992698
 20
4.631265909068965
 30
0.0
 11
1.866027936992698
 21
3.903535197949188
 31
0.0
  0
LINE
  5
110
330
1E
100
AcDbEntity
  8
IMAGE
100
AcDbLine
 10
1.362636112218124
 20
4.966919926834567
 30
0.0
 11
1.362636112218124
 21
4.65097502054377
 31
0.0
  0
LINE
  5
111
330
1E
100
AcDbEntity
  8
IMAGE
100
AcDbLine
 10
1.362636112218124
 20
4.650975020543767
 30
0.0
 11
1.362636112218124
 21
2.240318760084591
 31
0.0
  0
ARC
  5
112
330
1E
100
AcDbEntity
  8
IMAGE
100
AcDbCircle
 10
1.791168588744921
 20
4.678751984105589
 30
0.0
 40
0.0375420209088982
100
AcDbArc
 50
142.5532855597031
 51
232.8116314160014
  0
LINE
  5
113
330
1E
100
AcDbEntity
  8
IMAGE
100
AcDbLine
 10
1.761363259400733
 20
4.701578409068966
 30
0.0
 11
1.768476787174066
 21
4.648844034068965
 31
0.0
  0
ARC
  5
114
330
1E
100
AcDbEntity
  8
IMAGE
100
AcDbCircle
 10
1.829969649326735
 20
4.678751984105589
 30
0.0
 40
0.0375420209088982
100
AcDbArc
 50
142.5532855597031
 51
232.8116314160014
  0
LINE
  5
115
330
1E
100
AcDbEntity
  8
IMAGE
100
AcDbLine
 10
1.800164319982548
 20
4.701578409068966
 30
0.0
 11
1.807277847755881
 21
4.648844034068965
 31
0.0
  0
ARC
  5
116
330
1E
100
AcDbEntity
  8
IMAGE
100
AcDbCircle
 10
1.870710762937639
 20
4.678751984105589
 30
0.0
 40
0.0375420209088982
100
AcDbArc
 50
142.5532855597031
 51
232.8116314160014
  0
LINE
  5
117
330
1E
100
AcDbEntity
  8
IMAGE
100
AcDbLine
 10
1.840905433593453
 20
4.701578409068966
 30
0.0
 11
1.848018961366786
 21
4.648844034068965
 31
0.0
  0
ARC
  5
118
330
1E
100
AcDbEntity
  8
IMAGE
100
AcDbCircle
 10
1.910805192205515
 20
4.678751984105589
 30
0.0
 40
0.0375420209088982
100
AcDbArc
 50
142.5532855597031
 51
232.8116314160014
  0
LINE
  5
119
330
1E
100
AcDbEntity
  8
IMAGE
100
AcDbLine
 10
1.880999862861328
 20
4.701578409068966
 30
0.0
 11
1.88811339063466
 21
4.648844034068965
 31
0.0
  0
ARC
  5
11A
330
1E
100
AcDbEntity
  8
IMAGE
100
AcDbCircle
 10
2.162958314996711
 20
4.678751984105589
 30
0.0
 40
0.0375420209088982
100
AcDbArc
 50
142.5532855597031
 51
232.8116314160014
  0
LINE
  5
11B
330
1E
100
AcDbEntity
  8
IMAGE
100
AcDbLine
 10
2.133152985652524
 20
4.701578409068966
 30
0.0
 11
2.140266513425857
 21
4.648844034068965
 31
0.0
  0
ARC
  5
11C
330
1E
100
AcDbEntity
  8
IMAGE
100
AcDbCircle
 10
1.35066334457043
 20
4.634854071329812
 30
0.0
 40
0.0104759782784076
100
AcDbArc
 50
221.6972960676141
 51
316.4458918268223
  0
LINE
  5
11D
330
1E
100
AcDbEntity
  8
IMAGE
100
AcDbLine
 10
1.342841250317888
 20
4.627885501720918
 30
0.0
 11
1.333610489135428
 21
4.638509276339269
 31
0.0
  0
LINE
  5
11E
330
1E
100
AcDbEntity
  8
IMAGE
100
AcDbLine
 10
1.344168156932117
 20
4.629038421328814
 30
0.0
 11
1.335335450840371
 21
4.639204070394372
 31
0.0
  0
ARC
  5
11F
330
1E
100
AcDbEntity
  8
IMAGE
100
AcDbCircle
 10
1.35066334457043
 20
4.634854071329812
 30
0.0
 40
0.0087181657784076
100
AcDbArc
 50
221.6972960676141
 51
330.5572729070301
  0
ARC
  5
120
330
1E
100
AcDbEntity
  8
IMAGE
100
AcDbCircle
 10
1.35066334457043
 20
4.711938173461455
 30
0.0
 40
0.0087181657784076
100
AcDbArc
 50
29.4427270929698
 51
138.3027039323858
  0
LINE
  5
121
330
1E
100
AcDbEntity
  8
IMAGE
100
AcDbLine
 10
1.344168156932117
 20
4.717753823462455
 30
0.0
 11
1.335335450840371
 21
4.707588174396897
 31
0.0
  0
LINE
  5
122
330
1E
100
AcDbEntity
  8
IMAGE
100
AcDbLine
 10
1.342841250317888
 20
4.718906743070351
 30
0.0
 11
1.333610489135428
 21
4.708282968451999
 31
0.0
  0
CIRCLE
  5
123
330
1E
100
AcDbEntity
  8
IMAGE
100
AcDbCircle
 10
1.320560890790451
 20
4.673396122395634
 30
0.0
 40
0.0372476045501682
  0
ARC
  5
124
330
1E
100
AcDbEntity
  8
IMAGE
100
AcDbCircle
 10
1.35066334457043
 20
4.711938173461455
 30
0.0
 40
0.0104759782784076
100
AcDbArc
 50
43.55410817317756
 51
138.3027039323858
  0
LWPOLYLINE
  5
125
330
1E
100
AcDbEntity
  8
IMAGE
100
AcDbPolyline
 90
        2
 70
     0
 43
0.0
 10
1.328917060092811
 20
4.650133750107301
 10
1.320560890790451
 20
4.645309313511189
  0
LWPOLYLINE
  5
129
330
1E
100
AcDbEntity
  8
IMAGE
100
AcDbPolyline
 90
        5
 70
     0
 43
0.0
 10
1.312204721488093
 20
4.696658494683968
 10
1.320560890790451
 20
4.70148293128008
 10
1.34488478079562
 20
4.687439526837856
 10
1.34488478079562
 20
4.659352717953411
 10
1.33652861149326
 20
4.6545282813573
  0
ARC
  5
130
330
1E
100
AcDbEntity
  8
IMAGE
100
AcDbCircle
 10
1.320560890790451
 20
4.673396122395634
 30
0.0
 40
0.0200620063460326
100
AcDbArc
 50
132.6530910809695
 51
287.3469089190293
  0
LWPOLYLINE
  5
131
330
1E
100
AcDbEntity
  8
IMAGE
100
AcDbPolyline
 90
        4
 70
     0
 43
0.0
 10
1.320560890790451
 20
4.645309313511189
 10
1.296237000785283
 20
4.659352717953411
 10
1.296237000785283
 20
4.687439526837856
 10
1.304593170087644
 20
4.692263963433967
  0
LINE
  5
137
330
1E
100
AcDbEntity
  8
IMAGE
100
AcDbLine
 10
1.312204721488093
 20
4.696658494683968
 30
0.0
 11
1.33652861149326
 21
4.6545282813573
 31
0.0
  0
LINE
  5
138
330
1E
100
AcDbEntity
  8
IMAGE
100
AcDbLine
 10
1.304593170087644
 20
4.692263963433968
 30
0.0
 11
1.328917060092811
 21
4.650133750107301
 31
0.0
  0
ARC
  5
139
330
1E
100
AcDbEntity
  8
IMAGE
100
AcDbCircle
 10
1.320560890790451
 20
4.673396122395634
 30
0.0
 40
0.0200620063460326
100
AcDbArc
 50
312.6530910809717
 51
107.3469089190281
  0
CIRCLE
  5
13A
330
1E
100
AcDbEntity
  8
IMAGE
100
AcDbCircle
 10
1.320560890790451
 20
4.673396122395634
 30
0.0
 40
0.0333686816218297
  0
LINE
  5
13B
330
1E
100
AcDbEntity
  8
IMAGE
100
AcDbLine
 10
2.172913180599904
 20
4.719156534068965
 30
0.0
 11
2.172913180599904
 21
4.631265909068965
 31
0.0
  0
LINE
  5
13C
330
1E
100
AcDbEntity
  8
IMAGE
100
AcDbLine
 10
2.172913180599904
 20
4.719156534068965
 30
0.0
 11
1.358255537338639
 21
4.719156534068965
 31
0.0
  0
LINE
  5
13D
330
1E
100
AcDbEntity
  8
IMAGE
100
AcDbLine
 10
2.172913180599904
 20
4.631265909068965
 30
0.0
 11
1.358255537338639
 21
4.631265909068965
 31
0.0
  0
LINE
  5
13E
330
1E
100
AcDbEntity
  8
IMAGE
100
AcDbLine
 10
1.904178524357571
 20
4.828248070020737
 30
0.0
 11
1.904178524357571
 21
4.977190873728619
 31
0.0
  0
LINE
  5
13F
330
1E
100
AcDbEntity
  8
IMAGE
100
AcDbLine
 10
2.122552806912742
 20
4.828248070020737
 30
0.0
 11
2.122552806912742
 21
4.977190873728619
 31
0.0
  0
ARC
  5
140
330
1E
100
AcDbEntity
  8
IMAGE
  6
HIDDEN
100
AcDbCircle
 10
2.308957628582066
 20
5.284123654941377
 30
0.0
 40
0.0090386706355617
100
AcDbArc
 50
325.5926193930828
 51
90.0
  0
LINE
  5
141
330
1E
100
AcDbEntity
  8
IMAGE
100
AcDbLine
 10
2.163407598185481
 20
5.293162325576939
 30
0.0
 11
2.308957628582066
 21
5.293162325576939
 31
0.0
  0
LINE
  5
142
330
1E
100
AcDbEntity
  8
IMAGE
100
AcDbLine
 10
1.863323733084833
 20
5.3022009962125
 30
0.0
 11
1.863323733084833
 21
5.239718191252388
 31
0.0
  0
LINE
  5
143
330
1E
100
AcDbEntity
  8
IMAGE
100
AcDbLine
 10
2.163407598185481
 20
5.093650582439399
 30
0.0
 11
2.163407598185481
 21
5.013345556270865
 31
0.0
  0
LINE
  5
144
330
1E
100
AcDbEntity
  8
IMAGE
100
AcDbLine
 10
2.163407598185481
 20
5.3022009962125
 30
0.0
 11
2.163407598185481
 21
5.173382700551508
 31
0.0
  0
LINE
  5
145
330
1E
100
AcDbEntity
  8
IMAGE
100
AcDbLine
 10
1.863323733084833
 20
5.093650582439397
 30
0.0
 11
1.863323733084833
 21
5.013345556270865
 31
0.0
  0
CIRCLE
  5
146
330
1E
100
AcDbEntity
  8
IMAGE
100
AcDbCircle
 10
2.244755633905535
 20
5.247968972399131
 30
0.0
 40
0.0180773412711234
  0
LINE
  5
147
330
1E
100
AcDbEntity
  8
IMAGE
100
AcDbLine
 10
2.226678292634412
 20
5.247968972399131
 30
0.0
 11
2.226678292634412
 21
5.356433020025869
 31
0.0
  0
ARC
  5
148
330
1E
100
AcDbEntity
  8
IMAGE
100
AcDbCircle
 10
2.244755633905535
 20
5.247968972399131
 30
0.0
 40
0.0903867063556167
100
AcDbArc
 50
257.5348555166574
 51
64.74731825407738
  0
LINE
  5
149
330
1E
100
AcDbEntity
  8
IMAGE
100
AcDbLine
 10
2.226678292634412
 20
5.356433020025869
 30
0.0
 11
2.283315603663989
 21
5.329717889321885
 31
0.0
  0
LINE
  5
14A
330
1E
100
AcDbEntity
  8
IMAGE
100
AcDbLine
 10
2.262832975176659
 20
5.247968972399131
 30
0.0
 11
2.262832975176659
 21
5.339379296038644
 31
0.0
  0
LINE
  5
14B
330
1E
100
AcDbEntity
  8
IMAGE
100
AcDbLine
 10
2.226678292634412
 20
5.338355678754747
 30
0.0
 11
1.935633098169327
 21
5.338355678754745
 31
0.0
  0
LINE
  5
14C
330
1E
100
AcDbEntity
  8
IMAGE
100
AcDbLine
 10
2.226678292634412
 20
5.356433020025869
 30
0.0
 11
1.886874452887819
 21
5.356433020025869
 31
0.0
  0
LINE
  5
14D
330
1E
100
AcDbEntity
  8
IMAGE
100
AcDbLine
 10
1.827169050542586
 20
5.310603638038672
 30
0.0
 11
1.827169050542586
 21
5.269486883517316
 31
0.0
  0
LINE
  5
14E
330
1E
100
AcDbEntity
  8
IMAGE
100
AcDbLine
 10
1.876846948137496
 20
5.353396935880229
 30
0.0
 11
1.835218887063386
 21
5.325644895164155
 31
0.0
  0
LINE
  5
14F
330
1E
100
AcDbEntity
  8
IMAGE
100
AcDbLine
 10
2.225246056469594
 20
5.159712907031997
 30
0.0
 11
1.848432189218488
 21
5.243010063907175
 31
0.0
  0
ARC
  5
150
330
1E
100
AcDbEntity
  8
IMAGE
100
AcDbCircle
 10
1.854285062449271
 20
5.269486883517316
 30
0.0
 40
0.027116011906685
100
AcDbArc
 50
179.9999999999998
 51
257.5348555166574
  0
ARC
  5
151
330
1E
100
AcDbEntity
  8
IMAGE
100
AcDbCircle
 10
1.886874452887819
 20
5.338355678754747
 30
0.0
 40
0.0180773412711234
100
AcDbArc
 50
90.0
 51
123.6900675259798
  0
ARC
  5
152
330
1E
100
AcDbEntity
  8
IMAGE
100
AcDbCircle
 10
1.941788730347084
 20
5.08846495726176
 30
0.0
 40
0.2499665267506677
100
AcDbArc
 50
91.41109854009656
 51
114.6030774920961
  0
ARC
  5
153
330
1E
100
AcDbEntity
  8
IMAGE
100
AcDbCircle
 10
1.845246391813709
 20
5.299301792783627
 30
0.0
 40
0.0180773412711234
100
AcDbArc
 50
114.6030774920963
 51
180.0
  0
ARC
  5
154
330
1E
100
AcDbEntity
  8
IMAGE
100
AcDbCircle
 10
1.845246391813709
 20
5.310603638038672
 30
0.0
 40
0.0180773412711234
100
AcDbArc
 50
123.6900675259797
 51
180.0
  0
ARC
  5
155
330
1E
100
AcDbEntity
  8
IMAGE
100
AcDbCircle
 10
2.244755633905535
 20
5.247968972399131
 30
0.0
 40
0.0135580059533425
100
AcDbArc
 50
199.4712206344886
 51
160.5287793655072
  0
LINE
  5
156
330
1E
100
AcDbEntity
  8
IMAGE
100
AcDbLine
 10
2.231973023306899
 20
5.252488307716911
 30
0.0
 11
2.227252323483845
 21
5.252488307716911
 31
0.0
  0
LINE
  5
157
330
1E
100
AcDbEntity
  8
IMAGE
100
AcDbLine
 10
2.231973023306899
 20
5.24344963708135
 30
0.0
 11
2.227252323483845
 21
5.24344963708135
 31
0.0
  0
ARC
  5
158
330
1E
100
AcDbEntity
  8
IMAGE
100
AcDbCircle
 10
2.140630148183865
 20
4.977190873728619
 30
0.0
 40
0.0180773412711234
100
AcDbArc
 50
89.99999999999998
 51
180.0
  0
ARC
  5
159
330
1E
100
AcDbEntity
  8
IMAGE
100
AcDbCircle
 10
1.886101183086448
 20
4.977190873728619
 30
0.0
 40
0.0180773412711234
100
AcDbArc
 50
0.0
 51
90.0
  0
ARC
  5
15A
330
1E
100
AcDbEntity
  8
IMAGE
100
AcDbCircle
 10
1.881401074355956
 20
5.013345556270865
 30
0.0
 40
0.0180773412711234
100
AcDbArc
 50
180.0
 51
270.0
  0
ARC
  5
15B
330
1E
100
AcDbEntity
  8
IMAGE
100
AcDbCircle
 10
2.145330256914357
 20
5.013345556270865
 30
0.0
 40
0.0180773412711234
100
AcDbArc
 50
270.0
 51
0.0
  0
LINE
  5
15C
330
1E
100
AcDbEntity
  8
IMAGE
100
AcDbLine
 10
2.129247581257546
 20
4.806854887493488
 30
0.0
 11
1.897483750012769
 21
4.806854887493488
 31
0.0
  0
LINE
  5
15D
330
1E
100
AcDbEntity
  8
IMAGE
100
AcDbLine
 10
1.904178524357571
 20
4.828248070020737
 30
0.0
 11
2.122552806912742
 21
4.828248070020737
 31
0.0
  0
LINE
  5
15E
330
1E
100
AcDbEntity
  8
IMAGE
100
AcDbLine
 10
1.891537174959725
 20
4.576877518473131
 30
0.0
 11
2.135194156310589
 21
4.576877518473131
 31
0.0
  0
ARC
  5
15F
330
1E
100
AcDbEntity
  8
IMAGE
100
AcDbCircle
 10
1.895862947372855
 20
4.594429668212193
 30
0.0
 40
0.0180773412711234
100
AcDbArc
 50
180.0
 51
256.1552123454026
  0
ARC
  5
160
330
1E
100
AcDbEntity
  8
IMAGE
100
AcDbCircle
 10
2.130868383897459
 20
4.594429668212193
 30
0.0
 40
0.0180773412711234
100
AcDbArc
 50
283.844787654597
 51
0.0
  0
ARC
  5
161
330
1E
100
AcDbEntity
  8
IMAGE
100
AcDbCircle
 10
1.887560639550956
 20
4.56074242437397
 30
0.0
 40
0.0166178848066153
100
AcDbArc
 50
320.8216330533727
 51
76.15521234540304
  0
ARC
  5
162
330
1E
100
AcDbEntity
  8
IMAGE
100
AcDbCircle
 10
2.139170691719358
 20
4.56074242437397
 30
0.0
 40
0.0166178848066153
100
AcDbArc
 50
103.8447876545973
 51
219.1783669466478
  0
LINE
  5
163
330
1E
100
AcDbEntity
  8
IMAGE
100
AcDbLine
 10
1.904178524357571
 20
3.653305507813874
 30
0.0
 11
1.904178524357571
 21
3.815644572949188
 31
0.0
  0
LINE
  5
164
330
1E
100
AcDbEntity
  8
IMAGE
100
AcDbLine
 10
2.122552806912742
 20
3.653305507813874
 30
0.0
 11
2.122552806912742
 21
3.815644572949188
 31
0.0
  0
LINE
  5
165
330
1E
100
AcDbEntity
  8
IMAGE
100
AcDbLine
 10
2.145330256914357
 20
4.995268214999742
 30
0.0
 11
2.062394020128496
 21
4.995268214999742
 31
0.0
  0
LINE
  5
166
330
1E
100
AcDbEntity
  8
IMAGE
100
AcDbLine
 10
1.863323733084833
 20
5.3022009962125
 30
0.0
 11
2.163407598185481
 21
5.3022009962125
 31
0.0
  0
LINE
  5
167
330
1E
100
AcDbEntity
  8
IMAGE
100
AcDbLine
 10
1.877785606101732
 20
4.787156743582452
 30
0.0
 11
1.877785606101732
 21
4.719156534068965
 31
0.0
  0
LINE
  5
168
330
1E
100
AcDbEntity
  8
IMAGE
100
AcDbLine
 10
2.148945725168583
 20
4.787156743582452
 30
0.0
 11
2.148945725168582
 21
4.719156534068965
 31
0.0
  0
LINE
  5
169
330
1E
100
AcDbEntity
  8
IMAGE
100
AcDbLine
 10
2.148945725168582
 20
4.470703995680961
 30
0.0
 11
2.148945725168582
 21
4.550244297273899
 31
0.0
  0
LINE
  5
16A
330
1E
100
AcDbEntity
  8
IMAGE
100
AcDbLine
 10
2.065128730839853
 20
4.470703995680961
 30
0.0
 11
2.065128730839853
 21
4.550244297273901
 31
0.0
  0
LINE
  5
16B
330
1E
100
AcDbEntity
  8
IMAGE
100
AcDbLine
 10
1.96184676583235
 20
4.470703995680957
 30
0.0
 11
1.961846765832348
 21
4.550244297273901
 31
0.0
  0
LINE
  5
16C
330
1E
100
AcDbEntity
  8
IMAGE
100
AcDbLine
 10
1.877785606101732
 20
4.470703995680957
 30
0.0
 11
1.877785606101732
 21
4.550244297273905
 31
0.0
  0
LINE
  5
16D
330
1E
100
AcDbEntity
  8
IMAGE
100
AcDbLine
 10
2.148945725168582
 20
4.550244297273899
 30
0.0
 11
1.877785606101732
 21
4.550244297273905
 31
0.0
  0
LINE
  5
16E
330
1E
100
AcDbEntity
  8
IMAGE
100
AcDbLine
 10
2.148945725168582
 20
4.470703995680961
 30
0.0
 11
1.877785606101731
 21
4.470703995680956
 31
0.0
  0
TEXT
  5
16F
330
1E
100
AcDbEntity
  8
TEXT_LEADERS
100
AcDbText
 10
4.924187109319557
 20
6.814102634733942
 30
0.0
 40
0.125
  1
QUICK-COUPLING VALVE:
  7
ROMANS
100
AcDbText
  0
TEXT
  5
173
330
1E
100
AcDbEntity
  8
TEXT_LEADERS
100
AcDbText
 10
0.7503537800000001
 20
0.3875670715483598
 30
0.0
 40
0.125
  1
FURNISH FITTINGS AND PIPING NOMINALLY SIZED IDENTICAL TO
  7
ROMANS
100
AcDbText
  0
LINE
  5
174
330
1E
100
AcDbEntity
  8
IMAGE
100
AcDbLine
 10
1.926015952613089
 20
4.446133810285955
 30
0.0
 11
2.100715382492294
 21
4.446146752315445
 31
0.0
  0
LWPOLYLINE
  5
175
330
1E
100
AcDbEntity
  8
IMAGE
100
AcDbPolyline
 90
        2
 70
     0
 43
0.0
 10
2.366218856611065
 20
3.468801863939023
 10
2.328800274940415
 20
3.292062323207386
  0
LINE
  5
179
330
1E
100
AcDbEntity
  8
IMAGE
100
AcDbLine
 10
2.393282215667041
 20
3.478530518119131
 30
0.0
 11
2.34947053210123
 21
3.271594378736412
 31
0.0
  0
LINE
  5
17A
330
1E
100
AcDbEntity
  8
IMAGE
100
AcDbLine
 10
3.617313567712132
 20
3.218734537371849
 30
0.0
 11
3.573501884146323
 21
3.011798397989131
 31
0.0
  0
LWPOLYLINE
  5
17B
330
1E
100
AcDbEntity
  8
IMAGE
100
AcDbPolyline
 90
        2
 70
     0
 43
0.0
 10
3.638602182156613
 20
3.198591432809069
 10
3.601183600485963
 20
3.021851892077432
  0
TEXT
  5
17F
330
1E
100
AcDbEntity
  8
TEXT_LEADERS
100
AcDbText
 10
4.924187109319557
 20
3.839102634733942
 30
0.0
 40
0.125
  1
  (LENGTH AS REQUIRED)
  7
ROMANS
100
AcDbText
  0
TEXT
  5
181
330
1E
100
AcDbEntity
  8
TEXT_LEADERS
100
AcDbText
 10
4.924187109319557
 20
4.014102634733943
 30
0.0
 40
0.125
  1
PVC SCH 80 NIPPLE
  7
ROMANS
100
AcDbText
  0
TEXT
  5
184
330
1E
100
AcDbEntity
  8
TEXT_LEADERS
100
AcDbText
 10
4.924187109319557
 20
1.415251780098532
 30
0.0
 40
0.125
  1
2" x 2" REDWOOD STAKE WIITH
  7
ROMANS
100
AcDbText
  0
LWPOLYLINE
  5
185
330
1E
100
AcDbEntity
  8
IMAGE
100
AcDbPolyline
 90
        4
 70
     0
 43
0.0
 10
1.176721498165855
 20
3.210199850870785
 42
0.6332430429610296
 10
1.176721498165855
 20
3.03362569967823
 42
-0.6332430429610812
 10
1.176721498165855
 20
2.857051548485674
 42
-0.6134111328532366
 10
1.176721498165858
 20
3.033625699678228
 42
-0.6134111328532366
  0
LWPOLYLINE
  5
18B
330
1E
100
AcDbEntity
  8
IMAGE
100
AcDbPolyline
 90
        4
 70
     0
 43
0.0
 10
4.66006032830986
 20
3.212744760264728
 42
-0.6332430429610296
 10
4.66006032830986
 20
3.036170609072173
 42
0.6332430429610812
 10
4.66006032830986
 20
2.859596457879617
 42
0.6134111328532366
 10
4.660060328309858
 20
3.03617060907217
 42
0.6134111328532366
  0
ARC
  5
191
330
1E
100
AcDbEntity
  8
IMAGE
100
AcDbCircle
 10
2.013414321071853
 20
3.454878007794519
 30
0.0
 40
0.1247186862224383
100
AcDbArc
 50
179.379115872957
 51
0.2371380430744057
  0
LINE
  5
192
330
1E
100
AcDbEntity
  8
IMAGE
100
AcDbLine
 10
3.621963450690219
 20
3.001315442792084
 30
0.0
 11
2.299976382709174
 21
3.281201205004751
 31
0.0
  0
LINE
  5
193
330
1E
100
AcDbEntity
  8
IMAGE
100
AcDbLine
 10
3.666191214553155
 20
3.208163054098521
 30
0.0
 11
2.344204146572106
 21
3.488048816311188
 31
0.0
  0
LINE
  5
194
330
1E
100
AcDbEntity
  8
IMAGE
100
AcDbLine
 10
1.889732122169831
 20
3.653305507813874
 30
0.0
 11
2.137737138705237
 21
3.653305507813874
 31
0.0
  0
LINE
  5
195
330
1E
100
AcDbEntity
  8
IMAGE
100
AcDbLine
 10
1.889732122169831
 20
3.653305507813874
 30
0.0
 11
1.888695634849415
 21
3.454878007794519
 31
0.0
  0
LINE
  5
196
330
1E
100
AcDbEntity
  8
IMAGE
100
AcDbLine
 10
2.137737138705238
 20
3.653305507813874
 30
0.0
 11
2.138133007294291
 21
3.454878007794519
 31
0.0
  0
LINE
  5
197
330
1E
100
AcDbEntity
  8
IMAGE
100
AcDbLine
 10
4.442338059388075
 20
3.256261678554111
 30
0.0
 11
4.442338059388073
 21
2.817707779762564
 31
0.0
  0
LINE
  5
198
330
1E
100
AcDbEntity
  8
IMAGE
100
AcDbLine
 10
3.668393215192264
 20
3.21984894923156
 30
0.0
 11
3.973397016037743
 21
3.155105633351583
 31
0.0
  0
LINE
  5
199
330
1E
100
AcDbEntity
  8
IMAGE
100
AcDbLine
 10
3.61903786278086
 20
2.989020260195295
 30
0.0
 11
3.923945150010885
 21
2.923825562444017
 31
0.0
  0
LINE
  5
19A
330
1E
100
AcDbEntity
  8
IMAGE
100
AcDbLine
 10
3.973397016037743
 20
3.155105633351583
 30
0.0
 11
3.987964992615579
 21
3.127608081554417
 31
0.0
  0
LINE
  5
19B
330
1E
100
AcDbEntity
  8
IMAGE
100
AcDbLine
 10
3.923945150010885
 20
2.923825562444017
 30
0.0
 11
3.950025057483262
 21
2.939807461018541
 31
0.0
  0
LINE
  5
19C
330
1E
100
AcDbEntity
  8
IMAGE
100
AcDbLine
 10
3.950025057483262
 20
2.939807461018541
 30
0.0
 11
3.987964992615579
 21
3.127608081554417
 31
0.0
  0
ARC
  5
19D
330
1E
100
AcDbEntity
  8
IMAGE
100
AcDbCircle
 10
3.945913690157166
 20
3.038370718331491
 30
0.0
 40
0.0986489687398161
100
AcDbArc
 50
272.3885930691139
 51
64.76879059918148
  0
LINE
  5
19E
330
1E
100
AcDbEntity
  8
IMAGE
100
AcDbLine
 10
2.297480769212152
 20
3.269340504359789
 30
0.0
 11
2.006870710161615
 21
3.330331101573173
 31
0.0
  0
LINE
  5
19F
330
1E
100
AcDbEntity
  8
IMAGE
100
AcDbLine
 10
2.34608310891298
 20
3.500328917639457
 30
0.0
 11
2.137962424380952
 21
3.544441492333724
 31
0.0
  0
LINE
  5
1A0
330
1E
100
AcDbEntity
  8
IMAGE
100
AcDbLine
 10
2.34608310891298
 20
3.500328917639457
 30
0.0
 11
2.297480769212152
 21
3.269340504359789
 31
0.0
  0
LINE
  5
1A1
330
1E
100
AcDbEntity
  8
IMAGE
100
AcDbLine
 10
3.668393215192264
 20
3.21984894923156
 30
0.0
 11
3.61903786278086
 21
2.989020260195295
 31
0.0
  0
LINE
  5
1A2
330
1E
100
AcDbEntity
  8
IMAGE
100
AcDbLine
 10
4.442338059388075
 20
2.817707779762564
 30
0.0
 11
3.44732326267209
 21
2.817707779762564
 31
0.0
  0
LINE
  5
1A3
330
1E
100
AcDbEntity
  8
IMAGE
100
AcDbLine
 10
3.447323262672088
 20
3.038289557986016
 30
0.0
 11
3.44732326267209
 21
2.817707779762564
 31
0.0
  0
LINE
  5
1A4
330
1E
100
AcDbEntity
  8
IMAGE
100
AcDbLine
 10
3.973397016037747
 20
3.155105633351583
 30
0.0
 11
3.923945150010885
 21
2.923825562444017
 31
0.0
  0
LINE
  5
1A5
330
1E
100
AcDbEntity
  8
IMAGE
100
AcDbLine
 10
4.66006032830986
 20
3.212744760264728
 30
0.0
 11
4.442338059388075
 21
3.212744760264728
 31
0.0
  0
LINE
  5
1A6
330
1E
100
AcDbEntity
  8
IMAGE
100
AcDbLine
 10
4.66006032830986
 20
2.859596457879617
 30
0.0
 11
4.442338059388075
 21
2.859596457879617
 31
0.0
  0
LINE
  5
1A7
330
1E
100
AcDbEntity
  8
IMAGE
100
AcDbLine
 10
3.44732326267209
 20
2.857051548485674
 30
0.0
 11
1.872791277424756
 21
2.857051548485674
 31
0.0
  0
LINE
  5
1A8
330
1E
100
AcDbEntity
  8
IMAGE
100
AcDbLine
 10
2.635337750262138
 20
3.210199850870786
 30
0.0
 11
1.872791277424756
 21
3.210199850870786
 31
0.0
  0
LINE
  5
1A9
330
1E
100
AcDbEntity
  8
IMAGE
100
AcDbLine
 10
3.439006526717375
 20
3.25626167855411
 30
0.0
 11
4.442338059388075
 21
3.256261678554111
 31
0.0
  0
TEXT
  5
1AA
330
1E
100
AcDbEntity
  8
TEXT_LEADERS
100
AcDbText
 10
4.924187109319557
 20
5.589102634733942
 30
0.0
 40
0.125
  1
  (LENGTH AS REQUIRED)
  7
ROMANS
100
AcDbText
  0
TEXT
  5
1AB
330
1E
100
AcDbEntity
  8
TEXT_LEADERS
100
AcDbText
 10
4.924187109319557
 20
5.764102634733942
 30
0.0
 40
0.125
  1
PVC SCH 80 NIPPLE
  7
ROMANS
100
AcDbText
  0
LINE
  5
1AC
330
1E
100
AcDbEntity
  8
IMAGE
100
AcDbLine
 10
1.362636112218124
 20
2.857051548485674
 30
0.0
 11
1.176721498165855
 21
2.857051548485674
 31
0.0
  0
LINE
  5
1AD
330
1E
100
AcDbEntity
  8
IMAGE
100
AcDbLine
 10
1.362636112218124
 20
3.210199850870786
 30
0.0
 11
1.176721498165855
 21
3.210199850870785
 31
0.0
  0
LINE
  5
1AE
330
1E
100
AcDbEntity
  8
IMAGE
100
AcDbLine
 10
1.926015952613089
 20
3.679426454931616
 30
0.0
 11
2.100715382492294
 21
3.679439396961104
 31
0.0
  0
LINE
  5
1AF
330
1E
100
AcDbEntity
  8
IMAGE
100
AcDbLine
 10
2.363388627106553
 20
3.864011423348902
 30
0.0
 11
3.024220609248841
 21
3.595250472305891
 31
0.0
  0
LINE
  5
1B0
330
1E
100
AcDbEntity
  8
IMAGE
100
AcDbLine
 10
2.363388627106553
 20
3.595250472305891
 30
0.0
 11
3.024220609248841
 21
3.864011423348902
 31
0.0
  0
LWPOLYLINE
  5
1B1
330
1E
100
AcDbEntity
  8
IMAGE
100
AcDbPolyline
 90
        4
 70
     1
 43
0.0
 10
2.363388627106553
 20
3.595250472305891
 10
2.363388627106553
 20
3.864011423348902
 10
3.024220609248841
 20
3.864011423348902
 10
3.024220609248841
 20
3.595250472305891
  0
TEXT
  5
1B9
330
1E
100
AcDbEntity
  8
TEXT_LEADERS
100
AcDbText
 10
4.924187109319557
 20
5.239102634733942
 30
0.0
 40
0.125
  1
3-INCH MINIMUM DEPTH OF
  7
ROMANS
100
AcDbText
  0
TEXT
  5
1BB
330
1E
100
AcDbEntity
  8
TEXT_LEADERS
100
AcDbText
 10
4.924187109319557
 20
6.289102634733942
 30
0.0
 40
0.125
  1
VALVE BOX WITH COVER:
  7
ROMANS
100
AcDbText
  0
LINE
  5
1BC
330
1E
100
AcDbEntity
  8
IMAGE
100
AcDbLine
 10
2.722565229481691
 20
3.866680548462415
 30
0.0
 11
2.64920719593747
 21
3.866680548462415
 31
0.0
  0
LINE
  5
1BD
330
1E
100
AcDbEntity
  8
IMAGE
100
AcDbLine
 10
2.557274489841746
 20
6.045513025534426
 30
0.0
 11
0.9900736692964676
 21
6.045513025534426
 31
0.0
  0
LINE
  5
1BE
330
1E
100
AcDbEntity
  8
IMAGE
100
AcDbLine
 10
1.035152961925545
 20
6.045513025534426
 30
0.0
 11
1.050179392801903
 21
5.775037269759971
 31
0.0
  0
LINE
  5
1BF
330
1E
100
AcDbEntity
  8
IMAGE
100
AcDbLine
 10
0.8247829296565225
 20
3.866680548462415
 30
0.0
 11
0.8247829296565225
 21
3.926786271967852
 31
0.0
  0
LINE
  5
1C0
330
1E
100
AcDbEntity
  8
IMAGE
100
AcDbLine
 10
0.8548357914092409
 20
3.926786271967852
 30
0.0
 11
0.8247829296565225
 21
3.926786271967852
 31
0.0
  0
LINE
  5
1C1
330
1E
100
AcDbEntity
  8
IMAGE
100
AcDbLine
 10
0.9449943766673932
 20
4.993662864189319
 30
0.0
 11
0.8848886531619584
 21
4.933557140683885
 31
0.0
  0
LINE
  5
1C2
330
1E
100
AcDbEntity
  8
IMAGE
100
AcDbLine
 10
0.8548357914092409
 20
3.926786271967852
 30
0.0
 11
0.8848886531619584
 21
4.933557140683885
 31
0.0
  0
LINE
  5
1C3
330
1E
100
AcDbEntity
  8
IMAGE
100
AcDbLine
 10
0.9449943766673932
 20
4.993662864189319
 30
0.0
 11
0.9900736692964676
 21
6.045513025534426
 31
0.0
  0
LINE
  5
1C4
330
1E
100
AcDbEntity
  8
IMAGE
100
AcDbLine
 10
0.9892808224589469
 20
4.974197562962648
 30
0.0
 11
1.023293782280522
 21
5.767833292132745
 31
0.0
  0
LINE
  5
1C5
330
1E
100
AcDbEntity
  8
IMAGE
100
AcDbLine
 10
0.9892808224589469
 20
4.974197562962648
 30
0.0
 11
0.9294141064389606
 21
4.914330846942661
 31
0.0
  0
LINE
  5
1C6
330
1E
100
AcDbEntity
  8
IMAGE
100
AcDbLine
 10
0.8981409632007455
 20
3.866680548462415
 30
0.0
 11
0.9294141064389606
 21
4.914330846942661
 31
0.0
  0
LINE
  5
1C7
330
1E
100
AcDbEntity
  8
IMAGE
100
AcDbLine
 10
0.9160829702172915
 20
4.467737783516761
 30
0.0
 11
0.8709835977241333
 21
4.467737783516761
 31
0.0
  0
LINE
  5
1C8
330
1E
100
AcDbEntity
  8
IMAGE
100
AcDbLine
 10
2.527221628089027
 20
6.090592318163504
 30
0.0
 11
1.020126531049186
 21
6.090592318163504
 31
0.0
  0
LINE
  5
1C9
330
1E
100
AcDbEntity
  8
IMAGE
100
AcDbLine
 10
0.9900736692964676
 20
6.060539456410785
 30
0.0
 11
0.9900736692964676
 21
6.045513025534426
 31
0.0
  0
LINE
  5
1CA
330
1E
100
AcDbEntity
  8
IMAGE
100
AcDbLine
 10
2.557274489841746
 20
6.060539456410785
 30
0.0
 11
2.557274489841746
 21
6.045513025534426
 31
0.0
  0
ARC
  5
1CB
330
1E
100
AcDbEntity
  8
IMAGE
100
AcDbCircle
 10
2.527221628089027
 20
6.060539456410785
 30
0.0
 40
0.0300528617527174
100
AcDbArc
 50
0.0
 51
90.0
  0
ARC
  5
1CC
330
1E
100
AcDbEntity
  8
IMAGE
100
AcDbCircle
 10
1.020126531049186
 20
6.060539456410785
 30
0.0
 40
0.0300528617527174
100
AcDbArc
 50
90.0
 51
180.0
  0
LINE
  5
1CD
330
1E
100
AcDbEntity
  8
IMAGE
100
AcDbLine
 10
1.065159552885996
 20
6.047180058365561
 30
0.0
 11
1.083184327658174
 21
5.722734112466381
 31
0.0
  0
LINE
  5
1CE
330
1E
100
AcDbEntity
  8
IMAGE
100
AcDbLine
 10
1.050179392801903
 20
5.775037269759971
 30
0.0
 11
1.023293782280522
 21
5.767833292132745
 31
0.0
  0
LINE
  5
1CF
330
1E
100
AcDbEntity
  8
IMAGE
100
AcDbLine
 10
1.023293782280522
 20
5.767833292132745
 30
0.0
 11
1.049331805801129
 21
5.722734112466381
 31
0.0
  0
LINE
  5
1D0
330
1E
100
AcDbEntity
  8
IMAGE
100
AcDbLine
 10
1.049331805801129
 20
5.722734112466381
 30
0.0
 11
1.083184327658174
 21
5.722734112466381
 31
0.0
  0
LINE
  5
1D1
330
1E
100
AcDbEntity
  8
IMAGE
100
AcDbLine
 10
2.498016353337084
 20
5.722734112466381
 30
0.0
 11
2.464163831480043
 21
5.722734112466381
 31
0.0
  0
LINE
  5
1D2
330
1E
100
AcDbEntity
  8
IMAGE
100
AcDbLine
 10
2.524054376857693
 20
5.767833292132745
 30
0.0
 11
2.498016353337084
 21
5.722734112466381
 31
0.0
  0
LINE
  5
1D3
330
1E
100
AcDbEntity
  8
IMAGE
100
AcDbLine
 10
2.497168766336309
 20
5.775037269759971
 30
0.0
 11
2.524054376857693
 21
5.767833292132745
 31
0.0
  0
LINE
  5
1D4
330
1E
100
AcDbEntity
  8
IMAGE
100
AcDbLine
 10
2.482188606252218
 20
6.047180058365561
 30
0.0
 11
2.464163831480043
 21
5.722734112466381
 31
0.0
  0
LINE
  5
1D5
330
1E
100
AcDbEntity
  8
IMAGE
100
AcDbLine
 10
2.631265188920923
 20
4.467737783516761
 30
0.0
 11
2.67636456141408
 21
4.467737783516761
 31
0.0
  0
LINE
  5
1D6
330
1E
100
AcDbEntity
  8
IMAGE
100
AcDbLine
 10
2.64920719593747
 20
3.866680548462415
 30
0.0
 11
2.617934052699252
 21
4.914330846942661
 31
0.0
  0
LINE
  5
1D7
330
1E
100
AcDbEntity
  8
IMAGE
100
AcDbLine
 10
2.558067336679269
 20
4.974197562962648
 30
0.0
 11
2.617934052699252
 21
4.914330846942661
 31
0.0
  0
LINE
  5
1D8
330
1E
100
AcDbEntity
  8
IMAGE
100
AcDbLine
 10
2.558067336679269
 20
4.974197562962648
 30
0.0
 11
2.524054376857693
 21
5.767833292132745
 31
0.0
  0
LINE
  5
1D9
330
1E
100
AcDbEntity
  8
IMAGE
100
AcDbLine
 10
2.60235378247082
 20
4.993662864189319
 30
0.0
 11
2.557274489841746
 21
6.045513025534426
 31
0.0
  0
LINE
  5
1DA
330
1E
100
AcDbEntity
  8
IMAGE
100
AcDbLine
 10
2.692512367728974
 20
3.926786271967852
 30
0.0
 11
2.662459505976257
 21
4.933557140683885
 31
0.0
  0
LINE
  5
1DB
330
1E
100
AcDbEntity
  8
IMAGE
100
AcDbLine
 10
2.60235378247082
 20
4.993662864189319
 30
0.0
 11
2.662459505976257
 21
4.933557140683885
 31
0.0
  0
LINE
  5
1DC
330
1E
100
AcDbEntity
  8
IMAGE
100
AcDbLine
 10
2.692512367728974
 20
3.926786271967852
 30
0.0
 11
2.722565229481691
 21
3.926786271967852
 31
0.0
  0
LINE
  5
1DD
330
1E
100
AcDbEntity
  8
IMAGE
100
AcDbLine
 10
2.722565229481691
 20
3.866680548462415
 30
0.0
 11
2.722565229481691
 21
3.926786271967852
 31
0.0
  0
LINE
  5
1DE
330
1E
100
AcDbEntity
  8
IMAGE
100
AcDbLine
 10
2.512195197212668
 20
6.045513025534426
 30
0.0
 11
2.497168766336309
 21
5.775037269759971
 31
0.0
  0
LINE
  5
1DF
330
1E
100
AcDbEntity
  8
IMAGE
100
AcDbLine
 10
0.8981409632007455
 20
3.866680548462415
 30
0.0
 11
0.8247829296565225
 21
3.866680548462415
 31
0.0
  0
LWPOLYLINE
  5
1E0
330
1E
100
AcDbEntity
  8
IMAGE
100
AcDbPolyline
 90
        2
 70
     0
 43
0.0
 10
2.527221628089027
 20
6.090592318163504
 10
3.229099728890295
 20
6.090592318163504
  0
INSERT
  5
1E4
330
1E
100
AcDbEntity
  8
IMAGE
100
AcDbBlockReference
  2
*X0
 10
-0.9980867050725093
 20
-3.106370909881142
 30
0.0
 41
1.03359375
 42
1.03359375
 43
1.03359375
  0
LWPOLYLINE
  5
1E5
330
1E
100
AcDbEntity
  8
IMAGE
100
AcDbPolyline
 90
        2
 70
     0
 43
0.0
 10
1.020126531049186
 20
6.090592318163504
 10
0.3568770297264561
 20
6.090592318163504
  0
INSERT
  5
1E9
330
1E
100
AcDbEntity
  8
IMAGE
100
AcDbBlockReference
  2
*X1
 10
-1.043430959165384
 20
-3.106370909881144
 30
0.0
 41
1.03359375
 42
1.03359375
 43
1.03359375
  0
ARC
  5
1EA
330
1E
100
AcDbEntity
  8
IMAGE
100
AcDbCircle
 10
1.547853943129187
 20
4.67875198410559
 30
0.0
 40
0.0375420209088982
100
AcDbArc
 50
142.5532855597031
 51
232.8116314160014
  0
LINE
  5
1EB
330
1E
100
AcDbEntity
  8
IMAGE
100
AcDbLine
 10
1.518048613785001
 20
4.701578409068966
 30
0.0
 11
1.525162141558334
 21
4.648844034068964
 31
0.0
  0
ARC
  5
1EC
330
1E
100
AcDbEntity
  8
IMAGE
100
AcDbCircle
 10
1.585694478994776
 20
4.67875198410559
 30
0.0
 40
0.0375420209088982
100
AcDbArc
 50
142.5532855597031
 51
232.8116314160014
  0
LINE
  5
1ED
330
1E
100
AcDbEntity
  8
IMAGE
100
AcDbLine
 10
1.55588914965059
 20
4.701578409068966
 30
0.0
 11
1.563002677423923
 21
4.648844034068964
 31
0.0
  0
ARC
  5
1EE
330
1E
100
AcDbEntity
  8
IMAGE
100
AcDbCircle
 10
1.625427041653644
 20
4.67875198410559
 30
0.0
 40
0.0375420209088982
100
AcDbArc
 50
142.5532855597031
 51
232.8116314160014
  0
LINE
  5
1EF
330
1E
100
AcDbEntity
  8
IMAGE
100
AcDbLine
 10
1.595621712309458
 20
4.701578409068966
 30
0.0
 11
1.602735240082789
 21
4.648844034068964
 31
0.0
  0
ARC
  5
1F0
330
1E
100
AcDbEntity
  8
IMAGE
100
AcDbCircle
 10
1.664781198953856
 20
4.67875198410559
 30
0.0
 40
0.0375420209088982
100
AcDbArc
 50
142.5532855597031
 51
232.8116314160014
  0
LINE
  5
1F1
330
1E
100
AcDbEntity
  8
IMAGE
100
AcDbLine
 10
1.634975869609668
 20
4.701578409068966
 30
0.0
 11
1.642089397383001
 21
4.648844034068964
 31
0.0
  0
ARC
  5
1F2
330
1E
100
AcDbEntity
  8
IMAGE
100
AcDbCircle
 10
1.706027383047348
 20
4.67875198410559
 30
0.0
 40
0.0375420209088982
100
AcDbArc
 50
142.5532855597031
 51
232.8116314160014
  0
LINE
  5
1F3
330
1E
100
AcDbEntity
  8
IMAGE
100
AcDbLine
 10
1.67622205370316
 20
4.701578409068966
 30
0.0
 11
1.683335581476492
 21
4.648844034068964
 31
0.0
  0
ARC
  5
1F4
330
1E
100
AcDbEntity
  8
IMAGE
100
AcDbCircle
 10
1.747651972499495
 20
4.67875198410559
 30
0.0
 40
0.0375420209088982
100
AcDbArc
 50
142.5532855597031
 51
232.8116314160014
  0
LINE
  5
1F5
330
1E
100
AcDbEntity
  8
IMAGE
100
AcDbLine
 10
1.717846643155307
 20
4.701578409068966
 30
0.0
 11
1.72496017092864
 21
4.648844034068964
 31
0.0
  0
LINE
  5
203
330
1E
100
AcDbEntity
  8
IMAGE
100
AcDbLine
 10
0.5389643608256061
 20
3.595250472305891
 30
0.0
 11
1.199796342967892
 21
3.864011423348902
 31
0.0
  0
LINE
  5
204
330
1E
100
AcDbEntity
  8
IMAGE
100
AcDbLine
 10
0.5389643608256061
 20
3.864011423348902
 30
0.0
 11
1.199796342967892
 21
3.595250472305891
 31
0.0
  0
LWPOLYLINE
  5
205
330
1E
100
AcDbEntity
  8
IMAGE
100
AcDbPolyline
 90
        4
 70
     1
 43
0.0
 10
0.5389643608256061
 20
3.595250472305891
 10
0.5389643608256061
 20
3.864011423348902
 10
1.199796342967892
 20
3.864011423348902
 10
1.199796342967892
 20
3.595250472305891
  0
LINE
  5
20B
330
1E
100
AcDbEntity
  8
IMAGE
100
AcDbLine
 10
1.401121357960332
 20
4.701578409068966
 30
0.0
 11
1.408234885733665
 21
4.648844034068964
 31
0.0
  0
ARC
  5
20C
330
1E
100
AcDbEntity
  8
IMAGE
100
AcDbCircle
 10
1.430926687304519
 20
4.67875198410559
 30
0.0
 40
0.0375420209088982
100
AcDbArc
 50
142.5532855597031
 51
232.8116314160014
  0
LINE
  5
20D
330
1E
100
AcDbEntity
  8
IMAGE
100
AcDbLine
 10
1.438961893825921
 20
4.701578409068966
 30
0.0
 11
1.446075421599254
 21
4.648844034068964
 31
0.0
  0
ARC
  5
20E
330
1E
100
AcDbEntity
  8
IMAGE
100
AcDbCircle
 10
1.468767223170108
 20
4.67875198410559
 30
0.0
 40
0.0375420209088982
100
AcDbArc
 50
142.5532855597031
 51
232.8116314160014
  0
LINE
  5
20F
330
1E
100
AcDbEntity
  8
IMAGE
100
AcDbLine
 10
1.478694456484789
 20
4.701578409068966
 30
0.0
 11
1.48580798425812
 21
4.648844034068964
 31
0.0
  0
ARC
  5
210
330
1E
100
AcDbEntity
  8
IMAGE
100
AcDbCircle
 10
1.508499785828975
 20
4.67875198410559
 30
0.0
 40
0.0375420209088982
100
AcDbArc
 50
142.5532855597031
 51
232.8116314160014
  0
LINE
  5
211
330
1E
100
AcDbEntity
  8
IMAGE
100
AcDbLine
 10
1.614332024605411
 20
1.996909287864688
 30
0.0
 11
1.362636112218124
 21
2.240318760084591
 31
0.0
  0
LINE
  5
212
330
1E
100
AcDbEntity
  8
IMAGE
100
AcDbLine
 10
1.614332024605411
 20
1.996909287864688
 30
0.0
 11
1.866027936992698
 21
2.240318760084591
 31
0.0
  0
LWPOLYLINE
  5
213
330
1E
100
AcDbEntity
  8
IMAGE
100
AcDbPolyline
 90
        4
 70
   128
 43
0.0
 10
2.163407598185481
 20
5.202775619221323
 10
2.244755633905535
 20
5.206391087475546
 42
0.2474408046352063
 10
2.279059081798791
 20
5.224474420320968
 10
2.31641489986321
 20
5.279016143620038
  0
TEXT
  5
219
330
1E
100
AcDbEntity
  8
TEXT_LEADERS
100
AcDbText
 10
4.924187109319557
 20
6.114102634733942
 30
0.0
 40
0.125
  1
  RAIN BIRD VB-6RND
  7
ROMANS
100
AcDbText
  0
ARC
  5
233
330
1E
100
AcDbEntity
  8
IMAGE
100
AcDbCircle
 10
1.434601266855481
 20
3.863130647985812
 30
0.0
 40
0.0375420209088982
100
AcDbArc
 50
142.5532855597031
 51
232.8116314160014
  0
ARC
  5
234
330
1E
100
AcDbEntity
  8
IMAGE
100
AcDbCircle
 10
1.589369058545738
 20
3.863130647985812
 30
0.0
 40
0.0375420209088982
100
AcDbArc
 50
142.5532855597031
 51
232.8116314160014
  0
ARC
  5
235
330
1E
100
AcDbEntity
  8
IMAGE
100
AcDbCircle
 10
1.512174365379937
 20
3.863130647985812
 30
0.0
 40
0.0375420209088982
100
AcDbArc
 50
142.5532855597031
 51
232.8116314160014
  0
LINE
  5
236
330
1E
100
AcDbEntity
  8
IMAGE
100
AcDbLine
 10
1.482369036035751
 20
3.885957072949188
 30
0.0
 11
1.489482563809082
 21
3.833222697949187
 31
0.0
  0
ARC
  5
237
330
1E
100
AcDbEntity
  8
IMAGE
100
AcDbCircle
 10
1.472441802721069
 20
3.863130647985812
 30
0.0
 40
0.0375420209088982
100
AcDbArc
 50
142.5532855597031
 51
232.8116314160014
  0
LINE
  5
238
330
1E
100
AcDbEntity
  8
IMAGE
100
AcDbLine
 10
1.442636473376883
 20
3.885957072949188
 30
0.0
 11
1.449750001150216
 21
3.833222697949187
 31
0.0
  0
LINE
  5
239
330
1E
100
AcDbEntity
  8
IMAGE
100
AcDbLine
 10
1.404795937511294
 20
3.885957072949188
 30
0.0
 11
1.411909465284628
 21
3.833222697949187
 31
0.0
  0
LINE
  5
23A
330
1E
100
AcDbEntity
  8
IMAGE
100
AcDbLine
 10
1.521723193335963
 20
3.885957072949188
 30
0.0
 11
1.528836721109296
 21
3.833222697949187
 31
0.0
  0
ARC
  5
23B
330
1E
100
AcDbEntity
  8
IMAGE
100
AcDbCircle
 10
1.551528522680149
 20
3.863130647985812
 30
0.0
 40
0.0375420209088982
100
AcDbArc
 50
142.5532855597031
 51
232.8116314160014
  0
LINE
  5
23C
330
1E
100
AcDbEntity
  8
IMAGE
100
AcDbLine
 10
1.679896633254121
 20
3.885957072949188
 30
0.0
 11
1.687010161027455
 21
3.833222697949187
 31
0.0
  0
ARC
  5
23D
330
1E
100
AcDbEntity
  8
IMAGE
100
AcDbCircle
 10
1.709701962598309
 20
3.863130647985812
 30
0.0
 40
0.0375420209088982
100
AcDbArc
 50
142.5532855597031
 51
232.8116314160014
  0
LINE
  5
23E
330
1E
100
AcDbEntity
  8
IMAGE
100
AcDbLine
 10
1.63865044916063
 20
3.885957072949188
 30
0.0
 11
1.645763976933963
 21
3.833222697949187
 31
0.0
  0
ARC
  5
23F
330
1E
100
AcDbEntity
  8
IMAGE
100
AcDbCircle
 10
1.668455778504818
 20
3.863130647985812
 30
0.0
 40
0.0375420209088982
100
AcDbArc
 50
142.5532855597031
 51
232.8116314160014
  0
LINE
  5
240
330
1E
100
AcDbEntity
  8
IMAGE
100
AcDbLine
 10
1.599296291860419
 20
3.885957072949188
 30
0.0
 11
1.606409819633751
 21
3.833222697949187
 31
0.0
  0
ARC
  5
241
330
1E
100
AcDbEntity
  8
IMAGE
100
AcDbCircle
 10
1.629101621204606
 20
3.863130647985812
 30
0.0
 40
0.0375420209088982
100
AcDbArc
 50
142.5532855597031
 51
232.8116314160014
  0
LINE
  5
242
330
1E
100
AcDbEntity
  8
IMAGE
100
AcDbLine
 10
1.559563729201552
 20
3.885957072949188
 30
0.0
 11
1.566677256974885
 21
3.833222697949187
 31
0.0
  0
ARC
  5
243
330
1E
100
AcDbEntity
  8
IMAGE
100
AcDbCircle
 10
2.042252314692649
 20
3.86313064798581
 30
0.0
 40
0.0375420209088982
100
AcDbArc
 50
142.5532855597031
 51
232.8116314160014
  0
LINE
  5
244
330
1E
100
AcDbEntity
  8
IMAGE
100
AcDbLine
 10
1.721521222706268
 20
3.885957072949188
 30
0.0
 11
1.728634750479602
 21
3.833222697949187
 31
0.0
  0
ARC
  5
245
330
1E
100
AcDbEntity
  8
IMAGE
100
AcDbCircle
 10
1.751326552050456
 20
3.863130647985812
 30
0.0
 40
0.0375420209088982
100
AcDbArc
 50
142.5532855597031
 51
232.8116314160014
  0
LINE
  5
246
330
1E
100
AcDbEntity
  8
IMAGE
100
AcDbLine
 10
1.844580013144414
 20
3.885957072949188
 30
0.0
 11
1.851693540917747
 21
3.833222697949187
 31
0.0
  0
ARC
  5
247
330
1E
100
AcDbEntity
  8
IMAGE
100
AcDbCircle
 10
1.874385342488601
 20
3.86313064798581
 30
0.0
 40
0.0375420209088982
100
AcDbArc
 50
142.5532855597031
 51
232.8116314160014
  0
LINE
  5
248
330
1E
100
AcDbEntity
  8
IMAGE
100
AcDbLine
 10
1.80383889953351
 20
3.885957072949188
 30
0.0
 11
1.810952427306843
 21
3.833222697949187
 31
0.0
  0
ARC
  5
249
330
1E
100
AcDbEntity
  8
IMAGE
100
AcDbCircle
 10
1.833644228877697
 20
3.86313064798581
 30
0.0
 40
0.0375420209088982
100
AcDbArc
 50
142.5532855597031
 51
232.8116314160014
  0
LINE
  5
24A
330
1E
100
AcDbEntity
  8
IMAGE
100
AcDbLine
 10
1.765037838951695
 20
3.885957072949188
 30
0.0
 11
1.772151366725028
 21
3.833222697949187
 31
0.0
  0
ARC
  5
24B
330
1E
100
AcDbEntity
  8
IMAGE
100
AcDbCircle
 10
1.794843168295883
 20
3.86313064798581
 30
0.0
 40
0.0375420209088982
100
AcDbArc
 50
142.5532855597031
 51
232.8116314160014
  0
LINE
  5
24C
330
1E
100
AcDbEntity
  8
IMAGE
100
AcDbLine
 10
1.88467444241229
 20
3.885957072949188
 30
0.0
 11
1.891787970185621
 21
3.833222697949187
 31
0.0
  0
ARC
  5
24D
330
1E
100
AcDbEntity
  8
IMAGE
100
AcDbCircle
 10
1.914479771756476
 20
3.86313064798581
 30
0.0
 40
0.0375420209088982
100
AcDbArc
 50
142.5532855597031
 51
232.8116314160014
  0
ARC
  5
24E
330
1E
100
AcDbEntity
  8
IMAGE
100
AcDbCircle
 10
1.998413257858499
 20
3.86313064798581
 30
0.0
 40
0.0375420209088982
100
AcDbArc
 50
142.5532855597031
 51
232.8116314160014
  0
LINE
  5
24F
330
1E
100
AcDbEntity
  8
IMAGE
100
AcDbLine
 10
1.968607928514311
 20
3.885957072949188
 30
0.0
 11
1.975721456287644
 21
3.833222697949187
 31
0.0
  0
ARC
  5
250
330
1E
100
AcDbEntity
  8
IMAGE
100
AcDbCircle
 10
1.95457420102435
 20
3.86313064798581
 30
0.0
 40
0.0375420209088982
100
AcDbArc
 50
142.5532855597031
 51
232.8116314160014
  0
LINE
  5
251
330
1E
100
AcDbEntity
  8
IMAGE
100
AcDbLine
 10
1.924768871680164
 20
3.885957072949188
 30
0.0
 11
1.931882399453497
 21
3.833222697949187
 31
0.0
  0
ARC
  5
252
330
1E
100
AcDbEntity
  8
IMAGE
100
AcDbCircle
 10
2.124832863612788
 20
3.86313064798581
 30
0.0
 40
0.0375420209088982
100
AcDbArc
 50
142.5532855597031
 51
232.8116314160014
  0
LINE
  5
253
330
1E
100
AcDbEntity
  8
IMAGE
100
AcDbLine
 10
2.0950275342686
 20
3.885957072949188
 30
0.0
 11
2.102141062041933
 21
3.833222697949187
 31
0.0
  0
ARC
  5
254
330
1E
100
AcDbEntity
  8
IMAGE
100
AcDbCircle
 10
2.084052345627534
 20
3.86313064798581
 30
0.0
 40
0.0375420209088982
100
AcDbArc
 50
142.5532855597031
 51
232.8116314160014
  0
LINE
  5
255
330
1E
100
AcDbEntity
  8
IMAGE
100
AcDbLine
 10
2.054247016283346
 20
3.885957072949188
 30
0.0
 11
2.06136054405668
 21
3.833222697949187
 31
0.0
  0
LINE
  5
256
330
1E
100
AcDbEntity
  8
IMAGE
100
AcDbLine
 10
2.012446985348461
 20
3.885957072949188
 30
0.0
 11
2.019560513121794
 21
3.833222697949187
 31
0.0
  0
TEXT
  5
278
330
1E
100
AcDbEntity
  8
TEXT_BUBBLES
100
AcDbText
 10
4.924187109319557
 20
5.753537128826274
 30
0.0
 40
0.125
  1
PVC SCH 80 NIPPLE
  7
ROMANS
100
AcDbText
  0
TEXT
  5
27A
330
1E
100
AcDbEntity
  8
TEXT_BUBBLES
100
AcDbText
 10
4.924187109319557
 20
6.812672777529201
 30
0.0
 40
0.125
  1
QUICK-COUPLING VALVE:
  7
ROMANS
100
AcDbText
  0
CIRCLE
  5
282
330
1E
100
AcDbEntity
  8
TEXT_BUBBLES
100
AcDbCircle
 10
4.674243963070847
 20
7.23515062645987
 30
0.0
 40
0.15625
  0
TEXT
  5
283
330
1E
100
AcDbEntity
  8
TEXT_BUBBLES
100
AcDbText
 10
4.623648724975609
 20
7.17265062645987
 30
0.0
 40
0.125
  1
1
  7
ROMANS
 72
     4
 11
4.674243963070847
 21
7.23515062645987
 31
0.0
100
AcDbText
  0
TEXT
  5
284
330
1E
100
AcDbEntity
  8
TEXT_BUBBLES
100
AcDbText
 10
0.6967768986422732
 20
6.629674757372656
 30
0.0
 40
0.125
  1
1
  7
ROMANS
 72
     4
 11
0.7473721367375113
 21
6.692174757372656
 31
0.0
100
AcDbText
  0
CIRCLE
  5
285
330
1E
100
AcDbEntity
  8
TEXT_BUBBLES
100
AcDbCircle
 10
0.7473721367375113
 20
6.692174757372656
 30
0.0
 40
0.15625
  0
CIRCLE
  5
286
330
1E
100
AcDbEntity
  8
TEXT_BUBBLES
100
AcDbCircle
 10
1.618449408852198
 20
6.692516296483137
 30
0.0
 40
0.15625
  0
TEXT
  5
287
330
1E
100
AcDbEntity
  8
TEXT_BUBBLES
100
AcDbText
 10
1.558925599328389
 20
6.630016296483137
 30
0.0
 40
0.125
  1
2
  7
ROMANS
 72
     4
 11
1.618449408852198
 21
6.692516296483137
 31
0.0
100
AcDbText
  0
CIRCLE
  5
288
330
1E
100
AcDbEntity
  8
TEXT_BUBBLES
100
AcDbCircle
 10
2.152041048564949
 20
6.692174757372656
 30
0.0
 40
0.15625
  0
TEXT
  5
289
330
1E
100
AcDbEntity
  8
TEXT_BUBBLES
100
AcDbText
 10
2.09251723904114
 20
6.629674757372656
 30
0.0
 40
0.125
  1
3
  7
ROMANS
 72
     4
 11
2.152041048564949
 21
6.692174757372656
 31
0.0
100
AcDbText
  0
CIRCLE
  5
28A
330
1E
100
AcDbEntity
  8
TEXT_BUBBLES
100
AcDbCircle
 10
3.643083849540758
 20
5.243482376281954
 30
0.0
 40
0.15625
  0
TEXT
  5
28B
330
1E
100
AcDbEntity
  8
TEXT_BUBBLES
100
AcDbText
 10
3.580583849540758
 20
5.180982376281954
 30
0.0
 40
0.125
  1
4
  7
ROMANS
 72
     4
 11
3.643083849540758
 21
5.243482376281954
 31
0.0
100
AcDbText
  0
CIRCLE
  5
28C
330
1E
100
AcDbEntity
  8
TEXT_BUBBLES
100
AcDbCircle
 10
3.643362159477316
 20
4.818488037147814
 30
0.0
 40
0.15625
  0
TEXT
  5
28D
330
1E
100
AcDbEntity
  8
TEXT_BUBBLES
100
AcDbText
 10
3.583838349953507
 20
4.755988037147814
 30
0.0
 40
0.125
  1
5
  7
ROMANS
 72
     4
 11
3.643362159477316
 21
4.818488037147814
 31
0.0
100
AcDbText
  0
TEXT
  5
28E
330
1E
100
AcDbEntity
  8
TEXT_BUBBLES
100
AcDbText
 10
1.914984361101251
 20
1.457878704524079
 30
0.0
 40
0.125
  1
11
  7
ROMANS
 72
     4
 11
2.025103408720299
 21
1.520378704524079
 31
0.0
100
AcDbText
  0
CIRCLE
  5
28F
330
1E
100
AcDbEntity
  8
TEXT_BUBBLES
100
AcDbCircle
 10
2.025103408720299
 20
1.520378704524079
 30
0.0
 40
0.15625
  0
CIRCLE
  5
290
330
1E
100
AcDbEntity
  8
TEXT_BUBBLES
100
AcDbCircle
 10
3.643362159477316
 20
4.337017898698901
 30
0.0
 40
0.15625
  0
TEXT
  5
291
330
1E
100
AcDbEntity
  8
TEXT_BUBBLES
100
AcDbText
 10
3.580862159477316
 20
4.274517898698901
 30
0.0
 40
0.125
  1
6
  7
ROMANS
 72
     4
 11
3.643362159477316
 21
4.337017898698901
 31
0.0
100
AcDbText
  0
CIRCLE
  5
292
330
1E
100
AcDbEntity
  8
TEXT_BUBBLES
100
AcDbCircle
 10
2.440029577508854
 20
1.520378704524079
 30
0.0
 40
0.15625
  0
TEXT
  5
293
330
1E
100
AcDbEntity
  8
TEXT_BUBBLES
100
AcDbText
 10
2.380505767985044
 20
1.457878704524079
 30
0.0
 40
0.125
  1
7
  7
ROMANS
 72
     4
 11
2.440029577508854
 21
1.520378704524079
 31
0.0
100
AcDbText
  0
CIRCLE
  5
294
330
1E
100
AcDbEntity
  8
TEXT_BUBBLES
100
AcDbCircle
 10
3.408956459452745
 20
1.520378704524079
 30
0.0
 40
0.15625
  0
TEXT
  5
295
330
1E
100
AcDbEntity
  8
TEXT_BUBBLES
100
AcDbText
 10
3.352408840405126
 20
1.457878704524079
 30
0.0
 40
0.125
  1
9
  7
ROMANS
 72
     4
 11
3.408956459452745
 21
1.520378704524079
 31
0.0
100
AcDbText
  0
CIRCLE
  5
296
330
1E
100
AcDbEntity
  8
TEXT_BUBBLES
100
AcDbCircle
 10
3.853795094403663
 20
1.520378704524079
 30
0.0
 40
0.15625
  0
TEXT
  5
297
330
1E
100
AcDbEntity
  8
TEXT_BUBBLES
100
AcDbText
 10
3.794271284879854
 20
1.457878704524079
 30
0.0
 40
0.125
  1
8
  7
ROMANS
 72
     4
 11
3.853795094403663
 21
1.520378704524079
 31
0.0
100
AcDbText
  0
CIRCLE
  5
298
330
1E
100
AcDbEntity
  8
TEXT_BUBBLES
100
AcDbCircle
 10
4.269468360228871
 20
1.520378704524079
 30
0.0
 40
0.15625
  0
TEXT
  5
299
330
1E
100
AcDbEntity
  8
TEXT_BUBBLES
100
AcDbText
 10
4.209944550705062
 20
1.457878704524079
 30
0.0
 40
0.125
  1
7
  7
ROMANS
 72
     4
 11
4.269468360228871
 21
1.520378704524079
 31
0.0
100
AcDbText
  0
CIRCLE
  5
29A
330
1E
100
AcDbEntity
  8
TEXT_BUBBLES
100
AcDbCircle
 10
3.643362159477316
 20
3.642399880882322
 30
0.0
 40
0.15625
  0
TEXT
  5
29B
330
1E
100
AcDbEntity
  8
TEXT_BUBBLES
100
AcDbText
 10
3.580862159477316
 20
3.579899880882322
 30
0.0
 40
0.125
  1
4
  7
ROMANS
 72
     4
 11
3.643362159477316
 21
3.642399880882322
 31
0.0
100
AcDbText
  0
TEXT
  5
29C
330
1E
100
AcDbEntity
  8
TEXT_BUBBLES
100
AcDbText
 10
4.614720153547038
 20
6.819053073256422
 30
0.0
 40
0.125
  1
2
  7
ROMANS
 72
     4
 11
4.674243963070847
 21
6.881553073256422
 31
0.0
100
AcDbText
  0
CIRCLE
  5
29D
330
1E
100
AcDbEntity
  8
TEXT_BUBBLES
100
AcDbCircle
 10
4.674243963070847
 20
6.88392843081711
 30
0.0
 40
0.15625
  0
TEXT
  5
29E
330
1E
100
AcDbEntity
  8
TEXT_BUBBLES
100
AcDbText
 10
4.614720153547038
 20
6.272136679871862
 30
0.0
 40
0.125
  1
3
  7
ROMANS
 72
     4
 11
4.674243963070847
 21
6.334636679871862
 31
0.0
100
AcDbText
  0
CIRCLE
  5
29F
330
1E
100
AcDbEntity
  8
TEXT_BUBBLES
100
AcDbCircle
 10
4.674243963070847
 20
6.334636679871862
 30
0.0
 40
0.15625
  0
TEXT
  5
2A0
330
1E
100
AcDbEntity
  8
TEXT_BUBBLES
100
AcDbText
 10
4.614720153547038
 20
5.221001986913181
 30
0.0
 40
0.125
  1
5
  7
ROMANS
 72
     4
 11
4.674243963070847
 21
5.283501986913181
 31
0.0
100
AcDbText
  0
CIRCLE
  5
2A1
330
1E
100
AcDbEntity
  8
TEXT_BUBBLES
100
AcDbCircle
 10
4.674243963070847
 20
5.283501986913181
 30
0.0
 40
0.15625
  0
TEXT
  5
2A2
330
1E
100
AcDbEntity
  8
TEXT_BUBBLES
100
AcDbText
 10
4.611743963070847
 20
5.737930126321731
 30
0.0
 40
0.125
  1
4
  7
ROMANS
 72
     4
 11
4.674243963070847
 21
5.800430126321731
 31
0.0
100
AcDbText
  0
CIRCLE
  5
2A3
330
1E
100
AcDbEntity
  8
TEXT_BUBBLES
100
AcDbCircle
 10
4.674243963070847
 20
5.800430126321731
 30
0.0
 40
0.15625
  0
TEXT
  5
2A4
330
1E
100
AcDbEntity
  8
TEXT_BUBBLES
100
AcDbText
 10
4.611743963070847
 20
4.70734115040115
 30
0.0
 40
0.125
  1
6
  7
ROMANS
 72
     4
 11
4.674243963070847
 21
4.76984115040115
 31
0.0
100
AcDbText
  0
CIRCLE
  5
2A5
330
1E
100
AcDbEntity
  8
TEXT_BUBBLES
100
AcDbCircle
 10
4.674243963070847
 20
4.76984115040115
 30
0.0
 40
0.15625
  0
TEXT
  5
2B9
330
1E
100
AcDbEntity
  8
TEXT_BUBBLES
100
AcDbText
 10
4.924187109319557
 20
6.278537128826275
 30
0.0
 40
0.125
  1
VALVE BOX WITH COVER:
  7
ROMANS
100
AcDbText
  0
CIRCLE
  5
2BA
330
1E
100
AcDbEntity
  8
TEXT_BUBBLES
100
AcDbCircle
 10
4.674243963070849
 20
2.494604739954682
 30
0.0
 40
0.15625
  0
TEXT
  5
2BB
330
1E
100
AcDbEntity
  8
TEXT_BUBBLES
100
AcDbText
 10
4.546267772594658
 20
2.432104739954682
 30
0.0
 40
0.125
  1
10
  7
ROMANS
 72
     4
 11
4.674243963070849
 21
2.494604739954682
 31
0.0
100
AcDbText
  0
CIRCLE
  5
2BC
330
1E
100
AcDbEntity
  8
TEXT_BUBBLES
100
AcDbCircle
 10
4.674243963070849
 20
2.14460473995468
 30
0.0
 40
0.15625
  0
TEXT
  5
2BD
330
1E
100
AcDbEntity
  8
TEXT_BUBBLES
100
AcDbText
 10
4.564124915451801
 20
2.08210473995468
 30
0.0
 40
0.125
  1
11
  7
ROMANS
 72
     4
 11
4.674243963070849
 21
2.14460473995468
 31
0.0
100
AcDbText
  0
TEXT
  5
2CB
330
1E
100
AcDbEntity
  8
OPTION-MODEL-33DRC
100
AcDbText
 10
4.924187109319557
 20
6.645035785628853
 30
0.0
 40
0.125
  1
  RAIN BIRD MODEL 33DRC
  7
ROMANS
100
AcDbText
  0
TEXT
  5
2CE
330
1E
100
AcDbEntity
  8
TEXT_BUBBLES
100
AcDbText
 10
2.650543265535156
 20
1.448014151073833
 30
0.0
 40
0.125
  1
10
  7
ROMANS
 72
     4
 11
2.778519456011347
 21
1.510514151073833
 31
0.0
100
AcDbText
  0
CIRCLE
  5
2CF
330
1E
100
AcDbEntity
  8
TEXT_BUBBLES
100
AcDbCircle
 10
2.778519456011347
 20
1.510514151073833
 30
0.0
 40
0.15625
  0
CIRCLE
  5
2D3
330
1E
100
AcDbEntity
  8
TEXT_BUBBLES
100
AcDbCircle
 10
4.674243963070847
 20
4.415698702094196
 30
0.0
 40
0.15625
  0
TEXT
  5
2D4
330
1E
100
AcDbEntity
  8
TEXT_BUBBLES
100
AcDbText
 10
4.614720153547038
 20
4.353198702094196
 30
0.0
 40
0.125
  1
7
  7
ROMANS
 72
     4
 11
4.674243963070847
 21
4.415698702094196
 31
0.0
100
AcDbText
  0
CIRCLE
  5
2D5
330
1E
100
AcDbEntity
  8
TEXT_BUBBLES
100
AcDbCircle
 10
4.674243963070844
 20
4.065698702094197
 30
0.0
 40
0.15625
  0
TEXT
  5
2D6
330
1E
100
AcDbEntity
  8
TEXT_BUBBLES
100
AcDbText
 10
4.614720153547035
 20
4.003198702094197
 30
0.0
 40
0.125
  1
8
  7
ROMANS
 72
     4
 11
4.674243963070844
 21
4.065698702094197
 31
0.0
100
AcDbText
  0
CIRCLE
  5
2D7
330
1E
100
AcDbEntity
  8
TEXT_BUBBLES
100
AcDbCircle
 10
4.674243963070847
 20
3.708121003504523
 30
0.0
 40
0.15625
  0
TEXT
  5
2D8
330
1E
100
AcDbEntity
  8
TEXT_BUBBLES
100
AcDbText
 10
4.617696344023229
 20
3.645621003504523
 30
0.0
 40
0.125
  1
9
  7
ROMANS
 72
     4
 11
4.674243963070847
 21
3.708121003504523
 31
0.0
100
AcDbText
  0
LINE
  5
310
330
1E
100
AcDbEntity
  8
IMAGE
100
AcDbLine
 10
2.163407598185481
 20
5.093650582439398
 30
0.0
 11
2.062394020128497
 21
5.093650582439398
 31
0.0
  0
LINE
  5
311
330
1E
100
AcDbEntity
  8
IMAGE
100
AcDbLine
 10
1.873648085408837
 20
5.173382700551508
 30
0.0
 11
1.873648085408837
 21
5.105053475674727
 31
0.0
  0
LINE
  5
312
330
1E
100
AcDbEntity
  8
IMAGE
100
AcDbLine
 10
1.873648085408837
 20
5.3022009962125
 30
0.0
 11
1.873648085408837
 21
5.173382700551508
 31
0.0
  0
LINE
  5
313
330
1E
100
AcDbEntity
  8
IMAGE
100
AcDbLine
 10
2.153083245861477
 20
5.239718191252388
 30
0.0
 11
2.153083245861477
 21
5.105053475674727
 31
0.0
  0
LINE
  5
314
330
1E
100
AcDbEntity
  8
IMAGE
100
AcDbLine
 10
2.153083245861477
 20
5.3022009962125
 30
0.0
 11
2.153083245861477
 21
5.239718191252388
 31
0.0
  0
LINE
  5
315
330
1E
100
AcDbEntity
  8
IMAGE
100
AcDbLine
 10
1.863323733084833
 20
5.093650582439397
 30
0.0
 11
1.873648085408837
 21
5.105053475674727
 31
0.0
  0
LINE
  5
316
330
1E
100
AcDbEntity
  8
IMAGE
100
AcDbLine
 10
2.16340759818548
 20
5.093650582439397
 30
0.0
 11
2.153083245861476
 21
5.105053475674727
 31
0.0
  0
LINE
  5
317
330
1E
100
AcDbEntity
  8
IMAGE
100
AcDbLine
 10
1.873648085408837
 20
5.105053475674727
 30
0.0
 11
2.153083245861476
 21
5.105053475674727
 31
0.0
  0
LINE
  5
318
330
1E
100
AcDbEntity
  8
IMAGE
100
AcDbLine
 10
1.904178524357571
 20
4.977190873728619
 30
0.0
 11
1.989845720762299
 21
4.97719087372862
 31
0.0
  0
LINE
  5
319
330
1E
100
AcDbEntity
  8
IMAGE
100
AcDbLine
 10
1.984062671302217
 20
5.105053475674727
 30
0.0
 11
1.984062671302217
 21
4.997673803291542
 31
0.0
  0
LINE
  5
31A
330
1E
100
AcDbEntity
  8
IMAGE
100
AcDbLine
 10
2.062394020128496
 20
4.997673803291542
 30
0.0
 11
2.062394020128496
 21
5.105053475674727
 31
0.0
  0
CIRCLE
  5
31B
330
1E
100
AcDbEntity
  8
IMAGE
100
AcDbCircle
 10
2.023228345715357
 20
4.997673803291542
 30
0.0
 40
0.0391656744131397
  0
LWPOLYLINE
  5
31C
330
1E
100
AcDbEntity
  8
IMAGE
100
AcDbPolyline
 90
        6
 70
     1
 43
0.0
 10
2.051203822346276
 20
4.997673803291542
 10
2.037216084030816
 20
5.021901276736896
 10
2.009240607399897
 20
5.021901276736896
 10
1.995252869084437
 20
4.997673803291542
 10
2.009240607399897
 20
4.973446329846188
 10
2.037216084030816
 20
4.973446329846188
  0
LINE
  5
324
330
1E
100
AcDbEntity
  8
IMAGE
100
AcDbLine
 10
1.984062671302217
 20
4.995268214999742
 30
0.0
 11
1.881401074355956
 21
4.995268214999742
 31
0.0
  0
LINE
  5
325
330
1E
100
AcDbEntity
  8
IMAGE
100
AcDbLine
 10
2.056610970668415
 20
4.97719087372862
 30
0.0
 11
2.122552806912742
 21
4.977190873728619
 31
0.0
  0
LINE
  5
326
330
1E
100
AcDbEntity
  8
IMAGE
100
AcDbLine
 10
1.984062671302217
 20
5.093650582439398
 30
0.0
 11
1.863323733084833
 21
5.093650582439398
 31
0.0
  0
LWPOLYLINE
  5
327
330
1E
100
AcDbEntity
  8
IMAGE
100
AcDbPolyline
 90
        2
 70
     0
 43
0.0
 10
1.984062671302217
 20
5.071296986882055
 10
2.062394020128496
 20
5.071296986882055
  0
TEXT
  5
32B
330
1E
100
AcDbEntity
  8
INSTRUCT-OPTION
100
AcDbText
 10
11.20613455738737
 20
5.61986297587666
 30
0.0
 40
0.125
  1
IF OPTIONAL FEATURES ARE NEEDED, CHOOSE
  7
ROMANS
100
AcDbText
  0
TEXT
  5
32C
330
1E
100
AcDbEntity
  8
INSTRUCT-OPTION
100
AcDbText
 10
11.20613455738737
 20
5.44486297587666
 30
0.0
 40
0.125
  1
ONE OF THE FOLLOWING FEATURES BY
  7
ROMANS
100
AcDbText
  0
TEXT
  5
32D
330
1E
100
AcDbEntity
  8
INSTRUCT-OPTION
100
AcDbText
 10
11.20613455738737
 20
5.269862975876661
 30
0.0
 40
0.125
  1
TURNING ON THE APPROPRIATE LAYER:
  7
ROMANS
100
AcDbText
  0
TEXT
  5
32E
330
1E
100
AcDbEntity
  8
INSTRUCT-OPTION
100
AcDbText
 10
11.20613455738737
 20
4.919862975876661
 30
0.0
 40
0.125
  1
  OPTION-MODEL-33DRC
  7
ROMANS
100
AcDbText
  0
TEXT
  5
32F
330
1E
100
AcDbEntity
  8
INSTRUCT-OPTION
100
AcDbText
 10
11.20613455738737
 20
4.74486297587666
 30
0.0
 40
0.125
  1
  OPTION-MODEL-33DLRC
  7
ROMANS
100
AcDbText
  0
TEXT
  5
330
330
1E
100
AcDbEntity
  8
INSTRUCT-OPTION
100
AcDbText
 10
11.20613455738737
 20
5.96986297587666
 30
0.0
 40
0.125
  1
CHOOSING VALVES
  7
ROMANS
100
AcDbText
  0
TEXT
  5
331
330
1E
100
AcDbEntity
  8
INSTRUCT-OPTION
100
AcDbText
 10
11.20613455738737
 20
4.154373271098625
 30
0.0
 40
0.125
  1
TO TURN OFF THIS INSTRUCTION BOX, TURN OFF
  7
ROMANS
100
AcDbText
  0
TEXT
  5
332
330
1E
100
AcDbEntity
  8
INSTRUCT-OPTION
100
AcDbText
 10
11.20613455738737
 20
3.979373271098625
 30
0.0
 40
0.125
  1
LAYER "INSTRUCT-OPTION".
  7
ROMANS
100
AcDbText
  0
LWPOLYLINE
  5
333
330
1E
100
AcDbEntity
  8
INSTRUCT-CALLOUT
100
AcDbPolyline
 90
        4
 70
     1
 43
0.0
 10
11.10449564607405
 20
8.172888378443211
 10
11.10449564607405
 20
6.741402357100969
 10
16.00376116179398
 20
6.741402357100969
 10
16.00376116179398
 20
8.172888378443211
  0
TEXT
  5
339
330
1E
100
AcDbEntity
  8
INSTRUCT-CALLOUT
100
AcDbText
 10
11.22767707467372
 20
8.23000386587666
 30
0.0
 40
0.125
  1
CHOOSING EQUIPMENT CALLOUT METHOD
  7
ROMANS
100
AcDbText
  0
TEXT
  5
33A
330
1E
100
AcDbEntity
  8
INSTRUCT-CALLOUT
100
AcDbText
 10
11.22767707467372
 20
7.88000386587666
 30
0.0
 40
0.125
  1
CHOOSE EITHER LEADERS OR BUBBLE CALLOUTS
  7
ROMANS
100
AcDbText
  0
TEXT
  5
33B
330
1E
100
AcDbEntity
  8
INSTRUCT-CALLOUT
100
AcDbText
 10
11.22767707467372
 20
7.70500386587666
 30
0.0
 40
0.125
  1
BY TURNING ON THE APPROPRIATE LAYER:
  7
ROMANS
100
AcDbText
  0
TEXT
  5
33C
330
1E
100
AcDbEntity
  8
INSTRUCT-CALLOUT
100
AcDbText
 10
11.22767707467372
 20
7.35500386587666
 30
0.0
 40
0.125
  1
TEXT_LEADERS         TEXT_BUBBLES
  7
ROMANS
100
AcDbText
  0
LINE
  5
33D
330
1E
100
AcDbEntity
  8
INSTRUCT-CALLOUT
100
AcDbLine
 10
11.94580668118897
 20
7.104504214021737
 30
0.0
 11
12.08207522704759
 21
7.104504214021736
 31
0.0
  0
LINE
  5
33E
330
1E
100
AcDbEntity
  8
INSTRUCT-CALLOUT
100
AcDbLine
 10
11.65803626671064
 20
6.984752512215456
 30
0.0
 11
11.94580668118897
 21
7.104504214021737
 31
0.0
  0
SOLID
  5
33F
330
1E
100
AcDbEntity
  8
INSTRUCT-CALLOUT
100
AcDbTrace
 10
11.74342226425097
 20
6.987790838077343
 30
0.0
 11
11.72037037935923
 21
7.04318587939819
 31
0.0
 12
11.56571119784256
 22
6.946332704062568
 32
0.0
 13
11.56571119784256
 23
6.946332704062568
 33
0.0
  0
TEXT
  5
340
330
1E
100
AcDbEntity
  8
INSTRUCT-CALLOUT
100
AcDbText
 10
12.13267392074755
 20
7.00500386587666
 30
0.0
 40
0.125
  1
ITEM 1
  7
ROMANS
100
AcDbText
  0
SOLID
  5
341
330
1E
100
AcDbEntity
  8
INSTRUCT-CALLOUT
100
AcDbTrace
 10
13.88589159230039
 20
7.001216872628742
 30
0.0
 11
13.90169388595473
 21
6.943335204414514
 31
0.0
 12
13.72014773448487
 22
6.924869157558612
 32
0.0
 13
13.72014773448487
 23
6.924869157558612
 33
0.0
  0
LINE
  5
342
330
1E
100
AcDbEntity
  8
INSTRUCT-CALLOUT
100
AcDbLine
 10
13.81661718150859
 20
6.951206313649176
 30
0.0
 11
14.07249859843344
 21
7.021064585113795
 31
0.0
  0
TEXT
  5
343
330
1E
100
AcDbEntity
  8
INSTRUCT-CALLOUT
100
AcDbText
 10
14.17514291893035
 20
7.003986030227
 30
0.0
 40
0.1
  1
1
  7
ROMANS
 72
     4
 11
14.21561910940654
 21
7.053986030227
 31
0.0
100
AcDbText
  0
CIRCLE
  5
344
330
1E
100
AcDbEntity
  8
INSTRUCT-CALLOUT
100
AcDbCircle
 10
14.22323210940799
 20
7.062216391505301
 30
0.0
 40
0.15625
  0
TEXT
  5
345
330
1E
100
AcDbEntity
  8
INSTRUCT-CALLOUT
100
AcDbText
 10
11.22767707467372
 20
6.353065593738877
 30
0.0
 40
0.125
  1
LAYER "INSTRUCT-CALLOUT".
  7
ROMANS
100
AcDbText
  0
TEXT
  5
346
330
1E
100
AcDbEntity
  8
INSTRUCT-CALLOUT
100
AcDbText
 10
11.22767707467372
 20
6.528065593738877
 30
0.0
 40
0.125
  1
TO TURN OFF THIS INSTRUCTION BOX, TURN OFF
  7
ROMANS
100
AcDbText
  0
TEXT
  5
347
330
1E
100
AcDbEntity
  8
INSTRUCT-OPTION
100
AcDbText
 10
11.20613455738737
 20
4.56986297587666
 30
0.0
 40
0.125
  1
  OPTION-MODEL-33DNP
  7
ROMANS
100
AcDbText
  0
TEXT
  5
34C
330
1E
100
AcDbEntity
  8
OPTION-MODEL-33DLRC
100
AcDbText
 10
4.924187109319557
 20
6.645035785628853
 30
0.0
 40
0.125
  1
  RAIN BIRD MODEL 33DLRC
  7
ROMANS
100
AcDbText
  0
TEXT
  5
34D
330
1E
100
AcDbEntity
  8
OPTION-MODEL-33DNP
100
AcDbText
 10
4.924187109319557
 20
6.645035785628853
 30
0.0
 40
0.125
  1
  RAIN BIRD MODEL 33DNP
  7
ROMANS
100
AcDbText
  0
LINE
  5
34E
330
1E
100
AcDbEntity
  8
IMAGE
100
AcDbLine
 10
1.904178524357571
 20
4.828248070020737
 30
0.0
 11
1.883407995066768
 21
4.800936801501054
 31
0.0
  0
ARC
  5
34F
330
1E
100
AcDbEntity
  8
IMAGE
100
AcDbCircle
 10
1.897483750012769
 20
4.787156743582452
 30
0.0
 40
0.0196981439110367
100
AcDbArc
 50
90.0
 51
180.0
  0
ARC
  5
350
330
1E
100
AcDbEntity
  8
IMAGE
100
AcDbCircle
 10
2.129247581257546
 20
4.787156743582452
 30
0.0
 40
0.0196981439110367
100
AcDbArc
 50
359.9999999999993
 51
90.0
  0
LINE
  5
351
330
1E
100
AcDbEntity
  8
IMAGE
100
AcDbLine
 10
2.122552806912742
 20
4.828248070020737
 30
0.0
 11
2.143323336203545
 21
4.800936801501054
 31
0.0
  0
LINE
  5
352
330
1E
100
AcDbEntity
  8
IMAGE
100
AcDbLine
 10
1.904178524357571
 20
4.834220099281401
 30
0.0
 11
1.87512604562312
 21
4.834220099281401
 31
0.0
  0
LINE
  5
353
330
1E
100
AcDbEntity
  8
IMAGE
100
AcDbLine
 10
1.87512604562312
 20
4.834220099281401
 30
0.0
 11
1.87512604562312
 21
4.805202996752822
 31
0.0
  0
LINE
  5
354
330
1E
100
AcDbEntity
  8
IMAGE
100
AcDbLine
 10
1.87512604562312
 20
4.805202996752822
 30
0.0
 11
1.886652484914366
 21
4.805202996752822
 31
0.0
  0
CIRCLE
  5
357
330
1E
100
AcDbEntity
  8
IMAGE
100
AcDbCircle
 10
2.291173096971342
 20
3.906782363433105
 30
0.0
 40
0.0406209884069822
  0
LWPOLYLINE
  5
358
330
1E
100
AcDbEntity
  8
IMAGE
100
AcDbPolyline
 90
       16
 70
     1
 43
0.0
 10
2.517777352923015
 20
4.023725006055047
 42
0.0609570841761608
 10
2.502229395202103
 20
4.021822420155721
 42
0.0743285010951787
 10
2.490335925036869
 20
4.016906959047463
 42
0.1069412301566326
 10
2.48152404807757
 20
4.008642236334799
 42
0.152249204141643
 10
2.478969313435551
 20
4.00044673749285
 42
0.1522492041416091
 10
2.48152404807757
 20
3.992251238650896
 42
0.1069412301565743
 10
2.490335925036869
 20
3.983986515938233
 42
0.0743285010952252
 10
2.502229395202103
 20
3.979071054829979
 42
0.060957084176237
 10
2.517777352923015
 20
3.977168468930648
 42
0.0609570841761912
 10
2.533325310643913
 20
3.979071054829975
 42
0.0743285010952129
 10
2.545218780809146
 20
3.983986515938233
 42
0.1069412301566912
 10
2.554030657768446
 20
3.9922512386509
 42
0.1522492041416768
 10
2.556585392410478
 20
4.00044673749285
 42
0.1522492041417418
 10
2.554030657768446
 20
4.008642236334803
 42
0.1069412301565381
 10
2.545218780809146
 20
4.016906959047463
 42
0.0743285010951216
 10
2.533325310643927
 20
4.021822420155721
 42
0.0609570841761459
  0
LWPOLYLINE
  5
36A
330
1E
100
AcDbEntity
  8
IMAGE
100
AcDbPolyline
 90
       16
 70
     1
 43
0.0
 10
2.589604609023041
 20
3.933035099255492
 42
0.0698995825513923
 10
2.572623917729103
 20
3.923513604500294
 42
0.0817261731085073
 10
2.561167547228422
 20
3.911389642936386
 42
0.1069271755962712
 10
2.555254923562714
 20
3.896627490533214
 42
0.13566893343318
 10
2.556537095779902
 20
3.88407310037675
 42
0.1356689334331474
 10
2.564085246430693
 20
3.873959639072717
 42
0.1069271755962251
 10
2.57842571033612
 20
3.867087131730881
 42
0.0817261731085129
 10
2.595064454438571
 20
3.865907698076499
 42
0.0698995825513785
 10
2.614011337351613
 20
3.870381887061481
 42
0.0698995825513624
 10
2.630992028645565
 20
3.879903381816686
 42
0.081726173108439
 10
2.642448399146247
 20
3.892027343380588
 42
0.106927175596282
 10
2.64836102281194
 20
3.906789495783753
 42
0.1356689334333885
 10
2.647078850594752
 20
3.919343885940223
 42
0.1356689334331357
 10
2.639530699943961
 20
3.929457347244264
 42
0.10692717559614
 10
2.625190236038534
 20
3.936329854586096
 42
0.0817261731084642
 10
2.608551491936083
 20
3.937509288240478
 42
0.0698995825513832
  0
LWPOLYLINE
  5
37C
330
1E
100
AcDbEntity
  8
IMAGE
100
AcDbPolyline
 90
       16
 70
     1
 43
0.0
 10
2.372151112785461
 20
4.139323553630171
 42
0.07934358800666
 10
2.322153827374508
 20
4.138943528771599
 42
0.088395850954969
 10
2.279814942082823
 20
4.12385754755309
 42
0.1051726671530419
 10
2.247303618048478
 20
4.094867939636047
 42
0.1211548649735495
 10
2.232809891670812
 20
4.059796673042321
 42
0.1211548649734267
 10
2.236234970829884
 20
4.022003410712224
 42
0.1051726671530232
 10
2.258670882580774
 20
3.984666921568792
 42
0.0883958509549529
 10
2.294619873878504
 20
3.957688447524782
 42
0.0793435880066574
 10
2.342248897074058
 20
3.942478282607977
 42
0.0793435880066597
 10
2.392246182485011
 20
3.942858307466547
 42
0.0883958509549733
 10
2.43458506777671
 20
3.957944288685059
 42
0.1051726671530409
 10
2.467096391811055
 20
3.986933896602111
 42
0.1211548649734865
 10
2.481590118188707
 20
4.022005163195829
 42
0.1211548649735704
 10
2.47816503902962
 20
4.059798425525937
 42
0.1051726671530808
 10
2.455729127278745
 20
4.097134914669358
 42
0.088395850954995
 10
2.419780135981001
 20
4.124113388713369
 42
0.079343588006662
  0
CIRCLE
  5
38E
330
1E
100
AcDbEntity
  8
IMAGE
100
AcDbCircle
 10
2.462580518306908
 20
4.146603742284391
 30
0.0
 40
0.0388839860400404
  0
LWPOLYLINE
  5
38F
330
1E
100
AcDbEntity
  8
IMAGE
100
AcDbPolyline
 90
       16
 70
     1
 43
0.0
 10
2.245661149386171
 20
3.997386914025532
 42
0.0758084656014505
 10
2.230647146414531
 20
4.019612391500582
 42
0.0860349560247588
 10
2.211855282319652
 20
4.034008283454332
 42
0.1059956505938444
 10
2.189884957667365
 20
4.040109029547056
 42
0.1262751954735569
 10
2.171007821639767
 20
4.036447912516424
 42
0.1262751954735769
 10
2.156226793701355
 20
4.024148674507482
 42
0.1059956505938709
 10
2.147046655824274
 20
4.003276699594393
 42
0.0860349560247766
 10
2.146300743388215
 20
3.979616195036324
 42
0.0758084656014661
 10
2.154007910837639
 20
3.953925891337592
 42
0.0758084656015198
 10
2.169021913809293
 20
3.931700413862545
 42
0.0860349560248243
 10
2.187813777904159
 20
3.917304521908791
 42
0.1059956505938014
 10
2.209784102556445
 20
3.911203775816067
 42
0.1262751954735513
 10
2.228661238584058
 20
3.914864892846699
 42
0.1262751954736156
 10
2.243442266522469
 20
3.927164130855645
 42
0.1059956505938882
 10
2.252622404399536
 20
3.94803610576873
 42
0.0860349560248506
 10
2.253368316835596
 20
3.97169661032679
 42
0.0758084656015913
  0
LWPOLYLINE
  5
3A1
330
1E
100
AcDbEntity
  8
IMAGE
100
AcDbPolyline
 90
       16
 70
     1
 43
0.0
 10
2.34814409889873
 20
4.186268041042372
 42
0.0280832620711611
 10
2.317517505875956
 20
4.18412839627478
 42
0.0383996410605271
 10
2.295508852854952
 20
4.179605986509959
 42
0.0790833228916241
 10
2.276998710170219
 20
4.170953604825091
 42
0.2524926882143302
 10
2.273868306964872
 20
4.164956037385217
 42
0.2524926882147992
 10
2.277160633145656
 20
4.159045806616181
 42
0.0790833228917059
 10
2.295899199513756
 20
4.15089993517735
 42
0.0383996410604923
 10
2.318022684195584
 20
4.146977636946439
 42
0.0280832620711411
 10
2.348696132437625
 20
4.145671553925617
 42
0.0280832620711456
 10
2.379322725460399
 20
4.147811198693209
 42
0.038399641060506
 10
2.401331378481402
 20
4.15233360845803
 42
0.0790833228916457
 10
2.419841521166135
 20
4.160985990142902
 42
0.2524926882143649
 10
2.422971924371468
 20
4.166983557582772
 42
0.2524926882146165
 10
2.419679598190698
 20
4.172893788351811
 42
0.0790833228915975
 10
2.400941031822598
 20
4.181039659790642
 42
0.0383996410605078
 10
2.378817547140771
 20
4.184961958021554
 42
0.0280832620711437
  0
POLYLINE
  5
3B3
330
1E
100
AcDbEntity
  8
IMAGE
100
AcDb2dPolyline
 66
     1
 10
0.0
 20
0.0
 30
0.0
 70
     5
 75
     6
  0
VERTEX
  5
3B4
330
3B3
100
AcDbEntity
  8
IMAGE
100
AcDbVertex
100
AcDb2dVertex
 10
2.262322905681132
 20
4.186191824983127
 30
0.0
 70
    16
  0
VERTEX
  5
3B5
330
3B3
100
AcDbEntity
  8
IMAGE
100
AcDbVertex
100
AcDb2dVertex
 10
2.264598591306169
 20
4.155050949752312
 30
0.0
 70
     8
  0
VERTEX
  5
3B6
330
3B3
100
AcDbEntity
  8
IMAGE
100
AcDbVertex
100
AcDb2dVertex
 10
2.262439412340215
 20
4.147772943882999
 30
0.0
 70
     8
  0
VERTEX
  5
3B7
330
3B3
100
AcDbEntity
  8
IMAGE
100
AcDbVertex
100
AcDb2dVertex
 10
2.259635196506395
 20
4.139719124708045
 30
0.0
 70
     8
  0
VERTEX
  5
3B8
330
3B3
100
AcDbEntity
  8
IMAGE
100
AcDbVertex
100
AcDb2dVertex
 10
2.256319618111733
 20
4.1311990436711
 30
0.0
 70
     8
  0
VERTEX
  5
3B9
330
3B3
100
AcDbEntity
  8
IMAGE
100
AcDbVertex
100
AcDb2dVertex
 10
2.252626351463179
 20
4.122522252215813
 30
0.0
 70
     8
  0
VERTEX
  5
3BA
330
3B3
100
AcDbEntity
  8
IMAGE
100
AcDbVertex
100
AcDb2dVertex
 10
2.248689070867727
 20
4.113998301785824
 30
0.0
 70
     8
  0
VERTEX
  5
3BB
330
3B3
100
AcDbEntity
  8
IMAGE
100
AcDbVertex
100
AcDb2dVertex
 10
2.244641450632359
 20
4.105936743824782
 30
0.0
 70
     8
  0
VERTEX
  5
3BC
330
3B3
100
AcDbEntity
  8
IMAGE
100
AcDbVertex
100
AcDb2dVertex
 10
2.240617165064024
 20
4.098647129776332
 30
0.0
 70
     8
  0
VERTEX
  5
3BD
330
3B3
100
AcDbEntity
  8
IMAGE
100
AcDbVertex
100
AcDb2dVertex
 10
2.236749888469732
 20
4.092439011084121
 30
0.0
 70
     8
  0
VERTEX
  5
3BE
330
3B3
100
AcDbEntity
  8
IMAGE
100
AcDbVertex
100
AcDb2dVertex
 10
2.233132515047843
 20
4.087569057486839
 30
0.0
 70
     8
  0
VERTEX
  5
3BF
330
3B3
100
AcDbEntity
  8
IMAGE
100
AcDbVertex
100
AcDb2dVertex
 10
2.229694818562252
 20
4.084082411903353
 30
0.0
 70
     8
  0
VERTEX
  5
3C0
330
3B3
100
AcDbEntity
  8
IMAGE
100
AcDbVertex
100
AcDb2dVertex
 10
2.226325792668292
 20
4.081971335547568
 30
0.0
 70
     8
  0
VERTEX
  5
3C1
330
3B3
100
AcDbEntity
  8
IMAGE
100
AcDbVertex
100
AcDb2dVertex
 10
2.222914431021238
 20
4.081228089633396
 30
0.0
 70
     8
  0
VERTEX
  5
3C2
330
3B3
100
AcDbEntity
  8
IMAGE
100
AcDbVertex
100
AcDb2dVertex
 10
2.21934972727641
 20
4.081844935374744
 30
0.0
 70
     8
  0
VERTEX
  5
3C3
330
3B3
100
AcDbEntity
  8
IMAGE
100
AcDbVertex
100
AcDb2dVertex
 10
2.21552067508911
 20
4.083814133985524
 30
0.0
 70
     8
  0
VERTEX
  5
3C4
330
3B3
100
AcDbEntity
  8
IMAGE
100
AcDbVertex
100
AcDb2dVertex
 10
2.211316268114616
 20
4.087127946679644
 30
0.0
 70
     8
  0
VERTEX
  5
3C5
330
3B3
100
AcDbEntity
  8
IMAGE
100
AcDbVertex
100
AcDb2dVertex
 10
2.206625500008259
 20
4.091778634671009
 30
0.0
 70
     8
  0
VERTEX
  5
3C6
330
3B3
100
AcDbEntity
  8
IMAGE
100
AcDbVertex
100
AcDb2dVertex
 10
2.201389256280152
 20
4.097710736659302
 30
0.0
 70
     8
  0
VERTEX
  5
3C7
330
3B3
100
AcDbEntity
  8
IMAGE
100
AcDbVertex
100
AcDb2dVertex
 10
2.195755989859749
 20
4.104677901287286
 30
0.0
 70
     8
  0
VERTEX
  5
3C8
330
3B3
100
AcDbEntity
  8
IMAGE
100
AcDbVertex
100
AcDb2dVertex
 10
2.189926045531323
 20
4.112386054683498
 30
0.0
 70
     8
  0
VERTEX
  5
3C9
330
3B3
100
AcDbEntity
  8
IMAGE
100
AcDbVertex
100
AcDb2dVertex
 10
2.184099768079137
 20
4.120541122976477
 30
0.0
 70
     8
  0
VERTEX
  5
3CA
330
3B3
100
AcDbEntity
  8
IMAGE
100
AcDbVertex
100
AcDb2dVertex
 10
2.178477502287493
 20
4.128849032294753
 30
0.0
 70
     8
  0
VERTEX
  5
3CB
330
3B3
100
AcDbEntity
  8
IMAGE
100
AcDbVertex
100
AcDb2dVertex
 10
2.173259592940639
 20
4.137015708766868
 30
0.0
 70
     8
  0
VERTEX
  5
3CC
330
3B3
100
AcDbEntity
  8
IMAGE
100
AcDbVertex
100
AcDb2dVertex
 10
2.168646384822865
 20
4.144747078521356
 30
0.0
 70
     8
  0
VERTEX
  5
3CD
330
3B3
100
AcDbEntity
  8
IMAGE
100
AcDbVertex
100
AcDb2dVertex
 10
2.164838222718445
 20
4.151749067686751
 30
0.0
 70
     8
  0
VERTEX
  5
3CE
330
3B3
100
AcDbEntity
  8
IMAGE
100
AcDbVertex
100
AcDb2dVertex
 10
2.162012783449371
 20
4.157792858093057
 30
0.0
 70
     8
  0
VERTEX
  5
3CF
330
3B3
100
AcDbEntity
  8
IMAGE
100
AcDbVertex
100
AcDb2dVertex
 10
2.160257071988497
 20
4.162910654376145
 30
0.0
 70
     8
  0
VERTEX
  5
3D0
330
3B3
100
AcDbEntity
  8
IMAGE
100
AcDbVertex
100
AcDb2dVertex
 10
2.159635425346452
 20
4.167199916873344
 30
0.0
 70
     8
  0
VERTEX
  5
3D1
330
3B3
100
AcDbEntity
  8
IMAGE
100
AcDbVertex
100
AcDb2dVertex
 10
2.160212180533791
 20
4.170758105921994
 30
0.0
 70
     8
  0
VERTEX
  5
3D2
330
3B3
100
AcDbEntity
  8
IMAGE
100
AcDbVertex
100
AcDb2dVertex
 10
2.162051674561128
 20
4.173682681859436
 30
0.0
 70
     8
  0
VERTEX
  5
3D3
330
3B3
100
AcDbEntity
  8
IMAGE
100
AcDbVertex
100
AcDb2dVertex
 10
2.165218244439033
 20
4.176071105022995
 30
0.0
 70
     8
  0
VERTEX
  5
3D4
330
3B3
100
AcDbEntity
  8
IMAGE
100
AcDbVertex
100
AcDb2dVertex
 10
2.169776227178105
 20
4.178020835750015
 30
0.0
 70
     8
  0
VERTEX
  5
3D5
330
3B3
100
AcDbEntity
  8
IMAGE
100
AcDbVertex
100
AcDb2dVertex
 10
2.175789959788958
 20
4.179629334377826
 30
0.0
 70
     8
  0
VERTEX
  5
3D6
330
3B3
100
AcDbEntity
  8
IMAGE
100
AcDbVertex
100
AcDb2dVertex
 10
2.18325138625555
 20
4.180975238258846
 30
0.0
 70
     8
  0
VERTEX
  5
3D7
330
3B3
100
AcDbEntity
  8
IMAGE
100
AcDbVertex
100
AcDb2dVertex
 10
2.191862878455496
 20
4.182061892805813
 30
0.0
 70
     8
  0
VERTEX
  5
3D8
330
3B3
100
AcDbEntity
  8
IMAGE
100
AcDbVertex
100
AcDb2dVertex
 10
2.201254415239817
 20
4.182873820446546
 30
0.0
 70
     8
  0
VERTEX
  5
3D9
330
3B3
100
AcDbEntity
  8
IMAGE
100
AcDbVertex
100
AcDb2dVertex
 10
2.211055975459502
 20
4.183395543608857
 30
0.0
 70
     8
  0
VERTEX
  5
3DA
330
3B3
100
AcDbEntity
  8
IMAGE
100
AcDbVertex
100
AcDb2dVertex
 10
2.220897537965571
 20
4.183611584720567
 30
0.0
 70
     8
  0
VERTEX
  5
3DB
330
3B3
100
AcDbEntity
  8
IMAGE
100
AcDbVertex
100
AcDb2dVertex
 10
2.230409081609026
 20
4.183506466209494
 30
0.0
 70
     8
  0
VERTEX
  5
3DC
330
3B3
100
AcDbEntity
  8
IMAGE
100
AcDbVertex
100
AcDb2dVertex
 10
2.239220585240873
 20
4.183064710503459
 30
0.0
 70
     8
  0
VERTEX
  5
3DD
330
3B3
100
AcDbEntity
  8
IMAGE
100
AcDbVertex
100
AcDb2dVertex
 10
2.246962027712102
 20
4.182270840030274
 30
0.0
 70
     8
  0
VERTEX
  5
3DE
330
3B3
100
AcDbEntity
  8
IMAGE
100
AcDbVertex
100
AcDb2dVertex
 10
2.253338836630548
 20
4.181097003221251
 30
0.0
 70
     8
  0
VERTEX
  5
3DF
330
3B3
100
AcDbEntity
  8
IMAGE
100
AcDbVertex
100
AcDb2dVertex
 10
2.25835823463126
 20
4.179465852521652
 30
0.0
 70
     8
  0
VERTEX
  5
3E0
330
3B3
100
AcDbEntity
  8
IMAGE
100
AcDbVertex
100
AcDb2dVertex
 10
2.262102893106047
 20
4.177287666380231
 30
0.0
 70
     8
  0
VERTEX
  5
3E1
330
3B3
100
AcDbEntity
  8
IMAGE
100
AcDbVertex
100
AcDb2dVertex
 10
2.264655483446803
 20
4.174472723245753
 30
0.0
 70
     8
  0
VERTEX
  5
3E2
330
3B3
100
AcDbEntity
  8
IMAGE
100
AcDbVertex
100
AcDb2dVertex
 10
2.266098677045336
 20
4.170931301566963
 30
0.0
 70
     8
  0
VERTEX
  5
3E3
330
3B3
100
AcDbEntity
  8
IMAGE
100
AcDbVertex
100
AcDb2dVertex
 10
2.266515145293511
 20
4.166573679792624
 30
0.0
 70
     8
  0
VERTEX
  5
3E4
330
3B3
100
AcDbEntity
  8
IMAGE
100
AcDbVertex
100
AcDb2dVertex
 10
2.265987559583167
 20
4.161310136371487
 30
0.0
 70
     8
  0
VERTEX
  5
3E5
330
3B3
100
AcDbEntity
  8
IMAGE
100
AcDbVertex
100
AcDb2dVertex
 10
2.272904843837566
 20
4.166628173744681
 30
0.0
 70
    16
  0
VERTEX
  5
3E6
330
3B3
100
AcDbEntity
  8
IMAGE
100
AcDbVertex
100
AcDb2dVertex
 10
2.233649266805615
 20
4.077601178552009
 30
0.0
 70
    16
  0
VERTEX
  5
3E7
330
3B3
100
AcDbEntity
  8
IMAGE
100
AcDbVertex
100
AcDb2dVertex
 10
2.212997419758367
 20
4.077601178552009
 30
0.0
 70
    16
  0
VERTEX
  5
3E8
330
3B3
100
AcDbEntity
  8
IMAGE
100
AcDbVertex
100
AcDb2dVertex
 10
2.154114054210439
 20
4.162665915266008
 30
0.0
 70
    16
  0
VERTEX
  5
3E9
330
3B3
100
AcDbEntity
  8
IMAGE
100
AcDbVertex
100
AcDb2dVertex
 10
2.159575699710531
 20
4.182229566504454
 30
0.0
 70
    16
  0
SEQEND
  5
3EA
330
3B3
100
AcDbEntity
  8
IMAGE
  0
LWPOLYLINE
  5
3EB
330
1E
100
AcDbEntity
  8
IMAGE
100
AcDbPolyline
 90
       16
 70
     1
 43
0.0
 10
2.182159157161238
 20
4.110571954243963
 42
0.089158215018281
 10
2.168434729215435
 20
4.116403807712939
 42
0.0941232123748849
 10
2.15430579587546
 20
4.116916454130802
 42
0.1021164699559977
 10
2.141243928467404
 20
4.112075045610848
 42
0.1085893584407838
 10
2.1318707431589
 20
4.102898242793796
 42
0.1085893584407297
 10
2.127209004639327
 20
4.090636982387708
 42
0.1021164699558796
 10
2.127996148620356
 20
4.07672899831395
 42
0.0941232123751025
 10
2.13411722306907
 20
4.063984508866799
 42
0.0891582150184447
 10
2.144951697191829
 20
4.053738309190504
 42
0.0891582150182925
 10
2.158676125137632
 20
4.047906455721531
 42
0.0941232123749289
 10
2.172805058477608
 20
4.047393809303668
 42
0.1021164699559494
 10
2.185866925885663
 20
4.052235217823622
 42
0.108589358440703
 10
2.195240111194168
 20
4.061412020640671
 42
0.108589358440865
 10
2.199901849713727
 20
4.073673281046755
 42
0.1021164699561734
 10
2.199114705732698
 20
4.087581265120516
 42
0.0941232123749801
 10
2.192993631283998
 20
4.100325754567667
 42
0.0891582150184292
  0
LWPOLYLINE
  5
3FD
330
1E
100
AcDbEntity
  8
IMAGE
100
AcDbPolyline
 90
       16
 70
     1
 43
0.0
 10
2.502572824250587
 20
4.090417609449293
 42
0.0748908044820551
 10
2.514412554633859
 20
4.055046893419142
 42
0.0853957141860852
 10
2.534056165337896
 20
4.02882203589877
 42
0.1061792576230668
 10
2.560986008091698
 20
4.012460440698351
 42
0.1276627052626351
 10
2.587238935368356
 20
4.010343958204504
 42
0.1276627052626062
 10
2.611207195993353
 20
4.021262665607526
 42
0.1061792576230447
 10
2.630967388942702
 20
4.045807583673212
 42
0.0853957141860986
 10
2.640521257294973
 20
4.077149858526226
 42
0.0748908044821293
 10
2.639625991018685
 20
4.114438801476246
 42
0.0748908044820311
 10
2.627786260635412
 20
4.149809517506401
 42
0.0853957141860326
 10
2.608142649931375
 20
4.176034375026766
 42
0.1061792576230853
 10
2.581212807177573
 20
4.192395970227188
 42
0.1276627052626233
 10
2.554959879900915
 20
4.194512452721031
 42
0.1276627052625918
 10
2.530991619275918
 20
4.183593745318013
 42
0.1061792576230068
 10
2.511231426326569
 20
4.159048827252327
 42
0.0853957141861021
 10
2.501677557974284
 20
4.127706552399295
 42
0.0748908044820785
  0
LWPOLYLINE
  5
40F
330
1E
100
AcDbEntity
  8
IMAGE
100
AcDbPolyline
 90
       16
 70
     1
 43
0.0
 10
1.220065941163086
 20
4.07908962307459
 42
0.0748908044820551
 10
1.231905671546359
 20
4.043718907044439
 42
0.0853957141860852
 10
1.251549282250396
 20
4.017494049524067
 42
0.1061792576230668
 10
1.278479125004198
 20
4.001132454323649
 42
0.1276627052626351
 10
1.304732052280856
 20
3.999015971829802
 42
0.1276627052626062
 10
1.328700312905853
 20
4.009934679232824
 42
0.1061792576230447
 10
1.348460505855202
 20
4.03447959729851
 42
0.0853957141860986
 10
1.358014374207472
 20
4.065821872151524
 42
0.0748908044821293
 10
1.357119107931184
 20
4.103110815101544
 42
0.0748908044820311
 10
1.345279377547912
 20
4.138481531131699
 42
0.0853957141860326
 10
1.325635766843875
 20
4.164706388652064
 42
0.1061792576230853
 10
1.298705924090073
 20
4.181067983852486
 42
0.1276627052626233
 10
1.272452996813415
 20
4.183184466346329
 42
0.1276627052625918
 10
1.248484736188418
 20
4.172265758943311
 42
0.1061792576230068
 10
1.228724543239069
 20
4.147720840877624
 42
0.0853957141861021
 10
1.219170674886784
 20
4.116378566024593
 42
0.0748908044820785
  0
CIRCLE
  5
421
330
1E
100
AcDbEntity
  8
IMAGE
100
AcDbCircle
 10
1.180981040553009
 20
4.147067120099315
 30
0.0
 40
0.0388839860400404
  0
POLYLINE
  5
422
330
1E
100
AcDbEntity
  8
IMAGE
100
AcDb2dPolyline
 66
     1
 10
0.0
 20
0.0
 30
0.0
 70
     5
 75
     6
  0
VERTEX
  5
423
330
422
100
AcDbEntity
  8
IMAGE
100
AcDbVertex
100
AcDb2dVertex
 10
1.083601514263014
 20
3.948817357968712
 30
0.0
 70
    16
  0
VERTEX
  5
424
330
422
100
AcDbEntity
  8
IMAGE
100
AcDbVertex
100
AcDb2dVertex
 10
1.028956613191715
 20
3.877826893559165
 30
0.0
 70
     8
  0
VERTEX
  5
425
330
422
100
AcDbEntity
  8
IMAGE
100
AcDbVertex
100
AcDb2dVertex
 10
1.022270731052265
 20
3.87953136119574
 30
0.0
 70
     8
  0
VERTEX
  5
426
330
422
100
AcDbEntity
  8
IMAGE
100
AcDbVertex
100
AcDb2dVertex
 10
1.015925201699408
 20
3.883971489715543
 30
0.0
 70
     8
  0
VERTEX
  5
427
330
422
100
AcDbEntity
  8
IMAGE
100
AcDbVertex
100
AcDb2dVertex
 10
1.010231042909742
 20
3.890508829266048
 30
0.0
 70
     8
  0
VERTEX
  5
428
330
422
100
AcDbEntity
  8
IMAGE
100
AcDbVertex
100
AcDb2dVertex
 10
1.005499272459849
 20
3.898504929994738
 30
0.0
 70
     8
  0
VERTEX
  5
429
330
422
100
AcDbEntity
  8
IMAGE
100
AcDbVertex
100
AcDb2dVertex
 10
1.002040908126309
 20
3.907321342049085
 30
0.0
 70
     8
  0
VERTEX
  5
42A
330
422
100
AcDbEntity
  8
IMAGE
100
AcDbVertex
100
AcDb2dVertex
 10
1.000166967685706
 20
3.916319615576577
 30
0.0
 70
     8
  0
VERTEX
  5
42B
330
422
100
AcDbEntity
  8
IMAGE
100
AcDbVertex
100
AcDb2dVertex
 10
1.000188468914635
 20
3.924861300724694
 30
0.0
 70
     8
  0
VERTEX
  5
42C
330
422
100
AcDbEntity
  8
IMAGE
100
AcDbVertex
100
AcDb2dVertex
 10
1.002416429589678
 20
3.932307947640909
 30
0.0
 70
     8
  0
VERTEX
  5
42D
330
422
100
AcDbEntity
  8
IMAGE
100
AcDbVertex
100
AcDb2dVertex
 10
1.007004525160999
 20
3.938129449477985
 30
0.0
 70
     8
  0
VERTEX
  5
42E
330
422
100
AcDbEntity
  8
IMAGE
100
AcDbVertex
100
AcDb2dVertex
 10
1.013477061773107
 20
3.942229071409775
 30
0.0
 70
     8
  0
VERTEX
  5
42F
330
422
100
AcDbEntity
  8
IMAGE
100
AcDbVertex
100
AcDb2dVertex
 10
1.02120100324405
 20
3.944618421615421
 30
0.0
 70
     8
  0
VERTEX
  5
430
330
422
100
AcDbEntity
  8
IMAGE
100
AcDbVertex
100
AcDb2dVertex
 10
1.029543313391931
 20
3.945309108274058
 30
0.0
 70
     8
  0
VERTEX
  5
431
330
422
100
AcDbEntity
  8
IMAGE
100
AcDbVertex
100
AcDb2dVertex
 10
1.037870956034785
 20
3.94431273956482
 30
0.0
 70
     8
  0
VERTEX
  5
432
330
422
100
AcDbEntity
  8
IMAGE
100
AcDbVertex
100
AcDb2dVertex
 10
1.045550894990717
 20
3.941640923666847
 30
0.0
 70
     8
  0
VERTEX
  5
433
330
422
100
AcDbEntity
  8
IMAGE
100
AcDbVertex
100
AcDb2dVertex
 10
1.051950094077801
 20
3.937305268759276
 30
0.0
 70
     8
  0
VERTEX
  5
434
330
422
100
AcDbEntity
  8
IMAGE
100
AcDbVertex
100
AcDb2dVertex
 10
1.056435517114087
 20
3.931317383021243
 30
0.0
 70
     8
  0
VERTEX
  5
435
330
422
100
AcDbEntity
  8
IMAGE
100
AcDbVertex
100
AcDb2dVertex
 10
1.058533303682202
 20
3.923791413547592
 30
0.0
 70
     8
  0
VERTEX
  5
436
330
422
100
AcDbEntity
  8
IMAGE
100
AcDbVertex
100
AcDb2dVertex
 10
1.058406296422964
 20
3.915251663096002
 30
0.0
 70
     8
  0
VERTEX
  5
437
330
422
100
AcDbEntity
  8
IMAGE
100
AcDbVertex
100
AcDb2dVertex
 10
1.056376513741673
 20
3.906324973339851
 30
0.0
 70
     8
  0
VERTEX
  5
438
330
422
100
AcDbEntity
  8
IMAGE
100
AcDbVertex
100
AcDb2dVertex
 10
1.0527659740437
 20
3.897638185952525
 30
0.0
 70
     8
  0
VERTEX
  5
439
330
422
100
AcDbEntity
  8
IMAGE
100
AcDbVertex
100
AcDb2dVertex
 10
1.047896695734385
 20
3.889818142607412
 30
0.0
 70
     8
  0
VERTEX
  5
43A
330
422
100
AcDbEntity
  8
IMAGE
100
AcDbVertex
100
AcDb2dVertex
 10
1.042090697219043
 20
3.883491684977892
 30
0.0
 70
     8
  0
VERTEX
  5
43B
330
422
100
AcDbEntity
  8
IMAGE
100
AcDbVertex
100
AcDb2dVertex
 10
1.035669996903044
 20
3.879285654737346
 30
0.0
 70
     8
  0
VERTEX
  5
43C
330
422
100
AcDbEntity
  8
IMAGE
100
AcDbVertex
100
AcDb2dVertex
 10
1.02864370641827
 20
3.841836379044552
 30
0.0
 70
    16
  0
VERTEX
  5
43D
330
422
100
AcDbEntity
  8
IMAGE
100
AcDbVertex
100
AcDb2dVertex
 10
0.9755633392141959
 20
3.950798487208048
 30
0.0
 70
    16
  0
SEQEND
  5
43E
330
422
100
AcDbEntity
  8
IMAGE
  0
POLYLINE
  5
43F
330
1E
100
AcDbEntity
  8
IMAGE
100
AcDb2dPolyline
 66
     1
 10
0.0
 20
0.0
 30
0.0
 70
     5
 75
     6
  0
VERTEX
  5
440
330
43F
100
AcDbEntity
  8
IMAGE
100
AcDbVertex
100
AcDb2dVertex
 10
1.044214436305681
 20
3.901437753284439
 30
0.0
 70
    16
  0
VERTEX
  5
441
330
43F
100
AcDbEntity
  8
IMAGE
100
AcDbVertex
100
AcDb2dVertex
 10
0.939401351719967
 20
4.001821486551264
 30
0.0
 70
     8
  0
VERTEX
  5
442
330
43F
100
AcDbEntity
  8
IMAGE
100
AcDbVertex
100
AcDb2dVertex
 10
0.9291086540160922
 20
3.997462798245823
 30
0.0
 70
     8
  0
VERTEX
  5
443
330
43F
100
AcDbEntity
  8
IMAGE
100
AcDbVertex
100
AcDb2dVertex
 10
0.9200275348393649
 20
3.988805659179526
 30
0.0
 70
     8
  0
VERTEX
  5
444
330
43F
100
AcDbEntity
  8
IMAGE
100
AcDbVertex
100
AcDb2dVertex
 10
0.9125005700119732
 20
3.976948367426047
 30
0.0
 70
     8
  0
VERTEX
  5
445
330
43F
100
AcDbEntity
  8
IMAGE
100
AcDbVertex
100
AcDb2dVertex
 10
0.9068703353561335
 20
3.962989221059078
 30
0.0
 70
     8
  0
VERTEX
  5
446
330
43F
100
AcDbEntity
  8
IMAGE
100
AcDbVertex
100
AcDb2dVertex
 10
0.9034794066940197
 20
3.948026518152304
 30
0.0
 70
     8
  0
VERTEX
  5
447
330
43F
100
AcDbEntity
  8
IMAGE
100
AcDbVertex
100
AcDb2dVertex
 10
0.9026703598478764
 20
3.933158556779416
 30
0.0
 70
     8
  0
VERTEX
  5
448
330
43F
100
AcDbEntity
  8
IMAGE
100
AcDbVertex
100
AcDb2dVertex
 10
0.9047857706398634
 20
3.919483635014095
 30
0.0
 70
     8
  0
VERTEX
  5
449
330
43F
100
AcDbEntity
  8
IMAGE
100
AcDbVertex
100
AcDb2dVertex
 10
0.9101682148921828
 20
3.908100050930028
 30
0.0
 70
     8
  0
VERTEX
  5
44A
330
43F
100
AcDbEntity
  8
IMAGE
100
AcDbVertex
100
AcDb2dVertex
 10
0.9189346678468996
 20
3.899894250366222
 30
0.0
 70
     8
  0
VERTEX
  5
44B
330
43F
100
AcDbEntity
  8
IMAGE
100
AcDbVertex
100
AcDb2dVertex
 10
0.9302997024254171
 20
3.894905270222937
 30
0.0
 70
     8
  0
VERTEX
  5
44C
330
43F
100
AcDbEntity
  8
IMAGE
100
AcDbVertex
100
AcDb2dVertex
 10
0.9432522909689584
 20
3.892960295165763
 30
0.0
 70
     8
  0
VERTEX
  5
44D
330
43F
100
AcDbEntity
  8
IMAGE
100
AcDbVertex
100
AcDb2dVertex
 10
0.9567814058187753
 20
3.893886509860279
 30
0.0
 70
     8
  0
VERTEX
  5
44E
330
43F
100
AcDbEntity
  8
IMAGE
100
AcDbVertex
100
AcDb2dVertex
 10
0.9698760193161337
 20
3.897511098972068
 30
0.0
 70
     8
  0
VERTEX
  5
44F
330
43F
100
AcDbEntity
  8
IMAGE
100
AcDbVertex
100
AcDb2dVertex
 10
0.9815251038022712
 20
3.903661247166717
 30
0.0
 70
     8
  0
VERTEX
  5
450
330
43F
100
AcDbEntity
  8
IMAGE
100
AcDbVertex
100
AcDb2dVertex
 10
0.9907176316184251
 20
3.912164139109807
 30
0.0
 70
     8
  0
VERTEX
  5
451
330
43F
100
AcDbEntity
  8
IMAGE
100
AcDbVertex
100
AcDb2dVertex
 10
0.9964425751058332
 20
3.92284695946692
 30
0.0
 70
     8
  0
VERTEX
  5
452
330
43F
100
AcDbEntity
  8
IMAGE
100
AcDbVertex
100
AcDb2dVertex
 10
0.9979688198550054
 20
3.935411448336169
 30
0.0
 70
     8
  0
VERTEX
  5
453
330
43F
100
AcDbEntity
  8
IMAGE
100
AcDbVertex
100
AcDb2dVertex
 10
0.9956849044532152
 20
3.949057567545753
 30
0.0
 70
     8
  0
VERTEX
  5
454
330
43F
100
AcDbEntity
  8
IMAGE
100
AcDbVertex
100
AcDb2dVertex
 10
0.9902592807370655
 20
3.962859834356405
 30
0.0
 70
     8
  0
VERTEX
  5
455
330
43F
100
AcDbEntity
  8
IMAGE
100
AcDbVertex
100
AcDb2dVertex
 10
0.9823604005430741
 20
3.975892766028859
 30
0.0
 70
     8
  0
VERTEX
  5
456
330
43F
100
AcDbEntity
  8
IMAGE
100
AcDbVertex
100
AcDb2dVertex
 10
0.9726567157078154
 20
3.98723087982384
 30
0.0
 70
     8
  0
VERTEX
  5
457
330
43F
100
AcDbEntity
  8
IMAGE
100
AcDbVertex
100
AcDb2dVertex
 10
0.9618166780678496
 20
3.995948693002077
 30
0.0
 70
     8
  0
VERTEX
  5
458
330
43F
100
AcDbEntity
  8
IMAGE
100
AcDbVertex
100
AcDb2dVertex
 10
0.9505087394597087
 20
4.00112072282431
 30
0.0
 70
     8
  0
VERTEX
  5
459
330
43F
100
AcDbEntity
  8
IMAGE
100
AcDbVertex
100
AcDb2dVertex
 10
0.930131989533935
 20
4.059386807453122
 30
0.0
 70
    16
  0
VERTEX
  5
45A
330
43F
100
AcDbEntity
  8
IMAGE
100
AcDbVertex
100
AcDb2dVertex
 10
0.8716657158783664
 20
3.871943936210654
 30
0.0
 70
    16
  0
SEQEND
  5
45B
330
43F
100
AcDbEntity
  8
IMAGE
  0
LWPOLYLINE
  5
45C
330
1E
100
AcDbEntity
  8
IMAGE
100
AcDbPolyline
 90
       16
 70
     1
 43
0.0
 10
1.125729268146613
 20
3.940478815949103
 42
0.089158215018281
 10
1.11200484020081
 20
3.94631066941808
 42
0.0941232123748849
 10
1.097875906860834
 20
3.946823315835943
 42
0.1021164699559977
 10
1.084814039452779
 20
3.941981907315989
 42
0.1085893584407838
 10
1.075440854144274
 20
3.932805104498937
 42
0.1085893584407297
 10
1.070779115624701
 20
3.920543844092848
 42
0.1021164699558796
 10
1.07156625960573
 20
3.906635860019091
 42
0.0941232123751025
 10
1.077687334054444
 20
3.89389137057194
 42
0.0891582150184447
 10
1.088521808177204
 20
3.883645170895645
 42
0.0891582150182925
 10
1.102246236123007
 20
3.877813317426672
 42
0.0941232123749289
 10
1.116375169462968
 20
3.877300671008808
 42
0.1021164699559494
 10
1.129437036871038
 20
3.882142079528763
 42
0.108589358440703
 10
1.138810222179542
 20
3.891318882345812
 42
0.108589358440865
 10
1.143471960699101
 20
3.903580142751896
 42
0.1021164699561734
 10
1.142684816718072
 20
3.917488126825657
 42
0.0941232123749801
 10
1.136563742269372
 20
3.930232616272808
 42
0.0891582150184292
  0
CIRCLE
  5
46E
330
1E
100
AcDbEntity
  8
IMAGE
100
AcDbCircle
 10
1.290725979820608
 20
3.94722070808127
 30
0.0
 40
0.0486836726316033
  0
LWPOLYLINE
  5
46F
330
1E
100
AcDbEntity
  8
IMAGE
100
AcDbPolyline
 90
       16
 70
     1
 43
0.0
 10
0.9840290613152397
 20
4.193721455773678
 42
0.0280832620711611
 10
0.9534024682924659
 20
4.191581811006086
 42
0.0383996410605271
 10
0.9313938152714619
 20
4.187059401241265
 42
0.0790833228916241
 10
0.9128836725867294
 20
4.178407019556397
 42
0.2524926882143302
 10
0.9097532693813825
 20
4.172409452116523
 42
0.2524926882147992
 10
0.9130455955621663
 20
4.166499221347487
 42
0.0790833228917059
 10
0.9317841619302662
 20
4.158353349908656
 42
0.0383996410604923
 10
0.9539076466120938
 20
4.154431051677745
 42
0.0280832620711411
 10
0.9845810948541348
 20
4.153124968656923
 42
0.0280832620711456
 10
1.015207687876908
 20
4.155264613424515
 42
0.038399641060506
 10
1.037216340897912
 20
4.159787023189336
 42
0.0790833228916457
 10
1.055726483582645
 20
4.168439404874208
 42
0.2524926882143649
 10
1.058856886787977
 20
4.174436972314078
 42
0.2524926882146165
 10
1.055564560607208
 20
4.180347203083117
 42
0.0790833228915975
 10
1.036825994239108
 20
4.188493074521948
 42
0.0383996410605078
 10
1.01470250955728
 20
4.19241537275286
 42
0.0280832620711437
  0
LWPOLYLINE
  5
481
330
1E
100
AcDbEntity
  8
IMAGE
100
AcDbPolyline
 90
       16
 70
     1
 43
0.0
 10
1.076565942544319
 20
4.155164978214871
 42
0.07934358800666
 10
1.026568657133366
 20
4.154784953356299
 42
0.088395850954969
 10
0.9842297718416823
 20
4.139698972137791
 42
0.1051726671530419
 10
0.9517184478073367
 20
4.110709364220747
 42
0.1211548649735495
 10
0.9372247214296713
 20
4.075638097627022
 42
0.1211548649734267
 10
0.9406498005887435
 20
4.037844835296924
 42
0.1051726671530232
 10
0.9630857123396332
 20
4.000508346153493
 42
0.0883958509549529
 10
0.9990347036373627
 20
3.973529872109483
 42
0.0793435880066574
 10
1.046663726832917
 20
3.958319707192678
 42
0.0793435880066597
 10
1.09666101224387
 20
3.958699732051248
 42
0.0883958509549733
 10
1.138999897535554
 20
3.97378571326976
 42
0.1051726671530409
 10
1.171511221569914
 20
4.002775321186812
 42
0.1211548649734865
 10
1.186004947947565
 20
4.03784658778053
 42
0.1211548649735704
 10
1.182579868788479
 20
4.075639850110638
 42
0.1051726671530808
 10
1.160143957037603
 20
4.112976339254059
 42
0.088395850954995
 10
1.124194965739859
 20
4.13995481329807
 42
0.079343588006662
  0
POLYLINE
  5
493
330
1E
100
AcDbEntity
  8
IMAGE
100
AcDb2dPolyline
 66
     1
 10
0.0
 20
0.0
 30
0.0
 70
     5
 75
     6
  0
VERTEX
  5
494
330
493
100
AcDbEntity
  8
IMAGE
100
AcDbVertex
100
AcDb2dVertex
 10
1.236661534395074
 20
3.976954583295318
 30
0.0
 70
    16
  0
VERTEX
  5
495
330
493
100
AcDbEntity
  8
IMAGE
100
AcDbVertex
100
AcDb2dVertex
 10
1.238937220020111
 20
3.945813708064504
 30
0.0
 70
     8
  0
VERTEX
  5
496
330
493
100
AcDbEntity
  8
IMAGE
100
AcDbVertex
100
AcDb2dVertex
 10
1.236778041054157
 20
3.93853570219519
 30
0.0
 70
     8
  0
VERTEX
  5
497
330
493
100
AcDbEntity
  8
IMAGE
100
AcDbVertex
100
AcDb2dVertex
 10
1.233973825220338
 20
3.930481883020236
 30
0.0
 70
     8
  0
VERTEX
  5
498
330
493
100
AcDbEntity
  8
IMAGE
100
AcDbVertex
100
AcDb2dVertex
 10
1.230658246825675
 20
3.921961801983291
 30
0.0
 70
     8
  0
VERTEX
  5
499
330
493
100
AcDbEntity
  8
IMAGE
100
AcDbVertex
100
AcDb2dVertex
 10
1.226964980177121
 20
3.913285010528005
 30
0.0
 70
     8
  0
VERTEX
  5
49A
330
493
100
AcDbEntity
  8
IMAGE
100
AcDbVertex
100
AcDb2dVertex
 10
1.22302769958167
 20
3.904761060098016
 30
0.0
 70
     8
  0
VERTEX
  5
49B
330
493
100
AcDbEntity
  8
IMAGE
100
AcDbVertex
100
AcDb2dVertex
 10
1.218980079346301
 20
3.896699502136973
 30
0.0
 70
     8
  0
VERTEX
  5
49C
330
493
100
AcDbEntity
  8
IMAGE
100
AcDbVertex
100
AcDb2dVertex
 10
1.214955793777966
 20
3.889409888088524
 30
0.0
 70
     8
  0
VERTEX
  5
49D
330
493
100
AcDbEntity
  8
IMAGE
100
AcDbVertex
100
AcDb2dVertex
 10
1.211088517183674
 20
3.883201769396313
 30
0.0
 70
     8
  0
VERTEX
  5
49E
330
493
100
AcDbEntity
  8
IMAGE
100
AcDbVertex
100
AcDb2dVertex
 10
1.207471143761785
 20
3.878331815799031
 30
0.0
 70
     8
  0
VERTEX
  5
49F
330
493
100
AcDbEntity
  8
IMAGE
100
AcDbVertex
100
AcDb2dVertex
 10
1.204033447276194
 20
3.874845170215545
 30
0.0
 70
     8
  0
VERTEX
  5
4A0
330
493
100
AcDbEntity
  8
IMAGE
100
AcDbVertex
100
AcDb2dVertex
 10
1.200664421382234
 20
3.87273409385976
 30
0.0
 70
     8
  0
VERTEX
  5
4A1
330
493
100
AcDbEntity
  8
IMAGE
100
AcDbVertex
100
AcDb2dVertex
 10
1.197253059735181
 20
3.871990847945587
 30
0.0
 70
     8
  0
VERTEX
  5
4A2
330
493
100
AcDbEntity
  8
IMAGE
100
AcDbVertex
100
AcDb2dVertex
 10
1.193688355990352
 20
3.872607693686935
 30
0.0
 70
     8
  0
VERTEX
  5
4A3
330
493
100
AcDbEntity
  8
IMAGE
100
AcDbVertex
100
AcDb2dVertex
 10
1.189859303803053
 20
3.874576892297715
 30
0.0
 70
     8
  0
VERTEX
  5
4A4
330
493
100
AcDbEntity
  8
IMAGE
100
AcDbVertex
100
AcDb2dVertex
 10
1.185654896828558
 20
3.877890704991836
 30
0.0
 70
     8
  0
VERTEX
  5
4A5
330
493
100
AcDbEntity
  8
IMAGE
100
AcDbVertex
100
AcDb2dVertex
 10
1.180964128722201
 20
3.882541392983201
 30
0.0
 70
     8
  0
VERTEX
  5
4A6
330
493
100
AcDbEntity
  8
IMAGE
100
AcDbVertex
100
AcDb2dVertex
 10
1.175727884994095
 20
3.888473494971494
 30
0.0
 70
     8
  0
VERTEX
  5
4A7
330
493
100
AcDbEntity
  8
IMAGE
100
AcDbVertex
100
AcDb2dVertex
 10
1.170094618573691
 20
3.895440659599477
 30
0.0
 70
     8
  0
VERTEX
  5
4A8
330
493
100
AcDbEntity
  8
IMAGE
100
AcDbVertex
100
AcDb2dVertex
 10
1.164264674245266
 20
3.90314881299569
 30
0.0
 70
     8
  0
VERTEX
  5
4A9
330
493
100
AcDbEntity
  8
IMAGE
100
AcDbVertex
100
AcDb2dVertex
 10
1.158438396793079
 20
3.911303881288668
 30
0.0
 70
     8
  0
VERTEX
  5
4AA
330
493
100
AcDbEntity
  8
IMAGE
100
AcDbVertex
100
AcDb2dVertex
 10
1.152816131001436
 20
3.919611790606944
 30
0.0
 70
     8
  0
VERTEX
  5
4AB
330
493
100
AcDbEntity
  8
IMAGE
100
AcDbVertex
100
AcDb2dVertex
 10
1.147598221654582
 20
3.927778467079059
 30
0.0
 70
     8
  0
VERTEX
  5
4AC
330
493
100
AcDbEntity
  8
IMAGE
100
AcDbVertex
100
AcDb2dVertex
 10
1.142985013536807
 20
3.935509836833547
 30
0.0
 70
     8
  0
VERTEX
  5
4AD
330
493
100
AcDbEntity
  8
IMAGE
100
AcDbVertex
100
AcDb2dVertex
 10
1.139176851432387
 20
3.942511825998943
 30
0.0
 70
     8
  0
VERTEX
  5
4AE
330
493
100
AcDbEntity
  8
IMAGE
100
AcDbVertex
100
AcDb2dVertex
 10
1.136351412163313
 20
3.948555616405249
 30
0.0
 70
     8
  0
VERTEX
  5
4AF
330
493
100
AcDbEntity
  8
IMAGE
100
AcDbVertex
100
AcDb2dVertex
 10
1.13459570070244
 20
3.953673412688337
 30
0.0
 70
     8
  0
VERTEX
  5
4B0
330
493
100
AcDbEntity
  8
IMAGE
100
AcDbVertex
100
AcDb2dVertex
 10
1.133974054060394
 20
3.957962675185536
 30
0.0
 70
     8
  0
VERTEX
  5
4B1
330
493
100
AcDbEntity
  8
IMAGE
100
AcDbVertex
100
AcDb2dVertex
 10
1.134550809247733
 20
3.961520864234186
 30
0.0
 70
     8
  0
VERTEX
  5
4B2
330
493
100
AcDbEntity
  8
IMAGE
100
AcDbVertex
100
AcDb2dVertex
 10
1.13639030327507
 20
3.964445440171628
 30
0.0
 70
     8
  0
VERTEX
  5
4B3
330
493
100
AcDbEntity
  8
IMAGE
100
AcDbVertex
100
AcDb2dVertex
 10
1.139556873152975
 20
3.966833863335187
 30
0.0
 70
     8
  0
VERTEX
  5
4B4
330
493
100
AcDbEntity
  8
IMAGE
100
AcDbVertex
100
AcDb2dVertex
 10
1.144114855892048
 20
3.968783594062207
 30
0.0
 70
     8
  0
VERTEX
  5
4B5
330
493
100
AcDbEntity
  8
IMAGE
100
AcDbVertex
100
AcDb2dVertex
 10
1.150128588502901
 20
3.970392092690017
 30
0.0
 70
     8
  0
VERTEX
  5
4B6
330
493
100
AcDbEntity
  8
IMAGE
100
AcDbVertex
100
AcDb2dVertex
 10
1.157590014969492
 20
3.971737996571038
 30
0.0
 70
     8
  0
VERTEX
  5
4B7
330
493
100
AcDbEntity
  8
IMAGE
100
AcDbVertex
100
AcDb2dVertex
 10
1.166201507169439
 20
3.972824651118004
 30
0.0
 70
     8
  0
VERTEX
  5
4B8
330
493
100
AcDbEntity
  8
IMAGE
100
AcDbVertex
100
AcDb2dVertex
 10
1.17559304395376
 20
3.973636578758737
 30
0.0
 70
     8
  0
VERTEX
  5
4B9
330
493
100
AcDbEntity
  8
IMAGE
100
AcDbVertex
100
AcDb2dVertex
 10
1.185394604173445
 20
3.974158301921049
 30
0.0
 70
     8
  0
VERTEX
  5
4BA
330
493
100
AcDbEntity
  8
IMAGE
100
AcDbVertex
100
AcDb2dVertex
 10
1.195236166679513
 20
3.974374343032758
 30
0.0
 70
     8
  0
VERTEX
  5
4BB
330
493
100
AcDbEntity
  8
IMAGE
100
AcDbVertex
100
AcDb2dVertex
 10
1.204747710322968
 20
3.974269224521686
 30
0.0
 70
     8
  0
VERTEX
  5
4BC
330
493
100
AcDbEntity
  8
IMAGE
100
AcDbVertex
100
AcDb2dVertex
 10
1.213559213954801
 20
3.973827468815651
 30
0.0
 70
     8
  0
VERTEX
  5
4BD
330
493
100
AcDbEntity
  8
IMAGE
100
AcDbVertex
100
AcDb2dVertex
 10
1.221300656426044
 20
3.973033598342466
 30
0.0
 70
     8
  0
VERTEX
  5
4BE
330
493
100
AcDbEntity
  8
IMAGE
100
AcDbVertex
100
AcDb2dVertex
 10
1.227677465344491
 20
3.971859761533442
 30
0.0
 70
     8
  0
VERTEX
  5
4BF
330
493
100
AcDbEntity
  8
IMAGE
100
AcDbVertex
100
AcDb2dVertex
 10
1.232696863345203
 20
3.970228610833844
 30
0.0
 70
     8
  0
VERTEX
  5
4C0
330
493
100
AcDbEntity
  8
IMAGE
100
AcDbVertex
100
AcDb2dVertex
 10
1.23644152181999
 20
3.968050424692423
 30
0.0
 70
     8
  0
VERTEX
  5
4C1
330
493
100
AcDbEntity
  8
IMAGE
100
AcDbVertex
100
AcDb2dVertex
 10
1.238994112160745
 20
3.965235481557945
 30
0.0
 70
     8
  0
VERTEX
  5
4C2
330
493
100
AcDbEntity
  8
IMAGE
100
AcDbVertex
100
AcDb2dVertex
 10
1.240437305759278
 20
3.961694059879155
 30
0.0
 70
     8
  0
VERTEX
  5
4C3
330
493
100
AcDbEntity
  8
IMAGE
100
AcDbVertex
100
AcDb2dVertex
 10
1.240853774007454
 20
3.957336438104816
 30
0.0
 70
     8
  0
VERTEX
  5
4C4
330
493
100
AcDbEntity
  8
IMAGE
100
AcDbVertex
100
AcDb2dVertex
 10
1.24032618829711
 20
3.952072894683679
 30
0.0
 70
     8
  0
VERTEX
  5
4C5
330
493
100
AcDbEntity
  8
IMAGE
100
AcDbVertex
100
AcDb2dVertex
 10
1.247243472551509
 20
3.957390932056872
 30
0.0
 70
    16
  0
VERTEX
  5
4C6
330
493
100
AcDbEntity
  8
IMAGE
100
AcDbVertex
100
AcDb2dVertex
 10
1.207987895519557
 20
3.8683639368642
 30
0.0
 70
    16
  0
VERTEX
  5
4C7
330
493
100
AcDbEntity
  8
IMAGE
100
AcDbVertex
100
AcDb2dVertex
 10
1.18733604847231
 20
3.8683639368642
 30
0.0
 70
    16
  0
VERTEX
  5
4C8
330
493
100
AcDbEntity
  8
IMAGE
100
AcDbVertex
100
AcDb2dVertex
 10
1.128452682924382
 20
3.9534286735782
 30
0.0
 70
    16
  0
VERTEX
  5
4C9
330
493
100
AcDbEntity
  8
IMAGE
100
AcDbVertex
100
AcDb2dVertex
 10
1.133914328424473
 20
3.972992324816646
 30
0.0
 70
    16
  0
SEQEND
  5
4CA
330
493
100
AcDbEntity
  8
IMAGE
  0
POLYLINE
  5
4CB
330
1E
100
AcDbEntity
  8
IMAGE
100
AcDb2dPolyline
 66
     1
 10
0.0
 20
0.0
 30
0.0
 70
     5
 75
     6
  0
VERTEX
  5
4CC
330
4CB
100
AcDbEntity
  8
IMAGE
100
AcDbVertex
100
AcDb2dVertex
 10
2.573326048158623
 20
3.979401698734892
 30
0.0
 70
    16
  0
VERTEX
  5
4CD
330
4CB
100
AcDbEntity
  8
IMAGE
100
AcDbVertex
100
AcDb2dVertex
 10
2.57560173378366
 20
3.948260823504078
 30
0.0
 70
     8
  0
VERTEX
  5
4CE
330
4CB
100
AcDbEntity
  8
IMAGE
100
AcDbVertex
100
AcDb2dVertex
 10
2.573442554817706
 20
3.940982817634764
 30
0.0
 70
     8
  0
VERTEX
  5
4CF
330
4CB
100
AcDbEntity
  8
IMAGE
100
AcDbVertex
100
AcDb2dVertex
 10
2.570638338983886
 20
3.93292899845981
 30
0.0
 70
     8
  0
VERTEX
  5
4D0
330
4CB
100
AcDbEntity
  8
IMAGE
100
AcDbVertex
100
AcDb2dVertex
 10
2.567322760589224
 20
3.924408917422865
 30
0.0
 70
     8
  0
VERTEX
  5
4D1
330
4CB
100
AcDbEntity
  8
IMAGE
100
AcDbVertex
100
AcDb2dVertex
 10
2.56362949394067
 20
3.915732125967579
 30
0.0
 70
     8
  0
VERTEX
  5
4D2
330
4CB
100
AcDbEntity
  8
IMAGE
100
AcDbVertex
100
AcDb2dVertex
 10
2.559692213345218
 20
3.90720817553759
 30
0.0
 70
     8
  0
VERTEX
  5
4D3
330
4CB
100
AcDbEntity
  8
IMAGE
100
AcDbVertex
100
AcDb2dVertex
 10
2.55564459310985
 20
3.899146617576547
 30
0.0
 70
     8
  0
VERTEX
  5
4D4
330
4CB
100
AcDbEntity
  8
IMAGE
100
AcDbVertex
100
AcDb2dVertex
 10
2.551620307541515
 20
3.891857003528098
 30
0.0
 70
     8
  0
VERTEX
  5
4D5
330
4CB
100
AcDbEntity
  8
IMAGE
100
AcDbVertex
100
AcDb2dVertex
 10
2.547753030947223
 20
3.885648884835887
 30
0.0
 70
     8
  0
VERTEX
  5
4D6
330
4CB
100
AcDbEntity
  8
IMAGE
100
AcDbVertex
100
AcDb2dVertex
 10
2.544135657525334
 20
3.880778931238605
 30
0.0
 70
     8
  0
VERTEX
  5
4D7
330
4CB
100
AcDbEntity
  8
IMAGE
100
AcDbVertex
100
AcDb2dVertex
 10
2.540697961039743
 20
3.877292285655119
 30
0.0
 70
     8
  0
VERTEX
  5
4D8
330
4CB
100
AcDbEntity
  8
IMAGE
100
AcDbVertex
100
AcDb2dVertex
 10
2.537328935145783
 20
3.875181209299334
 30
0.0
 70
     8
  0
VERTEX
  5
4D9
330
4CB
100
AcDbEntity
  8
IMAGE
100
AcDbVertex
100
AcDb2dVertex
 10
2.53391757349873
 20
3.874437963385161
 30
0.0
 70
     8
  0
VERTEX
  5
4DA
330
4CB
100
AcDbEntity
  8
IMAGE
100
AcDbVertex
100
AcDb2dVertex
 10
2.530352869753901
 20
3.875054809126509
 30
0.0
 70
     8
  0
VERTEX
  5
4DB
330
4CB
100
AcDbEntity
  8
IMAGE
100
AcDbVertex
100
AcDb2dVertex
 10
2.526523817566602
 20
3.877024007737289
 30
0.0
 70
     8
  0
VERTEX
  5
4DC
330
4CB
100
AcDbEntity
  8
IMAGE
100
AcDbVertex
100
AcDb2dVertex
 10
2.522319410592107
 20
3.88033782043141
 30
0.0
 70
     8
  0
VERTEX
  5
4DD
330
4CB
100
AcDbEntity
  8
IMAGE
100
AcDbVertex
100
AcDb2dVertex
 10
2.51762864248575
 20
3.884988508422775
 30
0.0
 70
     8
  0
VERTEX
  5
4DE
330
4CB
100
AcDbEntity
  8
IMAGE
100
AcDbVertex
100
AcDb2dVertex
 10
2.512392398757643
 20
3.890920610411068
 30
0.0
 70
     8
  0
VERTEX
  5
4DF
330
4CB
100
AcDbEntity
  8
IMAGE
100
AcDbVertex
100
AcDb2dVertex
 10
2.50675913233724
 20
3.897887775039051
 30
0.0
 70
     8
  0
VERTEX
  5
4E0
330
4CB
100
AcDbEntity
  8
IMAGE
100
AcDbVertex
100
AcDb2dVertex
 10
2.500929188008814
 20
3.905595928435264
 30
0.0
 70
     8
  0
VERTEX
  5
4E1
330
4CB
100
AcDbEntity
  8
IMAGE
100
AcDbVertex
100
AcDb2dVertex
 10
2.495102910556628
 20
3.913750996728242
 30
0.0
 70
     8
  0
VERTEX
  5
4E2
330
4CB
100
AcDbEntity
  8
IMAGE
100
AcDbVertex
100
AcDb2dVertex
 10
2.489480644764984
 20
3.922058906046518
 30
0.0
 70
     8
  0
VERTEX
  5
4E3
330
4CB
100
AcDbEntity
  8
IMAGE
100
AcDbVertex
100
AcDb2dVertex
 10
2.484262735418131
 20
3.930225582518633
 30
0.0
 70
     8
  0
VERTEX
  5
4E4
330
4CB
100
AcDbEntity
  8
IMAGE
100
AcDbVertex
100
AcDb2dVertex
 10
2.479649527300356
 20
3.937956952273121
 30
0.0
 70
     8
  0
VERTEX
  5
4E5
330
4CB
100
AcDbEntity
  8
IMAGE
100
AcDbVertex
100
AcDb2dVertex
 10
2.475841365195936
 20
3.944958941438517
 30
0.0
 70
     8
  0
VERTEX
  5
4E6
330
4CB
100
AcDbEntity
  8
IMAGE
100
AcDbVertex
100
AcDb2dVertex
 10
2.473015925926862
 20
3.951002731844823
 30
0.0
 70
     8
  0
VERTEX
  5
4E7
330
4CB
100
AcDbEntity
  8
IMAGE
100
AcDbVertex
100
AcDb2dVertex
 10
2.471260214465988
 20
3.956120528127911
 30
0.0
 70
     8
  0
VERTEX
  5
4E8
330
4CB
100
AcDbEntity
  8
IMAGE
100
AcDbVertex
100
AcDb2dVertex
 10
2.470638567823943
 20
3.96040979062511
 30
0.0
 70
     8
  0
VERTEX
  5
4E9
330
4CB
100
AcDbEntity
  8
IMAGE
100
AcDbVertex
100
AcDb2dVertex
 10
2.471215323011282
 20
3.96396797967376
 30
0.0
 70
     8
  0
VERTEX
  5
4EA
330
4CB
100
AcDbEntity
  8
IMAGE
100
AcDbVertex
100
AcDb2dVertex
 10
2.473054817038619
 20
3.966892555611202
 30
0.0
 70
     8
  0
VERTEX
  5
4EB
330
4CB
100
AcDbEntity
  8
IMAGE
100
AcDbVertex
100
AcDb2dVertex
 10
2.476221386916524
 20
3.969280978774761
 30
0.0
 70
     8
  0
VERTEX
  5
4EC
330
4CB
100
AcDbEntity
  8
IMAGE
100
AcDbVertex
100
AcDb2dVertex
 10
2.480779369655596
 20
3.971230709501781
 30
0.0
 70
     8
  0
VERTEX
  5
4ED
330
4CB
100
AcDbEntity
  8
IMAGE
100
AcDbVertex
100
AcDb2dVertex
 10
2.48679310226645
 20
3.972839208129591
 30
0.0
 70
     8
  0
VERTEX
  5
4EE
330
4CB
100
AcDbEntity
  8
IMAGE
100
AcDbVertex
100
AcDb2dVertex
 10
2.494254528733041
 20
3.974185112010612
 30
0.0
 70
     8
  0
VERTEX
  5
4EF
330
4CB
100
AcDbEntity
  8
IMAGE
100
AcDbVertex
100
AcDb2dVertex
 10
2.502866020932987
 20
3.975271766557578
 30
0.0
 70
     8
  0
VERTEX
  5
4F0
330
4CB
100
AcDbEntity
  8
IMAGE
100
AcDbVertex
100
AcDb2dVertex
 10
2.512257557717308
 20
3.976083694198311
 30
0.0
 70
     8
  0
VERTEX
  5
4F1
330
4CB
100
AcDbEntity
  8
IMAGE
100
AcDbVertex
100
AcDb2dVertex
 10
2.522059117936993
 20
3.976605417360623
 30
0.0
 70
     8
  0
VERTEX
  5
4F2
330
4CB
100
AcDbEntity
  8
IMAGE
100
AcDbVertex
100
AcDb2dVertex
 10
2.531900680443062
 20
3.976821458472332
 30
0.0
 70
     8
  0
VERTEX
  5
4F3
330
4CB
100
AcDbEntity
  8
IMAGE
100
AcDbVertex
100
AcDb2dVertex
 10
2.541412224086517
 20
3.97671633996126
 30
0.0
 70
     8
  0
VERTEX
  5
4F4
330
4CB
100
AcDbEntity
  8
IMAGE
100
AcDbVertex
100
AcDb2dVertex
 10
2.55022372771835
 20
3.976274584255225
 30
0.0
 70
     8
  0
VERTEX
  5
4F5
330
4CB
100
AcDbEntity
  8
IMAGE
100
AcDbVertex
100
AcDb2dVertex
 10
2.557965170189593
 20
3.97548071378204
 30
0.0
 70
     8
  0
VERTEX
  5
4F6
330
4CB
100
AcDbEntity
  8
IMAGE
100
AcDbVertex
100
AcDb2dVertex
 10
2.564341979108039
 20
3.974306876973016
 30
0.0
 70
     8
  0
VERTEX
  5
4F7
330
4CB
100
AcDbEntity
  8
IMAGE
100
AcDbVertex
100
AcDb2dVertex
 10
2.569361377108752
 20
3.972675726273418
 30
0.0
 70
     8
  0
VERTEX
  5
4F8
330
4CB
100
AcDbEntity
  8
IMAGE
100
AcDbVertex
100
AcDb2dVertex
 10
2.573106035583538
 20
3.970497540131997
 30
0.0
 70
     8
  0
VERTEX
  5
4F9
330
4CB
100
AcDbEntity
  8
IMAGE
100
AcDbVertex
100
AcDb2dVertex
 10
2.575658625924294
 20
3.967682596997519
 30
0.0
 70
     8
  0
VERTEX
  5
4FA
330
4CB
100
AcDbEntity
  8
IMAGE
100
AcDbVertex
100
AcDb2dVertex
 10
2.577101819522827
 20
3.964141175318729
 30
0.0
 70
     8
  0
VERTEX
  5
4FB
330
4CB
100
AcDbEntity
  8
IMAGE
100
AcDbVertex
100
AcDb2dVertex
 10
2.577518287771003
 20
3.95978355354439
 30
0.0
 70
     8
  0
VERTEX
  5
4FC
330
4CB
100
AcDbEntity
  8
IMAGE
100
AcDbVertex
100
AcDb2dVertex
 10
2.576990702060658
 20
3.954520010123253
 30
0.0
 70
     8
  0
VERTEX
  5
4FD
330
4CB
100
AcDbEntity
  8
IMAGE
100
AcDbVertex
100
AcDb2dVertex
 10
2.583907986315058
 20
3.959838047496446
 30
0.0
 70
    16
  0
VERTEX
  5
4FE
330
4CB
100
AcDbEntity
  8
IMAGE
100
AcDbVertex
100
AcDb2dVertex
 10
2.544652409283106
 20
3.870811052303774
 30
0.0
 70
    16
  0
VERTEX
  5
4FF
330
4CB
100
AcDbEntity
  8
IMAGE
100
AcDbVertex
100
AcDb2dVertex
 10
2.524000562235858
 20
3.870811052303774
 30
0.0
 70
    16
  0
VERTEX
  5
500
330
4CB
100
AcDbEntity
  8
IMAGE
100
AcDbVertex
100
AcDb2dVertex
 10
2.465117196687931
 20
3.955875789017774
 30
0.0
 70
    16
  0
VERTEX
  5
501
330
4CB
100
AcDbEntity
  8
IMAGE
100
AcDbVertex
100
AcDb2dVertex
 10
2.470578842188022
 20
3.97543944025622
 30
0.0
 70
    16
  0
SEQEND
  5
502
330
4CB
100
AcDbEntity
  8
IMAGE
  0
LWPOLYLINE
  5
503
330
1E
100
AcDbEntity
  8
IMAGE
100
AcDbPolyline
 90
       16
 70
     1
 43
0.0
 10
2.462393781910162
 20
3.942925931388677
 42
0.089158215018281
 10
2.448669353964358
 20
3.948757784857654
 42
0.0941232123748849
 10
2.434540420624383
 20
3.949270431275517
 42
0.1021164699559977
 10
2.421478553216328
 20
3.944429022755563
 42
0.1085893584407838
 10
2.412105367907823
 20
3.935252219938511
 42
0.1085893584407297
 10
2.40744362938825
 20
3.922990959532422
 42
0.1021164699558796
 10
2.408230773369279
 20
3.909082975458665
 42
0.0941232123751025
 10
2.414351847817993
 20
3.896338486011514
 42
0.0891582150184447
 10
2.425186321940753
 20
3.886092286335219
 42
0.0891582150182925
 10
2.438910749886556
 20
3.880260432866246
 42
0.0941232123749289
 10
2.453039683226517
 20
3.879747786448382
 42
0.1021164699559494
 10
2.466101550634586
 20
3.884589194968337
 42
0.108589358440703
 10
2.475474735943091
 20
3.893765997785386
 42
0.108589358440865
 10
2.48013647446265
 20
3.90602725819147
 42
0.1021164699561734
 10
2.479349330481621
 20
3.919935242265231
 42
0.0941232123749801
 10
2.473228256032921
 20
3.932679731712382
 42
0.0891582150184292
  0
POLYLINE
  5
515
330
1E
100
AcDbEntity
  8
IMAGE
100
AcDb2dPolyline
 66
     1
 10
0.0
 20
0.0
 30
0.0
 70
     5
 75
     6
  0
VERTEX
  5
516
330
515
100
AcDbEntity
  8
IMAGE
100
AcDbVertex
100
AcDb2dVertex
 10
2.662628264578296
 20
4.012442359397635
 30
0.0
 70
    16
  0
VERTEX
  5
517
330
515
100
AcDbEntity
  8
IMAGE
100
AcDbVertex
100
AcDb2dVertex
 10
2.607983363506997
 20
3.941451894988087
 30
0.0
 70
     8
  0
VERTEX
  5
518
330
515
100
AcDbEntity
  8
IMAGE
100
AcDbVertex
100
AcDb2dVertex
 10
2.601297481367547
 20
3.943156362624662
 30
0.0
 70
     8
  0
VERTEX
  5
519
330
515
100
AcDbEntity
  8
IMAGE
100
AcDbVertex
100
AcDb2dVertex
 10
2.594951952014691
 20
3.947596491144466
 30
0.0
 70
     8
  0
VERTEX
  5
51A
330
515
100
AcDbEntity
  8
IMAGE
100
AcDbVertex
100
AcDb2dVertex
 10
2.589257793225025
 20
3.954133830694971
 30
0.0
 70
     8
  0
VERTEX
  5
51B
330
515
100
AcDbEntity
  8
IMAGE
100
AcDbVertex
100
AcDb2dVertex
 10
2.584526022775131
 20
3.96212993142366
 30
0.0
 70
     8
  0
VERTEX
  5
51C
330
515
100
AcDbEntity
  8
IMAGE
100
AcDbVertex
100
AcDb2dVertex
 10
2.581067658441591
 20
3.970946343478008
 30
0.0
 70
     8
  0
VERTEX
  5
51D
330
515
100
AcDbEntity
  8
IMAGE
100
AcDbVertex
100
AcDb2dVertex
 10
2.579193718000988
 20
3.9799446170055
 30
0.0
 70
     8
  0
VERTEX
  5
51E
330
515
100
AcDbEntity
  8
IMAGE
100
AcDbVertex
100
AcDb2dVertex
 10
2.579215219229917
 20
3.988486302153617
 30
0.0
 70
     8
  0
VERTEX
  5
51F
330
515
100
AcDbEntity
  8
IMAGE
100
AcDbVertex
100
AcDb2dVertex
 10
2.58144317990496
 20
3.995932949069832
 30
0.0
 70
     8
  0
VERTEX
  5
520
330
515
100
AcDbEntity
  8
IMAGE
100
AcDbVertex
100
AcDb2dVertex
 10
2.586031275476281
 20
4.001754450906908
 30
0.0
 70
     8
  0
VERTEX
  5
521
330
515
100
AcDbEntity
  8
IMAGE
100
AcDbVertex
100
AcDb2dVertex
 10
2.59250381208839
 20
4.005854072838697
 30
0.0
 70
     8
  0
VERTEX
  5
522
330
515
100
AcDbEntity
  8
IMAGE
100
AcDbVertex
100
AcDb2dVertex
 10
2.600227753559332
 20
4.008243423044344
 30
0.0
 70
     8
  0
VERTEX
  5
523
330
515
100
AcDbEntity
  8
IMAGE
100
AcDbVertex
100
AcDb2dVertex
 10
2.608570063707214
 20
4.00893410970298
 30
0.0
 70
     8
  0
VERTEX
  5
524
330
515
100
AcDbEntity
  8
IMAGE
100
AcDbVertex
100
AcDb2dVertex
 10
2.616897706350068
 20
4.007937740993742
 30
0.0
 70
     8
  0
VERTEX
  5
525
330
515
100
AcDbEntity
  8
IMAGE
100
AcDbVertex
100
AcDb2dVertex
 10
2.624577645305999
 20
4.00526592509577
 30
0.0
 70
     8
  0
VERTEX
  5
526
330
515
100
AcDbEntity
  8
IMAGE
100
AcDbVertex
100
AcDb2dVertex
 10
2.630976844393083
 20
4.000930270188199
 30
0.0
 70
     8
  0
VERTEX
  5
527
330
515
100
AcDbEntity
  8
IMAGE
100
AcDbVertex
100
AcDb2dVertex
 10
2.635462267429369
 20
3.994942384450165
 30
0.0
 70
     8
  0
VERTEX
  5
528
330
515
100
AcDbEntity
  8
IMAGE
100
AcDbVertex
100
AcDb2dVertex
 10
2.637560053997484
 20
3.987416414976515
 30
0.0
 70
     8
  0
VERTEX
  5
529
330
515
100
AcDbEntity
  8
IMAGE
100
AcDbVertex
100
AcDb2dVertex
 10
2.637433046738246
 20
3.978876664524925
 30
0.0
 70
     8
  0
VERTEX
  5
52A
330
515
100
AcDbEntity
  8
IMAGE
100
AcDbVertex
100
AcDb2dVertex
 10
2.635403264056956
 20
3.969949974768773
 30
0.0
 70
     8
  0
VERTEX
  5
52B
330
515
100
AcDbEntity
  8
IMAGE
100
AcDbVertex
100
AcDb2dVertex
 10
2.631792724358982
 20
3.961263187381447
 30
0.0
 70
     8
  0
VERTEX
  5
52C
330
515
100
AcDbEntity
  8
IMAGE
100
AcDbVertex
100
AcDb2dVertex
 10
2.626923446049667
 20
3.953443144036334
 30
0.0
 70
     8
  0
VERTEX
  5
52D
330
515
100
AcDbEntity
  8
IMAGE
100
AcDbVertex
100
AcDb2dVertex
 10
2.621117447534325
 20
3.947116686406815
 30
0.0
 70
     8
  0
VERTEX
  5
52E
330
515
100
AcDbEntity
  8
IMAGE
100
AcDbVertex
100
AcDb2dVertex
 10
2.614696747218326
 20
3.942910656166269
 30
0.0
 70
     8
  0
VERTEX
  5
52F
330
515
100
AcDbEntity
  8
IMAGE
100
AcDbVertex
100
AcDb2dVertex
 10
2.607670456733552
 20
3.905461380473475
 30
0.0
 70
    16
  0
VERTEX
  5
530
330
515
100
AcDbEntity
  8
IMAGE
100
AcDbVertex
100
AcDb2dVertex
 10
2.554590089529478
 20
4.014423488636971
 30
0.0
 70
    16
  0
SEQEND
  5
531
330
515
100
AcDbEntity
  8
IMAGE
  0
TEXT
  5
541
330
1E
100
AcDbEntity
  8
TEXT_BUBBLES
100
AcDbText
 10
0.7503537800000001
 20
0.23571977
 30
0.0
 40
0.125
  1
FURNISH FITTINGS AND PIPING NOMINALLY SIZED IDENTICAL TO
  7
ROMANS
100
AcDbText
  0
INSERT
  5
559
330
1E
100
AcDbEntity
  8
TITLE
100
AcDbBlockReference
 66
     1
  2
titleblock
 10
-0.3204338855164478
 20
-1.862359710502812
 30
0.0
  0
ATTRIB
  5
55A
330
559
100
AcDbEntity
  8
TITLE
100
AcDbText
 10
0.1851217182858943
 20
-1.078132614024444
 30
0.0
 40
0.2
  1
D
  7
L200
 72
     4
 11
0.2860084849980362
 21
-0.9781326140244448
 31
0.0
100
AcDbAttribute
  2
D
 70
     0
  0
ATTRIB
  5
55B
330
559
100
AcDbEntity
  8
TITLE
100
AcDbText
 10
0.9110084849980362
 20
-0.5186474077560615
 30
0.0
 40
0.2
  1

  7
L200
100
AcDbAttribute
  2
TITLE1
 70
     0
  0
ATTRIB
  5
55C
330
559
100
AcDbEntity
  8
TITLE
100
AcDbText
 10
0.9110084849980362
 20
-0.8781326140244445
 30
0.0
 40
0.2
  1
QUICK COUPLING VALVE
  7
L200
100
AcDbAttribute
  2
TITLE2
 70
     0
  0
ATTRIB
  5
55D
330
559
100
AcDbEntity
  8
TITLE
100
AcDbText
 10
2.393211865651864
 20
-1.269566944044492
 30
0.0
 40
0.2
  1
MODEL 33DRC SERIES
  7
L200
100
AcDbAttribute
  2
TITLE3
 70
     0
  0
ATTRIB
  5
55E
330
559
100
AcDbEntity
  8
TITLE
100
AcDbText
 10
2.393211865651864
 20
-1.593103629686037
 30
0.0
 40
0.2
  1

  7
L200
100
AcDbAttribute
  2
TITLE4
 70
     0
  0
ATTRIB
  5
55F
330
559
100
AcDbEntity
  8
TITLE
 62
     7
100
AcDbText
 10
7.369161896830885
 20
-0.8927569189581721
 30
0.0
 40
0.08
  1
1-27-04
  7
L80
 72
     2
 11
7.940590468259456
 21
-0.8927569189581721
 31
0.0
100
AcDbAttribute
  2
REVISED
 70
     0
  0
ATTRIB
  5
560
330
559
100
AcDbEntity
  8
TITLE
 62
     7
100
AcDbText
 10
-0.056491515001964
 20
-1.77764806248209
 30
0.0
 40
0.08
  1
QC-33DRC.DWG
  7
L80
100
AcDbAttribute
  2
DWG-NAME
 70
     0
  0
ATTRIB
  5
561
330
559
100
AcDbEntity
  8
TITLE
 62
     7
100
AcDbText
 10
0.9110084849980362
 20
-1.161795931107322
 30
0.0
 40
0.1
  1
N.T.S.
  7
L100
100
AcDbAttribute
  2
SCALE
 70
     0
  0
SEQEND
  5
562
330
559
100
AcDbEntity
  8
IMAGE
  0
LWPOLYLINE
  5
566
330
1E
100
AcDbEntity
  8
INSTRUCT-OPTION
100
AcDbPolyline
 90
        4
 70
     1
 43
0.0
 10
11.13094073363084
 20
5.925964693397324
 10
15.80952003221669
 20
5.925964693397324
 10
15.80952003221669
 20
4.366099468373736
 10
11.13094073363084
 20
4.366099468373736
  0
TEXT
  5
569
330
1E
100
AcDbEntity
  8
TEXT_LEADERS
100
AcDbText
 10
4.924187109319557
 20
5.064102634733942
 30
0.0
 40
0.125
  1
   3/4-INCH WASHED GRAVEL
  7
ROMANS
100
AcDbText
  0
TEXT
  5
56A
330
1E
100
AcDbEntity
  8
TEXT_LEADERS
100
AcDbText
 10
4.924187109319557
 20
4.714102634733942
 30
0.0
 40
0.125
  1
PVC SCH 40 STREET ELL
  7
ROMANS
100
AcDbText
  0
TEXT
  5
56B
330
1E
100
AcDbEntity
  8
TEXT_LEADERS
100
AcDbText
 10
4.924187109319557
 20
4.364102634733942
 30
0.0
 40
0.125
  1
BRICK (1 OF 2)
  7
ROMANS
100
AcDbText
  0
TEXT
  5
56C
330
1E
100
AcDbEntity
  8
TEXT_LEADERS
100
AcDbText
 10
4.924187109319557
 20
3.489102634733942
 30
0.0
 40
0.125
  1
PVC SCH 40 STREET ELL
  7
ROMANS
100
AcDbText
  0
TEXT
  5
56D
330
1E
100
AcDbEntity
  8
TEXT_LEADERS
100
AcDbText
 10
4.924187109319557
 20
1.765251780098522
 30
0.0
 40
0.125
  1
PVC SCH 40 ELL
  7
ROMANS
100
AcDbText
  0
TEXT
  5
56E
330
1E
100
AcDbEntity
  8
TEXT_LEADERS
100
AcDbText
 10
4.924187109319557
 20
1.065251780098532
 30
0.0
 40
0.125
  1
  CLAMPS OR EQUIVALENT
  7
ROMANS
100
AcDbText
  0
TEXT
  5
573
330
1E
100
AcDbEntity
  8
TEXT_LEADERS
100
AcDbText
 10
4.924187109319557
 20
7.164102634733942
 30
0.0
 40
0.125
  1
FINISH GRADE/TOP OF MULCH
  7
ROMANS
100
AcDbText
  0
TEXT
  5
574
330
1E
100
AcDbEntity
  8
TEXT_LEADERS
100
AcDbText
 10
4.924187109319557
 20
2.465251780098522
 30
0.0
 40
0.125
  1
PVC SCH 40 TEE OR ELL
  7
ROMANS
100
AcDbText
  0
TEXT
  5
575
330
1E
100
AcDbEntity
  8
TEXT_LEADERS
100
AcDbText
 10
4.924187109319557
 20
2.115251780098522
 30
0.0
 40
0.125
  1
PVC MAINLINE PIPE
  7
ROMANS
100
AcDbText
  0
TEXT
  5
576
330
1E
100
AcDbEntity
  8
TEXT_LEADERS
100
AcDbText
 10
4.924187109319557
 20
1.240251780098532
 30
0.0
 40
0.125
  1
  STAINLESS STEEL GEAR
  7
ROMANS
100
AcDbText
  0
TEXT
  5
577
330
1E
100
AcDbEntity
  8
TEXT_LEADERS
100
AcDbText
 10
4.924187109319557
 20
0.8902517800985323
 30
0.0
 40
0.125
  1
  SUPPORT SYSTEM
  7
ROMANS
100
AcDbText
  0
TEXT
  5
57A
330
1E
100
AcDbEntity
  8
TEXT_LEADERS
100
AcDbText
 10
0.7503537800000001
 20
0.7375670715483598
 30
0.0
 40
0.125
  1
NOTE:
  7
ROMANS
100
AcDbText
  0
TEXT
  5
57B
330
1E
100
AcDbEntity
  8
TEXT_LEADERS
100
AcDbText
 10
0.7503537800000001
 20
0.2125670715483598
 30
0.0
 40
0.125
  1
NOMINAL QUICK COUPLING VALVE INLET SIZE.
  7
ROMANS
100
AcDbText
  0
LEADER
  5
57D
330
1E
100
AcDbEntity
  8
TEXT_LEADERS
100
AcDbLeader
  3
Standard
 76
     3
 10
2.251273152385094
 20
5.344163237745352
 30
0.0
 10
4.513271968840846
 20
6.87552910092589
 30
0.0
 10
4.813271968840846
 20
6.87552910092589
 30
0.0
  0
LEADER
  5
57E
330
1E
100
AcDbEntity
  8
TEXT_LEADERS
100
AcDbLeader
  3
Standard
 76
     3
 10
3.186055291705962
 20
6.090592318163504
 30
0.0
 10
4.513271968840845
 20
7.22551653827696
 30
0.0
 10
4.813271968840846
 20
7.225516538276959
 30
0.0
  0
LEADER
  5
57F
330
1E
100
AcDbEntity
  8
TEXT_LEADERS
100
AcDbLeader
  3
Standard
 76
     3
 10
2.191768161436771
 20
3.291526505430328
 30
0.0
 10
4.513271968840845
 20
1.822736779949841
 30
0.0
 10
4.813271968840846
 20
1.822736779949841
 30
0.0
211
-1.0
221
0.0
231
0.0
210
0.0
220
0.0
230
-1.0
  0
LEADER
  5
580
330
1E
100
AcDbEntity
  8
TEXT_LEADERS
100
AcDbLeader
  3
Standard
 76
     3
 10
3.204582215298329
 20
2.857051548485674
 30
0.0
 10
4.513271968840845
 20
2.17410856622663
 30
0.0
 10
4.813271968840846
 20
2.17410856622663
 30
0.0
211
-1.0
221
0.0
231
0.0
210
0.0
220
0.0
230
-1.0
  0
LEADER
  5
581
330
1E
100
AcDbEntity
  8
TEXT_LEADERS
100
AcDbLeader
  3
Standard
 76
     3
 10
3.887330198196699
 20
2.817707779762564
 30
0.0
 10
4.513271968840845
 20
2.537787102990558
 30
0.0
 10
4.813271968840846
 20
2.537787102990558
 30
0.0
211
-1.0
221
0.0
231
0.0
210
0.0
220
0.0
230
-1.0
  0
LEADER
  5
584
330
1E
100
AcDbEntity
  8
TEXT_LEADERS
100
AcDbLeader
  3
Standard
 76
     3
 10
3.024220609248841
 20
3.702579654096747
 30
0.0
 10
4.513271968840847
 20
4.430993420939593
 30
0.0
 10
4.813271968840846
 20
4.430993420939593
 30
0.0
  0
LEADER
  5
585
330
1E
100
AcDbEntity
  8
TEXT_LEADERS
100
AcDbLeader
  3
Standard
 76
     3
 10
2.600805152220475
 20
5.029797570030714
 30
0.0
 10
4.513271968840846
 20
6.350547935273852
 30
0.0
 10
4.813271968840846
 20
6.350547935273852
 30
0.0
  0
LEADER
  5
586
330
1E
100
AcDbEntity
  8
TEXT_LEADERS
100
AcDbLeader
  3
Standard
 76
     3
 10
2.481319965254252
 20
4.180674220685344
 30
0.0
 10
4.513271968840846
 20
5.309268051927424
 30
0.0
 10
4.813271968840846
 20
5.309268051927424
 30
0.0
  0
LEADER
  5
588
330
1E
100
AcDbEntity
  8
TEXT_LEADERS
100
AcDbLeader
  3
Standard
 76
     3
 10
3.750971674470001
 20
3.20231997661194
 30
0.0
 10
4.513271968840846
 20
3.562109179988569
 30
0.0
 10
4.813271968840846
 20
3.562109179988569
 30
0.0
  0
LEADER
  5
589
330
1E
100
AcDbEntity
  8
TEXT_LEADERS
100
AcDbLeader
  3
Standard
 76
     3
 10
3.132462190671528
 20
3.321162007176233
 30
0.0
 10
4.513271968840846
 20
4.072495272594157
 30
0.0
 10
4.813271968840846
 20
4.072495272594157
 30
0.0
  0
LEADER
  5
58A
330
1E
100
AcDbEntity
  8
TEXT_LEADERS
100
AcDbLeader
  3
Standard
 76
     3
 10
2.137849529596789
 20
3.596970036265912
 30
0.0
 10
4.513271968840846
 20
4.773782209225366
 30
0.0
 10
4.813271968840846
 20
4.773782209225366
 30
0.0
  0
LEADER
  5
58B
330
1E
100
AcDbEntity
  8
TEXT_LEADERS
100
AcDbLeader
  3
Standard
 76
     3
 10
2.122552806912742
 20
4.383969665342653
 30
0.0
 10
4.525235443227984
 20
5.824735825301339
 30
0.0
 10
4.825235443227984
 20
5.824735825301339
 30
0.0
  0
LEADER
  5
596
330
1E
100
AcDbEntity
  8
TEXT_LEADERS
100
AcDbLeader
  3
Standard
 76
     3
 10
1.866027936992698
 20
2.602086435288361
 30
0.0
 10
4.513271968840845
 20
1.477994664183627
 30
0.0
 10
4.813271968840846
 20
1.477994664183627
 30
0.0
211
-1.0
221
0.0
231
0.0
210
0.0
220
0.0
230
-1.0
  0
LEADER
  5
59A
330
1E
100
AcDbEntity
  8
TEXT_BUBBLES
100
AcDbLeader
  3
Standard
 76
     2
 10
2.485472297563144
 20
4.177772106181186
 30
0.0
 10
3.506647149192609
 20
4.742837072429225
 30
0.0
  0
LEADER
  5
59B
330
1E
100
AcDbEntity
  8
TEXT_BUBBLES
100
AcDbLeader
  3
Standard
 76
     2
 10
1.836108806926622
 20
2.211384640378044
 30
0.0
 10
1.98388201722775
 20
1.671093200785779
 30
0.0
  0
LEADER
  5
59C
330
1E
100
AcDbEntity
  8
TEXT_BUBBLES
100
AcDbLeader
  3
Standard
 76
     2
 10
3.08209718557238
 20
3.331825082619586
 30
0.0
 10
3.506647149192609
 20
3.566748916163736
 30
0.0
  0
LEADER
  5
59D
330
1E
100
AcDbEntity
  8
TEXT_BUBBLES
100
AcDbLeader
  3
Standard
 76
     2
 10
2.788553692952629
 20
3.864011423348902
 30
0.0
 10
3.506647149192609
 20
4.261366933980314
 30
0.0
  0
LEADER
  5
59E
330
1E
100
AcDbEntity
  8
TEXT_BUBBLES
100
AcDbLeader
  3
Standard
 76
     2
 10
2.122552806912742
 20
4.398867771267006
 30
0.0
 10
3.507760388938839
 20
5.165369486751989
 30
0.0
  0
LEADER
  5
59F
330
1E
100
AcDbEntity
  8
TEXT_BUBBLES
100
AcDbLeader
  3
Standard
 76
     2
 10
2.297475673452719
 20
3.26931628615562
 30
0.0
 10
2.737298064518793
 20
1.661228647335532
 30
0.0
  0
LEADER
  5
5A0
330
1E
100
AcDbEntity
  8
TEXT_BUBBLES
100
AcDbLeader
  3
Standard
 76
     2
 10
1.938126454214201
 20
3.355447188643335
 30
0.0
 10
2.398808186016301
 20
1.671093200785778
 30
0.0
  0
LEADER
  5
5A1
330
1E
100
AcDbEntity
  8
TEXT_BUBBLES
100
AcDbLeader
  3
Standard
 76
     2
 10
3.043367773791533
 20
2.857051548485674
 30
0.0
 10
3.367735067960193
 20
1.671093200785778
 30
0.0
  0
LEADER
  5
5A2
330
1E
100
AcDbEntity
  8
TEXT_BUBBLES
100
AcDbLeader
  3
Standard
 76
     2
 10
3.498967184471097
 20
2.817707779762564
 30
0.0
 10
3.81257370291111
 20
1.671093200785778
 30
0.0
  0
LEADER
  5
5A3
330
1E
100
AcDbEntity
  8
TEXT_BUBBLES
100
AcDbLeader
  3
Standard
 76
     2
 10
3.883235842779656
 20
2.932529949291293
 30
0.0
 10
4.228246968736317
 20
1.671093200785778
 30
0.0
  0
LEADER
  5
5A4
330
1E
100
AcDbEntity
  8
TEXT_BUBBLES
100
AcDbLeader
  3
Standard
 76
     2
 10
2.292864167844441
 20
6.090592318163504
 30
0.0
 10
2.182437657562183
 20
6.538909925589662
 30
0.0
  0
LEADER
  5
5A5
330
1E
100
AcDbEntity
  8
TEXT_BUBBLES
100
AcDbLeader
  3
Standard
 76
     2
 10
1.880586513330545
 20
5.35530419147878
 30
0.0
 10
1.638388773718759
 20
6.537543769147747
 30
0.0
  0
LEADER
  5
5A6
330
1E
100
AcDbEntity
  8
TEXT_BUBBLES
100
AcDbLeader
  3
Standard
 76
     2
 10
0.8719194878341356
 20
6.090592318163504
 30
0.0
 10
0.7777687457347455
 20
6.538909925589662
 30
0.0
  0
TEXT
  5
5AA
330
1E
100
AcDbEntity
  8
TEXT_BUBBLES
100
AcDbText
 10
4.924187109319557
 20
5.228537128826275
 30
0.0
 40
0.125
  1
3-INCH MINIMUM DEPTH OF
  7
ROMANS
100
AcDbText
  0
TEXT
  5
5B3
330
1E
100
AcDbEntity
  8
TEXT_BUBBLES
100
AcDbText
 10
4.924187109319557
 20
6.103537128826275
 30
0.0
 40
0.125
  1
  RAIN BIRD VB-6RND
  7
ROMANS
100
AcDbText
  0
TEXT
  5
5B4
330
1E
100
AcDbEntity
  8
TEXT_BUBBLES
100
AcDbText
 10
4.924187109319557
 20
5.578537128826274
 30
0.0
 40
0.125
  1
  (LENGTH AS REQUIRED)
  7
ROMANS
100
AcDbText
  0
TEXT
  5
5B5
330
1E
100
AcDbEntity
  8
TEXT_BUBBLES
100
AcDbText
 10
4.924187109319557
 20
5.053537128826275
 30
0.0
 40
0.125
  1
   3/4-INCH WASHED GRAVEL
  7
ROMANS
100
AcDbText
  0
TEXT
  5
5B6
330
1E
100
AcDbEntity
  8
TEXT_BUBBLES
100
AcDbText
 10
4.924187109319557
 20
4.703537128826274
 30
0.0
 40
0.125
  1
BRICK (1 OF 2)
  7
ROMANS
100
AcDbText
  0
TEXT
  5
5B7
330
1E
100
AcDbEntity
  8
TEXT_BUBBLES
100
AcDbText
 10
4.924187109319557
 20
4.353537128826275
 30
0.0
 40
0.125
  1
PVC SCH 40 STREET ELL
  7
ROMANS
100
AcDbText
  0
TEXT
  5
5B8
330
1E
100
AcDbEntity
  8
TEXT_BUBBLES
100
AcDbText
 10
4.924187109319557
 20
4.003537128826275
 30
0.0
 40
0.125
  1
PVC SCH 40 TEE OR ELL
  7
ROMANS
100
AcDbText
  0
TEXT
  5
5B9
330
1E
100
AcDbEntity
  8
TEXT_BUBBLES
100
AcDbText
 10
4.924187109319557
 20
3.653537128826275
 30
0.0
 40
0.125
  1
PVC MAINLINE PIPE
  7
ROMANS
100
AcDbText
  0
TEXT
  5
5BB
330
1E
100
AcDbEntity
  8
TEXT_BUBBLES
100
AcDbText
 10
4.92418711
 20
2.42853713
 30
0.0
 40
0.125
  1
PVC SCH 40 ELL
  7
ROMANS
100
AcDbText
  0
TEXT
  5
5BE
330
1E
100
AcDbEntity
  8
TEXT_BUBBLES
100
AcDbText
 10
4.924187109319557
 20
7.1626727775292
 30
0.0
 40
0.125
  1
FINISH GRADE/TOP OF MULCH
  7
ROMANS
100
AcDbText
  0
TEXT
  5
5BF
330
1E
100
AcDbEntity
  8
TEXT_BUBBLES
100
AcDbText
 10
4.92418711
 20
2.07853713000001
 30
0.0
 40
0.125
  1
2" x 2" REDWOOD STAKE WITH
  7
ROMANS
100
AcDbText
  0
TEXT
  5
5C0
330
1E
100
AcDbEntity
  8
TEXT_BUBBLES
100
AcDbText
 10
4.92418711
 20
1.903537130000009
 30
0.0
 40
0.125
  1
  STAINLESS STEEL GEAR
  7
ROMANS
100
AcDbText
  0
TEXT
  5
5C1
330
1E
100
AcDbEntity
  8
TEXT_BUBBLES
100
AcDbText
 10
4.92418711
 20
1.72853713000001
 30
0.0
 40
0.125
  1
  CLAMPS OR EQUIVALENT
  7
ROMANS
100
AcDbText
  0
TEXT
  5
5C2
330
1E
100
AcDbEntity
  8
TEXT_BUBBLES
100
AcDbText
 10
4.92418711
 20
1.55353713000001
 30
0.0
 40
0.125
  1
  SUPPORT SYSTEM
  7
ROMANS
100
AcDbText
  0
TEXT
  5
5C6
330
1E
100
AcDbEntity
  8
TEXT_BUBBLES
100
AcDbText
 10
0.7503537800000001
 20
0.58571977
 30
0.0
 40
0.125
  1
NOTE:
  7
ROMANS
100
AcDbText
  0
TEXT
  5
5C7
330
1E
100
AcDbEntity
  8
TEXT_BUBBLES
100
AcDbText
 10
0.7503537800000001
 20
0.06071977
 30
0.0
 40
0.125
  1
NOMINAL QUICK COUPLING VALVE INLET SIZE.
  7
ROMANS
100
AcDbText
  0
VIEWPORT
  5
D9
330
1A
100
AcDbEntity
 67
     1
  8
0
100
AcDbViewport
 10
6.172388059701492
 20
4.5
 30
0.0
 40
12.34477611940298
 41
9.0
 68
     1
 69
     1
 12
6.172388059701492
 22
4.5
 13
0.0
 23
0.0
 14
0.14
 24
0.14
 15
0.14
 25
0.14
 16
0.0
 26
0.0
 36
1.0
 17
0.0
 27
0.0
 37
0.0
 42
50.0
 43
0.0
 44
0.0
 45
9.0
 50
0.0
 51
0.0
 72
   100
 90
    32800
  1

281
     0
 71
     0
 74
     0
110
0.0
120
0.0
130
0.0
111
0.0
121
0.0
131
0.0
112
0.0
122
0.0
132
0.0
 79
     0
146
0.0
  0
ENDSEC
  0
SECTION
  2
OBJECTS
  0
DICTIONARY
  5
C
330
0
100
AcDbDictionary
281
     1
  3
ACAD_GROUP
350
D
  3
ACAD_LAYOUT
350
19
  3
ACAD_MLINESTYLE
350
16
  3
ACAD_PLOTSETTINGS
350
18
  3
ACAD_PLOTSTYLENAME
350
E
  3
AcDbVariableDictionary
350
537
  0
DICTIONARY
  5
D
102
{ACAD_REACTORS
330
C
102
}
330
C
100
AcDbDictionary
281
     1
  0
DICTIONARY
  5
19
102
{ACAD_REACTORS
330
C
102
}
330
C
100
AcDbDictionary
281
     1
  3
Layout1
350
1D
  3
Model
350
21
  0
DICTIONARY
  5
16
102
{ACAD_REACTORS
330
C
102
}
330
C
100
AcDbDictionary
281
     1
  3
Standard
350
17
  0
DICTIONARY
  5
18
102
{ACAD_REACTORS
330
C
102
}
330
C
100
AcDbDictionary
281
     1
  3
1055 B&W Full Shaded Draft
350
5CA
  3
1055 B&W Full Shaded Final
350
5CB
  3
1055 Color Full Shaded Draft
350
5CC
  3
1055 Color Full Shaded Final
350
5CD
  3
1055 PLUS B&W Full Shaded Draft
350
5CE
  3
1055 PLUS B&W Full Shaded Final
350
5CF
  3
1055 PLUS Color Full Shaded Draft
350
5D0
  3
1055 PLUS Color Full Shaded Final
350
5D1
  3
1055-B&W-Shaded-Draft
350
5D2
  3
1055-B&W-Shaded-Final
350
5D3
  3
1055-Color-Shaded-Draft
350
5D4
  3
1055-Color-Shaded-Final
350
5D5
  3
1055-PLUS-B&W-Shaded-Draft
350
5D6
  3
1055-PLUS-B&W-Shaded-Final
350
5D7
  3
1055-PLUS-Color-Shaded-Draft
350
5D8
  3
1055-PLUS-Color-Shaded-Final
350
5D9
  3
2200 Color Inkjet
350
5DA
  3
2200-Color-Inkjet
350
5DB
  3
24x36 PDF
350
5DC
  3
8500 B&W Shaded 11x17
350
5DD
  3
8500 B&W Shaded 8.5x11
350
5DE
  3
8500 Color Shaded 11x17
350
5DF
  3
8500 Color Shaded 8.5x11
350
5E0
  3
8500-B&W-Shaded-11x17
350
5E1
  3
8500-B&W-Shaded-8.5x11
350
5E2
  3
8500-Color-Shaded-11x17
350
5E3
  3
8500-Color-Shaded-8.5x11
350
5E4
  3
Laser Jet 5 Shaded 11x17
350
5E5
  3
Laser Jet 5 Shaded 8.5x11
350
5E6
  3
LaserJet5-Shaded-11x17
350
5E7
  3
LaserJet5-Shaded-8.5x11
350
5E8
  3
Oki Doki B&W Shaded 11x17
350
5E9
  3
Oki Doki B&W Shaded 8.5x11
350
5EA
  3
Oki Doki Color Laser
350
5EB
  3
Oki Doki Color Shaded 11x17
350
5EC
  3
Oki Doki Color Shaded 8.5x11
350
5ED
  3
Oki-Doki-B&W-Shaded-11x17
350
5EE
  3
Oki-Doki-B&W-Shaded-8.5x11
350
5EF
  3
Oki-Doki-Color-Laser
350
5F0
  3
Oki-Doki-Color-Shaded-11x17
350
5F1
  3
Oki-Doki-Color-Shaded-8.5x11
350
5F2
  0
ACDBDICTIONARYWDFLT
  5
E
102
{ACAD_REACTORS
330
C
102
}
330
C
100
AcDbDictionary
281
     1
  3
Normal
350
F
100
AcDbDictionaryWithDefault
340
F
  0
DICTIONARY
  5
537
102
{ACAD_REACTORS
330
C
102
}
330
C
100
AcDbDictionary
281
     1
  3
DIMASSOC
350
53A
  3
HIDETEXT
350
539
  3
SORTENTS
350
538
  0
LAYOUT
  5
1D
102
{ACAD_REACTORS
330
19
102
}
330
19
100
AcDbPlotSettings
  1

  2
S:\AutoCAD 2002\Plotters\1055B&WDraftShaded.pc3
  4

  6

 40
0.0
 41
0.0
 42
0.0
 43
0.0
 44
0.0
 45
0.0
 46
0.0
 47
0.0
 48
0.0
 49
0.0
140
0.0
141
0.0
142
1.0
143
1.0
 70
   688
 72
     0
 73
     0
 74
     5
  7
TRexLJ5Shaded2.ctb
 75
    16
147
1.0
148
0.0
149
0.0
100
AcDbLayout
  1
Layout1
 70
     1
 71
     1
 10
0.0
 20
0.0
 11
12.0
 21
9.0
 12
0.0
 22
0.0
 32
0.0
 14
1.000000000000000E+20
 24
1.000000000000000E+20
 34
1.000000000000000E+20
 15
-1.000000000000000E+20
 25
-1.000000000000000E+20
 35
-1.000000000000000E+20
146
0.0
 13
0.0
 23
0.0
 33
0.0
 16
1.0
 26
0.0
 36
0.0
 17
0.0
 27
1.0
 37
0.0
 76
     0
330
1A
331
D9
  0
LAYOUT
  5
21
102
{ACAD_REACTORS
330
19
102
}
330
19
100
AcDbPlotSettings
  1

  2
8500ColorShaded.pc3
  4
11x17
  6

 40
3.174999952316284
 41
3.174999952316284
 42
3.17498779296875
 43
3.17498779296875
 44
279.3999938964843
 45
431.8000183105469
 46
0.0
 47
0.0
 48
180360.0524337165
 49
80033.77936194791
140
180369.1574725906
141
80037.61796031875
142
1.0
143
0.9845135647223413
 70
 28336
 72
     0
 73
     1
 74
     1
  7
8500ColorShaded.ctb
 75
     0
147
1.015730037485086
148
8.152135749895247
149
47.31235592433395
100
AcDbLayout
  1
Model
 70
     1
 71
     0
 10
0.0
 20
0.0
 11
12.0
 21
9.0
 12
0.0
 22
0.0
 32
0.0
 14
0.0
 24
0.0
 34
0.0
 15
0.0
 25
0.0
 35
0.0
146
0.0
 13
0.0
 23
0.0
 33
0.0
 16
1.0
 26
0.0
 36
0.0
 17
0.0
 27
1.0
 37
0.0
 76
     0
330
1E
  0
MLINESTYLE
  5
17
102
{ACAD_REACTORS
330
16
102
}
330
16
100
AcDbMlineStyle
  2
STANDARD
 70
     0
  3

 62
   256
 51
90.0
 52
90.0
 71
     2
 49
0.5
 62
   256
  6
BYLAYER
 49
-0.5
 62
   256
  6
BYLAYER
  0
PLOTSETTINGS
  5
5CA
102
{ACAD_REACTORS
330
18
102
}
330
18
100
AcDbPlotSettings
  1
1055 B&W Full Shaded Draft
  2
1055B&WDraftShaded.pc3
  4
User607
  6
ps1
 40
0.0
 41
0.0
 42
0.0
 43
0.0
 44
901.7000122070312
 45
1155.700073242187
 46
0.0
 47
0.0
 48
180377.877572
 49
80019.819395
140
180380.8390819999
141
80022.26069
142
1.0
143
1.0
 70
   688
 72
     0
 73
     2
 74
     3
  7
1055B&WFullDraftShaded.ctb
 75
    16
147
1.0
148
-4581603.303200401
149
-2032962.095032944
  0
PLOTSETTINGS
  5
5CB
102
{ACAD_REACTORS
330
18
102
}
330
18
100
AcDbPlotSettings
  1
1055 B&W Full Shaded Final
  2
1055B&WFinalShaded.pc3
  4
User257
  6
PS1
 40
4.995333194732666
 41
8.297271728515625
 42
4.99530029296875
 43
8.29736328125
 44
911.6906738281249
 45
1172.294677734375
 46
0.0
 47
0.0
 48
180377.877572
 49
80019.819395
140
180380.8390819999
141
80022.26069
142
1.0
143
1.0
 70
   688
 72
     0
 73
     3
 74
     3
  7
1055B&WFullFinalShaded.ctb
 75
    16
147
1.0
148
-4581603.303200401
149
-2032962.095032944
  0
PLOTSETTINGS
  5
5CC
102
{ACAD_REACTORS
330
18
102
}
330
18
100
AcDbPlotSettings
  1
1055 Color Full Shaded Draft
  2
1055ColorDraftShaded.pc3
  4
User607
  6
PS1
 40
0.0
 41
0.0
 42
0.0
 43
0.0
 44
901.7000122070312
 45
1155.700073242187
 46
0.0
 47
0.0
 48
180377.877572
 49
80019.819395
140
180380.8390819999
141
80022.26069
142
1.0
143
1.0
 70
   688
 72
     0
 73
     2
 74
     3
  7
1055ColorFullDraftShaded.ctb
 75
    16
147
1.0
148
-4581603.303200401
149
-2032962.095032944
  0
PLOTSETTINGS
  5
5CD
102
{ACAD_REACTORS
330
18
102
}
330
18
100
AcDbPlotSettings
  1
1055 Color Full Shaded Final
  2
1055ColorFinalShaded.pc3
  4
User607
  6
PS1
 40
0.0
 41
0.0
 42
0.0
 43
0.0
 44
901.7000122070312
 45
1155.700073242187
 46
0.0
 47
0.0
 48
180377.877572
 49
80019.819395
140
180380.8390819999
141
80022.26069
142
1.0
143
1.0
 70
   688
 72
     0
 73
     2
 74
     3
  7
1055ColorFullFinalShaded.ctb
 75
    16
147
1.0
148
-4581603.303200401
149
-2032962.095032944
  0
PLOTSETTINGS
  5
5CE
102
{ACAD_REACTORS
330
18
102
}
330
18
100
AcDbPlotSettings
  1
1055 PLUS B&W Full Shaded Draft
  2
1055_PLUS_B&WDraftShaded.pc3
  4
User257
  6
ps1
 40
4.995333194732666
 41
8.297393798828125
 42
4.99530029296875
 43
8.29736328125
 44
901.6152954101562
 45
1155.615356445312
 46
0.0
 47
0.0
 48
180377.877572
 49
80019.819395
140
180380.8390819999
141
80022.26069
142
1.0
143
1.0
 70
   688
 72
     0
 73
     3
 74
     5
  7
1055B&WFullDraftShaded.ctb
 75
    16
147
1.0
148
-4581603.303200401
149
-2032962.095032944
  0
PLOTSETTINGS
  5
5CF
102
{ACAD_REACTORS
330
18
102
}
330
18
100
AcDbPlotSettings
  1
1055 PLUS B&W Full Shaded Final
  2
1055_PLUS_B&WFinalShaded.pc3
  4
User257
  6
PS1
 40
4.995333194732666
 41
8.297271728515625
 42
4.99530029296875
 43
8.29736328125
 44
901.6576538085937
 45
1155.657592773437
 46
0.0
 47
0.0
 48
180377.877572
 49
80019.819395
140
180380.8390819999
141
80022.26069
142
1.0
143
1.0
 70
   688
 72
     0
 73
     3
 74
     5
  7
1055B&WFullFinalShaded.ctb
 75
    16
147
1.0
148
-4581603.303200401
149
-2032962.095032944
  0
PLOTSETTINGS
  5
5D0
102
{ACAD_REACTORS
330
18
102
}
330
18
100
AcDbPlotSettings
  1
1055 PLUS Color Full Shaded Draft
  2
1055_PLUS_ColorDraftShaded.pc3
  4
User257
  6
PS1
 40
4.995333194732666
 41
8.297393798828125
 42
4.99530029296875
 43
8.29736328125
 44
901.6152954101562
 45
1155.615356445312
 46
0.0
 47
0.0
 48
180377.877572
 49
80019.819395
140
180380.8390819999
141
80022.26069
142
1.0
143
1.0
 70
   688
 72
     0
 73
     3
 74
     5
  7
1055ColorFullDraftShaded.ctb
 75
    16
147
1.0
148
-4581603.303200401
149
-2032962.095032944
  0
PLOTSETTINGS
  5
5D1
102
{ACAD_REACTORS
330
18
102
}
330
18
100
AcDbPlotSettings
  1
1055 PLUS Color Full Shaded Final
  2
1055_PLUS_ColorFinalShaded.pc3
  4
User257
  6
PS1
 40
4.995333194732666
 41
8.297271728515625
 42
4.99530029296875
 43
8.29736328125
 44
901.6576538085937
 45
1155.657592773437
 46
0.0
 47
0.0
 48
180377.877572
 49
80019.819395
140
180380.8390819999
141
80022.26069
142
1.0
143
1.0
 70
   688
 72
     0
 73
     3
 74
     5
  7
1055ColorFullFinalShaded.ctb
 75
    16
147
1.0
148
-4581603.303200401
149
-2032962.095032944
  0
PLOTSETTINGS
  5
5D2
102
{ACAD_REACTORS
330
18
102
}
330
18
100
AcDbPlotSettings
  1
1055-B&W-Shaded-Draft
  2
1055B&WDraftShaded.pc3
  4
User257
  6

 40
4.995333194732666
 41
8.297393798828125
 42
4.99530029296875
 43
8.29736328125
 44
901.6152954101562
 45
1155.615356445312
 46
0.0
 47
0.0
 48
180360.0524337165
 49
80033.77936194791
140
180369.1574725906
141
80037.61796031875
142
1.0
143
30.0
 70
  1696
 72
     0
 73
     1
 74
     1
  7
1055B&WFullDraftShaded.ctb
 75
     0
147
0.0333333333333333
148
-190.0773302744904
149
-129.2444057835751
  0
PLOTSETTINGS
  5
5D3
102
{ACAD_REACTORS
330
18
102
}
330
18
100
AcDbPlotSettings
  1
1055-B&W-Shaded-Final
  2
1055B&WFinalShaded.pc3
  4
User607
  6

 40
0.0
 41
0.0
 42
0.0
 43
0.0
 44
901.7000122070312
 45
1155.700073242187
 46
0.0
 47
0.0
 48
180360.0524337165
 49
80033.77936194791
140
180369.1574725906
141
80037.61796031875
142
1.0
143
30.0
 70
  1696
 72
     0
 73
     1
 74
     1
  7
1055B&WFullFinalShaded.ctb
 75
     0
147
0.0333333333333333
148
-190.0773302744904
149
-129.2444057835751
  0
PLOTSETTINGS
  5
5D4
102
{ACAD_REACTORS
330
18
102
}
330
18
100
AcDbPlotSettings
  1
1055-Color-Shaded-Draft
  2
1055ColorDraftShaded.pc3
  4
User257
  6

 40
4.995333194732666
 41
8.297393798828125
 42
4.99530029296875
 43
8.29736328125
 44
901.6152954101562
 45
1155.615356445312
 46
0.0
 47
0.0
 48
180360.0524337165
 49
80033.77936194791
140
180369.1574725906
141
80037.61796031875
142
1.0
143
30.0
 70
  1696
 72
     0
 73
     1
 74
     1
  7
1055ColorFullDraftShaded.ctb
 75
     0
147
0.0333333333333333
148
-190.0773302744904
149
-129.2444057835751
  0
PLOTSETTINGS
  5
5D5
102
{ACAD_REACTORS
330
18
102
}
330
18
100
AcDbPlotSettings
  1
1055-Color-Shaded-Final
  2
1055ColorDraftShaded.pc3
  4
User257
  6

 40
4.995333194732666
 41
8.297393798828125
 42
4.99530029296875
 43
8.29736328125
 44
901.6152954101562
 45
1155.615356445312
 46
0.0
 47
0.0
 48
180360.0524337165
 49
80033.77936194791
140
180369.1574725906
141
80037.61796031875
142
1.0
143
30.0
 70
  1696
 72
     0
 73
     1
 74
     1
  7
1055ColorFullFinalShaded.ctb
 75
     0
147
0.0333333333333333
148
-190.0773302744904
149
-129.2444057835751
  0
PLOTSETTINGS
  5
5D6
102
{ACAD_REACTORS
330
18
102
}
330
18
100
AcDbPlotSettings
  1
1055-PLUS-B&W-Shaded-Draft
  2
1055_PLUS_B&WDraftShaded.pc3
  4
User257
  6

 40
4.995333194732666
 41
8.297393798828125
 42
4.99530029296875
 43
8.29736328125
 44
901.6152954101562
 45
1155.615356445312
 46
0.0
 47
0.0
 48
180360.0524337165
 49
80033.77936194791
140
180369.1574725906
141
80037.61796031875
142
1.0
143
30.0
 70
  1696
 72
     0
 73
     1
 74
     0
  7
1055B&WFullDraftShaded.ctb
 75
     0
147
0.0333333333333333
148
0.9506237099442845
149
8.593888772447144
  0
PLOTSETTINGS
  5
5D7
102
{ACAD_REACTORS
330
18
102
}
330
18
100
AcDbPlotSettings
  1
1055-PLUS-B&W-Shaded-Final
  2
1055_PLUS_B&WFinalShaded.pc3
  4
User257
  6

 40
4.995333194732666
 41
8.297271728515625
 42
4.99530029296875
 43
8.29736328125
 44
901.6576538085937
 45
1155.657592773437
 46
0.0
 47
0.0
 48
180360.0524337165
 49
80033.77936194791
140
180369.1574725906
141
80037.61796031875
142
1.0
143
30.0
 70
  1696
 72
     0
 73
     1
 74
     0
  7
1055B&WFullFinalShaded.ctb
 75
     0
147
0.0333333333333333
148
0.9506237099442845
149
8.593888772447144
  0
PLOTSETTINGS
  5
5D8
102
{ACAD_REACTORS
330
18
102
}
330
18
100
AcDbPlotSettings
  1
1055-PLUS-Color-Shaded-Draft
  2
1055_PLUS_ColorDraftShaded.pc3
  4
User257
  6

 40
4.995333194732666
 41
8.297393798828125
 42
4.99530029296875
 43
8.29736328125
 44
901.6152954101562
 45
1155.615356445312
 46
0.0
 47
0.0
 48
180360.0524337165
 49
80033.77936194791
140
180369.1574725906
141
80037.61796031875
142
1.0
143
30.0
 70
  1696
 72
     0
 73
     1
 74
     0
  7
1055ColorFullDraftShaded.ctb
 75
     0
147
0.0333333333333333
148
0.9506237099442845
149
8.593888772447144
  0
PLOTSETTINGS
  5
5D9
102
{ACAD_REACTORS
330
18
102
}
330
18
100
AcDbPlotSettings
  1
1055-PLUS-Color-Shaded-Final
  2
1055_PLUS_ColorFinalShaded.pc3
  4
User257
  6

 40
4.995333194732666
 41
8.297271728515625
 42
4.99530029296875
 43
8.29736328125
 44
901.6576538085937
 45
1155.657592773437
 46
0.0
 47
0.0
 48
180360.0524337165
 49
80033.77936194791
140
180369.1574725906
141
80037.61796031875
142
1.0
143
30.0
 70
  1696
 72
     0
 73
     1
 74
     0
  7
1055ColorFullFinalShaded.ctb
 75
     0
147
0.0333333333333333
148
0.9506237099442845
149
8.593888772447144
  0
PLOTSETTINGS
  5
5DA
102
{ACAD_REACTORS
330
18
102
}
330
18
100
AcDbPlotSettings
  1
2200 Color Inkjet
  2
HP  2200 Color Inkjet.pc3
  4
Letter
  6
PS1
 40
7.143749713897705
 41
12.47775650024414
 42
7.14373779296875
 43
3.17498779296875
 44
215.8999938964843
 45
279.3999938964843
 46
0.0
 47
0.0
 48
180377.877572
 49
80019.819395
140
180380.8390819999
141
80022.26069
142
1.0
143
0.3486331030131726
 70
   688
 72
     0
 73
     1
 74
     3
  7
Color.ctb
 75
     0
147
2.868344948764708
148
-4581603.303200401
149
-2032962.095032944
  0
PLOTSETTINGS
  5
5DB
102
{ACAD_REACTORS
330
18
102
}
330
18
100
AcDbPlotSettings
  1
2200-Color-Inkjet
  2
HP  2200 Color Inkjet.pc3
  4
Letter
  6

 40
7.143749713897705
 41
12.47775650024414
 42
7.14373779296875
 43
3.17498779296875
 44
215.8999938964843
 45
279.3999938964843
 46
0.0
 47
0.0
 48
180360.0524337165
 49
80033.77936194791
140
180369.1574725906
141
80037.61796031875
142
1.0
143
0.069393053089765
 70
  1712
 72
     0
 73
     1
 74
     1
  7
Color.ctb
 75
     0
147
14.41066440334347
148
-190.0773302744904
149
-129.2444057835751
  0
PLOTSETTINGS
  5
5DC
102
{ACAD_REACTORS
330
18
102
}
330
18
100
AcDbPlotSettings
  1
24x36 PDF
  2
Bluebeam PDF Printer.pc3
  4
User128
  6
PS1
 40
3.174999952316284
 41
3.174999952316284
 42
3.17498779296875
 43
3.17498779296875
 44
609.5999755859375
 45
914.3999633789062
 46
270.5099999999999
 47
416.3059999999999
 48
180377.877572
 49
80019.819395
140
180380.8390819999
141
80022.26069
142
1.0
143
1.0
 70
   692
 72
     0
 73
     1
 74
     4
  7
1055B&WFullDraftShaded.ctb
 75
    16
147
1.0
148
-4581598.0903288
149
-2032503.412632999
  0
PLOTSETTINGS
  5
5DD
102
{ACAD_REACTORS
330
18
102
}
330
18
100
AcDbPlotSettings
  1
8500 B&W Shaded 11x17
  2
8500B&WShaded.pc3
  4
11x17
  6
PS1
 40
5.027083396911621
 41
5.027085304260253
 42
5.027099609375
 43
5.027069091796875
 44
279.3999938964843
 45
431.7999877929687
 46
0.0
 47
92.964
 48
180377.877572
 49
80019.819395
140
180380.8390819999
141
80022.26069
142
1.0
143
0.0116192543742624
 70
   692
 72
     0
 73
     1
 74
     3
  7
8500B&WShaded.ctb
 75
     0
147
86.06404230335863
148
-4581651.879813895
149
-2032998.63613423
  0
PLOTSETTINGS
  5
5DE
102
{ACAD_REACTORS
330
18
102
}
330
18
100
AcDbPlotSettings
  1
8500 B&W Shaded 8.5x11
  2
8500B&WShaded.pc3
  4
Letter
  6
PS1
 40
5.027083396911621
 41
5.027085304260253
 42
5.027084350585937
 43
5.027069091796875
 44
215.8999938964843
 45
279.3999938964843
 46
0.0
 47
44.44999999999999
 48
180377.877572
 49
80019.819395
140
180380.8390819999
141
80022.26069
142
1.0
143
0.0152035994604527
 70
   692
 72
     0
 73
     1
 74
     3
  7
8500B&WShaded.ctb
 75
     0
147
65.77389799048455
148
-4581651.879813895
149
-2032998.63613423
  0
PLOTSETTINGS
  5
5DF
102
{ACAD_REACTORS
330
18
102
}
330
18
100
AcDbPlotSettings
  1
8500 Color Shaded 11x17
  2
8500ColorShaded.pc3
  4
11x17
  6
PS1
 40
5.027083396911621
 41
5.027085304260253
 42
5.027099609375
 43
5.027069091796875
 44
279.3999938964843
 45
431.7999877929687
 46
0.0
 47
92.964
 48
180377.877572
 49
80019.819395
140
180380.8390819999
141
80022.26069
142
1.0
143
0.0116192543742624
 70
   692
 72
     0
 73
     1
 74
     3
  7
8500ColorShaded.ctb
 75
     0
147
86.06404230335863
148
-4581651.879813895
149
-2032998.63613423
  0
PLOTSETTINGS
  5
5E0
102
{ACAD_REACTORS
330
18
102
}
330
18
100
AcDbPlotSettings
  1
8500 Color Shaded 8.5x11
  2
8500ColorShaded.pc3
  4
Letter
  6
PS1
 40
5.027083396911621
 41
5.027085304260253
 42
5.027084350585937
 43
5.027069091796875
 44
215.8999938964843
 45
279.3999938964843
 46
0.0
 47
44.44999999999999
 48
180377.877572
 49
80019.819395
140
180380.8390819999
141
80022.26069
142
1.0
143
0.0152035994604527
 70
   692
 72
     0
 73
     1
 74
     3
  7
8500ColorShaded.ctb
 75
     0
147
65.77389799048455
148
-4581651.879813895
149
-2032998.63613423
  0
PLOTSETTINGS
  5
5E1
102
{ACAD_REACTORS
330
18
102
}
330
18
100
AcDbPlotSettings
  1
8500-B&W-Shaded-11x17
  2
8500B&WShaded.pc3
  4
11x17
  6

 40
5.027083396911621
 41
5.027085304260253
 42
5.027099609375
 43
5.027069091796875
 44
279.3999938964843
 45
431.7999877929687
 46
0.0
 47
0.0
 48
180360.0524337165
 49
80033.77936194791
140
180369.1574725906
141
80037.61796031875
142
1.0
143
0.0519425466957002
 70
  1712
 72
     0
 73
     1
 74
     1
  7
8500B&WShaded.ctb
 75
     0
147
19.252040256293
148
-190.0773302744904
149
-129.2444057835751
  0
PLOTSETTINGS
  5
5E2
102
{ACAD_REACTORS
330
18
102
}
330
18
100
AcDbPlotSettings
  1
8500-B&W-Shaded-8.5x11
  2
8500B&WShaded.pc3
  4
Letter
  6

 40
5.027083396911621
 41
5.027085304260253
 42
5.027084350585937
 43
5.027069091796875
 44
215.8999938964843
 45
279.3999938964843
 46
0.0
 47
0.0
 48
180360.0524337165
 49
80033.77936194791
140
180369.1574725906
141
80037.61796031875
142
1.0
143
0.0679659511256221
 70
  1712
 72
     0
 73
     1
 74
     1
  7
8500B&WShaded.ctb
 75
     0
147
14.71324955273106
148
-190.0773302744904
149
-129.2444057835751
  0
PLOTSETTINGS
  5
5E3
102
{ACAD_REACTORS
330
18
102
}
330
18
100
AcDbPlotSettings
  1
8500-Color-Shaded-11x17
  2
8500ColorShaded.pc3
  4
11x17
  6

 40
5.027083396911621
 41
5.027085304260253
 42
5.027099609375
 43
5.027069091796875
 44
279.3999938964843
 45
431.7999877929687
 46
0.0
 47
0.0
 48
180360.0524337165
 49
80033.77936194791
140
180369.1574725906
141
80037.61796031875
142
1.0
143
0.0519425466957002
 70
  1712
 72
     0
 73
     1
 74
     1
  7
8500ColorShaded.ctb
 75
     0
147
19.252040256293
148
-190.0773302744904
149
-129.2444057835751
  0
PLOTSETTINGS
  5
5E4
102
{ACAD_REACTORS
330
18
102
}
330
18
100
AcDbPlotSettings
  1
8500-Color-Shaded-8.5x11
  2
8500ColorShaded.pc3
  4
Letter
  6

 40
5.027083396911621
 41
5.027085304260253
 42
5.027084350585937
 43
5.027069091796875
 44
215.8999938964843
 45
279.3999938964843
 46
0.0
 47
0.0
 48
180360.0524337165
 49
80033.77936194791
140
180369.1574725906
141
80037.61796031875
142
1.0
143
0.0679659511256221
 70
  1712
 72
     0
 73
     1
 74
     1
  7
8500ColorShaded.ctb
 75
     0
147
14.71324955273106
148
-190.0773302744904
149
-129.2444057835751
  0
PLOTSETTINGS
  5
5E5
102
{ACAD_REACTORS
330
18
102
}
330
18
100
AcDbPlotSettings
  1
Laser Jet 5 Shaded 11x17
  2
LaserJet5Shaded.pc3
  4
11x17
  6
PS1
 40
7.143749713897705
 41
5.873736858367919
 42
7.143768310546875
 43
7.14373779296875
 44
279.3999938964843
 45
431.7999877929687
 46
0.0
 47
29.71799999999999
 48
180377.877572
 49
80019.819395
140
180380.8390819999
141
80022.26069
142
1.0
143
0.2557442899420743
 70
   692
 72
     0
 73
     1
 74
     3
  7
LaserJet5Shaded.ctb
 75
     0
147
3.910155727138614
148
-4581603.303200401
149
-2032962.095032944
  0
PLOTSETTINGS
  5
5E6
102
{ACAD_REACTORS
330
18
102
}
330
18
100
AcDbPlotSettings
  1
Laser Jet 5 Shaded 8.5x11
  2
LaserJet5Shaded.pc3
  4
Letter
  6
PS1
 40
7.143749713897705
 41
6.974400997161865
 42
7.14373779296875
 43
6.297088623046875
 44
215.8999938964843
 45
279.3999938964843
 46
2.794
 47
0.0
 48
180377.877572
 49
80019.819395
140
180380.8390819999
141
80022.26069
142
1.0
143
0.345513616778612
 70
   692
 72
     0
 73
     1
 74
     3
  7
LaserJet5Shaded.ctb
 75
     0
147
2.894241938489939
148
-4581603.303200401
149
-2032962.095032944
  0
PLOTSETTINGS
  5
5E7
102
{ACAD_REACTORS
330
18
102
}
330
18
100
AcDbPlotSettings
  1
LaserJet5-Shaded-11x17
  2
LaserJet5Shaded.pc3
  4
11x17
  6

 40
7.143749713897705
 41
5.873736858367919
 42
7.143768310546875
 43
7.14373779296875
 44
279.3999938964843
 45
431.7999877929687
 46
0.0
 47
0.0
 48
180360.0524337165
 49
80033.77936194791
140
180369.1574725906
141
80037.61796031875
142
1.0
143
0.0527719690046124
 70
  1712
 72
     0
 73
     1
 74
     1
  7
LaserJet5Shaded.ctb
 75
     0
147
18.9494540162524
148
-190.0773302744904
149
-129.2444057835751
  0
PLOTSETTINGS
  5
5E8
102
{ACAD_REACTORS
330
18
102
}
330
18
100
AcDbPlotSettings
  1
LaserJet5-Shaded-8.5x11
  2
LaserJet5Shaded.pc3
  4
Letter
  6

 40
7.143749713897705
 41
6.974400997161865
 42
7.14373779296875
 43
6.297088623046875
 44
215.8999938964843
 45
279.3999938964843
 46
0.0
 47
0.0
 48
180360.0524337165
 49
80033.77936194791
140
180369.1574725906
141
80037.61796031875
142
1.0
143
0.069393053089765
 70
  1712
 72
     0
 73
     1
 74
     1
  7
LaserJet5Shaded.ctb
 75
     0
147
14.41066440334347
148
-190.0773302744904
149
-129.2444057835751
  0
PLOTSETTINGS
  5
5E9
102
{ACAD_REACTORS
330
18
102
}
330
18
100
AcDbPlotSettings
  1
Oki Doki B&W Shaded 11x17
  2
OKI DOKI Color Laser.pc3
  4
Tabloid
  6
PS1
 40
5.027083396911621
 41
5.027085304260253
 42
5.027099609375
 43
5.027069091796875
 44
279.3999938964843
 45
431.7999877929687
 46
0.0
 47
47.49799999999999
 48
180377.877572
 49
80019.819395
140
180380.8390819999
141
80022.26069
142
1.0
143
0.2302203728173071
 70
   692
 72
     0
 73
     1
 74
     4
  7
OKIB&WShaded.ctb
 75
     0
147
4.343664236846477
148
-4581598.0903288
149
-2032503.412632999
  0
PLOTSETTINGS
  5
5EA
102
{ACAD_REACTORS
330
18
102
}
330
18
100
AcDbPlotSettings
  1
Oki Doki B&W Shaded 8.5x11
  2
OKI DOKI Color Laser.pc3
  4
Letter
  6
PS1
 40
5.027083396911621
 41
5.027085304260253
 42
5.027084350585937
 43
5.027069091796875
 44
215.8999938964843
 45
279.3999938964843
 46
0.0
 47
9.906
 48
180377.877572
 49
80019.819395
140
180380.8390819999
141
80022.26069
142
1.0
143
0.3012394963745367
 70
   692
 72
     0
 73
     1
 74
     4
  7
OKIB&WShaded.ctb
 75
     0
147
3.319617819161008
148
-4581598.0903288
149
-2032503.412632999
  0
PLOTSETTINGS
  5
5EB
102
{ACAD_REACTORS
330
18
102
}
330
18
100
AcDbPlotSettings
  1
Oki Doki Color Laser
  2
OKI DOKI Color Laser.pc3
  4
Letter
  6
PS1
 40
5.027083396911621
 41
5.027085304260253
 42
5.027084350585937
 43
5.027069091796875
 44
215.8999938964843
 45
279.3999938964843
 46
71.88199999999999
 47
97.02799999999999
 48
180377.877572
 49
80019.819395
140
180380.8390819999
141
80022.26069
142
1.0
143
1.0
 70
   692
 72
     0
 73
     1
 74
     4
  7
Color.ctb
 75
    16
147
1.0
148
-4581598.0903288
149
-2032503.412632999
  0
PLOTSETTINGS
  5
5EC
102
{ACAD_REACTORS
330
18
102
}
330
18
100
AcDbPlotSettings
  1
Oki Doki Color Shaded 11x17
  2
OKI DOKI Color Laser.pc3
  4
Tabloid
  6
PS1
 40
5.027083396911621
 41
5.027085304260253
 42
5.027099609375
 43
5.027069091796875
 44
279.3999938964843
 45
431.7999877929687
 46
0.0
 47
47.49799999999999
 48
180377.877572
 49
80019.819395
140
180380.8390819999
141
80022.26069
142
1.0
143
0.2302203728173071
 70
   692
 72
     0
 73
     1
 74
     4
  7
OKIColorShaded.ctb
 75
     0
147
4.343664236846477
148
-4581598.0903288
149
-2032503.412632999
  0
PLOTSETTINGS
  5
5ED
102
{ACAD_REACTORS
330
18
102
}
330
18
100
AcDbPlotSettings
  1
Oki Doki Color Shaded 8.5x11
  2
OKI DOKI Color Laser.pc3
  4
Letter
  6
PS1
 40
5.027083396911621
 41
5.027085304260253
 42
5.027084350585937
 43
5.027069091796875
 44
215.8999938964843
 45
279.3999938964843
 46
0.0
 47
9.906
 48
180377.877572
 49
80019.819395
140
180380.8390819999
141
80022.26069
142
1.0
143
0.3012394963745367
 70
   692
 72
     0
 73
     1
 74
     4
  7
OKIColorShaded.ctb
 75
     0
147
3.319617819161008
148
-4581598.0903288
149
-2032503.412632999
  0
PLOTSETTINGS
  5
5EE
102
{ACAD_REACTORS
330
18
102
}
330
18
100
AcDbPlotSettings
  1
Oki-Doki-B&W-Shaded-11x17
  2
OKI DOKI Color Laser.pc3
  4
Tabloid
  6

 40
5.027083396911621
 41
5.027085304260253
 42
5.027099609375
 43
5.027069091796875
 44
279.3999938964843
 45
431.7999877929687
 46
45.72
 47
0.0
 48
180360.0524337165
 49
80033.77936194791
140
180369.1574725906
141
80037.61796031875
142
1.0
143
0.5483586774064594
 70
  1716
 72
     0
 73
     1
 74
     4
  7
OKIB&WShaded.ctb
 75
     0
147
1.823623918435361
148
-4581145.331816398
149
-2032857.995793476
  0
PLOTSETTINGS
  5
5EF
102
{ACAD_REACTORS
330
18
102
}
330
18
100
AcDbPlotSettings
  1
Oki-Doki-B&W-Shaded-8.5x11
  2
OKI DOKI Color Laser.pc3
  4
Letter
  6

 40
5.027083396911621
 41
5.027085304260253
 42
5.027084350585937
 43
5.027069091796875
 44
215.8999938964843
 45
279.3999938964843
 46
46.228
 47
0.0
 48
180360.0524337165
 49
80033.77936194791
140
180369.1574725906
141
80037.61796031875
142
1.0
143
0.8586284006917006
 70
  1716
 72
     0
 73
     1
 74
     4
  7
OKIB&WShaded.ctb
 75
     0
147
1.16464817515285
148
-4581145.331816398
149
-2032857.995793476
  0
PLOTSETTINGS
  5
5F0
102
{ACAD_REACTORS
330
18
102
}
330
18
100
AcDbPlotSettings
  1
Oki-Doki-Color-Laser
  2
OKI DOKI Color Laser.pc3
  4
Letter
  6

 40
5.027083396911621
 41
5.027085304260253
 42
5.027084350585937
 43
5.027069091796875
 44
215.8999938964843
 45
279.3999938964843
 46
17.018
 47
0.0
 48
180360.0524337165
 49
80033.77936194791
140
180369.1574725906
141
80037.61796031875
142
1.0
143
1.429088128819241
 70
  1716
 72
     0
 73
     1
 74
     0
  7
Color.ctb
 75
     0
147
0.6997469084193093
148
0.9506237099442977
149
8.593888772447144
  0
PLOTSETTINGS
  5
5F1
102
{ACAD_REACTORS
330
18
102
}
330
18
100
AcDbPlotSettings
  1
Oki-Doki-Color-Shaded-11x17
  2
OKI DOKI Color Laser.pc3
  4
Tabloid
  6

 40
5.027083396911621
 41
5.027085304260253
 42
5.027099609375
 43
5.027069091796875
 44
279.3999938964843
 45
431.7999877929687
 46
45.72
 47
0.0
 48
180360.0524337165
 49
80033.77936194791
140
180369.1574725906
141
80037.61796031875
142
1.0
143
0.5483586774064594
 70
  1716
 72
     0
 73
     1
 74
     4
  7
OKIColorShaded.ctb
 75
     0
147
1.823623918435361
148
-4581145.331816398
149
-2032857.995793476
  0
PLOTSETTINGS
  5
5F2
102
{ACAD_REACTORS
330
18
102
}
330
18
100
AcDbPlotSettings
  1
Oki-Doki-Color-Shaded-8.5x11
  2
OKI DOKI Color Laser.pc3
  4
Letter
  6

 40
5.027083396911621
 41
5.027085304260253
 42
5.027084350585937
 43
5.027069091796875
 44
215.8999938964843
 45
279.3999938964843
 46
46.228
 47
0.0
 48
180360.0524337165
 49
80033.77936194791
140
180369.1574725906
141
80037.61796031875
142
1.0
143
0.8586284006917006
 70
  1716
 72
     0
 73
     1
 74
     4
  7
OKIColorShaded.ctb
 75
     0
147
1.16464817515285
148
-4581145.331816398
149
-2032857.995793476
  0
ACDBPLACEHOLDER
  5
F
102
{ACAD_REACTORS
330
E
102
}
330
E
  0
DICTIONARYVAR
  5
53A
102
{ACAD_REACTORS
330
537
102
}
330
537
100
DictionaryVariables
280
     0
  1
1
  0
DICTIONARYVAR
  5
539
102
{ACAD_REACTORS
330
537
102
}
330
537
100
DictionaryVariables
280
     0
  1
1
  0
DICTIONARYVAR
  5
538
102
{ACAD_REACTORS
330
537
102
}
330
537
100
DictionaryVariables
280
     0
  1
1
  0
ENDSEC
  0
EOF
