  0
SECTION
  2
HEADER
  9
$ACADVER
  1
AC1015
  9
$ACADMAINTVER
 70
    13
  9
$DWGCODEPAGE
  3
ANSI_1252
  9
$INSBASE
 10
0.0
 20
0.0
 30
0.0
  9
$EXTMIN
 10
0.3095079079686158
 20
-2.0695876464756
 30
0.0
  9
$EXTMAX
 10
16.79950790796861
 20
8.370412353524399
 30
0.03
  9
$LIMMIN
 10
0.0
 20
0.0
  9
$LIMMAX
 10
12.0
 20
9.0
  9
$ORTHOMODE
 70
     1
  9
$REGENMODE
 70
     1
  9
$FILLMODE
 70
     1
  9
$QTEXTMODE
 70
     0
  9
$MIRRTEXT
 70
     0
  9
$LTSCALE
 40
1.0
  9
$ATTMODE
 70
     1
  9
$TEXTSIZE
 40
0.1
  9
$TRACEWID
 40
0.05
  9
$TEXTSTYLE
  7
ROMANS
  9
$CLAYER
  8
OPTION-NOZ-ROTARY
  9
$CELTYPE
  6
ByLayer
  9
$CECOLOR
 62
   256
  9
$CELTSCALE
 40
1.0
  9
$DISPSILH
 70
     0
  9
$DIMSCALE
 40
1.0
  9
$DIMASZ
 40
0.18
  9
$DIMEXO
 40
0.0625
  9
$DIMDLI
 40
0.38
  9
$DIMRND
 40
0.0
  9
$DIMDLE
 40
0.0
  9
$DIMEXE
 40
0.18
  9
$DIMTP
 40
0.0
  9
$DIMTM
 40
0.0
  9
$DIMTXT
 40
0.18
  9
$DIMCEN
 40
0.09
  9
$DIMTSZ
 40
0.0
  9
$DIMTOL
 70
     0
  9
$DIMLIM
 70
     0
  9
$DIMTIH
 70
     1
  9
$DIMTOH
 70
     1
  9
$DIMSE1
 70
     0
  9
$DIMSE2
 70
     0
  9
$DIMTAD
 70
     0
  9
$DIMZIN
 70
     0
  9
$DIMBLK
  1

  9
$DIMASO
 70
     1
  9
$DIMSHO
 70
     1
  9
$DIMPOST
  1

  9
$DIMAPOST
  1

  9
$DIMALT
 70
     0
  9
$DIMALTD
 70
     2
  9
$DIMALTF
 40
25.4
  9
$DIMLFAC
 40
1.0
  9
$DIMTOFL
 70
     0
  9
$DIMTVP
 40
0.0
  9
$DIMTIX
 70
     0
  9
$DIMSOXD
 70
     0
  9
$DIMSAH
 70
     0
  9
$DIMBLK1
  1

  9
$DIMBLK2
  1

  9
$DIMSTYLE
  2
STANDARD
  9
$DIMCLRD
 70
     0
  9
$DIMCLRE
 70
     0
  9
$DIMCLRT
 70
     0
  9
$DIMTFAC
 40
1.0
  9
$DIMGAP
 40
0.09
  9
$DIMJUST
 70
     0
  9
$DIMSD1
 70
     0
  9
$DIMSD2
 70
     0
  9
$DIMTOLJ
 70
     1
  9
$DIMTZIN
 70
     0
  9
$DIMALTZ
 70
     0
  9
$DIMALTTZ
 70
     0
  9
$DIMUPT
 70
     0
  9
$DIMDEC
 70
     4
  9
$DIMTDEC
 70
     4
  9
$DIMALTU
 70
     2
  9
$DIMALTTD
 70
     2
  9
$DIMTXSTY
  7
STANDARD
  9
$DIMAUNIT
 70
     0
  9
$DIMADEC
 70
     0
  9
$DIMALTRND
 40
0.0
  9
$DIMAZIN
 70
     0
  9
$DIMDSEP
 70
    46
  9
$DIMATFIT
 70
     3
  9
$DIMFRAC
 70
     0
  9
$DIMLDRBLK
  1

  9
$DIMLUNIT
 70
     2
  9
$DIMLWD
 70
    -2
  9
$DIMLWE
 70
    -2
  9
$DIMTMOVE
 70
     2
  9
$LUNITS
 70
     2
  9
$LUPREC
 70
     4
  9
$SKETCHINC
 40
0.1
  9
$FILLETRAD
 40
0.0
  9
$AUNITS
 70
     0
  9
$AUPREC
 70
     0
  9
$MENU
  1
ACAD
  9
$ELEVATION
 40
0.0
  9
$PELEVATION
 40
0.0
  9
$THICKNESS
 40
0.0
  9
$LIMCHECK
 70
     0
  9
$CHAMFERA
 40
0.0
  9
$CHAMFERB
 40
0.0
  9
$CHAMFERC
 40
0.0
  9
$CHAMFERD
 40
0.0
  9
$SKPOLY
 70
     0
  9
$TDCREATE
 40
2451471.533594710
  9
$TDUCREATE
 40
2451471.783594711
  9
$TDUPDATE
 40
2453109.633895393
  9
$TDUUPDATE
 40
2453109.883895393
  9
$TDINDWG
 40
0.1381735995
  9
$TDUSRTIMER
 40
0.1381735995
  9
$USRTIMER
 70
     1
  9
$ANGBASE
 50
0.0
  9
$ANGDIR
 70
     0
  9
$PDMODE
 70
     0
  9
$PDSIZE
 40
0.0
  9
$PLINEWID
 40
0.0
  9
$SPLFRAME
 70
     0
  9
$SPLINETYPE
 70
     6
  9
$SPLINESEGS
 70
     8
  9
$HANDSEED
  5
8AB
  9
$SURFTAB1
 70
     6
  9
$SURFTAB2
 70
     6
  9
$SURFTYPE
 70
     6
  9
$SURFU
 70
     6
  9
$SURFV
 70
     6
  9
$UCSBASE
  2

  9
$UCSNAME
  2

  9
$UCSORG
 10
0.0
 20
0.0
 30
0.0
  9
$UCSXDIR
 10
1.0
 20
0.0
 30
0.0
  9
$UCSYDIR
 10
0.0
 20
1.0
 30
0.0
  9
$UCSORTHOREF
  2

  9
$UCSORTHOVIEW
 70
     0
  9
$UCSORGTOP
 10
0.0
 20
0.0
 30
0.0
  9
$UCSORGBOTTOM
 10
0.0
 20
0.0
 30
0.0
  9
$UCSORGLEFT
 10
0.0
 20
0.0
 30
0.0
  9
$UCSORGRIGHT
 10
0.0
 20
0.0
 30
0.0
  9
$UCSORGFRONT
 10
0.0
 20
0.0
 30
0.0
  9
$UCSORGBACK
 10
0.0
 20
0.0
 30
0.0
  9
$PUCSBASE
  2

  9
$PUCSNAME
  2

  9
$PUCSORG
 10
0.0
 20
0.0
 30
0.0
  9
$PUCSXDIR
 10
1.0
 20
0.0
 30
0.0
  9
$PUCSYDIR
 10
0.0
 20
1.0
 30
0.0
  9
$PUCSORTHOREF
  2

  9
$PUCSORTHOVIEW
 70
     0
  9
$PUCSORGTOP
 10
0.0
 20
0.0
 30
0.0
  9
$PUCSORGBOTTOM
 10
0.0
 20
0.0
 30
0.0
  9
$PUCSORGLEFT
 10
0.0
 20
0.0
 30
0.0
  9
$PUCSORGRIGHT
 10
0.0
 20
0.0
 30
0.0
  9
$PUCSORGFRONT
 10
0.0
 20
0.0
 30
0.0
  9
$PUCSORGBACK
 10
0.0
 20
0.0
 30
0.0
  9
$USERI1
 70
     0
  9
$USERI2
 70
     0
  9
$USERI3
 70
     0
  9
$USERI4
 70
     0
  9
$USERI5
 70
     0
  9
$USERR1
 40
0.0
  9
$USERR2
 40
0.0
  9
$USERR3
 40
0.0
  9
$USERR4
 40
0.0
  9
$USERR5
 40
0.0
  9
$WORLDVIEW
 70
     1
  9
$SHADEDGE
 70
     3
  9
$SHADEDIF
 70
    70
  9
$TILEMODE
 70
     1
  9
$MAXACTVP
 70
    16
  9
$PINSBASE
 10
0.0
 20
0.0
 30
0.0
  9
$PLIMCHECK
 70
     0
  9
$PEXTMIN
 10
1.000000000000000E+20
 20
1.000000000000000E+20
 30
1.000000000000000E+20
  9
$PEXTMAX
 10
-1.000000000000000E+20
 20
-1.000000000000000E+20
 30
-1.000000000000000E+20
  9
$PLIMMIN
 10
0.0
 20
0.0
  9
$PLIMMAX
 10
12.0
 20
9.0
  9
$UNITMODE
 70
     0
  9
$VISRETAIN
 70
     0
  9
$PLINEGEN
 70
     1
  9
$PSLTSCALE
 70
     1
  9
$TREEDEPTH
 70
  3020
  9
$CMLSTYLE
  2
Standard
  9
$CMLJUST
 70
     0
  9
$CMLSCALE
 40
1.0
  9
$PROXYGRAPHICS
 70
     1
  9
$MEASUREMENT
 70
     0
  9
$CELWEIGHT
370
    -1
  9
$ENDCAPS
280
     0
  9
$JOINSTYLE
280
     0
  9
$LWDISPLAY
290
     0
  9
$INSUNITS
 70
     0
  9
$HYPERLINKBASE
  1

  9
$STYLESHEET
  1
8500ColorShaded.ctb
  9
$XEDIT
290
     1
  9
$CEPSNTYPE
380
     0
  9
$PSTYLEMODE
290
     1
  9
$FINGERPRINTGUID
  2
{95C8A785-437D-4976-93E8-218674390444}
  9
$VERSIONGUID
  2
{5967068F-EF99-45B3-A94B-D048DEA6D29A}
  9
$EXTNAMES
290
     1
  9
$PSVPSCALE
 40
0.0
  9
$OLESTARTUP
290
     1
  0
ENDSEC
  0
SECTION
  2
CLASSES
  0
CLASS
  1
ACDBDICTIONARYWDFLT
  2
AcDbDictionaryWithDefault
  3
AutoCAD 2000
 90
        0
280
     0
281
     0
  0
CLASS
  1
ACDBPLACEHOLDER
  2
AcDbPlaceHolder
  3
AutoCAD 2000
 90
        0
280
     0
281
     0
  0
CLASS
  1
LAYOUT
  2
AcDbLayout
  3
AutoCAD 2000
 90
        0
280
     0
281
     0
  0
CLASS
  1
DICTIONARYVAR
  2
AcDbDictionaryVar
  3
AutoCAD 2000
 90
        0
280
     0
281
     0
  0
ENDSEC
  0
SECTION
  2
TABLES
  0
TABLE
  2
VPORT
  5
5EF
330
0
100
AcDbSymbolTable
 70
     2
  0
VPORT
  5
8AA
330
5EF
100
AcDbSymbolTableRecord
100
AcDbViewportTableRecord
  2
*Active
 70
     0
 10
0.0
 20
0.0
 11
1.0
 21
1.0
 12
8.554080197343228
 22
3.150679416145364
 13
0.0
 23
0.0
 14
0.14
 24
0.14
 15
0.0
 25
0.0
 16
0.0
 26
0.0
 36
1.0
 17
0.0
 27
0.0
 37
0.0
 40
11.00748655869592
 41
1.505548705302096
 42
50.0
 43
0.0
 44
0.0
 50
0.0
 51
0.0
 71
     0
 72
  5000
 73
     1
 74
     1
 75
     0
 76
     0
 77
     0
 78
     0
281
     0
 65
     1
110
0.0
120
0.0
130
0.0
111
1.0
121
0.0
131
0.0
112
0.0
122
1.0
132
0.0
 79
     0
146
0.0
  0
ENDTAB
  0
TABLE
  2
LTYPE
  5
5EC
330
0
100
AcDbSymbolTable
 70
     1
  0
LTYPE
  5
5FA
330
5EC
100
AcDbSymbolTableRecord
100
AcDbLinetypeTableRecord
  2
ByBlock
 70
     0
  3

 72
    65
 73
     0
 40
0.0
  0
LTYPE
  5
5FB
330
5EC
100
AcDbSymbolTableRecord
100
AcDbLinetypeTableRecord
  2
ByLayer
 70
     0
  3

 72
    65
 73
     0
 40
0.0
  0
LTYPE
  5
5FC
330
5EC
100
AcDbSymbolTableRecord
100
AcDbLinetypeTableRecord
  2
CONTINUOUS
 70
     0
  3
Solid line
 72
    65
 73
     0
 40
0.0
  0
ENDTAB
  0
TABLE
  2
LAYER
  5
5E9
102
{ACAD_XDICTIONARY
360
646
102
}
330
0
100
AcDbSymbolTable
 70
    18
  0
LAYER
  5
5F7
330
5E9
100
AcDbSymbolTableRecord
100
AcDbLayerTableRecord
  2
0
 70
     0
 62
     7
  6
CONTINUOUS
370
    -3
390
5F6
  0
LAYER
  5
610
330
5E9
100
AcDbSymbolTableRecord
100
AcDbLayerTableRecord
  2
TEXT_BUBBLES
 70
     0
 62
     6
  6
CONTINUOUS
370
    -3
390
5F6
  0
LAYER
  5
611
330
5E9
100
AcDbSymbolTableRecord
100
AcDbLayerTableRecord
  2
IMAGE
 70
     0
 62
     7
  6
CONTINUOUS
370
    -3
390
5F6
  0
LAYER
  5
614
330
5E9
100
AcDbSymbolTableRecord
100
AcDbLayerTableRecord
  2
TEXT_LEADERS
 70
     0
 62
    -5
  6
CONTINUOUS
370
    -3
390
5F6
  0
LAYER
  5
615
330
5E9
100
AcDbSymbolTableRecord
100
AcDbLayerTableRecord
  2
OPTION-NOZ-VAN
 70
     0
 62
    -1
  6
CONTINUOUS
370
    -3
390
5F6
  0
LAYER
  5
617
330
5E9
100
AcDbSymbolTableRecord
100
AcDbLayerTableRecord
  2
OPTION-NOZ-PLASTIC
 70
     0
 62
    -1
  6
CONTINUOUS
370
    -3
390
5F6
  0
LAYER
  5
618
330
5E9
100
AcDbSymbolTableRecord
100
AcDbLayerTableRecord
  2
INSTRUCT-OPTION
 70
     0
 62
     7
  6
CONTINUOUS
370
    -3
390
5F6
  0
LAYER
  5
619
330
5E9
100
AcDbSymbolTableRecord
100
AcDbLayerTableRecord
  2
INSTRUCT-CALLOUT
 70
     0
 62
     4
  6
CONTINUOUS
370
    -3
390
5F6
  0
LAYER
  5
61B
330
5E9
100
AcDbSymbolTableRecord
100
AcDbLayerTableRecord
  2
OPTION-NOZ-U-SERIES
 70
     0
 62
    -1
  6
CONTINUOUS
370
    -3
390
5F6
  0
LAYER
  5
620
330
5E9
100
AcDbSymbolTableRecord
100
AcDbLayerTableRecord
  2
OPTION-SAM
 70
     0
 62
     1
  6
CONTINUOUS
370
    -3
390
5F6
  0
LAYER
  5
621
330
5E9
100
AcDbSymbolTableRecord
100
AcDbLayerTableRecord
  2
TEXT-RB-SA-BUBBLES
 70
     0
 62
     1
  6
CONTINUOUS
370
    -3
390
5F6
  0
LAYER
  5
622
330
5E9
100
AcDbSymbolTableRecord
100
AcDbLayerTableRecord
  2
OPTION_RB_SA
 70
     0
 62
     1
  6
CONTINUOUS
370
    -3
390
5F6
  0
LAYER
  5
623
330
5E9
100
AcDbSymbolTableRecord
100
AcDbLayerTableRecord
  2
TEXT-RB-SA-LEADERS
 70
     0
 62
    -1
  6
CONTINUOUS
370
    -3
390
5F6
  0
LAYER
  5
624
330
5E9
100
AcDbSymbolTableRecord
100
AcDbLayerTableRecord
  2
TEXT-SA-LEADERS
 70
     0
 62
    -1
  6
CONTINUOUS
370
    -3
390
5F6
  0
LAYER
  5
625
330
5E9
100
AcDbSymbolTableRecord
100
AcDbLayerTableRecord
  2
TEXT-SA-BUBBLES
 70
     0
 62
    -1
  6
CONTINUOUS
370
    -3
390
5F6
  0
LAYER
  5
626
330
5E9
100
AcDbSymbolTableRecord
100
AcDbLayerTableRecord
  2
OPTION_SA
 70
     0
 62
    -1
  6
CONTINUOUS
370
    -3
390
5F6
  0
LAYER
  5
6AF
330
5E9
100
AcDbSymbolTableRecord
100
AcDbLayerTableRecord
  2
TITLE
 70
     0
 62
     4
  6
CONTINUOUS
370
    -3
390
5F6
  0
LAYER
  5
8A1
330
5E9
100
AcDbSymbolTableRecord
100
AcDbLayerTableRecord
  2
OPTION-NOZ-ROTARY
 70
     0
 62
     1
  6
CONTINUOUS
370
    -3
390
5F6
  0
ENDTAB
  0
TABLE
  2
STYLE
  5
5EA
330
0
100
AcDbSymbolTable
 70
     5
  0
STYLE
  5
5F8
330
5EA
100
AcDbSymbolTableRecord
100
AcDbTextStyleTableRecord
  2
STANDARD
 70
     0
 40
0.0
 41
1.0
 50
0.0
 71
     0
 42
0.2
  3
txt
  4

  0
STYLE
  5
60B
330
5EA
100
AcDbSymbolTableRecord
100
AcDbTextStyleTableRecord
  2
ROMANS
 70
     0
 40
0.0
 41
1.0
 50
0.0
 71
     0
 42
0.1
  3
ROMANS.SHX
  4

  0
STYLE
  5
6B0
330
5EA
100
AcDbSymbolTableRecord
100
AcDbTextStyleTableRecord
  2
L100
 70
     0
 40
0.1
 41
1.0
 50
0.0
 71
     0
 42
0.1
  3
romans.shx
  4

  0
STYLE
  5
6B1
330
5EA
100
AcDbSymbolTableRecord
100
AcDbTextStyleTableRecord
  2
L200
 70
     0
 40
0.2
 41
1.0
 50
0.0
 71
     0
 42
0.081
  3
ARIAL.TTF
  4

1001
ACAD
1000
Arial
1071
       34
  0
STYLE
  5
6B2
330
5EA
100
AcDbSymbolTableRecord
100
AcDbTextStyleTableRecord
  2
L80
 70
     0
 40
0.08
 41
1.0
 50
0.0
 71
     0
 42
0.08
  3
ROMANS
  4

  0
ENDTAB
  0
TABLE
  2
VIEW
  5
5ED
330
0
100
AcDbSymbolTable
 70
     0
  0
ENDTAB
  0
TABLE
  2
UCS
  5
5EE
330
0
100
AcDbSymbolTable
 70
     0
  0
ENDTAB
  0
TABLE
  2
APPID
  5
5F0
330
0
100
AcDbSymbolTable
 70
     3
  0
APPID
  5
5F9
330
5F0
100
AcDbSymbolTableRecord
100
AcDbRegAppTableRecord
  2
ACAD
 70
     0
  0
APPID
  5
60E
330
5F0
100
AcDbSymbolTableRecord
100
AcDbRegAppTableRecord
  2
RAK
 70
     0
  0
APPID
  5
6B3
330
5F0
100
AcDbSymbolTableRecord
100
AcDbRegAppTableRecord
  2
DCO15
 70
     0
  0
ENDTAB
  0
TABLE
  2
DIMSTYLE
  5
5F1
330
0
100
AcDbSymbolTable
 70
     1
100
AcDbDimStyleTable
 71
     0
  0
DIMSTYLE
105
60F
330
5F1
100
AcDbSymbolTableRecord
100
AcDbDimStyleTableRecord
  2
STANDARD
 70
     0
279
     2
340
5F8
  0
ENDTAB
  0
TABLE
  2
BLOCK_RECORD
  5
5E8
330
0
100
AcDbSymbolTable
 70
     2
  0
BLOCK_RECORD
  5
605
330
5E8
100
AcDbSymbolTableRecord
100
AcDbBlockTableRecord
  2
*Model_Space
340
608
  0
BLOCK_RECORD
  5
601
330
5E8
100
AcDbSymbolTableRecord
100
AcDbBlockTableRecord
  2
*Paper_Space
340
604
  0
BLOCK_RECORD
  5
6B4
330
5E8
100
AcDbSymbolTableRecord
100
AcDbBlockTableRecord
  2
titleblock
340
0
102
{BLKREFS
331
6C3
102
}
  0
BLOCK_RECORD
  5
70D
330
5E8
100
AcDbSymbolTableRecord
100
AcDbBlockTableRecord
  2
*X1
340
0
102
{BLKREFS
331
881
102
}
  0
ENDTAB
  0
ENDSEC
  0
SECTION
  2
BLOCKS
  0
BLOCK
  5
630
330
605
100
AcDbEntity
  8
0
100
AcDbBlockBegin
  2
*Model_Space
 70
     0
 10
0.0
 20
0.0
 30
0.0
  3
*Model_Space
  1

  0
ENDBLK
  5
631
330
605
100
AcDbEntity
  8
0
100
AcDbBlockEnd
  0
BLOCK
  5
62E
330
601
100
AcDbEntity
 67
     1
  8
0
100
AcDbBlockBegin
  2
*Paper_Space
 70
     0
 10
0.0
 20
0.0
 30
0.0
  3
*Paper_Space
  1

  0
ENDBLK
  5
62F
330
601
100
AcDbEntity
 67
     1
  8
0
100
AcDbBlockEnd
  0
BLOCK
  5
6C0
330
6B4
100
AcDbEntity
  8
0
100
AcDbBlockBegin
  2
titleblock
 70
     2
 10
0.0
 20
0.0
 30
0.0
  3
titleblock
  1

  0
LWPOLYLINE
  5
6B5
330
6B4
100
AcDbEntity
  8
IMAGE
100
AcDbPolyline
 90
        4
 70
     1
 43
0.0
 10
0.0
 20
0.0
 10
16.48999999999999
 20
0.0000000000000001
 10
16.48999999999999
 20
10.44
 10
0.0
 20
10.44
  0
ATTDEF
  5
6B6
330
6B4
100
AcDbEntity
  8
TITLE
100
AcDbText
 10
0.5055556038023421
 20
0.7842270964783673
 30
0.0
 40
0.2
  1
D
  7
L200
 72
     4
 11
0.6064423705144839
 21
0.8842270964783672
 31
0.0
100
AcDbAttributeDefinition
  3
#
  2
D
 70
     0
  0
ATTDEF
  5
6B7
330
6B4
100
AcDbEntity
  8
TITLE
100
AcDbText
 10
1.231442370514484
 20
1.34371230274675
 30
0.0
 40
0.2
  1

  7
L200
100
AcDbAttributeDefinition
  3
DETAIL TITLE TOP LINE
  2
TITLE1
 70
     0
  0
ATTDEF
  5
6B8
330
6B4
100
AcDbEntity
  8
TITLE
100
AcDbText
 10
1.231442370514484
 20
0.9842270964783674
 30
0.0
 40
0.2
  1
TITLE
  7
L200
100
AcDbAttributeDefinition
  3
DETAIL TITLE TOP 2ND LINE
  2
TITLE2
 70
     0
  0
ATTDEF
  5
6B9
330
6B4
100
AcDbEntity
  8
TITLE
100
AcDbText
 10
2.713645751168312
 20
0.5927927664583189
 30
0.0
 40
0.2
  1
TITLE2
  7
L200
100
AcDbAttributeDefinition
  3
DETAIL TITLE BOTTOM 1
  2
TITLE3
 70
     0
  0
ATTDEF
  5
6BA
330
6B4
100
AcDbEntity
  8
TITLE
100
AcDbText
 10
2.713645751168312
 20
0.2692560808167741
 30
0.0
 40
0.2
  1

  7
L200
100
AcDbAttributeDefinition
  3
DETAIL TITLE BOTTOM 2
  2
TITLE4
 70
     0
  0
ATTDEF
  5
6BB
330
6B4
100
AcDbEntity
  8
TITLE
 62
     7
100
AcDbText
 10
8.177214829966379
 20
0.9696027915446398
 30
0.0
 40
0.08
  1
-
  7
L80
 72
     2
 11
8.261024353775903
 21
0.9696027915446398
 31
0.0
100
AcDbAttributeDefinition
  3
REVISION DATE
  2
REVISED
 70
     0
  0
ATTDEF
  5
6BC
330
6B4
100
AcDbEntity
  8
TITLE
 62
     7
100
AcDbText
 10
0.2639423705144838
 20
0.0847116480207214
 30
0.0
 40
0.08
  1
-
  7
L80
100
AcDbAttributeDefinition
  3
DWG-NAME
  2
DWG-NAME
 70
     0
  0
LWPOLYLINE
  5
6BD
330
6B4
100
AcDbEntity
  8
TITLE
 62
     3
100
AcDbPolyline
 90
        2
 70
     1
 43
0.03
 10
0.6064423705144839
 20
0.5417270964783675
 42
0.9999999999999998
 10
0.6064423705144839
 20
1.226727096478367
 42
0.9999999999999998
  0
ATTDEF
  5
6BE
330
6B4
100
AcDbEntity
  8
TITLE
 62
     7
100
AcDbText
 10
1.231442370514484
 20
0.7005637793954894
 30
0.0
 40
0.1
  1
N.T.S.
  7
L100
100
AcDbAttributeDefinition
  3
SCALE
  2
SCALE
 70
     0
  0
LWPOLYLINE
  5
6BF
330
6B4
100
AcDbEntity
  8
TITLE
 62
     3
100
AcDbPolyline
 90
        2
 70
     0
 43
0.04
 39
0.03
 10
0.9489423705144833
 20
0.8842270964783672
 10
8.261024353775903
 20
0.8842270964783672
  0
ENDBLK
  5
6C1
330
6B4
100
AcDbEntity
  8
0
100
AcDbBlockEnd
  0
BLOCK
  5
74E
330
70D
100
AcDbEntity
  8
0
100
AcDbBlockBegin
  2
*X1
 70
     1
 10
0.0
 20
0.0
 30
0.0
  3
*X1
  1

  0
LINE
  5
70E
330
70D
100
AcDbEntity
  8
0
 62
     0
100
AcDbLine
 10
3.217335854398788
 20
4.984353521001493
 30
0.0
 11
3.214773642343438
 21
4.986915733056844
 31
0.0
  0
LINE
  5
70F
330
70D
100
AcDbEntity
  8
0
 62
     0
100
AcDbLine
 10
2.987526150513161
 20
4.984353521001493
 30
0.0
 11
2.984963938457811
 21
4.986915733056844
 31
0.0
  0
LINE
  5
710
330
70D
100
AcDbEntity
  8
0
 62
     0
100
AcDbLine
 10
3.210980951839534
 20
4.760898719675121
 30
0.0
 11
3.102431002455976
 21
4.869448669058679
 31
0.0
  0
LINE
  5
711
330
70D
100
AcDbEntity
  8
0
 62
     0
100
AcDbLine
 10
2.757716446627533
 20
4.984353521001493
 30
0.0
 11
2.755154234572183
 21
4.986915733056844
 31
0.0
  0
LINE
  5
712
330
70D
100
AcDbEntity
  8
0
 62
     0
100
AcDbLine
 10
2.957472235697675
 20
4.784597731931351
 30
0.0
 11
2.872621298570347
 21
4.869448669058679
 31
0.0
  0
LINE
  5
713
330
70D
100
AcDbEntity
  8
0
 62
     0
100
AcDbLine
 10
2.748119821008041
 20
4.764140442735357
 30
0.0
 11
2.642811594684719
 21
4.869448669058678
 31
0.0
  0
LINE
  5
714
330
70D
100
AcDbEntity
  8
0
 62
     0
100
AcDbLine
 10
2.298097038856278
 20
4.984353521001493
 30
0.0
 11
2.295534826800928
 21
4.986915733056843
 31
0.0
  0
LINE
  5
715
330
70D
100
AcDbEntity
  8
0
 62
     0
100
AcDbLine
 10
2.06828733497065
 20
4.984353521001493
 30
0.0
 11
2.0657251229153
 21
4.986915733056843
 31
0.0
  0
LINE
  5
716
330
70D
100
AcDbEntity
  8
0
 62
     0
100
AcDbLine
 10
2.235506779212947
 20
4.817134076759195
 30
0.0
 11
2.183192186913463
 21
4.869448669058678
 31
0.0
  0
LINE
  5
717
330
70D
100
AcDbEntity
  8
0
 62
     0
100
AcDbLine
 10
2.272695501760878
 20
4.779945354211264
 30
0.0
 11
2.271914515072758
 21
4.780726340899384
 31
0.0
  0
LINE
  5
718
330
70D
100
AcDbEntity
  8
0
 62
     0
100
AcDbLine
 10
1.838477631085021
 20
4.984353521001493
 30
0.0
 11
1.835915419029672
 21
4.986915733056843
 31
0.0
  0
LINE
  5
719
330
70D
100
AcDbEntity
  8
0
 62
     0
100
AcDbLine
 10
2.04801183768941
 20
4.774819314397105
 30
0.0
 11
1.953382483027835
 21
4.869448669058679
 31
0.0
  0
LINE
  5
71A
330
70D
100
AcDbEntity
  8
0
 62
     0
100
AcDbLine
 10
1.608667927199393
 20
4.984353521001493
 30
0.0
 11
1.606105715144043
 21
4.986915733056844
 31
0.0
  0
LINE
  5
71B
330
70D
100
AcDbEntity
  8
0
 62
     0
100
AcDbLine
 10
1.815261950151577
 20
4.777759498049309
 30
0.0
 11
1.723572779142207
 21
4.869448669058679
 31
0.0
  0
LINE
  5
71C
330
70D
100
AcDbEntity
  8
0
 62
     0
100
AcDbLine
 10
3.3773667274765
 20
4.9679537128523
 30
0.0
 11
3.358404707271956
 21
4.986915733056844
 31
0.0
  0
LINE
  5
71D
330
70D
100
AcDbEntity
  8
0
 62
     0
100
AcDbLine
 10
3.174246534920234
 20
4.941264201522938
 30
0.0
 11
3.128595003386329
 21
4.986915733056843
 31
0.0
  0
LINE
  5
71E
330
70D
100
AcDbEntity
  8
0
 62
     0
100
AcDbLine
 10
2.944436831034606
 20
4.941264201522938
 30
0.0
 11
2.8987852995007
 21
4.986915733056844
 31
0.0
  0
LINE
  5
71F
330
70D
100
AcDbEntity
  8
0
 62
     0
100
AcDbLine
 10
3.137984074721356
 20
4.747716957836187
 30
0.0
 11
3.05934168297742
 21
4.826359349580124
 31
0.0
  0
LINE
  5
720
330
70D
100
AcDbEntity
  8
0
 62
     0
100
AcDbLine
 10
2.714627127148977
 20
4.941264201522939
 30
0.0
 11
2.668975595615072
 21
4.986915733056844
 31
0.0
  0
LINE
  5
721
330
70D
100
AcDbEntity
  8
0
 62
     0
100
AcDbLine
 10
2.877220588344105
 20
4.778670740327811
 30
0.0
 11
2.829531979091791
 21
4.826359349580124
 31
0.0
  0
LINE
  5
722
330
70D
100
AcDbEntity
  8
0
 62
     0
100
AcDbLine
 10
2.681418932997962
 20
4.744662691788326
 30
0.0
 11
2.607323715890327
 21
4.81875790889596
 31
0.0
  0
LINE
  5
723
330
70D
100
AcDbEntity
  8
0
 62
     0
100
AcDbLine
 10
2.255007719377722
 20
4.941264201522938
 30
0.0
 11
2.209356187843817
 21
4.986915733056843
 31
0.0
  0
LINE
  5
724
330
70D
100
AcDbEntity
  8
0
 62
     0
100
AcDbLine
 10
2.025198015492093
 20
4.941264201522939
 30
0.0
 11
1.979546483958187
 21
4.986915733056844
 31
0.0
  0
LINE
  5
725
330
70D
100
AcDbEntity
  8
0
 62
     0
100
AcDbLine
 10
2.252807724325373
 20
4.713654492689659
 30
0.0
 11
2.140102867434907
 21
4.826359349580124
 31
0.0
  0
LINE
  5
726
330
70D
100
AcDbEntity
  8
0
 62
     0
100
AcDbLine
 10
1.795388311606465
 20
4.941264201522939
 30
0.0
 11
1.74973678007256
 21
4.986915733056844
 31
0.0
  0
LINE
  5
727
330
70D
100
AcDbEntity
  8
0
 62
     0
100
AcDbLine
 10
1.958270617415702
 20
4.778381895713702
 30
0.0
 11
1.910293163549279
 21
4.826359349580124
 31
0.0
  0
LINE
  5
728
330
70D
100
AcDbEntity
  8
0
 62
     0
100
AcDbLine
 10
1.565578607720838
 20
4.941264201522939
 30
0.0
 11
1.519927076186932
 21
4.986915733056844
 31
0.0
  0
LINE
  5
729
330
70D
100
AcDbEntity
  8
0
 62
     0
100
AcDbLine
 10
1.751340147781165
 20
4.755502661462611
 30
0.0
 11
1.680483459663651
 21
4.826359349580124
 31
0.0
  0
LINE
  5
72A
330
70D
100
AcDbEntity
  8
0
 62
     0
100
AcDbLine
 10
3.34051326673864
 20
4.918628534633048
 30
0.0
 11
3.272226068314846
 21
4.986915733056843
 31
0.0
  0
LINE
  5
72B
330
70D
100
AcDbEntity
  8
0
 62
     0
100
AcDbLine
 10
3.131157215441679
 20
4.898174882044382
 30
0.0
 11
3.042416364429218
 21
4.986915733056843
 31
0.0
  0
LINE
  5
72C
330
70D
100
AcDbEntity
  8
0
 62
     0
100
AcDbLine
 10
3.247210640816111
 20
4.782121456669949
 30
0.0
 11
3.246062067384493
 21
4.783270030101568
 31
0.0
  0
LINE
  5
72D
330
70D
100
AcDbEntity
  8
0
 62
     0
100
AcDbLine
 10
2.901347511556051
 20
4.898174882044383
 30
0.0
 11
2.81260666054359
 21
4.986915733056844
 31
0.0
  0
LINE
  5
72E
330
70D
100
AcDbEntity
  8
0
 62
     0
100
AcDbLine
 10
3.018661599592814
 20
4.78086079400762
 30
0.0
 11
3.016252363498865
 21
4.783270030101569
 31
0.0
  0
LINE
  5
72F
330
70D
100
AcDbEntity
  8
0
 62
     0
100
AcDbLine
 10
2.671537807670423
 20
4.898174882044383
 30
0.0
 11
2.582796956657963
 21
4.986915733056844
 31
0.0
  0
LINE
  5
730
330
70D
100
AcDbEntity
  8
0
 62
     0
100
AcDbLine
 10
2.794879469169602
 20
4.774833220545203
 30
0.0
 11
2.786442659613237
 21
4.783270030101569
 31
0.0
  0
LINE
  5
731
330
70D
100
AcDbEntity
  8
0
 62
     0
100
AcDbLine
 10
2.628022603063588
 20
4.711880382765589
 30
0.0
 11
2.570044214100057
 21
4.769858771729119
 31
0.0
  0
LINE
  5
732
330
70D
100
AcDbEntity
  8
0
 62
     0
100
AcDbLine
 10
2.211918399899167
 20
4.898174882044383
 30
0.0
 11
2.123177548886706
 21
4.986915733056844
 31
0.0
  0
LINE
  5
733
330
70D
100
AcDbEntity
  8
0
 62
     0
100
AcDbLine
 10
1.982108696013539
 20
4.898174882044383
 30
0.0
 11
1.893367845001078
 21
4.986915733056844
 31
0.0
  0
LINE
  5
734
330
70D
100
AcDbEntity
  8
0
 62
     0
100
AcDbLine
 10
2.122497236568036
 20
4.757786341489886
 30
0.0
 11
2.097013547956353
 21
4.783270030101569
 31
0.0
  0
LINE
  5
735
330
70D
100
AcDbEntity
  8
0
 62
     0
100
AcDbLine
 10
1.752298992127911
 20
4.898174882044383
 30
0.0
 11
1.66355814111545
 21
4.986915733056844
 31
0.0
  0
LINE
  5
736
330
70D
100
AcDbEntity
  8
0
 62
     0
100
AcDbLine
 10
1.522489288242284
 20
4.898174882044382
 30
0.0
 11
1.503149324339786
 21
4.917514845946879
 31
0.0
  0
LINE
  5
737
330
70D
100
AcDbEntity
  8
0
 62
     0
100
AcDbLine
 10
1.665917421404524
 20
4.754746748882141
 30
0.0
 11
1.637394140185097
 21
4.783270030101568
 31
0.0
  0
LINE
  5
738
330
70D
100
AcDbEntity
  8
0
 62
     0
100
AcDbLine
 10
3.13115721544168
 20
4.869448669058679
 30
0.0
 11
3.246062067384494
 21
4.984353521001493
 31
0.0
  0
LINE
  5
739
330
70D
100
AcDbEntity
  8
0
 62
     0
100
AcDbLine
 10
2.901347511556051
 20
4.86944866905868
 30
0.0
 11
3.016252363498865
 21
4.984353521001494
 31
0.0
  0
LINE
  5
73A
330
70D
100
AcDbEntity
  8
0
 62
     0
100
AcDbLine
 10
2.671537807670423
 20
4.869448669058678
 30
0.0
 11
2.786442659613237
 21
4.984353521001493
 31
0.0
  0
LINE
  5
73B
330
70D
100
AcDbEntity
  8
0
 62
     0
100
AcDbLine
 10
2.548279034198668
 20
4.975999599472553
 30
0.0
 11
2.556632955727609
 21
4.984353521001493
 31
0.0
  0
LINE
  5
73C
330
70D
100
AcDbEntity
  8
0
 62
     0
100
AcDbLine
 10
2.211918399899167
 20
4.869448669058679
 30
0.0
 11
2.268012455122642
 21
4.925542724282155
 31
0.0
  0
LINE
  5
73D
330
70D
100
AcDbEntity
  8
0
 62
     0
100
AcDbLine
 10
1.98210869601354
 20
4.86944866905868
 30
0.0
 11
2.097013547956354
 21
4.984353521001494
 31
0.0
  0
LINE
  5
73E
330
70D
100
AcDbEntity
  8
0
 62
     0
100
AcDbLine
 10
1.752298992127911
 20
4.869448669058679
 30
0.0
 11
1.867203844070725
 21
4.984353521001493
 31
0.0
  0
LINE
  5
73F
330
70D
100
AcDbEntity
  8
0
 62
     0
100
AcDbLine
 10
1.531453634589299
 20
4.878413015405695
 30
0.0
 11
1.637394140185097
 21
4.984353521001493
 31
0.0
  0
LINE
  5
740
330
70D
100
AcDbEntity
  8
0
 62
     0
100
AcDbLine
 10
3.174246534920235
 20
4.826359349580124
 30
0.0
 11
3.289151386863049
 21
4.941264201522939
 31
0.0
  0
LINE
  5
741
330
70D
100
AcDbEntity
  8
0
 62
     0
100
AcDbLine
 10
2.944436831034606
 20
4.826359349580124
 30
0.0
 11
3.05934168297742
 21
4.941264201522939
 31
0.0
  0
LINE
  5
742
330
70D
100
AcDbEntity
  8
0
 62
     0
100
AcDbLine
 10
2.714627127148979
 20
4.826359349580124
 30
0.0
 11
2.829531979091793
 21
4.941264201522939
 31
0.0
  0
LINE
  5
743
330
70D
100
AcDbEntity
  8
0
 62
     0
100
AcDbLine
 10
2.577983160817927
 20
4.919525087134701
 30
0.0
 11
2.599722275206165
 21
4.941264201522939
 31
0.0
  0
LINE
  5
744
330
70D
100
AcDbEntity
  8
0
 62
     0
100
AcDbLine
 10
2.025198015492095
 20
4.826359349580125
 30
0.0
 11
2.140102867434909
 21
4.941264201522939
 31
0.0
  0
LINE
  5
745
330
70D
100
AcDbEntity
  8
0
 62
     0
100
AcDbLine
 10
1.795388311606467
 20
4.826359349580125
 30
0.0
 11
1.910293163549281
 21
4.941264201522939
 31
0.0
  0
LINE
  5
746
330
70D
100
AcDbEntity
  8
0
 62
     0
100
AcDbLine
 10
1.565916017993621
 20
4.826696759852906
 30
0.0
 11
1.680483459663653
 21
4.941264201522939
 31
0.0
  0
LINE
  5
747
330
70D
100
AcDbEntity
  8
0
 62
     0
100
AcDbLine
 10
3.21733585439879
 20
4.78327003010157
 30
0.0
 11
3.309175799268931
 21
4.875109974971711
 31
0.0
  0
LINE
  5
748
330
70D
100
AcDbEntity
  8
0
 62
     0
100
AcDbLine
 10
2.993780297657751
 20
4.789524177246159
 30
0.0
 11
3.102431002455976
 21
4.898174882044384
 31
0.0
  0
LINE
  5
749
330
70D
100
AcDbEntity
  8
0
 62
     0
100
AcDbLine
 10
2.757716446627534
 20
4.78327003010157
 30
0.0
 11
2.872621298570348
 21
4.898174882044384
 31
0.0
  0
LINE
  5
74A
330
70D
100
AcDbEntity
  8
0
 62
     0
100
AcDbLine
 10
2.607323715890326
 20
4.862687003249989
 30
0.0
 11
2.64281159468472
 21
4.898174882044383
 31
0.0
  0
LINE
  5
74B
330
70D
100
AcDbEntity
  8
0
 62
     0
100
AcDbLine
 10
2.06828733497065
 20
4.78327003010157
 30
0.0
 11
2.183192186913464
 21
4.898174882044384
 31
0.0
  0
LINE
  5
74C
330
70D
100
AcDbEntity
  8
0
 62
     0
100
AcDbLine
 10
1.842424939642478
 20
4.787217338659026
 30
0.0
 11
1.953382483027836
 21
4.898174882044383
 31
0.0
  0
LINE
  5
74D
330
70D
100
AcDbEntity
  8
0
 62
     0
100
AcDbLine
 10
1.608667927199394
 20
4.78327003010157
 30
0.0
 11
1.723572779142208
 21
4.898174882044384
 31
0.0
  0
ENDBLK
  5
74F
330
70D
100
AcDbEntity
  8
0
100
AcDbBlockEnd
  0
ENDSEC
  0
SECTION
  2
ENTITIES
  0
CIRCLE
  5
103
330
605
100
AcDbEntity
  8
TEXT_BUBBLES
100
AcDbCircle
 10
5.225071284975374
 20
5.282049093750145
 30
0.0
 40
0.15625
  0
TEXT
  5
104
330
605
100
AcDbEntity
  8
TEXT_BUBBLES
100
AcDbText
 10
5.174476046880136
 20
5.219549093750145
 30
0.0
 40
0.125
  1
1
  7
ROMANS
 72
     4
 11
5.225071284975374
 21
5.282049093750145
 31
0.0
100
AcDbText
  0
CIRCLE
  5
105
330
605
100
AcDbEntity
  8
TEXT_BUBBLES
100
AcDbCircle
 10
5.225071284975374
 20
4.930378453871421
 30
0.0
 40
0.15625
  0
TEXT
  5
106
330
605
100
AcDbEntity
  8
TEXT_BUBBLES
100
AcDbText
 10
5.165547475451565
 20
4.867878453871421
 30
0.0
 40
0.125
  1
2
  7
ROMANS
 72
     4
 11
5.225071284975374
 21
4.930378453871421
 31
0.0
100
AcDbText
  0
TEXT
  5
120
330
605
100
AcDbEntity
  8
TEXT-SA-BUBBLES
100
AcDbText
 10
0.6563833327298041
 20
3.834577039508247
 30
0.0
 40
0.125
  1
3
  7
ROMANS
 72
     4
 11
0.7159071422536137
 21
3.897077039508247
 31
0.0
100
AcDbText
  0
CIRCLE
  5
121
330
605
100
AcDbEntity
  8
TEXT-SA-BUBBLES
100
AcDbCircle
 10
0.7159071422536137
 20
3.897077039508247
 30
0.0
 40
0.15625
  0
TEXT
  5
122
330
605
100
AcDbEntity
  8
TEXT_BUBBLES
100
AcDbText
 10
0.6552931252108375
 20
4.281012797173151
 30
0.0
 40
0.125
  1
2
  7
ROMANS
 72
     4
 11
0.714816934734647
 21
4.343512797173151
 31
0.0
100
AcDbText
  0
CIRCLE
  5
123
330
605
100
AcDbEntity
  8
TEXT_BUBBLES
100
AcDbCircle
 10
0.714816934734647
 20
4.343512797173151
 30
0.0
 40
0.15625
  0
CIRCLE
  5
128
330
605
100
AcDbEntity
  8
TEXT_BUBBLES
100
AcDbCircle
 10
0.7148040234009426
 20
4.727611429292699
 30
0.0
 40
0.15625
  0
TEXT
  5
129
330
605
100
AcDbEntity
  8
TEXT_BUBBLES
100
AcDbText
 10
0.6642087853057044
 20
4.665111429292699
 30
0.0
 40
0.125
  1
1
  7
ROMANS
 72
     4
 11
0.7148040234009426
 21
4.727611429292699
 31
0.0
100
AcDbText
  0
TEXT
  5
188
330
605
100
AcDbEntity
  8
TEXT_BUBBLES
100
AcDbText
 10
5.439424070777777
 20
5.2188135
 30
0.0
 40
0.125
  1
FINISH GRADE/TOP OF MULCH
  7
ROMANS
100
AcDbText
  0
TEXT
  5
18A
330
605
100
AcDbEntity
  8
TEXT_BUBBLES
100
AcDbText
 10
5.439424070777777
 20
4.6938135
 30
0.0
 40
0.125
  1
  RAIN BIRD US-400
  7
ROMANS
100
AcDbText
  0
TEXT
  5
18B
330
605
100
AcDbEntity
  8
TEXT_BUBBLES
100
AcDbText
 10
5.439424070777777
 20
4.868813499999999
 30
0.0
 40
0.125
  1
POP-UP SPRAY SPRINKLER:
  7
ROMANS
100
AcDbText
  0
TEXT
  5
190
330
605
100
AcDbEntity
  8
OPTION-NOZ-VAN
100
AcDbText
 10
5.43942406907183
 20
4.516133253964272
 30
0.0
 40
0.125
  1
  WITH VAN NOZZLE
  7
ROMANS
100
AcDbText
  0
TEXT
  5
191
330
605
100
AcDbEntity
  8
OPTION-NOZ-PLASTIC
100
AcDbText
 10
5.43942406907183
 20
4.516133253964272
 30
0.0
 40
0.125
  1
  WITH PLASTIC MPR NOZZLE
  7
ROMANS
100
AcDbText
  0
TEXT
  5
192
330
605
100
AcDbEntity
  8
INSTRUCT-OPTION
100
AcDbText
 10
11.62539625837002
 20
5.368175112874062
 30
0.0
 40
0.125
  1
%%uNOZZLES  AND OTHER OPTIONAL FEATURES%%u
  7
ROMANS
100
AcDbText
  0
TEXT
  5
193
330
605
100
AcDbEntity
  8
INSTRUCT-OPTION
100
AcDbText
 10
11.62539625837002
 20
5.193175112874062
 30
0.0
 40
0.125
  1
CHOOSE ONE OF THE FOLLOWING NOZZLES
  7
ROMANS
100
AcDbText
  0
TEXT
  5
194
330
605
100
AcDbEntity
  8
INSTRUCT-OPTION
100
AcDbText
 10
11.62539625837002
 20
5.018175112874061
 30
0.0
 40
0.125
  1
BY TURNING ON THE APPROPRIATE LAYER:
  7
ROMANS
100
AcDbText
  0
TEXT
  5
197
330
605
100
AcDbEntity
  8
INSTRUCT-OPTION
100
AcDbText
 10
11.62539625837002
 20
4.732103714371772
 30
0.0
 40
0.125
  1
  OPTION-NOZ-PLASTIC
  7
ROMANS
100
AcDbText
  0
TEXT
  5
198
330
605
100
AcDbEntity
  8
INSTRUCT-OPTION
100
AcDbText
 10
11.62539625837002
 20
4.557103714371772
 30
0.0
 40
0.125
  1
  OPTION-NOZ-U-SERIES
  7
ROMANS
100
AcDbText
  0
TEXT
  5
19B
330
605
100
AcDbEntity
  8
INSTRUCT-OPTION
100
AcDbText
 10
11.81310802971139
 20
5.692991287175126
 30
0.0
 40
0.125
  1
CHOOSING NOZZLES AND OPTIONAL FEATURES
  7
ROMANS
100
AcDbText
  0
TEXT
  5
1A2
330
605
100
AcDbEntity
  8
INSTRUCT-OPTION
100
AcDbText
 10
11.62539625837002
 20
-0.1431700682783568
 30
0.0
 40
0.125
  1
TO TURN OFF THIS INSTRUCTION BOX, TURN OFF
  7
ROMANS
100
AcDbText
  0
TEXT
  5
1A3
330
605
100
AcDbEntity
  8
INSTRUCT-OPTION
100
AcDbText
 10
11.62539625837002
 20
-0.3181700682783575
 30
0.0
 40
0.125
  1
LAYER "INSTRUCT-OPTION".
  7
ROMANS
100
AcDbText
  0
TEXT
  5
22F
330
605
100
AcDbEntity
  8
OPTION-NOZ-U-SERIES
100
AcDbText
 10
5.43942406907183
 20
4.516133253964272
 30
0.0
 40
0.125
  1
  WITH U-SERIES NOZZLE
  7
ROMANS
100
AcDbText
  0
TEXT
  5
230
330
605
100
AcDbEntity
  8
INSTRUCT-OPTION
100
AcDbText
 10
11.62539625837002
 20
4.382103714371771
 30
0.0
 40
0.125
  1
  OPTION-NOZ-VAN
  7
ROMANS
100
AcDbText
  0
TEXT
  5
3DE
330
605
100
AcDbEntity
  8
INSTRUCT-OPTION
100
AcDbText
 10
11.62539625837002
 20
3.445378092517269
 30
0.0
 40
0.125
  1
  OPTION-SAM
  7
ROMANS
100
AcDbText
  0
TEXT
  5
3E1
330
605
100
AcDbEntity
  8
INSTRUCT-OPTION
100
AcDbText
 10
11.62539625837002
 20
3.795378092517269
 30
0.0
 40
0.125
  1
%%uSAM OPTION%%u
  7
ROMANS
100
AcDbText
  0
TEXT
  5
3E9
330
605
100
AcDbEntity
  8
TEXT_LEADERS
100
AcDbText
 10
5.43942406907183
 20
4.868813499999999
 30
0.0
 40
0.125
  1
POP-UP SPRAY SPRINKLER:
  7
ROMANS
100
AcDbText
  0
TEXT
  5
3ED
330
605
100
AcDbEntity
  8
OPTION-SAM
100
AcDbText
 10
5.439424070777777
 20
4.6938135
 30
0.0
 40
0.125
  1
                 -SAM
  7
ROMANS
100
AcDbText
  0
ARC
  5
458
330
605
100
AcDbEntity
  8
OPTION_SA
100
AcDbCircle
 10
2.554768685371525
 20
3.57717768227199
 30
0.0
 40
0.0469218235072326
100
AcDbArc
 50
180.0
 51
270.0
  0
LINE
  5
459
330
605
100
AcDbEntity
  8
OPTION_SA
100
AcDbLine
 10
2.341013711616355
 20
3.676092023570584
 30
0.0
 11
2.341013711616355
 21
3.411785610772284
 31
0.0
  0
LINE
  5
45A
330
605
100
AcDbEntity
  8
OPTION_SA
100
AcDbLine
 10
2.50784686186429
 20
3.676092023570584
 30
0.0
 11
2.50784686186429
 21
3.57717768227199
 31
0.0
  0
LINE
  5
45B
330
605
100
AcDbEntity
  8
OPTION_SA
100
AcDbLine
 10
2.357102574743393
 20
3.655221563714385
 30
0.0
 11
2.492117346598201
 21
3.655221563714385
 31
0.0
  0
LINE
  5
45C
330
605
100
AcDbEntity
  8
OPTION_SA
100
AcDbLine
 10
2.341013711616355
 20
3.630162360176801
 30
0.0
 11
2.50784686186429
 21
3.630162360176801
 31
0.0
  0
LWPOLYLINE
  5
45D
330
605
100
AcDbEntity
  8
OPTION_SA
100
AcDbPolyline
 90
        3
 70
     0
 43
0.0
 10
2.390076101182716
 20
3.368862722740554
 42
0.3551655385017884
 10
2.481863015338797
 20
3.448369219057665
 42
-0.3351985284943452
 10
2.548388952185362
 20
3.527325769254009
 42
-0.5949761929811071
  0
LINE
  5
45E
330
605
100
AcDbEntity
  8
OPTION_SA
100
AcDbLine
 10
2.62957102619568
 20
3.364863787265054
 30
0.0
 11
2.387935535123588
 21
3.364863787265054
 31
0.0
  0
ARC
  5
45F
330
605
100
AcDbEntity
  8
OPTION_SA
100
AcDbCircle
 10
2.713387913766723
 20
0.3764301632604852
 30
0.0
 40
2.969722185911746
100
AcDbArc
 50
61.49072909609822
 51
91.61727251044187
  0
ARC
  5
460
330
605
100
AcDbEntity
  8
OPTION_SA
100
AcDbCircle
 10
2.716783070975338
 20
0.3989311392396511
 30
0.0
 40
3.150132956469122
100
AcDbArc
 50
61.30701558492705
 51
91.57178904497754
  0
LINE
  5
461
330
605
100
AcDbEntity
  8
OPTION_SA
100
AcDbLine
 10
2.629573497695581
 20
3.34496936717124
 30
0.0
 11
2.630376646226803
 21
3.547878832230924
 31
0.0
  0
LINE
  5
462
330
605
100
AcDbEntity
  8
OPTION_SA
100
AcDbLine
 10
2.630306891643147
 20
3.530255858764763
 30
0.0
 11
2.554768685371525
 21
3.530255858764759
 31
0.0
  0
ARC
  5
463
330
605
100
AcDbEntity
  8
OPTION_SA
100
AcDbCircle
 10
2.387935535123588
 20
3.411785610772284
 30
0.0
 40
0.0469218235072326
100
AcDbArc
 50
180.0
 51
270.0
  0
LWPOLYLINE
  5
464
330
605
100
AcDbEntity
  8
OPTION_SA
100
AcDbPolyline
 90
        4
 70
     0
 43
0.0
 10
4.931151525014625
 20
3.110265172353908
 42
-0.5107053858875276
 10
4.931151525014636
 20
3.007004892892846
 42
0.5107053858875159
 10
4.931151525014625
 20
2.906645090219917
 42
0.5397302473450178
 10
4.933077694529441
 20
3.00845513128691
 42
0.5397302473450178
  0
LINE
  5
465
330
605
100
AcDbEntity
  8
OPTION_SA
100
AcDbLine
 10
4.59405500548075
 20
2.906645090219917
 30
0.0
 11
4.931151525014625
 21
2.906645090219917
 31
0.0
  0
LINE
  5
466
330
605
100
AcDbEntity
  8
OPTION_SA
100
AcDbLine
 10
4.59405500548075
 20
3.110265172353908
 30
0.0
 11
4.931151525014625
 21
3.110265172353908
 31
0.0
  0
LINE
  5
467
330
605
100
AcDbEntity
  8
OPTION_SA
100
AcDbLine
 10
3.989236290751133
 20
2.865573229526271
 30
0.0
 11
4.59405500548075
 21
2.865573229526271
 31
0.0
  0
LINE
  5
468
330
605
100
AcDbEntity
  8
OPTION_SA
100
AcDbLine
 10
4.59405500548075
 20
3.154739269408481
 30
0.0
 11
4.22502299979784
 21
3.154739269408476
 31
0.0
  0
ARC
  5
469
330
605
100
AcDbEntity
  8
OPTION_SA
100
AcDbCircle
 10
4.293125524999146
 20
3.010346197633574
 30
0.0
 40
0.1089292628087137
100
AcDbArc
 50
202.3302578892511
 51
100.5273986155575
  0
LINE
  5
46A
330
605
100
AcDbEntity
  8
OPTION_SA
100
AcDbLine
 10
4.336825545224501
 20
3.08273015876107
 30
0.0
 11
4.220319681057286
 21
3.146315003058756
 31
0.0
  0
ARC
  5
46B
330
605
100
AcDbEntity
  8
OPTION_SA
100
AcDbCircle
 10
4.293125524999146
 20
3.010346197633574
 30
0.0
 40
0.0842950537430408
100
AcDbArc
 50
234.4756814862676
 51
62.64469113840124
  0
LINE
  5
46C
330
605
100
AcDbEntity
  8
OPTION_SA
100
AcDbLine
 10
4.283432796131693
 20
3.075653313893016
 30
0.0
 11
4.293125524999146
 21
3.010346197633574
 31
0.0
  0
LINE
  5
46D
330
605
100
AcDbEntity
  8
OPTION_SA
100
AcDbLine
 10
4.293125524999146
 20
3.010346197633574
 30
0.0
 11
4.23578508726106
 21
2.984346121448916
 31
0.0
  0
LINE
  5
46E
330
605
100
AcDbEntity
  8
OPTION_SA
100
AcDbLine
 10
4.130839144655764
 20
2.986043519592719
 30
0.0
 11
4.229212594157832
 21
3.162243387401062
 31
0.0
  0
LINE
  5
46F
330
605
100
AcDbEntity
  8
OPTION_SA
100
AcDbLine
 10
4.59405500548075
 20
2.865573229526271
 30
0.0
 11
4.59405500548075
 21
3.154739269408481
 31
0.0
  0
LINE
  5
470
330
605
100
AcDbEntity
  8
OPTION_SA
100
AcDbLine
 10
3.873299981361334
 20
3.110265172353908
 30
0.0
 11
1.771872203639034
 21
3.110265172353908
 31
0.0
  0
LINE
  5
471
330
605
100
AcDbEntity
  8
OPTION_SA
100
AcDbLine
 10
3.989236290751133
 20
2.906645090219917
 30
0.0
 11
1.771872203639034
 21
2.906645090219917
 31
0.0
  0
CIRCLE
  5
473
330
605
100
AcDbEntity
  8
TEXT-SA-BUBBLES
100
AcDbCircle
 10
3.544656226473287
 20
2.200288984418968
 30
0.0
 40
0.15625
  0
CIRCLE
  5
475
330
605
100
AcDbEntity
  8
TEXT-SA-BUBBLES
100
AcDbCircle
 10
2.862074813803607
 20
2.200562525549352
 30
0.0
 40
0.15625
  0
TEXT
  5
476
330
605
100
AcDbEntity
  8
TEXT-SA-BUBBLES
100
AcDbText
 10
2.799574813803607
 20
2.138062525549352
 30
0.0
 40
0.125
  1
4
  7
ROMANS
 72
     4
 11
2.862074813803607
 21
2.200562525549352
 31
0.0
100
AcDbText
  0
TEXT
  5
478
330
605
100
AcDbEntity
  8
TEXT-SA-BUBBLES
100
AcDbText
 10
3.485132416949478
 20
2.137788984418968
 30
0.0
 40
0.125
  1
5
  7
ROMANS
 72
     4
 11
3.544656226473287
 21
2.200288984418968
 31
0.0
100
AcDbText
  0
LINE
  5
479
330
605
100
AcDbEntity
  8
OPTION_SA
100
AcDbLine
 10
4.252151746558004
 20
2.936792681167699
 30
0.0
 11
4.138282352708557
 21
2.998056558527633
 31
0.0
  0
LINE
  5
47A
330
605
100
AcDbEntity
  8
OPTION_SA
100
AcDbLine
 10
3.989236290751133
 20
3.058120074574373
 30
0.0
 11
3.989236290751133
 21
2.865573229526271
 31
0.0
  0
CIRCLE
  5
480
330
605
100
AcDbEntity
  8
TEXT-SA-BUBBLES
100
AcDbCircle
 10
4.384778708441672
 20
2.200573054000028
 30
0.0
 40
0.15625
  0
TEXT
  5
481
330
605
100
AcDbEntity
  8
TEXT-SA-BUBBLES
100
AcDbText
 10
4.325254898917862
 20
2.138073054000028
 30
0.0
 40
0.125
  1
3
  7
ROMANS
 72
     4
 11
4.384778708441672
 21
2.200573054000028
 31
0.0
100
AcDbText
  0
CIRCLE
  5
482
330
605
100
AcDbEntity
  8
TEXT-SA-BUBBLES
100
AcDbCircle
 10
4.732329996887076
 20
2.200702282429883
 30
0.0
 40
0.15625
  0
TEXT
  5
483
330
605
100
AcDbEntity
  8
TEXT-SA-BUBBLES
100
AcDbText
 10
4.669829996887076
 20
2.138202282429883
 30
0.0
 40
0.125
  1
6
  7
ROMANS
 72
     4
 11
4.732329996887076
 21
2.200702282429883
 31
0.0
100
AcDbText
  0
LWPOLYLINE
  5
484
330
605
100
AcDbEntity
  8
OPTION_SA
100
AcDbPolyline
 90
        4
 70
     0
 43
0.0
 10
1.771872203639034
 20
3.110265172353908
 42
0.5107053858875276
 10
1.771872203639025
 20
3.007004892892846
 42
-0.5107053858875159
 10
1.771872203639034
 20
2.906645090219917
 42
-0.5397302473450178
 10
1.769946034124219
 20
3.00845513128691
 42
-0.5397302473450178
  0
TEXT
  5
485
330
605
100
AcDbEntity
  8
TEXT-SA-BUBBLES
100
AcDbText
 10
5.439424070777777
 20
2.942832213821933
 30
0.0
 40
0.125
  1
  RAIN BIRD MODEL SP-100
  7
ROMANS
100
AcDbText
  0
TEXT
  5
486
330
605
100
AcDbEntity
  8
TEXT-SA-BUBBLES
100
AcDbText
 10
5.439424070777777
 20
3.117832213821932
 30
0.0
 40
0.125
  1
SWING PIPE, 12-INCH LENGTH:
  7
ROMANS
100
AcDbText
  0
CIRCLE
  5
488
330
605
100
AcDbEntity
  8
TEXT-SA-BUBBLES
100
AcDbCircle
 10
5.216455743193403
 20
3.181914738176193
 30
0.0
 40
0.15625
  0
TEXT
  5
489
330
605
100
AcDbEntity
  8
TEXT-SA-BUBBLES
100
AcDbText
 10
5.153955743193403
 20
2.592189035093618
 30
0.0
 40
0.125
  1
6
  7
ROMANS
 72
     4
 11
5.216455743193403
 21
2.654689035093618
 31
0.0
100
AcDbText
  0
CIRCLE
  5
48A
330
605
100
AcDbEntity
  8
TEXT-SA-BUBBLES
100
AcDbCircle
 10
5.216455743193403
 20
2.654689035093618
 30
0.0
 40
0.15625
  0
TEXT
  5
48B
330
605
100
AcDbEntity
  8
TEXT-SA-BUBBLES
100
AcDbText
 10
5.156931933669594
 20
3.119414738176193
 30
0.0
 40
0.125
  1
5
  7
ROMANS
 72
     4
 11
5.216455743193403
 21
3.181914738176193
 31
0.0
100
AcDbText
  0
TEXT
  5
48C
330
605
100
AcDbEntity
  8
TEXT-SA-LEADERS
100
AcDbText
 10
5.43942407
 20
3.29028386
 30
0.0
 40
0.125
  1
  RAIN BIRD MODEL SP-100
  7
ROMANS
100
AcDbText
  0
TEXT
  5
491
330
605
100
AcDbEntity
  8
TEXT-SA-LEADERS
100
AcDbText
 10
5.43942407
 20
2.590283859999999
 30
0.0
 40
0.125
  1
PVC SCH 40 TEE OR ELL
  7
ROMANS
100
AcDbText
  0
TEXT
  5
492
330
605
100
AcDbEntity
  8
TEXT-SA-LEADERS
100
AcDbText
 10
5.43942407
 20
2.06528386
 30
0.0
 40
0.125
  1
  BARB ELBOW:  RAIN BIRD
  7
ROMANS
100
AcDbText
  0
TEXT
  5
49F
330
605
100
AcDbEntity
  8
TEXT-SA-LEADERS
100
AcDbText
 10
5.43942406907183
 20
3.99028386148532
 30
0.0
 40
0.125
  1
  BARB ELBOW:  RAIN BIRD
  7
ROMANS
100
AcDbText
  0
TEXT
  5
4A1
330
605
100
AcDbEntity
  8
TEXT-SA-BUBBLES
100
AcDbText
 10
5.439424070777777
 20
3.992832213821933
 30
0.0
 40
0.125
  1
  BARB ELBOW:  RAIN BIRD
  7
ROMANS
100
AcDbText
  0
CIRCLE
  5
4A4
330
605
100
AcDbEntity
  8
TEXT-SA-BUBBLES
100
AcDbCircle
 10
5.225071284975374
 20
4.230827305395626
 30
0.0
 40
0.15625
  0
TEXT
  5
4A6
330
605
100
AcDbEntity
  8
TEXT-SA-LEADERS
100
AcDbText
 10
5.43942406907183
 20
3.815283861485319
 30
0.0
 40
0.125
  1
  MODEL SBE-050
  7
ROMANS
100
AcDbText
  0
TEXT
  5
4A7
330
605
100
AcDbEntity
  8
TEXT-SA-BUBBLES
100
AcDbText
 10
5.439424070777777
 20
3.817832213821932
 30
0.0
 40
0.125
  1
  MODEL SBE-050
  7
ROMANS
100
AcDbText
  0
TEXT
  5
4A8
330
605
100
AcDbEntity
  8
TEXT-SA-BUBBLES
100
AcDbText
 10
5.153955743193403
 20
3.471113105361398
 30
0.0
 40
0.125
  1
4
  7
ROMANS
 72
     4
 11
5.216455743193403
 21
3.533613105361398
 31
0.0
100
AcDbText
  0
CIRCLE
  5
4A9
330
605
100
AcDbEntity
  8
TEXT-SA-BUBBLES
100
AcDbCircle
 10
5.216455743193403
 20
3.533613105361398
 30
0.0
 40
0.15625
  0
TEXT
  5
4AA
330
605
100
AcDbEntity
  8
TEXT-SA-BUBBLES
100
AcDbText
 10
5.165547475451565
 20
4.168327305395626
 30
0.0
 40
0.125
  1
3
  7
ROMANS
 72
     4
 11
5.225071284975374
 21
4.230827305395626
 31
0.0
100
AcDbText
  0
LINE
  5
516
330
605
100
AcDbEntity
  8
OPTION_RB_SA
100
AcDbLine
 10
2.353907861624235
 20
3.64519929324134
 30
0.0
 11
2.488922633479043
 21
3.64519929324134
 31
0.0
  0
TEXT
  5
517
330
605
100
AcDbEntity
  8
TEXT-RB-SA-BUBBLES
100
AcDbText
 10
5.165547475451566
 20
4.164715680282941
 30
0.0
 40
0.125
  1
3
  7
ROMANS
 72
     4
 11
5.225071284975375
 21
4.227215680282941
 31
0.0
100
AcDbText
  0
TEXT
  5
518
330
605
100
AcDbEntity
  8
TEXT-RB-SA-BUBBLES
100
AcDbText
 10
5.171186826757346
 20
3.816273942987418
 30
0.0
 40
0.125
  1
4
  7
ROMANS
 72
     4
 11
5.233686826757346
 21
3.878773942987418
 31
0.0
100
AcDbText
  0
CIRCLE
  5
519
330
605
100
AcDbEntity
  8
TEXT-RB-SA-BUBBLES
100
AcDbCircle
 10
5.233686826757346
 20
3.878773942987418
 30
0.0
 40
0.15625
  0
CIRCLE
  5
51A
330
605
100
AcDbEntity
  8
TEXT-RB-SA-BUBBLES
100
AcDbCircle
 10
5.225071284975375
 20
4.227215680282941
 30
0.0
 40
0.15625
  0
TEXT
  5
51B
330
605
100
AcDbEntity
  8
TEXT-RB-SA-BUBBLES
100
AcDbText
 10
5.165547475451566
 20
3.287984619701648
 30
0.0
 40
0.125
  1
5
  7
ROMANS
 72
     4
 11
5.225071284975375
 21
3.350484619701648
 31
0.0
100
AcDbText
  0
CIRCLE
  5
51C
330
605
100
AcDbEntity
  8
TEXT-RB-SA-BUBBLES
100
AcDbCircle
 10
5.225071284975375
 20
3.350484619701648
 30
0.0
 40
0.15625
  0
TEXT
  5
51D
330
605
100
AcDbEntity
  8
TEXT-RB-SA-BUBBLES
100
AcDbText
 10
5.44421318
 20
3.28689928
 30
0.0
 40
0.125
  1

  7
ROMANS
100
AcDbText
  0
TEXT
  5
51F
330
605
100
AcDbEntity
  8
TEXT-RB-SA-BUBBLES
100
AcDbText
 10
5.44421318
 20
3.986899279999999
 30
0.0
 40
0.125
  1

  7
ROMANS
100
AcDbText
  0
TEXT
  5
522
330
605
100
AcDbEntity
  8
TEXT-RB-SA-LEADERS
100
AcDbText
 10
5.44284806907183
 20
3.866254450041709
 30
0.0
 40
0.125
  1
SWING ASSEMBLY:
  7
ROMANS
100
AcDbText
  0
LINE
  5
524
330
605
100
AcDbEntity
  8
OPTION_RB_SA
100
AcDbLine
 10
4.508538723989143
 20
2.864722842052094
 30
0.0
 11
4.508538723989143
 21
3.153888881934303
 31
0.0
  0
LINE
  5
525
330
605
100
AcDbEntity
  8
OPTION_RB_SA
100
AcDbLine
 10
4.508538723989143
 20
3.109414784879731
 30
0.0
 11
4.845635243523018
 21
3.109414784879731
 31
0.0
  0
LINE
  5
526
330
605
100
AcDbEntity
  8
OPTION_RB_SA
100
AcDbLine
 10
4.508538723989143
 20
2.90579470274574
 30
0.0
 11
4.845635243523018
 21
2.90579470274574
 31
0.0
  0
LWPOLYLINE
  5
528
330
605
100
AcDbEntity
  8
OPTION_RB_SA
100
AcDbPolyline
 90
        4
 70
     0
 43
0.0
 10
4.845635243523018
 20
3.109414784879731
 42
-0.5107053858875276
 10
4.845635243523028
 20
3.006154505418669
 42
0.5107053858875159
 10
4.845635243523018
 20
2.90579470274574
 42
0.5397302473450178
 10
4.847561413037833
 20
3.007604743812734
 42
0.5397302473450178
  0
TEXT
  5
529
330
605
100
AcDbEntity
  8
TEXT-RB-SA-BUBBLES
100
AcDbText
 10
4.546022584929049
 20
2.137351894955706
 30
0.0
 40
0.125
  1
5
  7
ROMANS
 72
     4
 11
4.605546394452859
 21
2.199851894955706
 31
0.0
100
AcDbText
  0
CIRCLE
  5
52A
330
605
100
AcDbEntity
  8
TEXT-RB-SA-BUBBLES
100
AcDbCircle
 10
4.605546394452859
 20
2.199851894955706
 30
0.0
 40
0.15625
  0
LINE
  5
52E
330
605
100
AcDbEntity
  8
OPTION_RB_SA
100
AcDbLine
 10
2.59304145805856
 20
3.448314611501979
 30
0.0
 11
2.564460863880936
 21
3.457497741266152
 31
0.0
  0
LINE
  5
52F
330
605
100
AcDbEntity
  8
OPTION_RB_SA
100
AcDbLine
 10
2.50813247588498
 20
3.676092023570584
 30
0.0
 11
2.50813247588498
 21
3.417668464961886
 31
0.0
  0
LINE
  5
530
330
605
100
AcDbEntity
  8
OPTION_RB_SA
100
AcDbLine
 10
2.54440488966135
 20
3.28873551697192
 30
0.0
 11
2.48432373223472
 21
3.308407129531635
 31
0.0
  0
LINE
  5
531
330
605
100
AcDbEntity
  8
OPTION_RB_SA
100
AcDbLine
 10
2.538664432556721
 20
3.269900780535248
 30
0.0
 11
2.59782116842218
 21
3.463997088228401
 31
0.0
  0
LINE
  5
533
330
605
100
AcDbEntity
  8
OPTION_RB_SA
100
AcDbLine
 10
4.136728933533905
 20
2.943605823861137
 30
0.0
 11
4.076686830536699
 21
2.961535837491453
 31
0.0
  0
LINE
  5
534
330
605
100
AcDbEntity
  8
OPTION_RB_SA
100
AcDbLine
 10
3.903720009259525
 20
2.984796993664792
 30
0.0
 11
3.903720009259525
 21
2.864722842052094
 31
0.0
  0
LINE
  5
535
330
605
100
AcDbEntity
  8
OPTION_RB_SA
100
AcDbLine
 10
4.131390202442926
 20
3.143772862302153
 30
0.0
 11
4.073053028802558
 21
2.949430309190255
 31
0.0
  0
ARC
  5
536
330
605
100
AcDbEntity
  8
OPTION_RB_SA
100
AcDbCircle
 10
4.20760924350754
 20
3.009495810159396
 30
0.0
 40
0.1267079420559205
100
AcDbArc
 50
204.54630708977
 51
122.199916707569
  0
LINE
  5
537
330
605
100
AcDbEntity
  8
OPTION_RB_SA
100
AcDbLine
 10
4.184466248023362
 20
3.103463413067858
 30
0.0
 11
4.124651985885215
 21
3.121325387946956
 31
0.0
  0
ARC
  5
538
330
605
100
AcDbEntity
  8
OPTION_RB_SA
100
AcDbCircle
 10
4.20760924350754
 20
3.009495810159396
 30
0.0
 40
0.0967755580523473
100
AcDbArc
 50
222.910381779526
 51
103.8358420178157
  0
TEXT
  5
53A
330
605
100
AcDbEntity
  8
TEXT-RB-SA-BUBBLES
100
AcDbText
 10
3.645607131033179
 20
3.822504887556892
 30
0.0
 40
0.125
  1
4
  7
ROMANS
 72
     4
 11
3.708107131033179
 21
3.885004887556892
 31
0.0
100
AcDbText
  0
TEXT
  5
53C
330
605
100
AcDbEntity
  8
TEXT-RB-SA-BUBBLES
100
AcDbText
 10
2.489219491480428
 20
2.137212138075175
 30
0.0
 40
0.125
  1
3
  7
ROMANS
 72
     4
 11
2.548743301004237
 21
2.199712138075175
 31
0.0
100
AcDbText
  0
CIRCLE
  5
53D
330
605
100
AcDbEntity
  8
TEXT-RB-SA-BUBBLES
100
AcDbCircle
 10
2.548743301004237
 20
2.199712138075175
 30
0.0
 40
0.15625
  0
CIRCLE
  5
53F
330
605
100
AcDbEntity
  8
TEXT-RB-SA-BUBBLES
100
AcDbCircle
 10
3.708107131033179
 20
3.885004887556892
 30
0.0
 40
0.15625
  0
LINE
  5
542
330
605
100
AcDbEntity
  8
OPTION_RB_SA
100
AcDbLine
 10
4.131390202442926
 20
3.143772862302153
 30
0.0
 11
2.59782116842218
 21
3.463997088228399
 31
0.0
  0
LINE
  5
543
330
605
100
AcDbEntity
  8
OPTION_RB_SA
100
AcDbLine
 10
2.53866444060727
 20
3.269900806949516
 30
0.0
 11
4.073053028802558
 21
2.949430309190255
 31
0.0
  0
LINE
  5
545
330
605
100
AcDbEntity
  8
OPTION_RB_SA
100
AcDbLine
 10
4.508538723989143
 20
3.153888881934303
 30
0.0
 11
4.09789757214413
 21
3.1538888819343
 31
0.0
  0
LINE
  5
546
330
605
100
AcDbEntity
  8
OPTION_RB_SA
100
AcDbLine
 10
3.903720009259525
 20
2.864722842052094
 30
0.0
 11
4.508538723989143
 21
2.864722842052094
 31
0.0
  0
LINE
  5
549
330
605
100
AcDbEntity
  8
OPTION_RB_SA
100
AcDbLine
 10
2.333510812177324
 20
3.416979979612612
 30
0.0
 11
2.333510812177324
 21
3.676092023570584
 31
0.0
  0
LWPOLYLINE
  5
54A
330
605
100
AcDbEntity
  8
OPTION_RB_SA
100
AcDbPolyline
 90
        4
 70
     0
 43
0.0
 10
1.7692649468561
 20
3.109414784879731
 42
0.5107053858875276
 10
1.769264946856091
 20
3.006154505418669
 42
-0.5107053858875159
 10
1.7692649468561
 20
2.90579470274574
 42
-0.5397302473450178
 10
1.767338777341284
 20
3.007604743812734
 42
-0.5397302473450178
  0
LINE
  5
54B
330
605
100
AcDbEntity
  8
OPTION_RB_SA
100
AcDbLine
 10
3.307059417837644
 20
3.109414784879731
 30
0.0
 11
1.7692649468561
 21
3.109414784879731
 31
0.0
  0
LINE
  5
54C
330
605
100
AcDbEntity
  8
OPTION_RB_SA
100
AcDbLine
 10
3.903720009259525
 20
2.90579470274574
 30
0.0
 11
1.7692649468561
 21
2.90579470274574
 31
0.0
  0
ARC
  5
54D
330
605
100
AcDbEntity
  8
OPTION_RB_SA
100
AcDbCircle
 10
2.420821644031153
 20
3.438622306491783
 30
0.0
 40
0.1448741092016656
100
AcDbArc
 50
127.0611407962445
 51
52.93885920375984
  0
LINE
  5
54E
330
605
100
AcDbEntity
  8
OPTION_RB_SA
100
AcDbLine
 10
2.333510812177324
 20
3.620140089703756
 30
0.0
 11
2.50813247588498
 21
3.620140089703756
 31
0.0
  0
ARC
  5
54F
330
605
100
AcDbEntity
  8
OPTION_RB_SA
100
AcDbCircle
 10
2.42069222017994
 20
3.450150205070784
 30
0.0
 40
0.0932784099256874
100
AcDbArc
 50
200.8304993914681
 51
339.6213013705943
  0
TEXT
  5
550
330
605
100
AcDbEntity
  8
TEXT-RB-SA-LEADERS
100
AcDbText
 10
5.43942406907183
 20
1.678156838634009
 30
0.0
 40
0.125
  1
PVC LATERAL PIPE
  7
ROMANS
100
AcDbText
  0
TEXT
  5
551
330
605
100
AcDbEntity
  8
TEXT-RB-SA-LEADERS
100
AcDbText
 10
5.44284806907183
 20
3.691254450041709
 30
0.0
 40
0.125
  1
  RAIN BIRD MODEL SA 6050
  7
ROMANS
100
AcDbText
  0
TEXT
  5
552
330
605
100
AcDbEntity
  8
TEXT-RB-SA-LEADERS
100
AcDbText
 10
5.44284806907183
 20
3.341254450041709
 30
0.0
 40
0.125
  1
PVC SCH 40 TEE OR ELL
  7
ROMANS
100
AcDbText
  0
TEXT
  5
651
330
605
100
AcDbEntity
  8
INSTRUCT-OPTION
100
AcDbText
 10
11.62539625837002
 20
2.767950631727521
 30
0.0
 40
0.125
  1
TURNING ON THE APPROPRIATE LAYER:
  7
ROMANS
100
AcDbText
  0
TEXT
  5
652
330
605
100
AcDbEntity
  8
INSTRUCT-OPTION
100
AcDbText
 10
11.62539625837002
 20
2.942950631727521
 30
0.0
 40
0.125
  1
SELECT THE DESIRED SWING ASSEMBLY BY
  7
ROMANS
100
AcDbText
  0
LWPOLYLINE
  5
65A
330
605
100
AcDbEntity
  8
INSTRUCT-OPTION
100
AcDbPolyline
 90
        4
 70
     1
 43
0.0
 10
11.48917304337854
 20
5.628779164299324
 10
16.65614758036674
 20
5.628779164299323
 10
16.65614758036674
 20
0.0455821599609074
 10
11.48917304337854
 20
0.0455821599609079
  0
SOLID
  5
66E
330
605
100
AcDbEntity
  8
INSTRUCT-CALLOUT
100
AcDbTrace
 10
14.55857818389218
 20
6.897723527401057
 30
0.0
 11
14.57438047754652
 21
6.839841859186828
 31
0.0
 12
14.39283432607666
 22
6.821375812330924
 32
0.0
 13
14.39283432607666
 23
6.821375812330924
 33
0.0
  0
LINE
  5
66F
330
605
100
AcDbEntity
  8
INSTRUCT-CALLOUT
100
AcDbLine
 10
14.48930377310038
 20
6.847712968421491
 30
0.0
 11
14.74518519002522
 21
6.917571239886109
 31
0.0
  0
TEXT
  5
670
330
605
100
AcDbEntity
  8
INSTRUCT-CALLOUT
100
AcDbText
 10
14.84532346290454
 20
6.896223046277617
 30
0.0
 40
0.125
  1
1
  7
ROMANS
 72
     4
 11
14.89591870099978
 21
6.958723046277617
 31
0.0
100
AcDbText
  0
CIRCLE
  5
671
330
605
100
AcDbEntity
  8
INSTRUCT-CALLOUT
100
AcDbCircle
 10
14.89591870099978
 20
6.958723046277617
 30
0.0
 40
0.15625
  0
LWPOLYLINE
  5
672
330
605
100
AcDbEntity
  8
INSTRUCT-CALLOUT
100
AcDbPolyline
 90
        4
 70
     1
 43
0.0
 10
11.77718223766584
 20
8.069395033215526
 10
11.77718223766584
 20
6.637909011873282
 10
16.65614758036674
 20
6.637909011873282
 10
16.65614758036674
 20
8.069395033215526
  0
TEXT
  5
673
330
605
100
AcDbEntity
  8
INSTRUCT-CALLOUT
100
AcDbText
 10
11.81620958346113
 20
8.126510520648976
 30
0.0
 40
0.125
  1
CHOOSING EQUIPMENT CALLOUT METHOD
  7
ROMANS
100
AcDbText
  0
TEXT
  5
674
330
605
100
AcDbEntity
  8
INSTRUCT-CALLOUT
100
AcDbText
 10
11.81620958346113
 20
7.776510520648974
 30
0.0
 40
0.125
  1
CHOOSE EITHER LEADERS OR BUBBLE CALLOUTS
  7
ROMANS
100
AcDbText
  0
TEXT
  5
675
330
605
100
AcDbEntity
  8
INSTRUCT-CALLOUT
100
AcDbText
 10
11.81620958346113
 20
7.601510520648977
 30
0.0
 40
0.125
  1
BY TURNING ON THE APPROPRIATE LAYER:
  7
ROMANS
100
AcDbText
  0
TEXT
  5
676
330
605
100
AcDbEntity
  8
INSTRUCT-CALLOUT
100
AcDbText
 10
11.81620958346113
 20
7.251510520648972
 30
0.0
 40
0.125
  1
TEXT_LEADERS         TEXT_BUBBLES
  7
ROMANS
100
AcDbText
  0
LINE
  5
677
330
605
100
AcDbEntity
  8
INSTRUCT-CALLOUT
100
AcDbLine
 10
12.61849327278075
 20
7.001010868794052
 30
0.0
 11
12.75476181863938
 21
7.001010868794052
 31
0.0
  0
LINE
  5
678
330
605
100
AcDbEntity
  8
INSTRUCT-CALLOUT
100
AcDbLine
 10
12.33072285830243
 20
6.881259166987772
 30
0.0
 11
12.61849327278075
 21
7.001010868794052
 31
0.0
  0
SOLID
  5
679
330
605
100
AcDbEntity
  8
INSTRUCT-CALLOUT
100
AcDbTrace
 10
12.41610885584276
 20
6.884297492849659
 30
0.0
 11
12.39305697095102
 21
6.939692534170506
 31
0.0
 12
12.23839778943435
 22
6.842839358834885
 32
0.0
 13
12.23839778943435
 23
6.842839358834885
 33
0.0
  0
TEXT
  5
67A
330
605
100
AcDbEntity
  8
INSTRUCT-CALLOUT
100
AcDbText
 10
12.78073655565651
 20
6.936260259400151
 30
0.0
 40
0.125
  1
ITEM 1
  7
ROMANS
100
AcDbText
  0
TEXT
  5
67B
330
605
100
AcDbEntity
  8
INSTRUCT-CALLOUT
100
AcDbText
 10
11.81620958346113
 20
6.25695290517215
 30
0.0
 40
0.125
  1
LAYER "INSTRUCT-CALLOUT".
  7
ROMANS
100
AcDbText
  0
TEXT
  5
67C
330
605
100
AcDbEntity
  8
INSTRUCT-CALLOUT
100
AcDbText
 10
11.81620958346113
 20
6.431952905172151
 30
0.0
 40
0.125
  1
TO TURN OFF THIS INSTRUCTION BOX, TURN OFF
  7
ROMANS
100
AcDbText
  0
TEXT
  5
681
330
605
100
AcDbEntity
  8
TEXT_LEADERS
100
AcDbText
 10
5.43942406907183
 20
5.2188135
 30
0.0
 40
0.125
  1
FINISH GRADE/TOP OF MULCH
  7
ROMANS
100
AcDbText
  0
TEXT
  5
682
330
605
100
AcDbEntity
  8
TEXT_LEADERS
100
AcDbText
 10
5.43942406907183
 20
4.6938135
 30
0.0
 40
0.125
  1
  RAIN BIRD US-400
  7
ROMANS
100
AcDbText
  0
LEADER
  5
684
330
605
100
AcDbEntity
  8
TEXT-RB-SA-LEADERS
100
AcDbLeader
  3
STANDARD
 76
     3
 10
3.362454828603925
 20
2.908009130850686
 30
0.0
 10
5.064399615740382
 20
1.736466241481315
 30
0.0
 10
5.387577042906911
 20
1.736466241481314
 30
0.0
211
-1.0
221
0.0
231
0.0
210
0.0
220
0.0
230
-1.0
  0
LEADER
  5
685
330
605
100
AcDbEntity
  8
TEXT-RB-SA-LEADERS
100
AcDbLeader
  3
STANDARD
 76
     3
 10
3.362454828603925
 20
2.908009130850686
 30
0.0
 10
5.064399615740382
 20
1.736466241481315
 30
0.0
 10
5.387577042906911
 20
1.736466241481314
 30
0.0
211
-1.0
221
0.0
231
0.0
210
0.0
220
0.0
230
-1.0
  0
LEADER
  5
688
330
605
100
AcDbEntity
  8
TEXT-RB-SA-LEADERS
100
AcDbLeader
  3
STANDARD
 76
     3
 10
4.374830395185836
 20
3.153888881934302
 30
0.0
 10
5.064399615740382
 20
3.400421475508559
 30
0.0
 10
5.387577042906911
 20
3.400421475508559
 30
0.0
  0
LEADER
  5
689
330
605
100
AcDbEntity
  8
TEXT-RB-SA-LEADERS
100
AcDbLeader
  3
STANDARD
 76
     3
 10
3.324332770716471
 20
3.323145364216269
 30
0.0
 10
5.064399615740382
 20
3.92792638273034
 30
0.0
 10
5.387577042906911
 20
3.927926382730338
 30
0.0
  0
TEXT
  5
68F
330
605
100
AcDbEntity
  8
TEXT-RB-SA-BUBBLES
100
AcDbText
 10
5.44421318
 20
3.63689928
 30
0.0
 40
0.125
  1
  RAIN BIRD MODEL SA 6050
  7
ROMANS
100
AcDbText
  0
TEXT
  5
69A
330
605
100
AcDbEntity
  8
TEXT-SA-LEADERS
100
AcDbText
 10
5.43942407
 20
3.465283859999999
 30
0.0
 40
0.125
  1
SWING PIPE, 12-INCH LENGTH:
  7
ROMANS
100
AcDbText
  0
LEADER
  5
6A0
330
605
100
AcDbEntity
  8
TEXT-SA-LEADERS
100
AcDbLeader
  3
STANDARD
 76
     3
 10
2.50784686186429
 20
3.612694478092436
 30
0.0
 10
5.064399615740382
 20
4.218801510417089
 30
0.0
 10
5.389971407787695
 20
4.218801510417089
 30
0.0
  0
LEADER
  5
6A2
330
605
100
AcDbEntity
  8
TEXT-SA-LEADERS
100
AcDbLeader
  3
STANDARD
 76
     3
 10
3.568891543554765
 20
2.913286678948408
 30
0.0
 10
5.064399615740382
 20
1.605327298042975
 30
0.0
 10
5.389971407787695
 20
1.605327298042975
 30
0.0
211
-1.0
221
0.0
231
0.0
210
0.0
220
0.0
230
-1.0
  0
LEADER
  5
6A5
330
605
100
AcDbEntity
  8
TEXT-SA-LEADERS
100
AcDbLeader
  3
STANDARD
 76
     3
 10
4.59405500548075
 20
2.865573229526271
 30
0.0
 10
5.064399615740382
 20
2.649206516162223
 30
0.0
 10
5.381428759481982
 20
2.649206516162222
 30
0.0
  0
LEADER
  5
6A6
330
605
100
AcDbEntity
  8
TEXT-SA-LEADERS
100
AcDbLeader
  3
STANDARD
 76
     3
 10
4.310254900038992
 20
2.924776047858163
 30
0.0
 10
5.064399615740382
 20
2.294167155902923
 30
0.0
 10
5.381428759481982
 20
2.294167155902923
 30
0.0
211
-1.0
221
0.0
231
0.0
210
0.0
220
0.0
230
-1.0
  0
LEADER
  5
6A8
330
605
100
AcDbEntity
  8
TEXT-SA-LEADERS
100
AcDbLeader
  3
STANDARD
 76
     3
 10
3.67288320480547
 20
3.407390706656591
 30
0.0
 10
5.05585696743467
 20
3.53007065570493
 30
0.0
 10
5.381428759481982
 20
3.530070655704929
 30
0.0
  0
TEXT
  5
6AA
330
605
100
AcDbEntity
  8
TEXT-SA-LEADERS
100
AcDbText
 10
5.43942406907183
 20
4.16528386148532
 30
0.0
 40
0.125
  1
1/2-INCH MALE NPT x .490 INCH
  7
ROMANS
100
AcDbText
  0
TEXT
  5
6AB
330
605
100
AcDbEntity
  8
TEXT-SA-LEADERS
100
AcDbText
 10
5.43942407
 20
2.240283859999999
 30
0.0
 40
0.125
  1
1/2-INCH MALE NPT x .490 INCH
  7
ROMANS
100
AcDbText
  0
TEXT
  5
6AC
330
605
100
AcDbEntity
  8
TEXT-SA-LEADERS
100
AcDbText
 10
5.43942407
 20
1.89028386
 30
0.0
 40
0.125
  1
  MODEL SBE-050
  7
ROMANS
100
AcDbText
  0
TEXT
  5
6AD
330
605
100
AcDbEntity
  8
TEXT-SA-LEADERS
100
AcDbText
 10
5.43942407
 20
1.540283859999999
 30
0.0
 40
0.125
  1
PVC LATERAL PIPE
  7
ROMANS
100
AcDbText
  0
INSERT
  5
6C3
330
605
100
AcDbEntity
  8
TITLE
100
AcDbBlockReference
 66
     1
  2
titleblock
 10
0.3095079079686158
 20
-2.0695876464756
 30
0.0
  0
ATTRIB
  5
6C4
330
6C3
100
AcDbEntity
  8
TITLE
100
AcDbText
 10
0.8150635117709578
 20
-1.285360549997233
 30
0.0
 40
0.2
  1
D
  7
L200
 72
     4
 11
0.9159502784830998
 21
-1.185360549997233
 31
0.0
100
AcDbAttribute
  2
D
 70
     0
  0
ATTRIB
  5
6C5
330
6C3
100
AcDbEntity
  8
TITLE
100
AcDbText
 10
1.540950278483099
 20
-0.72587534372885
 30
0.0
 40
0.2
  1

  7
L200
100
AcDbAttribute
  2
TITLE1
 70
     0
  0
ATTRIB
  5
6C6
330
6C3
100
AcDbEntity
  8
TITLE
100
AcDbText
 10
1.540950278483099
 20
-1.085360549997232
 30
0.0
 40
0.2
  1
POP-UP SPRAY SPRINKLER
  7
L200
100
AcDbAttribute
  2
TITLE2
 70
     0
  0
ATTRIB
  5
6C7
330
6C3
100
AcDbEntity
  8
TITLE
100
AcDbText
 10
3.023153659136928
 20
-1.476794880017281
 30
0.0
 40
0.2
  1
UNI-SPRAY SERIES US-400
  7
L200
100
AcDbAttribute
  2
TITLE3
 70
     0
  0
ATTRIB
  5
6C8
330
6C3
100
AcDbEntity
  8
TITLE
100
AcDbText
 10
3.023153659136928
 20
-1.800331565658826
 30
0.0
 40
0.2
  1

  7
L200
100
AcDbAttribute
  2
TITLE4
 70
     0
  0
ATTRIB
  5
6C9
330
6C3
100
AcDbEntity
  8
TITLE
 62
     7
100
AcDbText
 10
7.999103690315948
 20
-1.09998485493096
 30
0.0
 40
0.08
  1
4-13-04
  7
L80
 72
     2
 11
8.570532261744519
 21
-1.09998485493096
 31
0.0
100
AcDbAttribute
  2
REVISED
 70
     0
  0
ATTRIB
  5
6CA
330
6C3
100
AcDbEntity
  8
TITLE
 62
     7
100
AcDbText
 10
0.5734502784830998
 20
-1.984875998454879
 30
0.0
 40
0.08
  1
S-US-400-SP.DWG
  7
L80
100
AcDbAttribute
  2
DWG-NAME
 70
     0
  0
ATTRIB
  5
6CB
330
6C3
100
AcDbEntity
  8
TITLE
 62
     7
100
AcDbText
 10
1.540950278483099
 20
-1.369023867080111
 30
0.0
 40
0.1
  1
N.T.S.
  7
L100
100
AcDbAttribute
  2
SCALE
 70
     0
  0
SEQEND
  5
6CC
330
6C3
100
AcDbEntity
  8
INSTRUCT-OPTION
  0
TEXT
  5
6CE
330
605
100
AcDbEntity
  8
TEXT-SA-BUBBLES
100
AcDbText
 10
5.439424070777777
 20
4.167832213821933
 30
0.0
 40
0.125
  1
1/2-INCH MALE NPT x .490 INCH
  7
ROMANS
100
AcDbText
  0
TEXT
  5
6CF
330
605
100
AcDbEntity
  8
TEXT-SA-BUBBLES
100
AcDbText
 10
5.439424070777777
 20
3.467832213821933
 30
0.0
 40
0.125
  1
PVC LATERAL PIPE
  7
ROMANS
100
AcDbText
  0
TEXT
  5
6D0
330
605
100
AcDbEntity
  8
TEXT-SA-BUBBLES
100
AcDbText
 10
5.439424070777777
 20
2.592832213821933
 30
0.0
 40
0.125
  1
PVC SCH 40 TEE OR ELL
  7
ROMANS
100
AcDbText
  0
LEADER
  5
6D8
330
605
100
AcDbEntity
  8
TEXT-SA-BUBBLES
100
AcDbLeader
  3
STANDARD
 76
     2
 10
4.56360507189884
 20
2.865573229526271
 30
0.0
 10
4.6919677024196
 20
2.351649119711492
 30
0.0
  0
LEADER
  5
6D9
330
605
100
AcDbEntity
  8
TEXT-SA-BUBBLES
100
AcDbLeader
  3
STANDARD
 76
     2
 10
4.192935946531074
 20
2.968651896255966
 30
0.0
 10
4.346915387308049
 20
2.352166033430911
 30
0.0
  0
LEADER
  5
6DA
330
605
100
AcDbEntity
  8
TEXT-SA-BUBBLES
100
AcDbLeader
  3
STANDARD
 76
     2
 10
2.685941377053246
 20
2.906645090219917
 30
0.0
 10
2.824422882591604
 20
2.352208147233615
 30
0.0
  0
LEADER
  5
6DB
330
605
100
AcDbEntity
  8
TEXT-SA-BUBBLES
100
AcDbLeader
  3
STANDARD
 76
     2
 10
3.278591991997012
 20
3.291870818024066
 30
0.0
 10
3.51301789280178
 20
2.353302311755152
 30
0.0
  0
LEADER
  5
6DC
330
605
100
AcDbEntity
  8
TEXT-SA-BUBBLES
100
AcDbLeader
  3
STANDARD
 76
     2
 10
2.341013711616355
 20
3.443702210492209
 30
0.0
 10
0.8666406532281673
 20
3.85592523311674
 30
0.0
  0
TEXT
  5
6E9
330
605
100
AcDbEntity
  8
INSTRUCT-OPTION
100
AcDbText
 10
11.71648686343747
 20
0.6597463012209964
 30
0.0
 40
0.1250000018625
  1
  OPTION-SA
  7
ROMANS
100
AcDbText
  0
TEXT
  5
6EA
330
605
100
AcDbEntity
  8
INSTRUCT-OPTION
100
AcDbText
 10
11.71648686343747
 20
0.216063570022223
 30
0.0
 40
0.1250000018625
  1
  %%UOR%%U TEXT-SA-BUBBLES
  7
ROMANS
100
AcDbText
  0
TEXT
  5
6EB
330
605
100
AcDbEntity
  8
INSTRUCT-OPTION
100
AcDbText
 10
11.69979388485915
 20
0.9031479183128235
 30
0.0
 40
0.1250000018625
  1
%%UCONTRACTOR ASSEMBLED SWING ASSEMBLY
  7
ROMANS
100
AcDbText
  0
TEXT
  5
6EC
330
605
100
AcDbEntity
  8
INSTRUCT-OPTION
100
AcDbText
 10
11.46648093021081
 20
0.4379049356216097
 30
0.0
 40
0.1250000018625
  1
  %%UAND EITHER%%U TEXT-SA-LEADERS
  7
ROMANS
100
AcDbText
  0
TEXT
  5
6ED
330
605
100
AcDbEntity
  8
INSTRUCT-OPTION
100
AcDbText
 10
11.64208923694835
 20
1.923863886813666
 30
0.0
 40
0.1250000018625
  1
  OPTION-RB-SA
  7
ROMANS
100
AcDbText
  0
TEXT
  5
6EE
330
605
100
AcDbEntity
  8
INSTRUCT-OPTION
100
AcDbText
 10
11.64208923694835
 20
1.480181155614893
 30
0.0
 40
0.1250000018625
  1
  %%UOR%%U TEXT-RB-SA-BUBBLES
  7
ROMANS
100
AcDbText
  0
TEXT
  5
6EF
330
605
100
AcDbEntity
  8
INSTRUCT-OPTION
100
AcDbText
 10
11.39208330372169
 20
1.70202252121428
 30
0.0
 40
0.1250000018625
  1
  %%UAND EITHER%%U TEXT-RB-SA-LEADERS
  7
ROMANS
100
AcDbText
  0
TEXT
  5
6F0
330
605
100
AcDbEntity
  8
INSTRUCT-OPTION
100
AcDbText
 10
11.62539625837002
 20
2.167265503905493
 30
0.0
 40
0.1250000018625
  1
%%URAIN BIRD SWING ASSEMBLY
  7
ROMANS
100
AcDbText
  0
LEADER
  5
708
330
605
100
AcDbEntity
  8
TEXT_BUBBLES
100
AcDbLeader
  3
STANDARD
 76
     2
 10
1.451296235093745
 20
4.986915733056845
 30
0.0
 10
0.8684043644514011
 20
4.756264487230427
 30
0.0
  0
LEADER
  5
709
330
605
100
AcDbEntity
  8
TEXT_BUBBLES
100
AcDbLeader
  3
STANDARD
 76
     2
 10
2.275895203225289
 20
4.160758474276016
 30
0.0
 10
0.8667254196802813
 20
4.306935827622327
 30
0.0
  0
LEADER
  5
70A
330
605
100
AcDbEntity
  8
TEXT-RB-SA-BUBBLES
100
AcDbLeader
  3
STANDARD
 76
     2
 10
3.136631326161999
 20
3.351488253049938
 30
0.0
 10
3.590417545523534
 20
3.782227341553069
 30
0.0
  0
LEADER
  5
70B
330
605
100
AcDbEntity
  8
TEXT-RB-SA-BUBBLES
100
AcDbLeader
  3
STANDARD
 76
     2
 10
2.372609864253877
 20
2.90579470274574
 30
0.0
 10
2.511091369792235
 20
2.351357759759438
 30
0.0
  0
LEADER
  5
70C
330
605
100
AcDbEntity
  8
TEXT-RB-SA-BUBBLES
100
AcDbLeader
  3
STANDARD
 76
     2
 10
4.436821469464623
 20
2.864722842052094
 30
0.0
 10
4.565184099985383
 20
2.350798732237315
 30
0.0
  0
LINE
  5
7EE
330
605
100
AcDbEntity
  8
IMAGE
100
AcDbLine
 10
2.383670194888933
 20
4.797627110748359
 30
0.0
 11
2.406204554687565
 21
4.797627110748359
 31
0.0
  0
LINE
  5
7EF
330
605
100
AcDbEntity
  8
IMAGE
100
AcDbLine
 10
2.337026053253079
 20
4.797627110748359
 30
0.0
 11
2.356238518971011
 21
4.797627110748359
 31
0.0
  0
LINE
  5
7F0
330
605
100
AcDbEntity
  8
IMAGE
100
AcDbLine
 10
2.296477844593876
 20
4.797627110748359
 30
0.0
 11
2.312382042365438
 21
4.797627110748359
 31
0.0
  0
LINE
  5
7F1
330
605
100
AcDbEntity
  8
IMAGE
100
AcDbLine
 10
2.264381879269048
 20
4.797627110748359
 30
0.0
 11
2.276008521395489
 21
4.797627110748359
 31
0.0
  0
LINE
  5
7F2
330
605
100
AcDbEntity
  8
IMAGE
100
AcDbLine
 10
2.590838807113152
 20
4.797627110748359
 30
0.0
 11
2.599475739429365
 21
4.797627110748359
 31
0.0
  0
LINE
  5
7F3
330
605
100
AcDbEntity
  8
IMAGE
100
AcDbLine
 10
2.566821973707787
 20
4.797627110748359
 30
0.0
 11
2.578448615834229
 21
4.797627110748359
 31
0.0
  0
LINE
  5
7F4
330
605
100
AcDbEntity
  8
IMAGE
100
AcDbLine
 10
2.530448452737839
 20
4.79762711074836
 30
0.0
 11
2.546352650509401
 21
4.797627110748359
 31
0.0
  0
LINE
  5
7F5
330
605
100
AcDbEntity
  8
IMAGE
100
AcDbLine
 10
2.486591976132267
 20
4.79762711074836
 30
0.0
 11
2.505804441850198
 21
4.79762711074836
 31
0.0
  0
LINE
  5
7F6
330
605
100
AcDbEntity
  8
IMAGE
100
AcDbLine
 10
2.436625940415714
 20
4.797627110748359
 30
0.0
 11
2.459160300214344
 21
4.79762711074836
 31
0.0
  0
LINE
  5
7F7
330
605
100
AcDbEntity
  8
IMAGE
100
AcDbLine
 10
2.421415247551639
 20
4.995929476976296
 30
0.0
 11
2.320010628457808
 21
4.995929476976297
 31
0.0
  0
LINE
  5
7F8
330
605
100
AcDbEntity
  8
IMAGE
100
AcDbLine
 10
2.421415247551637
 20
4.995929476976296
 30
0.0
 11
2.52281986664547
 21
4.995929476976296
 31
0.0
  0
LINE
  5
7F9
330
605
100
AcDbEntity
  8
IMAGE
100
AcDbLine
 10
2.599475739429367
 20
4.877624088033494
 30
0.0
 11
2.607323715890329
 21
4.877624088033494
 31
0.0
  0
LINE
  5
7FA
330
605
100
AcDbEntity
  8
IMAGE
100
AcDbLine
 10
2.578448615834227
 20
4.877624088033494
 30
0.0
 11
2.590838807113151
 21
4.877624088033494
 31
0.0
  0
LINE
  5
7FB
330
605
100
AcDbEntity
  8
IMAGE
100
AcDbLine
 10
2.588169510061494
 20
4.900158447832124
 30
0.0
 11
2.607323715890331
 21
4.877624088033493
 31
0.0
  0
LINE
  5
7FC
330
605
100
AcDbEntity
  8
IMAGE
100
AcDbLine
 10
2.590838807113151
 20
4.882937202920813
 30
0.0
 11
2.599475739429365
 21
4.882937202920813
 31
0.0
  0
LINE
  5
7FD
330
605
100
AcDbEntity
  8
IMAGE
100
AcDbLine
 10
2.546352650509401
 20
4.877624088033493
 30
0.0
 11
2.566821973707787
 21
4.877624088033493
 31
0.0
  0
LINE
  5
7FE
330
605
100
AcDbEntity
  8
IMAGE
100
AcDbLine
 10
2.530448452737836
 20
4.882937202920816
 30
0.0
 11
2.546352650509399
 21
4.882937202920813
 31
0.0
  0
LINE
  5
7FF
330
605
100
AcDbEntity
  8
IMAGE
100
AcDbLine
 10
2.566821973707787
 20
4.882937202920815
 30
0.0
 11
2.578448615834227
 21
4.882937202920814
 31
0.0
  0
LINE
  5
800
330
605
100
AcDbEntity
  8
IMAGE
100
AcDbLine
 10
2.54253743146927
 20
4.900158447832123
 30
0.0
 11
2.54253743146927
 21
4.986915733056846
 31
0.0
  0
LINE
  5
801
330
605
100
AcDbEntity
  8
IMAGE
100
AcDbLine
 10
2.54253743146927
 20
4.986915733056846
 30
0.0
 11
2.588169510061494
 21
4.900158447832124
 31
0.0
  0
LINE
  5
802
330
605
100
AcDbEntity
  8
IMAGE
100
AcDbLine
 10
2.607323715890329
 20
4.780726340899387
 30
0.0
 11
2.607323715890329
 21
4.877624088033492
 31
0.0
  0
LINE
  5
803
330
605
100
AcDbEntity
  8
IMAGE
100
AcDbLine
 10
2.599475739429365
 20
4.882937202920813
 30
0.0
 11
2.599475739429365
 21
4.797627110748359
 31
0.0
  0
LINE
  5
804
330
605
100
AcDbEntity
  8
IMAGE
100
AcDbLine
 10
2.590838807113151
 20
4.882937202920813
 30
0.0
 11
2.590838807113151
 21
4.797627110748359
 31
0.0
  0
LINE
  5
805
330
605
100
AcDbEntity
  8
IMAGE
100
AcDbLine
 10
2.530448452737838
 20
4.797627110748361
 30
0.0
 11
2.530448452737836
 21
4.882937202920816
 31
0.0
  0
LINE
  5
806
330
605
100
AcDbEntity
  8
IMAGE
100
AcDbLine
 10
2.546352650509401
 20
4.797627110748361
 30
0.0
 11
2.546352650509399
 21
4.882937202920816
 31
0.0
  0
LINE
  5
807
330
605
100
AcDbEntity
  8
IMAGE
100
AcDbLine
 10
2.566821973707787
 20
4.797627110748361
 30
0.0
 11
2.566821973707787
 21
4.882937202920817
 31
0.0
  0
LINE
  5
808
330
605
100
AcDbEntity
  8
IMAGE
100
AcDbLine
 10
2.578448615834229
 20
4.797627110748361
 30
0.0
 11
2.578448615834227
 21
4.882937202920817
 31
0.0
  0
LINE
  5
809
330
605
100
AcDbEntity
  8
IMAGE
100
AcDbLine
 10
2.486591976132265
 20
4.882937202920815
 30
0.0
 11
2.505804441850196
 21
4.882937202920813
 31
0.0
  0
LINE
  5
80A
330
605
100
AcDbEntity
  8
IMAGE
100
AcDbLine
 10
2.436625940415712
 20
4.882937202920813
 30
0.0
 11
2.459160300214342
 21
4.882937202920813
 31
0.0
  0
LINE
  5
80B
330
605
100
AcDbEntity
  8
IMAGE
100
AcDbLine
 10
2.459160300214344
 20
4.877624088033493
 30
0.0
 11
2.486591976132263
 21
4.877624088033494
 31
0.0
  0
LINE
  5
80C
330
605
100
AcDbEntity
  8
IMAGE
100
AcDbLine
 10
2.414654939612049
 20
4.900158447832122
 30
0.0
 11
2.414654939612049
 21
4.986915733056844
 31
0.0
  0
LINE
  5
80D
330
605
100
AcDbEntity
  8
IMAGE
100
AcDbLine
 10
2.428175555491227
 20
4.900158447832122
 30
0.0
 11
2.428175555491227
 21
4.986915733056844
 31
0.0
  0
LINE
  5
80E
330
605
100
AcDbEntity
  8
IMAGE
100
AcDbLine
 10
2.495529375529454
 20
4.986915733056845
 30
0.0
 11
2.495529375529455
 21
4.900158447832123
 31
0.0
  0
LINE
  5
80F
330
605
100
AcDbEntity
  8
IMAGE
100
AcDbLine
 10
2.406204554687564
 20
4.882937202920813
 30
0.0
 11
2.383670194888935
 21
4.882937202920813
 31
0.0
  0
LINE
  5
810
330
605
100
AcDbEntity
  8
IMAGE
100
AcDbLine
 10
2.356238518971013
 20
4.882937202920815
 30
0.0
 11
2.337026053253081
 21
4.882937202920813
 31
0.0
  0
LINE
  5
811
330
605
100
AcDbEntity
  8
IMAGE
100
AcDbLine
 10
2.337026053253079
 20
4.877624088033494
 30
0.0
 11
2.31238204236544
 21
4.877624088033493
 31
0.0
  0
LINE
  5
812
330
605
100
AcDbEntity
  8
IMAGE
100
AcDbLine
 10
2.383670194888933
 20
4.877624088033493
 30
0.0
 11
2.356238518971013
 21
4.877624088033494
 31
0.0
  0
LINE
  5
813
330
605
100
AcDbEntity
  8
IMAGE
100
AcDbLine
 10
2.347301119573824
 20
4.986915733056845
 30
0.0
 11
2.347301119573824
 21
4.900158447832123
 31
0.0
  0
LINE
  5
814
330
605
100
AcDbEntity
  8
IMAGE
100
AcDbLine
 10
2.347301119573824
 20
4.986915733056845
 30
0.0
 11
2.322894872362873
 21
4.900158447832123
 31
0.0
  0
LINE
  5
815
330
605
100
AcDbEntity
  8
IMAGE
100
AcDbLine
 10
2.341607386464831
 20
4.986915733056846
 30
0.0
 11
2.317201139253878
 21
4.900158447832123
 31
0.0
  0
LINE
  5
816
330
605
100
AcDbEntity
  8
IMAGE
100
AcDbLine
 10
2.406204554687564
 20
4.877624088033493
 30
0.0
 11
2.436625940415714
 21
4.877624088033493
 31
0.0
  0
LINE
  5
817
330
605
100
AcDbEntity
  8
IMAGE
100
AcDbLine
 10
2.436625940415714
 20
4.797627110748359
 30
0.0
 11
2.436625940415712
 21
4.882937202920814
 31
0.0
  0
LINE
  5
818
330
605
100
AcDbEntity
  8
IMAGE
100
AcDbLine
 10
2.406204554687565
 20
4.797627110748359
 30
0.0
 11
2.406204554687565
 21
4.882937202920814
 31
0.0
  0
LINE
  5
819
330
605
100
AcDbEntity
  8
IMAGE
100
AcDbLine
 10
2.459160300214344
 20
4.79762711074836
 30
0.0
 11
2.459160300214342
 21
4.882937202920814
 31
0.0
  0
LINE
  5
81A
330
605
100
AcDbEntity
  8
IMAGE
100
AcDbLine
 10
2.486591976132267
 20
4.79762711074836
 30
0.0
 11
2.486591976132265
 21
4.882937202920815
 31
0.0
  0
LINE
  5
81B
330
605
100
AcDbEntity
  8
IMAGE
100
AcDbLine
 10
2.505804441850198
 20
4.797627110748361
 30
0.0
 11
2.505804441850196
 21
4.882937202920815
 31
0.0
  0
LINE
  5
81C
330
605
100
AcDbEntity
  8
IMAGE
100
AcDbLine
 10
2.337026053253079
 20
4.797627110748361
 30
0.0
 11
2.337026053253081
 21
4.882937202920815
 31
0.0
  0
LINE
  5
81D
330
605
100
AcDbEntity
  8
IMAGE
100
AcDbLine
 10
2.356238518971011
 20
4.79762711074836
 30
0.0
 11
2.356238518971013
 21
4.882937202920815
 31
0.0
  0
LINE
  5
81E
330
605
100
AcDbEntity
  8
IMAGE
100
AcDbLine
 10
2.383670194888933
 20
4.79762711074836
 30
0.0
 11
2.383670194888935
 21
4.882937202920814
 31
0.0
  0
LINE
  5
81F
330
605
100
AcDbEntity
  8
IMAGE
100
AcDbLine
 10
2.312382042365438
 20
4.797627110748361
 30
0.0
 11
2.31238204236544
 21
4.882937202920816
 31
0.0
  0
LINE
  5
820
330
605
100
AcDbEntity
  8
IMAGE
100
AcDbLine
 10
2.505804441850196
 20
4.877624088033494
 30
0.0
 11
2.530448452737838
 21
4.877624088033493
 31
0.0
  0
LINE
  5
821
330
605
100
AcDbEntity
  8
IMAGE
100
AcDbLine
 10
2.421415247551639
 20
4.900158447832122
 30
0.0
 11
2.588169510061494
 21
4.900158447832124
 31
0.0
  0
LINE
  5
822
330
605
100
AcDbEntity
  8
IMAGE
100
AcDbLine
 10
2.421415247551637
 20
4.986915733056844
 30
0.0
 11
2.54253743146927
 21
4.986915733056845
 31
0.0
  0
LINE
  5
823
330
605
100
AcDbEntity
  8
IMAGE
100
AcDbLine
 10
2.501223108638448
 20
4.986915733056846
 30
0.0
 11
2.5256293558494
 21
4.900158447832123
 31
0.0
  0
LINE
  5
824
330
605
100
AcDbEntity
  8
IMAGE
100
AcDbLine
 10
2.495529375529454
 20
4.986915733056845
 30
0.0
 11
2.519935622740407
 21
4.900158447832123
 31
0.0
  0
LINE
  5
825
330
605
100
AcDbEntity
  8
IMAGE
100
AcDbLine
 10
2.320010628457808
 20
4.986915733056846
 30
0.0
 11
2.320010628457808
 21
4.995929476976297
 31
0.0
  0
LINE
  5
826
330
605
100
AcDbEntity
  8
IMAGE
100
AcDbLine
 10
2.52281986664547
 20
4.995929476976296
 30
0.0
 11
2.52281986664547
 21
4.986915733056845
 31
0.0
  0
LINE
  5
827
330
605
100
AcDbEntity
  8
IMAGE
100
AcDbLine
 10
2.296477844593876
 20
4.877624088033493
 30
0.0
 11
2.276008521395491
 21
4.877624088033493
 31
0.0
  0
LINE
  5
828
330
605
100
AcDbEntity
  8
IMAGE
100
AcDbLine
 10
2.264381879269048
 20
4.877624088033494
 30
0.0
 11
2.251991687990125
 21
4.877624088033494
 31
0.0
  0
LINE
  5
829
330
605
100
AcDbEntity
  8
IMAGE
100
AcDbLine
 10
2.276008521395491
 20
4.882937202920815
 30
0.0
 11
2.264381879269048
 21
4.882937202920814
 31
0.0
  0
LINE
  5
82A
330
605
100
AcDbEntity
  8
IMAGE
100
AcDbLine
 10
2.243354755673911
 20
4.877624088033494
 30
0.0
 11
2.235506779212947
 21
4.877624088033494
 31
0.0
  0
LINE
  5
82B
330
605
100
AcDbEntity
  8
IMAGE
100
AcDbLine
 10
2.251991687990125
 20
4.882937202920813
 30
0.0
 11
2.243354755673911
 21
4.882937202920813
 31
0.0
  0
LINE
  5
82C
330
605
100
AcDbEntity
  8
IMAGE
100
AcDbLine
 10
2.254660985041782
 20
4.900158447832124
 30
0.0
 11
2.235506779212947
 21
4.877624088033493
 31
0.0
  0
LINE
  5
82D
330
605
100
AcDbEntity
  8
IMAGE
100
AcDbLine
 10
2.300293063634006
 20
4.900158447832123
 30
0.0
 11
2.300293063634006
 21
4.986915733056846
 31
0.0
  0
LINE
  5
82E
330
605
100
AcDbEntity
  8
IMAGE
100
AcDbLine
 10
2.254660985041782
 20
4.900158447832124
 30
0.0
 11
2.300293063634006
 21
4.986915733056846
 31
0.0
  0
LINE
  5
82F
330
605
100
AcDbEntity
  8
IMAGE
100
AcDbLine
 10
2.235506779212947
 20
4.780726340899387
 30
0.0
 11
2.235506779212947
 21
4.877624088033493
 31
0.0
  0
LINE
  5
830
330
605
100
AcDbEntity
  8
IMAGE
100
AcDbLine
 10
2.264381879269048
 20
4.797627110748361
 30
0.0
 11
2.26438187926905
 21
4.882937202920817
 31
0.0
  0
LINE
  5
831
330
605
100
AcDbEntity
  8
IMAGE
100
AcDbLine
 10
2.276008521395489
 20
4.797627110748361
 30
0.0
 11
2.276008521395491
 21
4.882937202920817
 31
0.0
  0
LINE
  5
832
330
605
100
AcDbEntity
  8
IMAGE
100
AcDbLine
 10
2.296477844593876
 20
4.797627110748361
 30
0.0
 11
2.296477844593878
 21
4.882937202920816
 31
0.0
  0
LINE
  5
833
330
605
100
AcDbEntity
  8
IMAGE
100
AcDbLine
 10
2.251991687990125
 20
4.882937202920813
 30
0.0
 11
2.251991687990125
 21
4.797627110748359
 31
0.0
  0
LINE
  5
834
330
605
100
AcDbEntity
  8
IMAGE
100
AcDbLine
 10
2.243354755673911
 20
4.882937202920813
 30
0.0
 11
2.243354755673912
 21
4.797627110748359
 31
0.0
  0
LINE
  5
835
330
605
100
AcDbEntity
  8
IMAGE
100
AcDbLine
 10
2.235506779212947
 20
4.780726340899387
 30
0.0
 11
2.607323715890329
 21
4.780726340899387
 31
0.0
  0
LINE
  5
836
330
605
100
AcDbEntity
  8
IMAGE
100
AcDbLine
 10
2.243354755673912
 20
4.797627110748359
 30
0.0
 11
2.251991687990127
 21
4.797627110748359
 31
0.0
  0
LINE
  5
837
330
605
100
AcDbEntity
  8
IMAGE
100
AcDbLine
 10
2.421415247551639
 20
4.900158447832122
 30
0.0
 11
2.254660985041782
 21
4.900158447832124
 31
0.0
  0
LINE
  5
838
330
605
100
AcDbEntity
  8
IMAGE
100
AcDbLine
 10
2.31238204236544
 20
4.882937202920816
 30
0.0
 11
2.296477844593878
 21
4.882937202920813
 31
0.0
  0
LINE
  5
839
330
605
100
AcDbEntity
  8
IMAGE
100
AcDbLine
 10
2.421415247551639
 20
4.986915733056844
 30
0.0
 11
2.300293063634006
 21
4.986915733056846
 31
0.0
  0
LINE
  5
83A
330
605
100
AcDbEntity
  8
IMAGE
100
AcDbLine
 10
2.277758703835377
 20
3.800481689659017
 30
0.0
 11
2.272688472880686
 21
4.780726340899387
 31
0.0
  0
LINE
  5
83B
330
605
100
AcDbEntity
  8
IMAGE
100
AcDbLine
 10
2.5650717912679
 20
3.800481689659017
 30
0.0
 11
2.570142022222592
 21
4.780726340899387
 31
0.0
  0
LINE
  5
83C
330
605
100
AcDbEntity
  8
IMAGE
100
AcDbLine
 10
2.430992350466057
 20
3.791467945739566
 30
0.0
 11
2.56112827830314
 21
3.791467945739566
 31
0.0
  0
LINE
  5
83D
330
605
100
AcDbEntity
  8
IMAGE
100
AcDbLine
 10
2.411838144637221
 20
3.795434473766487
 30
0.0
 11
2.430992350466056
 21
3.795434473766487
 31
0.0
  0
ARC
  5
83E
330
605
100
AcDbEntity
  8
IMAGE
100
AcDbCircle
 10
2.558655569804952
 20
3.79791927112829
 30
0.0
 40
0.006908971456607
100
AcDbArc
 50
290.9711737165132
 51
21.77007082216948
  0
LINE
  5
83F
330
605
100
AcDbEntity
  8
IMAGE
100
AcDbLine
 10
2.535664451730689
 20
3.676092023570585
 30
0.0
 11
2.535664451730689
 21
3.791467945739566
 31
0.0
  0
LINE
  5
840
330
605
100
AcDbEntity
  8
IMAGE
100
AcDbLine
 10
2.56112827830314
 20
3.696372947389351
 30
0.0
 11
2.563916707489876
 21
3.793441066482623
 31
0.0
  0
ARC
  5
841
330
605
100
AcDbEntity
  8
IMAGE
100
AcDbCircle
 10
2.284174925298326
 20
3.79791927112829
 30
0.0
 40
0.006908971456607
100
AcDbArc
 50
158.2299291778305
 51
249.0288262834867
  0
LINE
  5
842
330
605
100
AcDbEntity
  8
IMAGE
100
AcDbLine
 10
2.277758703835377
 20
3.800481689659018
 30
0.0
 11
2.565071791267899
 21
3.800481689659018
 31
0.0
  0
LINE
  5
843
330
605
100
AcDbEntity
  8
IMAGE
100
AcDbLine
 10
2.411838144637221
 20
3.676092023570585
 30
0.0
 11
2.411838144637221
 21
3.795434473766487
 31
0.0
  0
LINE
  5
844
330
605
100
AcDbEntity
  8
IMAGE
100
AcDbLine
 10
2.430992350466056
 20
3.676092023570585
 30
0.0
 11
2.430992350466056
 21
3.795434473766487
 31
0.0
  0
LINE
  5
845
330
605
100
AcDbEntity
  8
IMAGE
100
AcDbLine
 10
2.307166043372588
 20
3.676092023570585
 30
0.0
 11
2.281702216800137
 21
3.696372947389351
 31
0.0
  0
LINE
  5
846
330
605
100
AcDbEntity
  8
IMAGE
100
AcDbLine
 10
2.535664451730689
 20
3.676092023570585
 30
0.0
 11
2.56112827830314
 21
3.696372947389351
 31
0.0
  0
LINE
  5
847
330
605
100
AcDbEntity
  8
IMAGE
100
AcDbLine
 10
2.411838144637221
 20
3.696372947389351
 30
0.0
 11
2.430992350466056
 21
3.696372947389351
 31
0.0
  0
LINE
  5
848
330
605
100
AcDbEntity
  8
IMAGE
100
AcDbLine
 10
2.281702216800137
 20
3.696372947389351
 30
0.0
 11
2.278913787613402
 21
3.793441066482623
 31
0.0
  0
LINE
  5
849
330
605
100
AcDbEntity
  8
IMAGE
100
AcDbLine
 10
2.307166043372588
 20
3.676092023570585
 30
0.0
 11
2.307166043372588
 21
3.791467945739566
 31
0.0
  0
LINE
  5
84A
330
605
100
AcDbEntity
  8
IMAGE
100
AcDbLine
 10
2.281702216800137
 20
3.791467945739566
 30
0.0
 11
2.411838144637221
 21
3.791467945739566
 31
0.0
  0
LINE
  5
84B
330
605
100
AcDbEntity
  8
IMAGE
100
AcDbLine
 10
2.307166043372588
 20
3.676092023570585
 30
0.0
 11
2.535664451730689
 21
3.676092023570584
 31
0.0
  0
LINE
  5
84C
330
605
100
AcDbEntity
  8
IMAGE
100
AcDbLine
 10
3.108085868095073
 20
5.3054018719252
 30
0.0
 11
2.956160005672044
 21
4.986640192934846
 31
0.0
  0
LINE
  5
84D
330
605
100
AcDbEntity
  8
IMAGE
100
AcDbLine
 10
2.646021693415407
 20
5.327385435993491
 30
0.0
 11
2.646021693415407
 21
4.986640192934846
 31
0.0
  0
LINE
  5
84E
330
605
100
AcDbEntity
  8
IMAGE
100
AcDbLine
 10
2.756036973101037
 20
5.294410089891041
 30
0.0
 11
2.730366741174392
 21
4.986640192934856
 31
0.0
  0
LINE
  5
84F
330
605
100
AcDbEntity
  8
IMAGE
100
AcDbLine
 10
2.976067532472306
 20
5.316393653959348
 30
0.0
 11
2.896612052699354
 21
4.986640192934846
 31
0.0
  0
LINE
  5
850
330
605
100
AcDbEntity
  8
IMAGE
100
AcDbLine
 10
2.87745612234951
 20
5.270047644369464
 30
0.0
 11
2.904025570921504
 21
4.986640192934846
 31
0.0
  0
LINE
  5
851
330
605
100
AcDbEntity
  8
IMAGE
100
AcDbLine
 10
2.540608195714334
 20
5.288505065007003
 30
0.0
 11
2.577420984991427
 21
4.986640192934846
 31
0.0
  0
LINE
  5
852
330
605
100
AcDbEntity
  8
IMAGE
100
AcDbLine
 10
2.67442449533653
 20
5.24697586857253
 30
0.0
 11
2.745806858011379
 21
4.986640192934846
 31
0.0
  0
LINE
  5
853
330
605
100
AcDbEntity
  8
IMAGE
100
AcDbLine
 10
3.167024720598656
 20
5.3054018719252
 30
0.0
 11
3.015098858175629
 21
4.986640192934846
 31
0.0
  0
LINE
  5
854
330
605
100
AcDbEntity
  8
IMAGE
100
AcDbLine
 10
2.869983465447444
 20
5.272426525822744
 30
0.0
 11
2.938384269773729
 21
4.986640192934856
 31
0.0
  0
LINE
  5
855
330
605
100
AcDbEntity
  8
IMAGE
100
AcDbLine
 10
2.704960545918991
 20
5.327385435993491
 30
0.0
 11
2.704960545918991
 21
4.986640192934846
 31
0.0
  0
LINE
  5
856
330
605
100
AcDbEntity
  8
IMAGE
100
AcDbLine
 10
2.561940682327668
 20
5.228459397686146
 30
0.0
 11
2.757429371615218
 21
4.986640192934846
 31
0.0
  0
LINE
  5
857
330
605
100
AcDbEntity
  8
IMAGE
100
AcDbLine
 10
2.81497582560462
 20
5.294410089891041
 30
0.0
 11
2.789305593677975
 21
4.986640192934856
 31
0.0
  0
LINE
  5
858
330
605
100
AcDbEntity
  8
IMAGE
100
AcDbLine
 10
3.035006384975888
 20
5.316393653959348
 30
0.0
 11
2.955550905202937
 21
4.986640192934846
 31
0.0
  0
LINE
  5
859
330
605
100
AcDbEntity
  8
IMAGE
100
AcDbLine
 10
2.784121254593356
 20
5.274661999528838
 30
0.0
 11
2.857950937143539
 21
4.993186334806303
 31
0.0
  0
LINE
  5
85A
330
605
100
AcDbEntity
  8
IMAGE
100
AcDbLine
 10
2.599547048217916
 20
5.288505065007003
 30
0.0
 11
2.63635983749501
 21
4.986640192934846
 31
0.0
  0
LINE
  5
85B
330
605
100
AcDbEntity
  8
IMAGE
100
AcDbLine
 10
3.017330596706403
 20
5.272426525822744
 30
0.0
 11
3.085731401032687
 21
4.986640192934856
 31
0.0
  0
LINE
  5
85C
330
605
100
AcDbEntity
  8
IMAGE
100
AcDbLine
 10
2.85230767717795
 20
5.327385435993491
 30
0.0
 11
2.85230767717795
 21
4.986640192934846
 31
0.0
  0
LINE
  5
85D
330
605
100
AcDbEntity
  8
IMAGE
100
AcDbLine
 10
2.931468385852315
 20
5.274661999528838
 30
0.0
 11
3.005298068402498
 21
4.993186334806303
 31
0.0
  0
LINE
  5
85E
330
605
100
AcDbEntity
  8
IMAGE
100
AcDbLine
 10
3.21755840573425
 20
5.265433289210074
 30
0.0
 11
3.191186085816327
 21
4.986640192934846
 31
0.0
  0
LINE
  5
85F
330
605
100
AcDbEntity
  8
IMAGE
100
AcDbLine
 10
3.052278783886537
 20
5.327385435993491
 30
0.0
 11
3.052278783886537
 21
4.986640192934846
 31
0.0
  0
LINE
  5
860
330
605
100
AcDbEntity
  8
IMAGE
100
AcDbLine
 10
3.162294063572165
 20
5.294410089891041
 30
0.0
 11
3.13662383164552
 21
4.986640192934856
 31
0.0
  0
LINE
  5
861
330
605
100
AcDbEntity
  8
IMAGE
100
AcDbLine
 10
3.131439492560901
 20
5.274661999528838
 30
0.0
 11
3.205269175111085
 21
4.993186334806303
 31
0.0
  0
LINE
  5
862
330
605
100
AcDbEntity
  8
IMAGE
100
AcDbLine
 10
2.535664451730689
 20
3.676092023570585
 30
0.0
 11
2.421415247551639
 21
3.676092023570585
 31
0.0
  0
LINE
  5
863
330
605
100
AcDbEntity
  8
IMAGE
100
AcDbLine
 10
2.307166043372588
 20
3.676092023570585
 30
0.0
 11
2.421415247551639
 21
3.676092023570585
 31
0.0
  0
LINE
  5
864
330
605
100
AcDbEntity
  8
IMAGE
100
AcDbLine
 10
2.265855140327692
 20
5.3054018719252
 30
0.0
 11
2.113929277904664
 21
4.986640192934846
 31
0.0
  0
LINE
  5
865
330
605
100
AcDbEntity
  8
IMAGE
100
AcDbLine
 10
1.96881388517648
 20
5.272426525822744
 30
0.0
 11
2.037214689502763
 21
4.986640192934856
 31
0.0
  0
LINE
  5
866
330
605
100
AcDbEntity
  8
IMAGE
100
AcDbLine
 10
1.803790965648026
 20
5.327385435993491
 30
0.0
 11
1.803790965648026
 21
4.986640192934846
 31
0.0
  0
LINE
  5
867
330
605
100
AcDbEntity
  8
IMAGE
100
AcDbLine
 10
2.133836804704924
 20
5.316393653959348
 30
0.0
 11
2.054381324931972
 21
4.986640192934846
 31
0.0
  0
LINE
  5
868
330
605
100
AcDbEntity
  8
IMAGE
100
AcDbLine
 10
1.882951674322391
 20
5.274661999528838
 30
0.0
 11
1.956781356872574
 21
4.993186334806303
 31
0.0
  0
LINE
  5
869
330
605
100
AcDbEntity
  8
IMAGE
100
AcDbLine
 10
2.169041694204326
 20
5.265433289210074
 30
0.0
 11
2.142669374286404
 21
4.986640192934846
 31
0.0
  0
LINE
  5
86A
330
605
100
AcDbEntity
  8
IMAGE
100
AcDbLine
 10
1.634367434932154
 20
5.3054018719252
 30
0.0
 11
1.482441572509126
 21
4.986640192934846
 31
0.0
  0
LINE
  5
86B
330
605
100
AcDbEntity
  8
IMAGE
100
AcDbLine
 10
1.693306287435737
 20
5.3054018719252
 30
0.0
 11
1.54138042501271
 21
4.986640192934846
 31
0.0
  0
LINE
  5
86C
330
605
100
AcDbEntity
  8
IMAGE
100
AcDbLine
 10
1.561287951812969
 20
5.316393653959348
 30
0.0
 11
1.481832472040018
 21
4.986640192934846
 31
0.0
  0
LINE
  5
86D
330
605
100
AcDbEntity
  8
IMAGE
100
AcDbLine
 10
1.840653418694697
 20
5.3054018719252
 30
0.0
 11
1.688727556271669
 21
4.986640192934846
 31
0.0
  0
LINE
  5
86E
330
605
100
AcDbEntity
  8
IMAGE
100
AcDbLine
 10
1.543612163543484
 20
5.272426525822744
 30
0.0
 11
1.612012967869769
 21
4.986640192934856
 31
0.0
  0
LINE
  5
86F
330
605
100
AcDbEntity
  8
IMAGE
100
AcDbLine
 10
1.457749952689396
 20
5.274661999528838
 30
0.0
 11
1.531579635239579
 21
4.993186334806303
 31
0.0
  0
LINE
  5
870
330
605
100
AcDbEntity
  8
IMAGE
100
AcDbLine
 10
1.743839972571331
 20
5.265433289210074
 30
0.0
 11
1.717467652653408
 21
4.986640192934846
 31
0.0
  0
LINE
  5
871
330
605
100
AcDbEntity
  8
IMAGE
100
AcDbLine
 10
2.040624525403282
 20
5.3054018719252
 30
0.0
 11
1.888698662980256
 21
4.986640192934846
 31
0.0
  0
LINE
  5
872
330
605
100
AcDbEntity
  8
IMAGE
100
AcDbLine
 10
1.743583270252071
 20
5.272426525822744
 30
0.0
 11
1.811984074578355
 21
4.986640192934856
 31
0.0
  0
LINE
  5
873
330
605
100
AcDbEntity
  8
IMAGE
100
AcDbLine
 10
1.578560350723618
 20
5.327385435993491
 30
0.0
 11
1.578560350723618
 21
4.986640192934846
 31
0.0
  0
LINE
  5
874
330
605
100
AcDbEntity
  8
IMAGE
100
AcDbLine
 10
1.688575630409246
 20
5.294410089891041
 30
0.0
 11
1.662905398482602
 21
4.986640192934856
 31
0.0
  0
LINE
  5
875
330
605
100
AcDbEntity
  8
IMAGE
100
AcDbLine
 10
1.80999477965772
 20
5.270047644369464
 30
0.0
 11
1.836564228229714
 21
4.986640192934846
 31
0.0
  0
LINE
  5
876
330
605
100
AcDbEntity
  8
IMAGE
100
AcDbLine
 10
1.657721059397983
 20
5.274661999528838
 30
0.0
 11
1.731550741948166
 21
4.993186334806303
 31
0.0
  0
LINE
  5
877
330
605
100
AcDbEntity
  8
IMAGE
100
AcDbLine
 10
2.233985285449603
 20
5.270047644369464
 30
0.0
 11
2.260554734021598
 21
4.986640192934846
 31
0.0
  0
LINE
  5
878
330
605
100
AcDbEntity
  8
IMAGE
100
AcDbLine
 10
2.117054759612312
 20
5.272426525822744
 30
0.0
 11
2.185455563938595
 21
4.986640192934856
 31
0.0
  0
LINE
  5
879
330
605
100
AcDbEntity
  8
IMAGE
100
AcDbLine
 10
1.952031840083858
 20
5.327385435993491
 30
0.0
 11
1.952031840083858
 21
4.986640192934846
 31
0.0
  0
LINE
  5
87A
330
605
100
AcDbEntity
  8
IMAGE
100
AcDbLine
 10
1.809011976492535
 20
5.228459397686146
 30
0.0
 11
2.004500665780086
 21
4.986640192934846
 31
0.0
  0
LINE
  5
87B
330
605
100
AcDbEntity
  8
IMAGE
100
AcDbLine
 10
2.282077679140757
 20
5.316393653959348
 30
0.0
 11
2.202622199367806
 21
4.986640192934846
 31
0.0
  0
LINE
  5
87C
330
605
100
AcDbEntity
  8
IMAGE
100
AcDbLine
 10
2.183466269017961
 20
5.270047644369464
 30
0.0
 11
2.210035717589956
 21
4.986640192934846
 31
0.0
  0
LINE
  5
87D
330
605
100
AcDbEntity
  8
IMAGE
100
AcDbLine
 10
2.031192548758224
 20
5.274661999528838
 30
0.0
 11
2.105022231308407
 21
4.993186334806303
 31
0.0
  0
LINE
  5
87E
330
605
100
AcDbEntity
  8
IMAGE
100
AcDbLine
 10
1.846618342382783
 20
5.288505065007003
 30
0.0
 11
1.883431131659878
 21
4.986640192934846
 31
0.0
  0
LINE
  5
87F
330
605
100
AcDbEntity
  8
IMAGE
100
AcDbLine
 10
2.300293063634005
 20
4.986915733056845
 30
0.0
 11
1.451296235093745
 21
4.986915733056845
 31
0.0
  0
LINE
  5
880
330
605
100
AcDbEntity
  8
IMAGE
100
AcDbLine
 10
2.54253743146927
 20
4.986915733056845
 30
0.0
 11
3.398047883364531
 21
4.986915733056845
 31
0.0
  0
INSERT
  5
881
330
605
100
AcDbEntity
  8
IMAGE
  6
Continuous
100
AcDbBlockReference
  2
*X1
 10
0.0
 20
0.0000000000000009
 30
0.0
1001
ACAD
1000
HATCH
1002
{
1070
    19
1000
EARTH
1040
0.65
1040
0.7853981633974483
1000
R14_HATCH_DATA
1000
3D0
1011
0.9999999999999998
1021
0.0000000000000009
1031
0.0
1011
0.0
1021
1.0
1031
0.0
1011
0.0
1021
0.0000000000000009
1031
1.0
1040
0.0
1010
0.0
1020
0.0
1030
1.0
1000
EARTH
1070
     0
1070
     0
1071
        2
1071
        1
1071
       17
1070
     1
1040
2.542537431469269
1040
4.986915733056844
1040
2.588169510061491
1040
4.900158447832122
1070
     1
1040
2.588169510061491
1040
4.900158447832122
1040
2.607323715890327
1040
4.877624088033491
1070
     1
1040
2.607323715890327
1040
4.877624088033491
1040
2.607323715890327
1040
4.780726340899385
1070
     1
1040
2.607323715890327
1040
4.780726340899385
1040
2.570142022222588
1040
4.780726340899385
1070
     1
1040
2.570142022222588
1040
4.780726340899385
1040
2.569686601956263
1040
4.730124089085503
1070
     1
1040
2.569686601956263
1040
4.730124089085503
1040
2.583732025832088
1040
4.713968917496204
1070
     1
1040
2.583732025832088
1040
4.713968917496204
1040
2.627859943676665
1040
4.711763310346169
1070
     1
1040
2.627859943676665
1040
4.711763310346169
1040
2.664633203797365
1040
4.738230485796373
1070
     1
1040
2.664633203797365
1040
4.738230485796373
1040
2.708761121641942
1040
4.755140079307638
1070
     1
1040
2.708761121641942
1040
4.755140079307638
1040
2.821287327819895
1040
4.78087204624393
1070
     1
1040
2.821287327819895
1040
4.78087204624393
1040
2.914691423915766
1040
4.777196040457772
1070
     1
1040
2.914691423915766
1040
4.777196040457772
1040
2.991179835745406
1040
4.790429628182875
1070
     1
1040
2.991179835745406
1040
4.790429628182875
1040
3.122092657734363
1040
4.74484728885478
1070
     1
1040
3.122092657734363
1040
4.74484728885478
1040
3.236089795457094
1040
4.765432869760497
1070
     1
1040
3.236089795457094
1040
4.765432869760497
1040
3.318889926838558
1040
4.889687559405414
1070
     1
1040
3.318889926838558
1040
4.889687559405414
1040
3.391534260009528
1040
4.986915733056844
1070
     1
1040
3.391534260009528
1040
4.986915733056844
1040
2.542537431469269
1040
4.986915733056844
1071
        0
1071
        1
1071
       17
1070
     1
1040
2.300293063634005
1040
4.986915733056844
1040
2.254660985041782
1040
4.900158447832122
1070
     1
1040
2.254660985041782
1040
4.900158447832122
1040
2.235506779212947
1040
4.877624088033491
1070
     1
1040
2.235506779212947
1040
4.877624088033491
1040
2.235506779212947
1040
4.780726340899385
1070
     1
1040
2.235506779212947
1040
4.780726340899385
1040
2.272688472880685
1040
4.780726340899385
1070
     1
1040
2.272688472880685
1040
4.780726340899385
1040
2.27314389314701
1040
4.730124089085503
1070
     1
1040
2.27314389314701
1040
4.730124089085503
1040
2.259098469271185
1040
4.713968917496204
1070
     1
1040
2.259098469271185
1040
4.713968917496204
1040
2.214970551426608
1040
4.711763310346169
1070
     1
1040
2.214970551426608
1040
4.711763310346169
1040
2.178197291305908
1040
4.738230485796373
1070
     1
1040
2.178197291305908
1040
4.738230485796373
1040
2.134069373461331
1040
4.755140079307638
1070
     1
1040
2.134069373461331
1040
4.755140079307638
1040
2.021543167283378
1040
4.78087204624393
1070
     1
1040
2.021543167283378
1040
4.78087204624393
1040
1.928139071187507
1040
4.777196040457772
1070
     1
1040
1.928139071187507
1040
4.777196040457772
1040
1.851650659357867
1040
4.790429628182875
1070
     1
1040
1.851650659357867
1040
4.790429628182875
1040
1.72073783736891
1040
4.74484728885478
1070
     1
1040
1.72073783736891
1040
4.74484728885478
1040
1.606740699646179
1040
4.765432869760497
1070
     1
1040
1.606740699646179
1040
4.765432869760497
1040
1.523940568264715
1040
4.889687559405414
1070
     1
1040
1.523940568264715
1040
4.889687559405414
1040
1.451296235093745
1040
4.986915733056844
1070
     1
1040
1.451296235093745
1040
4.986915733056844
1040
2.300293063634005
1040
4.986915733056844
1071
        0
1070
     0
1070
     1
1040
0.7853981633974483
1040
0.65
1070
     0
1070
     6
1040
0.7853981633974483
1040
-0.0000000000000013
1040
0.4168856562746388
1040
0.0
1040
0.2298097038856279
1070
     2
1040
0.1625
1040
-0.1625
1040
0.7853981633974483
1040
-0.0430893194785566
1040
0.4599749757531942
1040
0.0
1040
0.2298097038856279
1070
     2
1040
0.1625
1040
-0.1625
1040
0.7853981633974483
1040
-0.0861786389571118
1040
0.5030642952317493
1040
0.0
1040
0.2298097038856279
1070
     2
1040
0.1625
1040
-0.1625
1040
2.356194490192344
1040
-0.0861786389571118
1040
0.5317905082174529
1040
-0.2298097038856279
1040
0.0
1070
     2
1040
0.1625
1040
-0.1625
1040
2.356194490192344
1040
-0.0430893194785566
1040
0.5748798276960081
1040
-0.2298097038856279
1040
0.0
1070
     2
1040
0.1625
1040
-0.1625
1040
2.356194490192344
1040
-0.0000000000000013
1040
0.6179691471745632
1040
-0.2298097038856279
1040
0.0
1070
     2
1040
0.1625
1040
-0.1625
1071
        1
1040
-0.0000000000000013
1040
0.4168856562746388
1040
0.0
1002
}
  0
LINE
  5
882
330
605
100
AcDbEntity
  8
IMAGE
100
AcDbLine
 10
3.277509398810945
 20
5.327385435993491
 30
0.0
 11
3.277509398810945
 21
4.986640192934846
 31
0.0
  0
LINE
  5
883
330
605
100
AcDbEntity
  8
IMAGE
100
AcDbLine
 10
3.314371851857616
 20
5.3054018719252
 30
0.0
 11
3.162445989434588
 21
4.986640192934846
 31
0.0
  0
LINE
  5
884
330
605
100
AcDbEntity
  8
IMAGE
100
AcDbLine
 10
3.21730170341499
 20
5.272426525822744
 30
0.0
 11
3.285702507741274
 21
4.986640192934856
 31
0.0
  0
LINE
  5
885
330
605
100
AcDbEntity
  8
IMAGE
100
AcDbLine
 10
3.283713212820638
 20
5.270047644369464
 30
0.0
 11
3.310282661392633
 21
4.986640192934846
 31
0.0
  0
LINE
  5
886
330
605
100
AcDbEntity
  8
IMAGE
100
AcDbLine
 10
3.320336775545702
 20
5.288505065007003
 30
0.0
 11
3.357149564822797
 21
4.986640192934846
 31
0.0
  0
LEADER
  5
888
330
605
100
AcDbEntity
  8
TEXT_LEADERS
100
AcDbLeader
  3
STANDARD
 76
     3
 10
3.3773667274765
 20
4.967953712852301
 30
0.0
 10
5.064399615740382
 20
5.271166639974438
 30
0.0
 10
5.387577042906911
 20
5.271166639974438
 30
0.0
1001
ACAD
1000
DSTYLE
1002
{
1070
   147
1040
0.09
1070
    77
1070
     0
1002
}
  0
LEADER
  5
889
330
605
100
AcDbEntity
  8
TEXT_LEADERS
100
AcDbLeader
  3
STANDARD
 76
     3
 10
2.567169831669684
 20
4.206102834003755
 30
0.0
 10
5.064399615740382
 20
4.929082665353007
 30
0.0
 10
5.389971407787695
 20
4.929082665353007
 30
0.0
1001
ACAD
1000
DSTYLE
1002
{
1070
   147
1040
0.09
1070
    77
1070
     0
1002
}
  0
TEXT
  5
892
330
605
100
AcDbEntity
  8
TEXT-RB-SA-BUBBLES
100
AcDbText
 10
5.444213180777777
 20
4.161899280671853
 30
0.0
 40
0.125
  1
PVC LATERAL PIPE
  7
ROMANS
100
AcDbText
  0
TEXT
  5
893
330
605
100
AcDbEntity
  8
TEXT-RB-SA-BUBBLES
100
AcDbText
 10
5.44421318
 20
3.81189928
 30
0.0
 40
0.125
  1
SWING ASSEMBLY:
  7
ROMANS
100
AcDbText
  0
TEXT
  5
894
330
605
100
AcDbEntity
  8
TEXT-RB-SA-BUBBLES
100
AcDbText
 10
5.44421318
 20
3.28689928
 30
0.0
 40
0.125
  1
PVC SCH 40 TEE OR ELL
  7
ROMANS
100
AcDbText
  0
TEXT
  5
8A2
330
605
100
AcDbEntity
  8
OPTION-NOZ-ROTARY
100
AcDbText
 10
5.43942406907183
 20
4.516133253964272
 30
0.0
 40
0.125
  1
  WITH RAIN BIRD ROTARY NOZZLE
  7
ROMANS
100
AcDbText
  0
TEXT
  5
8A3
330
605
100
AcDbEntity
  8
INSTRUCT-OPTION
100
AcDbText
 10
11.62539625837002
 20
4.178763442337212
 30
0.0
 40
0.125
  1
  OPTION-NOZ-ROTARY
  7
ROMANS
100
AcDbText
  0
VIEWPORT
  5
644
330
601
100
AcDbEntity
 67
     1
  8
0
100
AcDbViewport
 10
5.171666783610666
 20
4.051666466269906
 30
0.0
 40
14.73415010066177
 41
8.98947289774737
 68
     1
 69
     1
 12
5.171666783610666
 22
4.051666466269906
 13
0.0
 23
0.0
 14
0.5
 24
0.5
 15
0.5
 25
0.5
 16
0.0
 26
0.0
 36
1.0
 17
0.0
 27
0.0
 37
0.0
 42
50.0
 43
0.0
 44
0.0
 45
8.98947289774737
 50
0.0
 51
0.0
 72
  5000
 90
    32800
  1

281
     0
 71
     1
 74
     0
110
0.0
120
0.0
130
0.0
111
1.0
121
0.0
131
0.0
112
0.0
122
1.0
132
0.0
 79
     0
146
0.0
  0
ENDSEC
  0
SECTION
  2
OBJECTS
  0
DICTIONARY
  5
5F3
330
0
100
AcDbDictionary
281
     1
  3
ACAD_GROUP
350
5F4
  3
ACAD_LAYOUT
350
600
  3
ACAD_MLINESTYLE
350
5FD
  3
ACAD_PLOTSETTINGS
350
5FF
  3
ACAD_PLOTSTYLENAME
350
5F5
  3
AcDbVariableDictionary
350
637
  0
DICTIONARY
  5
646
330
5E9
100
AcDbDictionary
280
     1
281
     1
  3
ACAD_LAYERFILTERS
360
67D
  3
ACAD_LAYERSTATES
360
647
  0
DICTIONARY
  5
5F4
102
{ACAD_REACTORS
330
5F3
102
}
330
5F3
100
AcDbDictionary
281
     1
  0
DICTIONARY
  5
600
102
{ACAD_REACTORS
330
5F3
102
}
330
5F3
100
AcDbDictionary
281
     1
  3
Layout1
350
604
  3
Model
350
608
  0
DICTIONARY
  5
5FD
102
{ACAD_REACTORS
330
5F3
102
}
330
5F3
100
AcDbDictionary
281
     1
  3
Standard
350
5FE
  0
DICTIONARY
  5
5FF
102
{ACAD_REACTORS
330
5F3
102
}
330
5F3
100
AcDbDictionary
281
     1
  0
ACDBDICTIONARYWDFLT
  5
5F5
102
{ACAD_REACTORS
330
5F3
102
}
330
5F3
100
AcDbDictionary
281
     1
  3
Normal
350
5F6
100
AcDbDictionaryWithDefault
340
5F6
  0
DICTIONARY
  5
637
102
{ACAD_REACTORS
330
5F3
102
}
330
5F3
100
AcDbDictionary
281
     1
  3
DIMASSOC
350
63A
  3
HIDETEXT
350
639
  3
SORTENTS
350
638
  0
DICTIONARY
  5
67D
102
{ACAD_REACTORS
330
646
102
}
330
646
100
AcDbDictionary
280
     1
281
     1
  0
DICTIONARY
  5
647
102
{ACAD_REACTORS
330
646
102
}
330
646
100
AcDbDictionary
281
     1
  0
LAYOUT
  5
604
102
{ACAD_REACTORS
330
600
102
}
330
600
100
AcDbPlotSettings
  1

  2
S:\AutoCAD 2002\Plotters\1055ColorDraftShaded.pc3
  4
User262
  6

 40
4.995333194732666
 41
8.297332763671875
 42
4.995330810546875
 43
8.297332763671875
 44
215.8153228759765
 45
279.3153381347656
 46
0.0
 47
0.0
 48
0.0
 49
0.0
140
0.0
141
0.0
142
1.0
143
1.0
 70
   688
 72
     0
 73
     1
 74
     5
  7
TRexLJ5Shaded2.ctb
 75
    16
147
1.0
148
0.0
149
0.0
100
AcDbLayout
  1
Layout1
 70
     1
 71
     1
 10
0.0
 20
0.0
 11
12.0
 21
9.0
 12
0.0
 22
0.0
 32
0.0
 14
1.000000000000000E+20
 24
1.000000000000000E+20
 34
1.000000000000000E+20
 15
-1.000000000000000E+20
 25
-1.000000000000000E+20
 35
-1.000000000000000E+20
146
0.0
 13
0.0
 23
0.0
 33
0.0
 16
1.0
 26
0.0
 36
0.0
 17
0.0
 27
1.0
 37
0.0
 76
     0
330
601
331
644
  0
LAYOUT
  5
608
102
{ACAD_REACTORS
330
600
102
}
330
600
100
AcDbPlotSettings
  1

  2
8500ColorShaded.pc3
  4
11x17
  6

 40
3.174999952316284
 41
3.174999952316284
 42
3.17498779296875
 43
3.17498779296875
 44
279.3999938964843
 45
431.8000183105469
 46
1.778
 47
0.0
 48
180360.052434
 49
80033.77936199999
140
180369.157473
141
80037.61796
142
1.0
143
0.9846057032249984
 70
 28340
 72
     0
 73
     1
 74
     1
  7
8500ColorShaded.ctb
 75
     0
147
1.015634986395649
148
-7.833020874089161
149
52.58468627692497
100
AcDbLayout
  1
Model
 70
     1
 71
     0
 10
0.0
 20
0.0
 11
12.0
 21
9.0
 12
0.0
 22
0.0
 32
0.0
 14
0.0
 24
0.0
 34
0.0
 15
0.0
 25
0.0
 35
0.0
146
0.0
 13
0.0
 23
0.0
 33
0.0
 16
1.0
 26
0.0
 36
0.0
 17
0.0
 27
1.0
 37
0.0
 76
     0
330
605
  0
MLINESTYLE
  5
5FE
102
{ACAD_REACTORS
330
5FD
102
}
330
5FD
100
AcDbMlineStyle
  2
STANDARD
 70
     0
  3

 62
   256
 51
90.0
 52
90.0
 71
     2
 49
0.5
 62
   256
  6
BYLAYER
 49
-0.5
 62
   256
  6
BYLAYER
  0
ACDBPLACEHOLDER
  5
5F6
102
{ACAD_REACTORS
330
5F5
102
}
330
5F5
  0
DICTIONARYVAR
  5
63A
102
{ACAD_REACTORS
330
637
102
}
330
637
100
DictionaryVariables
280
     0
  1
1
  0
DICTIONARYVAR
  5
639
102
{ACAD_REACTORS
330
637
102
}
330
637
100
DictionaryVariables
280
     0
  1
1
  0
DICTIONARYVAR
  5
638
102
{ACAD_REACTORS
330
637
102
}
330
637
100
DictionaryVariables
280
     0
  1
1
  0
ENDSEC
  0
EOF
